  0
SECTION
  2
HEADER
  9
$ACADVER
  1
AC1024
  9
$DWGCODEPAGE
  3
ANSI_1252
  9
$EXTMAX
 10
297.0
 20
210.0
 30
0.0
  9
$EXTMIN
 10
0.0
 20
0.0
 30
0.0
  9
$LIMMIN
 10
0.0
 20
0.0
  9
$LIMMAX
 10
297.0
 20
210.0
  9
$VIEWCTR
 10
148.5
 20
105.0
  9
$VIEWSIZE
 40
210.0
  9
$CLAYER
  8
0
  9
$LTSCALE
 40
16.335
  9
$CELTYPE
  6
BYLAYER
  9
$DIMSCALE
 40
1.0
  9
$DIMASZ
 40
3.0
  9
$DIMEXO
 40
0.5
  9
$DIMDLI
 40
11.286
  9
$DIMEXE
 40
1.5
  9
$DIMCEN
 40
2.673
  9
$DIMLFAC
 40
1.0
  9
$DIMBLK
  1
_FILLED
  9
$DIMALT
 70
0
  9
$DIMALTF
 40
0.0393700787
  9
$DIMTXT
 40
3.0
  9
$DIMTOL
 70
1
  9
$DIMLIM
 70
0
  9
$DIMTFAC
 40
1.0
  9
$DIMTP
 40
0.01
  9
$DIMTM
 40
0.01
  9
$DIMGAP
 40
0.625
  9
$DIMDSEP
 70
44
  9
$AUNITS
 70
0
  9
$PDMODE
 70
3
  9
$PDSIZE
 40
3.0
  9
$HANDSEED
  5
563
  9
$TILEMODE
 70
1
  9
$MEASUREMENT
 70
1
  9
$INSUNITS
 70
4
  0
ENDSEC
  0
SECTION
  2
CLASSES
  0
CLASS
  1
ACDBDICTIONARYWDFLT
  2
AcDbDictionaryWithDefault
  3
AutoCAD 2000
 90
0
 91
1
280
0
281
0
  0
CLASS
  1
ACDBPLACEHOLDER
  2
AcDbPlaceHolder
  3
AutoCAD 2000
 90
0
 91
1
280
0
281
0
  0
CLASS
  1
LAYOUT
  2
AcDbLayout
  3
AutoCAD 2000
 90
0
 91
0
280
0
281
0
  0
ENDSEC
  0
SECTION
  2
TABLES
  0
TABLE
  2
VPORT
  5
8
100
AcDbSymbolTable
 70
2
  0
VPORT
  5
1F4
100
AcDbSymbolTableRecord
100
AcDbViewportTableRecord
  2
*ACTIVE
 70
0
 10
0.0
 20
0.0
 11
1.0
 21
1.0
 12
148.5
 22
105.0
 13
0.0
 23
0.0
 14
1.0
 24
1.0
 15
0.0
 25
0.0
 16
0.0
 26
0.0
 36
1.0
 17
0.0
 27
0.0
 37
0.0
 40
210.0
 41
1.4142857143
 42
50.0
 43
0.0
 44
0.0
 50
0.0
 51
0.0
 71
0
 72
100
 73
1
 74
1
 75
0
 76
0
 77
0
 78
0
  0
ENDTAB
  0
TABLE
  2
LTYPE
  5
5
100
AcDbSymbolTable
 70
6
  0
LTYPE
  5
14
100
AcDbSymbolTableRecord
100
AcDbLinetypeTableRecord
  2
BYBLOCK
 70
0
  3

 72
65
 73
0
 40
0.0
  0
LTYPE
  5
15
100
AcDbSymbolTableRecord
100
AcDbLinetypeTableRecord
  2
BYLAYER
 70
0
  3

 72
65
 73
0
 40
0.0
  0
LTYPE
  5
16
100
AcDbSymbolTableRecord
100
AcDbLinetypeTableRecord
  2
CONTINUOUS
 70
64
  3
Solid line
 72
65
 73
0
 40
0.0
  0
LTYPE
  5
1F5
100
AcDbSymbolTableRecord
100
AcDbLinetypeTableRecord
  2
CENTER
 70
64
  3
____ _ ____ _ ____ _ ____ _ ____ _ ____ _ ____
 72
65
 73
4
 40
0.6
 49
0.375
 74
0
 49
-0.075
 74
0
 49
0.075
 74
0
 49
-0.075
 74
0
  0
LTYPE
  5
1F6
100
AcDbSymbolTableRecord
100
AcDbLinetypeTableRecord
  2
HIDDEN
 70
64
  3
- - - - - - - - - - - - - - - - - - - -
 72
65
 73
2
 40
0.2
 49
0.1
 74
0
 49
-0.1
 74
0
  0
LTYPE
  5
1F7
100
AcDbSymbolTableRecord
100
AcDbLinetypeTableRecord
  2
PHANTOM
 70
64
  3
_____ _ _ _____ _ _ _____ _ _ _____
 72
65
 73
6
 40
0.8
 49
0.45
 74
0
 49
-0.05
 74
0
 49
0.1
 74
0
 49
-0.05
 74
0
 49
0.1
 74
0
 49
-0.05
 74
0
  0
LTYPE
  5
1F8
100
AcDbSymbolTableRecord
100
AcDbLinetypeTableRecord
  2
DOT
 70
64
  3
. . . . . . . . . . . . . . . . . . . .
 72
65
 73
2
 40
0.2
 49
0.1
 74
0
 49
-0.1
 74
0
  0
LTYPE
  5
1F9
100
AcDbSymbolTableRecord
100
AcDbLinetypeTableRecord
  2
DASHED
 70
64
  3
- - - - - - - - - - - - - - - - - - - -
 72
65
 73
2
 40
0.2
 49
0.1
 74
0
 49
-0.1
 74
0
  0
ENDTAB
  0
TABLE
  2
LAYER
  5
2
100
AcDbSymbolTable
 70
36
  0
LAYER
  5
10
100
AcDbSymbolTableRecord
100
AcDbLayerTableRecord
  2
0
 70
0
 62
7
  6
CONTINUOUS
370
-3
390
F
  0
LAYER
  5
1FA
100
AcDbSymbolTableRecord
100
AcDbLayerTableRecord
  2
DEFAULT_1
 70
0
 62
7
  6
CENTER
370
-3
390
F
  0
LAYER
  5
1FB
100
AcDbSymbolTableRecord
100
AcDbLayerTableRecord
  2
DEFAULT_2
 70
0
 62
7
  6
HIDDEN
370
-3
390
F
  0
LAYER
  5
1FC
100
AcDbSymbolTableRecord
100
AcDbLayerTableRecord
  2
DEFAULT_3
 70
0
 62
7
  6
PHANTOM
370
-3
390
F
  0
LAYER
  5
1FD
100
AcDbSymbolTableRecord
100
AcDbLayerTableRecord
  2
ASSI
 70
0
 62
7
  6
CONTINUOUS
370
-3
390
F
  0
LAYER
  5
1FE
100
AcDbSymbolTableRecord
100
AcDbLayerTableRecord
  2
COORDINATE
 70
0
 62
7
  6
CONTINUOUS
370
-3
390
F
  0
LAYER
  5
1FF
100
AcDbSymbolTableRecord
100
AcDbLayerTableRecord
  2
COPY_PUBLISH
 70
0
 62
7
  6
CONTINUOUS
370
-3
390
F
  0
LAYER
  5
200
100
AcDbSymbolTableRecord
100
AcDbLayerTableRecord
  2
COSMETIC
 70
0
 62
7
  6
CONTINUOUS
370
-3
390
F
  0
LAYER
  5
201
100
AcDbSymbolTableRecord
100
AcDbLayerTableRecord
  2
COSMETICI
 70
0
 62
7
  6
CONTINUOUS
370
-3
390
F
  0
LAYER
  5
202
100
AcDbSymbolTableRecord
100
AcDbLayerTableRecord
  2
CURVE
 70
0
 62
7
  6
CONTINUOUS
370
-3
390
F
  0
LAYER
  5
203
100
AcDbSymbolTableRecord
100
AcDbLayerTableRecord
  2
IMPORT_IGES
 70
0
 62
7
  6
CONTINUOUS
370
-3
390
F
  0
LAYER
  5
204
100
AcDbSymbolTableRecord
100
AcDbLayerTableRecord
  2
INTF_1
 70
0
 62
7
  6
CONTINUOUS
370
-3
390
F
  0
LAYER
  5
205
100
AcDbSymbolTableRecord
100
AcDbLayerTableRecord
  2
INTF_MAGENTA
 70
0
 62
7
  6
CONTINUOUS
370
-3
390
F
  0
LAYER
  5
206
100
AcDbSymbolTableRecord
100
AcDbLayerTableRecord
  2
NOTE
 70
0
 62
7
  6
CONTINUOUS
370
-3
390
F
  0
LAYER
  5
207
100
AcDbSymbolTableRecord
100
AcDbLayerTableRecord
  2
PIANI
 70
0
 62
7
  6
CONTINUOUS
370
-3
390
F
  0
LAYER
  5
208
100
AcDbSymbolTableRecord
100
AcDbLayerTableRecord
  2
PUNTI
 70
0
 62
7
  6
CONTINUOUS
370
-3
390
F
  0
LAYER
  5
209
100
AcDbSymbolTableRecord
100
AcDbLayerTableRecord
  2
RACCORDO
 70
0
 62
7
  6
CONTINUOUS
370
-3
390
F
  0
LAYER
  5
20A
100
AcDbSymbolTableRecord
100
AcDbLayerTableRecord
  2
SIMBOLI
 70
0
 62
7
  6
CONTINUOUS
370
-3
390
F
  0
LAYER
  5
20B
100
AcDbSymbolTableRecord
100
AcDbLayerTableRecord
  2
SNAPLINE
 70
0
 62
7
  6
CONTINUOUS
370
-3
390
F
  0
LAYER
  5
20C
100
AcDbSymbolTableRecord
100
AcDbLayerTableRecord
  2
SUPERFICI
 70
0
 62
7
  6
CONTINUOUS
370
-3
390
F
  0
LAYER
  5
20D
100
AcDbSymbolTableRecord
100
AcDbLayerTableRecord
  2
TRASH
 70
0
 62
7
  6
CONTINUOUS
370
-3
390
F
  0
ENDTAB
  0
TABLE
  2
STYLE
  5
3
100
AcDbSymbolTable
 70
1
  0
STYLE
  5
11
100
AcDbSymbolTableRecord
100
AcDbTextStyleTableRecord
  2
STANDARD
 70
0
 40
0.0
 41
0.8
 50
0.0
 71
0
 42
0.2
  3
txt
  4

  0
STYLE
  5
20E
100
AcDbSymbolTableRecord
100
AcDbTextStyleTableRecord
  2
TEXTSTYLE_1
 70
0
 40
0.0
 41
0.8
 50
0.0
 71
0
 42
0.2
  3
gdt
  4

  0
ENDTAB
  0
TABLE
  2
VIEW
  5
6
100
AcDbSymbolTable
 70
0
  0
ENDTAB
  0
TABLE
  2
UCS
  5
7
100
AcDbSymbolTable
 70
0
  0
ENDTAB
  0
TABLE
  2
APPID
  5
9
100
AcDbSymbolTable
 70
1
  0
APPID
  5
20F
100
AcDbSymbolTableRecord
100
AcDbRegAppTableRecord
  2
ACAD
 70
0
  0
ENDTAB
  0
TABLE
  2
BLOCK_RECORD
  5
1
100
AcDbSymbolTable
 70
0
  0
BLOCK_RECORD
  5
210
100
AcDbSymbolTableRecord
100
AcDbBlockTableRecord
  2
*Model_Space
  0
BLOCK_RECORD
  5
211
100
AcDbSymbolTableRecord
100
AcDbBlockTableRecord
  2
*Paper_Space
  0
BLOCK_RECORD
  5
212
100
AcDbSymbolTableRecord
100
AcDbBlockTableRecord
  2
_FILLED
  0
ENDTAB
  0
TABLE
  2
DIMSTYLE
  5
A
100
AcDbSymbolTable
 70
1
100
AcDbDimStyleTable
 71
0
  0
DIMSTYLE
105
213
100
AcDbSymbolTableRecord
100
AcDbDimStyleTableRecord
  2
STANDARD
 70
0
  3

  4

 40
1.0
 41
3.0
 42
0.5
 43
0.38
 44
1.5
 45
0.0
 46
0.0
 47
0.01
 48
0.01
140
3.0
141
0.09
142
0.0
143
25.4
144
1.0
145
0.0
146
1.0
147
0.625
 71
1
 72
0
 73
0
 74
0
 75
0
 76
0
 77
1
 78
8
 79
2
170
0
171
1
172
0
173
0
174
0
175
0
176
0
177
0
178
0
270
2
179
2
271
2
272
2
273
2
274
2
275
0
280
0
281
0
282
0
283
1
284
8
285
0
286
0
287
3
288
0
340
11
278
44
341
212
342
212
343
212
344
212
  0
ENDTAB
  0
ENDSEC
  0
SECTION
  2
BLOCKS
  0
BLOCK
  5
20
100
AcDbEntity
  8
0
100
AcDbBlockBegin
  2
*Model_Space
 70
0
 10
0.0
 20
0.0
 30
0.0
  3
*Model_Space
  1

  0
ENDBLK
  5
21
100
AcDbEntity
  8
0
100
AcDbBlockEnd
  0
BLOCK
  5
1C
100
AcDbEntity
  8
0
100
AcDbBlockBegin
  2
*Paper_Space
 70
0
 10
0.0
 20
0.0
 30
0.0
  3
*Paper_Space
  1

  0
ENDBLK
  5
1D
100
AcDbEntity
  8
0
100
AcDbBlockEnd
  0
BLOCK
  5
214
100
AcDbEntity
  8
0
100
AcDbBlockBegin
  2
_FILLED
 70
64
 10
0.0
 20
0.0
  3
_FILLED
  1

  0
SOLID
  5
215
100
AcDbEntity
  8
0
  6
BYBLOCK
 62
0
100
AcDbTrace
 10
0.0
 20
0.0
 11
-1.0
 21
0.3166666667
 12
-1.0
 22
-0.3166666667
 13
-1.0
 23
-0.3166666667
  0
ENDBLK
  5
216
100
AcDbEntity
  8
0
  6
BYBLOCK
 62
0
100
AcDbBlockEnd
  0
ENDSEC
  0
SECTION
  2
ENTITIES
  0
LWPOLYLINE
  5
217
100
AcDbEntity
  8
0
100
AcDbPolyline
 62
250
  6
CONTINUOUS
 90
5
 70
0
 10
-34.8232529922
 20
34.5296684289
 10
-34.90680902
 20
34.4548196193
 10
-34.9703571378
 20
34.350054527
 10
-35.011303437
 20
34.2152582105
 10
-35.0244083604
 20
34.0536954812
  0
LWPOLYLINE
  5
218
100
AcDbEntity
  8
0
100
AcDbPolyline
 62
7
  6
CONTINUOUS
 90
7
 70
0
 10
-34.679582113
 20
34.9959449937
 10
-34.8215902474
 20
34.8799317801
 10
-34.9342495619
 20
34.7386655093
 10
-35.0137958498
 20
34.579301596
 10
-35.0589730659
 20
34.4078414069
 10
-35.0757764099
 20
34.2332677135
 10
-35.0781366853
 20
34.115644596
  0
LINE
  5
219
100
AcDbEntity
  8
0
100
AcDbLine
 62
250
  6
CONTINUOUS
 10
-34.1682500494
 20
34.975411391
 11
-34.1226543611
 21
35.0120356584
  0
LINE
  5
21A
100
AcDbEntity
  8
0
100
AcDbLine
 62
7
  6
CONTINUOUS
 10
-33.2193946516
 20
35.9762740507
 11
-34.687144795
 21
34.990978707
  0
LINE
  5
21B
100
AcDbEntity
  8
0
100
AcDbLine
 62
250
  6
CONTINUOUS
 10
-34.687144795
 20
34.990978707
 11
-34.6780523952
 21
34.9969277344
  0
LINE
  5
21C
100
AcDbEntity
  8
0
100
AcDbLine
 62
250
  6
CONTINUOUS
 10
-33.9737078536
 20
34.9392946683
 11
-32.4439416303
 21
35.9200981444
  0
LWPOLYLINE
  5
21D
100
AcDbEntity
  8
0
100
AcDbPolyline
 62
250
  6
CONTINUOUS
 90
5
 70
0
 10
-34.6780523952
 20
34.9969277344
 10
-34.5521358237
 20
35.0528295873
 10
-34.4205593413
 20
35.0716270946
 10
-34.2762396023
 20
35.0582078101
 10
-34.1226551509
 20
35.0120351444
  0
LWPOLYLINE
  5
21E
100
AcDbEntity
  8
0
100
AcDbPolyline
 62
250
  6
CONTINUOUS
 90
9
 70
0
 10
-32.6816987901
 20
27.6244382276
 10
-32.7176197085
 20
27.5329979953
 10
-32.7504525781
 20
27.4373207056
 10
-32.7801729687
 20
27.3374136228
 10
-32.8067437975
 20
27.2333230906
 10
-32.8301156792
 20
27.1251597026
 10
-32.8502548825
 20
27.013022087
 10
-32.8671377393
 20
26.8970166033
 10
-32.8807445845
 20
26.7772631737
  0
LWPOLYLINE
  5
21F
100
AcDbEntity
  8
0
100
AcDbPolyline
 62
7
  6
CONTINUOUS
 90
4
 70
0
 10
32.8680075395
 20
-36.0562715397
 10
32.9884405539
 20
-36.0337936785
 10
33.1145614879
 20
-35.9903251284
 10
33.153039202
 20
-35.9725653804
  0
LWPOLYLINE
  5
220
100
AcDbEntity
  8
0
100
AcDbPolyline
 62
250
  6
CONTINUOUS
 90
10
 70
0
 10
-34.0055598098
 20
30.6120458536
 10
-34.0314166981
 20
30.4898395934
 10
-34.0539528812
 20
30.3636327817
 10
-34.073453515
 20
30.2336512251
 10
-34.0901903012
 20
30.1002792286
 10
-34.1044805889
 20
29.9638666665
 10
-34.1166693115
 20
29.8247709515
 10
-34.1270747538
 20
29.6833075073
 10
-34.1357978179
 20
29.5395505484
 10
-34.1429031301
 20
29.3935364772
  0
LINE
  5
221
100
AcDbEntity
  8
0
100
AcDbLine
 62
250
  6
CONTINUOUS
 10
-30.2611409805
 20
24.6999577966
 11
-30.3055031859
 21
24.5874154358
  0
LWPOLYLINE
  5
222
100
AcDbEntity
  8
0
100
AcDbPolyline
 62
250
  6
CONTINUOUS
 90
10
 70
0
 10
-31.8648286595
 20
28.3973957192
 10
-31.9816207594
 20
28.3616460853
 10
-32.0929753863
 20
28.313430823
 10
-32.1980513881
 20
28.2523919232
 10
-32.2957822419
 20
28.1789423411
 10
-32.3863562057
 20
28.0933724511
 10
-32.4705155462
 20
27.9950617079
 10
-32.5481554648
 20
27.8838103126
 10
-32.6186625164
 20
27.760050096
 10
-32.6816994686
 20
27.6244409762
  0
LINE
  5
223
100
AcDbEntity
  8
0
100
AcDbLine
 62
250
  6
CONTINUOUS
 10
-35.0240290527
 20
3.867179742
 11
-35.0124348385
 21
3.6963594891
  0
LWPOLYLINE
  5
224
100
AcDbEntity
  8
0
100
AcDbPolyline
 62
7
  6
CONTINUOUS
 90
3
 70
0
 10
-35.0784404988
 20
4.0124163864
 10
-35.0759753859
 20
3.9190390891
 10
-35.0595867769
 20
3.722235424
  0
LWPOLYLINE
  5
225
100
AcDbEntity
  8
0
100
AcDbPolyline
 62
250
  6
CONTINUOUS
 90
10
 70
0
 10
-34.1430137855
 20
6.6807428156
 10
-34.1729095066
 20
7.8473821454
 10
-34.1994049423
 20
9.0398121762
 10
-34.2223488806
 20
10.2577675608
 10
-34.2426015715
 20
11.5011120574
 10
-34.2597619739
 20
12.7702539379
 10
-34.2735657433
 20
14.0670033082
 10
-34.283753998
 20
15.3918609542
 10
-34.2900702748
 20
16.7440113319
 10
-34.292236888
 20
18.1232825023
  0
LINE
  5
226
100
AcDbEntity
  8
0
100
AcDbLine
 62
250
  6
CONTINUOUS
 10
-35.0784528466
 20
34.1462278208
 11
-35.0780380353
 21
34.1201332467
  0
LWPOLYLINE
  5
227
100
AcDbEntity
  8
0
100
AcDbPolyline
 62
7
  6
CONTINUOUS
 90
3
 70
0
 10
-35.0785910954
 20
34.1014609111
 10
-35.0732961847
 20
33.0208963064
 10
-35.0704723578
 20
30.7852779149
  0
LINE
  5
228
100
AcDbEntity
  8
0
100
AcDbLine
 62
250
  6
CONTINUOUS
 10
-35.0244083604
 20
34.0536954812
 11
-35.0237702843
 21
33.8793151344
  0
LINE
  5
229
100
AcDbEntity
  8
0
100
AcDbLine
 62
7
  6
CONTINUOUS
 10
-35.0781482712
 20
34.0330701751
 11
-35.0781146779
 21
34.018089699
  0
LWPOLYLINE
  5
22A
100
AcDbEntity
  8
0
100
AcDbPolyline
 62
250
  6
CONTINUOUS
 90
8
 70
0
 10
-33.1345891289
 20
17.0466067729
 10
-33.1324411594
 20
16.1308105706
 10
-33.126209394
 20
15.2320359884
 10
-33.1161641428
 20
14.3504466542
 10
-33.1025817389
 20
13.4867571733
 10
-33.0856715295
 20
12.6405477524
 10
-33.0656693523
 20
11.8103096875
 10
-33.0428568268
 20
10.9960132971
  0
LWPOLYLINE
  5
22B
100
AcDbEntity
  8
0
100
AcDbPolyline
 62
7
  6
CONTINUOUS
 90
3
 70
0
 10
-35.0716895489
 20
19.0822444555
 10
-35.0700050362
 20
10.5096597018
 10
-35.070474574
 20
7.3744899827
  0
LWPOLYLINE
  5
22C
100
AcDbEntity
  8
0
100
AcDbPolyline
 62
7
  6
CONTINUOUS
 90
3
 70
0
 10
-35.0704723578
 20
30.7852779149
 10
-35.0702195874
 20
25.1312655151
 10
-35.0716896337
 20
19.0822406922
  0
LINE
  5
22D
100
AcDbEntity
  8
0
100
AcDbLine
 62
250
  6
CONTINUOUS
 10
-35.0246409369
 20
33.7568863693
 11
-35.0240290527
 21
3.867179742
  0
LINE
  5
22E
100
AcDbEntity
  8
0
100
AcDbLine
 62
7
  6
CONTINUOUS
 10
-35.070474574
 20
7.3744899827
 11
-35.0732980905
 21
5.1461456663
  0
LWPOLYLINE
  5
22F
100
AcDbEntity
  8
0
100
AcDbPolyline
 62
250
  6
CONTINUOUS
 90
10
 70
0
 10
-34.2922370641
 20
18.1232825467
 10
-34.2900463573
 20
19.5070943769
 10
-34.2836725581
 20
20.8571033509
 10
-34.2734068923
 20
22.1734662184
 10
-34.2595422585
 20
23.455543564
 10
-34.2423511575
 20
24.7042841708
 10
-34.2220634845
 20
25.9222073977
 10
-34.1989181297
 20
27.1102370884
 10
-34.1730387202
 20
28.2676366859
 10
-34.1429096371
 20
29.3934558959
  0
LWPOLYLINE
  5
230
100
AcDbEntity
  8
0
100
AcDbPolyline
 62
250
  6
CONTINUOUS
 90
7
 70
0
 10
-33.1345891275
 20
17.0466067853
 10
-33.1324637741
 20
17.9599641035
 10
-33.1262432621
 20
18.8516557549
 10
-33.1161969175
 20
19.7218264861
 10
-33.1025922789
 20
20.570144609
 10
-33.0856451404
 20
21.397199027
 10
-33.0656163256
 20
22.2045701871
  0
LINE
  5
231
100
AcDbEntity
  8
0
100
AcDbLine
 62
7
  6
CONTINUOUS
 10
-35.0732980905
 20
5.1461456663
 11
-35.07819114
 21
4.1126436122
  0
LWPOLYLINE
  5
232
100
AcDbEntity
  8
0
100
AcDbPolyline
 62
7
  6
CONTINUOUS
 90
4
 70
0
 10
-35.07819114
 20
4.1126436122
 10
-35.0784910676
 20
4.070136649
 10
-35.0785754085
 20
4.0300286412
 10
-35.0784010561
 20
4.0093038528
  0
LWPOLYLINE
  5
233
100
AcDbEntity
  8
0
100
AcDbPolyline
 62
7
  6
CONTINUOUS
 90
3
 70
0
 10
-35.0784528466
 20
34.1462278208
 10
-35.0785078928
 20
34.1408426416
 10
-35.0785910954
 20
34.1014609111
  0
LINE
  5
234
100
AcDbEntity
  8
0
100
AcDbLine
 62
250
  6
CONTINUOUS
 10
-35.0232123143
 20
33.8786536356
 11
-35.0236020452
 21
33.8518583548
  0
LINE
  5
235
100
AcDbEntity
  8
0
100
AcDbLine
 62
250
  6
CONTINUOUS
 10
-35.024614022
 20
33.7986363965
 11
-35.025297227
 21
33.7583412691
  0
LINE
  5
236
100
AcDbEntity
  8
0
100
AcDbLine
 62
250
  6
CONTINUOUS
 10
-35.0236020452
 20
33.8518583548
 11
-35.024614022
 21
33.7986363965
  0
LWPOLYLINE
  5
237
100
AcDbEntity
  8
0
100
AcDbPolyline
 62
250
  6
CONTINUOUS
 90
7
 70
0
 10
-33.0656163256
 20
22.2045701871
 10
-33.0428026718
 20
22.9925342404
 10
-33.0169121506
 20
23.7607543317
 10
-32.9891529765
 20
24.5111904292
 10
-32.958955858
 20
25.2437480135
 10
-32.9257430303
 20
25.9575838166
 10
-32.8912901844
 20
26.6540192443
  0
LINE
  5
238
100
AcDbEntity
  8
0
100
AcDbLine
 62
250
  6
CONTINUOUS
 10
-32.8807445845
 20
26.7772631737
 11
-32.8910575087
 21
26.653903494
  0
LWPOLYLINE
  5
239
100
AcDbEntity
  8
0
100
AcDbPolyline
 62
250
  6
CONTINUOUS
 90
6
 70
0
 10
-30.3055031859
 20
24.5874154358
 10
-30.3293285172
 20
24.4784618375
 10
-30.3321645421
 20
24.3784024553
 10
-30.3141010793
 20
24.2914320597
 10
-30.2758143308
 20
24.2231980557
 10
-30.2286703907
 20
24.1833064508
  0
LWPOLYLINE
  5
23A
100
AcDbEntity
  8
0
100
AcDbPolyline
 62
7
  6
CONTINUOUS
 90
6
 70
0
 10
-28.2302556962
 20
22.7508746733
 10
-28.2302862488
 20
22.7508280863
 10
-28.23237111
 20
22.7497470691
 10
-28.2376052924
 20
22.747095474
 10
-28.2454454363
 20
22.7425352
 10
-28.255564184
 20
22.7359729576
  0
LWPOLYLINE
  5
23B
100
AcDbEntity
  8
0
100
AcDbPolyline
 62
250
  6
CONTINUOUS
 90
10
 70
0
 10
-20.8925594617
 20
27.3864041051
 10
-20.9375667112
 20
27.3541887948
 10
-20.9816739149
 20
27.3158351137
 10
-21.0241346993
 20
27.2719151209
 10
-21.064183341
 20
27.2231498487
 10
-21.1011541213
 20
27.170274163
 10
-21.1344636008
 20
27.1139955544
 10
-21.1634865547
 20
27.0551781174
 10
-21.1876005774
 20
26.9948595662
 10
-21.2062845391
 20
26.9340885086
  0
LINE
  5
23C
100
AcDbEntity
  8
0
100
AcDbLine
 62
7
  6
CONTINUOUS
 10
-29.2074684357
 20
22.5120554407
 11
-28.5411032931
 21
22.8968104353
  0
LINE
  5
23D
100
AcDbEntity
  8
0
100
AcDbLine
 62
7
  6
CONTINUOUS
 10
-28.2591498645
 20
22.7340140593
 11
-28.3734790113
 21
22.6749202815
  0
LINE
  5
23E
100
AcDbEntity
  8
0
100
AcDbLine
 62
7
  6
CONTINUOUS
 10
-28.4966027078
 20
22.6112808285
 11
-28.5493700063
 21
22.5840067773
  0
LINE
  5
23F
100
AcDbEntity
  8
0
100
AcDbLine
 62
7
  6
CONTINUOUS
 10
-28.6724937028
 20
22.5203673243
 11
-28.7252610014
 21
22.493093273
  0
LINE
  5
240
100
AcDbEntity
  8
0
100
AcDbLine
 62
7
  6
CONTINUOUS
 10
-29.0242756929
 20
22.3385403157
 11
-29.0770429914
 21
22.3112662644
  0
LINE
  5
241
100
AcDbEntity
  8
0
100
AcDbLine
 62
7
  6
CONTINUOUS
 10
-28.8483846979
 20
22.42945382
 11
-28.9011519964
 21
22.4021797687
  0
LINE
  5
242
100
AcDbEntity
  8
0
100
AcDbLine
 62
7
  6
CONTINUOUS
 10
-29.200166688
 20
22.2476268115
 11
-29.2529339865
 21
22.2203527602
  0
LINE
  5
243
100
AcDbEntity
  8
0
100
AcDbLine
 62
7
  6
CONTINUOUS
 10
-30.2000967583
 20
24.0934710934
 11
-30.1069417241
 21
24.1339707239
  0
LWPOLYLINE
  5
244
100
AcDbEntity
  8
0
100
AcDbPolyline
 62
250
  6
CONTINUOUS
 90
10
 70
0
 10
30.3215741049
 20
-33.3025131086
 10
30.4694932574
 20
-33.2923271655
 10
30.6076598412
 20
-33.258237636
 10
30.7322561328
 20
-33.1956736782
 10
30.8396331759
 20
-33.1045874753
 10
30.9311943634
 20
-32.9890166682
 10
31.010192241
 20
-32.8508572662
 10
31.0781576092
 20
-32.6937712291
 10
31.1360886216
 20
-32.521960076
 10
31.1846672327
 20
-32.3366180014
  0
LINE
  5
245
100
AcDbEntity
  8
0
100
AcDbLine
 62
7
  6
CONTINUOUS
 10
-35.0595867769
 20
3.722235424
 11
-35.013198081
 21
3.51216929
  0
LINE
  5
246
100
AcDbEntity
  8
0
100
AcDbLine
 62
250
  6
CONTINUOUS
 10
-35.0124348385
 20
3.6963594891
 11
-34.9740485693
 21
3.5175984702
  0
LWPOLYLINE
  5
247
100
AcDbEntity
  8
0
100
AcDbPolyline
 62
250
  6
CONTINUOUS
 90
10
 70
0
 10
-32.8910581257
 20
7.1580881215
 10
-32.8807611887
 20
7.0228781585
 10
-32.8671710091
 20
6.8874645304
 10
-32.8502990032
 20
6.7519847257
 10
-32.8301670144
 20
6.6165963611
 10
-32.8067990712
 20
6.4814431126
 10
-32.7802240509
 20
6.3466464658
 10
-32.7505013018
 20
6.2124192584
 10
-32.7176524856
 20
6.0787899114
 10
-32.6817159181
 20
5.9458487621
  0
LWPOLYLINE
  5
248
100
AcDbEntity
  8
0
100
AcDbPolyline
 62
250
  6
CONTINUOUS
 90
4
 70
0
 10
-35.0780380353
 20
34.1201332467
 10
-35.0757421932
 20
34.0876579814
 10
-35.0652451696
 20
34.0182327363
 10
-35.0475021684
 20
33.9477285957
  0
LWPOLYLINE
  5
249
100
AcDbEntity
  8
0
100
AcDbPolyline
 62
250
  6
CONTINUOUS
 90
10
 70
0
 10
-30.1367872361
 20
4.515256252
 10
-30.1406339151
 20
4.5841591433
 10
-30.1470239792
 20
4.6495729614
 10
-30.1559570014
 20
4.7111929846
 10
-30.1674365694
 20
4.7688213565
 10
-30.181466632
 20
4.8219938119
 10
-30.1979562523
 20
4.8700754849
 10
-30.2167724005
 20
4.912724632
 10
-30.2378351136
 20
4.9497966049
 10
-30.2610472057
 20
4.9810380869
  0
LWPOLYLINE
  5
24A
100
AcDbEntity
  8
0
100
AcDbPolyline
 62
7
  6
CONTINUOUS
 90
8
 70
0
 10
-31.2673887259
 20
6.3937983523
 10
-31.2678513591
 20
6.4030034303
 10
-31.2682631113
 20
6.4124035683
 10
-31.2686225011
 20
6.4218898638
 10
-31.2689270174
 20
6.4313169928
 10
-31.2691774233
 20
6.4406242049
 10
-31.269379271
 20
6.4498974353
 10
-31.2695366703
 20
6.4591774027
  0
LWPOLYLINE
  5
24B
100
AcDbEntity
  8
0
100
AcDbPolyline
 62
250
  6
CONTINUOUS
 90
3
 70
0
 10
-32.958977814
 20
8.6473516996
 10
-32.9257525014
 20
7.8948061368
 10
-32.8912901819
 20
7.1581480978
  0
LINE
  5
24C
100
AcDbEntity
  8
0
100
AcDbLine
 62
7
  6
CONTINUOUS
 10
-30.9479463227
 20
6.1767817084
 11
-30.9446354707
 21
6.0990821102
  0
LINE
  5
24D
100
AcDbEntity
  8
0
100
AcDbLine
 62
250
  6
CONTINUOUS
 10
-32.9891789088
 20
9.4150514626
 11
-32.958977814
 21
8.6473516996
  0
LWPOLYLINE
  5
24E
100
AcDbEntity
  8
0
100
AcDbPolyline
 62
250
  6
CONTINUOUS
 90
3
 70
0
 10
-33.0428568268
 20
10.9960132971
 10
-33.0169535236
 20
10.1977595341
 10
-32.9891789088
 20
9.4150514626
  0
LINE
  5
24F
100
AcDbEntity
  8
0
100
AcDbLine
 62
7
  6
CONTINUOUS
 10
-31.2695366703
 20
6.4591774027
 11
-31.2697328125
 21
6.4776972673
  0
LINE
  5
250
100
AcDbEntity
  8
0
100
AcDbLine
 62
7
  6
CONTINUOUS
 10
-31.2697328125
 20
6.4776972673
 11
-31.2697356367
 21
24.8442013182
  0
LINE
  5
251
100
AcDbEntity
  8
0
100
AcDbLine
 62
250
  6
CONTINUOUS
 10
-30.9470684569
 20
24.3039051398
 11
-30.9464959153
 21
6.1773246567
  0
LINE
  5
252
100
AcDbEntity
  8
0
100
AcDbLine
 62
250
  6
CONTINUOUS
 10
-30.1072969121
 20
24.1333002966
 11
-30.1072969121
 21
6.0008018016
  0
LWPOLYLINE
  5
253
100
AcDbEntity
  8
0
100
AcDbPolyline
 62
250
  6
CONTINUOUS
 90
10
 70
0
 10
-30.1367872361
 20
25.4983629367
 10
-30.1406339151
 20
25.4191612375
 10
-30.1470239792
 20
25.3366476298
 10
-30.1559570014
 20
25.2511273286
 10
-30.1674365694
 20
25.162695882
 10
-30.181466632
 20
25.0719111614
 10
-30.1979562523
 20
24.9798075428
 10
-30.2167724005
 20
24.8869785553
 10
-30.2378351136
 20
24.7935630203
 10
-30.2610472057
 20
24.6999264822
  0
LWPOLYLINE
  5
254
100
AcDbEntity
  8
0
100
AcDbPolyline
 62
7
  6
CONTINUOUS
 90
9
 70
0
 10
-31.2673749178
 20
24.9253791653
 10
-31.2678391979
 20
24.9167188723
 10
-31.2682526859
 20
24.9078038214
 10
-31.2686138836
 20
24.8987409013
 10
-31.2689202099
 20
24.8896737598
 10
-31.2691724684
 20
24.8806625887
 10
-31.2693762797
 20
24.8716238583
 10
-31.2695356932
 20
24.8625203807
 10
-31.2697356367
 20
24.8442013182
  0
LWPOLYLINE
  5
255
100
AcDbEntity
  8
0
100
AcDbPolyline
 62
7
  6
CONTINUOUS
 90
10
 70
0
 10
-30.9479465489
 20
24.3034032795
 10
-30.9375212702
 20
24.4322599947
 10
-30.9067339391
 20
24.5490461571
 10
-30.8560061179
 20
24.6475230457
 10
-30.7853813462
 20
24.7227144589
 10
-30.6976813265
 20
24.7726649513
 10
-30.5971088976
 20
24.7944846203
 10
-30.4875737135
 20
24.787633656
 10
-30.3734535517
 20
24.755178491
 10
-30.2601828885
 20
24.7004317587
  0
LINE
  5
256
100
AcDbEntity
  8
0
100
AcDbLine
 62
7
  6
CONTINUOUS
 10
-28.2555641161
 20
20.3614273995
 11
-28.2797247626
 21
20.3456976811
  0
LINE
  5
257
100
AcDbEntity
  8
0
100
AcDbLine
 62
7
  6
CONTINUOUS
 10
-28.2797247626
 20
20.3456976811
 11
-28.3051009496
 21
20.3294356107
  0
LINE
  5
258
100
AcDbEntity
  8
0
100
AcDbLine
 62
7
  6
CONTINUOUS
 10
-28.4966027078
 20
20.2075515077
 11
-28.5493700063
 21
20.1738912053
  0
LINE
  5
259
100
AcDbEntity
  8
0
100
AcDbLine
 62
7
  6
CONTINUOUS
 10
-28.6724937028
 20
20.0953504998
 11
-28.7252610014
 21
20.0616901974
  0
LINE
  5
25A
100
AcDbEntity
  8
0
100
AcDbLine
 62
7
  6
CONTINUOUS
 10
-28.8483846979
 20
19.9831494918
 11
-28.9011519964
 21
19.9494891894
  0
LINE
  5
25B
100
AcDbEntity
  8
0
100
AcDbLine
 62
7
  6
CONTINUOUS
 10
-29.0242756929
 20
19.8709484839
 11
-29.0770429914
 21
19.8372881815
  0
LINE
  5
25C
100
AcDbEntity
  8
0
100
AcDbLine
 62
7
  6
CONTINUOUS
 10
-29.200166688
 20
19.758747476
 11
-29.2529339865
 21
19.7250871736
  0
LINE
  5
25D
100
AcDbEntity
  8
0
100
AcDbLine
 62
7
  6
CONTINUOUS
 10
-28.3051009496
 20
20.3294356107
 11
-28.3734790113
 21
20.2860922133
  0
LWPOLYLINE
  5
25E
100
AcDbEntity
  8
0
100
AcDbPolyline
 62
7
  6
CONTINUOUS
 90
10
 70
0
 10
26.6009511659
 20
-28.094898191
 10
26.7126805557
 20
-28.0820337928
 10
26.8155624285
 20
-28.0499584251
 10
26.9082996758
 20
-27.9995711106
 10
26.9894832479
 20
-27.9321565914
 10
27.0584977902
 20
-27.8488223391
 10
27.1149254049
 20
-27.7500313472
 10
27.1584980645
 20
-27.635949916
 10
27.188489002
 20
-27.5077468882
 10
27.2042837881
 20
-27.3669314617
  0
LWPOLYLINE
  5
25F
100
AcDbEntity
  8
0
100
AcDbPolyline
 62
250
  6
CONTINUOUS
 90
8
 70
0
 10
27.9638569723
 20
-30.5679953227
 10
28.0205987645
 20
-30.5684773461
 10
28.0762491637
 20
-30.5669869048
 10
28.1307756729
 20
-30.5635266488
 10
28.1841068095
 20
-30.5581068692
 10
28.2362160851
 20
-30.5507370302
 10
28.2871233809
 20
-30.5414246954
 10
28.3368593927
 20
-30.5301687206
  0
LWPOLYLINE
  5
260
100
AcDbEntity
  8
0
100
AcDbPolyline
 62
250
  6
CONTINUOUS
 90
10
 70
0
 10
30.321542873
 20
-33.3025127254
 10
30.2579687018
 20
-33.3008326849
 10
30.1927153452
 20
-33.2961135331
 10
30.1259572331
 20
-33.2886042993
 10
30.0579738381
 20
-33.2785528772
 10
29.9888872165
 20
-33.2661246092
 10
29.918664898
 20
-33.2513418967
 10
29.8473243457
 20
-33.2342424519
 10
29.7749131697
 20
-33.2148836668
 10
29.7014665448
 20
-33.1933208176
  0
LWPOLYLINE
  5
261
100
AcDbEntity
  8
0
100
AcDbPolyline
 62
7
  6
CONTINUOUS
 90
8
 70
0
 10
-35.013198081
 20
3.51216929
 10
-34.9346616921
 20
3.297640956
 10
-34.8251651446
 20
3.0858909071
 10
-34.703297621
 20
2.9054676665
 10
-34.5859094144
 20
2.7661349581
 10
-34.4733646008
 20
2.6574456954
 10
-34.3662091854
 20
2.572810104
 10
-34.2703662055
 20
2.5088566202
  0
LWPOLYLINE
  5
262
100
AcDbEntity
  8
0
100
AcDbPolyline
 62
250
  6
CONTINUOUS
 90
4
 70
0
 10
-34.9740485693
 20
3.5175984702
 10
-34.911813115
 20
3.3381958841
 10
-34.8277488827
 20
3.1627633622
 10
-34.7246616787
 20
2.9965502541
  0
LWPOLYLINE
  5
263
100
AcDbEntity
  8
0
100
AcDbPolyline
 62
250
  6
CONTINUOUS
 90
10
 70
0
 10
-34.0055598086
 20
5.3034717602
 10
-34.0314167102
 20
5.4555370425
 10
-34.0539528948
 20
5.6077682612
 10
-34.0734535222
 20
5.7602687523
 10
-34.0901903
 20
5.9129680216
 10
-34.1044805783
 20
6.0658826773
 10
-34.1166692967
 20
6.2190535785
 10
-34.1270747461
 20
6.3725327788
 10
-34.1357977868
 20
6.5263630266
 10
-34.142903114
 20
6.6805817859
  0
LWPOLYLINE
  5
264
100
AcDbEntity
  8
0
100
AcDbPolyline
 62
7
  6
CONTINUOUS
 90
10
 70
0
 10
-30.9471521206
 20
6.115506594
 10
-30.9298796376
 20
5.9865881271
 10
-30.9004283141
 20
5.8544464436
 10
-30.8582608974
 20
5.7210741785
 10
-30.7990306007
 20
5.5815960508
 10
-30.7213911632
 20
5.4423195043
 10
-30.6331141044
 20
5.3178211017
 10
-30.5394406227
 20
5.2096985888
 10
-30.437840927
 20
5.1116495009
 10
-30.3298500673
 20
5.0244953908
  0
LWPOLYLINE
  5
265
100
AcDbEntity
  8
0
100
AcDbPolyline
 62
250
  6
CONTINUOUS
 90
10
 70
0
 10
-30.0994450181
 20
5.9962683716
 10
-30.0977840388
 20
5.9729819309
 10
-30.0927919828
 20
5.9482397238
 10
-30.0845326039
 20
5.922756312
 10
-30.0731058049
 20
5.8971637342
 10
-30.0588311567
 20
5.8724175299
 10
-30.0423826821
 20
5.8496926065
 10
-30.0244244211
 20
5.8297505989
 10
-30.0054529717
 20
5.8130034798
 10
-29.9860572076
 20
5.7998749202
  0
LINE
  5
266
100
AcDbEntity
  8
0
100
AcDbLine
 62
7
  6
CONTINUOUS
 10
-29.2641864509
 20
23.6265281364
 11
-29.2641864509
 21
6.4709004563
  0
LINE
  5
267
100
AcDbEntity
  8
0
100
AcDbLine
 62
7
  6
CONTINUOUS
 10
-29.2001666879
 20
13.1757218164
 11
-29.2001666879
 21
10.6194777148
  0
LINE
  5
268
100
AcDbEntity
  8
0
100
AcDbLine
 62
7
  6
CONTINUOUS
 10
-29.2001666879
 20
19.758747476
 11
-29.2001666879
 21
22.3149915776
  0
LINE
  5
269
100
AcDbEntity
  8
0
100
AcDbLine
 62
7
  6
CONTINUOUS
 10
-29.0770429914
 20
22.3112662644
 11
-29.0770429914
 21
19.8372881815
  0
LINE
  5
26A
100
AcDbEntity
  8
0
100
AcDbLine
 62
7
  6
CONTINUOUS
 10
-29.0770429914
 20
10.6980184203
 11
-29.0770429914
 21
13.1719965033
  0
LINE
  5
26B
100
AcDbEntity
  8
0
100
AcDbLine
 62
7
  6
CONTINUOUS
 10
-29.0242756929
 20
13.2666353207
 11
-29.0242756929
 21
10.7316787227
  0
LINE
  5
26C
100
AcDbEntity
  8
0
100
AcDbLine
 62
7
  6
CONTINUOUS
 10
-29.0242756929
 20
19.8709484839
 11
-29.0242756929
 21
22.4059050819
  0
LINE
  5
26D
100
AcDbEntity
  8
0
100
AcDbLine
 62
7
  6
CONTINUOUS
 10
-28.9011519964
 20
22.4021797687
 11
-28.9011519964
 21
19.9494891894
  0
LINE
  5
26E
100
AcDbEntity
  8
0
100
AcDbLine
 62
7
  6
CONTINUOUS
 10
-28.9011519964
 20
10.8102194283
 11
-28.9011519964
 21
13.2629100075
  0
LINE
  5
26F
100
AcDbEntity
  8
0
100
AcDbLine
 62
7
  6
CONTINUOUS
 10
-28.8483846979
 20
13.357548825
 11
-28.8483846979
 21
10.8438797307
  0
LINE
  5
270
100
AcDbEntity
  8
0
100
AcDbLine
 62
7
  6
CONTINUOUS
 10
-28.8483846979
 20
19.9831494918
 11
-28.8483846979
 21
22.4968185861
  0
LINE
  5
271
100
AcDbEntity
  8
0
100
AcDbLine
 62
7
  6
CONTINUOUS
 10
-28.7252610013
 20
22.493093273
 11
-28.7252610013
 21
20.0616901974
  0
LINE
  5
272
100
AcDbEntity
  8
0
100
AcDbLine
 62
7
  6
CONTINUOUS
 10
-28.7252610013
 20
10.9224204362
 11
-28.7252610013
 21
13.3538235118
  0
LINE
  5
273
100
AcDbEntity
  8
0
100
AcDbLine
 62
7
  6
CONTINUOUS
 10
-28.6724937028
 20
13.4484623292
 11
-28.6724937028
 21
10.9560807386
  0
LINE
  5
274
100
AcDbEntity
  8
0
100
AcDbLine
 62
7
  6
CONTINUOUS
 10
-28.6724937028
 20
20.0953504998
 11
-28.6724937028
 21
22.5877320904
  0
LINE
  5
275
100
AcDbEntity
  8
0
100
AcDbLine
 62
7
  6
CONTINUOUS
 10
-28.5493700063
 20
22.5840067773
 11
-28.5493700063
 21
20.1738912053
  0
LINE
  5
276
100
AcDbEntity
  8
0
100
AcDbLine
 62
7
  6
CONTINUOUS
 10
-28.5493700063
 20
11.0346214441
 11
-28.5493700063
 21
13.4447370161
  0
LINE
  5
277
100
AcDbEntity
  8
0
100
AcDbLine
 62
7
  6
CONTINUOUS
 10
-28.4966027078
 20
13.5393758335
 11
-28.4966027078
 21
11.0682817465
  0
LINE
  5
278
100
AcDbEntity
  8
0
100
AcDbLine
 62
7
  6
CONTINUOUS
 10
-28.4966027078
 20
20.2075515077
 11
-28.4966027078
 21
22.6786455947
  0
LINE
  5
279
100
AcDbEntity
  8
0
100
AcDbLine
 62
7
  6
CONTINUOUS
 10
-28.3734790113
 20
22.6749202815
 11
-28.3734790113
 21
20.2860922133
  0
LINE
  5
27A
100
AcDbEntity
  8
0
100
AcDbLine
 62
7
  6
CONTINUOUS
 10
-28.3734790113
 20
11.1468224521
 11
-28.3734790113
 21
13.5356505204
  0
LINE
  5
27B
100
AcDbEntity
  8
0
100
AcDbLine
 62
250
  6
CONTINUOUS
 10
-28.2591498645
 20
11.2197531072
 11
-28.2591498645
 21
13.5947442981
  0
LINE
  5
27C
100
AcDbEntity
  8
0
100
AcDbLine
 62
250
  6
CONTINUOUS
 10
-28.2591498645
 20
20.3590228684
 11
-28.2591498645
 21
22.7340140593
  0
LINE
  5
27D
100
AcDbEntity
  8
0
100
AcDbLine
 62
7
  6
CONTINUOUS
 10
-28.2300072998
 20
22.7507314241
 11
-28.2300072998
 21
20.4235513084
  0
LINE
  5
27E
100
AcDbEntity
  8
0
100
AcDbLine
 62
7
  6
CONTINUOUS
 10
-28.2300072998
 20
13.6114616629
 11
-28.2300072998
 21
11.2842815472
  0
LWPOLYLINE
  5
27F
100
AcDbEntity
  8
0
100
AcDbPolyline
 62
7
  6
CONTINUOUS
 90
6
 70
0
 10
-28.2300081301
 20
20.4237795007
 10
-28.2301825749
 20
20.4174834751
 10
-28.2327205527
 20
20.3992391731
 10
-28.2384048419
 20
20.3832915727
 10
-28.2472500911
 20
20.3697619759
 10
-28.25915019
 20
20.3590226367
  0
LWPOLYLINE
  5
280
100
AcDbEntity
  8
0
100
AcDbPolyline
 62
7
  6
CONTINUOUS
 90
10
 70
0
 10
-29.2641864509
 20
6.442406901
 10
-29.2649850318
 20
6.4317621131
 10
-29.2621253996
 20
6.4177881069
 10
-29.2556075544
 20
6.4004848823
 10
-29.2438607593
 20
6.3771318434
 10
-29.2284557511
 20
6.3504495861
 10
-29.2141047399
 20
6.328599898
 10
-29.2023784624
 20
6.3143033749
 10
-29.1917061818
 20
6.3048394209
 10
-29.1820878982
 20
6.300208036
  0
LWPOLYLINE
  5
281
100
AcDbEntity
  8
0
100
AcDbPolyline
 62
250
  6
CONTINUOUS
 90
10
 70
0
 10
-21.5624603796
 20
25.4330094513
 10
-21.5262453491
 20
25.6011179075
 10
-21.4892259526
 20
25.7686398915
 10
-21.4514189182
 20
25.9355619037
 10
-21.4129299895
 20
26.101491103
 10
-21.3736909587
 20
26.2667933153
 10
-21.3334380581
 20
26.4325975817
 10
-21.292072802
 20
26.5992762802
 10
-21.2496835953
 20
26.7664405739
 10
-21.2062676675
 20
26.9340816024
  0
LWPOLYLINE
  5
282
100
AcDbEntity
  8
0
100
AcDbPolyline
 62
250
  6
CONTINUOUS
 90
7
 70
0
 10
-22.3897001831
 20
20.1551092508
 10
-22.3517289351
 20
20.2383443333
 10
-22.3171569455
 20
20.3226582769
 10
-22.2861326329
 20
20.4077068682
 10
-22.2587285988
 20
20.4934009707
 10
-22.2352032777
 20
20.5791071589
 10
-22.2158756481
 20
20.6636654243
  0
LWPOLYLINE
  5
283
100
AcDbEntity
  8
0
100
AcDbPolyline
 62
7
  6
CONTINUOUS
 90
6
 70
0
 10
-28.255564184
 20
11.222157552
 10
-28.2454832517
 20
11.2327739189
 10
-28.2376587603
 20
11.2463024788
 10
-28.2324189525
 20
11.2622932042
 10
-28.2303111384
 20
11.280375597
 10
-28.2302767872
 20
11.2842273956
  0
LWPOLYLINE
  5
284
100
AcDbEntity
  8
0
100
AcDbPolyline
 62
250
  6
CONTINUOUS
 90
3
 70
0
 10
27.8471746424
 20
-30.561116564
 10
27.9060397314
 20
-30.5655414272
 10
27.9638569723
 20
-30.5679953227
  0
LINE
  5
285
100
AcDbEntity
  8
0
100
AcDbLine
 62
250
  6
CONTINUOUS
 10
27.7508619205
 20
-30.5499415252
 11
27.8471744041
 21
-30.5611163476
  0
LWPOLYLINE
  5
286
100
AcDbEntity
  8
0
100
AcDbPolyline
 62
7
  6
CONTINUOUS
 90
4
 70
0
 10
32.5651800627
 20
-36.0355579021
 10
32.6573053066
 20
-36.053467012
 10
32.7573735811
 20
-36.0614625652
 10
32.8680075395
 20
-36.0562715397
  0
LWPOLYLINE
  5
287
100
AcDbEntity
  8
0
100
AcDbPolyline
 62
250
  6
CONTINUOUS
 90
10
 70
0
 10
-32.6817156238
 20
5.9458481995
 10
-32.6187183928
 20
5.737558007
 10
-32.5482463686
 20
5.5324604657
 10
-32.4706792823
 20
5.3316935049
 10
-32.3865596284
 20
5.1362554025
 10
-32.2960357793
 20
4.9461475383
 10
-32.1983205583
 20
4.759821705
 10
-32.0932067404
 20
4.5773382696
 10
-31.9817609894
 20
4.4003626864
 10
-31.8648136525
 20
4.2295103355
  0
LWPOLYLINE
  5
288
100
AcDbEntity
  8
0
100
AcDbPolyline
 62
7
  6
CONTINUOUS
 90
3
 70
0
 10
-31.221458802
 20
6.0717657299
 10
-31.2514664029
 20
6.2346470757
 10
-31.2672710821
 20
6.393762193
  0
LWPOLYLINE
  5
289
100
AcDbEntity
  8
0
100
AcDbPolyline
 62
250
  6
CONTINUOUS
 90
10
 70
0
 10
-21.9160242415
 20
23.4883759679
 10
-21.9563083267
 20
23.2075103095
 10
-21.994623248
 20
22.9183747516
 10
-22.0305721726
 20
22.6249643887
 10
-22.0636299818
 20
22.3325708635
 10
-22.093722363
 20
22.0427255075
 10
-22.1210784386
 20
21.7530837672
 10
-22.1454815885
 20
21.4645541234
 10
-22.1664134413
 20
21.1814363556
 10
-22.1835357646
 20
20.906246829
  0
LWPOLYLINE
  5
28A
100
AcDbEntity
  8
0
100
AcDbPolyline
 62
250
  6
CONTINUOUS
 90
10
 70
0
 10
-21.9160232414
 20
23.4883758954
 10
-21.8824618266
 20
23.7084236609
 10
-21.8478798056
 20
23.9256762795
 10
-21.8121032028
 20
24.1407306567
 10
-21.7747836256
 20
24.3552340334
 10
-21.7358138452
 20
24.569486287
 10
-21.6953498599
 20
24.7826690129
 10
-21.6532557578
 20
24.9958731702
 10
-21.6090779098
 20
25.2119019926
 10
-21.5624794137
 20
25.4330051129
  0
LWPOLYLINE
  5
28B
100
AcDbEntity
  8
0
100
AcDbPolyline
 62
250
  6
CONTINUOUS
 90
4
 70
0
 10
-22.2158756481
 20
20.6636654243
 10
-22.200829429
 20
20.7464668545
 10
-22.190038448
 20
20.8274356388
 10
-22.1835403843
 20
20.9062422344
  0
LWPOLYLINE
  5
28C
100
AcDbEntity
  8
0
100
AcDbPolyline
 62
250
  6
CONTINUOUS
 90
10
 70
0
 10
-29.3782351997
 20
4.0772726038
 10
-29.4944041184
 20
3.9274014258
 10
-29.6115236999
 20
3.779209966
 10
-29.7292861871
 20
3.6330705421
 10
-29.8473531366
 20
3.4893915276
 10
-29.9654208366
 20
3.3485375119
 10
-30.0832206222
 20
3.2108350499
 10
-30.2004313275
 20
3.0766771977
 10
-30.3166785765
 20
2.9465181254
 10
-30.4315990786
 20
2.8207981559
  0
LWPOLYLINE
  5
28D
100
AcDbEntity
  8
0
100
AcDbPolyline
 62
250
  6
CONTINUOUS
 90
10
 70
0
 10
-35.0244309233
 20
6.1351421332
 10
-34.9316675805
 20
6.2027408536
 10
-34.837752308
 20
6.2684322967
 10
-34.7425802929
 20
6.3323119241
 10
-34.6459349544
 20
6.3945440663
 10
-34.547828271
 20
6.4551456938
 10
-34.4485194045
 20
6.5139968866
 10
-34.3480529718
 20
6.5711213013
 10
-34.2462397754
 20
6.6266753488
 10
-34.1430137855
 20
6.6807428156
  0
LWPOLYLINE
  5
28E
100
AcDbEntity
  8
0
100
AcDbPolyline
 62
250
  6
CONTINUOUS
 90
5
 70
0
 10
-35.0244647922
 20
4.6556398979
 10
-34.9170815245
 20
4.73105814
 10
-34.8082499999
 20
4.8056118305
 10
-34.6979673368
 20
4.8793027154
 10
-34.5862333032
 20
4.9521308469
  0
LINE
  5
28F
100
AcDbEntity
  8
0
100
AcDbLine
 62
7
  6
CONTINUOUS
 10
-28.2797155007
 20
11.2064338337
 11
-28.2555641161
 21
11.2221576384
  0
LINE
  5
290
100
AcDbEntity
  8
0
100
AcDbLine
 62
7
  6
CONTINUOUS
 10
-29.0770429914
 20
10.6980184204
 11
-29.0242756929
 21
10.7316787227
  0
LINE
  5
291
100
AcDbEntity
  8
0
100
AcDbLine
 62
7
  6
CONTINUOUS
 10
-29.2529339865
 20
10.5858174124
 11
-29.2001666879
 21
10.6194777148
  0
LINE
  5
292
100
AcDbEntity
  8
0
100
AcDbLine
 62
7
  6
CONTINUOUS
 10
-28.9011519964
 20
10.8102194283
 11
-28.8483846979
 21
10.8438797307
  0
LINE
  5
293
100
AcDbEntity
  8
0
100
AcDbLine
 62
7
  6
CONTINUOUS
 10
-28.5493700063
 20
11.0346214442
 11
-28.4966027078
 21
11.0682817465
  0
LINE
  5
294
100
AcDbEntity
  8
0
100
AcDbLine
 62
7
  6
CONTINUOUS
 10
-28.7252610013
 20
10.9224204362
 11
-28.6724937028
 21
10.9560807386
  0
LWPOLYLINE
  5
295
100
AcDbEntity
  8
0
100
AcDbPolyline
 62
7
  6
CONTINUOUS
 90
3
 70
0
 10
-28.3734790113
 20
11.1468224521
 10
-28.3050884386
 20
11.1901738065
 10
-28.2797155007
 20
11.2064338337
  0
LINE
  5
296
100
AcDbEntity
  8
0
100
AcDbLine
 62
7
  6
CONTINUOUS
 10
-28.5411032931
 20
13.7575406741
 11
-29.2074824377
 21
13.3727775949
  0
LINE
  5
297
100
AcDbEntity
  8
0
100
AcDbLine
 62
7
  6
CONTINUOUS
 10
-29.2529339865
 20
13.081082999
 11
-29.200166688
 21
13.1083570503
  0
LINE
  5
298
100
AcDbEntity
  8
0
100
AcDbLine
 62
7
  6
CONTINUOUS
 10
-29.0770429914
 20
13.1719965033
 11
-29.0242756929
 21
13.1992705545
  0
LINE
  5
299
100
AcDbEntity
  8
0
100
AcDbLine
 62
7
  6
CONTINUOUS
 10
-28.9011519964
 20
13.2629100075
 11
-28.8483846979
 21
13.2901840588
  0
LINE
  5
29A
100
AcDbEntity
  8
0
100
AcDbLine
 62
7
  6
CONTINUOUS
 10
-28.7252610014
 20
13.3538235118
 11
-28.6724937028
 21
13.3810975631
  0
LINE
  5
29B
100
AcDbEntity
  8
0
100
AcDbLine
 62
7
  6
CONTINUOUS
 10
-28.5493700063
 20
13.4447370161
 11
-28.4966027078
 21
13.4720110674
  0
LINE
  5
29C
100
AcDbEntity
  8
0
100
AcDbLine
 62
7
  6
CONTINUOUS
 10
-28.3734790113
 20
13.5356505204
 11
-28.2591498645
 21
13.5947442981
  0
LWPOLYLINE
  5
29D
100
AcDbEntity
  8
0
100
AcDbPolyline
 62
7
  6
CONTINUOUS
 90
6
 70
0
 10
-28.25915019
 20
13.5947440664
 10
-28.2473434205
 20
13.6005882312
 10
-28.2385151323
 20
13.6054813844
 10
-28.232796047
 20
13.6090660628
 10
-28.2302004047
 20
13.610656107
 10
-28.2300082622
 20
13.610710889
  0
LWPOLYLINE
  5
29E
100
AcDbEntity
  8
0
100
AcDbPolyline
 62
250
  6
CONTINUOUS
 90
10
 70
0
 10
-30.1077318423
 20
15.0664400877
 10
-30.2043830466
 20
15.0258016932
 10
-30.3147271103
 20
15.0015340174
 10
-30.4338646174
 20
14.9937262608
 10
-30.5582411661
 20
15.0026263217
 10
-30.6787882194
 20
15.0282793867
 10
-30.7826067546
 20
15.0677831645
 10
-30.8633159338
 20
15.1174985972
 10
-30.9191977615
 20
15.175759147
 10
-30.9475392832
 20
15.2405685924
  0
LWPOLYLINE
  5
29F
100
AcDbEntity
  8
SUPERFICI
100
AcDbPolyline
 62
7
  6
CONTINUOUS
 90
6
 70
0
 10
25.6799581492
 20
-24.3187212003
 10
25.67990268
 20
-24.3187246305
 10
25.6779248321
 20
-24.3199910002
 10
25.6730121006
 20
-24.3231993644
 10
25.6651433489
 20
-24.3277100883
 10
25.6544014465
 20
-24.3331929951
  0
LWPOLYLINE
  5
2A0
100
AcDbEntity
  8
0
100
AcDbPolyline
 62
250
  6
CONTINUOUS
 90
10
 70
0
 10
-33.1424539639
 20
3.3408213072
 10
-33.2903733314
 20
3.521820704
 10
-33.4285400256
 20
3.7154616051
 10
-33.5531363501
 20
3.9219062562
 10
-33.6605133667
 20
4.1369887617
 10
-33.752074491
 20
4.3582920965
 10
-33.8310722755
 20
4.5876762137
 10
-33.8990374568
 20
4.8232468464
 10
-33.9569683432
 20
5.0619552079
 10
-34.0055469599
 20
5.3033946481
  0
LWPOLYLINE
  5
2A1
100
AcDbEntity
  8
0
100
AcDbPolyline
 62
250
  6
CONTINUOUS
 90
4
 70
0
 10
-34.7246616787
 20
2.9965502541
 10
-34.6063041675
 20
2.8456458726
 10
-34.4766753043
 20
2.7150415432
 10
-34.3396090653
 20
2.6090382739
  0
LWPOLYLINE
  5
2A2
100
AcDbEntity
  8
0
100
AcDbPolyline
 62
250
  6
CONTINUOUS
 90
10
 70
0
 10
-31.8648140094
 20
4.229510807
 10
-31.8150759442
 20
4.1608187956
 10
-31.7641664226
 20
4.092717793
 10
-31.7120547494
 20
4.0251712336
 10
-31.6587210739
 20
3.9581637348
 10
-31.6041918988
 20
3.8917353671
 10
-31.5485386741
 20
3.82597896
 10
-31.4917938808
 20
3.7609346579
 10
-31.4339734919
 20
3.6966202916
 10
-31.3751051175
 20
3.6330668272
  0
LWPOLYLINE
  5
2A3
100
AcDbEntity
  8
0
100
AcDbPolyline
 62
7
  6
CONTINUOUS
 90
9
 70
0
 10
-30.9464959153
 20
6.1773246567
 10
-30.9163619309
 20
6.1113059254
 10
-30.8578628891
 20
6.0526268585
 10
-30.7746327251
 20
6.0031407524
 10
-30.6691022553
 20
5.9642994351
 10
-30.548158234
 20
5.9394747813
 10
-30.4248517552
 20
5.9312457905
 10
-30.3080522421
 20
5.939190573
 10
-30.2009078093
 20
5.9626341481
  0
LWPOLYLINE
  5
2A4
100
AcDbEntity
  8
0
100
AcDbPolyline
 62
250
  6
CONTINUOUS
 90
10
 70
0
 10
-30.9470901802
 20
15.2405925695
 10
-30.9603455645
 20
15.2913812048
 10
-30.9795836349
 20
15.3417790186
 10
-31.0047311723
 20
15.391567026
 10
-31.0358215022
 20
15.4406785523
 10
-31.0726981672
 20
15.4887144306
 10
-31.1148341076
 20
15.5349891716
 10
-31.161820956
 20
15.5791683455
 10
-31.2135497118
 20
15.6212222219
 10
-31.2697876202
 20
15.660973413
  0
LINE
  5
2A5
100
AcDbEntity
  8
0
100
AcDbLine
 62
250
  6
CONTINUOUS
 10
-22.3638401722
 20
3.0662652102
 11
-22.3638401721
 21
3.391937984
  0
LINE
  5
2A6
100
AcDbEntity
  8
0
100
AcDbLine
 62
7
  6
CONTINUOUS
 10
-22.3382833557
 20
3.4066964583
 11
-22.3382833557
 21
3.1146735495
  0
LWPOLYLINE
  5
2A7
100
AcDbEntity
  8
0
100
AcDbPolyline
 62
7
  6
CONTINUOUS
 90
6
 70
0
 10
-22.338283397
 20
3.1148707876
 10
-22.3386133988
 20
3.1083820051
 10
-22.341318319
 20
3.0956989723
 10
-22.3465951321
 20
3.0843755946
 10
-22.3541998017
 20
3.0745551856
 10
-22.3638401992
 20
3.0664225972
  0
LINE
  5
2A8
100
AcDbEntity
  8
0
100
AcDbLine
 62
250
  6
CONTINUOUS
 10
-31.3751051175
 20
3.6330668272
 11
-31.1228443927
 21
3.8393408441
  0
LINE
  5
2A9
100
AcDbEntity
  8
0
100
AcDbLine
 62
250
  6
CONTINUOUS
 10
-31.1228443927
 20
3.8393408441
 11
-30.8680058876
 21
4.044207834
  0
LINE
  5
2AA
100
AcDbEntity
  8
0
100
AcDbLine
 62
250
  6
CONTINUOUS
 10
-30.8680058876
 20
4.044207834
 11
-30.608693594
 21
4.2491626944
  0
LWPOLYLINE
  5
2AB
100
AcDbEntity
  8
0
100
AcDbPolyline
 62
250
  6
CONTINUOUS
 90
5
 70
0
 10
-32.1431710894
 20
3.0082651477
 10
-32.0169191356
 20
3.1068184817
 10
-31.8904921294
 20
3.2080777928
 10
-31.763254597
 20
3.311906298
 10
-31.375143624
 20
3.6331077731
  0
LWPOLYLINE
  5
2AC
100
AcDbEntity
  8
0
100
AcDbPolyline
 62
250
  6
CONTINUOUS
 90
3
 70
0
 10
-30.608693594
 20
4.2491626944
 10
-30.3436199208
 20
4.4552461569
 10
-30.2081855929
 20
4.5593051853
  0
LWPOLYLINE
  5
2AD
100
AcDbEntity
  8
0
100
AcDbPolyline
 62
250
  6
CONTINUOUS
 90
10
 70
0
 10
-31.3996688468
 20
1.9273044907
 10
-31.2903883309
 20
2.0093538452
 10
-31.1824454478
 20
2.0955550914
 10
-31.0753898746
 20
2.1860604349
 10
-30.9685132971
 20
2.2812487308
 10
-30.8615854532
 20
2.3810740389
 10
-30.7548497582
 20
2.4849680075
 10
-30.6480639327
 20
2.5927496806
 10
-30.5405041483
 20
2.7047231623
 10
-30.4316982268
 20
2.8209576925
  0
LINE
  5
2AE
100
AcDbEntity
  8
0
100
AcDbLine
 62
250
  6
CONTINUOUS
 10
-30.0722780627
 20
5.7277732164
 11
-29.9863088632
 21
5.7907848522
  0
LWPOLYLINE
  5
2AF
100
AcDbEntity
  8
0
100
AcDbPolyline
 62
250
  6
CONTINUOUS
 90
3
 70
0
 10
-32.2912218921
 20
3.934922088
 10
-32.1490553785
 20
4.0345374115
 10
-32.0068473817
 20
4.1329811608
  0
LWPOLYLINE
  5
2B0
100
AcDbEntity
  8
0
100
AcDbPolyline
 62
250
  6
CONTINUOUS
 90
4
 70
0
 10
-32.5223464576
 20
2.7339289625
 10
-32.395887207
 20
2.821221865
 10
-32.2695241257
 20
2.9128393085
 10
-32.1431710894
 20
3.0082651477
  0
LWPOLYLINE
  5
2B1
100
AcDbEntity
  8
0
100
AcDbPolyline
 62
250
  6
CONTINUOUS
 90
5
 70
0
 10
-33.1424209534
 20
3.3407839395
 10
-33.0000061994
 20
3.4376480249
 10
-32.8575944492
 20
3.5361154714
 10
-32.7153454918
 20
3.6356401393
 10
-32.2912218921
 20
3.934922088
  0
LINE
  5
2B2
100
AcDbEntity
  8
0
100
AcDbLine
 62
250
  6
CONTINUOUS
 10
-32.0068473817
 20
4.1329811608
 11
-31.8648286595
 21
4.2295305833
  0
LWPOLYLINE
  5
2B3
100
AcDbEntity
  8
0
100
AcDbPolyline
 62
250
  6
CONTINUOUS
 90
6
 70
0
 10
-34.5862333032
 20
4.9521308469
 10
-34.4730424267
 20
5.0240997468
 10
-34.3583836692
 20
5.0952161931
 10
-34.2422510969
 20
5.1654834362
 10
-34.1246442068
 20
5.234901413
 10
-34.0055598086
 20
5.3034717602
  0
LWPOLYLINE
  5
2B4
100
AcDbEntity
  8
0
100
AcDbPolyline
 62
250
  6
CONTINUOUS
 90
5
 70
0
 10
-31.3443907356
 20
4.5666572099
 10
-31.4755291133
 20
4.4841753314
 10
-31.6053343706
 20
4.4008649444
 10
-31.7349013103
 20
4.3160841162
 10
-31.8648140094
 20
4.229510807
  0
LWPOLYLINE
  5
2B5
100
AcDbEntity
  8
0
100
AcDbPolyline
 62
250
  6
CONTINUOUS
 90
5
 70
0
 10
-33.6696631608
 20
3.0008120435
 10
-33.5363890272
 20
3.0840383843
 10
-33.4037788081
 20
3.1686375946
 10
-33.2723370962
 20
3.2543087607
 10
-33.1424539639
 20
3.3408213072
  0
LINE
  5
2B6
100
AcDbEntity
  8
0
100
AcDbLine
 62
250
  6
CONTINUOUS
 10
-33.8033580841
 20
2.9190941925
 11
-33.6696631608
 21
3.0008120435
  0
LINE
  5
2B7
100
AcDbEntity
  8
0
100
AcDbLine
 62
250
  6
CONTINUOUS
 10
-33.9375010941
 20
2.8388663619
 11
-33.8033580841
 21
2.9190941925
  0
LINE
  5
2B8
100
AcDbEntity
  8
0
100
AcDbLine
 62
7
  6
CONTINUOUS
 10
-29.15741096
 20
6.2859598812
 11
-29.9860573396
 21
5.7908087023
  0
LWPOLYLINE
  5
2B9
100
AcDbEntity
  8
0
100
AcDbPolyline
 62
250
  6
CONTINUOUS
 90
8
 70
0
 10
-34.0055593597
 20
5.3034712747
 10
-33.8648076137
 20
5.3822369038
 10
-33.7218171011
 20
5.4596818257
 10
-33.5769987384
 20
5.5355217772
 10
-33.4311084796
 20
5.6093037722
 10
-33.2841905861
 20
5.6809440501
 10
-33.1355421898
 20
5.7506801928
 10
-32.9851548912
 20
5.8183635179
  0
LINE
  5
2BA
100
AcDbEntity
  8
0
100
AcDbLine
 62
7
  6
CONTINUOUS
 10
-30.1072969121
 20
6.0008018016
 11
-29.2641864509
 21
6.4709004563
  0
LWPOLYLINE
  5
2BB
100
AcDbEntity
  8
0
100
AcDbPolyline
 62
250
  6
CONTINUOUS
 90
5
 70
0
 10
-35.0252901071
 20
4.1591669437
 10
-35.0514187525
 20
4.1446340139
 10
-35.0687045715
 20
4.137485667
 10
-35.0771812427
 20
4.136638964
 10
-35.0781169078
 20
4.138246659
  0
LWPOLYLINE
  5
2BC
100
AcDbEntity
  8
0
100
AcDbPolyline
 62
250
  6
CONTINUOUS
 90
5
 70
0
 10
-35.0243269612
 20
4.0346605461
 10
-35.0509913561
 20
4.0200578212
 10
-35.068724697
 20
4.0122536579
 10
-35.0774604546
 20
4.0108720234
 10
-35.0784010301
 20
4.0093000328
  0
LWPOLYLINE
  5
2BD
100
AcDbEntity
  8
0
100
AcDbPolyline
 62
250
  6
CONTINUOUS
 90
10
 70
0
 10
-34.1429096371
 20
6.6806670381
 10
-34.0121142257
 20
6.746017635
 10
-33.8795529
 20
6.8086320405
 10
-33.7450490545
 20
6.8683517724
 10
-33.6083823739
 20
6.9250532333
 10
-33.4694584419
 20
6.9785758729
 10
-33.3283238582
 20
7.0287333532
 10
-33.1849335696
 20
7.0754045925
 10
-33.0391349717
 20
7.1185219474
 10
-32.8908482667
 20
7.1580073298
  0
LWPOLYLINE
  5
2BE
100
AcDbEntity
  8
0
100
AcDbPolyline
 62
7
  6
CONTINUOUS
 90
6
 70
0
 10
-28.537477806
 20
13.7594765886
 10
-28.5256404264
 20
13.7637534972
 10
-28.5133483485
 20
13.7654332609
 10
-28.5009075539
 20
13.7643508791
 10
-28.4885621286
 20
13.7603601913
 10
-28.482728273
 20
13.7573795307
  0
LINE
  5
2BF
100
AcDbEntity
  8
0
100
AcDbLine
 62
7
  6
CONTINUOUS
 10
26.4787873553
 20
-26.9793141959
 11
26.3635710933
 21
-26.9614078515
  0
LINE
  5
2C0
100
AcDbEntity
  8
0
100
AcDbLine
 62
250
  6
CONTINUOUS
 10
32.3680425698
 20
-35.8802607963
 11
32.2311153929
 21
-35.8280637011
  0
LINE
  5
2C1
100
AcDbEntity
  8
0
100
AcDbLine
 62
7
  6
CONTINUOUS
 10
-30.6172007585
 20
4.9154967593
 11
-30.6639361749
 21
4.9691304489
  0
LINE
  5
2C2
100
AcDbEntity
  8
0
100
AcDbLine
 62
7
  6
CONTINUOUS
 10
-30.6639361749
 20
4.9691304489
 11
-30.7756475071
 21
5.1109867528
  0
LWPOLYLINE
  5
2C3
100
AcDbEntity
  8
0
100
AcDbPolyline
 62
250
  6
CONTINUOUS
 90
9
 70
0
 10
-30.2611409805
 20
4.980898453
 10
-30.3055031859
 20
5.0429230631
 10
-30.3293285172
 20
5.1247459442
 10
-30.3321645421
 20
5.2215844622
 10
-30.3141010793
 20
5.3291033485
 10
-30.2758143308
 20
5.4409116086
 10
-30.2203388843
 20
5.5485143348
 10
-30.1515238422
 20
5.6455261417
 10
-30.0722780627
 20
5.7277732164
  0
LWPOLYLINE
  5
2C4
100
AcDbEntity
  8
0
100
AcDbPolyline
 62
7
  6
CONTINUOUS
 90
7
 70
0
 10
-30.7756475071
 20
5.1109867528
 10
-30.8785156084
 20
5.2618359345
 10
-30.9712435502
 20
5.4192823847
 10
-31.0524189967
 20
5.5804081193
 10
-31.1214312145
 20
5.7434038513
 10
-31.1778687608
 20
5.9073464235
 10
-31.221458802
 20
6.0717657299
  0
LWPOLYLINE
  5
2C5
100
AcDbEntity
  8
0
100
AcDbPolyline
 62
250
  6
CONTINUOUS
 90
5
 70
0
 10
-21.2062840743
 20
-4.9762025365
 10
-21.1884283103
 20
-5.0140012182
 10
-21.1652934826
 20
-5.0458789209
 10
-21.1372071253
 20
-5.0712376189
 10
-21.123073179
 20
-5.0803783078
  0
LWPOLYLINE
  5
2C6
100
AcDbEntity
  8
0
100
AcDbPolyline
 62
250
  6
CONTINUOUS
 90
7
 70
0
 10
-34.0055593597
 20
30.6120455603
 10
-33.8648076137
 20
30.2714239079
 10
-33.7218171011
 20
29.9312528508
 10
-33.5769987384
 20
29.5925480298
 10
-33.4311084796
 20
29.2571081773
 10
-33.2841905861
 20
28.925078079
 10
-33.1355421898
 20
28.5950087229
  0
LWPOLYLINE
  5
2C7
100
AcDbEntity
  8
0
100
AcDbPolyline
 62
250
  6
CONTINUOUS
 90
10
 70
0
 10
-34.0055469613
 20
30.6121081348
 10
-34.1246507157
 20
30.904818509
 10
-34.2422729977
 20
31.1978758264
 10
-34.358416985
 20
31.4912817025
 10
-34.473084133
 20
31.7850332923
 10
-34.5862794041
 20
32.0791366562
 10
-34.6980110583
 20
32.3736068485
 10
-34.8082837777
 20
32.6684500551
 10
-34.9170988768
 20
32.9636635048
 10
-35.024459385
 20
33.2592488975
  0
LWPOLYLINE
  5
2C8
100
AcDbEntity
  8
0
100
AcDbPolyline
 62
250
  6
CONTINUOUS
 90
10
 70
0
 10
-34.1429031301
 20
29.3935364772
 10
-34.2490732461
 20
29.6583400435
 10
-34.3528435034
 20
29.9223399788
 10
-34.4543425276
 20
30.1858593712
 10
-34.5536350573
 20
30.4490501351
 10
-34.6509167297
 20
30.7124075498
 10
-34.746501241
 20
30.9767720073
 10
-34.840568129
 20
31.2426459635
 10
-34.9331756241
 20
31.5101922158
 10
-35.0244464589
 20
31.7797496875
  0
LWPOLYLINE
  5
2C9
100
AcDbEntity
  8
0
100
AcDbPolyline
 62
250
  6
CONTINUOUS
 90
4
 70
0
 10
-21.2062649002
 20
-4.9761844077
 10
-21.2501123104
 20
-4.8574948678
 10
-21.2928029258
 20
-4.7383917195
 10
-21.3343470724
 20
-4.6188945877
  0
LWPOLYLINE
  5
2CA
100
AcDbEntity
  8
0
100
AcDbPolyline
 62
250
  6
CONTINUOUS
 90
10
 70
0
 10
-34.0014367493
 20
34.3209751015
 10
-34.0302946365
 20
34.3996723655
 10
-34.0496400918
 20
34.4784104175
 10
-34.059336402
 20
34.5556827034
 10
-34.0592427978
 20
34.630333578
 10
-34.0491601214
 20
34.7005828005
 10
-34.0292538456
 20
34.7642260934
 10
-33.9999389605
 20
34.8199448296
 10
-33.9614559934
 20
34.8670985924
 10
-33.9141127328
 20
34.9048851926
  0
LWPOLYLINE
  5
2CB
100
AcDbEntity
  8
0
100
AcDbPolyline
 62
250
  6
CONTINUOUS
 90
9
 70
0
 10
-34.2171642266
 20
34.4463686637
 10
-34.2446035532
 20
34.5238501146
 10
-34.2621678677
 20
34.600851831
 10
-34.2699465176
 20
34.6759478953
 10
-34.2680086874
 20
34.7480573119
 10
-34.2564064533
 20
34.8155923606
 10
-34.2355518099
 20
34.8766356699
 10
-34.2060357495
 20
34.9300740881
 10
-34.1682500494
 20
34.975411391
  0
LINE
  5
2CC
100
AcDbEntity
  8
0
100
AcDbLine
 62
250
  6
CONTINUOUS
 10
-35.0475021684
 20
33.9477285957
 11
-35.0232123143
 21
33.8786536356
  0
LINE
  5
2CD
100
AcDbEntity
  8
0
100
AcDbLine
 62
250
  6
CONTINUOUS
 10
-30.0835759975
 20
27.1196727873
 11
-29.7296068135
 21
26.0812122697
  0
LINE
  5
2CE
100
AcDbEntity
  8
0
100
AcDbLine
 62
250
  6
CONTINUOUS
 10
-30.9685132971
 20
29.7452489417
 11
-30.7548497582
 21
29.1140515959
  0
LWPOLYLINE
  5
2CF
100
AcDbEntity
  8
0
100
AcDbPolyline
 62
250
  6
CONTINUOUS
 90
5
 70
0
 10
-21.3343470724
 20
-4.6188945877
 10
-21.3746569751
 20
-4.4993186857
 10
-21.4138459074
 20
-4.3793918663
 10
-21.452204941
 20
-4.2582326776
 10
-21.4898148379
 20
-4.1355381938
  0
LWPOLYLINE
  5
2D0
100
AcDbEntity
  8
0
100
AcDbPolyline
 62
250
  6
CONTINUOUS
 90
5
 70
0
 10
-35.025297227
 20
33.7583412691
 10
-35.0515146999
 20
33.836205894
 10
-35.0688004599
 20
33.9118275096
 10
-35.0772179206
 20
33.9851349627
 10
-35.0781146779
 20
34.018089699
  0
LINE
  5
2D1
100
AcDbEntity
  8
0
100
AcDbLine
 62
250
  6
CONTINUOUS
 10
-30.4316978063
 20
28.1510248641
 11
-30.0835759975
 21
27.1196727873
  0
LINE
  5
2D2
100
AcDbEntity
  8
0
100
AcDbLine
 62
250
  6
CONTINUOUS
 10
-30.7548497582
 20
29.1140515959
 11
-30.4316982268
 21
28.1510252296
  0
LWPOLYLINE
  5
2D3
100
AcDbEntity
  8
0
100
AcDbPolyline
 62
250
  6
CONTINUOUS
 90
3
 70
0
 10
-21.4898148379
 20
-4.1355381938
 10
-21.5265692996
 20
-4.0116059612
 10
-21.5624578749
 20
-3.8864357157
  0
LWPOLYLINE
  5
2D4
100
AcDbEntity
  8
0
100
AcDbPolyline
 62
250
  6
CONTINUOUS
 90
10
 70
0
 10
-21.5624803357
 20
-3.8864433908
 10
-21.6096543193
 20
-3.7170569546
 10
-21.654210502
 20
-3.5505125489
 10
-21.6965102833
 20
-3.3849144195
 10
-21.7370009691
 20
-3.2180931871
 10
-21.7758552872
 20
-3.0490697956
 10
-21.8129933019
 20
-2.8782403417
 10
-21.8485447525
 20
-2.7053810935
 10
-21.8828317512
 20
-2.5294295874
 10
-21.9160238987
 20
-2.3500765176
  0
LWPOLYLINE
  5
2D5
100
AcDbEntity
  8
0
100
AcDbPolyline
 62
250
  6
CONTINUOUS
 90
10
 70
0
 10
-21.9160242414
 20
-2.3500800835
 10
-21.9563083895
 20
-2.115736761
 10
-21.9946233521
 20
-1.8708501343
 10
-22.0305723037
 20
-1.6189564555
 10
-22.0636301357
 20
-1.3647404106
 10
-22.0937225389
 20
-1.1096470971
 10
-22.1210786275
 20
-0.8515960795
 10
-22.1454817754
 20
-0.5912450193
 10
-22.1664136109
 20
-0.3322943825
 10
-22.1835359005
 20
-0.0768692812
  0
LWPOLYLINE
  5
2D6
100
AcDbEntity
  8
0
100
AcDbPolyline
 62
250
  6
CONTINUOUS
 90
7
 70
0
 10
-14.2747566524
 20
16.0815140685
 10
-14.3014380868
 20
16.0018578502
 10
-14.3340075427
 20
15.9217758482
 10
-14.3721173471
 20
15.8421555806
 10
-14.4155486851
 20
15.7635416228
 10
-14.4643069329
 20
15.6861217225
 10
-14.518294715
 20
15.6102613484
  0
LWPOLYLINE
  5
2D7
100
AcDbEntity
  8
0
100
AcDbPolyline
 62
250
  6
CONTINUOUS
 90
7
 70
0
 10
-14.5184295902
 20
15.6103042339
 10
-14.5621864151
 20
15.4973692789
 10
-14.5856768625
 20
15.388193058
 10
-14.5884487242
 20
15.2880856039
 10
-14.5706249069
 20
15.2012635426
 10
-14.5328510274
 20
15.1333601387
 10
-14.4864399797
 20
15.093939908
  0
LWPOLYLINE
  5
2D8
100
AcDbEntity
  8
0
100
AcDbPolyline
 62
250
  6
CONTINUOUS
 90
10
 70
0
 10
-10.9991582069
 20
13.6233470639
 10
-10.9333253039
 20
13.7238308611
 10
-10.8532328928
 20
13.8069318544
 10
-10.7593415792
 20
13.8723790745
 10
-10.6497873101
 20
13.9207435914
 10
-10.5271000461
 20
13.951069951
 10
-10.3983416523
 20
13.9608009649
 10
-10.2660656339
 20
13.9489782509
 10
-10.1282071981
 20
13.9162988337
 10
-9.9848955615
 20
13.8626960129
  0
LWPOLYLINE
  5
2D9
100
AcDbEntity
  8
0
100
AcDbPolyline
 62
250
  6
CONTINUOUS
 90
10
 70
0
 10
-10.7114619435
 20
13.0029664106
 10
-10.6661639189
 20
13.0595862118
 10
-10.6129224349
 20
13.1036263479
 10
-10.5521573076
 20
13.1339971781
 10
-10.4847191829
 20
13.15154837
 10
-10.4124134408
 20
13.1572034716
 10
-10.3373307722
 20
13.1507384741
 10
-10.2608928629
 20
13.132444146
 10
-10.1842647221
 20
13.1035935978
 10
-10.1086093509
 20
13.0649688611
  0
LWPOLYLINE
  5
2DA
100
AcDbEntity
  8
0
100
AcDbPolyline
 62
7
  6
CONTINUOUS
 90
6
 70
0
 10
-22.3388879013
 20
3.4070445338
 10
-22.3390194934
 20
3.406918772
 10
-22.341662995
 20
3.4055134869
 10
-22.3476242118
 20
3.4023907166
 10
-22.356304929
 20
3.397188184
 10
-22.3673297307
 20
3.3898116923
  0
LWPOLYLINE
  5
2DB
100
AcDbEntity
  8
0
100
AcDbPolyline
 62
250
  6
CONTINUOUS
 90
6
 70
0
 10
-30.6639361749
 20
4.9691304489
 10
-30.8051001069
 20
4.8887977184
 10
-30.9428163456
 20
4.8089701938
 10
-31.0779160975
 20
4.7291110434
 10
-31.2116606329
 20
4.6484224343
 10
-31.3443907356
 20
4.5666572099
  0
LWPOLYLINE
  5
2DC
100
AcDbEntity
  8
0
100
AcDbPolyline
 62
250
  6
CONTINUOUS
 90
4
 70
0
 10
-34.3396090653
 20
2.6090382739
 10
-34.2060249806
 20
2.6835902426
 10
-34.0718781994
 20
2.7602689697
 10
-33.9375010941
 20
2.8388663619
  0
LWPOLYLINE
  5
2DD
100
AcDbEntity
  8
0
100
AcDbPolyline
 62
250
  6
CONTINUOUS
 90
6
 70
0
 10
-33.1046631913
 20
2.3924160561
 10
-32.9856848046
 20
2.454510259
 10
-32.8679210699
 20
2.5197516875
 10
-32.7514013311
 20
2.5881141423
 10
-32.6362106814
 20
2.6595383604
 10
-32.5224054587
 20
2.7339787078
  0
LINE
  5
2DE
100
AcDbEntity
  8
0
100
AcDbLine
 62
250
  6
CONTINUOUS
 10
-34.2703662055
 20
2.5088566202
 11
-34.217203175
 21
2.5361436166
  0
LWPOLYLINE
  5
2DF
100
AcDbEntity
  8
0
100
AcDbPolyline
 62
250
  6
CONTINUOUS
 90
5
 70
0
 10
-34.0014368063
 20
2.412073376
 10
-34.0302949994
 20
2.3985049529
 10
-34.0496411046
 20
2.3888893464
 10
-34.0593383133
 20
2.3835191421
 10
-34.0605067965
 20
2.3824726802
  0
LINE
  5
2E0
100
AcDbEntity
  8
0
100
AcDbLine
 62
250
  6
CONTINUOUS
 10
-34.2705651666
 20
2.5087643485
 11
-34.2703662055
 21
2.5088566202
  0
LWPOLYLINE
  5
2E1
100
AcDbEntity
  8
0
100
AcDbPolyline
 62
250
  6
CONTINUOUS
 90
3
 70
0
 10
-32.9851548912
 20
5.8183635179
 10
-32.8337503764
 20
5.8835068186
 10
-32.6816987901
 20
5.9457889495
  0
LINE
  5
2E2
100
AcDbEntity
  8
0
100
AcDbLine
 62
7
  6
CONTINUOUS
 10
-30.2009078093
 20
5.9626341481
 11
-30.1077012072
 21
6.0010472425
  0
LINE
  5
2E3
100
AcDbEntity
  8
0
100
AcDbLine
 62
250
  6
CONTINUOUS
 10
-13.6497586363
 20
14.9216106637
 11
-13.8096875182
 21
14.8669098569
  0
LINE
  5
2E4
100
AcDbEntity
  8
0
100
AcDbLine
 62
250
  6
CONTINUOUS
 10
-13.8096875182
 20
14.8669098569
 11
-13.8978690483
 21
14.8392310808
  0
LINE
  5
2E5
100
AcDbEntity
  8
0
100
AcDbLine
 62
250
  6
CONTINUOUS
 10
-13.5776781348
 20
14.9439433439
 11
-13.6497586363
 21
14.9216106637
  0
LWPOLYLINE
  5
2E6
100
AcDbEntity
  8
0
100
AcDbPolyline
 62
7
  6
CONTINUOUS
 90
3
 70
0
 10
9.8792308283
 20
-17.3398256716
 10
9.9960303469
 20
-17.3318800916
 10
10.103173394
 20
-17.3084355931
  0
LWPOLYLINE
  5
2E7
100
AcDbEntity
  8
SUPERFICI
100
AcDbPolyline
 62
7
  6
CONTINUOUS
 90
6
 70
0
 10
17.7648635099
 20
-19.8600165676
 10
17.7648244243
 20
-19.8600121104
 10
17.7629198581
 20
-19.8612633408
 10
17.7580412751
 20
-19.8645397041
 10
17.7501474567
 20
-19.8691725538
 10
17.7393066697
 20
-19.8748186564
  0
LWPOLYLINE
  5
2E8
100
AcDbEntity
  8
0
100
AcDbPolyline
 62
7
  6
CONTINUOUS
 90
6
 70
0
 10
26.3635710933
 20
-26.9614078515
 10
26.2614697923
 20
-26.9273585963
 10
26.1756929883
 20
-26.8792637152
 10
26.1088123582
 20
-26.8185592645
 10
26.0666101281
 20
-26.7491874423
 10
26.0537101662
 20
-26.6925158975
  0
LWPOLYLINE
  5
2E9
100
AcDbEntity
  8
0
100
AcDbPolyline
 62
250
  6
CONTINUOUS
 90
9
 70
0
 10
26.9037292659
 20
-30.2837995601
 10
27.0159615552
 20
-30.3339337111
 10
27.1266385579
 20
-30.3793131888
 10
27.2356150426
 20
-30.4198960228
 10
27.3427270028
 20
-30.4556395378
 10
27.4479648223
 20
-30.4865574896
 10
27.5512025809
 20
-30.512626941
 10
27.6521782448
 20
-30.5337669475
 10
27.7508619205
 20
-30.5499415252
  0
LWPOLYLINE
  5
2EA
100
AcDbEntity
  8
0
100
AcDbPolyline
 62
7
  6
CONTINUOUS
 90
4
 70
0
 10
32.3349189767
 20
-35.9470287669
 10
32.4068950575
 20
-35.980859472
 10
32.4811956392
 20
-36.0103004043
 10
32.5651800627
 20
-36.0355579021
  0
LWPOLYLINE
  5
2EB
100
AcDbEntity
  8
0
100
AcDbPolyline
 62
250
  6
CONTINUOUS
 90
6
 70
0
 10
-34.3396090641
 20
2.6090382731
 10
-34.3252200176
 20
2.5997433123
 10
-34.3112933254
 20
2.5910103628
 10
-34.2968408873
 20
2.5822337435
 10
-34.2822270732
 20
2.5735855361
 10
-34.2677581634
 20
2.5651558599
  0
LWPOLYLINE
  5
2EC
100
AcDbEntity
  8
0
100
AcDbPolyline
 62
250
  6
CONTINUOUS
 90
10
 70
0
 10
-32.5223387398
 20
2.7339186166
 10
-32.4036528018
 20
2.6354711736
 10
-32.2832456502
 20
2.5398994516
 10
-32.161101612
 20
2.4468368082
 10
-32.0373620148
 20
2.3559851818
 10
-31.9122107595
 20
2.2671293888
 10
-31.7858261252
 20
2.1800934946
 10
-31.6582611353
 20
2.0946386114
 10
-31.5295259336
 20
2.0104714059
 10
-31.3996688468
 20
1.9273044907
  0
LWPOLYLINE
  5
2ED
100
AcDbEntity
  8
0
100
AcDbPolyline
 62
250
  6
CONTINUOUS
 90
10
 70
0
 10
-32.5224054587
 20
2.7339787078
 10
-32.5958530207
 20
2.7972324843
 10
-32.668264025
 20
2.8614937598
 10
-32.7396033678
 20
2.9267769909
 10
-32.8098234993
 20
2.9930850923
 10
-32.8789112323
 20
3.0604363847
 10
-32.9468885903
 20
3.1288874668
 10
-33.0136394935
 20
3.1984648306
 10
-33.0788898407
 20
3.2690960523
 10
-33.1424564788
 20
3.3408244049
  0
LWPOLYLINE
  5
2EE
100
AcDbEntity
  8
0
100
AcDbPolyline
 62
250
  6
CONTINUOUS
 90
5
 70
0
 10
-35.0246296383
 20
18.9577398346
 10
-35.0485796113
 20
18.993908575
 10
-35.0640762897
 20
19.0310287478
 10
-35.0711774286
 20
19.0686205592
 10
-35.0716896337
 20
19.0822406922
  0
LWPOLYLINE
  5
2EF
100
AcDbEntity
  8
0
100
AcDbPolyline
 62
250
  6
CONTINUOUS
 90
5
 70
0
 10
-32.8910575087
 20
26.653903494
 10
-33.0393420546
 20
26.9430100582
 10
-33.1851306149
 20
27.2359763747
 10
-33.328503898
 20
27.532826766
 10
-33.4696151881
 20
27.8337136766
  0
LWPOLYLINE
  5
2F0
100
AcDbEntity
  8
0
100
AcDbPolyline
 62
250
  6
CONTINUOUS
 90
4
 70
0
 10
-32.2290690849
 20
26.7104854764
 10
-32.3810862561
 20
27.0117728197
 10
-32.5318293192
 20
27.3161580001
 10
-32.6817141657
 20
27.6243999006
  0
LINE
  5
2F1
100
AcDbEntity
  8
0
100
AcDbLine
 62
250
  6
CONTINUOUS
 10
-32.8337503764
 20
27.9432488299
 11
-32.6816987901
 21
27.6244382276
  0
LWPOLYLINE
  5
2F2
100
AcDbEntity
  8
0
100
AcDbPolyline
 62
250
  6
CONTINUOUS
 90
3
 70
0
 10
-33.1355421898
 20
28.5950087229
 10
-32.9851548912
 20
28.2671215586
 10
-32.8337503764
 20
27.9432488299
  0
LWPOLYLINE
  5
2F3
100
AcDbEntity
  8
0
100
AcDbPolyline
 62
250
  6
CONTINUOUS
 90
10
 70
0
 10
-30.6638368635
 20
25.6529864074
 10
-30.8050093759
 20
25.9612338949
 10
-30.9427358406
 20
26.2651268269
 10
-31.0778466565
 20
26.566612861
 10
-31.2116017996
 20
26.8686130119
 10
-31.3443419169
 20
27.1719829302
 10
-31.47549104
 20
27.4753963905
 10
-31.6053083657
 20
27.7793447338
 10
-31.7348882813
 20
28.0862603721
 10
-31.8648150914
 20
28.3973983909
  0
LWPOLYLINE
  5
2F4
100
AcDbEntity
  8
0
100
AcDbPolyline
 62
250
  6
CONTINUOUS
 90
6
 70
0
 10
-33.4696151881
 20
27.8337136766
 10
-33.608510862
 20
28.138535625
 10
-33.7451462288
 20
28.4469346745
 10
-33.8796170631
 20
28.7588069478
 10
-34.0121445494
 20
29.0743051755
 10
-34.1429065057
 20
29.393454867
  0
LWPOLYLINE
  5
2F5
100
AcDbEntity
  8
0
100
AcDbPolyline
 62
7
  6
CONTINUOUS
 90
9
 70
0
 10
-30.9464959153
 20
24.3039459985
 10
-30.9163066152
 20
24.2368337198
 10
-30.8576953962
 20
24.1775569402
 10
-30.7743187122
 20
24.1279712499
 10
-30.6686277284
 20
24.0895978464
 10
-30.5475337356
 20
24.0657438301
 10
-30.424113164
 20
24.0587859719
 10
-30.3072493587
 20
24.0682318593
 10
-30.2000967583
 20
24.0934710934
  0
LWPOLYLINE
  5
2F6
100
AcDbEntity
  8
0
100
AcDbPolyline
 62
250
  6
CONTINUOUS
 90
10
 70
0
 10
-33.5923960969
 20
34.0856809149
 10
-33.469836455
 20
33.7999851302
 10
-33.347968632
 20
33.5124971187
 10
-33.2268572041
 20
33.2233587382
 10
-33.1064648737
 20
32.9324642607
 10
-32.9869624261
 20
32.6402077951
 10
-32.8687185611
 20
32.3474886943
 10
-32.7518903945
 20
32.0547100234
 10
-32.6364336329
 20
31.7617731699
 10
-32.5224054757
 20
31.468829234
  0
LINE
  5
2F7
100
AcDbEntity
  8
0
100
AcDbLine
 62
250
  6
CONTINUOUS
 10
-34.0726096508
 20
33.8701365581
 11
-34.3396028228
 21
34.5149617279
  0
LINE
  5
2F8
100
AcDbEntity
  8
0
100
AcDbLine
 62
250
  6
CONTINUOUS
 10
-33.804421357
 20
33.2165599589
 11
-34.0726096508
 21
33.8701365581
  0
LINE
  5
2F9
100
AcDbEntity
  8
0
100
AcDbLine
 62
250
  6
CONTINUOUS
 10
-33.5373556587
 20
32.5599387489
 11
-33.804421357
 21
33.2165599589
  0
LWPOLYLINE
  5
2FA
100
AcDbEntity
  8
0
100
AcDbPolyline
 62
250
  6
CONTINUOUS
 90
4
 70
0
 10
-32.2912218921
 20
29.4425528492
 10
-32.1490553785
 20
29.0905219411
 10
-32.0068473817
 20
28.7416638355
 10
-31.8648286595
 20
28.3973957192
  0
LINE
  5
2FB
100
AcDbEntity
  8
0
100
AcDbLine
 62
250
  6
CONTINUOUS
 10
-33.2727616683
 20
31.9035334582
 11
-33.5373556587
 21
32.5599387489
  0
LINE
  5
2FC
100
AcDbEntity
  8
0
100
AcDbLine
 62
250
  6
CONTINUOUS
 10
-32.5738042036
 20
30.1489401944
 11
-32.2912218921
 21
29.4425528492
  0
LINE
  5
2FD
100
AcDbEntity
  8
0
100
AcDbLine
 62
250
  6
CONTINUOUS
 10
-33.2727616683
 20
31.9035334582
 11
-33.0000061994
 21
31.2207288278
  0
LINE
  5
2FE
100
AcDbEntity
  8
0
100
AcDbLine
 62
250
  6
CONTINUOUS
 10
-33.0000061994
 20
31.2207288278
 11
-32.5738042036
 21
30.1489401944
  0
LWPOLYLINE
  5
2FF
100
AcDbEntity
  8
0
100
AcDbPolyline
 62
250
  6
CONTINUOUS
 90
10
 70
0
 10
-31.3751052165
 20
28.4283390107
 10
-31.2491251836
 20
28.1013952634
 10
-31.1227836709
 20
27.7772540345
 10
-30.9958241994
 20
27.4552802045
 10
-30.8679127313
 20
27.1346448476
 10
-30.7388542536
 20
26.8148693295
 10
-30.6085966813
 20
26.495817868
 10
-30.4769422948
 20
26.1769831031
 10
-30.3435438226
 20
25.8574933424
 10
-30.2081245666
 20
25.5366504738
  0
LWPOLYLINE
  5
300
100
AcDbEntity
  8
0
100
AcDbPolyline
 62
250
  6
CONTINUOUS
 90
3
 70
0
 10
-32.5223464576
 20
31.4688108416
 10
-32.395887207
 20
31.1397421659
 10
-32.2695241257
 20
30.8072310303
  0
LINE
  5
301
100
AcDbEntity
  8
0
100
AcDbLine
 62
250
  6
CONTINUOUS
 10
-31.5055975901
 20
28.770874202
 11
-31.375143624
 21
28.4283422215
  0
LINE
  5
302
100
AcDbEntity
  8
0
100
AcDbLine
 62
250
  6
CONTINUOUS
 10
-32.2695241257
 20
30.8072310303
 11
-32.0169191356
 21
30.1349828596
  0
LWPOLYLINE
  5
303
100
AcDbEntity
  8
0
100
AcDbPolyline
 62
250
  6
CONTINUOUS
 90
3
 70
0
 10
-32.0169191356
 20
30.1349828596
 10
-31.763254597
 20
29.4561041319
 10
-31.5055975901
 20
28.770874202
  0
LWPOLYLINE
  5
304
100
AcDbEntity
  8
0
100
AcDbPolyline
 62
250
  6
CONTINUOUS
 90
10
 70
0
 10
-31.3996287675
 20
30.9790491612
 10
-31.4967141815
 20
31.2467171376
 10
-31.5946360785
 20
31.5126289641
 10
-31.6934316497
 20
31.7768887517
 10
-31.7929712149
 20
32.0391642393
 10
-31.8934542112
 20
32.2999983628
 10
-31.9954221947
 20
32.560805117
 10
-32.0990903
 20
32.8221326755
 10
-32.2043346497
 20
33.0836663856
 10
-32.3112040318
 20
33.3455182267
  0
LWPOLYLINE
  5
305
100
AcDbEntity
  8
0
100
AcDbPolyline
 62
250
  6
CONTINUOUS
 90
5
 70
0
 10
-31.3996688468
 20
30.9790198688
 10
-31.2903883309
 20
30.6728799131
 10
-31.1824454478
 20
30.3657720485
 10
-31.0753898746
 20
30.0570296042
 10
-30.9685132971
 20
29.7452489417
  0
LINE
  5
306
100
AcDbEntity
  8
0
100
AcDbLine
 62
250
  6
CONTINUOUS
 10
-29.7296068135
 20
26.0812122697
 11
-29.3782385314
 21
25.0603792174
  0
LINE
  5
307
100
AcDbEntity
  8
0
100
AcDbLine
 62
7
  6
CONTINUOUS
 10
-13.8090541414
 20
14.463003591
 11
-13.8074846566
 21
14.4165569357
  0
LINE
  5
308
100
AcDbEntity
  8
0
100
AcDbLine
 62
7
  6
CONTINUOUS
 10
-14.2503681796
 20
-3.4214533515
 11
-14.2507224186
 21
-3.4104873173
  0
LWPOLYLINE
  5
309
100
AcDbEntity
  8
0
100
AcDbPolyline
 62
250
  6
CONTINUOUS
 90
9
 70
0
 10
-13.1388426038
 20
14.2185366831
 10
-13.1396544475
 20
14.2927060501
 10
-13.1438864651
 20
14.3684647756
 10
-13.1515386566
 20
14.4458128598
 10
-13.1626809114
 20
14.5251325749
 10
-13.1772433401
 20
14.6060416486
 10
-13.1950162745
 20
14.6873932638
 10
-13.2159298252
 20
14.7688051482
 10
-13.2400538817
 20
14.8506595742
  0
LINE
  5
30A
100
AcDbEntity
  8
0
100
AcDbLine
 62
7
  6
CONTINUOUS
 10
-14.2529292781
 20
5.6527966428
 11
-14.2507224186
 21
-3.4104873173
  0
LINE
  5
30B
100
AcDbEntity
  8
0
100
AcDbLine
 62
250
  6
CONTINUOUS
 10
-14.4487453954
 20
-1.5038113145
 11
-14.4487453954
 21
-1.2897293929
  0
LINE
  5
30C
100
AcDbEntity
  8
0
100
AcDbLine
 62
7
  6
CONTINUOUS
 10
-14.423188579
 20
-1.2750822524
 11
-14.423188579
 21
-1.4554029751
  0
LINE
  5
30D
100
AcDbEntity
  8
0
100
AcDbLine
 62
250
  6
CONTINUOUS
 10
-13.8253640354
 20
-3.708580334
 11
-13.8253640354
 21
14.4180410992
  0
LINE
  5
30E
100
AcDbEntity
  8
0
100
AcDbLine
 62
250
  6
CONTINUOUS
 10
-13.1388426038
 20
14.2185366831
 11
-13.1388426038
 21
-3.9010107777
  0
LINE
  5
30F
100
AcDbEntity
  8
0
100
AcDbLine
 62
7
  6
CONTINUOUS
 10
-14.2507224184
 20
14.7170754779
 11
-14.2529292782
 21
5.6528779653
  0
LWPOLYLINE
  5
310
100
AcDbEntity
  8
0
100
AcDbPolyline
 62
7
  6
CONTINUOUS
 90
4
 70
0
 10
-14.2645994894
 20
-3.4213199917
 10
-14.2646361291
 20
-3.4271089489
 10
-14.2651843142
 20
-3.4422326081
 10
-14.265318176
 20
-3.4451358708
  0
LWPOLYLINE
  5
311
100
AcDbEntity
  8
0
100
AcDbPolyline
 62
7
  6
CONTINUOUS
 90
6
 70
0
 10
-14.4231886144
 20
-1.4552204089
 10
-14.423511701
 20
-1.4616465489
 10
-14.4262054374
 20
-1.4743408041
 10
-14.4314777886
 20
-1.4856760089
 10
-14.4390877883
 20
-1.4955093154
 10
-14.4487454225
 20
-1.5036539275
  0
LWPOLYLINE
  5
312
100
AcDbEntity
  8
0
100
AcDbPolyline
 62
250
  6
CONTINUOUS
 90
4
 70
0
 10
-14.2302635064
 20
16.3141354873
 10
-14.2392136317
 20
16.2378777981
 10
-14.2540448469
 20
16.1602355695
 10
-14.2747566524
 20
16.0815140685
  0
LWPOLYLINE
  5
313
100
AcDbEntity
  8
0
100
AcDbPolyline
 62
250
  6
CONTINUOUS
 90
13
 70
0
 10
-10.7114033428
 20
13.0031418076
 10
-10.6977643719
 20
13.0612068843
 10
-10.6943286552
 20
13.120625811
 10
-10.6997468703
 20
13.1804334621
 10
-10.7129364565
 20
13.2398748884
 10
-10.7328859153
 20
13.2980561245
 10
-10.7583947837
 20
13.3539129338
 10
-10.78740443
 20
13.4052652875
 10
-10.8196266192
 20
13.4531301521
 10
-10.8572393171
 20
13.5005361589
 10
-10.900925804
 20
13.5468905681
 10
-10.9488418788
 20
13.5888408562
 10
-10.9999082127
 20
13.6237433632
  0
LINE
  5
314
100
AcDbEntity
  8
0
100
AcDbLine
 62
7
  6
CONTINUOUS
 10
-10.1086843877
 20
13.0643011889
 11
-10.1501521842
 21
12.9567031636
  0
LWPOLYLINE
  5
315
100
AcDbEntity
  8
0
100
AcDbPolyline
 62
250
  6
CONTINUOUS
 90
10
 70
0
 10
-10.999944002
 20
13.6237625386
 10
-11.0261838201
 20
13.5730071237
 10
-11.0494395426
 20
13.5192356606
 10
-11.0697111696
 20
13.4624481493
 10
-11.0870599001
 20
13.402380919
 10
-11.101424535
 20
13.3392976404
 10
-11.1126214769
 20
13.2739893263
 10
-11.1205895267
 20
13.2067196477
 10
-11.1253898834
 20
13.1372249336
 10
-11.1270225472
 20
13.065505184
  0
LWPOLYLINE
  5
316
100
AcDbEntity
  8
0
100
AcDbPolyline
 62
7
  6
CONTINUOUS
 90
10
 70
0
 10
-10.7150150577
 20
12.9978976386
 10
-10.7325065369
 20
12.9684807041
 10
-10.7478955019
 20
12.9372038412
 10
-10.7611762721
 20
12.9042377303
 10
-10.7723630554
 20
12.8699404364
 10
-10.7815041802
 20
12.834391609
 10
-10.7886264916
 20
12.7973640697
 10
-10.7937140483
 20
12.7588988009
 10
-10.7967568339
 20
12.7193197619
 10
-10.7977557598
 20
12.6787968406
  0
LWPOLYLINE
  5
317
100
AcDbEntity
  8
0
100
AcDbPolyline
 62
250
  6
CONTINUOUS
 90
10
 70
0
 10
-22.1166158135
 20
1.2469346435
 10
-22.2031762317
 20
1.1823844993
 10
-22.2825112607
 20
1.0985559984
 10
-22.3509245299
 20
1.0002818725
 10
-22.405594439
 20
0.8919858723
 10
-22.4428700463
 20
0.7801730697
 10
-22.4600419244
 20
0.6733044713
 10
-22.4566947601
 20
0.5776102929
 10
-22.4329767688
 20
0.4971590342
 10
-22.3895761561
 20
0.4363609525
  0
LINE
  5
318
100
AcDbEntity
  8
0
100
AcDbLine
 62
7
  6
CONTINUOUS
 10
-22.3673293672
 20
3.3898118584
 11
-23.2079049012
 21
2.8507896477
  0
LINE
  5
319
100
AcDbEntity
  8
0
100
AcDbLine
 62
7
  6
CONTINUOUS
 10
-9.0844326294
 20
10.9757901638
 11
-8.4860406635
 21
11.3212978785
  0
LINE
  5
31A
100
AcDbEntity
  8
0
100
AcDbLine
 62
7
  6
CONTINUOUS
 10
-22.3638401722
 20
3.0662652102
 11
-22.9724645727
 21
2.7148493528
  0
LINE
  5
31B
100
AcDbEntity
  8
0
100
AcDbLine
 62
7
  6
CONTINUOUS
 10
-25.3577520438
 20
4.0920844439
 11
-24.4241983361
 21
4.5774222224
  0
LINE
  5
31C
100
AcDbEntity
  8
0
100
AcDbLine
 62
7
  6
CONTINUOUS
 10
-9.0660389396
 20
10.8186287226
 11
-8.3043164773
 21
11.2123433544
  0
LINE
  5
31D
100
AcDbEntity
  8
0
100
AcDbLine
 62
250
  6
CONTINUOUS
 10
-10.0534705805
 20
12.4541764363
 11
-9.9551505732
 21
12.4977001881
  0
LWPOLYLINE
  5
31E
100
AcDbEntity
  8
0
100
AcDbPolyline
 62
250
  6
CONTINUOUS
 90
5
 70
0
 10
-33.5924711414
 20
2.1756729081
 10
-33.4688623349
 20
2.225053271
 10
-33.3463124813
 20
2.277658472
 10
-33.2248828959
 20
2.3334602711
 10
-33.1046631913
 20
2.3924160561
  0
LWPOLYLINE
  5
31F
100
AcDbEntity
  8
0
100
AcDbPolyline
 62
250
  6
CONTINUOUS
 90
10
 70
0
 10
-32.3112477322
 20
1.4358166578
 10
-32.2041722918
 20
1.4773948669
 10
-32.0987696369
 20
1.5221566676
 10
-31.9949923675
 20
1.5701023337
 10
-31.8929558709
 20
1.6211470592
 10
-31.7924489875
 20
1.6753621614
 10
-31.6929476086
 20
1.7330227494
 10
-31.5942580435
 20
1.794261493
 10
-31.4965024987
 20
1.8590195074
 10
-31.3996409088
 20
1.9273245198
  0
LWPOLYLINE
  5
320
100
AcDbEntity
  8
0
100
AcDbPolyline
 62
250
  6
CONTINUOUS
 90
10
 70
0
 10
27.2067764177
 20
-9.795199877
 10
27.4464647738
 20
-9.7634354071
 10
27.6874651643
 20
-9.7253820001
 10
27.9293749022
 20
-9.6810747245
 10
28.172260037
 20
-9.6304480252
 10
28.4151978627
 20
-9.5736299971
 10
28.6563054165
 20
-9.5110606894
 10
28.8946907291
 20
-9.4430347718
 10
29.13042273
 20
-9.3695849212
 10
29.3630894084
 20
-9.2908623112
  0
LINE
  5
321
100
AcDbEntity
  8
0
100
AcDbLine
 62
250
  6
CONTINUOUS
 10
26.4787133007
 20
-17.9163466462
 11
26.5666758937
 21
-17.9240000669
  0
LWPOLYLINE
  5
322
100
AcDbEntity
  8
0
100
AcDbPolyline
 62
250
  6
CONTINUOUS
 90
9
 70
0
 10
26.5666758937
 20
-17.9240000669
 10
26.6539615998
 20
-17.9351078019
 10
26.7401911545
 20
-17.9496275763
 10
26.8252490822
 20
-17.9675786319
 10
26.9084440563
 20
-17.9888706339
 10
26.9885888624
 20
-18.0131992684
 10
27.0651042937
 20
-18.0403287522
 10
27.1379388589
 20
-18.0701961504
 10
27.2067853356
 20
-18.102667075
  0
LWPOLYLINE
  5
323
100
AcDbEntity
  8
0
100
AcDbPolyline
 62
250
  6
CONTINUOUS
 90
6
 70
0
 10
6.3266573014
 20
-15.3442075818
 10
6.2055973888
 20
-15.3264100816
 10
6.09775482
 20
-15.2926576848
 10
6.0081028497
 20
-15.24523058
 10
5.9403500897
 20
-15.1863761264
 10
5.8992089096
 20
-15.1195105933
  0
LWPOLYLINE
  5
324
100
AcDbEntity
  8
0
100
AcDbPolyline
 62
250
  6
CONTINUOUS
 90
4
 70
0
 10
6.5796536231
 20
-15.3779501585
 10
6.49703491
 20
-15.363063767
 10
6.4125543123
 20
-15.3517571876
 10
6.3266754148
 20
-15.3441153482
  0
LWPOLYLINE
  5
325
100
AcDbEntity
  8
0
100
AcDbPolyline
 62
7
  6
CONTINUOUS
 90
10
 70
0
 10
26.1451605456
 20
-27.9784137005
 10
26.1989745147
 20
-28.0039722589
 10
26.2521730752
 20
-28.0263748175
 10
26.3046980107
 20
-28.0456292725
 10
26.356494085
 20
-28.0617375264
 10
26.4074797901
 20
-28.0746935712
 10
26.4574748544
 20
-28.0844748152
 10
26.506376987
 20
-28.0910886966
 10
26.5542115524
 20
-28.0945607957
 10
26.6009511659
 20
-28.0948981911
  0
LWPOLYLINE
  5
326
100
AcDbEntity
  8
0
100
AcDbPolyline
 62
250
  6
CONTINUOUS
 90
10
 70
0
 10
28.5787611001
 20
-32.7034530943
 10
28.7086210942
 20
-32.7702471628
 10
28.8373605153
 20
-32.8347459789
 10
28.9649288797
 20
-32.896605426
 10
29.0913171387
 20
-32.9555209173
 10
29.2164721421
 20
-33.0111922777
 10
29.3402156421
 20
-33.0632377059
 10
29.4623639264
 20
-33.1112297678
 10
29.5827755936
 20
-33.154707135
 10
29.7014662065
 20
-33.1933211171
  0
LINE
  5
327
100
AcDbEntity
  8
0
100
AcDbLine
 62
250
  6
CONTINUOUS
 10
27.5963580154
 20
-32.1686033047
 11
28.5788213376
 21
-32.7035172873
  0
LWPOLYLINE
  5
328
100
AcDbEntity
  8
0
100
AcDbPolyline
 62
250
  6
CONTINUOUS
 90
4
 70
0
 10
32.3349189767
 20
-35.9470287669
 10
32.2841522366
 20
-35.9186300726
 10
32.2224580372
 20
-35.8745222074
 10
32.1635496664
 20
-35.8212876972
  0
LWPOLYLINE
  5
329
100
AcDbEntity
  8
0
100
AcDbPolyline
 62
250
  6
CONTINUOUS
 90
11
 70
0
 10
20.0056951335
 20
-26.5547957378
 10
20.7835378353
 20
-26.9998183544
 10
21.5402298996
 20
-27.4270313356
 10
22.2762106464
 20
-27.8367234596
 10
22.9928629135
 20
-28.2305512762
 10
23.6900369716
 20
-28.6088447445
 10
24.367834689
 20
-28.9720307774
 10
25.0282270414
 20
-29.3213687397
 10
25.671622128
 20
-29.6573134751
 10
26.2979613989
 20
-29.9795086691
 10
26.903639586
 20
-30.2836118119
  0
LWPOLYLINE
  5
32A
100
AcDbEntity
  8
0
100
AcDbPolyline
 62
250
  6
CONTINUOUS
 90
7
 70
0
 10
21.1296045064
 20
-28.5361191814
 10
22.2793563528
 20
-29.1945541184
 10
23.3988276386
 20
-29.8299312132
 10
24.48876662
 20
-30.4437225284
 10
25.5514389598
 20
-31.0376785387
 10
26.5876139629
 20
-31.6127557503
 10
27.5963580154
 20
-32.1686033047
  0
LWPOLYLINE
  5
32B
100
AcDbEntity
  8
0
100
AcDbPolyline
 62
7
  6
CONTINUOUS
 90
3
 70
0
 10
-34.1247493716
 20
2.4196650987
 10
-32.2343589259
 20
1.3365181095
 10
-28.0120155554
 20
-1.1002059677
  0
LINE
  5
32C
100
AcDbEntity
  8
0
100
AcDbLine
 62
7
  6
CONTINUOUS
 10
19.1810057214
 20
-28.3514483362
 11
26.0748049943
 21
-32.3292597383
  0
LINE
  5
32D
100
AcDbEntity
  8
0
100
AcDbLine
 62
7
  6
CONTINUOUS
 10
-21.123073179
 20
-5.0803783078
 11
19.1810057214
 21
-28.3514483362
  0
LINE
  5
32E
100
AcDbEntity
  8
0
100
AcDbLine
 62
7
  6
CONTINUOUS
 10
19.097794826
 20
-28.2472725649
 11
-21.2062840743
 21
-4.9762025365
  0
LINE
  5
32F
100
AcDbEntity
  8
0
100
AcDbLine
 62
250
  6
CONTINUOUS
 10
-21.2065284143
 20
-4.9755448919
 11
-34.0014368063
 21
2.412073376
  0
LWPOLYLINE
  5
330
100
AcDbEntity
  8
0
100
AcDbPolyline
 62
250
  6
CONTINUOUS
 90
9
 70
0
 10
21.1296045064
 20
-28.5361191814
 10
-23.9504666512
 20
-2.507451081
 10
-25.100209968
 20
-1.8381863302
 10
-26.2196729354
 20
-1.1808308477
 10
-27.309603867
 20
-0.5359925952
 10
-28.3722683872
 20
0.0971942607
 10
-29.4084358442
 20
0.718661613
 10
-30.4171725484
 20
1.3276821626
 10
-31.3996287683
 20
1.9272880973
  0
LINE
  5
331
100
AcDbEntity
  8
0
100
AcDbLine
 62
7
  6
CONTINUOUS
 10
-28.0120155554
 20
-1.1002059677
 11
-21.1226725915
 21
-5.0806206343
  0
LINE
  5
332
100
AcDbEntity
  8
0
100
AcDbLine
 62
7
  6
CONTINUOUS
 10
26.0748049943
 20
-32.3292597383
 11
30.2983647006
 21
-34.7690793291
  0
LWPOLYLINE
  5
333
100
AcDbEntity
  8
0
100
AcDbPolyline
 62
250
  6
CONTINUOUS
 90
7
 70
0
 10
32.149839206
 20
-35.7836516644
 10
32.1634879171
 20
-35.7915411921
 10
32.1770985037
 20
-35.799266146
 10
32.1906697513
 20
-35.8067917657
 10
32.2041971678
 20
-35.8140967923
 10
32.2176743254
 20
-35.8211595145
 10
32.2310958918
 20
-35.8279591661
  0
LWPOLYLINE
  5
334
100
AcDbEntity
  8
0
100
AcDbPolyline
 62
250
  6
CONTINUOUS
 90
6
 70
0
 10
20.0056951335
 20
-26.5547957378
 10
-23.5336640832
 20
-1.4157154024
 10
-24.3115067838
 20
-0.962504765
 10
-25.0681988491
 20
-0.515908717
 10
-25.8041795983
 20
-0.0757087211
 10
-26.5208318679
 20
0.3580355383
  0
LINE
  5
335
100
AcDbEntity
  8
0
100
AcDbLine
 62
250
  6
CONTINUOUS
 10
-34.2677581634
 20
2.5651558599
 11
-34.1637429825
 21
2.5052568655
  0
LINE
  5
336
100
AcDbEntity
  8
0
100
AcDbLine
 62
250
  6
CONTINUOUS
 10
-34.1637429825
 20
2.5052568655
 11
-33.9932928687
 21
2.4067640151
  0
LINE
  5
337
100
AcDbEntity
  8
0
100
AcDbLine
 62
250
  6
CONTINUOUS
 10
31.8848614766
 20
-35.6304566567
 11
19.0975507552
 21
-28.2466150756
  0
LINE
  5
338
100
AcDbEntity
  8
0
100
AcDbLine
 62
7
  6
CONTINUOUS
 10
30.2983647006
 20
-34.7690793291
 11
32.1240648443
 21
-35.8313347441
  0
LWPOLYLINE
  5
339
100
AcDbEntity
  8
0
100
AcDbPolyline
 62
250
  6
CONTINUOUS
 90
3
 70
0
 10
31.8928713088
 20
-35.6348307455
 10
32.1224342755
 20
-35.7676147985
 10
32.149839206
 20
-35.7836516644
  0
LWPOLYLINE
  5
33A
100
AcDbEntity
  8
0
100
AcDbPolyline
 62
7
  6
CONTINUOUS
 90
7
 70
0
 10
32.1204538944
 20
-35.8290292485
 10
32.1516460466
 20
-35.8473635099
 10
32.1883443227
 20
-35.868706072
 10
32.2295132467
 20
-35.8919009167
 10
32.2720231111
 20
-35.9148513744
 10
32.3147478261
 20
-35.9369389034
 10
32.339563055
 20
-35.9492519419
  0
LWPOLYLINE
  5
33B
100
AcDbEntity
  8
0
100
AcDbPolyline
 62
250
  6
CONTINUOUS
 90
5
 70
0
 10
-26.5208318679
 20
0.3580355383
 10
-27.2180059274
 20
0.7848211977
 10
-27.8958036456
 20
1.2043389796
 10
-28.5561959991
 20
1.6176055534
 10
-29.1995910871
 20
2.0246373375
  0
LWPOLYLINE
  5
33C
100
AcDbEntity
  8
0
100
AcDbPolyline
 62
7
  6
CONTINUOUS
 90
3
 70
0
 10
-34.2722325309
 20
2.5098889013
 10
-34.1998138789
 20
2.4642058216
 10
-34.1247493716
 20
2.4196650987
  0
LWPOLYLINE
  5
33D
100
AcDbEntity
  8
0
100
AcDbPolyline
 62
250
  6
CONTINUOUS
 90
5
 70
0
 10
19.1810057214
 20
-28.3514483362
 10
19.1696153475
 20
-28.3442429932
 10
19.1405925482
 20
-28.3189403508
 10
19.116478667
 20
-28.286467935
 10
19.097794826
 20
-28.2472725649
  0
LWPOLYLINE
  5
33E
100
AcDbEntity
  8
0
100
AcDbPolyline
 62
250
  6
CONTINUOUS
 90
3
 70
0
 10
-29.1995910871
 20
2.0246373375
 10
-29.8259303581
 20
2.4257230339
 10
-30.4316085365
 20
2.8210418746
  0
LWPOLYLINE
  5
33F
100
AcDbEntity
  8
0
100
AcDbPolyline
 62
7
  6
CONTINUOUS
 90
9
 70
0
 10
-30.2081855929
 20
4.5593051853
 10
-30.2619949411
 20
4.5958866692
 10
-30.3151889127
 20
4.6349135091
 10
-30.3677092918
 20
4.6763105823
 10
-30.4195008273
 20
4.7200121875
 10
-30.4704820272
 20
4.7659302218
 10
-30.5204726645
 20
4.8138791487
 10
-30.5693704593
 20
4.8637334273
 10
-30.6172007585
 20
4.9154967593
  0
LWPOLYLINE
  5
340
100
AcDbEntity
  8
0
100
AcDbPolyline
 62
250
  6
CONTINUOUS
 90
10
 70
0
 10
-30.4316982268
 20
2.8209576925
 10
-30.5439305168
 20
2.9004265764
 10
-30.6546075211
 20
2.9828541282
 10
-30.763584007
 20
3.0681146078
 10
-30.8706959689
 20
3.1560613005
 10
-30.9759337886
 20
3.2466693449
 10
-31.0791715491
 20
3.3398162705
 10
-31.1801472189
 20
3.4352804331
 10
-31.2788308957
 20
3.533063291
 10
-31.375143378
 20
3.6331077098
  0
LWPOLYLINE
  5
341
100
AcDbEntity
  8
0
100
AcDbPolyline
 62
7
  6
CONTINUOUS
 90
3
 70
0
 10
-30.4568125853
 20
5.1289283291
 10
-30.373469856
 20
5.0582326211
 10
-30.3418734559
 20
5.0345937445
  0
LWPOLYLINE
  5
342
100
AcDbEntity
  8
0
100
AcDbPolyline
 62
250
  6
CONTINUOUS
 90
10
 70
0
 10
-22.3897001831
 20
0.4361969841
 10
-22.3517289351
 20
0.3968100711
 10
-22.3171569455
 20
0.3524189372
 10
-22.2861326329
 20
0.3031964057
 10
-22.2587285988
 20
0.2491477753
 10
-22.2352032777
 20
0.190608038
 10
-22.2158756481
 20
0.1283688541
 10
-22.200829429
 20
0.0629424592
 10
-22.190038448
 20
-0.0055651132
 10
-22.1835403843
 20
-0.0768678315
  0
LWPOLYLINE
  5
343
100
AcDbEntity
  8
0
100
AcDbPolyline
 62
250
  6
CONTINUOUS
 90
9
 70
0
 10
-14.5184295902
 20
-4.1087445618
 10
-14.5621864151
 20
-4.0470496191
 10
-14.5856768625
 20
-3.965381697
 10
-14.5884487242
 20
-3.8685289917
 10
-14.5706249069
 20
-3.7608132151
 10
-14.5328510274
 20
-3.6486505117
 10
-14.4780708777
 20
-3.5405989628
 10
-14.4101060977
 20
-3.4430669583
 10
-14.3319019691
 20
-3.3602117699
  0
LWPOLYLINE
  5
344
100
AcDbEntity
  8
0
100
AcDbPolyline
 62
250
  6
CONTINUOUS
 90
7
 70
0
 10
-31.2672811566
 20
24.9252561649
 10
-31.4354938736
 20
25.2239323861
 10
-31.599898206
 20
25.5209154282
 10
-31.7609923146
 20
25.8171639515
 10
-31.9193237482
 20
26.1137324999
 10
-32.0752726837
 20
26.4113636285
 10
-32.2290690849
 20
26.7104854764
  0
LWPOLYLINE
  5
345
100
AcDbEntity
  8
0
100
AcDbPolyline
 62
250
  6
CONTINUOUS
 90
7
 70
0
 10
-13.9072640384
 20
-4.0406859455
 10
-13.8954058159
 20
-4.0690282212
 10
-13.8737832521
 20
-4.1003578645
 10
-13.8440848825
 20
-4.1326980511
 10
-13.8078818395
 20
-4.1642749351
 10
-13.7666452805
 20
-4.1944094387
 10
-13.7217317527
 20
-4.2234835729
  0
LWPOLYLINE
  5
346
100
AcDbEntity
  8
0
100
AcDbPolyline
 62
250
  6
CONTINUOUS
 90
10
 70
0
 10
-14.2302635064
 20
-4.6689711974
 10
-14.2392120681
 20
-4.5971206948
 10
-14.2540420779
 20
-4.526832511
 10
-14.2747530447
 20
-4.4584113408
 10
-14.3014339989
 20
-4.3920054413
 10
-14.3340033556
 20
-4.3281286357
 10
-14.3721135007
 20
-4.2675643379
 10
-14.4155456505
 20
-4.2107035813
 10
-14.4643051772
 20
-4.157641215
 10
-14.5182947173
 20
-4.1086302798
  0
LWPOLYLINE
  5
347
100
AcDbEntity
  8
0
100
AcDbPolyline
 62
250
  6
CONTINUOUS
 90
10
 70
0
 10
-9.9474055677
 20
-5.63926664
 10
-9.9457445887
 20
-5.6625530815
 10
-9.9407525328
 20
-5.6872952893
 10
-9.9324931539
 20
-5.7127787016
 10
-9.9210663549
 20
-5.7383712795
 10
-9.9067917069
 20
-5.7631174837
 10
-9.8903432323
 20
-5.7858424071
 10
-9.8723849712
 20
-5.8057844149
 10
-9.8534135217
 20
-5.8225315344
 10
-9.8340177573
 20
-5.8356600942
  0
LWPOLYLINE
  5
348
100
AcDbEntity
  8
0
100
AcDbPolyline
 62
250
  6
CONTINUOUS
 90
10
 70
0
 10
-9.9847477891
 20
-7.1202787638
 10
-9.9885640156
 20
-7.0513914962
 10
-9.994932194
 20
-6.9859889971
 10
-10.0038518287
 20
-6.9243759587
 10
-10.0153261136
 20
-6.8667501892
 10
-10.0293592928
 20
-6.8135759548
 10
-10.0458612437
 20
-6.7654880001
 10
-10.0646990069
 20
-6.722827795
 10
-10.085792115
 20
-6.6857397336
 10
-10.109043198
 20
-6.6544768465
  0
LWPOLYLINE
  5
349
100
AcDbEntity
  8
0
100
AcDbPolyline
 62
250
  6
CONTINUOUS
 90
3
 70
0
 10
-10.7939650354
 20
-5.5184840566
 10
-10.7949364346
 20
-5.5005983628
 10
-10.7959150703
 20
-5.4587474926
  0
LWPOLYLINE
  5
34A
100
AcDbEntity
  8
0
100
AcDbPolyline
 62
250
  6
CONTINUOUS
 90
9
 70
0
 10
-11.1270225472
 20
-5.0627826289
 10
-11.125442458
 20
-5.1363216705
 10
-11.1206513912
 20
-5.2113286602
 10
-11.112649347
 20
-5.287803598
 10
-11.1013735678
 20
-5.3660892862
 10
-11.0868868111
 20
-5.4458429225
 10
-11.069377349
 20
-5.5260361005
 10
-11.0489079387
 20
-5.6063260179
 10
-11.0254158229
 20
-5.687055477
  0
LINE
  5
34B
100
AcDbEntity
  8
0
100
AcDbLine
 62
250
  6
CONTINUOUS
 10
-11.1270225472
 20
-5.0627826289
 11
-11.1270225472
 21
13.065505184
  0
LINE
  5
34C
100
AcDbEntity
  8
0
100
AcDbLine
 62
250
  6
CONTINUOUS
 10
-10.7950386072
 20
-5.4582522562
 11
-10.7950386072
 21
12.6683691771
  0
LINE
  5
34D
100
AcDbEntity
  8
0
100
AcDbLine
 62
250
  6
CONTINUOUS
 10
-9.9552574619
 20
-5.6347332125
 11
-9.9552574619
 21
12.4977652824
  0
LWPOLYLINE
  5
34E
100
AcDbEntity
  8
0
100
AcDbPolyline
 62
250
  6
CONTINUOUS
 90
10
 70
0
 10
-9.9847477891
 20
13.8628279209
 10
-9.98856487
 20
13.7836067376
 10
-9.9949336804
 20
13.7010786523
 10
-10.0038537293
 20
13.6155489264
 10
-10.0153282198
 20
13.5271125632
 10
-10.0293613954
 20
13.4363280416
 10
-10.0458631272
 20
13.3442315208
 10
-10.06470046
 20
13.2514171237
 10
-10.0857929378
 20
13.1580230525
 10
-10.1090431975
 20
13.064414781
  0
LWPOLYLINE
  5
34F
100
AcDbEntity
  8
0
100
AcDbPolyline
 62
7
  6
CONTINUOUS
 90
6
 70
0
 10
-10.1501521842
 20
12.9567031636
 10
-10.1709718119
 20
12.8524603976
 10
-10.1713668951
 20
12.7553149274
 10
-10.1512493583
 20
12.668107596
 10
-10.1112220237
 20
12.5976976939
 10
-10.0682480516
 20
12.5588901522
  0
LWPOLYLINE
  5
350
100
AcDbEntity
  8
0
100
AcDbPolyline
 62
7
  6
CONTINUOUS
 90
6
 70
0
 10
-8.2751361974
 20
11.2290389405
 10
-8.2751517439
 20
11.229002627
 10
-8.2771868483
 20
11.2279774952
 10
-8.2824628411
 20
11.2253894659
 10
-8.2904212783
 20
11.2208685392
 10
-8.3007307968
 20
11.2143022526
  0
LWPOLYLINE
  5
351
100
AcDbEntity
  8
0
100
AcDbPolyline
 62
250
  6
CONTINUOUS
 90
10
 70
0
 10
-13.2659240157
 20
-4.4592738019
 10
-13.2396832007
 20
-4.4085167228
 10
-13.2164266698
 20
-4.3547438287
 10
-13.1961544232
 20
-4.2979551195
 10
-13.1788052871
 20
-4.2378868905
 10
-13.1644404351
 20
-4.1748028465
 10
-13.1532433887
 20
-4.1094941018
 10
-13.1452753215
 20
-4.0422243612
 10
-13.1404750599
 20
-3.9727299198
 10
-13.1388426038
 20
-3.9010107777
  0
LWPOLYLINE
  5
352
100
AcDbEntity
  8
0
100
AcDbPolyline
 62
250
  6
CONTINUOUS
 90
10
 70
0
 10
-13.9088635292
 20
-4.040501197
 10
-13.8920490154
 20
-4.0108925648
 10
-13.8770764765
 20
-3.9791786506
 10
-13.8639951872
 20
-3.945443344
 10
-13.8528250287
 20
-3.9098123549
 10
-13.8435818002
 20
-3.8724471954
 10
-13.83628652
 20
-3.833526905
 10
-13.8309541958
 20
-3.7932201683
 10
-13.8275979432
 20
-3.7516823905
 10
-13.8262368348
 20
-3.7090777001
  0
LINE
  5
353
100
AcDbEntity
  8
0
100
AcDbLine
 62
7
  6
CONTINUOUS
 10
-8.3043164773
 20
8.8373521634
 11
-9.1121470007
 21
8.3220364195
  0
LWPOLYLINE
  5
354
100
AcDbEntity
  8
0
100
AcDbPolyline
 62
250
  6
CONTINUOUS
 90
10
 70
0
 10
32.9164145584
 20
-20.2706601452
 10
32.9790690289
 20
-20.2844950736
 10
33.0433750554
 20
-20.2934484787
 10
33.1085011162
 20
-20.2975536953
 10
33.1738593308
 20
-20.2968333455
 10
33.2383553552
 20
-20.2912956014
 10
33.3004384452
 20
-20.2811156972
 10
33.3591345089
 20
-20.2665514727
 10
33.4139944046
 20
-20.2477619437
 10
33.4643776024
 20
-20.224930999
  0
LWPOLYLINE
  5
355
100
AcDbEntity
  8
0
100
AcDbPolyline
 62
250
  6
CONTINUOUS
 90
7
 70
0
 10
31.9509448546
 20
-19.99736908
 10
32.109804848
 20
-20.0448975583
 10
32.2693997743
 20
-20.0915837514
 10
32.4288973755
 20
-20.1371891567
 10
32.5887799517
 20
-20.1818904739
 10
32.7508143869
 20
-20.2262278753
 10
32.9161455654
 20
-20.2705621821
  0
LWPOLYLINE
  5
356
100
AcDbEntity
  8
0
100
AcDbPolyline
 62
250
  6
CONTINUOUS
 90
10
 70
0
 10
-14.2302718117
 20
-4.6689747328
 10
-14.0920872164
 20
-4.7242635564
 10
-13.9605655208
 20
-4.759775154
 10
-13.8355870565
 20
-4.7754302562
 10
-13.7148499467
 20
-4.7705206885
 10
-13.6001894726
 20
-4.745457943
 10
-13.497674945
 20
-4.7018377647
 10
-13.4091407765
 20
-4.640084401
 10
-13.3320574583
 20
-4.5593707114
 10
-13.2659362504
 20
-4.4594204529
  0
LWPOLYLINE
  5
357
100
AcDbEntity
  8
0
100
AcDbPolyline
 62
250
  6
CONTINUOUS
 90
10
 70
0
 10
5.9217676684
 20
-16.3045097643
 10
6.059639431
 20
-16.3598246038
 10
6.190941559
 20
-16.395367286
 10
6.315793542
 20
-16.4110586433
 10
6.4365180858
 20
-16.4062049337
 10
6.5512594569
 20
-16.3812029105
 10
6.6538869509
 20
-16.3376042212
 10
6.7425469416
 20
-16.2758176514
 10
6.8197918102
 20
-16.1950293056
 10
6.8861132193
 20
-16.0949612522
  0
LWPOLYLINE
  5
358
100
AcDbEntity
  8
0
100
AcDbPolyline
 62
250
  6
CONTINUOUS
 90
4
 70
0
 10
-13.474895407
 20
-4.3547148377
 10
-13.367137137
 20
-4.4069283801
 10
-13.3141242116
 20
-4.433341508
 10
-13.2659572972
 20
-4.4592529088
  0
LWPOLYLINE
  5
359
100
AcDbEntity
  8
0
100
AcDbPolyline
 62
250
  6
CONTINUOUS
 90
9
 70
0
 10
27.1396802809
 20
-27.2506164283
 10
27.0683473452
 20
-27.2151743631
 10
26.993033365
 20
-27.179754512
 10
26.9138117848
 20
-27.1444434784
 10
26.8311281723
 20
-27.1095328683
 10
26.7458557033
 20
-27.0754488243
 10
26.6585464386
 20
-27.0423930249
 10
26.5693765167
 20
-27.010413323
 10
26.4787165274
 20
-26.9796448102
  0
LWPOLYLINE
  5
35A
100
AcDbEntity
  8
0
100
AcDbPolyline
 62
250
  6
CONTINUOUS
 90
8
 70
0
 10
9.1532684114
 20
-17.4038308031
 10
9.207304615
 20
-17.4307981463
 10
9.2573146368
 20
-17.4481364995
 10
9.3027616042
 20
-17.4581586941
 10
9.3427230715
 20
-17.4633754494
 10
9.3766952644
 20
-17.4663151874
 10
9.4041549697
 20
-17.4697253056
 10
9.4240647192
 20
-17.476564387
  0
LINE
  5
35B
100
AcDbEntity
  8
0
100
AcDbLine
 62
250
  6
CONTINUOUS
 10
-10.9477942
 20
-5.7939596449
 11
-11.0009598745
 21
-5.7670323692
  0
LWPOLYLINE
  5
35C
100
AcDbEntity
  8
0
100
AcDbPolyline
 62
250
  6
CONTINUOUS
 90
10
 70
0
 10
5.6343529866
 20
-15.7434629381
 10
5.715439284
 20
-15.7845819374
 10
5.7963887295
 20
-15.8141875295
 10
5.8756563954
 20
-15.8315979131
 10
5.9517585505
 20
-15.8362095488
 10
6.0234480469
 20
-15.8279127232
 10
6.0895499124
 20
-15.8068189105
 10
6.1489493238
 20
-15.773074583
 10
6.2007746542
 20
-15.7271661576
 10
6.2443581373
 20
-15.669972099
  0
LINE
  5
35D
100
AcDbEntity
  8
0
100
AcDbLine
 62
250
  6
CONTINUOUS
 10
27.2067984541
 20
-27.2859084124
 11
27.1396802809
 21
-27.2506164283
  0
LWPOLYLINE
  5
35E
100
AcDbEntity
  8
0
100
AcDbPolyline
 62
250
  6
CONTINUOUS
 90
12
 70
0
 10
6.8860834752
 20
-16.0947869399
 10
6.826171922
 20
-16.0628774605
 10
6.7590179335
 20
-16.0298420722
 10
6.6896805305
 20
-15.9963185252
 10
6.6234832188
 20
-15.9638975931
 10
6.5611851642
 20
-15.9323913771
 10
6.4993650068
 20
-15.8993932636
 10
6.4383525197
 20
-15.8640916689
 10
6.3817986664
 20
-15.8275303609
 10
6.3316261942
 20
-15.7897151529
 10
6.2902146465
 20
-15.7507084344
 10
6.2603327567
 20
-15.7106068555
  0
LWPOLYLINE
  5
35F
100
AcDbEntity
  8
0
100
AcDbPolyline
 62
250
  6
CONTINUOUS
 90
7
 70
0
 10
7.0131971458
 20
-15.5357990331
 10
6.950198549
 20
-15.5020258575
 10
6.8829928127
 20
-15.4710193587
 10
6.81194145
 20
-15.4429560531
 10
6.7374617647
 20
-15.4180070425
 10
6.6599273318
 20
-15.3963034604
 10
6.5796536231
 20
-15.3779501585
  0
LWPOLYLINE
  5
360
100
AcDbEntity
  8
0
100
AcDbPolyline
 62
250
  6
CONTINUOUS
 90
6
 70
0
 10
-13.1388423045
 20
-3.9002640189
 10
-13.2018409013
 20
-3.8664908433
 10
-13.2690466375
 20
-3.8354843445
 10
-13.3400980003
 20
-3.8074210389
 10
-13.4145776855
 20
-3.7824720283
 10
-13.4921121185
 20
-3.7607684462
  0
LWPOLYLINE
  5
361
100
AcDbEntity
  8
0
100
AcDbPolyline
 62
7
  6
CONTINUOUS
 90
6
 70
0
 10
26.1056676832
 20
-27.9578172456
 10
26.1135989982
 20
-27.9621441442
 10
26.1215149936
 20
-27.9664072927
 10
26.129414577
 20
-27.9705994108
 10
26.1372963792
 20
-27.9747131128
 10
26.1451591814
 20
-27.9787411373
  0
LINE
  5
362
100
AcDbEntity
  8
0
100
AcDbLine
 62
7
  6
CONTINUOUS
 10
26.0897626475
 20
-27.9490010571
 11
26.1056676832
 21
-27.9578172456
  0
LINE
  5
363
100
AcDbEntity
  8
0
100
AcDbLine
 62
7
  6
CONTINUOUS
 10
26.0738085987
 20
-27.9400141169
 11
26.0897626475
 21
-27.9490010571
  0
LINE
  5
364
100
AcDbEntity
  8
0
100
AcDbLine
 62
7
  6
CONTINUOUS
 10
25.3152762964
 20
-27.5020720689
 11
26.0738153969
 21
-27.940041224
  0
LINE
  5
365
100
AcDbEntity
  8
0
100
AcDbLine
 62
7
  6
CONTINUOUS
 10
-29.378233394
 20
4.0772749555
 11
-30.1367872361
 21
4.515256252
  0
LINE
  5
366
100
AcDbEntity
  8
0
100
AcDbLine
 62
250
  6
CONTINUOUS
 10
-29.3782351997
 20
4.0772726038
 11
25.3152787795
 21
-27.502076897
  0
LINE
  5
367
100
AcDbEntity
  8
0
100
AcDbLine
 62
250
  6
CONTINUOUS
 10
10.0429962522
 20
-18.2900118607
 11
25.7857466055
 21
-27.3796782284
  0
LINE
  5
368
100
AcDbEntity
  8
0
100
AcDbLine
 62
250
  6
CONTINUOUS
 10
-13.2659240157
 20
-4.4592738019
 11
-10.9989010017
 21
-5.7682244777
  0
LINE
  5
369
100
AcDbEntity
  8
0
100
AcDbLine
 62
250
  6
CONTINUOUS
 10
6.8861154793
 20
-16.0948088419
 11
9.1531434592
 21
-17.403762385
  0
LINE
  5
36A
100
AcDbEntity
  8
0
100
AcDbLine
 62
250
  6
CONTINUOUS
 10
5.9048709123
 20
-14.9321634514
 11
-9.8340178892
 21
-5.844726312
  0
LINE
  5
36B
100
AcDbEntity
  8
0
100
AcDbLine
 62
250
  6
CONTINUOUS
 10
10.318021561
 20
-17.4802613262
 11
26.0569103625
 21
-26.5676984656
  0
LINE
  5
36C
100
AcDbEntity
  8
0
100
AcDbLine
 62
250
  6
CONTINUOUS
 10
-14.2471685381
 20
-3.2966284371
 11
-29.9860573396
 21
5.7908087023
  0
LINE
  5
36D
100
AcDbEntity
  8
0
100
AcDbLine
 62
250
  6
CONTINUOUS
 10
-30.2610472057
 20
4.9810380869
 11
-14.5184295902
 21
-4.1087445618
  0
LINE
  5
36E
100
AcDbEntity
  8
0
100
AcDbLine
 62
250
  6
CONTINUOUS
 10
5.6340304268
 20
-15.7436795737
 11
-5.2589284249
 21
-9.4549541376
  0
LINE
  5
36F
100
AcDbEntity
  8
0
100
AcDbLine
 62
250
  6
CONTINUOUS
 10
-5.2589284249
 20
-9.4549541376
 11
-10.1086843877
 21
-6.6540333424
  0
LINE
  5
370
100
AcDbEntity
  8
0
100
AcDbLine
 62
7
  6
CONTINUOUS
 10
-30.136793622
 20
4.5152831217
 11
-30.1527476567
 21
4.5247195093
  0
LWPOLYLINE
  5
371
100
AcDbEntity
  8
0
100
AcDbPolyline
 62
250
  6
CONTINUOUS
 90
6
 70
0
 10
-13.7217317527
 20
-4.2234835729
 10
-13.6748361891
 20
-4.2513420549
 10
-13.626585657
 20
-4.2780757619
 10
-13.5763892905
 20
-4.3043565876
 10
-13.5257095681
 20
-4.3298281429
 10
-13.474895407
 20
-4.3547148377
  0
LWPOLYLINE
  5
372
100
AcDbEntity
  8
0
100
AcDbPolyline
 62
7
  6
CONTINUOUS
 90
7
 70
0
 10
-30.1527476567
 20
4.5247195093
 10
-30.1686526785
 20
4.5342700494
 10
-30.1765839866
 20
4.5391020305
 10
-30.1844999749
 20
4.5439800709
 10
-30.1923995509
 20
4.5489101893
 10
-30.2002813454
 20
4.5538981902
 10
-30.2081441395
 20
4.5589499275
  0
LINE
  5
373
100
AcDbEntity
  8
0
100
AcDbLine
 62
250
  6
CONTINUOUS
 10
-11.068549311
 20
-5.0982248826
 11
-11.1270230996
 21
-5.061863213
  0
LINE
  5
374
100
AcDbEntity
  8
0
100
AcDbLine
 62
250
  6
CONTINUOUS
 10
-10.108147072
 20
-6.6540121139
 11
-10.1753813188
 21
-6.6112536225
  0
LWPOLYLINE
  5
375
100
AcDbEntity
  8
0
100
AcDbPolyline
 62
250
  6
CONTINUOUS
 90
10
 70
0
 10
-31.2697686957
 20
6.4777285721
 10
-31.21484983
 20
6.4425579105
 10
-31.1639434016
 20
6.4074205063
 10
-31.1173478146
 20
6.3724513053
 10
-31.0752840925
 20
6.3377337262
 10
-31.0381862464
 20
6.3034840215
 10
-31.0065792323
 20
6.2700833134
 10
-30.9807413127
 20
6.2378093425
 10
-30.9608263975
 20
6.2068048218
 10
-30.9470684566
 20
6.1772837254
  0
LINE
  5
376
100
AcDbEntity
  8
0
100
AcDbLine
 62
250
  6
CONTINUOUS
 10
10.0438480752
 20
-18.2895059351
 11
9.9655535365
 21
-18.2389497515
  0
LINE
  5
377
100
AcDbEntity
  8
0
100
AcDbLine
 62
7
  6
CONTINUOUS
 10
-30.3418734559
 20
5.0345937445
 11
-30.2601829172
 21
4.9815301835
  0
LINE
  5
378
100
AcDbEntity
  8
0
100
AcDbLine
 62
250
  6
CONTINUOUS
 10
-10.1753813188
 20
-6.6112536225
 11
-10.187737555
 21
-6.6025386425
  0
LINE
  5
379
100
AcDbEntity
  8
0
100
AcDbLine
 62
250
  6
CONTINUOUS
 10
-10.1249961779
 20
-7.0154897988
 11
-9.9844053681
 21
-7.1204848041
  0
LINE
  5
37A
100
AcDbEntity
  8
0
100
AcDbLine
 62
7
  6
CONTINUOUS
 10
-10.2537879238
 20
-6.5514299163
 11
-10.1601174123
 21
-6.6237567925
  0
LINE
  5
37B
100
AcDbEntity
  8
0
100
AcDbLine
 62
250
  6
CONTINUOUS
 10
-10.2537879238
 20
-6.5514299163
 11
-10.2627587595
 21
-6.5438920871
  0
LWPOLYLINE
  5
37C
100
AcDbEntity
  8
0
100
AcDbPolyline
 62
250
  6
CONTINUOUS
 90
5
 70
0
 10
-33.8044357723
 20
17.6399913172
 10
-33.9287483201
 20
17.7585014696
 10
-34.0504938514
 20
17.8776528054
 10
-34.1712086035
 20
17.9988471768
 10
-34.2922370641
 20
18.1232825467
  0
LWPOLYLINE
  5
37D
100
AcDbEntity
  8
0
100
AcDbPolyline
 62
250
  6
CONTINUOUS
 90
8
 70
0
 10
-10.7294825044
 20
-5.8405168861
 10
-10.7296980936
 20
-5.8402943603
 10
-10.7503756687
 20
-5.8340900417
 10
-10.7784417746
 20
-5.8309116059
 10
-10.8128373258
 20
-5.8278193726
 10
-10.8529670342
 20
-5.8221928285
 10
-10.898266875
 20
-5.811667913
 10
-10.9477942
 20
-5.7939596449
  0
LWPOLYLINE
  5
37E
100
AcDbEntity
  8
0
100
AcDbPolyline
 62
250
  6
CONTINUOUS
 90
10
 70
0
 10
-34.2922369362
 20
18.1232825352
 10
-34.3811588508
 20
18.2165410746
 10
-34.4673884856
 20
18.3086918986
 10
-34.5512928039
 20
18.4001930717
 10
-34.6336159174
 20
18.4919245169
 10
-34.7144743459
 20
18.5840723515
 10
-34.7934545988
 20
18.6761558568
 10
-34.8708680863
 20
18.7684606985
 10
-34.9476557025
 20
18.8620142048
 10
-35.0244482779
 20
18.9574852131
  0
LWPOLYLINE
  5
37F
100
AcDbEntity
  8
0
100
AcDbPolyline
 62
250
  6
CONTINUOUS
 90
4
 70
0
 10
-10.5207397526
 20
-6.6165084495
 10
-10.3921295897
 20
-6.7651881416
 10
-10.2609439485
 20
-6.8970838915
 10
-10.1249961779
 20
-7.0154897988
  0
LWPOLYLINE
  5
380
100
AcDbEntity
  8
0
100
AcDbPolyline
 62
7
  6
CONTINUOUS
 90
7
 70
0
 10
-10.1086843877
 20
-6.6540333424
 10
-10.1501894483
 20
-6.5935120499
 10
-10.1709957322
 20
-6.512808178
 10
-10.1713352678
 20
-6.4159425451
 10
-10.151126727
 20
-6.3057220084
 10
-10.1109825965
 20
-6.1896758898
 10
-10.0553570058
 20
-6.0801369741
  0
LWPOLYLINE
  5
381
100
AcDbEntity
  8
0
100
AcDbPolyline
 62
250
  6
CONTINUOUS
 90
10
 70
0
 10
-31.2697644446
 20
23.9684219335
 10
-31.4622829044
 20
24.249737202
 10
-31.6527591292
 20
24.5369197988
 10
-31.8408604827
 20
24.8295100892
 10
-32.026611172
 20
25.1276257413
 10
-32.2092730505
 20
25.4301797045
 10
-32.3874301864
 20
25.7348271895
 10
-32.5604554862
 20
26.0403964386
 10
-32.7284254788
 20
26.3469387609
 10
-32.8910581256
 20
26.6539022472
  0
LWPOLYLINE
  5
382
100
AcDbEntity
  8
0
100
AcDbPolyline
 62
250
  6
CONTINUOUS
 90
4
 70
0
 10
-10.8503309392
 20
-6.1188033401
 10
-10.7548700193
 20
-6.2871371745
 10
-10.6441198618
 20
-6.4540411698
 10
-10.5207397526
 20
-6.6165084495
  0
LWPOLYLINE
  5
383
100
AcDbEntity
  8
0
100
AcDbPolyline
 62
7
  6
CONTINUOUS
 90
6
 70
0
 10
-10.6491738406
 20
-6.0494148196
 10
-10.5683437714
 20
-6.194791683
 10
-10.4760711065
 20
-6.3240227682
 10
-10.3782718733
 20
-6.4353728153
 10
-10.2723152335
 20
-6.5356630662
 10
-10.2537879238
 20
-6.5514299163
  0
LWPOLYLINE
  5
384
100
AcDbEntity
  8
0
100
AcDbPolyline
 62
250
  6
CONTINUOUS
 90
7
 70
0
 10
-10.7951983566
 20
-5.4582627121
 10
-10.7652474055
 20
-5.5276427779
 10
-10.7072931788
 20
-5.5896221583
 10
-10.6252793078
 20
-5.6413319926
 10
-10.5230493657
 20
-5.6806576724
 10
-10.4065564278
 20
-5.7048553948
 10
-10.2848374068
 20
-5.7120989376
  0
LWPOLYLINE
  5
385
100
AcDbEntity
  8
0
100
AcDbPolyline
 62
250
  6
CONTINUOUS
 90
3
 70
0
 10
-11.0007443362
 20
-5.7673138769
 10
-10.9324550888
 20
-5.9456227972
 10
-10.8503309392
 20
-6.1188033401
  0
LINE
  5
386
100
AcDbEntity
  8
0
100
AcDbLine
 62
250
  6
CONTINUOUS
 10
-11.0254158229
 20
-5.687055477
 11
-10.9989010017
 21
-5.7682244777
  0
LWPOLYLINE
  5
387
100
AcDbEntity
  8
0
100
AcDbPolyline
 62
250
  6
CONTINUOUS
 90
9
 70
0
 10
-10.7950386072
 20
-5.4582522562
 10
-10.8081961709
 20
-5.408899688
 10
-10.8276823847
 20
-5.3602586205
 10
-10.8533857337
 20
-5.3125989763
 10
-10.8851745888
 20
-5.266166155
 10
-10.9228598568
 20
-5.2212374332
 10
-10.9661721119
 20
-5.1781138621
 10
-11.0148266826
 20
-5.1370430908
 10
-11.068549311
 20
-5.0982248826
  0
LWPOLYLINE
  5
388
100
AcDbEntity
  8
0
100
AcDbPolyline
 62
7
  6
CONTINUOUS
 90
4
 70
0
 10
-10.7811439202
 20
-5.62969625
 10
-10.7523834429
 20
-5.765858523
 10
-10.7099941608
 20
-5.9040499954
 10
-10.6491738406
 20
-6.0494148196
  0
LWPOLYLINE
  5
389
100
AcDbEntity
  8
0
100
AcDbPolyline
 62
250
  6
CONTINUOUS
 90
7
 70
0
 10
-14.2529292776
 20
5.6527912159
 10
-14.2375072276
 20
5.5792407038
 10
-14.1930789224
 20
5.5096386141
 10
-14.1246614733
 20
5.449694698
 10
-14.0385584364
 20
5.403093744
 10
-13.9376568491
 20
5.3708281115
 10
-13.825414692
 20
5.3544646306
  0
LWPOLYLINE
  5
38A
100
AcDbEntity
  8
0
100
AcDbPolyline
 62
7
  6
CONTINUOUS
 90
3
 70
0
 10
-10.7781739184
 20
-5.6472038506
 10
-10.7804284119
 20
-5.6342224345
 10
-10.7833744185
 20
-5.6158477675
  0
LWPOLYLINE
  5
38B
100
AcDbEntity
  8
0
100
AcDbPolyline
 62
250
  6
CONTINUOUS
 90
4
 70
0
 10
-10.7833744185
 20
-5.6158477675
 10
-10.7872208744
 20
-5.5884714833
 10
-10.7920469011
 20
-5.5438851151
 10
-10.7939650354
 20
-5.5184840566
  0
LINE
  5
38C
100
AcDbEntity
  8
0
100
AcDbLine
 62
7
  6
CONTINUOUS
 10
-10.7968271141
 20
-5.4980013799
 11
-10.7833744185
 21
-5.6158477675
  0
LINE
  5
38D
100
AcDbEntity
  8
0
100
AcDbLine
 62
7
  6
CONTINUOUS
 10
-9.1121470007
 20
12.0062351057
 11
-9.1121470007
 21
-5.1646345579
  0
LINE
  5
38E
100
AcDbEntity
  8
0
100
AcDbLine
 62
250
  6
CONTINUOUS
 10
-8.3043164773
 20
-0.3019175977
 11
-8.3043164773
 21
2.0730735932
  0
LINE
  5
38F
100
AcDbEntity
  8
0
100
AcDbLine
 62
250
  6
CONTINUOUS
 10
-8.3043164773
 20
8.8373521634
 11
-8.3043164773
 21
11.2123433544
  0
LINE
  5
390
100
AcDbEntity
  8
0
100
AcDbLine
 62
7
  6
CONTINUOUS
 10
-8.2751739126
 20
11.2290607191
 11
-8.2751739126
 21
8.9018806034
  0
LINE
  5
391
100
AcDbEntity
  8
0
100
AcDbLine
 62
7
  6
CONTINUOUS
 10
-8.2751739126
 20
2.0897909579
 11
-8.2751739126
 21
-0.2373891577
  0
LWPOLYLINE
  5
392
100
AcDbEntity
  8
0
100
AcDbPolyline
 62
7
  6
CONTINUOUS
 90
6
 70
0
 10
-8.2751747429
 20
8.9021087957
 10
-8.2753491877
 20
8.8958127701
 10
-8.2778871655
 20
8.8775684682
 10
-8.2835714547
 20
8.8616208678
 10
-8.2924167039
 20
8.848091271
 10
-8.3043168028
 20
8.8373519317
  0
LWPOLYLINE
  5
393
100
AcDbEntity
  8
0
100
AcDbPolyline
 62
7
  6
CONTINUOUS
 90
6
 70
0
 10
-8.2751747429
 20
-0.2371609655
 10
-8.2753491877
 20
-0.2434569911
 10
-8.2778871655
 20
-0.261701293
 10
-8.2835714547
 20
-0.2776488935
 10
-8.2924167039
 20
-0.2911784902
 10
-8.3043168028
 20
-0.3019178295
  0
LWPOLYLINE
  5
394
100
AcDbEntity
  8
0
100
AcDbPolyline
 62
7
  6
CONTINUOUS
 90
10
 70
0
 10
-9.1121470007
 20
-5.1931281117
 10
-9.1129455819
 20
-5.2037728992
 10
-9.1100859499
 20
-5.2177469053
 10
-9.1035681048
 20
-5.23505013
 10
-9.0918213098
 20
-5.2584031692
 10
-9.0764163016
 20
-5.2850854269
 10
-9.0620652902
 20
-5.3069351155
 10
-9.0503390125
 20
-5.321231639
 10
-9.0396667316
 20
-5.3306955933
 10
-9.0300484475
 20
-5.3353269784
  0
LWPOLYLINE
  5
395
100
AcDbEntity
  8
0
100
AcDbPolyline
 62
250
  6
CONTINUOUS
 90
10
 70
0
 10
-13.9057075611
 20
-4.0410454667
 10
-13.9532129848
 20
-4.0990380716
 10
-14.0085619987
 20
-4.1444835779
 10
-14.0715180865
 20
-4.1763590241
 10
-14.140247195
 20
-4.1948206433
 10
-14.2126631697
 20
-4.2005405997
 10
-14.2878100238
 20
-4.1940339888
 10
-14.3646983344
 20
-4.1759226515
 10
-14.441707011
 20
-4.1471747654
 10
-14.5176400061
 20
-4.1085593432
  0
LWPOLYLINE
  5
396
100
AcDbEntity
  8
0
100
AcDbPolyline
 62
7
  6
CONTINUOUS
 90
6
 70
0
 10
-14.4237931245
 20
-1.2747341768
 10
-14.4239247167
 20
-1.2748599386
 10
-14.4265682182
 20
-1.2762652238
 10
-14.432529435
 20
-1.279387994
 10
-14.4412101522
 20
-1.2845905267
 10
-14.4522349539
 20
-1.2919670183
  0
LINE
  5
397
100
AcDbEntity
  8
0
100
AcDbLine
 62
7
  6
CONTINUOUS
 10
-14.4522345904
 20
-1.2919668523
 11
-15.2011488671
 21
-1.7722109382
  0
LINE
  5
398
100
AcDbEntity
  8
0
100
AcDbLine
 62
7
  6
CONTINUOUS
 10
-17.3408571275
 20
-0.5367702055
 11
-16.5091035593
 21
-0.1043564883
  0
LWPOLYLINE
  5
399
100
AcDbEntity
  8
0
100
AcDbPolyline
 62
250
  6
CONTINUOUS
 90
10
 70
0
 10
-9.955134761
 20
3.4317375876
 10
-10.0551258538
 20
3.3887230477
 10
-10.1683422463
 20
3.36187468
 10
-10.2886103188
 20
3.351978683
 10
-10.4105672606
 20
3.3592555098
 10
-10.5265878844
 20
3.3835848147
 10
-10.627826654
 20
3.4230003642
 10
-10.7086053356
 20
3.4746519765
 10
-10.7654404108
 20
3.5363070617
 10
-10.7948404828
 20
3.6050798957
  0
LWPOLYLINE
  5
39A
100
AcDbEntity
  8
0
100
AcDbPolyline
 62
250
  6
CONTINUOUS
 90
5
 70
0
 10
-13.4921121185
 20
-3.7607684462
 10
-13.5723858271
 20
-3.7424151443
 10
-13.6550045403
 20
-3.7275287528
 10
-13.7394851379
 20
-3.7162221734
 10
-13.8253640354
 20
-3.708580334
  0
LWPOLYLINE
  5
39B
100
AcDbEntity
  8
0
100
AcDbPolyline
 62
250
  6
CONTINUOUS
 90
4
 70
0
 10
31.471357034
 20
-19.8477924169
 10
31.6328910995
 20
-19.899140512
 10
31.7924856361
 20
-19.948927749
 10
31.9509448546
 20
-19.99736908
  0
LWPOLYLINE
  5
39C
100
AcDbEntity
  8
0
100
AcDbPolyline
 62
250
  6
CONTINUOUS
 90
10
 70
0
 10
29.606620367
 20
-19.1793812628
 10
29.8140987876
 20
-19.2608312085
 10
30.0198672847
 20
-19.3400546027
 10
30.2244293373
 20
-19.4171385523
 10
30.4291270356
 20
-19.4924852887
 10
30.6343255763
 20
-19.5661424818
 10
30.8395781793
 20
-19.6379188608
 10
31.0459412564
 20
-19.7082130862
 10
31.2558426631
 20
-19.777912201
 10
31.471357122
 20
-19.8477925397
  0
LWPOLYLINE
  5
39D
100
AcDbEntity
  8
SUPERFICI
100
AcDbPolyline
 62
7
  6
CONTINUOUS
 90
6
 70
0
 10
23.6646983071
 20
-23.1548495599
 10
23.6591538414
 20
-23.151850019
 10
23.6420851444
 20
-23.1449263771
 10
23.6254323459
 20
-23.1418759621
 10
23.6092931412
 20
-23.1427720575
 10
23.5940429462
 20
-23.14770886
  0
LWPOLYLINE
  5
39E
100
AcDbEntity
  8
SUPERFICI
100
AcDbPolyline
 62
7
  6
CONTINUOUS
 90
6
 70
0
 10
15.7496035303
 20
-18.6964752212
 10
15.7440590646
 20
-18.6934756803
 10
15.7269903677
 20
-18.6865520384
 10
15.7103375692
 20
-18.6835016234
 10
15.6941983645
 20
-18.6843977188
 10
15.6789481694
 20
-18.6893345213
  0
LWPOLYLINE
  5
39F
100
AcDbEntity
  8
SUPERFICI
100
AcDbPolyline
 62
7
  6
CONTINUOUS
 90
6
 70
0
 10
3.6131248726
 20
-11.68902455
 10
3.6075804069
 20
-11.6860250091
 10
3.59051171
 20
-11.6791013672
 10
3.5738589114
 20
-11.6760509522
 10
3.5577197067
 20
-11.6769470477
 10
3.5424695117
 20
-11.6818838502
  0
LWPOLYLINE
  5
3A0
100
AcDbEntity
  8
0
100
AcDbPolyline
 62
7
  6
CONTINUOUS
 90
6
 70
0
 10
-24.3539079569
 20
4.5702059773
 10
-24.3570715308
 20
4.5719971682
 10
-24.3737583832
 20
4.5792235934
 10
-24.390269778
 20
4.582712152
 10
-24.4059820326
 20
4.5827301684
 10
-24.4203233011
 20
4.5793254905
  0
LWPOLYLINE
  5
3A1
100
AcDbEntity
  8
0
100
AcDbPolyline
 62
7
  6
CONTINUOUS
 90
6
 70
0
 10
-16.4386203613
 20
-0.1113537052
 10
-16.4414393576
 20
-0.1097441078
 10
-16.4582211638
 20
-0.1024054064
 10
-16.4748593336
 20
-0.0988919316
 10
-16.490726607
 20
-0.0989210084
 10
-16.5052285243
 20
-0.1024532202
  0
LINE
  5
3A2
100
AcDbEntity
  8
0
100
AcDbLine
 62
7
  6
CONTINUOUS
 10
26.0530911544
 20
-25.5918920896
 11
11.1494326598
 21
-16.9867064615
  0
LINE
  5
3A3
100
AcDbEntity
  8
0
100
AcDbLine
 62
7
  6
CONTINUOUS
 10
5.8876112906
 20
-13.948596749
 11
-9.0053715097
 21
-5.349575133
  0
LINE
  5
3A4
100
AcDbEntity
  8
0
100
AcDbLine
 62
7
  6
CONTINUOUS
 10
-14.2509877461
 20
-2.3208220611
 11
-29.15741096
 21
6.2859598812
  0
LINE
  5
3A5
100
AcDbEntity
  8
SUPERFICI
100
AcDbLine
 62
250
  6
CONTINUOUS
 10
3.5424698751
 20
-11.6818836841
 11
5.599338844
 21
-12.8694940481
  0
LINE
  5
3A6
100
AcDbEntity
  8
0
100
AcDbLine
 62
250
  6
CONTINUOUS
 10
-2.3157559327
 20
-8.2994175234
 11
-4.3726249016
 21
-7.1118071594
  0
LINE
  5
3A7
100
AcDbEntity
  8
SUPERFICI
100
AcDbLine
 62
250
  6
CONTINUOUS
 10
15.6789485328
 20
-18.6893343552
 11
17.7358175017
 21
-19.8769447193
  0
LINE
  5
3A8
100
AcDbEntity
  8
0
100
AcDbLine
 62
250
  6
CONTINUOUS
 10
-14.4522345904
 20
-1.2919668523
 11
-16.5091035593
 21
-0.1043564883
  0
LINE
  5
3A9
100
AcDbEntity
  8
0
100
AcDbLine
 62
7
  6
CONTINUOUS
 10
-16.4386458002
 20
-0.1113825123
 11
-14.4231885791
 21
-1.2750822522
  0
LINE
  5
3AA
100
AcDbEntity
  8
0
100
AcDbLine
 62
7
  6
CONTINUOUS
 10
-4.3021671425
 20
-7.1188331834
 11
-2.2867099214
 21
-8.2825329233
  0
LINE
  5
3AB
100
AcDbEntity
  8
SUPERFICI
100
AcDbLine
 62
7
  6
CONTINUOUS
 10
3.6129276343
 20
-11.6889097081
 11
5.6283848554
 21
-12.852609448
  0
LINE
  5
3AC
100
AcDbEntity
  8
SUPERFICI
100
AcDbLine
 62
7
  6
CONTINUOUS
 10
15.7494062919
 20
-18.6963603793
 11
17.7648635131
 21
-19.8600601191
  0
LINE
  5
3AD
100
AcDbEntity
  8
SUPERFICI
100
AcDbLine
 62
250
  6
CONTINUOUS
 10
23.5940433096
 20
-23.1477086939
 11
25.6509122785
 21
-24.3353190579
  0
LINE
  5
3AE
100
AcDbEntity
  8
0
100
AcDbLine
 62
250
  6
CONTINUOUS
 10
-22.3673293672
 20
3.3898118584
 11
-24.4241983361
 21
4.5774222224
  0
LINE
  5
3AF
100
AcDbEntity
  8
0
100
AcDbLine
 62
7
  6
CONTINUOUS
 10
-24.353740577
 20
4.5703961983
 11
-22.3382833559
 21
3.4066964585
  0
LINE
  5
3B0
100
AcDbEntity
  8
SUPERFICI
100
AcDbLine
 62
7
  6
CONTINUOUS
 10
23.6645010687
 20
-23.154734718
 11
25.6799582899
 21
-24.3184344578
  0
LINE
  5
3B1
100
AcDbEntity
  8
0
100
AcDbLine
 62
250
  6
CONTINUOUS
 10
9.0834901498
 20
-16.7337599038
 11
9.0250163507
 21
-16.6973982272
  0
LINE
  5
3B2
100
AcDbEntity
  8
0
100
AcDbLine
 62
250
  6
CONTINUOUS
 10
10.0270142613
 20
-18.6510009741
 11
10.1676163436
 21
-18.7560095764
  0
LINE
  5
3B3
100
AcDbEntity
  8
0
100
AcDbLine
 62
250
  6
CONTINUOUS
 10
9.9655535365
 20
-18.2389497515
 11
9.8957013414
 21
-18.1848329318
  0
LINE
  5
3B4
100
AcDbEntity
  8
0
100
AcDbLine
 62
7
  6
CONTINUOUS
 10
9.8957013414
 20
-18.1848329318
 11
9.9785276844
 21
-18.2497049149
  0
LINE
  5
3B5
100
AcDbEntity
  8
0
100
AcDbLine
 62
250
  6
CONTINUOUS
 10
9.8957013414
 20
-18.1848329318
 11
9.8899226631
 21
-18.1799692973
  0
LWPOLYLINE
  5
3B6
100
AcDbEntity
  8
0
100
AcDbPolyline
 62
250
  6
CONTINUOUS
 90
6
 70
0
 10
-33.1345893283
 20
17.046606932
 10
-33.275655249
 20
17.1664026229
 10
-33.4128651159
 20
17.2852109109
 10
-33.5463697683
 20
17.4033225128
 10
-33.6768658138
 20
17.5215123535
 10
-33.8044357723
 20
17.6399913172
  0
LWPOLYLINE
  5
3B7
100
AcDbEntity
  8
0
100
AcDbPolyline
 62
250
  6
CONTINUOUS
 90
10
 70
0
 10
-2.2376606892
 20
-11.1993380637
 10
-2.199689503
 20
-11.2387249507
 10
-2.1651175619
 20
-11.2831160661
 10
-2.1340932841
 20
-11.3323385856
 10
-2.1066892703
 20
-11.3863872103
 10
-2.0831639545
 20
-11.4449269474
 10
-2.0638363153
 20
-11.5071661346
 10
-2.0487900712
 20
-11.572592535
 10
-2.0379990495
 20
-11.6411001147
 10
-2.0315009287
 20
-11.7124028416
  0
LINE
  5
3B8
100
AcDbEntity
  8
0
100
AcDbLine
 62
250
  6
CONTINUOUS
 10
-13.9993924941
 20
15.0376850215
 11
-13.9538368777
 21
14.9356334127
  0
LINE
  5
3B9
100
AcDbEntity
  8
0
100
AcDbLine
 62
250
  6
CONTINUOUS
 10
-13.9538368777
 20
14.9356334127
 11
-13.9175684195
 21
14.8336866941
  0
LINE
  5
3BA
100
AcDbEntity
  8
0
100
AcDbLine
 62
250
  6
CONTINUOUS
 10
-13.2400538817
 20
14.8506595742
 11
-13.2673884439
 21
14.9329565416
  0
LWPOLYLINE
  5
3BB
100
AcDbEntity
  8
0
100
AcDbPolyline
 62
250
  6
CONTINUOUS
 90
4
 70
0
 10
-2.0638361661
 20
9.0281305074
 10
-2.0487899555
 20
9.110931914
 10
-2.0379989835
 20
9.1919006664
 10
-2.0315009288
 20
9.2707072221
  0
LWPOLYLINE
  5
3BC
100
AcDbEntity
  8
0
100
AcDbPolyline
 62
250
  6
CONTINUOUS
 90
7
 70
0
 10
-2.2376606892
 20
8.5195743204
 10
-2.1996894375
 20
8.6028094193
 10
-2.1651174467
 20
8.6871233744
 10
-2.1340931354
 20
8.7721719716
 10
-2.1066891045
 20
8.8578660745
 10
-2.0831637886
 20
8.9435722566
 10
-2.0638361661
 20
9.0281305074
  0
LWPOLYLINE
  5
3BD
100
AcDbEntity
  8
0
100
AcDbPolyline
 62
7
  6
CONTINUOUS
 90
3
 70
0
 10
-10.0553570058
 20
-6.0801369741
 10
-9.9890634589
 20
-5.9844042995
 10
-9.9141808057
 20
-5.9048219124
  0
LINE
  5
3BE
100
AcDbEntity
  8
0
100
AcDbLine
 62
250
  6
CONTINUOUS
 10
-14.3319019691
 20
-3.3602117699
 11
-14.2471698147
 21
-3.2965058043
  0
LINE
  5
3BF
100
AcDbEntity
  8
0
100
AcDbLine
 62
7
  6
CONTINUOUS
 10
-9.1121470007
 20
-0.8172333417
 11
-8.3043164773
 21
-0.3019175977
  0
LINE
  5
3C0
100
AcDbEntity
  8
0
100
AcDbLine
 62
7
  6
CONTINUOUS
 10
-9.1121470007
 20
1.8205183009
 11
-8.4895298586
 21
2.1800134783
  0
LINE
  5
3C1
100
AcDbEntity
  8
0
100
AcDbLine
 62
7
  6
CONTINUOUS
 10
-14.4487453954
 20
-1.5038113145
 11
-15.0573697959
 21
-1.8552271719
  0
LINE
  5
3C2
100
AcDbEntity
  8
0
100
AcDbLine
 62
7
  6
CONTINUOUS
 10
-8.3043164773
 20
2.0730735932
 11
-9.0660273713
 21
1.6793649408
  0
LWPOLYLINE
  5
3C3
100
AcDbEntity
  8
0
100
AcDbPolyline
 62
7
  6
CONTINUOUS
 90
6
 70
0
 10
-8.3043168028
 20
2.0730733614
 10
-8.2925100333
 20
2.0789175262
 10
-8.2836817451
 20
2.0838106795
 10
-8.2779626598
 20
2.0873953578
 10
-8.2753670175
 20
2.0889854021
 10
-8.275174875
 20
2.089040184
  0
LWPOLYLINE
  5
3C4
100
AcDbEntity
  8
0
100
AcDbPolyline
 62
250
  6
CONTINUOUS
 90
3
 70
0
 10
-10.2848374068
 20
-5.7120989376
 10
-10.1655077687
 20
-5.7024619141
 10
-10.0537487585
 20
-5.6764145853
  0
LWPOLYLINE
  5
3C5
100
AcDbEntity
  8
0
100
AcDbPolyline
 62
7
  6
CONTINUOUS
 90
7
 70
0
 10
26.4787873553
 20
-8.852692854
 10
26.3634357945
 20
-8.8357711029
 10
26.2612470484
 20
-8.8022046092
 10
26.1754359655
 20
-8.7541042084
 10
26.108580285
 20
-8.6928509769
 10
26.066468065
 20
-8.622469666
 10
26.0536910034
 20
-8.5649238689
  0
LWPOLYLINE
  5
3C6
100
AcDbEntity
  8
0
100
AcDbPolyline
 62
7
  6
CONTINUOUS
 90
7
 70
0
 10
-13.8252915452
 20
-3.7082441675
 10
-13.9405114209
 20
-3.6903374017
 10
-14.0426143948
 20
-3.6562868776
 10
-14.1283912069
 20
-3.6081904739
 10
-14.1952704997
 20
-3.547484555
 10
-14.2374706813
 20
-3.4781117907
 10
-14.2503681796
 20
-3.4214533515
  0
LWPOLYLINE
  5
3C7
100
AcDbEntity
  8
0
100
AcDbPolyline
 62
250
  6
CONTINUOUS
 90
10
 70
0
 10
27.2067917417
 20
-18.1026623616
 10
27.4573154994
 20
-18.2275222692
 10
27.716722266
 20
-18.3530810721
 10
27.9825511227
 20
-18.4783240274
 10
28.2505986425
 20
-18.6014586862
 10
28.5199672245
 20
-18.7222265761
 10
28.7930080841
 20
-18.841701872
 10
29.0683247344
 20
-18.9591657514
 10
29.3408089238
 20
-19.0723047372
 10
29.606620144
 20
-19.1793811293
  0
LWPOLYLINE
  5
3C8
100
AcDbEntity
  8
SUPERFICI
100
AcDbPolyline
 62
7
  6
CONTINUOUS
 90
6
 70
0
 10
11.6203936709
 20
-9.3976604555
 10
11.6146637226
 20
-9.3947255766
 10
11.6023237406
 20
-9.3907120443
 10
11.5898714198
 20
-9.3896111769
 10
11.5775509382
 20
-9.3912856896
 10
11.5656690629
 20
-9.3955778031
  0
LWPOLYLINE
  5
3C9
100
AcDbEntity
  8
0
100
AcDbPolyline
 62
250
  6
CONTINUOUS
 90
10
 70
0
 10
-31.2697822581
 20
15.6609748997
 10
-31.4856141505
 20
15.8053436429
 10
-31.7027560817
 20
15.9548943302
 10
-31.919462016
 20
16.1082142788
 10
-32.1326114486
 20
16.2628820256
 10
-32.3417666158
 20
16.4183886743
 10
-32.5488089895
 20
16.5761111407
 10
-32.7524866717
 20
16.735244558
 10
-32.9487604743
 20
16.8928215497
 10
-33.1345891275
 20
17.0466067853
  0
LWPOLYLINE
  5
3CA
100
AcDbEntity
  8
0
100
AcDbPolyline
 62
250
  6
CONTINUOUS
 90
10
 70
0
 10
17.9143787175
 20
-22.8348730444
 10
17.9523498998
 20
-22.8742599194
 10
17.9869218397
 20
-22.9186510246
 10
18.0179461188
 20
-22.9678735368
 10
18.0453501359
 20
-23.0219221574
 10
18.0688754568
 20
-23.0804618946
 10
18.0882031032
 20
-23.1427010881
 10
18.1032493558
 20
-23.2081275024
 10
18.1140403866
 20
-23.2766351035
 10
18.1205385163
 20
-23.3479378599
  0
LWPOLYLINE
  5
3CB
100
AcDbEntity
  8
0
100
AcDbPolyline
 62
250
  6
CONTINUOUS
 90
4
 70
0
 10
9.6312613402
 20
-18.2519995885
 10
9.759870393
 20
-18.4006827696
 10
9.891059244
 20
-18.5325850209
 10
10.0270142613
 20
-18.6510009741
  0
LWPOLYLINE
  5
3CC
100
AcDbEntity
  8
0
100
AcDbPolyline
 62
250
  6
CONTINUOUS
 90
4
 70
0
 10
5.7799259508
 20
-15.9030993529
 10
5.7364938007
 20
-15.8462385961
 10
5.6877342736
 20
-15.7931762296
 10
5.6337447329
 20
-15.744165294
  0
LWPOLYLINE
  5
3CD
100
AcDbEntity
  8
0
100
AcDbPolyline
 62
7
  6
CONTINUOUS
 90
8
 70
0
 10
5.6340304268
 20
-15.7436795737
 10
5.5931894648
 20
-15.6836055939
 10
5.5727028094
 20
-15.6032125581
 10
5.5723463213
 20
-15.5065010357
 10
5.5921654297
 20
-15.3962347859
 10
5.6315986061
 20
-15.2799453807
 10
5.6863335989
 20
-15.1700192687
 10
5.7516115549
 20
-15.0737715583
  0
LWPOLYLINE
  5
3CE
100
AcDbEntity
  8
0
100
AcDbPolyline
 62
250
  6
CONTINUOUS
 90
4
 70
0
 10
-13.4961334394
 20
15.4555594967
 10
-13.407871465
 20
15.2842394884
 10
-13.3313318922
 20
15.10969836
 10
-13.2660391774
 20
14.9322157245
  0
LWPOLYLINE
  5
3CF
100
AcDbEntity
  8
0
100
AcDbPolyline
 62
7
  6
CONTINUOUS
 90
9
 70
0
 10
-13.9073891092
 20
14.8358012896
 10
-13.8863896961
 20
14.7918229985
 10
-13.8676001837
 20
14.7464744247
 10
-13.8512888529
 20
14.7000615672
 10
-13.8380749589
 20
14.652925647
 10
-13.8278220597
 20
14.6054087467
 10
-13.8195870656
 20
14.5577477296
 10
-13.8131470717
 20
14.5101732727
 10
-13.8090541414
 20
14.463003591
  0
LWPOLYLINE
  5
3D0
100
AcDbEntity
  8
0
100
AcDbPolyline
 62
250
  6
CONTINUOUS
 90
9
 70
0
 10
-10.7951983566
 20
12.6683587122
 10
-10.7652317756
 20
12.597965064
 10
-10.707244395
 20
12.5354269063
 10
-10.6251850301
 20
12.4836159264
 10
-10.5229023349
 20
12.4446986246
 10
-10.4063562609
 20
12.4213709321
 10
-10.2845936334
 20
12.4153079397
 10
-10.1652365799
 20
12.4263841289
 10
-10.0534705805
 20
12.4541764363
  0
LINE
  5
3D1
100
AcDbEntity
  8
0
100
AcDbLine
 62
250
  6
CONTINUOUS
 10
-2.3122667377
 20
-8.5112619856
 11
-2.3122667377
 21
-8.297180064
  0
LINE
  5
3D2
100
AcDbEntity
  8
0
100
AcDbLine
 62
7
  6
CONTINUOUS
 10
-2.2867099213
 20
-8.2825329235
 11
-2.2867099213
 21
-8.4628536463
  0
LINE
  5
3D3
100
AcDbEntity
  8
0
100
AcDbLine
 62
7
  6
CONTINUOUS
 10
-9.9141808057
 20
-5.9048219124
 11
-9.8332844375
 21
-5.844761028
  0
LINE
  5
3D4
100
AcDbEntity
  8
0
100
AcDbLine
 62
7
  6
CONTINUOUS
 10
-9.0053715097
 20
-5.349575133
 11
-9.8340178892
 21
-5.844726312
  0
LINE
  5
3D5
100
AcDbEntity
  8
0
100
AcDbLine
 62
7
  6
CONTINUOUS
 10
-9.9552574619
 20
-5.6347332125
 11
-9.1121470007
 21
-5.1646345579
  0
LWPOLYLINE
  5
3D6
100
AcDbEntity
  8
0
100
AcDbPolyline
 62
250
  6
CONTINUOUS
 90
7
 70
0
 10
6.4964992789
 20
3.2836948289
 10
6.5702853689
 20
3.3068727006
 10
6.6397057637
 20
3.3241082355
 10
6.7054399982
 20
3.3335367998
 10
6.7679854888
 20
3.3333278901
 10
6.8277734525
 20
3.3218111394
 10
6.8849513145
 20
3.2972477572
  0
LWPOLYLINE
  5
3D7
100
AcDbEntity
  8
0
100
AcDbPolyline
 62
250
  6
CONTINUOUS
 90
3
 70
0
 10
6.2446097034
 20
3.2001024873
 10
6.333916366
 20
3.2278435042
 10
6.4964992789
 20
3.2836948289
  0
LWPOLYLINE
  5
3D8
100
AcDbEntity
  8
0
100
AcDbPolyline
 62
7
  6
CONTINUOUS
 90
6
 70
0
 10
-8.4324508624
 20
2.1796533478
 10
-8.4401503459
 20
2.1833146586
 10
-8.4529856136
 20
2.186862477
 10
-8.4657588585
 20
2.1874088617
 10
-8.4780558714
 20
2.1850649388
 10
-8.4895299598
 20
2.1800134818
  0
LINE
  5
3D9
100
AcDbEntity
  8
SUPERFICI
100
AcDbLine
 62
250
  6
CONTINUOUS
 10
11.5655327709
 20
-9.3954990785
 11
11.7509391266
 21
-9.5025503846
  0
LINE
  5
3DA
100
AcDbEntity
  8
0
100
AcDbLine
 62
250
  6
CONTINUOUS
 10
-8.3006343079
 20
2.0749768113
 11
-8.4860406636
 21
2.1820281173
  0
LINE
  5
3DB
100
AcDbEntity
  8
0
100
AcDbLine
 62
250
  6
CONTINUOUS
 10
-28.2555641161
 20
13.5967031885
 11
-28.537614098
 21
13.7595553131
  0
LINE
  5
3DC
100
AcDbEntity
  8
0
100
AcDbLine
 62
7
  6
CONTINUOUS
 10
-28.4829113052
 20
13.7574852661
 11
-28.2300072999
 21
13.6114616631
  0
LINE
  5
3DD
100
AcDbEntity
  8
0
100
AcDbLine
 62
7
  6
CONTINUOUS
 10
-8.4313378707
 20
2.1799580703
 11
-8.2751739127
 21
2.0897909581
  0
LINE
  5
3DE
100
AcDbEntity
  8
SUPERFICI
100
AcDbLine
 62
7
  6
CONTINUOUS
 10
11.6202355638
 20
-9.3975691255
 11
11.7763995218
 21
-9.4877362377
  0
LINE
  5
3DF
100
AcDbEntity
  8
0
100
AcDbLine
 62
7
  6
CONTINUOUS
 10
34.3324637537
 20
-20.4598700282
 11
35.0786148813
 21
-20.8906883378
  0
LWPOLYLINE
  5
3E0
100
AcDbEntity
  8
0
100
AcDbPolyline
 62
250
  6
CONTINUOUS
 90
7
 70
0
 10
-22.3570755346
 20
19.6391838045
 10
-22.4055224469
 20
19.6808778271
 10
-22.442836276
 20
19.7496383323
 10
-22.4600353138
 20
19.8366870876
 10
-22.4567031414
 20
19.936268182
 10
-22.4329873709
 20
20.0441384738
 10
-22.3895761635
 20
20.1550885012
  0
LWPOLYLINE
  5
3E1
100
AcDbEntity
  8
0
100
AcDbPolyline
 62
250
  6
CONTINUOUS
 90
5
 70
0
 10
-14.266949389
 20
15.4107378519
 10
-14.1897515068
 20
15.3258763454
 10
-14.1181296886
 20
15.2345226933
 10
-14.0542295488
 20
15.1379331042
 10
-13.9993924941
 20
15.0376850215
  0
LWPOLYLINE
  5
3E2
100
AcDbEntity
  8
0
100
AcDbPolyline
 62
250
  6
CONTINUOUS
 90
5
 70
0
 10
31.8926369894
 20
-35.6343389869
 10
31.9490364705
 20
-35.6971340784
 10
32.0088940797
 20
-35.7524809196
 10
32.0711586256
 20
-35.799400965
 10
32.1110964929
 20
-35.8241692677
  0
LWPOLYLINE
  5
3E3
100
AcDbEntity
  8
0
100
AcDbPolyline
 62
250
  6
CONTINUOUS
 90
10
 70
0
 10
30.2026324829
 20
-34.6589142955
 10
30.011431035
 20
-34.4451147494
 10
29.8233511102
 20
-34.2308997853
 10
29.6382938845
 20
-34.0161847017
 10
29.4564508917
 20
-33.8012315169
 10
29.2774322529
 20
-33.5856218814
 10
29.1002992393
 20
-33.3682360623
 10
28.9247096148
 20
-33.1486319521
 10
28.7508849511
 20
-32.927066929
 10
28.5787611001
 20
-32.7034530943
  0
LINE
  5
3E4
100
AcDbEntity
  8
0
100
AcDbLine
 62
250
  6
CONTINUOUS
 10
32.1635496664
 20
-35.8212876972
 11
32.1086833391
 21
-35.7595919815
  0
LWPOLYLINE
  5
3E5
100
AcDbEntity
  8
0
100
AcDbPolyline
 62
250
  6
CONTINUOUS
 90
7
 70
0
 10
10.0429344262
 20
-18.2901683187
 10
9.9987870718
 20
-18.2285839006
 10
9.9748924617
 20
-18.1471989004
 10
9.9718456724
 20
-18.0506252317
 10
9.9897243702
 20
-17.9429980126
 10
10.0279979997
 20
-17.8307729347
 10
10.0835860163
 20
-17.7227856856
  0
LWPOLYLINE
  5
3E6
100
AcDbEntity
  8
0
100
AcDbPolyline
 62
250
  6
CONTINUOUS
 90
4
 70
0
 10
9.3016948353
 20
-17.7543106514
 10
9.3971445886
 20
-17.9226335552
 10
9.507886395
 20
-18.0895323557
 10
9.6312613402
 20
-18.2519995885
  0
LWPOLYLINE
  5
3E7
100
AcDbEntity
  8
0
100
AcDbPolyline
 62
7
  6
CONTINUOUS
 90
6
 70
0
 10
9.5044673716
 20
-17.6882737558
 10
9.5829629592
 20
-17.8291814284
 10
9.6722806333
 20
-17.9549146356
 10
9.7669692333
 20
-18.0638213556
 10
9.8695948054
 20
-18.1623769304
 10
9.8957013414
 20
-18.1848329318
  0
LINE
  5
3E8
100
AcDbEntity
  8
0
100
AcDbLine
 62
250
  6
CONTINUOUS
 10
6.2603327567
 20
-15.7106068555
 11
6.2445631053
 21
-15.6698925955
  0
LWPOLYLINE
  5
3E9
100
AcDbEntity
  8
0
100
AcDbPolyline
 62
250
  6
CONTINUOUS
 90
4
 70
0
 10
5.7799239859
 20
4.2066198986
 10
5.7364922487
 20
4.1280060938
 10
5.6877333728
 20
4.0505864167
 10
5.6337447278
 20
3.9747263385
  0
LINE
  5
3EA
100
AcDbEntity
  8
0
100
AcDbLine
 62
7
  6
CONTINUOUS
 10
10.1031681713
 20
0.8221367876
 11
10.1963776933
 21
0.8624748685
  0
LINE
  5
3EB
100
AcDbEntity
  8
0
100
AcDbLine
 62
250
  6
CONTINUOUS
 10
-10.0537487585
 20
-5.6764145853
 11
-9.9554115234
 21
-5.6349388737
  0
LWPOLYLINE
  5
3EC
100
AcDbEntity
  8
SUPERFICI
100
AcDbPolyline
 62
7
  6
CONTINUOUS
 90
6
 70
0
 10
11.7763986916
 20
-0.3491640666
 10
11.7762242468
 20
-0.3492156054
 10
11.773686269
 20
-0.350803663
 10
11.7680019798
 20
-0.354406086
 10
11.7591567305
 20
-0.3593236407
 10
11.7472566316
 20
-0.3651840732
  0
LWPOLYLINE
  5
3ED
100
AcDbEntity
  8
0
100
AcDbPolyline
 62
250
  6
CONTINUOUS
 90
7
 70
0
 10
9.8049041606
 20
1.5168263827
 10
9.7297368965
 20
1.5221661707
 10
9.6589489719
 20
1.5150101292
 10
9.5936936385
 20
1.4954383638
 10
9.5349993433
 20
1.4636129366
 10
9.4836277954
 20
1.4199915814
 10
9.4401596777
 20
1.3654350484
  0
LWPOLYLINE
  5
3EE
100
AcDbEntity
  8
0
100
AcDbPolyline
 62
250
  6
CONTINUOUS
 90
3
 70
0
 10
6.496379253
 20
2.7636603523
 10
6.4121432449
 20
2.7749099409
 10
6.3266754148
 20
2.782506085
  0
LWPOLYLINE
  5
3EF
100
AcDbEntity
  8
0
100
AcDbPolyline
 62
250
  6
CONTINUOUS
 90
7
 70
0
 10
6.3266573014
 20
2.7824138425
 10
6.2056377934
 20
2.7992120649
 10
6.0978234956
 20
2.8324028651
 10
6.0081834334
 20
2.8797094322
 10
5.9404235363
 20
2.9389376839
 10
5.8992528018
 20
3.0066255026
 10
5.8875200319
 20
3.0695486815
  0
LWPOLYLINE
  5
3F0
100
AcDbEntity
  8
0
100
AcDbPolyline
 62
250
  6
CONTINUOUS
 90
10
 70
0
 10
27.2067986713
 20
-8.9194058114
 10
27.1396804789
 20
-8.8912788879
 10
27.0683475214
 20
-8.8679355053
 10
26.9930335173
 20
-8.8495479584
 10
26.9138119115
 20
-8.8362848756
 10
26.8311282724
 20
-8.8283558364
 10
26.7458557768
 20
-8.8259409048
 10
26.6585464864
 20
-8.8291597332
 10
26.5693765399
 20
-8.8381421999
 10
26.4787165275
 20
-8.8530233961
  0
LWPOLYLINE
  5
3F1
100
AcDbEntity
  8
0
100
AcDbPolyline
 62
250
  6
CONTINUOUS
 90
10
 70
0
 10
-31.2697662124
 20
24.8442294037
 10
-31.2148478491
 20
24.801893799
 10
-31.1639418659
 20
24.7546578579
 10
-31.1173466673
 20
24.7026565228
 10
-31.0752832783
 20
24.6458911822
 10
-31.0381857085
 20
24.5846601126
 10
-31.0065789108
 20
24.5195905135
 10
-30.9807411499
 20
24.4510421484
 10
-30.9608263407
 20
24.3790757001
 10
-30.9470684569
 20
24.3039051398
  0
LWPOLYLINE
  5
3F2
100
AcDbEntity
  8
0
100
AcDbPolyline
 62
250
  6
CONTINUOUS
 90
3
 70
0
 10
-14.4322310881
 20
15.5548659727
 10
-14.3481290357
 20
15.4876874862
 10
-14.266949389
 20
15.4107378519
  0
LWPOLYLINE
  5
3F3
100
AcDbEntity
  8
0
100
AcDbPolyline
 62
250
  6
CONTINUOUS
 90
5
 70
0
 10
-13.9601970514
 20
16.0844047105
 10
-13.8348175077
 20
15.9481419214
 10
-13.7136923636
 20
15.7944280959
 10
-13.598709223
 20
15.6268018625
 10
-13.4961334394
 20
15.4555594967
  0
LWPOLYLINE
  5
3F4
100
AcDbEntity
  8
0
100
AcDbPolyline
 62
250
  6
CONTINUOUS
 90
5
 70
0
 10
28.1718694398
 20
-27.4483909894
 10
27.9290094375
 20
-27.1832998883
 10
27.6871771339
 20
-26.9218713003
 10
27.4463031145
 20
-26.6640056257
 10
27.2067919423
 20
-26.4101225759
  0
LWPOLYLINE
  5
3F5
100
AcDbEntity
  8
0
100
AcDbPolyline
 62
250
  6
CONTINUOUS
 90
6
 70
0
 10
29.363242661
 20
-28.7868389331
 10
29.13038848
 20
-28.5200872685
 10
28.894505501
 20
-28.2524939389
 10
28.6560090284
 20
-27.9845377266
 10
28.414831934
 20
-27.7161631863
 10
28.1718694398
 20
-27.4483909894
  0
LWPOLYLINE
  5
3F6
100
AcDbEntity
  8
0
100
AcDbPolyline
 62
250
  6
CONTINUOUS
 90
8
 70
0
 10
29.3630885625
 20
-28.7866778161
 10
29.5792523192
 20
-29.0365917745
 10
29.7956101524
 20
-29.2888122774
 10
30.012251339
 20
-29.5433586995
 10
30.2293671807
 20
-29.8003615346
 10
30.4469752359
 20
-30.0597359405
 10
30.6649273241
 20
-30.3211837341
 10
30.8832731225
 20
-30.5846276544
  0
LINE
  5
3F7
100
AcDbEntity
  8
0
100
AcDbLine
 62
250
  6
CONTINUOUS
 10
27.2042837881
 20
-27.3669314617
 11
27.6455970197
 21
-27.8998788979
  0
LWPOLYLINE
  5
3F8
100
AcDbEntity
  8
0
100
AcDbPolyline
 62
250
  6
CONTINUOUS
 90
3
 70
0
 10
27.6455970197
 20
-27.8998788979
 10
28.0785200666
 20
-28.4271832319
 10
28.2934760051
 20
-28.6907452518
  0
LINE
  5
3F9
100
AcDbEntity
  8
0
100
AcDbLine
 62
250
  6
CONTINUOUS
 10
32.2311153929
 20
-35.8280637011
 11
32.0169274133
 21
-35.5527125011
  0
LWPOLYLINE
  5
3FA
100
AcDbEntity
  8
0
100
AcDbPolyline
 62
250
  6
CONTINUOUS
 90
3
 70
0
 10
32.0169274133
 20
-35.5527125011
 10
31.8021217668
 20
-35.2745530157
 10
31.5872275643
 20
-34.9942907477
  0
LWPOLYLINE
  5
3FB
100
AcDbEntity
  8
0
100
AcDbPolyline
 62
250
  6
CONTINUOUS
 90
10
 70
0
 10
29.7014662065
 20
-33.1933211171
 10
29.8900203735
 20
-33.4422076043
 10
30.0811510268
 20
-33.6904156116
 10
30.2747657374
 20
-33.9378133429
 10
30.4707490192
 20
-34.184242689
 10
30.6690239737
 20
-34.4295956761
 10
30.8695576324
 20
-34.6738210933
 10
31.0722798464
 20
-34.9168242095
 10
31.277079003
 20
-35.1584604239
 10
31.4838634345
 20
-35.3986096179
  0
LWPOLYLINE
  5
3FC
100
AcDbEntity
  8
0
100
AcDbPolyline
 62
250
  6
CONTINUOUS
 90
3
 70
0
 10
28.5788101671
 20
-32.7035175851
 10
28.3847545165
 20
-32.4463257297
 10
28.1934560982
 20
-32.1873463065
  0
LWPOLYLINE
  5
3FD
100
AcDbEntity
  8
0
100
AcDbPolyline
 62
7
  6
CONTINUOUS
 90
7
 70
0
 10
9.3575829852
 20
-17.0937453717
 10
9.3877157817
 20
-17.1597620189
 10
9.4462132016
 20
-17.21844046
 10
9.5294424681
 20
-17.2679270829
 10
9.6349743981
 20
-17.3067701246
 10
9.7559219152
 20
-17.3315964444
 10
9.8792308283
 20
-17.3398256716
  0
LWPOLYLINE
  5
3FE
100
AcDbEntity
  8
0
100
AcDbPolyline
 62
250
  6
CONTINUOUS
 90
3
 70
0
 10
9.1513125575
 20
-17.4028589611
 10
9.2195848344
 20
-17.581146312
 10
9.3016948353
 20
-17.7543106514
  0
LINE
  5
3FF
100
AcDbEntity
  8
0
100
AcDbLine
 62
250
  6
CONTINUOUS
 10
9.1267445087
 20
-17.3230796806
 11
9.1531434592
 21
-17.403762385
  0
LINE
  5
400
100
AcDbEntity
  8
0
100
AcDbLine
 62
250
  6
CONTINUOUS
 10
5.8992089096
 20
-15.1195105933
 11
5.8875200319
 21
-15.0576864598
  0
LWPOLYLINE
  5
401
100
AcDbEntity
  8
0
100
AcDbPolyline
 62
250
  6
CONTINUOUS
 90
9
 70
0
 10
7.0131968465
 20
2.5916288639
 10
7.0116374198
 20
2.6651904689
 10
7.0068616649
 20
2.7402194221
 10
6.9988695818
 20
2.8167157234
 10
6.9875974127
 20
2.8950254117
 10
6.9731089153
 20
2.9748024482
 10
6.9555953629
 20
3.0550087165
 10
6.9351205133
 20
3.1352981779
 10
6.9116206085
 20
3.2160168712
  0
LINE
  5
402
100
AcDbEntity
  8
SUPERFICI
100
AcDbLine
 62
250
  6
CONTINUOUS
 10
5.6028280391
 20
-12.8672565887
 11
5.6028280391
 21
-13.0813385103
  0
LINE
  5
403
100
AcDbEntity
  8
SUPERFICI
100
AcDbLine
 62
7
  6
CONTINUOUS
 10
5.6283848555
 20
-12.8526094482
 11
5.6283848555
 21
-13.032930171
  0
LINE
  5
404
100
AcDbEntity
  8
0
100
AcDbLine
 62
250
  6
CONTINUOUS
 10
6.3266754148
 20
-15.3441153482
 11
6.3266754148
 21
2.782506085
  0
LINE
  5
405
100
AcDbEntity
  8
0
100
AcDbLine
 62
250
  6
CONTINUOUS
 10
7.0131968465
 20
2.5916288639
 11
7.0131968465
 21
-15.5365476701
  0
LINE
  5
406
100
AcDbEntity
  8
0
100
AcDbLine
 62
7
  6
CONTINUOUS
 10
5.8882658236
 20
-5.9938951246
 11
5.8875200319
 21
-15.0576864598
  0
LINE
  5
407
100
AcDbEntity
  8
0
100
AcDbLine
 62
7
  6
CONTINUOUS
 10
5.8882658236
 20
-5.9939227686
 11
5.8875239713
 21
3.070721487
  0
LWPOLYLINE
  5
408
100
AcDbEntity
  8
0
100
AcDbPolyline
 62
7
  6
CONTINUOUS
 90
4
 70
0
 10
5.8874399331
 20
-15.05684232
 10
5.8874082674
 20
-15.0622565331
 10
5.8868661
 20
-15.0776053906
 10
5.8867169484
 20
-15.0806809712
  0
LWPOLYLINE
  5
409
100
AcDbEntity
  8
SUPERFICI
100
AcDbPolyline
 62
7
  6
CONTINUOUS
 90
6
 70
0
 10
5.6275643552
 20
-13.0337416441
 10
5.6268857344
 20
-13.0422367579
 10
5.6235410503
 20
-13.0551271125
 10
5.6176280632
 20
-13.0664630427
 10
5.6094501046
 20
-13.0759413771
 10
5.5993387965
 20
-13.0833532387
  0
LWPOLYLINE
  5
40A
100
AcDbEntity
  8
0
100
AcDbPolyline
 62
250
  6
CONTINUOUS
 90
3
 70
0
 10
5.9217759438
 20
4.6786004731
 10
5.9128265849
 20
4.6023424606
 10
5.89799596
 20
4.5246999963
  0
LWPOLYLINE
  5
40B
100
AcDbEntity
  8
0
100
AcDbPolyline
 62
250
  6
CONTINUOUS
 90
5
 70
0
 10
5.89799596
 20
4.5246999963
 10
5.8772845648
 20
4.4459783447
 10
5.8506033653
 20
4.3663220626
 10
5.8180339579
 20
4.2862400787
 10
5.7799239859
 20
4.2066198986
  0
LWPOLYLINE
  5
40C
100
AcDbEntity
  8
0
100
AcDbPolyline
 62
7
  6
CONTINUOUS
 90
7
 70
0
 10
5.6340304268
 20
3.9746549576
 10
5.5931525522
 20
3.8665667908
 10
5.5726790999
 20
3.7620285166
 10
5.5723775276
 20
3.6647927161
 10
5.592286309
 20
3.5777354185
 10
5.6318344605
 20
3.5077026247
 10
5.6736737983
 20
3.4697256268
  0
LWPOLYLINE
  5
40D
100
AcDbEntity
  8
0
100
AcDbPolyline
 62
250
  6
CONTINUOUS
 90
10
 70
0
 10
9.1528818873
 20
1.9878117112
 10
9.2186975602
 20
2.0882873611
 10
9.2987762307
 20
2.1713829322
 10
9.3926575213
 20
2.2368275868
 10
9.5022048734
 20
2.2851937512
 10
9.6248892388
 20
2.3155247816
 10
9.7536511407
 20
2.3252597293
 10
9.8859378485
 20
2.3134389456
 10
10.0238133777
 20
2.2807607172
 10
10.1671484971
 20
2.2271583352
  0
LWPOLYLINE
  5
40E
100
AcDbEntity
  8
0
100
AcDbPolyline
 62
7
  6
CONTINUOUS
 90
6
 70
0
 10
-2.2873144668
 20
-8.282184848
 10
-2.287446059
 20
-8.2823106098
 10
-2.2900895605
 20
-8.2837158949
 10
-2.2960507773
 20
-8.2868386652
 10
-2.3047314945
 20
-8.2920411978
 10
-2.3157562962
 20
-8.2994176895
  0
LWPOLYLINE
  5
40F
100
AcDbEntity
  8
0
100
AcDbPolyline
 62
250
  6
CONTINUOUS
 90
10
 70
0
 10
-1.9652970757
 20
-10.388506072
 10
-2.048204567
 20
-10.4513203796
 10
-2.1239970315
 20
-10.533954363
 10
-2.1901710995
 20
-10.6323123328
 10
-2.244762422
 20
-10.7435382111
 10
-2.2832326679
 20
-10.8599643688
 10
-2.3016302299
 20
-10.969157945
 10
-2.2998692654
 20
-11.0638691155
 10
-2.2785143963
 20
-11.1418226611
 10
-2.2379082214
 20
-11.1997096214
  0
LWPOLYLINE
  5
410
100
AcDbEntity
  8
0
100
AcDbPolyline
 62
7
  6
CONTINUOUS
 90
6
 70
0
 10
-2.3157559803
 20
-8.5132767141
 10
-2.3055095441
 20
-8.5057340969
 10
-2.2972940944
 20
-8.4961102115
 10
-2.2914217349
 20
-8.4846559337
 10
-2.2881743073
 20
-8.4717298841
 10
-2.287567095
 20
-8.4637031885
  0
LINE
  5
411
100
AcDbEntity
  8
0
100
AcDbLine
 62
7
  6
CONTINUOUS
 10
-3.0646702094
 20
-8.7796616094
 11
-2.3157559327
 21
-8.2994175234
  0
LINE
  5
412
100
AcDbEntity
  8
0
100
AcDbLine
 62
7
  6
CONTINUOUS
 10
11.0801545625
 20
-0.5364836074
 11
11.5655327709
 21
-0.2562293173
  0
LINE
  5
413
100
AcDbEntity
  8
0
100
AcDbLine
 62
7
  6
CONTINUOUS
 10
-2.9208911382
 20
-8.8626778431
 11
-2.3122667377
 21
-8.5112619856
  0
LINE
  5
414
100
AcDbEntity
  8
0
100
AcDbLine
 62
7
  6
CONTINUOUS
 10
-4.3726249016
 20
-7.1118071594
 11
-5.2043784698
 21
-7.5442208766
  0
LINE
  5
415
100
AcDbEntity
  8
0
100
AcDbLine
 62
7
  6
CONTINUOUS
 10
11.0398924496
 20
-0.7308022529
 11
11.7472569572
 21
-0.3651838415
  0
LWPOLYLINE
  5
416
100
AcDbEntity
  8
0
100
AcDbPolyline
 62
7
  6
CONTINUOUS
 90
6
 70
0
 10
-4.3726252651
 20
-7.1118073255
 10
-4.35754454
 20
-7.10688045
 10
-4.3415060122
 20
-7.1059458166
 10
-4.3248845948
 20
-7.1089379364
 10
-4.307767136
 20
-7.1158231452
 10
-4.3019550629
 20
-7.1189567471
  0
LWPOLYLINE
  5
417
100
AcDbEntity
  8
0
100
AcDbPolyline
 62
250
  6
CONTINUOUS
 90
3
 70
0
 10
9.9634138533
 20
1.469778755
 10
9.8832557967
 20
1.4991613781
 10
9.8049041606
 20
1.5168263827
  0
LWPOLYLINE
  5
418
100
AcDbEntity
  8
0
100
AcDbPolyline
 62
7
  6
CONTINUOUS
 90
6
 70
0
 10
-8.4324508624
 20
11.318923109
 10
-8.4401503458
 20
11.3225844197
 10
-8.4529856135
 20
11.3261322381
 10
-8.4657588584
 20
11.3266786229
 10
-8.4780558714
 20
11.3243347
 10
-8.4895299598
 20
11.319283243
  0
LINE
  5
419
100
AcDbEntity
  8
0
100
AcDbLine
 62
250
  6
CONTINUOUS
 10
10.0438995386
 20
1.4293535386
 11
9.9634138533
 21
1.469778755
  0
LWPOLYLINE
  5
41A
100
AcDbEntity
  8
SUPERFICI
100
AcDbPolyline
 62
7
  6
CONTINUOUS
 90
6
 70
0
 10
11.620393671
 20
-0.2583906943
 10
11.6146637226
 20
-0.2554558154
 10
11.6023237406
 20
-0.2514422832
 10
11.5898714197
 20
-0.2503414157
 10
11.5775509382
 20
-0.2520159284
 10
11.5656690629
 20
-0.2563080419
  0
LWPOLYLINE
  5
41B
100
AcDbEntity
  8
0
100
AcDbPolyline
 62
250
  6
CONTINUOUS
 90
8
 70
0
 10
7.0131971458
 20
2.5908224002
 10
6.9502040195
 20
2.6245928539
 10
6.8829601826
 20
2.6556160159
 10
6.8118201305
 20
2.6837095679
 10
6.7371329967
 20
2.7087152556
 10
6.6593265728
 20
2.7304703789
 10
6.5789160642
 20
2.7488216623
 10
6.496379253
 20
2.7636603523
  0
LINE
  5
41C
100
AcDbEntity
  8
0
100
AcDbLine
 62
250
  6
CONTINUOUS
 10
-13.2005491931
 20
14.2594869454
 11
-13.1388423045
 21
14.2263574144
  0
LINE
  5
41D
100
AcDbEntity
  8
0
100
AcDbLine
 62
7
  6
CONTINUOUS
 10
-14.4864399797
 20
15.093939908
 11
-14.4850868951
 21
15.0931669921
  0
LINE
  5
41E
100
AcDbEntity
  8
0
100
AcDbLine
 62
7
  6
CONTINUOUS
 10
-2.1902488491
 20
8.0074300149
 11
5.6822609985
 21
3.4644289169
  0
LINE
  5
41F
100
AcDbEntity
  8
SUPERFICI
100
AcDbLine
 62
250
  6
CONTINUOUS
 10
11.5655327709
 20
-0.2562293173
 11
11.7509391265
 21
-0.3632806234
  0
LINE
  5
420
100
AcDbEntity
  8
0
100
AcDbLine
 62
250
  6
CONTINUOUS
 10
-8.3006343079
 20
11.2142465724
 11
-8.4860406635
 21
11.3212978785
  0
LINE
  5
421
100
AcDbEntity
  8
0
100
AcDbLine
 62
250
  6
CONTINUOUS
 10
-28.2555641161
 20
22.7359729497
 11
-28.537614098
 21
22.8988250743
  0
LINE
  5
422
100
AcDbEntity
  8
0
100
AcDbLine
 62
7
  6
CONTINUOUS
 10
-28.4829113052
 20
22.8967550273
 11
-28.2300072999
 21
22.7507314243
  0
LINE
  5
423
100
AcDbEntity
  8
0
100
AcDbLine
 62
7
  6
CONTINUOUS
 10
-8.4313378707
 20
11.3192278315
 11
-8.2751739127
 21
11.2290607193
  0
LINE
  5
424
100
AcDbEntity
  8
SUPERFICI
100
AcDbLine
 62
7
  6
CONTINUOUS
 10
11.6202355638
 20
-0.2582993643
 11
11.7763995218
 21
-0.3484664765
  0
LINE
  5
425
100
AcDbEntity
  8
0
100
AcDbLine
 62
7
  6
CONTINUOUS
 10
10.0753983843
 20
0.9122422677
 11
17.947029144
 21
-3.6319011081
  0
LINE
  5
426
100
AcDbEntity
  8
0
100
AcDbLine
 62
250
  6
CONTINUOUS
 10
-30.2610472057
 20
24.6999264822
 11
-14.5184295902
 21
15.6103042339
  0
LINE
  5
427
100
AcDbEntity
  8
0
100
AcDbLine
 62
250
  6
CONTINUOUS
 10
-10.1086843877
 20
13.0643011889
 11
5.6340304268
 21
3.9746549576
  0
LINE
  5
428
100
AcDbEntity
  8
0
100
AcDbLine
 62
250
  6
CONTINUOUS
 10
10.0429962528
 20
1.4288797668
 11
25.7856528041
 21
-7.6607585033
  0
LINE
  5
429
100
AcDbEntity
  8
0
100
AcDbLine
 62
250
  6
CONTINUOUS
 10
-13.2673884439
 20
14.9329565416
 11
-10.999944002
 21
13.6237625386
  0
LINE
  5
42A
100
AcDbEntity
  8
0
100
AcDbLine
 62
250
  6
CONTINUOUS
 10
6.8850956488
 20
3.2971647964
 11
9.1520910422
 21
1.9882300684
  0
LINE
  5
42B
100
AcDbEntity
  8
0
100
AcDbLine
 62
250
  6
CONTINUOUS
 10
-29.3782528761
 20
25.0603973881
 11
25.3152611756
 21
-6.5189521547
  0
LINE
  5
42C
100
AcDbEntity
  8
0
100
AcDbLine
 62
7
  6
CONTINUOUS
 10
-30.2286703907
 20
24.1833064508
 11
-14.4864399797
 21
15.093939908
  0
LINE
  5
42D
100
AcDbEntity
  8
0
100
AcDbLine
 62
7
  6
CONTINUOUS
 10
17.9470060136
 20
-3.6318877529
 11
25.8188723173
 21
-8.1778354641
  0
LINE
  5
42E
100
AcDbEntity
  8
0
100
AcDbLine
 62
7
  6
CONTINUOUS
 10
-10.0599226714
 20
12.5537684722
 11
-2.1903175764
 21
8.0074696971
  0
LINE
  5
42F
100
AcDbEntity
  8
0
100
AcDbLine
 62
7
  6
CONTINUOUS
 10
-29.3782385314
 20
25.0603792174
 11
-30.1367935566
 21
25.4983282553
  0
LINE
  5
430
100
AcDbEntity
  8
0
100
AcDbLine
 62
7
  6
CONTINUOUS
 10
25.3152535569
 20
-6.518957644
 11
26.0738086642
 21
-6.9569689833
  0
LWPOLYLINE
  5
431
100
AcDbEntity
  8
0
100
AcDbPolyline
 62
7
  6
CONTINUOUS
 90
10
 70
0
 10
26.0738348471
 20
-6.9566886675
 10
26.0817118967
 20
-6.9612882187
 10
26.0896006872
 20
-6.9659698288
 10
26.0975011494
 20
-6.9707318916
 10
26.1054133799
 20
-6.9755728768
 10
26.1133371423
 20
-6.9804910218
 10
26.1212718684
 20
-6.9854843169
 10
26.129217323
 20
-6.9905509252
 10
26.1371736029
 20
-6.9956891958
 10
26.1451406383
 20
-7.0008973449
  0
LWPOLYLINE
  5
432
100
AcDbEntity
  8
0
100
AcDbPolyline
 62
7
  6
CONTINUOUS
 90
13
 70
0
 10
25.8191306207
 20
-8.1775284515
 10
25.826562794
 20
-8.1818970486
 10
25.8514634307
 20
-8.1980475024
 10
25.880504695
 20
-8.2200334893
 10
25.9126151373
 20
-8.2491613926
 10
25.9452454453
 20
-8.2857558123
 10
25.9749423771
 20
-8.3281450989
 10
26.0001159906
 20
-8.3758495442
 10
26.019002113
 20
-8.4260170852
 10
26.0305688361
 20
-8.472067532
 10
26.0364454855
 20
-8.5103798813
 10
26.0389566641
 20
-8.5420284708
 10
26.0394790145
 20
-8.5647872086
  0
LWPOLYLINE
  5
433
100
AcDbEntity
  8
0
100
AcDbPolyline
 62
7
  6
CONTINUOUS
 90
13
 70
0
 10
5.6670974542
 20
3.4580028672
 10
5.6746157698
 20
3.4535822255
 10
5.6994365707
 20
3.4374786788
 10
5.7283636774
 20
3.415584968
 10
5.7603162248
 20
3.3866332481
 10
5.7928060484
 20
3.3502815006
 10
5.8224724933
 20
3.3080904282
 10
5.8477394052
 20
3.2604351964
 10
5.8667526861
 20
3.2101971781
 10
5.8784145738
 20
3.1640514371
 10
5.8843471967
 20
3.125677846
 10
5.8868953976
 20
3.0939677303
 10
5.8874395561
 20
3.0707613445
  0
LWPOLYLINE
  5
434
100
AcDbEntity
  8
0
100
AcDbPolyline
 62
7
  6
CONTINUOUS
 90
13
 70
0
 10
-14.4848264808
 20
15.0934707131
 10
-14.4768526262
 20
15.0887716568
 10
-14.4532061736
 20
15.0734322812
 10
-14.425849337
 20
15.0528938936
 10
-14.3960333298
 20
15.0264185225
 10
-14.3654144248
 20
14.9933906111
 10
-14.3360364927
 20
14.9538016689
 10
-14.3092502259
 20
14.9065620232
 10
-14.288258414
 20
14.854961435
 10
-14.2751657802
 20
14.8070660393
 10
-14.2684263232
 20
14.7673519602
 10
-14.2654022837
 20
14.734389864
 10
-14.2645997453
 20
14.7070349094
  0
LINE
  5
435
100
AcDbEntity
  8
0
100
AcDbLine
 62
7
  6
CONTINUOUS
 10
-10.0682480516
 20
12.5588901522
 11
-10.0599226714
 21
12.5537684722
  0
LWPOLYLINE
  5
436
100
AcDbEntity
  8
0
100
AcDbPolyline
 62
250
  6
CONTINUOUS
 90
10
 70
0
 10
-11.1270230996
 20
13.0647582203
 10
-11.0698930923
 20
13.0292952755
 10
-11.0172847151
 20
12.9914891211
 10
-10.9694928183
 20
12.9515292518
 10
-10.927103972
 20
12.9099543844
 10
-10.8899630694
 20
12.8666663898
 10
-10.8576019303
 20
12.8208063518
 10
-10.830449118
 20
12.7721555909
 10
-10.8093925102
 20
12.7212615076
 10
-10.7950386072
 20
12.6683691771
  0
LINE
  5
437
100
AcDbEntity
  8
0
100
AcDbLine
 62
250
  6
CONTINUOUS
 10
-14.5177562642
 20
15.6104515721
 11
-14.4322310881
 21
15.5548659727
  0
LINE
  5
438
100
AcDbEntity
  8
0
100
AcDbLine
 62
250
  6
CONTINUOUS
 10
5.7198404001
 20
3.9193807181
 11
5.634318825
 21
3.9752416491
  0
LWPOLYLINE
  5
439
100
AcDbEntity
  8
0
100
AcDbPolyline
 62
250
  6
CONTINUOUS
 90
3
 70
0
 10
-14.2309889704
 20
16.3143371122
 10
-14.0922114085
 20
16.2064918409
 10
-13.9601970514
 20
16.0844047105
  0
LINE
  5
43A
100
AcDbEntity
  8
0
100
AcDbLine
 62
250
  6
CONTINUOUS
 10
5.8039587122
 20
3.8519638409
 11
5.7198404001
 21
3.9193807181
  0
LWPOLYLINE
  5
43B
100
AcDbEntity
  8
0
100
AcDbPolyline
 62
250
  6
CONTINUOUS
 90
7
 70
0
 10
-2.1903175764
 20
8.0074696971
 10
-2.2445450377
 20
8.0552921476
 10
-2.2831284709
 20
8.1272775803
 10
-2.3016073567
 20
8.2152600663
 10
-2.2998915246
 20
8.3120719747
 10
-2.278544974
 20
8.4147767157
 10
-2.2379082214
 20
8.5196601121
  0
LINE
  5
43C
100
AcDbEntity
  8
0
100
AcDbLine
 62
250
  6
CONTINUOUS
 10
30.8832731225
 20
-30.5846276544
 11
31.3220262994
 21
-31.1179650125
  0
LINE
  5
43D
100
AcDbEntity
  8
0
100
AcDbLine
 62
250
  6
CONTINUOUS
 10
31.3220234043
 20
-31.1180463176
 11
31.6826927746
 21
-31.559731729
  0
LINE
  5
43E
100
AcDbEntity
  8
0
100
AcDbLine
 62
250
  6
CONTINUOUS
 10
31.6826927746
 20
-31.559731729
 11
32.0377151564
 21
-31.9973495593
  0
LINE
  5
43F
100
AcDbEntity
  8
0
100
AcDbLine
 62
250
  6
CONTINUOUS
 10
28.2934760051
 20
-28.6907452518
 11
28.7223418459
 21
-29.2200929379
  0
LINE
  5
440
100
AcDbEntity
  8
0
100
AcDbLine
 62
250
  6
CONTINUOUS
 10
32.0377151564
 20
-31.9973495593
 11
32.3891899126
 21
-32.4334993801
  0
LINE
  5
441
100
AcDbEntity
  8
0
100
AcDbLine
 62
250
  6
CONTINUOUS
 10
28.7223418459
 20
-29.2200929379
 11
29.1537465991
 21
-29.7571727137
  0
LWPOLYLINE
  5
442
100
AcDbEntity
  8
0
100
AcDbPolyline
 62
250
  6
CONTINUOUS
 90
3
 70
0
 10
32.3891899126
 20
-32.4334993801
 10
32.7402343324
 20
-32.8720681097
 10
32.9160625081
 20
-33.0928492082
  0
LINE
  5
443
100
AcDbEntity
  8
0
100
AcDbLine
 62
250
  6
CONTINUOUS
 10
29.1537307357
 20
-29.757215175
 11
29.5999065176
 21
-30.3174453863
  0
LINE
  5
444
100
AcDbEntity
  8
0
100
AcDbLine
 62
250
  6
CONTINUOUS
 10
29.5999065176
 20
-30.3174453863
 11
30.0506781088
 21
-30.8877875969
  0
LINE
  5
445
100
AcDbEntity
  8
0
100
AcDbLine
 62
250
  6
CONTINUOUS
 10
30.0506781088
 20
-30.8877875969
 11
30.5027743208
 21
-31.4633142253
  0
LWPOLYLINE
  5
446
100
AcDbEntity
  8
0
100
AcDbPolyline
 62
250
  6
CONTINUOUS
 90
4
 70
0
 10
6.0343041731
 20
3.5982574921
 10
5.9625134847
 20
3.6897752004
 10
5.8851930009
 20
3.77481659
 10
5.8039587122
 20
3.8519638409
  0
LINE
  5
447
100
AcDbEntity
  8
0
100
AcDbLine
 62
250
  6
CONTINUOUS
 10
30.5027743208
 20
-31.4633142253
 11
30.9579315812
 21
-32.0455809624
  0
LINE
  5
448
100
AcDbEntity
  8
0
100
AcDbLine
 62
250
  6
CONTINUOUS
 10
31.958380125
 20
-33.3325710532
 11
30.9579315812
 21
-32.0455809624
  0
LINE
  5
449
100
AcDbEntity
  8
0
100
AcDbLine
 62
250
  6
CONTINUOUS
 10
32.9160884598
 20
-34.5723840547
 11
31.958380125
 21
-33.3325710532
  0
LWPOLYLINE
  5
44A
100
AcDbEntity
  8
0
100
AcDbPolyline
 62
250
  6
CONTINUOUS
 90
7
 70
0
 10
31.5872275643
 20
-34.9942907477
 10
31.3729846261
 20
-34.7129092369
 10
31.1597324963
 20
-34.4308685057
 10
30.9474276285
 20
-34.1481091807
 10
30.7364595588
 20
-33.8651321725
 10
30.5276340159
 20
-33.582994958
 10
30.3215741049
 20
-33.3025131086
  0
LWPOLYLINE
  5
44B
100
AcDbEntity
  8
0
100
AcDbPolyline
 62
250
  6
CONTINUOUS
 90
7
 70
0
 10
28.1934560982
 20
-32.1873463065
 10
28.004469401
 20
-31.9259098663
 10
27.8169069936
 20
-31.6607161907
 10
27.6307342751
 20
-31.3916582913
 10
27.4467239766
 20
-31.11989123
 10
27.2647718275
 20
-30.8453958691
 10
27.0839418141
 20
-30.5669097325
  0
LWPOLYLINE
  5
44C
100
AcDbEntity
  8
0
100
AcDbPolyline
 62
250
  6
CONTINUOUS
 90
4
 70
0
 10
29.6481285444
 20
-32.372815809
 10
29.8717337419
 20
-32.683442308
 10
30.0963430011
 20
-32.9936325327
 10
30.321542873
 20
-33.3025127254
  0
LINE
  5
44D
100
AcDbEntity
  8
0
100
AcDbLine
 62
250
  6
CONTINUOUS
 10
26.6009511659
 20
-28.0948981911
 11
27.1842062586
 21
-28.9107084823
  0
LINE
  5
44E
100
AcDbEntity
  8
0
100
AcDbLine
 62
250
  6
CONTINUOUS
 10
29.2068304896
 20
-31.7555343006
 11
29.6481285444
 21
-32.372815809
  0
LINE
  5
44F
100
AcDbEntity
  8
0
100
AcDbLine
 62
250
  6
CONTINUOUS
 10
27.1842062586
 20
-28.9107084823
 11
27.7590084555
 21
-29.7171043453
  0
LWPOLYLINE
  5
450
100
AcDbEntity
  8
0
100
AcDbPolyline
 62
250
  6
CONTINUOUS
 90
5
 70
0
 10
28.8693749607
 20
-32.0482134464
 10
29.0757993386
 20
-32.3388389998
 10
29.2835151291
 20
-32.6271423545
 10
29.4921070296
 20
-32.9121478889
 10
29.7014606533
 20
-33.1933233056
  0
LINE
  5
451
100
AcDbEntity
  8
0
100
AcDbLine
 62
250
  6
CONTINUOUS
 10
27.7590084555
 20
-29.7171043453
 11
28.3368451097
 21
-30.5301726648
  0
LWPOLYLINE
  5
452
100
AcDbEntity
  8
0
100
AcDbPolyline
 62
250
  6
CONTINUOUS
 90
9
 70
0
 10
25.7856528041
 20
-27.3798178469
 10
25.7418944323
 20
-27.318123839
 10
25.7184026807
 20
-27.2364563041
 10
25.7156297977
 20
-27.1396035093
 10
25.7334529154
 20
-27.0318872441
 10
25.7712264308
 20
-26.9197237599
 10
25.8260065629
 20
-26.8116712861
 10
25.8939716163
 20
-26.7141383558
 10
25.9721762558
 20
-26.6312823617
  0
LINE
  5
453
100
AcDbEntity
  8
0
100
AcDbLine
 62
250
  6
CONTINUOUS
 10
28.3368593927
 20
-30.5301687206
 11
29.2068304896
 21
-31.7555343006
  0
LWPOLYLINE
  5
454
100
AcDbEntity
  8
0
100
AcDbPolyline
 62
250
  6
CONTINUOUS
 90
4
 70
0
 10
28.25437258
 20
-31.1615236143
 10
28.4590989979
 20
-31.4597850585
 10
28.6640577445
 20
-31.7554188341
 10
28.8693749607
 20
-32.0482134464
  0
LINE
  5
455
100
AcDbEntity
  8
0
100
AcDbLine
 62
250
  6
CONTINUOUS
 10
27.8471744041
 20
-30.5611163476
 11
28.25437258
 21
-31.1615236143
  0
LINE
  5
456
100
AcDbEntity
  8
0
100
AcDbLine
 62
250
  6
CONTINUOUS
 10
27.847136121
 20
-30.5611130384
 11
27.4620795537
 21
-29.9869031891
  0
LINE
  5
457
100
AcDbEntity
  8
0
100
AcDbLine
 62
250
  6
CONTINUOUS
 10
27.4620795537
 20
-29.9869031891
 11
27.0830621826
 21
-29.4160763317
  0
LINE
  5
458
100
AcDbEntity
  8
0
100
AcDbLine
 62
250
  6
CONTINUOUS
 10
27.0830621826
 20
-29.4160763317
 11
26.707335591
 21
-28.8444552021
  0
LWPOLYLINE
  5
459
100
AcDbEntity
  8
0
100
AcDbPolyline
 62
250
  6
CONTINUOUS
 90
3
 70
0
 10
26.707335591
 20
-28.8444552021
 10
26.3329526167
 20
-28.2691262873
 10
26.1451605456
 20
-27.9784137005
  0
LINE
  5
45A
100
AcDbEntity
  8
0
100
AcDbLine
 62
250
  6
CONTINUOUS
 10
27.0839418141
 20
-30.5669097325
 11
26.9037292659
 21
-30.2837995601
  0
LWPOLYLINE
  5
45B
100
AcDbEntity
  8
0
100
AcDbPolyline
 62
250
  6
CONTINUOUS
 90
10
 70
0
 10
6.2396154424
 20
3.1985411433
 10
6.2584026824
 20
3.1488721025
 10
6.2749018683
 20
3.0996109357
 10
6.2890814648
 20
3.0509659096
 10
6.3009432246
 20
3.0031854032
 10
6.3105039673
 20
2.9564303908
 10
6.3177726232
 20
2.910776873
 10
6.3227531527
 20
2.8663640934
 10
6.3254618455
 20
2.8233862676
 10
6.325920639
 20
2.7819839881
  0
LWPOLYLINE
  5
45C
100
AcDbEntity
  8
0
100
AcDbPolyline
 62
250
  6
CONTINUOUS
 90
5
 70
0
 10
6.2347431189
 20
3.1973507543
 10
6.1985917949
 20
3.299199577
 10
6.1531130899
 20
3.4012360559
 10
6.0982981875
 20
3.5015428318
 10
6.0343041731
 20
3.5982574921
  0
LWPOLYLINE
  5
45D
100
AcDbEntity
  8
0
100
AcDbPolyline
 62
250
  6
CONTINUOUS
 90
9
 70
0
 10
9.357000843
 20
-17.0937872704
 10
9.3438432803
 20
-17.0444347052
 10
9.3243570684
 20
-16.9957936406
 10
9.2986537219
 20
-16.9481339992
 10
9.2668648708
 20
-16.9017011814
 10
9.2291796077
 20
-16.856772463
 10
9.1858673556
 20
-16.813648892
 10
9.1372127837
 20
-16.7725781175
 10
9.0834901498
 20
-16.7337599038
  0
LWPOLYLINE
  5
45E
100
AcDbEntity
  8
0
100
AcDbPolyline
 62
250
  6
CONTINUOUS
 90
7
 70
0
 10
5.8882658234
 20
-5.9939203244
 10
5.9010027553
 20
-6.0589252481
 10
5.9431660186
 20
-6.1258833633
 10
6.0114364077
 20
-6.1843081374
 10
6.1008818157
 20
-6.2309245121
 10
6.2076384682
 20
-6.2637231909
 10
6.3267125503
 20
-6.2806902422
  0
LWPOLYLINE
  5
45F
100
AcDbEntity
  8
0
100
AcDbPolyline
 62
7
  6
CONTINUOUS
 90
3
 70
0
 10
9.373853639
 20
-17.2826504387
 10
9.3714358545
 20
-17.2687188648
 10
9.3684894991
 20
-17.2503175692
  0
LWPOLYLINE
  5
460
100
AcDbEntity
  8
0
100
AcDbPolyline
 62
7
  6
CONTINUOUS
 90
5
 70
0
 10
9.3684894991
 20
-17.2503175692
 10
9.3733492574
 20
-17.2796650491
 10
9.4026114419
 20
-17.4127202663
 10
9.4448200951
 20
-17.5472646971
 10
9.5044673716
 20
-17.6882737558
  0
LWPOLYLINE
  5
461
100
AcDbEntity
  8
0
100
AcDbPolyline
 62
250
  6
CONTINUOUS
 90
4
 70
0
 10
9.3684894991
 20
-17.2503175692
 10
9.3646232411
 20
-17.2228007139
 10
9.3598076916
 20
-17.1782914519
 10
9.3588922661
 20
-17.1671134636
  0
LWPOLYLINE
  5
462
100
AcDbEntity
  8
0
100
AcDbPolyline
 62
250
  6
CONTINUOUS
 90
7
 70
0
 10
5.9217759439
 20
-16.3045062116
 10
5.9128273826
 20
-16.2326557093
 10
5.8979973732
 20
-16.1623675258
 10
5.8772864067
 20
-16.0939463558
 10
5.8506054526
 20
-16.0275404563
 10
5.818036096
 20
-15.9636636508
 10
5.7799259508
 20
-15.9030993529
  0
LWPOLYLINE
  5
463
100
AcDbEntity
  8
0
100
AcDbPolyline
 62
250
  6
CONTINUOUS
 90
10
 70
0
 10
10.1967802891
 20
-17.2702664476
 10
10.1985716921
 20
-17.2949845029
 10
10.2039514081
 20
-17.3215060854
 10
10.2128463031
 20
-17.3488609442
 10
10.225068442
 20
-17.37622224
 10
10.2402814205
 20
-17.4025952922
 10
10.2578640981
 20
-17.4268955966
 10
10.2771268629
 20
-17.4483272687
 10
10.2974486473
 20
-17.46630368
 10
10.3180223598
 20
-17.4802637502
  0
LWPOLYLINE
  5
464
100
AcDbEntity
  8
0
100
AcDbPolyline
 62
250
  6
CONTINUOUS
 90
3
 70
0
 10
9.3588922661
 20
-17.1671134636
 10
9.3569777697
 20
-17.1353824958
 10
9.3561107041
 20
-17.0942149294
  0
LWPOLYLINE
  5
465
100
AcDbEntity
  8
0
100
AcDbPolyline
 62
250
  6
CONTINUOUS
 90
10
 70
0
 10
10.1672916612
 20
-18.755813778
 10
10.1634754072
 20
-18.686926498
 10
10.1571072085
 20
-18.6215239893
 10
10.1481875603
 20
-18.5599109443
 10
10.1367132687
 20
-18.5022851712
 10
10.1226800896
 20
-18.4491109364
 10
10.1061781456
 20
-18.4010229844
 10
10.0873403963
 20
-18.3583627854
 10
10.0662473085
 20
-18.3212747339
 10
10.0429962522
 20
-18.2900118607
  0
LWPOLYLINE
  5
466
100
AcDbEntity
  8
0
100
AcDbPolyline
 62
250
  6
CONTINUOUS
 90
9
 70
0
 10
9.0250169031
 20
-16.6983399294
 10
9.0265835417
 20
-16.7718555103
 10
9.031380964
 20
-16.8469075467
 10
9.03940917
 20
-16.9234960386
 10
9.0507526563
 20
-17.0020480296
 10
9.0653269263
 20
-17.0821364761
 10
9.0828784905
 20
-17.1624802479
 10
9.1033228525
 20
-17.2426523016
 10
9.1267445087
 20
-17.3230796806
  0
LINE
  5
467
100
AcDbEntity
  8
0
100
AcDbLine
 62
250
  6
CONTINUOUS
 10
9.0250169031
 20
-16.6983399294
 11
9.0250169031
 21
1.4299699621
  0
LINE
  5
468
100
AcDbEntity
  8
0
100
AcDbLine
 62
250
  6
CONTINUOUS
 10
9.357000843
 20
1.0328341629
 11
9.357000843
 21
-17.0937872704
  0
LINE
  5
469
100
AcDbEntity
  8
0
100
AcDbLine
 62
250
  6
CONTINUOUS
 10
10.1967819884
 20
-17.2702682267
 11
10.1967819884
 21
0.8618300904
  0
LWPOLYLINE
  5
46A
100
AcDbEntity
  8
0
100
AcDbPolyline
 62
250
  6
CONTINUOUS
 90
10
 70
0
 10
10.1672916612
 20
2.2272929067
 10
10.1634745545
 20
2.1480717424
 10
10.1571057251
 20
2.0655436717
 10
10.1481856637
 20
1.9800139561
 10
10.1367111669
 20
1.891577599
 10
10.1226779913
 20
1.800793079
 10
10.1061762661
 20
1.7086965541
 10
10.0873389463
 20
1.6158821468
 10
10.0662464875
 20
1.5224880597
 10
10.0429962528
 20
1.4288797668
  0
LWPOLYLINE
  5
46B
100
AcDbEntity
  8
0
100
AcDbPolyline
 62
250
  6
CONTINUOUS
 90
13
 70
0
 10
9.440581159
 20
1.3674443494
 10
9.4542281762
 20
1.4254007799
 10
9.457703086
 20
1.4847670446
 10
9.4523144421
 20
1.5445554995
 10
9.4391453011
 20
1.6039946054
 10
9.4192180156
 20
1.6621768504
 10
9.3937454546
 20
1.7180205561
 10
9.3647770691
 20
1.7693494498
 10
9.3326158101
 20
1.8171855967
 10
9.2951130249
 20
1.8645486993
 10
9.2515730348
 20
1.9108583678
 10
9.2038029427
 20
1.9528020847
 10
9.1528485266
 20
1.9877927512
  0
LWPOLYLINE
  5
46C
100
AcDbEntity
  8
0
100
AcDbPolyline
 62
250
  6
CONTINUOUS
 90
7
 70
0
 10
10.0429344262
 20
1.428880477
 10
9.9987985622
 20
1.3170436329
 10
9.9749014674
 20
1.2084700726
 10
9.9718384298
 20
1.1084543371
 10
9.9896878903
 20
1.0211875799
 10
10.0279207772
 20
0.9525381417
 10
10.0753983843
 20
0.9122422677
  0
LWPOLYLINE
  5
46D
100
AcDbEntity
  8
0
100
AcDbPolyline
 62
250
  6
CONTINUOUS
 90
10
 70
0
 10
9.1520910422
 20
1.9882300684
 10
9.1258518713
 20
1.937471558
 10
9.1025967941
 20
1.8836976931
 10
9.0823258108
 20
1.8269084739
 10
9.0649777722
 20
1.7668402245
 10
9.0506138274
 20
1.7037566206
 10
9.0394174234
 20
1.6384486897
 10
9.0314497092
 20
1.5711801076
 10
9.0266495357
 20
1.5016871984
 10
9.0250169031
 20
1.4299699621
  0
LWPOLYLINE
  5
46E
100
AcDbEntity
  8
0
100
AcDbPolyline
 62
250
  6
CONTINUOUS
 90
10
 70
0
 10
9.4401596777
 20
1.3654350484
 10
9.4225762383
 20
1.3356555004
 10
9.406989683
 20
1.3037325445
 10
9.3934536236
 20
1.2697716668
 10
9.3819929564
 20
1.2339269803
 10
9.3726173506
 20
1.1963694735
 10
9.3653347406
 20
1.1572641932
 10
9.3601535418
 20
1.1167768642
 10
9.3570815212
 20
1.0750747905
 10
9.35612438
 20
1.0323215242
  0
LWPOLYLINE
  5
46F
100
AcDbEntity
  8
SUPERFICI
100
AcDbPolyline
 62
7
  6
CONTINUOUS
 90
6
 70
0
 10
11.7472566316
 20
-2.7401752641
 10
11.7590634011
 20
-2.7295777313
 10
11.7678916894
 20
-2.7161545966
 10
11.7736107746
 20
-2.7002633232
 10
11.776206417
 20
-2.6819960081
 10
11.7763985595
 20
-2.6754011894
  0
LINE
  5
470
100
AcDbEntity
  8
0
100
AcDbLine
 62
7
  6
CONTINUOUS
 10
11.7472569572
 20
-2.7401750324
 11
11.0398924496
 21
-3.1914034237
  0
LWPOLYLINE
  5
471
100
AcDbEntity
  8
0
100
AcDbPolyline
 62
250
  6
CONTINUOUS
 90
10
 70
0
 10
-31.2697770914
 20
7.3535120065
 10
-31.4622941193
 20
7.3489826071
 10
-31.6527688963
 20
7.3401010547
 10
-31.8408687967
 20
7.3268619693
 10
-32.0266180304
 20
7.3092239502
 10
-32.2092784631
 20
7.2872085276
 10
-32.3874341812
 20
7.2609860918
 10
-32.560458102
 20
7.2306983782
 10
-32.72842676
 20
7.1963736777
 10
-32.8910581257
 20
7.1580881215
  0
LWPOLYLINE
  5
472
100
AcDbEntity
  8
0
100
AcDbPolyline
 62
250
  6
CONTINUOUS
 90
6
 70
0
 10
-13.2675589052
 20
14.9330491305
 10
-13.3245943902
 20
14.9575247185
 10
-13.3838790529
 20
14.9690459562
 10
-13.4456675525
 20
14.9694085023
 10
-13.5100824987
 20
14.9604184899
 10
-13.5776781348
 20
14.9439433439
  0
LWPOLYLINE
  5
473
100
AcDbEntity
  8
0
100
AcDbPolyline
 62
7
  6
CONTINUOUS
 90
3
 70
0
 10
-30.2081245666
 20
25.5366504738
 10
-30.2619789086
 20
25.5621849725
 10
-30.3152001391
 20
25.5845601833
  0
LWPOLYLINE
  5
474
100
AcDbEntity
  8
0
100
AcDbPolyline
 62
7
  6
CONTINUOUS
 90
6
 70
0
 10
-28.4840242969
 20
22.8964503048
 10
-28.4917237803
 20
22.9001116156
 10
-28.504559048
 20
22.903659434
 10
-28.5173322929
 20
22.9042058187
 10
-28.5296293059
 20
22.9018618958
 10
-28.5411033943
 20
22.8968104388
  0
LWPOLYLINE
  5
475
100
AcDbEntity
  8
0
100
AcDbPolyline
 62
7
  6
CONTINUOUS
 90
6
 70
0
 10
-30.168652269
 20
25.5161311782
 10
-30.1765834919
 20
25.5204580291
 10
-30.1844993956
 20
25.5247211318
 10
-30.1923988874
 20
25.5289132064
 10
-30.2002805983
 20
25.5330268677
 10
-30.2081433094
 20
25.5370548544
  0
LWPOLYLINE
  5
476
100
AcDbEntity
  8
0
100
AcDbPolyline
 62
250
  6
CONTINUOUS
 90
9
 70
0
 10
-25.0681988491
 20
25.2942570131
 10
-25.8041795983
 20
25.7039491357
 10
-26.5208318679
 20
26.0977769507
 10
-27.2180059274
 20
26.4760704182
 10
-27.8958036456
 20
26.8392564506
 10
-28.5561959991
 20
27.1885944119
 10
-29.1995910871
 20
27.5245391461
 10
-29.8259303581
 20
27.8467343398
 10
-30.4316085365
 20
28.1508374873
  0
LINE
  5
477
100
AcDbEntity
  8
0
100
AcDbLine
 62
7
  6
CONTINUOUS
 10
-30.1527474186
 20
25.5073150903
 11
-30.168652269
 21
25.5161311782
  0
LINE
  5
478
100
AcDbEntity
  8
0
100
AcDbLine
 62
250
  6
CONTINUOUS
 10
-24.3115067838
 20
24.8670440323
 11
-25.0681988491
 21
25.2942570131
  0
LINE
  5
479
100
AcDbEntity
  8
0
100
AcDbLine
 62
7
  6
CONTINUOUS
 10
-30.1367935566
 20
25.4983282553
 11
-30.1527474186
 21
25.5073150903
  0
LINE
  5
47A
100
AcDbEntity
  8
0
100
AcDbLine
 62
250
  6
CONTINUOUS
 10
-23.5336640832
 20
24.4220214148
 11
-24.3115067838
 21
24.8670440323
  0
LWPOLYLINE
  5
47B
100
AcDbEntity
  8
0
100
AcDbPolyline
 62
250
  6
CONTINUOUS
 90
6
 70
0
 10
-23.5336640832
 20
24.4220214148
 10
20.0056951335
 20
-0.7170589206
 10
20.7835378353
 20
-1.1702695571
 10
21.5402298996
 20
-1.6168656055
 10
22.2762106464
 20
-2.0570656028
 10
22.9928629135
 20
-2.4908098637
  0
LINE
  5
47C
100
AcDbEntity
  8
0
100
AcDbLine
 62
250
  6
CONTINUOUS
 10
22.9928629135
 20
-2.4908098637
 11
23.6900369716
 21
-2.9175955241
  0
LINE
  5
47D
100
AcDbEntity
  8
0
100
AcDbLine
 62
250
  6
CONTINUOUS
 10
23.6900369716
 20
-2.9175955241
 11
24.367834689
 21
-3.3371133067
  0
LINE
  5
47E
100
AcDbEntity
  8
0
100
AcDbLine
 62
250
  6
CONTINUOUS
 10
24.367834689
 20
-3.3371133067
 11
25.0282270414
 21
-3.7503798812
  0
LINE
  5
47F
100
AcDbEntity
  8
0
100
AcDbLine
 62
250
  6
CONTINUOUS
 10
25.0282270414
 20
-3.7503798812
 11
25.671622128
 21
-4.1574116664
  0
LWPOLYLINE
  5
480
100
AcDbEntity
  8
0
100
AcDbPolyline
 62
250
  6
CONTINUOUS
 90
3
 70
0
 10
25.671622128
 20
-4.1574116664
 10
26.2979613989
 20
-4.5584973632
 10
26.903639586
 20
-4.953816199
  0
LWPOLYLINE
  5
481
100
AcDbEntity
  8
0
100
AcDbPolyline
 62
7
  6
CONTINUOUS
 90
9
 70
0
 10
26.1451326727
 20
-7.001013991
 10
26.1989817271
 20
-7.0376661284
 10
26.25219865
 20
-7.0767470179
 10
26.3047286533
 20
-7.1181815707
 10
26.3565165643
 20
-7.1619014977
 10
26.4074826363
 20
-7.2078191482
 10
26.4574519466
 20
-7.2557562384
 10
26.5063244284
 20
-7.3055897287
 10
26.5541244646
 20
-7.357321384
  0
LWPOLYLINE
  5
482
100
AcDbEntity
  8
0
100
AcDbPolyline
 62
7
  6
CONTINUOUS
 90
6
 70
0
 10
25.786593033
 20
-7.6602803833
 10
25.9047147785
 20
-7.7407170555
 10
26.0208823227
 20
-7.8437297343
 10
26.1304723512
 20
-7.9657848586
 10
26.2297743991
 20
-8.1028787845
 10
26.3154561217
 20
-8.2507902546
  0
LWPOLYLINE
  5
483
100
AcDbEntity
  8
0
100
AcDbPolyline
 62
250
  6
CONTINUOUS
 90
3
 70
0
 10
5.9216127204
 20
4.678477464
 10
6.0566959808
 20
4.5750367075
 10
6.1860180896
 20
4.4563453198
  0
LWPOLYLINE
  5
484
100
AcDbEntity
  8
0
100
AcDbPolyline
 62
250
  6
CONTINUOUS
 90
7
 70
0
 10
17.9470060136
 20
-3.6318877529
 10
17.8984844616
 20
-3.5901036103
 10
17.8612088542
 20
-3.5213355399
 10
17.8440369761
 20
-3.4342968039
 10
17.8473841403
 20
-3.3347377931
 10
17.8711021317
 20
-3.2268978364
 10
17.9145027444
 20
-3.1159815314
  0
LINE
  5
485
100
AcDbEntity
  8
0
100
AcDbLine
 62
250
  6
CONTINUOUS
 10
6.1860180896
 20
4.4563453198
 11
6.30970435
 21
4.3224677954
  0
LWPOLYLINE
  5
486
100
AcDbEntity
  8
0
100
AcDbPolyline
 62
250
  6
CONTINUOUS
 90
4
 70
0
 10
6.30970435
 20
4.3224677954
 10
6.4302291666
 20
4.1702663707
 10
6.5456073604
 20
4.0031396311
 10
6.6492982448
 20
3.8309737069
  0
LWPOLYLINE
  5
487
100
AcDbEntity
  8
0
100
AcDbPolyline
 62
250
  6
CONTINUOUS
 90
10
 70
0
 10
25.3152787795
 20
-27.502076897
 10
25.4768481845
 20
-27.8123739558
 10
25.6432341723
 20
-28.1243046752
 10
25.8139817552
 20
-28.4370565015
 10
25.9885898421
 20
-28.7497373513
 10
26.1666060147
 20
-29.0615459927
 10
26.3476319781
 20
-29.371769757
 10
26.53119344
 20
-29.6795569069
 10
26.7167341562
 20
-29.9839180604
 10
26.9037134782
 20
-30.2838927341
  0
LWPOLYLINE
  5
488
100
AcDbEntity
  8
0
100
AcDbPolyline
 62
250
  6
CONTINUOUS
 90
4
 70
0
 10
6.6492982448
 20
3.8309737069
 10
6.7393262165
 20
3.6571827634
 10
6.818408397
 20
3.4787789238
 10
6.887063634
 20
3.2960667451
  0
LWPOLYLINE
  5
489
100
AcDbEntity
  8
0
100
AcDbPolyline
 62
7
  6
CONTINUOUS
 90
9
 70
0
 10
9.3575829852
 20
1.0328759702
 10
9.3877154852
 20
0.9658433257
 10
9.4462120115
 20
0.9066172178
 10
9.5294396566
 20
0.8570504823
 10
9.634968467
 20
0.8186610326
 10
9.7559121754
 20
0.7947535797
 10
9.8792196019
 20
0.7877083344
 10
9.9960210571
 20
0.7970385682
 10
10.1031681713
 20
0.8221367876
  0
LWPOLYLINE
  5
48A
100
AcDbEntity
  8
0
100
AcDbPolyline
 62
250
  6
CONTINUOUS
 90
4
 70
0
 10
19.0978116433
 20
-28.2472481611
 10
19.0539653081
 20
-28.1285613815
 10
19.0112754719
 20
-28.0094603302
 10
18.9697318257
 20
-27.8899646149
  0
LWPOLYLINE
  5
48B
100
AcDbEntity
  8
0
100
AcDbPolyline
 62
250
  6
CONTINUOUS
 90
5
 70
0
 10
18.9697318257
 20
-27.8899646149
 10
18.9294221715
 20
-27.7703894612
 10
18.8902332426
 20
-27.6504626768
 10
18.8518739571
 20
-27.5293027047
 10
18.8142635632
 20
-27.4066065713
  0
LINE
  5
48C
100
AcDbEntity
  8
0
100
AcDbLine
 62
250
  6
CONTINUOUS
 10
6.9116206085
 20
3.2160168712
 11
6.8850956488
 21
3.2971647964
  0
LWPOLYLINE
  5
48D
100
AcDbEntity
  8
0
100
AcDbPolyline
 62
250
  6
CONTINUOUS
 90
3
 70
0
 10
18.8142635632
 20
-27.4066065713
 10
18.7775083883
 20
-27.2826718347
 10
18.7416189032
 20
-27.1574982135
  0
LWPOLYLINE
  5
48E
100
AcDbEntity
  8
0
100
AcDbPolyline
 62
250
  6
CONTINUOUS
 90
10
 70
0
 10
9.357000843
 20
1.0328341629
 10
9.3438280181
 20
1.0822325336
 10
9.3243218413
 20
1.1309028438
 10
9.2985999299
 20
1.1785754536
 10
9.2668034324
 20
1.2250010302
 10
9.229124697
 20
1.2699086489
 10
9.1858240326
 20
1.3130121938
 10
9.1371805333
 20
1.354068478
 10
9.0834724267
 20
1.3928734037
 10
9.0250163507
 20
1.4292232061
  0
LWPOLYLINE
  5
48F
100
AcDbEntity
  8
0
100
AcDbPolyline
 62
7
  6
CONTINUOUS
 90
13
 70
0
 10
11.0398924496
 20
-16.7955448533
 10
11.0426885121
 20
-16.815798449
 10
11.0470519148
 20
-16.8356957749
 10
11.0529826577
 20
-16.8552368308
 10
11.0607170069
 20
-16.874814977
 10
11.0700186963
 20
-16.8940368534
 10
11.0801789276
 20
-16.9117223792
 10
11.0908465407
 20
-16.927104523
 10
11.1023726956
 20
-16.9409503163
 10
11.1151020747
 20
-16.9543807731
 10
11.129149572
 20
-16.9677695646
 10
11.1444002933
 20
-16.9807430196
 10
11.1608542388
 20
-16.993301138
  0
LINE
  5
490
100
AcDbEntity
  8
0
100
AcDbLine
 62
7
  6
CONTINUOUS
 10
9.3564728264
 20
-17.1501905842
 11
9.3684894991
 21
-17.2503175692
  0
LINE
  5
491
100
AcDbEntity
  8
0
100
AcDbLine
 62
7
  6
CONTINUOUS
 10
11.0398924496
 20
0.355458108
 11
11.0398924496
 21
-16.7955448533
  0
LINE
  5
492
100
AcDbEntity
  8
SUPERFICI
100
AcDbLine
 62
250
  6
CONTINUOUS
 10
11.7472569572
 20
-0.3651838415
 11
11.7472569572
 21
-2.7401750324
  0
LINE
  5
493
100
AcDbEntity
  8
SUPERFICI
100
AcDbLine
 62
250
  6
CONTINUOUS
 10
11.7472569572
 20
-9.5044536027
 11
11.7472569572
 21
-11.8794447936
  0
LINE
  5
494
100
AcDbEntity
  8
SUPERFICI
100
AcDbLine
 62
7
  6
CONTINUOUS
 10
11.7763995219
 20
-0.3484664767
 11
11.7763995219
 21
-2.6756465924
  0
LINE
  5
495
100
AcDbEntity
  8
SUPERFICI
100
AcDbLine
 62
7
  6
CONTINUOUS
 10
11.7763995219
 20
-9.4877362379
 11
11.7763995219
 21
-11.8149163536
  0
LWPOLYLINE
  5
496
100
AcDbEntity
  8
SUPERFICI
100
AcDbPolyline
 62
7
  6
CONTINUOUS
 90
6
 70
0
 10
11.7764372371
 20
-11.8149087197
 10
11.7764216906
 20
-11.818149378
 10
11.7743865862
 20
-11.8363527132
 10
11.7691105934
 20
-11.8525191065
 10
11.7611521562
 20
-11.8662466892
 10
11.7508426377
 20
-11.8770403488
  0
LWPOLYLINE
  5
497
100
AcDbEntity
  8
0
100
AcDbPolyline
 62
250
  6
CONTINUOUS
 90
7
 70
0
 10
6.293207346
 20
-15.5639403722
 10
6.3012183873
 20
-15.538737331
 10
6.310314729
 20
-15.501942806
 10
6.317370046
 20
-15.4639308975
 10
6.3223989047
 20
-15.424876437
 10
6.3254202941
 20
-15.3849065731
 10
6.3264433135
 20
-15.3441465517
  0
LWPOLYLINE
  5
498
100
AcDbEntity
  8
0
100
AcDbPolyline
 62
7
  6
CONTINUOUS
 90
3
 70
0
 10
6.2799365174
 20
-15.6002197164
 10
6.2900841085
 20
-15.574100691
 10
6.293207346
 20
-15.5639403722
  0
LWPOLYLINE
  5
499
100
AcDbEntity
  8
0
100
AcDbPolyline
 62
250
  6
CONTINUOUS
 90
10
 70
0
 10
6.8861154793
 20
-16.0948088419
 10
6.9123523212
 20
-16.0440498347
 10
6.9356058668
 20
-15.9902756814
 10
6.9558761162
 20
-15.9334863823
 10
6.9732242376
 20
-15.8734184131
 10
6.9875890628
 20
-15.810335298
 10
6.9987870868
 20
-15.7450276089
 10
7.0067571413
 20
-15.6777588699
 10
7.0115603945
 20
-15.6082655569
 10
7.0131968465
 20
-15.5365476701
  0
LWPOLYLINE
  5
49A
100
AcDbEntity
  8
0
100
AcDbPolyline
 62
250
  6
CONTINUOUS
 90
4
 70
0
 10
6.2445631053
 20
-15.6698925955
 10
6.2617321772
 20
-15.6398298632
 10
6.276918705
 20
-15.6078490705
 10
6.2799365174
 20
-15.6002197164
  0
LWPOLYLINE
  5
49B
100
AcDbEntity
  8
SUPERFICI
100
AcDbPolyline
 62
7
  6
CONTINUOUS
 90
6
 70
0
 10
5.5993384806
 20
-12.8694942142
 10
5.6103025355
 20
-12.862190425
 10
5.6189536447
 20
-12.8569903886
 10
5.6249168949
 20
-12.8538286162
 10
5.6275909481
 20
-12.8523743837
 10
5.6277341852
 20
-12.8522348951
  0
LINE
  5
49C
100
AcDbEntity
  8
0
100
AcDbLine
 62
7
  6
CONTINUOUS
 10
5.599338844
 20
-12.8694940481
 11
4.8504245674
 21
-13.349738134
  0
LINE
  5
49D
100
AcDbEntity
  8
0
100
AcDbLine
 62
7
  6
CONTINUOUS
 10
2.710716307
 20
-12.1142974013
 11
3.5424698751
 21
-11.6818836841
  0
LINE
  5
49E
100
AcDbEntity
  8
0
100
AcDbLine
 62
7
  6
CONTINUOUS
 10
11.7472569572
 20
-9.5044536027
 11
11.0398924496
 21
-9.8700720141
  0
LWPOLYLINE
  5
49F
100
AcDbEntity
  8
0
100
AcDbPolyline
 62
250
  6
CONTINUOUS
 90
10
 70
0
 10
10.1963471202
 20
-8.2046300853
 10
10.099696841
 20
-8.245265559
 10
9.9893537887
 20
-8.2695322832
 10
9.8702172303
 20
-8.2773403914
 10
9.7458414195
 20
-8.2684415159
 10
9.6252947499
 20
-8.2427892159
 10
9.5214761569
 20
-8.2032854766
 10
9.4407664452
 20
-8.1535704842
 10
9.3848835773
 20
-8.0953116072
 10
9.3565405087
 20
-8.0305058441
  0
LWPOLYLINE
  5
4A0
100
AcDbEntity
  8
SUPERFICI
100
AcDbPolyline
 62
7
  6
CONTINUOUS
 90
6
 70
0
 10
11.7763986916
 20
-9.4884338278
 10
11.7762242468
 20
-9.4884853666
 10
11.773686269
 20
-9.4900734242
 10
11.7680019798
 20
-9.4936758472
 10
11.7591567305
 20
-9.4985934019
 10
11.7472566316
 20
-9.5044538344
  0
LINE
  5
4A1
100
AcDbEntity
  8
0
100
AcDbLine
 62
250
  6
CONTINUOUS
 10
-31.2672710821
 20
6.393762193
 11
-31.4355454795
 21
6.3514824562
  0
LINE
  5
4A2
100
AcDbEntity
  8
0
100
AcDbLine
 62
7
  6
CONTINUOUS
 10
-29.2001666879
 20
10.6942931072
 11
-29.0770429914
 21
10.6980184203
  0
LINE
  5
4A3
100
AcDbEntity
  8
0
100
AcDbLine
 62
7
  6
CONTINUOUS
 10
-29.0242756929
 20
10.8064941151
 11
-28.9011519964
 21
10.8102194283
  0
LINE
  5
4A4
100
AcDbEntity
  8
0
100
AcDbLine
 62
7
  6
CONTINUOUS
 10
-28.8483846979
 20
10.9186951231
 11
-28.7252610013
 21
10.9224204362
  0
LINE
  5
4A5
100
AcDbEntity
  8
0
100
AcDbLine
 62
7
  6
CONTINUOUS
 10
-28.6724937028
 20
11.030896131
 11
-28.5493700063
 21
11.0346214441
  0
LINE
  5
4A6
100
AcDbEntity
  8
0
100
AcDbLine
 62
7
  6
CONTINUOUS
 10
-28.4966027078
 20
11.143097139
 11
-28.3734790113
 21
11.1468224521
  0
LINE
  5
4A7
100
AcDbEntity
  8
0
100
AcDbLine
 62
7
  6
CONTINUOUS
 10
-29.0770429914
 20
13.1719965033
 11
-29.2001666879
 21
13.1757218164
  0
LINE
  5
4A8
100
AcDbEntity
  8
0
100
AcDbLine
 62
7
  6
CONTINUOUS
 10
-28.9011519964
 20
13.2629100075
 11
-29.0242756929
 21
13.2666353207
  0
LINE
  5
4A9
100
AcDbEntity
  8
0
100
AcDbLine
 62
7
  6
CONTINUOUS
 10
-28.7252610013
 20
13.3538235118
 11
-28.8483846979
 21
13.357548825
  0
LINE
  5
4AA
100
AcDbEntity
  8
0
100
AcDbLine
 62
7
  6
CONTINUOUS
 10
-28.5493700063
 20
13.4447370161
 11
-28.6724937028
 21
13.4484623292
  0
LINE
  5
4AB
100
AcDbEntity
  8
0
100
AcDbLine
 62
7
  6
CONTINUOUS
 10
-28.3734790113
 20
13.5356505204
 11
-28.4966027078
 21
13.5393758335
  0
LINE
  5
4AC
100
AcDbEntity
  8
0
100
AcDbLine
 62
250
  6
CONTINUOUS
 10
-13.8253640354
 20
14.4180410992
 11
-13.7339002556
 21
14.4097696185
  0
LWPOLYLINE
  5
4AD
100
AcDbEntity
  8
0
100
AcDbPolyline
 62
250
  6
CONTINUOUS
 90
8
 70
0
 10
-13.7339002556
 20
14.4097696185
 10
-13.6458852893
 20
14.3976397265
 10
-13.5617417964
 20
14.3819998842
 10
-13.4824522971
 20
14.3633701118
 10
-13.4075990958
 20
14.3419898969
 10
-13.335594152
 20
14.3175513819
 10
-13.2662492534
 20
14.2899380951
 10
-13.2005491931
 20
14.2594869454
  0
LWPOLYLINE
  5
4AE
100
AcDbEntity
  8
0
100
AcDbPolyline
 62
7
  6
CONTINUOUS
 90
7
 70
0
 10
-13.8252915452
 20
14.4183771744
 10
-13.9406459846
 20
14.4353000229
 10
-14.0428355497
 20
14.468867602
 10
-14.1286459353
 20
14.5169684106
 10
-14.1954997045
 20
14.5782201938
 10
-14.2376105654
 20
14.6485986261
 10
-14.2503976558
 20
14.7063049929
  0
LWPOLYLINE
  5
4AF
100
AcDbEntity
  8
0
100
AcDbPolyline
 62
7
  6
CONTINUOUS
 90
8
 70
0
 10
-30.3152001391
 20
25.5845601833
 10
-30.3677334639
 20
25.6037879236
 10
-30.4195236315
 20
25.6198727252
 10
-30.4704910238
 20
25.6328102236
 10
-30.5204613958
 20
25.6425770976
 10
-30.5693348233
 20
25.6491809147
 10
-30.6171355943
 20
25.6526480119
 10
-30.6638368635
 20
25.6529864074
  0
LWPOLYLINE
  5
4B0
100
AcDbEntity
  8
0
100
AcDbPolyline
 62
250
  6
CONTINUOUS
 90
10
 70
0
 10
-30.4316982268
 20
28.1510252296
 10
-30.5439305168
 20
28.2011593803
 10
-30.6546075211
 20
28.246538857
 10
-30.763584007
 20
28.2871216902
 10
-30.8706959689
 20
28.3228652043
 10
-30.9759337886
 20
28.353783156
 10
-31.0791715491
 20
28.3798526062
 10
-31.1801472189
 20
28.4009926094
 10
-31.2788308957
 20
28.4171671865
 10
-31.375143378
 20
28.4283420096
  0
LWPOLYLINE
  5
4B1
100
AcDbEntity
  8
0
100
AcDbPolyline
 62
250
  6
CONTINUOUS
 90
10
 70
0
 10
-31.3996409046
 20
30.9789431763
 10
-31.5295008292
 20
31.0457372774
 10
-31.6582402925
 20
31.1102360739
 10
-31.7858086079
 20
31.1720955454
 10
-31.9121968444
 20
31.2310110493
 10
-32.0373518308
 20
31.2866824206
 10
-32.1610953139
 20
31.3387278599
 10
-32.2832435814
 20
31.3867199336
 10
-32.40365524
 20
31.4301973088
 10
-32.5223458419
 20
31.4688113003
  0
LWPOLYLINE
  5
4B2
100
AcDbEntity
  8
0
100
AcDbPolyline
 62
250
  6
CONTINUOUS
 90
3
 70
0
 10
-29.408435847
 20
29.8882792815
 10
-30.4171725496
 20
30.4441310785
 10
-31.3996287675
 20
30.9790491612
  0
LINE
  5
4B3
100
AcDbEntity
  8
0
100
AcDbLine
 62
250
  6
CONTINUOUS
 10
-28.3722683914
 20
29.3131977133
 11
-29.408435847
 21
29.8882792815
  0
LINE
  5
4B4
100
AcDbEntity
  8
0
100
AcDbLine
 62
250
  6
CONTINUOUS
 10
32.108683341
 20
-3.8493458043
 11
32.1498496222
 21
-3.8728115042
  0
LWPOLYLINE
  5
4B5
100
AcDbEntity
  8
0
100
AcDbPolyline
 62
250
  6
CONTINUOUS
 90
5
 70
0
 10
-23.950466657
 20
26.8116194675
 10
-25.1002099763
 20
27.4700593303
 10
-26.2196729426
 20
28.1054412281
 10
-27.3096038726
 20
28.7192371893
 10
-28.3722683914
 20
29.3131977133
  0
LWPOLYLINE
  5
4B6
100
AcDbEntity
  8
0
100
AcDbPolyline
 62
250
  6
CONTINUOUS
 90
7
 70
0
 10
32.1498496222
 20
-3.8728115042
 10
32.1635017686
 20
-3.8806832158
 10
32.1771157696
 20
-3.8886756261
 10
32.1906904101
 20
-3.8968220855
 10
32.2042211954
 20
-3.9051386754
 10
32.2177016917
 20
-3.9136396945
 10
32.2311265628
 20
-3.9223397615
  0
LINE
  5
4B7
100
AcDbEntity
  8
0
100
AcDbLine
 62
7
  6
CONTINUOUS
 10
-21.2062845391
 20
26.9340885086
 11
19.0977944191
 21
3.663018702
  0
LINE
  5
4B8
100
AcDbEntity
  8
0
100
AcDbLine
 62
250
  6
CONTINUOUS
 10
-33.9737078536
 20
34.9392946683
 11
-20.8925594948
 21
27.3864035513
  0
LINE
  5
4B9
100
AcDbEntity
  8
0
100
AcDbLine
 62
250
  6
CONTINUOUS
 10
32.4926677652
 20
-3.4375575946
 11
19.4115194002
 21
4.115333526
  0
LINE
  5
4BA
100
AcDbEntity
  8
0
100
AcDbLine
 62
7
  6
CONTINUOUS
 10
19.4115194002
 20
4.115333526
 11
-20.8925594948
 21
27.3864035513
  0
LINE
  5
4BB
100
AcDbEntity
  8
0
100
AcDbLine
 62
250
  6
CONTINUOUS
 10
19.0975507569
 20
3.6620783522
 11
32.1086526495
 21
-3.8493267429
  0
LWPOLYLINE
  5
4BC
100
AcDbEntity
  8
0
100
AcDbPolyline
 62
250
  6
CONTINUOUS
 90
7
 70
0
 10
-23.950466657
 20
26.8116194675
 10
21.1296045123
 20
0.7829513603
 10
22.2793563611
 20
0.1136915326
 10
23.3988276463
 20
-0.5436591461
 10
24.4887666257
 20
-1.1884927503
 10
25.5514389638
 20
-1.8216750908
 10
26.5876139656
 20
-2.4431380849
  0
LINE
  5
4BD
100
AcDbEntity
  8
0
100
AcDbLine
 62
250
  6
CONTINUOUS
 10
-21.2065284169
 20
26.9331485384
 11
-34.2171642266
 21
34.4463686637
  0
LWPOLYLINE
  5
4BE
100
AcDbEntity
  8
0
100
AcDbPolyline
 62
250
  6
CONTINUOUS
 90
3
 70
0
 10
-34.2720188023
 20
34.4782512445
 10
-34.2309432139
 20
34.4544673202
 10
-34.2171862922
 20
34.4464657858
  0
LWPOLYLINE
  5
4BF
100
AcDbEntity
  8
0
100
AcDbPolyline
 62
250
  6
CONTINUOUS
 90
10
 70
0
 10
32.4926708861
 20
-3.4375597637
 10
32.5092978435
 20
-3.447324288
 10
32.5259133979
 20
-3.4574104532
 10
32.5425126967
 20
-3.4678149261
 10
32.5590865199
 20
-3.47853141
 10
32.5756344377
 20
-3.4895591092
 10
32.5921647543
 20
-3.5009035607
 10
32.6086769718
 20
-3.5125649479
 10
32.6251618492
 20
-3.5245372709
 10
32.6416145197
 20
-3.5368173917
  0
LINE
  5
4C0
100
AcDbEntity
  8
0
100
AcDbLine
 62
250
  6
CONTINUOUS
 10
26.5876139656
 20
-2.4431380849
 11
27.5963580167
 21
-3.0521543902
  0
LINE
  5
4C1
100
AcDbEntity
  8
0
100
AcDbLine
 62
250
  6
CONTINUOUS
 10
27.5963580167
 20
-3.0521543902
 11
28.5788213369
 21
-3.6517562226
  0
LWPOLYLINE
  5
4C2
100
AcDbEntity
  8
0
100
AcDbPolyline
 62
250
  6
CONTINUOUS
 90
10
 70
0
 10
28.5787610961
 20
-3.651834433
 10
28.7086210832
 20
-3.7349993538
 10
28.8373605086
 20
-3.8191656407
 10
28.9649288693
 20
-3.9046188884
 10
29.0913171277
 20
-3.9916533646
 10
29.216472132
 20
-4.0805078448
 10
29.3402156331
 20
-4.1713582884
 10
29.4623639193
 20
-4.264419983
 10
29.5827755895
 20
-4.3599909797
 10
29.7014662056
 20
-4.4584379284
  0
LWPOLYLINE
  5
4C3
100
AcDbEntity
  8
0
100
AcDbPolyline
 62
250
  6
CONTINUOUS
 90
10
 70
0
 10
18.7415974678
 20
-27.1575144426
 10
18.6944189321
 20
-26.9881042818
 10
18.6498602613
 20
-26.8215470879
 10
18.6075595016
 20
-26.6559439019
 10
18.5670686535
 20
-26.4891217197
 10
18.5282147921
 20
-26.320100016
 10
18.4910781141
 20
-26.1492759117
 10
18.4555287974
 20
-25.9764257493
 10
18.4212443263
 20
-25.80048575
 10
18.3880549828
 20
-25.6211466992
  0
LWPOLYLINE
  5
4C4
100
AcDbEntity
  8
0
100
AcDbPolyline
 62
250
  6
CONTINUOUS
 90
10
 70
0
 10
18.3880551304
 20
-25.6211503841
 10
18.3477677081
 20
-25.3868051709
 10
18.3094490121
 20
-25.1419163887
 10
18.2734965055
 20
-24.8900206572
 10
18.2404358718
 20
-24.6358029946
 10
18.2103418796
 20
-24.3807087636
 10
18.1829858294
 20
-24.1226577683
 10
18.158584813
 20
-23.8623079387
 10
18.1376576488
 20
-23.6033599991
 10
18.1205429998
 20
-23.3479393094
  0
LWPOLYLINE
  5
4C5
100
AcDbEntity
  8
0
100
AcDbPolyline
 62
250
  6
CONTINUOUS
 90
10
 70
0
 10
19.0977944191
 20
3.663018702
 10
19.1156502937
 20
3.7214367558
 10
19.1387852416
 20
3.7800299403
 10
19.1668717248
 20
3.8378219951
 10
19.1994622455
 20
3.8937847823
 10
19.2360780036
 20
3.9470030497
 10
19.276246651
 20
3.9966620983
 10
19.3193739823
 20
4.0418679
 10
19.3647209607
 20
4.0816952989
 10
19.4115194387
 20
4.1153340767
  0
LINE
  5
4C6
100
AcDbEntity
  8
0
100
AcDbLine
 62
7
  6
CONTINUOUS
 10
5.7516115549
 20
-15.0737715583
 11
5.8253171199
 21
-14.9935183039
  0
LINE
  5
4C7
100
AcDbEntity
  8
0
100
AcDbLine
 62
7
  6
CONTINUOUS
 10
5.8253171199
 20
-14.9935183039
 11
5.9048810448
 21
-14.9326303023
  0
LINE
  5
4C8
100
AcDbEntity
  8
0
100
AcDbLine
 62
7
  6
CONTINUOUS
 10
11.0398924496
 20
-12.3306731849
 11
11.7472569572
 21
-11.8794447936
  0
LINE
  5
4C9
100
AcDbEntity
  8
0
100
AcDbLine
 62
7
  6
CONTINUOUS
 10
11.5655327709
 20
-9.3954990785
 11
11.0801545625
 21
-9.6757533686
  0
LINE
  5
4CA
100
AcDbEntity
  8
0
100
AcDbLine
 62
7
  6
CONTINUOUS
 10
4.9942036385
 20
-13.4327543677
 11
5.599338844
 21
-13.0833531494
  0
LWPOLYLINE
  5
4CB
100
AcDbEntity
  8
0
100
AcDbPolyline
 62
250
  6
CONTINUOUS
 90
10
 70
0
 10
30.2026483946
 20
-2.7490847628
 10
30.0114338384
 20
-2.8392413702
 10
29.823343365
 20
-2.9317424286
 10
29.6382787939
 20
-3.026618279
 10
29.4564334344
 20
-3.123739888
 10
29.2774168392
 20
-3.223282663
 10
29.1002870984
 20
-3.325763083
 10
28.9247007493
 20
-3.4314001593
 10
28.7508802699
 20
-3.5400768316
 10
28.5787610961
 20
-3.651834433
  0
LWPOLYLINE
  5
4CC
100
AcDbEntity
  8
0
100
AcDbPolyline
 62
250
  6
CONTINUOUS
 90
10
 70
0
 10
31.4839098789
 20
-3.4885625579
 10
31.2789000945
 20
-3.5851238613
 10
31.0752537404
 20
-3.6846640665
 10
30.8730793649
 20
-3.7871412759
 10
30.6723157207
 20
-3.8926043187
 10
30.4732487338
 20
-4.0009227854
 10
30.2764927289
 20
-4.1117649092
 10
30.0823082902
 20
-4.2249687996
 10
29.8906210471
 20
-4.3405645543
 10
29.701525605
 20
-4.458488723
  0
LWPOLYLINE
  5
4CD
100
AcDbEntity
  8
0
100
AcDbPolyline
 62
250
  6
CONTINUOUS
 90
5
 70
0
 10
27.2042944826
 20
-8.8354556868
 10
27.4264008253
 20
-8.7620889417
 10
27.6456906105
 20
-8.6866081433
 10
27.8628536715
 20
-8.6087396798
 10
28.0786472624
 20
-8.5281804006
  0
LWPOLYLINE
  5
4CE
100
AcDbEntity
  8
0
100
AcDbPolyline
 62
250
  6
CONTINUOUS
 90
10
 70
0
 10
33.4637594941
 20
-5.0921491168
 10
33.4095377232
 20
-5.1077421858
 10
33.3510604816
 20
-5.1287858132
 10
33.2890731889
 20
-5.1545532442
 10
33.2241036192
 20
-5.1843170323
 10
33.1575962954
 20
-5.2168217759
 10
33.0918743248
 20
-5.2502654836
 10
33.0285806404
 20
-5.2834909849
 10
32.9687789604
 20
-5.316236839
 10
32.9140826226
 20
-5.3474803786
  0
LWPOLYLINE
  5
4CF
100
AcDbEntity
  8
0
100
AcDbPolyline
 62
250
  6
CONTINUOUS
 90
9
 70
0
 10
-31.4355454795
 20
6.3514824562
 10
-31.5999954037
 20
6.3076703055
 10
-31.7611184823
 20
6.262162882
 10
-31.9194630536
 20
6.2147772713
 10
-32.0754108463
 20
6.1653788925
 10
-32.2291930163
 20
6.1138987895
 10
-32.3811829921
 20
6.060239772
 10
-32.5318854025
 20
6.0042601975
 10
-32.6817156238
 20
5.9458481995
  0
LWPOLYLINE
  5
4D0
100
AcDbEntity
  8
0
100
AcDbPolyline
 62
250
  6
CONTINUOUS
 90
6
 70
0
 10
-34.3396028228
 20
34.5149617279
 10
-34.3261984961
 20
34.5081358961
 10
-34.3127323483
 20
34.500993437
 10
-34.2992105462
 20
34.4935954576
 10
-34.285637667
 20
34.486000305
 10
-34.2720188023
 20
34.4782512445
  0
LINE
  5
4D1
100
AcDbEntity
  8
0
100
AcDbLine
 62
7
  6
CONTINUOUS
 10
34.0224387958
 20
-2.4567568943
 11
-32.4439428633
 21
35.9200988563
  0
LWPOLYLINE
  5
4D2
100
AcDbEntity
  8
0
100
AcDbPolyline
 62
250
  6
CONTINUOUS
 90
10
 70
0
 10
27.8471409477
 20
-5.7658489813
 10
27.7508468984
 20
-5.6658248651
 10
27.652180814
 20
-5.5680588487
 10
27.5512092957
 20
-5.4725986919
 10
27.4479240724
 20
-5.3794093582
 10
27.3427268774
 20
-5.2888375521
 10
27.2355984181
 20
-5.2008770654
 10
27.1266105114
 20
-5.115606097
 10
27.0159479274
 20
-5.0331901227
 10
26.9037288005
 20
-4.953731877
  0
LWPOLYLINE
  5
4D3
100
AcDbEntity
  8
0
100
AcDbPolyline
 62
250
  6
CONTINUOUS
 90
10
 70
0
 10
27.8471746424
 20
-5.7658821155
 10
27.9060397314
 20
-5.8294331827
 10
27.9638569723
 20
-5.8937451898
 10
28.0205987645
 20
-5.9587871679
 10
28.0762491637
 20
-6.024541297
 10
28.1307756729
 20
-6.0909674003
 10
28.1841068095
 20
-6.1579726409
 10
28.2362160851
 20
-6.2255169664
 10
28.2871233809
 20
-6.2936157715
 10
28.3368593927
 20
-6.3623056474
  0
LINE
  5
4D4
100
AcDbEntity
  8
0
100
AcDbLine
 62
7
  6
CONTINUOUS
 10
26.5541244646
 20
-7.357321384
 11
26.6008252409
 21
-7.4109122041
  0
LWPOLYLINE
  5
4D5
100
AcDbEntity
  8
0
100
AcDbPolyline
 62
7
  6
CONTINUOUS
 90
3
 70
0
 10
26.6008236188
 20
-7.4109131252
 10
26.7120924944
 20
-7.5521181874
 10
26.8147507892
 20
-7.7024521042
  0
LINE
  5
4D6
100
AcDbEntity
  8
SUPERFICI
100
AcDbLine
 62
250
  6
CONTINUOUS
 10
17.7393066968
 20
-19.8747072599
 11
17.7393066968
 21
-20.0887891815
  0
LINE
  5
4D7
100
AcDbEntity
  8
SUPERFICI
100
AcDbLine
 62
7
  6
CONTINUOUS
 10
17.7648635132
 20
-19.8600601193
 11
17.7648635132
 21
-20.0403808421
  0
LWPOLYLINE
  5
4D8
100
AcDbEntity
  8
SUPERFICI
100
AcDbPolyline
 62
7
  6
CONTINUOUS
 90
6
 70
0
 10
17.7640430129
 20
-20.0411923153
 10
17.7633643921
 20
-20.049687429
 10
17.760019708
 20
-20.0625777836
 10
17.7541067209
 20
-20.0739137139
 10
17.7459287623
 20
-20.0833920483
 10
17.7358174542
 20
-20.0908039099
  0
LWPOLYLINE
  5
4D9
100
AcDbEntity
  8
0
100
AcDbPolyline
 62
250
  6
CONTINUOUS
 90
10
 70
0
 10
18.3880550217
 20
0.2173024355
 10
18.3477886032
 20
-0.0634186955
 10
18.3094849402
 20
-0.3524349249
 10
18.2735413729
 20
-0.645760953
 10
18.2404831347
 20
-0.9381189741
 10
18.2103865887
 20
-1.2279742512
 10
18.1830253121
 20
-1.517654915
 10
18.1586163871
 20
-1.8062525803
 10
18.1376775143
 20
-2.089481055
 10
18.1205471948
 20
-2.3648285908
  0
LWPOLYLINE
  5
4DA
100
AcDbEntity
  8
0
100
AcDbPolyline
 62
250
  6
CONTINUOUS
 90
4
 70
0
 10
18.0882031032
 20
-2.607404518
 10
18.1032493558
 20
-2.524603107
 10
18.1140403866
 20
-2.4436343515
 10
18.1205385163
 20
-2.3648277941
  0
LWPOLYLINE
  5
4DB
100
AcDbEntity
  8
0
100
AcDbPolyline
 62
250
  6
CONTINUOUS
 90
10
 70
0
 10
18.7415974678
 20
2.1619367269
 10
18.6944189321
 20
1.938045363
 10
18.6498602613
 20
1.7200323364
 10
18.6075595016
 20
1.5055807164
 10
18.5670686535
 20
1.2920001615
 10
18.5282147921
 20
1.0781104618
 10
18.4910781141
 20
0.8644013547
 10
18.4555287974
 20
0.6504992707
 10
18.4212443263
 20
0.4349679975
 10
18.3880549828
 20
0.2173023356
  0
LWPOLYLINE
  5
4DC
100
AcDbEntity
  8
0
100
AcDbPolyline
 62
250
  6
CONTINUOUS
 90
10
 70
0
 10
19.0978136465
 20
3.6630208186
 10
19.0539659849
 20
3.4936951805
 10
19.0112752584
 20
3.325292556
 10
18.9697311278
 20
3.1578206417
 10
18.9294214294
 20
2.9916963164
 10
18.8902327998
 20
2.8265163138
 10
18.8518739418
 20
2.6610621309
 10
18.8142640254
 20
2.4949372707
 10
18.7775094226
 20
2.3285623372
 10
18.7416205857
 20
2.1619491337
  0
LWPOLYLINE
  5
4DD
100
AcDbEntity
  8
0
100
AcDbPolyline
 62
250
  6
CONTINUOUS
 90
7
 70
0
 10
17.9143787175
 20
-3.1159607777
 10
17.9523498998
 20
-3.0327256572
 10
17.9869218397
 20
-2.948411685
 10
18.0179461188
 20
-2.8633630743
 10
18.0453501359
 20
-2.777668962
 10
18.0688754568
 20
-2.6919627737
 10
18.0882031032
 20
-2.607404518
  0
LWPOLYLINE
  5
4DE
100
AcDbEntity
  8
0
100
AcDbPolyline
 62
250
  6
CONTINUOUS
 90
3
 70
0
 10
10.0835860163
 20
-17.7227856856
 10
10.1525284711
 20
-17.6255565425
 10
10.2319188922
 20
-17.5431824211
  0
LINE
  5
4DF
100
AcDbEntity
  8
0
100
AcDbLine
 62
250
  6
CONTINUOUS
 10
10.2319188922
 20
-17.5431824211
 11
10.3180203607
 21
-17.4801387373
  0
LWPOLYLINE
  5
4E0
100
AcDbEntity
  8
0
100
AcDbPolyline
 62
250
  6
CONTINUOUS
 90
10
 70
0
 10
28.5788101671
 20
-3.651802207
 10
28.3847545165
 20
-3.7827996618
 10
28.1934560982
 20
-3.9171293493
 10
28.004469401
 20
-4.054940697
 10
27.8169069936
 20
-4.1967159798
 10
27.6307342751
 20
-4.3422962854
 10
27.4467239766
 20
-4.4908076415
 10
27.2647718275
 20
-4.6419894078
 10
27.0839418141
 20
-4.7962682015
 10
26.9037292659
 20
-4.953732023
  0
LWPOLYLINE
  5
4E1
100
AcDbEntity
  8
0
100
AcDbPolyline
 62
250
  6
CONTINUOUS
 90
8
 70
0
 10
29.7014665448
 20
-4.4584389385
 10
29.4920960727
 20
-4.5936037412
 10
29.283489456
 20
-4.7327075713
 10
29.0757610241
 20
-4.8751185441
 10
28.8693230384
 20
-5.0199702879
 10
28.6639942198
 20
-5.1667865166
 10
28.4590345073
 20
-5.3154908344
 10
27.653580665
 20
-5.9082889486
  0
LINE
  5
4E2
100
AcDbEntity
  8
0
100
AcDbLine
 62
250
  6
CONTINUOUS
 10
34.0224375628
 20
-2.4567561824
 11
32.4926677652
 21
-3.4375575946
  0
LWPOLYLINE
  5
4E3
100
AcDbEntity
  8
0
100
AcDbPolyline
 62
7
  6
CONTINUOUS
 90
4
 70
0
 10
10.6944833736
 20
-16.9909095646
 10
10.7325590764
 20
-16.9668519212
 10
10.770714033
 20
-16.9436353009
 10
10.8089482437
 20
-16.9212597036
  0
LWPOLYLINE
  5
4E4
100
AcDbEntity
  8
0
100
AcDbPolyline
 62
7
  6
CONTINUOUS
 90
7
 70
0
 10
11.1494326598
 20
-16.9867064615
 10
11.0629670535
 20
-17.0413318975
 10
10.975041192
 20
-17.0960040267
 10
10.8856550751
 20
-17.1507228492
 10
10.7948328307
 20
-17.2054792914
 10
10.702550331
 20
-17.2602824269
 10
10.6087351926
 20
-17.315159476
  0
LWPOLYLINE
  5
4E5
100
AcDbEntity
  8
0
100
AcDbPolyline
 62
250
  6
CONTINUOUS
 90
3
 70
0
 10
27.9500196536
 20
-6.6071552109
 10
28.1423808123
 20
-6.4861243289
 10
28.3368462372
 20
-6.3622863562
  0
LWPOLYLINE
  5
4E6
100
AcDbEntity
  8
0
100
AcDbPolyline
 62
250
  6
CONTINUOUS
 90
10
 70
0
 10
32.6416178958
 20
-3.5369783018
 10
32.5896875297
 20
-3.5695114717
 10
32.5336305345
 20
-3.603988524
 10
32.474146889
 20
-3.6399700381
 10
32.4117439968
 20
-3.6771340832
 10
32.3477151105
 20
-3.7146992922
 10
32.2841279736
 20
-3.7514509628
 10
32.2224455156
 20
-3.7865319718
 10
32.1635465337
 20
-3.8194122004
 10
32.108683341
 20
-3.8493458043
  0
LINE
  5
4E7
100
AcDbEntity
  8
0
100
AcDbLine
 62
7
  6
CONTINUOUS
 10
10.6087351926
 20
-17.315159476
 11
10.5133632875
 21
-17.3701195124
  0
LWPOLYLINE
  5
4E8
100
AcDbEntity
  8
0
100
AcDbPolyline
 62
250
  6
CONTINUOUS
 90
8
 70
0
 10
26.6008252409
 20
-7.4109122041
 10
26.7981880766
 20
-7.2981307448
 10
26.9922093063
 20
-7.1857846939
 10
27.1841152036
 20
-7.0731139121
 10
27.3757490542
 20
-6.9589891858
 10
27.5676416759
 20
-6.8430580607
 10
27.7589563302
 20
-6.7258310992
 10
27.9500196536
 20
-6.6071552109
  0
LWPOLYLINE
  5
4E9
100
AcDbEntity
  8
0
100
AcDbPolyline
 62
7
  6
CONTINUOUS
 90
3
 70
0
 10
10.5133632875
 20
-17.3701195124
 10
10.4164587437
 20
-17.4251534624
 10
10.318021561
 20
-17.4802613262
  0
LWPOLYLINE
  5
4EA
100
AcDbEntity
  8
0
100
AcDbPolyline
 62
250
  6
CONTINUOUS
 90
10
 70
0
 10
32.2311307103
 20
-3.9222352299
 10
32.0168467409
 20
-4.0433809661
 10
31.8019678656
 20
-4.1666726116
 10
31.587023889
 20
-4.2917877405
 10
31.3727544226
 20
-4.4182789266
 10
31.159499594
 20
-4.5459326247
 10
30.9472171856
 20
-4.6747755847
 10
30.7362965307
 20
-4.8045874509
 10
30.5275416558
 20
-4.9348941689
 10
30.3215741226
 20
-5.0653312634
  0
LWPOLYLINE
  5
4EB
100
AcDbEntity
  8
0
100
AcDbPolyline
 62
250
  6
CONTINUOUS
 90
6
 70
0
 10
10.1967819884
 20
-17.2702682267
 10
10.6087807752
 20
-17.0405671842
 10
10.6301639482
 20
-17.0285189758
 10
10.6515753189
 20
-17.0161924066
 10
10.6730151274
 20
-17.0036559362
 10
10.6944833736
 20
-16.9909095646
  0
LWPOLYLINE
  5
4EC
100
AcDbEntity
  8
0
100
AcDbPolyline
 62
7
  6
CONTINUOUS
 90
3
 70
0
 10
10.8089482437
 20
-16.9212597036
 10
10.8472663523
 20
-16.9000630091
 10
10.9241263991
 20
-16.8591790502
  0
LWPOLYLINE
  5
4ED
100
AcDbEntity
  8
0
100
AcDbPolyline
 62
7
  6
CONTINUOUS
 90
3
 70
0
 10
10.9241263991
 20
-16.8591790502
 10
10.962649761
 20
-16.8381402671
 10
11.0398924496
 20
-16.7955448533
  0
LWPOLYLINE
  5
4EE
100
AcDbEntity
  8
0
100
AcDbPolyline
 62
250
  6
CONTINUOUS
 90
10
 70
0
 10
31.8926369348
 20
-3.7254371969
 10
31.9490368127
 20
-3.6959665797
 10
32.0088951811
 20
-3.6629597492
 10
32.0711607105
 20
-3.6272373165
 10
32.1350894156
 20
-3.5894441364
 10
32.1994030284
 20
-3.5505073608
 10
32.2622805795
 20
-3.5116752592
 10
32.3225560261
 20
-3.47383276
 10
32.379722184
 20
-3.4374663661
 10
32.4330797064
 20
-3.4031521962
  0
LINE
  5
4EF
100
AcDbEntity
  8
0
100
AcDbLine
 62
250
  6
CONTINUOUS
 10
35.0786148813
 20
-4.2861105006
 11
33.4643776024
 21
-5.1206083376
  0
LINE
  5
4F0
100
AcDbEntity
  8
0
100
AcDbLine
 62
250
  6
CONTINUOUS
 10
33.4643776024
 20
-5.1894166452
 11
33.4100794125
 21
-5.217005762
  0
LWPOLYLINE
  5
4F1
100
AcDbEntity
  8
0
100
AcDbPolyline
 62
250
  6
CONTINUOUS
 90
5
 70
0
 10
33.1582332773
 20
-5.3419731068
 10
33.0928432999
 20
-5.3751049926
 10
33.0299809804
 20
-5.4078671593
 10
32.9706872419
 20
-5.4400886705
 10
32.9163929594
 20
-5.4714140109
  0
LINE
  5
4F2
100
AcDbEntity
  8
0
100
AcDbLine
 62
250
  6
CONTINUOUS
 10
33.4100794125
 20
-5.217005762
 11
33.1582332773
 21
-5.3419731068
  0
LWPOLYLINE
  5
4F3
100
AcDbEntity
  8
0
100
AcDbPolyline
 62
250
  6
CONTINUOUS
 90
4
 70
0
 10
28.5080287902
 20
-8.3582140952
 10
28.722427889
 20
-8.2685213298
 10
28.9374807163
 20
-8.1753878221
 10
29.1537449467
 20
-8.0786192158
  0
LINE
  5
4F4
100
AcDbEntity
  8
0
100
AcDbLine
 62
7
  6
CONTINUOUS
 10
10.103173394
 20
-17.3084355931
 11
10.1963776835
 21
-17.2700220416
  0
LWPOLYLINE
  5
4F5
100
AcDbEntity
  8
0
100
AcDbPolyline
 62
250
  6
CONTINUOUS
 90
3
 70
0
 10
28.0786472624
 20
-8.5281804006
 10
28.2936014377
 20
-8.4447105222
 10
28.5080287902
 20
-8.3582140952
  0
LWPOLYLINE
  5
4F6
100
AcDbEntity
  8
0
100
AcDbPolyline
 62
250
  6
CONTINUOUS
 90
5
 70
0
 10
-34.339631733
 20
34.5147809675
 10
-34.4758461474
 20
34.5675362651
 10
-34.604155775
 20
34.5872654554
 10
-34.7212544671
 20
34.5744379258
 10
-34.8232529922
 20
34.5296684289
  0
LWPOLYLINE
  5
4F7
100
AcDbEntity
  8
0
100
AcDbPolyline
 62
250
  6
CONTINUOUS
 90
10
 70
0
 10
-34.1226551509
 20
35.0120351444
 10
-34.1060488915
 20
35.0052518536
 10
-34.0894672109
 20
34.998142297
 10
-34.0729154428
 20
34.9907126376
 10
-34.0564285993
 20
34.982983333
 10
-34.0399820986
 20
34.9749475742
 10
-34.023491374
 20
34.9665652102
 10
-34.0069312413
 20
34.9578210741
 10
-33.990336286
 20
34.948731056
 10
-33.9737113186
 20
34.9392963018
  0
LWPOLYLINE
  5
4F8
100
AcDbEntity
  8
0
100
AcDbPolyline
 62
7
  6
CONTINUOUS
 90
6
 70
0
 10
-32.4439428633
 20
35.9200988563
 10
-32.6356947234
 20
36.0077950076
 10
-32.8117241912
 20
36.0549697505
 10
-32.9720312668
 20
36.0616230851
 10
-33.1204524145
 20
36.0255402972
 10
-33.2181208788
 20
35.9741683723
  0
LWPOLYLINE
  5
4F9
100
AcDbEntity
  8
0
100
AcDbPolyline
 62
250
  6
CONTINUOUS
 90
10
 70
0
 10
30.321542873
 20
-5.06529563
 10
30.2579687018
 20
-4.9935618336
 10
30.1927153452
 20
-4.9229280567
 10
30.1259572331
 20
-4.8533466944
 10
30.0579738381
 20
-4.784892597
 10
29.9888872165
 20
-4.7175413674
 10
29.918664898
 20
-4.6512331004
 10
29.8473243457
 20
-4.5859502519
 10
29.7749131697
 20
-4.5216904155
 10
29.7014665448
 20
-4.4584389385
  0
LWPOLYLINE
  5
4FA
100
AcDbEntity
  8
0
100
AcDbPolyline
 62
7
  6
CONTINUOUS
 90
6
 70
0
 10
26.8147507892
 20
-7.7024521042
 10
26.907458707
 20
-7.8595932238
 10
26.9887893316
 20
-8.0207293892
 10
27.0580358057
 20
-8.1840036306
 10
27.1146657108
 20
-8.3482601085
 10
27.1583793695
 20
-8.5129337289
  0
LWPOLYLINE
  5
4FB
100
AcDbEntity
  8
0
100
AcDbPolyline
 62
250
  6
CONTINUOUS
 90
10
 70
0
 10
26.9037288005
 20
-4.953731877
 10
26.7169089546
 20
-5.1208581885
 10
26.5314867021
 20
-5.2908641861
 10
26.3480009336
 20
-5.463212479
 10
26.1670032312
 20
-5.6373522148
 10
25.988971585
 20
-5.812801772
 10
25.8143143141
 20
-5.9891516605
 10
25.643485283
 20
-6.1659510837
 10
25.4769803306
 20
-6.3427047288
 10
25.3152535569
 20
-6.518957644
  0
LINE
  5
4FC
100
AcDbEntity
  8
0
100
AcDbLine
 62
250
  6
CONTINUOUS
 10
27.653580665
 20
-5.9082889486
 11
27.2718853114
 21
-6.1877651777
  0
LINE
  5
4FD
100
AcDbEntity
  8
0
100
AcDbLine
 62
250
  6
CONTINUOUS
 10
27.2718853114
 20
-6.1877651777
 11
26.8946773579
 21
-6.4620097073
  0
LINE
  5
4FE
100
AcDbEntity
  8
0
100
AcDbLine
 62
250
  6
CONTINUOUS
 10
26.8946773579
 20
-6.4620097073
 11
26.5200807344
 21
-6.7323838006
  0
LINE
  5
4FF
100
AcDbEntity
  8
0
100
AcDbLine
 62
250
  6
CONTINUOUS
 10
26.5200807344
 20
-6.7323838006
 11
26.1451326727
 21
-7.001013991
  0
LWPOLYLINE
  5
500
100
AcDbEntity
  8
0
100
AcDbPolyline
 62
250
  6
CONTINUOUS
 90
4
 70
0
 10
29.6481285444
 20
-5.502336748
 10
29.8717337419
 20
-5.3558517756
 10
30.0963430011
 20
-5.2099414328
 10
30.321542873
 20
-5.06529563
  0
LWPOLYLINE
  5
501
100
AcDbEntity
  8
0
100
AcDbPolyline
 62
250
  6
CONTINUOUS
 90
10
 70
0
 10
32.9161111033
 20
-5.9687707511
 10
32.725427955
 20
-6.0922817209
 10
32.5343241894
 20
-6.2143347824
 10
32.3427995904
 20
-6.3349302347
 10
32.1508584453
 20
-6.4540656158
 10
31.9584960516
 20
-6.5717440982
 10
31.7656986507
 20
-6.6879741278
 10
31.5724614502
 20
-6.8027583996
 10
31.3787886896
 20
-6.9160942193
 10
31.1846801014
 20
-7.0279816455
  0
LWPOLYLINE
  5
502
100
AcDbEntity
  8
0
100
AcDbPolyline
 62
250
  6
CONTINUOUS
 90
4
 70
0
 10
28.3368593927
 20
-6.3623056474
 10
28.5517305006
 20
-6.2236718353
 10
28.7688493434
 20
-6.0819561216
 10
29.6481285444
 20
-5.502336748
  0
LWPOLYLINE
  5
503
100
AcDbEntity
  8
0
100
AcDbPolyline
 62
250
  6
CONTINUOUS
 90
10
 70
0
 10
31.1846794033
 20
-7.0279812759
 10
30.9579200448
 20
-7.1564066225
 10
30.7304071958
 20
-7.2826536822
 10
30.5027742071
 20
-7.4063097608
 10
30.2761864542
 20
-7.5266854775
 10
30.0506967828
 20
-7.6436921153
 10
29.8252561314
 20
-7.7577671436
 10
29.5999275141
 20
-7.8687206469
 10
29.375875692
 20
-7.9758095923
 10
29.1537298316
 20
-8.0785632786
  0
LWPOLYLINE
  5
504
100
AcDbEntity
  8
0
100
AcDbPolyline
 62
250
  6
CONTINUOUS
 90
10
 70
0
 10
31.3220234475
 20
-8.4050916605
 10
31.5031881649
 20
-8.3061916258
 10
31.6827455639
 20
-8.2057815283
 10
31.8609141201
 20
-8.1037386918
 10
32.0377976228
 20
-8.0000085077
 10
32.2137313266
 20
-7.894402227
 10
32.389276207
 20
-7.7865844822
 10
32.5647626802
 20
-7.6763472586
 10
32.7402963647
 20
-7.5636223627
 10
32.9161002285
 20
-7.4482704748
  0
LWPOLYLINE
  5
505
100
AcDbEntity
  8
0
100
AcDbPolyline
 62
250
  6
CONTINUOUS
 90
10
 70
0
 10
31.3220274651
 20
-8.4051783186
 10
31.102218079
 20
-8.5219244688
 10
30.8832039957
 20
-8.6344556131
 10
30.6648257627
 20
-8.7426033651
 10
30.4468434457
 20
-8.8462554554
 10
30.2292083824
 20
-8.9452249157
 10
30.0120706282
 20
-9.0392656741
 10
29.7954136112
 20
-9.1282402042
 10
29.5790461033
 20
-9.2121031633
 10
29.3628793101
 20
-9.2907816579
  0
LINE
  5
506
100
AcDbEntity
  8
0
100
AcDbLine
 62
7
  6
CONTINUOUS
 10
15.6789485328
 20
-18.6893343552
 11
14.8471949647
 21
-19.1217480725
  0
LINE
  5
507
100
AcDbEntity
  8
0
100
AcDbLine
 62
7
  6
CONTINUOUS
 10
-29.0770429914
 20
19.8372881815
 11
-29.2001666879
 21
19.8335628684
  0
LINE
  5
508
100
AcDbEntity
  8
0
100
AcDbLine
 62
7
  6
CONTINUOUS
 10
-28.9011519964
 20
19.9494891894
 11
-29.0242756929
 21
19.9457638763
  0
LINE
  5
509
100
AcDbEntity
  8
0
100
AcDbLine
 62
7
  6
CONTINUOUS
 10
-28.7252610013
 20
20.0616901974
 11
-28.8483846979
 21
20.0579648842
  0
LINE
  5
50A
100
AcDbEntity
  8
0
100
AcDbLine
 62
7
  6
CONTINUOUS
 10
-28.5493700063
 20
20.1738912053
 11
-28.6724937028
 21
20.1701658922
  0
LINE
  5
50B
100
AcDbEntity
  8
0
100
AcDbLine
 62
7
  6
CONTINUOUS
 10
-28.3734790113
 20
20.2860922133
 11
-28.4966027078
 21
20.2823669001
  0
LINE
  5
50C
100
AcDbEntity
  8
0
100
AcDbLine
 62
7
  6
CONTINUOUS
 10
-29.2001666879
 20
22.3149915776
 11
-29.0770429914
 21
22.3112662644
  0
LINE
  5
50D
100
AcDbEntity
  8
0
100
AcDbLine
 62
7
  6
CONTINUOUS
 10
-29.0242756929
 20
22.4059050819
 11
-28.9011519964
 21
22.4021797687
  0
LINE
  5
50E
100
AcDbEntity
  8
0
100
AcDbLine
 62
7
  6
CONTINUOUS
 10
-28.8483846979
 20
22.4968185861
 11
-28.7252610013
 21
22.493093273
  0
LINE
  5
50F
100
AcDbEntity
  8
0
100
AcDbLine
 62
7
  6
CONTINUOUS
 10
-28.6724937028
 20
22.5877320904
 11
-28.5493700063
 21
22.5840067773
  0
LINE
  5
510
100
AcDbEntity
  8
0
100
AcDbLine
 62
7
  6
CONTINUOUS
 10
-28.4966027078
 20
22.6786455947
 11
-28.3734790113
 21
22.6749202815
  0
LWPOLYLINE
  5
511
100
AcDbEntity
  8
0
100
AcDbPolyline
 62
250
  6
CONTINUOUS
 90
10
 70
0
 10
-32.5224054757
 20
31.468829234
 10
-32.595850438
 20
31.4903902549
 10
-32.6682595634
 20
31.5097470339
 10
-32.739597557
 20
31.526844203
 10
-32.8098177116
 20
31.5416252183
 10
-32.8789026473
 20
31.5540524083
 10
-32.9468821674
 20
31.5641009664
 10
-33.013636173
 20
31.5716077158
 10
-33.0788859785
 20
31.5763249422
 10
-33.1424564799
 20
31.5780029535
  0
LWPOLYLINE
  5
512
100
AcDbEntity
  8
0
100
AcDbPolyline
 62
7
  6
CONTINUOUS
 90
4
 70
0
 10
26.3154561217
 20
-8.2507902546
 10
26.3848495671
 20
-8.4049031536
 10
26.4359662576
 20
-8.5602553175
 10
26.467209253
 20
-8.711694508
  0
LWPOLYLINE
  5
513
100
AcDbEntity
  8
0
100
AcDbPolyline
 62
250
  6
CONTINUOUS
 90
7
 70
0
 10
26.0511550486
 20
-17.6196035471
 10
26.066431303
 20
-17.6914918799
 10
26.1107886993
 20
-17.7611873529
 10
26.1791976437
 20
-17.8212211604
 10
26.265340229
 20
-17.8678964307
 10
26.3663203885
 20
-17.9002157897
 10
26.4786717046
 20
-17.9166059925
  0
LWPOLYLINE
  5
514
100
AcDbEntity
  8
0
100
AcDbPolyline
 62
250
  6
CONTINUOUS
 90
10
 70
0
 10
26.0738153969
 20
-27.940041224
 10
26.0648969422
 20
-27.868209953
 10
26.0500890441
 20
-27.797935783
 10
26.0293921297
 20
-27.7295234359
 10
26.002717603
 20
-27.6631216853
 10
25.9701465244
 20
-27.5992438796
 10
25.9320248573
 20
-27.538672134
 10
25.8885706404
 20
-27.4817972747
 10
25.8397788279
 20
-27.4287148673
 10
25.7857466055
 20
-27.3796782284
  0
LINE
  5
515
100
AcDbEntity
  8
0
100
AcDbLine
 62
7
  6
CONTINUOUS
 10
27.1884648364
 20
-8.6760807591
 11
27.2042944826
 21
-8.8354556868
  0
LINE
  5
516
100
AcDbEntity
  8
0
100
AcDbLine
 62
7
  6
CONTINUOUS
 10
26.467209253
 20
-8.711694508
 11
26.4778421249
 21
-8.853551361
  0
LWPOLYLINE
  5
517
100
AcDbEntity
  8
0
100
AcDbPolyline
 62
7
  6
CONTINUOUS
 90
8
 70
0
 10
27.2043866503
 20
-8.835483142
 10
27.2048509328
 20
-8.8446795763
 10
27.205264424
 20
-8.8540721155
 10
27.2056256254
 20
-8.8635521405
 10
27.2059319561
 20
-8.8729730234
 10
27.2061842194
 20
-8.8822754999
 10
27.2063880359
 20
-8.8915495902
 10
27.2065474551
 20
-8.9008371587
  0
LINE
  5
518
100
AcDbEntity
  8
0
100
AcDbLine
 62
7
  6
CONTINUOUS
 10
26.0537101662
 20
-26.6925158975
 11
26.053381777
 21
-26.6785839739
  0
LINE
  5
519
100
AcDbEntity
  8
0
100
AcDbLine
 62
7
  6
CONTINUOUS
 10
27.2065474551
 20
-8.9008371587
 11
27.2067474105
 21
-8.9193871195
  0
LINE
  5
51A
100
AcDbEntity
  8
0
100
AcDbLine
 62
7
  6
CONTINUOUS
 10
26.0511496223
 20
-17.6182731004
 11
26.0533564822
 21
-26.6815585381
  0
LINE
  5
51B
100
AcDbEntity
  8
SUPERFICI
100
AcDbLine
 62
250
  6
CONTINUOUS
 10
25.6544014735
 20
-24.3331929323
 11
25.6544014735
 21
-24.6588657061
  0
LINE
  5
51C
100
AcDbEntity
  8
SUPERFICI
100
AcDbLine
 62
7
  6
CONTINUOUS
 10
25.67995829
 20
-24.318434458
 11
25.67995829
 21
-24.6104573668
  0
LINE
  5
51D
100
AcDbEntity
  8
0
100
AcDbLine
 62
250
  6
CONTINUOUS
 10
26.4787165275
 20
-8.8530233961
 11
26.4787165274
 21
-26.9796448102
  0
LINE
  5
51E
100
AcDbEntity
  8
0
100
AcDbLine
 62
7
  6
CONTINUOUS
 10
27.2067448165
 20
-27.2858881454
 11
27.2067474105
 21
-8.9193871195
  0
LINE
  5
51F
100
AcDbEntity
  8
0
100
AcDbLine
 62
7
  6
CONTINUOUS
 10
26.0533564825
 20
-8.5539931124
 11
26.0511496224
 21
-17.6181918111
  0
LWPOLYLINE
  5
520
100
AcDbEntity
  8
0
100
AcDbPolyline
 62
7
  6
CONTINUOUS
 90
4
 70
0
 10
26.0394793795
 20
-26.6923800099
 10
26.0394485839
 20
-26.6977204634
 10
26.0389075696
 20
-26.7131102163
 10
26.0387555631
 20
-26.7162180113
  0
LWPOLYLINE
  5
521
100
AcDbEntity
  8
0
100
AcDbPolyline
 62
250
  6
CONTINUOUS
 90
4
 70
0
 10
26.0738153969
 20
-6.9569345393
 10
26.0648969422
 20
-7.0332078588
 10
26.0500890441
 20
-7.1108611145
 10
26.0293921297
 20
-7.1895890919
  0
LWPOLYLINE
  5
522
100
AcDbEntity
  8
0
100
AcDbPolyline
 62
250
  6
CONTINUOUS
 90
7
 70
0
 10
26.0293921297
 20
-7.1895890919
 10
26.002717603
 20
-7.2692471598
 10
25.9701465244
 20
-7.3493265301
 10
25.9320248573
 20
-7.428940076
 10
25.8885706404
 20
-7.5075433515
 10
25.8397788279
 20
-7.584948452
 10
25.7857466055
 20
-7.6607898331
  0
LWPOLYLINE
  5
523
100
AcDbEntity
  8
0
100
AcDbPolyline
 62
250
  6
CONTINUOUS
 90
7
 70
0
 10
25.7856528041
 20
-7.6607585033
 10
25.7421018322
 20
-7.7729787453
 10
25.7185279073
 20
-7.8817718114
 10
25.7155264837
 20
-7.9818383047
 10
25.7331492153
 20
-8.0689683497
 10
25.7708921079
 20
-8.1373034622
 10
25.8176490441
 20
-8.1771359666
  0
LINE
  5
524
100
AcDbEntity
  8
0
100
AcDbLine
 62
7
  6
CONTINUOUS
 10
16.9869032251
 20
-20.3571888052
 11
17.7358175017
 21
-19.8769447193
  0
LINE
  5
525
100
AcDbEntity
  8
0
100
AcDbLine
 62
7
  6
CONTINUOUS
 10
17.1306822962
 20
-20.4402050389
 11
17.7393066968
 21
-20.0887891815
  0
LWPOLYLINE
  5
526
100
AcDbEntity
  8
0
100
AcDbPolyline
 62
250
  6
CONTINUOUS
 90
10
 70
0
 10
-31.375143624
 20
28.4283422215
 10
-31.434008714
 20
28.4327670842
 10
-31.4918259566
 20
28.4352209787
 10
-31.5485677507
 20
28.435703001
 10
-31.6042181514
 20
28.4342125588
 10
-31.6587446616
 20
28.4307523022
 10
-31.7120757994
 20
28.425332522
 10
-31.764185076
 20
28.4179626823
 10
-31.8150923727
 20
28.408650347
 10
-31.8648283858
 20
28.3973943715
  0
LWPOLYLINE
  5
527
100
AcDbEntity
  8
0
100
AcDbPolyline
 62
250
  6
CONTINUOUS
 90
10
 70
0
 10
29.1537449467
 20
-8.0786192158
 10
29.0907479285
 20
-7.8703294063
 10
29.0202761377
 20
-7.6652322468
 10
28.9427093069
 20
-7.4644656639
 10
28.8585899131
 20
-7.2690279345
 10
28.7680663179
 20
-7.0789204468
 10
28.6703513534
 20
-6.8925949555
 10
28.5652377594
 20
-6.7101118323
 10
28.4537922032
 20
-6.53313653
 10
28.3368450495
 20
-6.3622844304
  0
LINE
  5
528
100
AcDbEntity
  8
0
100
AcDbLine
 62
7
  6
CONTINUOUS
 10
27.1583793695
 20
-8.5129337289
 11
27.1884648364
 21
-8.6760807591
  0
LWPOLYLINE
  5
529
100
AcDbEntity
  8
0
100
AcDbPolyline
 62
250
  6
CONTINUOUS
 90
10
 70
0
 10
29.3630894084
 20
-9.2908623112
 10
29.3527972594
 20
-9.1556495838
 10
29.3392106704
 20
-9.0202338826
 10
29.3223410471
 20
-8.8847527023
 10
29.302210291
 20
-8.7493636259
 10
29.2788423811
 20
-8.6142103582
 10
29.2522661985
 20
-8.4794143826
 10
29.2225409743
 20
-8.3451886041
 10
29.1896884852
 20
-8.2115613778
 10
29.1537470522
 20
-8.0786230378
  0
LWPOLYLINE
  5
52A
100
AcDbEntity
  8
0
100
AcDbPolyline
 62
250
  6
CONTINUOUS
 90
3
 70
0
 10
29.4308752601
 20
-10.7770552965
 10
29.3977361506
 20
-10.0272119674
 10
29.3632426595
 20
-9.2909677889
  0
LINE
  5
52B
100
AcDbEntity
  8
0
100
AcDbLine
 62
250
  6
CONTINUOUS
 10
29.4611975043
 20
-11.5468592525
 11
29.4308752601
 21
-10.7770552965
  0
LINE
  5
52C
100
AcDbEntity
  8
0
100
AcDbLine
 62
250
  6
CONTINUOUS
 10
29.4889636143
 20
-12.3293549528
 11
29.4611975043
 21
-11.5468592525
  0
LINE
  5
52D
100
AcDbEntity
  8
0
100
AcDbLine
 62
250
  6
CONTINUOUS
 10
29.514850433
 20
-13.1274706311
 11
29.4889636143
 21
-12.3293549528
  0
LINE
  5
52E
100
AcDbEntity
  8
0
100
AcDbLine
 62
250
  6
CONTINUOUS
 10
29.5376603906
 20
-13.9417771859
 11
29.514850433
 21
-13.1274706311
  0
LWPOLYLINE
  5
52F
100
AcDbEntity
  8
0
100
AcDbPolyline
 62
250
  6
CONTINUOUS
 90
7
 70
0
 10
29.606620145
 20
-19.1793811165
 10
29.6045008246
 20
-18.2635729771
 10
29.5982847992
 20
-17.3647006249
 10
29.5882413984
 20
-16.4829303265
 10
29.5746376566
 20
-15.6189024258
 10
29.557689841
 20
-14.7722774861
 10
29.5376603906
 20
-13.9417771859
  0
LINE
  5
530
100
AcDbEntity
  8
0
100
AcDbLine
 62
250
  6
CONTINUOUS
 10
29.606620144
 20
-19.1793811293
 11
29.6045008243
 21
-20.0927349636
  0
LINE
  5
531
100
AcDbEntity
  8
0
100
AcDbLine
 62
250
  6
CONTINUOUS
 10
29.6045008243
 20
-20.0927349636
 11
29.5982847993
 21
-20.9844240241
  0
LINE
  5
532
100
AcDbEntity
  8
0
100
AcDbLine
 62
250
  6
CONTINUOUS
 10
29.5982847993
 20
-20.9844240241
 11
29.5882413988
 21
-21.8545930552
  0
LINE
  5
533
100
AcDbEntity
  8
0
100
AcDbLine
 62
250
  6
CONTINUOUS
 10
29.5882413988
 20
-21.8545930552
 11
29.574637657
 21
-22.7029106602
  0
LWPOLYLINE
  5
534
100
AcDbEntity
  8
0
100
AcDbPolyline
 62
250
  6
CONTINUOUS
 90
9
 70
0
 10
29.574637657
 20
-22.7029106602
 10
29.5576898413
 20
-23.5299654691
 10
29.5376603908
 20
-24.3373369963
 10
29.5148504329
 20
-25.1252989158
 10
29.488963614
 20
-25.8935168693
 10
29.4611975041
 20
-26.6439569709
 10
29.4309797173
 20
-27.3765264883
 10
29.3977361514
 20
-28.0903800386
 10
29.363242661
 20
-28.7868389331
  0
LWPOLYLINE
  5
535
100
AcDbEntity
  8
0
100
AcDbPolyline
 62
7
  6
CONTINUOUS
 90
10
 70
0
 10
27.2041637958
 20
-27.3668528135
 10
27.2046656903
 20
-27.3580222569
 10
27.2051157166
 20
-27.3491500581
 10
27.2055136861
 20
-27.3402365828
 10
27.2058594081
 20
-27.3312822524
 10
27.2061526958
 20
-27.3222873805
 10
27.2063933636
 20
-27.3132521715
 10
27.2065812199
 20
-27.3041769379
 10
27.2067160699
 20
-27.2950621025
 10
27.2067977204
 20
-27.2859080345
  0
LWPOLYLINE
  5
536
100
AcDbEntity
  8
SUPERFICI
100
AcDbPolyline
 62
7
  6
CONTINUOUS
 90
6
 70
0
 10
25.6791377897
 20
-24.6112688399
 10
25.6784591689
 20
-24.6197639537
 10
25.6751144848
 20
-24.6326543083
 10
25.6692014977
 20
-24.6439902385
 10
25.6610235391
 20
-24.6534685729
 10
25.650912231
 20
-24.6608804346
  0
LINE
  5
537
100
AcDbEntity
  8
0
100
AcDbLine
 62
7
  6
CONTINUOUS
 10
26.4778470413
 20
-26.9801516658
 11
26.4666151004
 21
-27.1094753014
  0
LWPOLYLINE
  5
538
100
AcDbEntity
  8
0
100
AcDbPolyline
 62
250
  6
CONTINUOUS
 90
10
 70
0
 10
18.1874630805
 20
-22.0241353811
 10
18.1009021822
 20
-22.0886852482
 10
18.0215672338
 20
-22.1725137956
 10
17.9531542792
 20
-22.2707881031
 10
17.8984847595
 20
-22.3790843281
 10
17.8612093295
 20
-22.4908972332
 10
17.8440372714
 20
-22.5977657276
 10
17.8473840987
 20
-22.6934597115
 10
17.8711018789
 20
-22.7739108481
 10
17.914502737
 20
-22.8347090716
  0
LWPOLYLINE
  5
539
100
AcDbEntity
  8
0
100
AcDbPolyline
 62
7
  6
CONTINUOUS
 90
10
 70
0
 10
-30.6638356991
 20
25.6529838774
 10
-30.7751106352
 20
25.6402609282
 10
-30.8777680661
 20
25.6084603012
 10
-30.970472657
 20
25.5583597731
 10
-31.0518007917
 20
25.491124092
 10
-31.1210450436
 20
25.4077962761
 10
-31.1776691014
 20
25.3089226869
 10
-31.2213748614
 20
25.1947270687
 10
-31.2514537569
 20
25.0663324033
 10
-31.2672811566
 20
24.9252561649
  0
LWPOLYLINE
  5
53A
100
AcDbEntity
  8
0
100
AcDbPolyline
 62
250
  6
CONTINUOUS
 90
10
 70
0
 10
31.1846937476
 20
-7.0280055218
 10
31.1355540818
 20
-6.7840759127
 10
31.0768488527
 20
-6.5428904319
 10
31.0078334842
 20
-6.3047851549
 10
30.9271979399
 20
-6.0722974288
 10
30.833533842
 20
-5.8481805744
 10
30.7247269998
 20
-5.6327970564
 10
30.6005079237
 20
-5.429191775
 10
30.4648072846
 20
-5.2402370878
 10
30.3215408397
 20
-5.0652940315
  0
LWPOLYLINE
  5
53B
100
AcDbEntity
  8
0
100
AcDbPolyline
 62
250
  6
CONTINUOUS
 90
10
 70
0
 10
31.1846801014
 20
-7.0279816455
 10
31.2105369465
 20
-7.1800467673
 10
31.2330731843
 20
-7.3322778299
 10
31.2525738178
 20
-7.4847782295
 10
31.2693106024
 20
-7.6374774462
 10
31.2836009054
 20
-7.7903920832
 10
31.2957896205
 20
-7.9435630252
 10
31.3061949645
 20
-8.0970423565
 10
31.3149182927
 20
-8.2508726438
 10
31.3220234475
 20
-8.4050916605
  0
LWPOLYLINE
  5
53C
100
AcDbEntity
  8
0
100
AcDbPolyline
 62
7
  6
CONTINUOUS
 90
22
 70
0
 10
33.4643774718
 20
-5.1206082381
 10
33.4624476524
 20
-5.0488170647
 10
33.4570125837
 20
-4.97847767
 10
33.4485924652
 20
-4.9100804512
 10
33.4381025431
 20
-4.8462863925
 10
33.4257808545
 20
-4.7852418741
 10
33.41031068
 20
-4.7203477363
 10
33.3905752823
 20
-4.6490857259
 10
33.3667930091
 20
-4.5742123052
 10
33.3389910267
 20
-4.496919926
 10
33.3071510271
 20
-4.4179250272
 10
33.2709621665
 20
-4.3371631398
 10
33.2301331705
 20
-4.2547526617
 10
33.184497333
 20
-4.171132864
 10
33.133981001
 20
-4.0869079395
 10
33.0784438005
 20
-4.0025674487
 10
33.0179441281
 20
-3.9189072401
 10
32.95249212
 20
-3.836629737
 10
32.8819197851
 20
-3.7562633594
 10
32.8063149834
 20
-3.6787093174
 10
32.7260759057
 20
-3.6051740655
 10
32.6416145197
 20
-3.5368173917
  0
LINE
  5
53D
100
AcDbEntity
  8
0
100
AcDbLine
 62
250
  6
CONTINUOUS
 10
31.3221571764
 20
-8.4052395295
 11
31.3552560418
 21
-9.7161539067
  0
LWPOLYLINE
  5
53E
100
AcDbEntity
  8
0
100
AcDbPolyline
 62
250
  6
CONTINUOUS
 90
9
 70
0
 10
31.3552560418
 20
-9.7161539067
 10
31.3785436845
 20
-10.7643118108
 10
31.4014852154
 20
-11.9822686517
 10
31.4217354032
 20
-13.2256146217
 10
31.438893234
 20
-14.4947579794
 10
31.4526943673
 20
-15.791508826
 10
31.4628799098
 20
-17.1163679512
 10
31.4691933941
 20
-18.4685198134
 10
31.4713571389
 20
-19.8477924723
  0
LWPOLYLINE
  5
53F
100
AcDbEntity
  8
0
100
AcDbPolyline
 62
250
  6
CONTINUOUS
 90
10
 70
0
 10
32.9140826226
 20
-5.3474803786
 10
32.9142446128
 20
-5.3611334793
 10
32.9145253716
 20
-5.3747646923
 10
32.9149140431
 20
-5.3884109536
 10
32.9154451079
 20
-5.40218785
 10
32.9160596471
 20
-5.4160633722
 10
32.9166043686
 20
-5.4298599901
 10
32.9170188624
 20
-5.4435492488
 10
32.9173365076
 20
-5.4572499345
 10
32.9175450893
 20
-5.4710031455
  0
LINE
  5
540
100
AcDbEntity
  8
0
100
AcDbLine
 62
250
  6
CONTINUOUS
 10
33.4643776024
 20
-35.3292533436
 11
33.4643631801
 21
-5.118822869
  0
LWPOLYLINE
  5
541
100
AcDbEntity
  8
0
100
AcDbPolyline
 62
250
  6
CONTINUOUS
 90
7
 70
0
 10
31.471357122
 20
-19.8477925397
 10
31.4691661504
 20
-21.2316045227
 10
31.4627920849
 20
-22.5816136504
 10
31.4525261561
 20
-23.8979766699
 10
31.4386612673
 20
-25.1800541627
 10
31.4214699213
 20
-26.428794911
 10
31.4011820063
 20
-27.6467182776
  0
LINE
  5
542
100
AcDbEntity
  8
0
100
AcDbLine
 62
250
  6
CONTINUOUS
 10
32.9163929594
 20
-5.4714140109
 11
32.9163126139
 21
-35.0698276557
  0
LINE
  5
543
100
AcDbEntity
  8
0
100
AcDbLine
 62
250
  6
CONTINUOUS
 10
32.9155027895
 20
-35.1238557027
 11
32.9153640479
 21
-35.3601743537
  0
LINE
  5
544
100
AcDbEntity
  8
0
100
AcDbLine
 62
250
  6
CONTINUOUS
 10
32.9157516115
 20
-35.0683148031
 11
32.9155027895
 21
-35.1238557027
  0
LWPOLYLINE
  5
545
100
AcDbEntity
  8
0
100
AcDbPolyline
 62
250
  6
CONTINUOUS
 90
10
 70
0
 10
32.9153953062
 20
-5.3460870622
 10
32.9166282045
 20
-5.1784680853
 10
32.9049160993
 20
-5.0062437438
 10
32.866339795
 20
-4.8269265301
 10
32.8043663501
 20
-4.648332879
 10
32.7211157994
 20
-4.4745626025
 10
32.6187054507
 20
-4.3094669409
 10
32.500275014
 20
-4.1588039316
 10
32.3698504592
 20
-4.0282017586
 10
32.2311307103
 20
-3.9222352299
  0
LINE
  5
546
100
AcDbEntity
  8
0
100
AcDbLine
 62
250
  6
CONTINUOUS
 10
31.4011820063
 20
-27.6467182776
 11
31.3780364057
 21
-28.8347481103
  0
LWPOLYLINE
  5
547
100
AcDbEntity
  8
0
100
AcDbPolyline
 62
250
  6
CONTINUOUS
 90
3
 70
0
 10
31.3780364057
 20
-28.8347481103
 10
31.3521567631
 20
-29.9921478423
 10
31.3220274651
 20
-31.1179671763
  0
LINE
  5
548
100
AcDbEntity
  8
0
100
AcDbLine
 62
7
  6
CONTINUOUS
 10
26.4666151004
 20
-27.1094753014
 11
26.4350560944
 21
-27.2267049628
  0
LINE
  5
549
100
AcDbEntity
  8
0
100
AcDbLine
 62
7
  6
CONTINUOUS
 10
35.0786148813
 20
-17.8901785824
 11
34.3324637537
 21
-18.3473413528
  0
LINE
  5
54A
100
AcDbEntity
  8
0
100
AcDbLine
 62
7
  6
CONTINUOUS
 10
22.6604896019
 20
-23.6330464724
 11
23.5940433096
 21
-23.1477086939
  0
LINE
  5
54B
100
AcDbEntity
  8
0
100
AcDbLine
 62
7
  6
CONTINUOUS
 10
34.3324637537
 20
-21.2049873215
 11
35.0786148813
 21
-20.8906883378
  0
LWPOLYLINE
  5
54C
100
AcDbEntity
  8
0
100
AcDbPolyline
 62
250
  6
CONTINUOUS
 90
10
 70
0
 10
-33.1424539814
 20
31.5780031727
 10
-33.2903718816
 20
31.567820147
 10
-33.4285376749
 20
31.5337328584
 10
-33.5531337525
 20
31.4711704583
 10
-33.6605110781
 20
31.3800846807
 10
-33.7520726873
 20
31.2645130486
 10
-33.8310708211
 20
31.1263520407
 10
-33.8990361726
 20
30.9692642567
 10
-33.9569675909
 20
30.7974513765
 10
-34.0055469613
 20
30.6121081348
  0
LWPOLYLINE
  5
54D
100
AcDbEntity
  8
0
100
AcDbPolyline
 62
7
  6
CONTINUOUS
 90
10
 70
0
 10
35.0786148813
 20
-4.2861106227
 10
35.0586797302
 20
-4.0531914633
 10
35.011512794
 20
-3.8227029873
 10
34.9371140728
 20
-3.5946451946
 10
34.8316471024
 20
-3.3623731185
 10
34.6989483469
 20
-3.1325317257
 10
34.5505271993
 20
-2.9250559168
 10
34.3902201237
 20
-2.7465906587
 10
34.2141906558
 20
-2.5904909845
 10
34.0224387958
 20
-2.4567568943
  0
LINE
  5
54E
100
AcDbEntity
  8
0
100
AcDbLine
 62
7
  6
CONTINUOUS
 10
34.3324637537
 20
-18.3473413528
 11
34.3324637537
 21
-21.2049873215
  0
LINE
  5
54F
100
AcDbEntity
  8
0
100
AcDbLine
 62
7
  6
CONTINUOUS
 10
35.0786148813
 20
-4.2861105006
 11
35.0786148813
 21
-17.8901785824
  0
LINE
  5
550
100
AcDbEntity
  8
0
100
AcDbLine
 62
7
  6
CONTINUOUS
 10
35.0786148813
 20
-20.8906883378
 11
35.0786148813
 21
-34.4947559515
  0
LWPOLYLINE
  5
551
100
AcDbEntity
  8
0
100
AcDbPolyline
 62
250
  6
CONTINUOUS
 90
5
 70
0
 10
32.9153640479
 20
-35.3601743537
 10
32.9037159947
 20
-35.5175748128
 10
32.8652864123
 20
-35.6519833217
 10
32.8030222611
 20
-35.7595013958
 10
32.7189501532
 20
-35.8378541021
  0
LWPOLYLINE
  5
552
100
AcDbEntity
  8
0
100
AcDbPolyline
 62
250
  6
CONTINUOUS
 90
6
 70
0
 10
33.4643791299
 20
-35.3292543174
 10
33.4493993601
 20
-35.5168536106
 10
33.4069417504
 20
-35.6761216175
 10
33.341105916
 20
-35.8050196685
 10
33.2574606159
 20
-35.901917651
 10
33.1524565314
 20
-35.9728571847
  0
LWPOLYLINE
  5
553
100
AcDbEntity
  8
0
100
AcDbPolyline
 62
250
  6
CONTINUOUS
 90
10
 70
0
 10
31.1846800756
 20
-32.3365557233
 10
31.2105369405
 20
-32.2143493217
 10
31.2330731711
 20
-32.0881423507
 10
31.2525737992
 20
-31.9581606956
 10
31.2693105758
 20
-31.8247886371
 10
31.2836008663
 20
-31.6883760436
 10
31.2957895781
 20
-31.5492803651
 10
31.3061949453
 20
-31.4078170695
 10
31.3149182083
 20
-31.2640600988
 10
31.3220234043
 20
-31.1180463176
  0
LINE
  5
554
100
AcDbEntity
  8
0
100
AcDbLine
 62
7
  6
CONTINUOUS
 10
26.4350560944
 20
-27.2267049628
 11
26.3837603671
 21
-27.3255073921
  0
LINE
  5
555
100
AcDbEntity
  8
0
100
AcDbLine
 62
250
  6
CONTINUOUS
 10
25.9721762558
 20
-26.6312823617
 11
26.0569090859
 21
-26.5675758326
  0
LINE
  5
556
100
AcDbEntity
  8
0
100
AcDbLine
 62
7
  6
CONTINUOUS
 10
25.6509122785
 20
-24.3353190579
 11
24.8103367445
 21
-24.8743412686
  0
LINE
  5
557
100
AcDbEntity
  8
0
100
AcDbLine
 62
7
  6
CONTINUOUS
 10
25.6509122785
 20
-24.6608803452
 11
25.045777073
 21
-25.0102815636
  0
LWPOLYLINE
  5
558
100
AcDbEntity
  8
0
100
AcDbPolyline
 62
250
  6
CONTINUOUS
 90
10
 70
0
 10
29.1537298316
 20
-29.7572125568
 10
29.1896507473
 20
-29.665772326
 10
29.2224836187
 20
-29.5700950352
 10
29.2522040166
 20
-29.4701879482
 10
29.2787748449
 20
-29.3660974164
 10
29.3021467223
 20
-29.2579340308
 10
29.3222859231
 20
-29.1457964167
 10
29.3391687832
 20
-29.0297909311
 10
29.3527756347
 20
-28.9100374979
 10
29.3630885625
 20
-28.7866778161
  0
LWPOLYLINE
  5
559
100
AcDbEntity
  8
0
100
AcDbPolyline
 62
250
  6
CONTINUOUS
 90
10
 70
0
 10
29.1537465991
 20
-29.7571727137
 10
29.0907494484
 20
-29.8927153345
 10
29.0202774933
 20
-30.0164335917
 10
28.9427104697
 20
-30.1276280626
 10
28.8585908566
 20
-30.2259269191
 10
28.7680670154
 20
-30.3115001124
 10
28.6703517889
 20
-30.3849868515
 10
28.5652379264
 20
-30.4460874564
 10
28.4537920993
 20
-30.4943682336
 10
28.3368446738
 20
-30.5301726781
  0
LWPOLYLINE
  5
55A
100
AcDbEntity
  8
0
100
AcDbPolyline
 62
7
  6
CONTINUOUS
 90
7
 70
0
 10
26.3837603671
 20
-27.3255073921
 10
26.3130879614
 20
-27.4007267224
 10
26.2256744379
 20
-27.4505203803
 10
26.1251184429
 20
-27.4723455881
 10
26.0151534036
 20
-27.4657507883
 10
25.9004538465
 20
-27.4336243975
 10
25.7866099998
 20
-27.3791856155
  0
LWPOLYLINE
  5
55B
100
AcDbEntity
  8
0
100
AcDbPolyline
 62
7
  6
CONTINUOUS
 90
6
 70
0
 10
34.7383917451
 20
-35.1921508422
 10
34.8316473034
 20
-35.1333007654
 10
34.9371144381
 20
-35.022820125
 10
35.0115132716
 20
-34.8806779089
 10
35.058680086
 20
-34.7046590789
 10
35.0786148813
 20
-34.494763635
  0
LINE
  5
55C
100
AcDbEntity
  8
0
100
AcDbLine
 62
250
  6
CONTINUOUS
 10
33.4643776024
 20
-35.3292533436
 11
35.0786148813
 21
-34.4947559515
  0
LINE
  5
55D
100
AcDbEntity
  8
0
100
AcDbLine
 62
7
  6
CONTINUOUS
 10
34.7395787692
 20
-35.1943071561
 11
33.1524565314
 21
-35.9728571847
  0
LWPOLYLINE
  5
55E
100
AcDbEntity
  8
0
100
AcDbPolyline
 62
250
  6
CONTINUOUS
 90
4
 70
0
 10
32.7189501532
 20
-35.8378541021
 10
32.6158823735
 20
-35.8850359064
 10
32.4975780928
 20
-35.8992947353
 10
32.3680425698
 20
-35.8802607963
  0
LWPOLYLINE
  5
55F
100
AcDbEntity
  8
0
100
AcDbPolyline
 62
250
  6
CONTINUOUS
 90
10
 70
0
 10
33.4643799038
 20
-35.3292607631
 10
33.4015248089
 20
-35.357457708
 10
33.3359566112
 20
-35.3782905173
 10
33.269222326
 20
-35.3898756427
 10
33.2027729719
 20
-35.3890195035
 10
33.1379020162
 20
-35.3727083521
 10
33.0756440141
 20
-35.3415883579
 10
33.0169500318
 20
-35.2989063998
 10
32.9627739431
 20
-35.2480736944
 10
32.9140809997
 20
-35.1915747627
  0
LWPOLYLINE
  5
560
100
AcDbEntity
  8
0
100
AcDbPolyline
 62
250
  6
CONTINUOUS
 90
10
 70
0
 10
33.4643776024
 20
-35.2579960958
 10
33.4101069488
 20
-35.2798004951
 10
33.3515312948
 20
-35.2910465802
 10
33.2894682284
 20
-35.2914702247
 10
33.2245450496
 20
-35.2807733795
 10
33.1582315834
 20
-35.2588128563
 10
33.0928119181
 20
-35.2261507959
 10
33.0299275405
 20
-35.1835097533
 10
32.9706167843
 20
-35.1312281588
 10
32.9163126139
 20
-35.0698276557
  0
ENDSEC
  0
SECTION
  2
OBJECTS
  0
DICTIONARY
  5
C
100
AcDbDictionary
280
0
281
1
  3
ACAD_GROUP
350
D
  3
ACAD_MLINESTYLE
350
17
  3
ACAD_LAYOUT
350
1A
  3
ACAD_PLOTSETTINGS
350
19
  3
ACAD_PLOTSTYLENAME
350
E
  0
DICTIONARY
  5
D
102
{ACAD_REACTORS
330
C
102
}
100
AcDbDictionary
280
0
281
1
  0
ACDBDICTIONARYWDFLT
  5
E
102
{ACAD_REACTORS
330
C
102
}
100
AcDbDictionary
281
1
  3
Normal
350
F
100
AcDbDictionaryWithDefault
340
F
  0
DICTIONARY
  5
17
102
{ACAD_REACTORS
330
C
102
}
100
AcDbDictionary
280
0
281
1
  3
Standard
350
18
  0
DICTIONARY
  5
19
102
{ACAD_REACTORS
330
C
102
}
100
AcDbDictionary
281
1
  0
DICTIONARY
  5
1A
102
{ACAD_REACTORS
330
C
102
}
100
AcDbDictionary
281
1
  3
Model
350
561
  3
Layout1
350
562
  0
ACDBPLACEHOLDER
  5
F
102
{ACAD_REACTORS
330
E
102
}
  0
MLINESTYLE
  5
18
102
{ACAD_REACTORS
330
17
102
}
100
AcDbMlineStyle
  2
STANDARD
 70
0
  3

 62
256
 51
90.0
 52
90.0
 71
2
 49
0.5
 62
256
  6
BYLAYER
 49
-0.5
 62
256
  6
BYLAYER
  0
LAYOUT
  5
561
102
{ACAD_REACTORS
330
1A
102
}
100
AcDbPlotSettings
  1

  2
none_device
  4
ISO_A4_(297.00_x_210.00_MM)
  6

 40
0.0
 41
0.0
 42
0.0
 43
0.0
 44
297.0
 45
210.0
 46
0.0
 47
0.0
 48
0.0
 49
0.0
140
0.0
141
0.0
142
1.0
143
1.0
 70
1024
 72
1
 73
0
 74
0
  7

 75
0
147
1.0
148
0.0
149
0.0
100
AcDbLayout
  1
Model
 70
0
 71
0
 10
0.0
 20
0.0
 11
297.0
 21
210.0
 12
0.0
 22
0.0
 32
0.0
 14
0.0
 24
0.0
 34
0.0
 15
0.0
 25
0.0
 35
0.0
146
0.0
 13
0.0
 23
0.0
 33
0.0
 16
1.0
 26
0.0
 36
0.0
 17
0.0
 27
1.0
 37
0.0
 76
0
330
210
345
0
346
0
  0
LAYOUT
  5
562
102
{ACAD_REACTORS
330
1A
102
}
100
AcDbPlotSettings
  1

  2
none_device
  4
ISO_A4_(297.00_x_210.00_MM)
  6

 40
0.0
 41
0.0
 42
0.0
 43
0.0
 44
297.0
 45
210.0
 46
0.0
 47
0.0
 48
0.0
 49
0.0
140
0.0
141
0.0
142
1.0
143
1.0
 70
0
 72
1
 73
0
 74
0
  7

 75
0
147
1.0
148
0.0
149
0.0
100
AcDbLayout
  1
Layout1
 70
0
 71
1
 10
0.0
 20
0.0
 11
297.0
 21
210.0
 12
0.0
 22
0.0
 32
0.0
 14
0.0
 24
0.0
 34
0.0
 15
0.0
 25
0.0
 35
0.0
146
0.0
 13
0.0
 23
0.0
 33
0.0
 16
1.0
 26
0.0
 36
0.0
 17
0.0
 27
1.0
 37
0.0
 76
0
330
211
345
0
346
0
  0
ENDSEC
  0
EOF
