  0
SECTION
  2
HEADER
  9
$ACADVER
  1
AC1015
  9
$DWGCODEPAGE
  3
ANSI_1252
  9
$EXTMAX
 10
297.0
 20
210.0
 30
0.0
  9
$EXTMIN
 10
0.0
 20
0.0
 30
0.0
  9
$LIMMIN
 10
0.0
 20
0.0
  9
$LIMMAX
 10
297.0
 20
210.0
  9
$VIEWCTR
 10
148.5
 20
105.0
  9
$VIEWSIZE
 40
210.0
  9
$CLAYER
  8
0
  9
$LTSCALE
 40
16.335
  9
$CELTYPE
  6
BYLAYER
  9
$DIMSCALE
 40
1.0
  9
$DIMASZ
 40
3.0
  9
$DIMEXO
 40
1.85625
  9
$DIMDLI
 40
11.286
  9
$DIMEXE
 40
5.346
  9
$DIMCEN
 40
2.673
  9
$DIMLFAC
 40
1.0
  9
$DIMBLK
  1
_FILLED
  9
$DIMTXT
 40
3.0
  9
$DIMTOL
 70
1
  9
$DIMLIM
 70
0
  9
$DIMTFAC
 40
1.0
  9
$DIMTP
 40
0.01
  9
$DIMTM
 40
0.01
  9
$PDMODE
 70
3
  9
$PDSIZE
 40
3.0
  9
$HANDSEED
  5
497
  9
$TILEMODE
 70
1
  9
$MEASUREMENT
 70
1
  9
$INSUNITS
 70
4
  0
ENDSEC
  0
SECTION
  2
CLASSES
  0
CLASS
  1
ACDBDICTIONARYWDFLT
  2
AcDbDictionaryWithDefault
  3
AutoCAD 2000
 90
0
280
0
281
0
  0
CLASS
  1
ACDBPLACEHOLDER
  2
AcDbPlaceHolder
  3
AutoCAD 2000
 90
0
280
0
281
0
  0
CLASS
  1
LAYOUT
  2
AcDbLayout
  3
AutoCAD 2000
 90
0
280
0
281
0
  0
ENDSEC
  0
SECTION
  2
TABLES
  0
TABLE
  2
VPORT
  5
8
100
AcDbSymbolTable
 70
2
  0
VPORT
  5
1F4
100
AcDbSymbolTableRecord
100
AcDbViewportTableRecord
  2
*ACTIVE
 70
0
 10
0.0
 20
0.0
 11
1.0
 21
1.0
 12
148.5
 22
105.0
 13
0.0
 23
0.0
 14
1.0
 24
1.0
 15
0.0
 25
0.0
 16
0.0
 26
0.0
 36
1.0
 17
0.0
 27
0.0
 37
0.0
 40
210.0
 41
1.4142857143
 42
50.0
 43
0.0
 44
0.0
 50
0.0
 51
0.0
 71
0
 72
100
 73
1
 74
1
 75
0
 76
0
 77
0
 78
0
  0
ENDTAB
  0
TABLE
  2
LTYPE
  5
5
100
AcDbSymbolTable
 70
6
  0
LTYPE
  5
14
100
AcDbSymbolTableRecord
100
AcDbLinetypeTableRecord
  2
BYBLOCK
 70
0
  3

 72
65
 73
0
 40
0.0
  0
LTYPE
  5
15
100
AcDbSymbolTableRecord
100
AcDbLinetypeTableRecord
  2
BYLAYER
 70
0
  3

 72
65
 73
0
 40
0.0
  0
LTYPE
  5
16
100
AcDbSymbolTableRecord
100
AcDbLinetypeTableRecord
  2
CONTINUOUS
 70
64
  3
Solid line
 72
65
 73
0
 40
0.0
  0
LTYPE
  5
1F5
100
AcDbSymbolTableRecord
100
AcDbLinetypeTableRecord
  2
CENTER
 70
64
  3
____ _ ____ _ ____ _ ____ _ ____ _ ____ _ ____
 72
65
 73
4
 40
0.6
 49
0.375
 74
0
 49
-0.075
 74
0
 49
0.075
 74
0
 49
-0.075
 74
0
  0
LTYPE
  5
1F6
100
AcDbSymbolTableRecord
100
AcDbLinetypeTableRecord
  2
HIDDEN
 70
64
  3
- - - - - - - - - - - - - - - - - - - -
 72
65
 73
2
 40
0.2
 49
0.1
 74
0
 49
-0.1
 74
0
  0
LTYPE
  5
1F7
100
AcDbSymbolTableRecord
100
AcDbLinetypeTableRecord
  2
PHANTOM
 70
64
  3
_____ _ _ _____ _ _ _____ _ _ _____
 72
65
 73
6
 40
0.8
 49
0.45
 74
0
 49
-0.05
 74
0
 49
0.1
 74
0
 49
-0.05
 74
0
 49
0.1
 74
0
 49
-0.05
 74
0
  0
LTYPE
  5
1F8
100
AcDbSymbolTableRecord
100
AcDbLinetypeTableRecord
  2
DOT
 70
64
  3
. . . . . . . . . . . . . . . . . . . .
 72
65
 73
2
 40
0.2
 49
0.1
 74
0
 49
-0.1
 74
0
  0
LTYPE
  5
1F9
100
AcDbSymbolTableRecord
100
AcDbLinetypeTableRecord
  2
DASHED
 70
64
  3
- - - - - - - - - - - - - - - - - - - -
 72
65
 73
2
 40
0.2
 49
0.1
 74
0
 49
-0.1
 74
0
  0
ENDTAB
  0
TABLE
  2
LAYER
  5
2
100
AcDbSymbolTable
 70
36
  0
LAYER
  5
10
100
AcDbSymbolTableRecord
100
AcDbLayerTableRecord
  2
0
 70
0
 62
7
  6
CONTINUOUS
370
-3
390
F
  0
LAYER
  5
1FA
100
AcDbSymbolTableRecord
100
AcDbLayerTableRecord
  2
DEFAULT_1
 70
0
 62
7
  6
CENTER
370
-3
390
F
  0
LAYER
  5
1FB
100
AcDbSymbolTableRecord
100
AcDbLayerTableRecord
  2
DEFAULT_2
 70
0
 62
7
  6
HIDDEN
370
-3
390
F
  0
LAYER
  5
1FC
100
AcDbSymbolTableRecord
100
AcDbLayerTableRecord
  2
DEFAULT_3
 70
0
 62
7
  6
PHANTOM
370
-3
390
F
  0
LAYER
  5
1FD
100
AcDbSymbolTableRecord
100
AcDbLayerTableRecord
  2
ASSI
 70
0
 62
7
  6
CONTINUOUS
370
-3
390
F
  0
LAYER
  5
1FE
100
AcDbSymbolTableRecord
100
AcDbLayerTableRecord
  2
COORDINATE
 70
0
 62
7
  6
CONTINUOUS
370
-3
390
F
  0
LAYER
  5
1FF
100
AcDbSymbolTableRecord
100
AcDbLayerTableRecord
  2
COPY_PUBLISH
 70
0
 62
7
  6
CONTINUOUS
370
-3
390
F
  0
LAYER
  5
200
100
AcDbSymbolTableRecord
100
AcDbLayerTableRecord
  2
COSMETIC
 70
0
 62
7
  6
CONTINUOUS
370
-3
390
F
  0
LAYER
  5
201
100
AcDbSymbolTableRecord
100
AcDbLayerTableRecord
  2
CURVE
 70
0
 62
7
  6
CONTINUOUS
370
-3
390
F
  0
LAYER
  5
202
100
AcDbSymbolTableRecord
100
AcDbLayerTableRecord
  2
DRAFT
 70
0
 62
7
  6
CONTINUOUS
370
-3
390
F
  0
LAYER
  5
203
100
AcDbSymbolTableRecord
100
AcDbLayerTableRecord
  2
IMPORT_IGES
 70
0
 62
7
  6
CONTINUOUS
370
-3
390
F
  0
LAYER
  5
204
100
AcDbSymbolTableRecord
100
AcDbLayerTableRecord
  2
INTFCLR_1
 70
0
 62
7
  6
CONTINUOUS
370
-3
390
F
  0
LAYER
  5
205
100
AcDbSymbolTableRecord
100
AcDbLayerTableRecord
  2
PIANI
 70
0
 62
7
  6
CONTINUOUS
370
-3
390
F
  0
LAYER
  5
206
100
AcDbSymbolTableRecord
100
AcDbLayerTableRecord
  2
PUNTI
 70
0
 62
7
  6
CONTINUOUS
370
-3
390
F
  0
LAYER
  5
207
100
AcDbSymbolTableRecord
100
AcDbLayerTableRecord
  2
RACCORDO
 70
0
 62
7
  6
CONTINUOUS
370
-3
390
F
  0
LAYER
  5
208
100
AcDbSymbolTableRecord
100
AcDbLayerTableRecord
  2
SNAPLINE
 70
0
 62
7
  6
CONTINUOUS
370
-3
390
F
  0
LAYER
  5
209
100
AcDbSymbolTableRecord
100
AcDbLayerTableRecord
  2
SUPERFICI
 70
0
 62
7
  6
CONTINUOUS
370
-3
390
F
  0
LAYER
  5
20A
100
AcDbSymbolTableRecord
100
AcDbLayerTableRecord
  2
TRASH
 70
0
 62
7
  6
CONTINUOUS
370
-3
390
F
  0
ENDTAB
  0
TABLE
  2
STYLE
  5
3
100
AcDbSymbolTable
 70
1
  0
STYLE
  5
11
100
AcDbSymbolTableRecord
100
AcDbTextStyleTableRecord
  2
STANDARD
 70
0
 40
0.0
 41
0.8
 50
0.0
 71
0
 42
0.2
  3
txt
  4

  0
STYLE
  5
20B
100
AcDbSymbolTableRecord
100
AcDbTextStyleTableRecord
  2
TEXTSTYLE_1
 70
0
 40
0.0
 41
0.8
 50
0.0
 71
0
 42
0.2
  3
gdt
  4

  0
ENDTAB
  0
TABLE
  2
VIEW
  5
6
100
AcDbSymbolTable
 70
0
  0
ENDTAB
  0
TABLE
  2
UCS
  5
7
100
AcDbSymbolTable
 70
0
  0
ENDTAB
  0
TABLE
  2
APPID
  5
9
100
AcDbSymbolTable
 70
1
  0
APPID
  5
20C
100
AcDbSymbolTableRecord
100
AcDbRegAppTableRecord
  2
ACAD
 70
0
  0
ENDTAB
  0
TABLE
  2
BLOCK_RECORD
  5
1
100
AcDbSymbolTable
 70
0
  0
BLOCK_RECORD
  5
20D
100
AcDbSymbolTableRecord
100
AcDbBlockTableRecord
  2
*Model_Space
  0
BLOCK_RECORD
  5
20E
100
AcDbSymbolTableRecord
100
AcDbBlockTableRecord
  2
*Paper_Space
  0
ENDTAB
  0
TABLE
  2
DIMSTYLE
  5
A
100
AcDbSymbolTable
 70
1
100
AcDbDimStyleTable
 71
0
  0
DIMSTYLE
105
20F
100
AcDbSymbolTableRecord
100
AcDbDimStyleTableRecord
  2
STANDARD
 70
0
  3

  4

 40
1.0
 41
3.0
 42
0.0625
 43
0.38
 44
0.18
 45
0.0
 46
0.0
 47
0.01
 48
0.01
140
3.0
141
0.09
142
0.0
143
25.4
144
1.0
145
0.0
146
1.0
147
0.09
 71
1.0
 72
0.0
 73
0
 74
0
 75
0
 76
0
 77
1
 78
8
170
0
171
2
172
0
173
0
174
0
175
0
176
0
177
0
178
0
270
2
271
2
272
2
273
2
274
2
275
0
280
0
281
0
282
0
283
1
284
8
285
0
286
0
287
3
288
0
340
11
  0
ENDTAB
  0
ENDSEC
  0
SECTION
  2
BLOCKS
  0
BLOCK
  5
20
100
AcDbEntity
  8
0
100
AcDbBlockBegin
  2
*Model_Space
 70
0
 10
0.0
 20
0.0
 30
0.0
  3
*Model_Space
  1

  0
ENDBLK
  5
21
100
AcDbEntity
  8
0
100
AcDbBlockEnd
  0
BLOCK
  5
1C
100
AcDbEntity
  8
0
100
AcDbBlockBegin
  2
*Paper_Space
 70
0
 10
0.0
 20
0.0
 30
0.0
  3
*Paper_Space
  1

  0
ENDBLK
  5
1D
100
AcDbEntity
  8
0
100
AcDbBlockEnd
  0
ENDSEC
  0
SECTION
  2
ENTITIES
  0
LWPOLYLINE
  5
210
100
AcDbEntity
  8
RACCORDO
100
AcDbPolyline
 62
7
  6
CONTINUOUS
 90
5
 70
0
 10
-32.2524580017
 20
57.5436114628
 10
-32.3448889172
 20
57.486056658
 10
-32.6632983558
 20
57.2100973747
 10
-32.9140974622
 20
56.855710043
 10
-33.0850973411
 20
56.4428086311
  0
LINE
  5
211
100
AcDbEntity
  8
SUPERFICI
100
AcDbLine
 62
7
  6
CONTINUOUS
 10
-29.2688695167
 20
59.2913816387
 11
-32.2604207713
 21
57.5389972076
  0
LINE
  5
212
100
AcDbEntity
  8
RACCORDO
100
AcDbLine
 62
253
  6
CONTINUOUS
 10
-32.2523703448
 20
57.543665267
 11
-32.2611829718
 21
57.5385502322
  0
LINE
  5
213
100
AcDbEntity
  8
RACCORDO
100
AcDbLine
 62
253
  6
CONTINUOUS
 10
-27.8616304482
 20
59.2417402457
 11
-30.976502524
 21
57.484849845
  0
LWPOLYLINE
  5
214
100
AcDbEntity
  8
RACCORDO
100
AcDbPolyline
 62
7
  6
CONTINUOUS
 90
4
 70
0
 10
32.5611851361
 20
-56.0865473202
 10
32.7864717764
 20
-56.0613300738
 10
32.999649653
 20
-56.0092782018
 10
33.1539231168
 20
-55.9525073941
  0
LWPOLYLINE
  5
215
100
AcDbEntity
  8
RACCORDO
100
AcDbPolyline
 62
7
  6
CONTINUOUS
 90
3
 70
0
 10
-33.0850973411
 20
56.4428086311
 10
-33.1753625001
 20
55.9836187306
 10
-33.1899895412
 20
55.761129163
  0
LWPOLYLINE
  5
216
100
AcDbEntity
  8
RACCORDO
100
AcDbPolyline
 62
7
  6
CONTINUOUS
 90
4
 70
0
 10
31.8504879005
 20
-55.9874699154
 10
32.0896150912
 20
-56.0499236298
 10
32.3273593014
 20
-56.0829818797
 10
32.5611851361
 20
-56.0865473202
  0
LWPOLYLINE
  5
217
100
AcDbEntity
  8
RACCORDO
100
AcDbPolyline
 62
7
  6
CONTINUOUS
 90
6
 70
0
 10
-32.8629437354
 20
-22.7402088384
 10
-32.6654552317
 20
-23.1231852992
 10
-32.4329529534
 20
-23.4751491111
 10
-32.1707309744
 20
-23.7903852838
 10
-31.8826500387
 20
-24.064412779
 10
-31.5796220556
 20
-24.2875031366
  0
LWPOLYLINE
  5
218
100
AcDbEntity
  8
RACCORDO
100
AcDbPolyline
 62
7
  6
CONTINUOUS
 90
3
 70
0
 10
-33.1901681983
 20
-21.3713637321
 10
-33.1801977045
 20
-21.5478466064
 10
-33.1219518904
 20
-21.9459383417
  0
LINE
  5
219
100
AcDbEntity
  8
RACCORDO
100
AcDbLine
 62
7
  6
CONTINUOUS
 10
-33.1900081178
 20
-21.3765572357
 11
-33.1901681983
 21
-21.3713637321
  0
LWPOLYLINE
  5
21A
100
AcDbEntity
  8
RACCORDO
100
AcDbPolyline
 62
7
  6
CONTINUOUS
 90
4
 70
0
 10
-33.1899937577
 20
55.761030204
 10
-33.2150636793
 20
53.6472506627
 10
-33.2327723965
 20
50.6247324297
 10
-33.2379219076
 20
47.5021274082
  0
LWPOLYLINE
  5
21B
100
AcDbEntity
  8
RACCORDO
100
AcDbPolyline
 62
7
  6
CONTINUOUS
 90
3
 70
0
 10
31.5716978309
 20
-55.8776683951
 10
31.6111034908
 20
-55.8956277572
 10
31.8504879005
 20
-55.9874699154
  0
LINE
  5
21C
100
AcDbEntity
  8
RACCORDO
100
AcDbLine
 62
7
  6
CONTINUOUS
 10
29.7771579566
 20
-55.0038229983
 11
31.5734825149
 21
-55.8784775722
  0
LWPOLYLINE
  5
21D
100
AcDbEntity
  8
RACCORDO
100
AcDbPolyline
 62
7
  6
CONTINUOUS
 90
3
 70
0
 10
24.7428798358
 20
-52.5078629876
 10
27.2961684039
 20
-53.7797704457
 10
29.7771579566
 20
-55.0038229983
  0
LINE
  5
21E
100
AcDbEntity
  8
RACCORDO
100
AcDbLine
 62
7
  6
CONTINUOUS
 10
7.9981683683
 20
-44.1468800205
 11
24.7428798358
 21
-52.5078629876
  0
LINE
  5
21F
100
AcDbEntity
  8
RACCORDO
100
AcDbLine
 62
253
  6
CONTINUOUS
 10
-8.5279931444
 20
-35.6566796512
 11
8.0890162135
 21
-43.9651843301
  0
LINE
  5
220
100
AcDbEntity
  8
RACCORDO
100
AcDbLine
 62
7
  6
CONTINUOUS
 10
-16.5867857609
 20
-31.8495820073
 11
7.9981683683
 21
-44.1468800205
  0
LINE
  5
221
100
AcDbEntity
  8
RACCORDO
100
AcDbLine
 62
7
  6
CONTINUOUS
 10
-24.7335740703
 20
-27.7695880659
 11
-16.5867857609
 21
-31.8495820073
  0
LWPOLYLINE
  5
222
100
AcDbEntity
  8
RACCORDO
100
AcDbPolyline
 62
7
  6
CONTINUOUS
 90
4
 70
0
 10
-31.4157880672
 20
-24.3837289511
 10
-29.7231821306
 20
-25.2531700509
 10
-27.2770239541
 20
-26.4929596147
 10
-24.7335740703
 20
-27.7695880659
  0
LINE
  5
223
100
AcDbEntity
  8
RACCORDO
100
AcDbLine
 62
253
  6
CONTINUOUS
 10
-31.4157880672
 20
-24.3837289511
 11
-31.410042551
 21
-24.3868390668
  0
LINE
  5
224
100
AcDbEntity
  8
RACCORDO
100
AcDbLine
 62
7
  6
CONTINUOUS
 10
-31.5796220556
 20
-24.2875031366
 11
-31.4100464423
 21
-24.3868464628
  0
LWPOLYLINE
  5
225
100
AcDbEntity
  8
RACCORDO
100
AcDbPolyline
 62
7
  6
CONTINUOUS
 90
3
 70
0
 10
-33.1219518904
 20
-21.9459383417
 10
-33.0159836398
 20
-22.3442983883
 10
-32.8629437354
 20
-22.7402088384
  0
LINE
  5
226
100
AcDbEntity
  8
RACCORDO
100
AcDbLine
 62
7
  6
CONTINUOUS
 10
-33.2467469766
 20
4.057222767
 11
-33.2386335264
 21
-6.5470122956
  0
LINE
  5
227
100
AcDbEntity
  8
RACCORDO
100
AcDbLine
 62
253
  6
CONTINUOUS
 10
-33.1008548025
 20
27.0768344577
 11
-33.1008548025
 21
6.7252374687
  0
LINE
  5
228
100
AcDbEntity
  8
RACCORDO
100
AcDbLine
 62
7
  6
CONTINUOUS
 10
-33.2467214921
 20
30.3339588567
 11
-33.2467469766
 21
4.057222767
  0
LWPOLYLINE
  5
229
100
AcDbEntity
  8
RACCORDO
100
AcDbPolyline
 62
7
  6
CONTINUOUS
 90
5
 70
0
 10
-33.2386335264
 20
-6.5470122956
 10
-33.2379333435
 20
-13.1018685153
 10
-33.2330434845
 20
-16.2191176217
 10
-33.215376112
 20
-19.2224064061
 10
-33.190008376
 20
-21.3765572441
  0
LWPOLYLINE
  5
22A
100
AcDbEntity
  8
RACCORDO
100
AcDbPolyline
 62
7
  6
CONTINUOUS
 90
3
 70
0
 10
-33.2379219076
 20
47.5021274082
 10
-33.2385936401
 20
40.9470485015
 10
-33.2467214921
 20
30.3339588567
  0
LINE
  5
22B
100
AcDbEntity
  8
0
100
AcDbLine
 62
253
  6
CONTINUOUS
 10
-17.9715595898
 20
26.8598001502
 11
-18.08723354
 21
26.8058662984
  0
LINE
  5
22C
100
AcDbEntity
  8
RACCORDO
100
AcDbLine
 62
253
  6
CONTINUOUS
 10
-14.9479305438
 20
23.5200035222
 11
-16.1590132196
 21
22.9822192782
  0
LINE
  5
22D
100
AcDbEntity
  8
RACCORDO
100
AcDbLine
 62
7
  6
CONTINUOUS
 10
-15.2818390909
 20
23.6349659062
 11
-16.1590132196
 21
23.2667638366
  0
LINE
  5
22E
100
AcDbEntity
  8
RACCORDO
100
AcDbLine
 62
253
  6
CONTINUOUS
 10
-15.1546237941
 20
23.6233501474
 11
-16.1590132196
 21
23.2017482635
  0
LINE
  5
22F
100
AcDbEntity
  8
RACCORDO
100
AcDbLine
 62
253
  6
CONTINUOUS
 10
-15.2819266862
 20
23.6349290957
 11
-15.2816368611
 21
23.635050573
  0
LINE
  5
230
100
AcDbEntity
  8
RACCORDO
100
AcDbLine
 62
253
  6
CONTINUOUS
 10
-20.5351096039
 20
18.8109709699
 11
-20.5351096039
 21
-1.540626019
  0
LINE
  5
231
100
AcDbEntity
  8
RACCORDO
100
AcDbLine
 62
253
  6
CONTINUOUS
 10
-14.7450575419
 20
18.5853755265
 11
-16.1590132196
 21
17.7743942756
  0
LINE
  5
232
100
AcDbEntity
  8
RACCORDO
100
AcDbLine
 62
7
  6
CONTINUOUS
 10
-14.8097740441
 20
18.4302776743
 11
-16.1590132196
 21
17.6564148924
  0
LINE
  5
233
100
AcDbEntity
  8
RACCORDO
100
AcDbLine
 62
253
  6
CONTINUOUS
 10
-14.7450575419
 20
23.1498645023
 11
-16.1590132196
 21
22.5219940023
  0
LINE
  5
234
100
AcDbEntity
  8
RACCORDO
100
AcDbLine
 62
253
  6
CONTINUOUS
 10
-10.5109840275
 20
-18.8296853747
 11
6.1060253304
 21
-27.1381900536
  0
LINE
  5
235
100
AcDbEntity
  8
RACCORDO
100
AcDbLine
 62
253
  6
CONTINUOUS
 10
-10.9283305122
 20
-17.5761053301
 11
5.6887541662
 21
-25.8846476689
  0
LINE
  5
236
100
AcDbEntity
  8
RACCORDO
100
AcDbLine
 62
253
  6
CONTINUOUS
 10
-19.7585314305
 20
18.0053354062
 11
-19.7585314303
 21
-2.3463410094
  0
LINE
  5
237
100
AcDbEntity
  8
0
100
AcDbLine
 62
253
  6
CONTINUOUS
 10
-18.0872313722
 20
-2.6389653619
 11
-18.0872313712
 21
17.7126005698
  0
LINE
  5
238
100
AcDbEntity
  8
0
100
AcDbLine
 62
7
  6
CONTINUOUS
 10
-16.1590132196
 20
25.9534000537
 11
-16.1590132196
 21
-10.833216901
  0
LINE
  5
239
100
AcDbEntity
  8
0
100
AcDbLine
 62
253
  6
CONTINUOUS
 10
6.2315646036
 20
-24.2311541052
 11
-10.385415301
 21
-15.9226641515
  0
LINE
  5
23A
100
AcDbEntity
  8
0
100
AcDbLine
 62
7
  6
CONTINUOUS
 10
-15.9468811852
 20
-11.1990905393
 11
13.6647623022
 21
-26.004912283
  0
LINE
  5
23B
100
AcDbEntity
  8
DRAFT
100
AcDbLine
 62
7
  6
CONTINUOUS
 10
12.40594717
 20
-25.2424711875
 11
7.6726388767
 21
-22.8758170408
  0
LINE
  5
23C
100
AcDbEntity
  8
DRAFT
100
AcDbLine
 62
7
  6
CONTINUOUS
 10
-3.5039554066
 20
-17.2875198992
 11
-8.2372637
 21
-14.9208657525
  0
LINE
  5
23D
100
AcDbEntity
  8
DRAFT
100
AcDbLine
 62
7
  6
CONTINUOUS
 10
12.6069618356
 20
-25.1308464859
 11
7.8958882799
 21
-22.7753097081
  0
LINE
  5
23E
100
AcDbEntity
  8
DRAFT
100
AcDbLine
 62
7
  6
CONTINUOUS
 10
-3.3029407411
 20
-17.1758951976
 11
-8.0140142968
 21
-14.8203584197
  0
LINE
  5
23F
100
AcDbEntity
  8
DRAFT
100
AcDbLine
 62
7
  6
CONTINUOUS
 10
12.7409716126
 20
-25.0564300182
 11
8.0447212154
 21
-22.7083048196
  0
LINE
  5
240
100
AcDbEntity
  8
DRAFT
100
AcDbLine
 62
7
  6
CONTINUOUS
 10
-3.1689309641
 20
-17.1014787298
 11
-7.8651813613
 21
-14.7533535312
  0
LINE
  5
241
100
AcDbEntity
  8
DRAFT
100
AcDbLine
 62
7
  6
CONTINUOUS
 10
12.9419862781
 20
-24.9448053166
 11
8.2679706185
 21
-22.6077974868
  0
LINE
  5
242
100
AcDbEntity
  8
DRAFT
100
AcDbLine
 62
7
  6
CONTINUOUS
 10
-2.9679162986
 20
-16.9898540282
 11
-7.6419319582
 21
-14.6528461985
  0
LINE
  5
243
100
AcDbEntity
  8
DRAFT
100
AcDbLine
 62
7
  6
CONTINUOUS
 10
13.0759960551
 20
-24.8703888489
 11
8.416803554
 21
-22.5407925983
  0
LINE
  5
244
100
AcDbEntity
  8
DRAFT
100
AcDbLine
 62
7
  6
CONTINUOUS
 10
-2.8339065216
 20
-16.9154375605
 11
-7.4930990227
 21
-14.58584131
  0
LINE
  5
245
100
AcDbEntity
  8
DRAFT
100
AcDbLine
 62
7
  6
CONTINUOUS
 10
13.2770107206
 20
-24.7587641473
 11
8.6400529572
 21
-22.4402852655
  0
LINE
  5
246
100
AcDbEntity
  8
DRAFT
100
AcDbLine
 62
7
  6
CONTINUOUS
 10
-2.6328918561
 20
-16.8038128589
 11
-7.2698496195
 21
-14.4853339772
  0
LINE
  5
247
100
AcDbEntity
  8
RACCORDO
100
AcDbLine
 62
253
  6
CONTINUOUS
 10
-7.0838084502
 20
-14.4015778666
 11
-2.4653796348
 21
-16.7107922743
  0
LINE
  5
248
100
AcDbEntity
  8
RACCORDO
100
AcDbLine
 62
253
  6
CONTINUOUS
 10
8.8260941265
 20
-22.3565291549
 11
13.4445229419
 21
-24.6657435626
  0
LINE
  5
249
100
AcDbEntity
  8
RACCORDO
100
AcDbLine
 62
7
  6
CONTINUOUS
 10
-6.8998964584
 20
-14.417931287
 11
-2.3812110279
 21
-16.6772740022
  0
LINE
  5
24A
100
AcDbEntity
  8
RACCORDO
100
AcDbLine
 62
7
  6
CONTINUOUS
 10
9.0100061183
 20
-22.3728825753
 11
13.5286915488
 21
-24.6322252906
  0
LINE
  5
24B
100
AcDbEntity
  8
DRAFT
100
AcDbLine
 62
7
  6
CONTINUOUS
 10
-3.4034480739
 20
-17.3616113589
 11
-3.5039554066
 21
-17.2875198992
  0
LINE
  5
24C
100
AcDbEntity
  8
DRAFT
100
AcDbLine
 62
7
  6
CONTINUOUS
 10
-3.0684236314
 20
-17.1755701896
 11
-3.1689309641
 21
-17.1014787298
  0
LINE
  5
24D
100
AcDbEntity
  8
DRAFT
100
AcDbLine
 62
7
  6
CONTINUOUS
 10
-2.7333991888
 20
-16.9895290203
 11
-2.8339065216
 21
-16.9154375605
  0
LINE
  5
24E
100
AcDbEntity
  8
RACCORDO
100
AcDbLine
 62
253
  6
CONTINUOUS
 10
-14.7450575419
 20
23.1498645023
 11
-14.7450575419
 21
18.5853755265
  0
LINE
  5
24F
100
AcDbEntity
  8
RACCORDO
100
AcDbLine
 62
253
  6
CONTINUOUS
 10
-14.7450575419
 20
3.6642929172
 11
-14.7450575419
 21
-0.9001960587
  0
LINE
  5
250
100
AcDbEntity
  8
RACCORDO
100
AcDbLine
 62
7
  6
CONTINUOUS
 10
-14.6590326767
 20
23.255000892
 11
-14.6590326767
 21
18.6905119161
  0
LINE
  5
251
100
AcDbEntity
  8
RACCORDO
100
AcDbLine
 62
7
  6
CONTINUOUS
 10
-14.6590326767
 20
3.7694293068
 11
-14.6590326767
 21
-0.795059669
  0
LINE
  5
252
100
AcDbEntity
  8
RACCORDO
100
AcDbLine
 62
253
  6
CONTINUOUS
 10
-14.6590326769
 20
18.690517462
 11
-14.6590328399
 21
18.6903554205
  0
LINE
  5
253
100
AcDbEntity
  8
RACCORDO
100
AcDbLine
 62
253
  6
CONTINUOUS
 10
-14.6590326769
 20
-0.7950541231
 11
-14.6590328399
 21
-0.7952161647
  0
LINE
  5
254
100
AcDbEntity
  8
DRAFT
100
AcDbLine
 62
7
  6
CONTINUOUS
 10
12.5064545028
 20
-25.3165626473
 11
12.40594717
 21
-25.2424711875
  0
LINE
  5
255
100
AcDbEntity
  8
DRAFT
100
AcDbLine
 62
7
  6
CONTINUOUS
 10
12.8414789453
 20
-25.130521478
 11
12.7409716126
 21
-25.0564300182
  0
LINE
  5
256
100
AcDbEntity
  8
DRAFT
100
AcDbLine
 62
7
  6
CONTINUOUS
 10
13.1765033879
 20
-24.9444803086
 11
13.0759960551
 21
-24.8703888489
  0
LINE
  5
257
100
AcDbEntity
  8
RACCORDO
100
AcDbLine
 62
253
  6
CONTINUOUS
 10
-14.9479305438
 20
4.0344319371
 11
-16.1590132196
 21
3.4966476931
  0
LINE
  5
258
100
AcDbEntity
  8
RACCORDO
100
AcDbLine
 62
253
  6
CONTINUOUS
 10
-14.7450575419
 20
3.6642929172
 11
-16.1590132196
 21
3.0364224172
  0
LINE
  5
259
100
AcDbEntity
  8
RACCORDO
100
AcDbLine
 62
7
  6
CONTINUOUS
 10
-15.2818390909
 20
4.1493943211
 11
-16.1590132196
 21
3.7811922514
  0
LINE
  5
25A
100
AcDbEntity
  8
RACCORDO
100
AcDbLine
 62
253
  6
CONTINUOUS
 10
-15.1546237941
 20
4.1377785622
 11
-16.1590132196
 21
3.7161766784
  0
LINE
  5
25B
100
AcDbEntity
  8
RACCORDO
100
AcDbLine
 62
253
  6
CONTINUOUS
 10
-15.2819266862
 20
4.1493575106
 11
-15.2816368611
 21
4.1494789879
  0
LINE
  5
25C
100
AcDbEntity
  8
RACCORDO
100
AcDbLine
 62
7
  6
CONTINUOUS
 10
-2.3783265588
 20
-16.67872217
 11
-2.3766306026
 21
-16.6816609403
  0
LINE
  5
25D
100
AcDbEntity
  8
RACCORDO
100
AcDbLine
 62
253
  6
CONTINUOUS
 10
-2.4548593401
 20
-16.7049502888
 11
-2.4548593401
 21
-17.4803021094
  0
LINE
  5
25E
100
AcDbEntity
  8
RACCORDO
100
AcDbLine
 62
7
  6
CONTINUOUS
 10
-2.3778027877
 20
-16.6853675447
 11
-2.3778027877
 21
-17.3799325185
  0
LINE
  5
25F
100
AcDbEntity
  8
RACCORDO
100
AcDbLine
 62
253
  6
CONTINUOUS
 10
-14.7450575419
 20
-0.9001960587
 11
-16.1590132196
 21
-1.7111773096
  0
LINE
  5
260
100
AcDbEntity
  8
RACCORDO
100
AcDbLine
 62
7
  6
CONTINUOUS
 10
-14.8097740441
 20
-1.0552939108
 11
-16.1590132196
 21
-1.8291566928
  0
LINE
  5
261
100
AcDbEntity
  8
RACCORDO
100
AcDbLine
 62
253
  6
CONTINUOUS
 10
35.0708730774
 20
27.7754884829
 11
31.9563828674
 21
26.0183351704
  0
LINE
  5
262
100
AcDbEntity
  8
RACCORDO
100
AcDbLine
 62
253
  6
CONTINUOUS
 10
37.1921934209
 20
24.1167520998
 11
33.9150927823
 21
22.6413446046
  0
LINE
  5
263
100
AcDbEntity
  8
RACCORDO
100
AcDbLine
 62
253
  6
CONTINUOUS
 10
-14.8247901723
 20
4.0377182131
 11
-14.8251175896
 21
4.0378815753
  0
LINE
  5
264
100
AcDbEntity
  8
RACCORDO
100
AcDbLine
 62
253
  6
CONTINUOUS
 10
-15.1546237941
 20
4.1377785622
 11
-14.9479305438
 21
4.0344319371
  0
LINE
  5
265
100
AcDbEntity
  8
RACCORDO
100
AcDbLine
 62
7
  6
CONTINUOUS
 10
-15.0315618484
 20
4.1411040893
 11
-14.824868598
 21
4.0377574641
  0
LINE
  5
266
100
AcDbEntity
  8
DRAFT
100
AcDbLine
 62
7
  6
CONTINUOUS
 10
-8.0140142968
 20
-14.8203584197
 11
-8.1256389984
 21
-15.0005158967
  0
LINE
  5
267
100
AcDbEntity
  8
DRAFT
100
AcDbLine
 62
7
  6
CONTINUOUS
 10
-7.6419319582
 20
-14.6528461985
 11
-7.7535566597
 21
-14.8330036754
  0
LINE
  5
268
100
AcDbEntity
  8
RACCORDO
100
AcDbLine
 62
253
  6
CONTINUOUS
 10
35.7248954363
 20
-17.8751927096
 11
36.0273799141
 21
-18.0264349485
  0
LINE
  5
269
100
AcDbEntity
  8
RACCORDO
100
AcDbLine
 62
253
  6
CONTINUOUS
 10
35.7373067232
 20
-17.2108918901
 11
36.8686775731
 21
-17.776577315
  0
LINE
  5
26A
100
AcDbEntity
  8
RACCORDO
100
AcDbLine
 62
7
  6
CONTINUOUS
 10
35.9238690167
 20
-17.2206122385
 11
37.0552398666
 21
-17.7862976634
  0
LINE
  5
26B
100
AcDbEntity
  8
RACCORDO
100
AcDbLine
 62
7
  6
CONTINUOUS
 10
13.5315760179
 20
-24.6336734584
 11
13.5332719741
 21
-24.6366122286
  0
LINE
  5
26C
100
AcDbEntity
  8
DRAFT
100
AcDbLine
 62
7
  6
CONTINUOUS
 10
-3.3029407411
 20
-17.1758951976
 11
-3.4034480739
 21
-17.3616113589
  0
LINE
  5
26D
100
AcDbEntity
  8
DRAFT
100
AcDbLine
 62
7
  6
CONTINUOUS
 10
-2.9679162986
 20
-16.9898540282
 11
-3.0684236314
 21
-17.1755701896
  0
LINE
  5
26E
100
AcDbEntity
  8
DRAFT
100
AcDbLine
 62
7
  6
CONTINUOUS
 10
-2.6328918561
 20
-16.8038128589
 11
-2.7333991888
 21
-16.9895290203
  0
LINE
  5
26F
100
AcDbEntity
  8
DRAFT
100
AcDbLine
 62
7
  6
CONTINUOUS
 10
-7.2698496195
 20
-14.4853339772
 11
-7.3814743211
 21
-14.6654914541
  0
LINE
  5
270
100
AcDbEntity
  8
0
100
AcDbLine
 62
253
  6
CONTINUOUS
 10
-15.9468811852
 20
-11.1990905393
 11
-17.8098604202
 21
-12.2102579778
  0
LINE
  5
271
100
AcDbEntity
  8
0
100
AcDbLine
 62
253
  6
CONTINUOUS
 10
-16.1590132196
 20
-10.833216901
 11
-18.0872289853
 21
-11.7322620464
  0
LINE
  5
272
100
AcDbEntity
  8
RACCORDO
100
AcDbLine
 62
7
  6
CONTINUOUS
 10
13.6648157941
 20
-28.0836042741
 11
13.6648157481
 21
-28.0834652297
  0
LINE
  5
273
100
AcDbEntity
  8
RACCORDO
100
AcDbLine
 62
253
  6
CONTINUOUS
 10
13.4550432366
 20
-24.6599015771
 11
13.4550432366
 21
-25.4352533978
  0
LINE
  5
274
100
AcDbEntity
  8
RACCORDO
100
AcDbLine
 62
7
  6
CONTINUOUS
 10
13.532099789
 20
-24.6403188331
 11
13.532099789
 21
-25.3348838068
  0
LINE
  5
275
100
AcDbEntity
  8
0
100
AcDbLine
 62
7
  6
CONTINUOUS
 10
13.6647660434
 20
10.4545967204
 11
13.6647660419
 21
-28.0836203814
  0
LINE
  5
276
100
AcDbEntity
  8
RACCORDO
100
AcDbLine
 62
253
  6
CONTINUOUS
 10
14.5188797689
 20
-19.4849671824
 11
14.5188797681
 21
0.8667092339
  0
LINE
  5
277
100
AcDbEntity
  8
RACCORDO
100
AcDbLine
 62
7
  6
CONTINUOUS
 10
13.6648151159
 20
10.4545124412
 11
13.6648151364
 21
10.4545809749
  0
LINE
  5
278
100
AcDbEntity
  8
DRAFT
100
AcDbLine
 62
7
  6
CONTINUOUS
 10
-3.6379651837
 20
-17.3619363669
 11
-3.5039554066
 21
-17.2875198992
  0
LINE
  5
279
100
AcDbEntity
  8
DRAFT
100
AcDbLine
 62
7
  6
CONTINUOUS
 10
-3.3029407411
 20
-17.1758951976
 11
-3.1689309641
 21
-17.1014787298
  0
LINE
  5
27A
100
AcDbEntity
  8
DRAFT
100
AcDbLine
 62
7
  6
CONTINUOUS
 10
-2.9679162986
 20
-16.9898540282
 11
-2.8339065216
 21
-16.9154375605
  0
LINE
  5
27B
100
AcDbEntity
  8
RACCORDO
100
AcDbLine
 62
7
  6
CONTINUOUS
 10
-2.6328918561
 20
-16.8038128589
 11
-2.4653796348
 21
-16.7107922743
  0
LINE
  5
27C
100
AcDbEntity
  8
DRAFT
100
AcDbLine
 62
7
  6
CONTINUOUS
 10
-8.3860966355
 20
-14.987870641
 11
-8.2372637
 21
-14.9208657525
  0
LINE
  5
27D
100
AcDbEntity
  8
DRAFT
100
AcDbLine
 62
7
  6
CONTINUOUS
 10
-8.0140142968
 20
-14.8203584197
 11
-7.8651813613
 21
-14.7533535312
  0
LINE
  5
27E
100
AcDbEntity
  8
DRAFT
100
AcDbLine
 62
7
  6
CONTINUOUS
 10
-7.6419319582
 20
-14.6528461985
 11
-7.4930990227
 21
-14.58584131
  0
LINE
  5
27F
100
AcDbEntity
  8
RACCORDO
100
AcDbLine
 62
7
  6
CONTINUOUS
 10
-7.2698496195
 20
-14.4853339772
 11
-7.0721244792
 21
-14.3963177192
  0
LINE
  5
280
100
AcDbEntity
  8
RACCORDO
100
AcDbLine
 62
253
  6
CONTINUOUS
 10
-14.8247901723
 20
23.5232897982
 11
-14.8251175896
 21
23.5234531604
  0
LINE
  5
281
100
AcDbEntity
  8
RACCORDO
100
AcDbLine
 62
253
  6
CONTINUOUS
 10
-15.1546237941
 20
23.6233501474
 11
-14.9479305438
 21
23.5200035222
  0
LINE
  5
282
100
AcDbEntity
  8
RACCORDO
100
AcDbLine
 62
7
  6
CONTINUOUS
 10
-15.0315618484
 20
23.6266756744
 11
-14.824868598
 21
23.5233290493
  0
LINE
  5
283
100
AcDbEntity
  8
0
100
AcDbLine
 62
7
  6
CONTINUOUS
 10
-18.2323757443
 20
26.9902476967
 11
5.8090581158
 21
14.9693570641
  0
LINE
  5
284
100
AcDbEntity
  8
0
100
AcDbLine
 62
7
  6
CONTINUOUS
 10
5.8090575844
 20
14.9693573625
 11
13.2338434194
 21
11.2571329758
  0
LINE
  5
285
100
AcDbEntity
  8
RACCORDO
100
AcDbLine
 62
253
  6
CONTINUOUS
 10
16.1301508964
 20
-19.8732562691
 11
16.1301508964
 21
0.4783407198
  0
LINE
  5
286
100
AcDbEntity
  8
DRAFT
100
AcDbLine
 62
7
  6
CONTINUOUS
 10
7.8958882799
 20
-22.7753097081
 11
7.7842635783
 21
-22.955467185
  0
LINE
  5
287
100
AcDbEntity
  8
DRAFT
100
AcDbLine
 62
7
  6
CONTINUOUS
 10
8.2679706185
 20
-22.6077974868
 11
8.1563459169
 21
-22.7879549638
  0
LINE
  5
288
100
AcDbEntity
  8
DRAFT
100
AcDbLine
 62
7
  6
CONTINUOUS
 10
8.6400529572
 20
-22.4402852655
 11
8.5284282556
 21
-22.6204427425
  0
LINE
  5
289
100
AcDbEntity
  8
RACCORDO
100
AcDbLine
 62
253
  6
CONTINUOUS
 10
-2.8260649659
 20
-17.6948094408
 11
-2.4548593401
 21
-17.4803021094
  0
LINE
  5
28A
100
AcDbEntity
  8
RACCORDO
100
AcDbLine
 62
7
  6
CONTINUOUS
 10
-2.7772674
 20
-17.7838974319
 11
-2.5277022122
 21
-17.6396820464
  0
LINE
  5
28B
100
AcDbEntity
  8
RACCORDO
100
AcDbLine
 62
253
  6
CONTINUOUS
 10
5.6886788457
 20
16.0964735514
 11
-10.9283304211
 21
24.4049781836
  0
LINE
  5
28C
100
AcDbEntity
  8
RACCORDO
100
AcDbLine
 62
253
  6
CONTINUOUS
 10
6.1060253304
 20
17.7674000807
 11
-10.5109840275
 21
26.0759047595
  0
LINE
  5
28D
100
AcDbEntity
  8
DRAFT
100
AcDbLine
 62
7
  6
CONTINUOUS
 10
12.6069618356
 20
-25.1308464859
 11
12.5064545028
 21
-25.3165626473
  0
LINE
  5
28E
100
AcDbEntity
  8
DRAFT
100
AcDbLine
 62
7
  6
CONTINUOUS
 10
12.9419862781
 20
-24.9448053166
 11
12.8414789453
 21
-25.130521478
  0
LINE
  5
28F
100
AcDbEntity
  8
DRAFT
100
AcDbLine
 62
7
  6
CONTINUOUS
 10
13.2770107206
 20
-24.7587641473
 11
13.1765033879
 21
-24.9444803086
  0
LINE
  5
290
100
AcDbEntity
  8
DRAFT
100
AcDbLine
 62
7
  6
CONTINUOUS
 10
7.5238059412
 20
-22.9428219293
 11
7.6726388767
 21
-22.8758170408
  0
LINE
  5
291
100
AcDbEntity
  8
DRAFT
100
AcDbLine
 62
7
  6
CONTINUOUS
 10
7.8958882799
 20
-22.7753097081
 11
8.0447212154
 21
-22.7083048196
  0
LINE
  5
292
100
AcDbEntity
  8
DRAFT
100
AcDbLine
 62
7
  6
CONTINUOUS
 10
8.2679706185
 20
-22.6077974868
 11
8.416803554
 21
-22.5407925983
  0
LINE
  5
293
100
AcDbEntity
  8
RACCORDO
100
AcDbLine
 62
7
  6
CONTINUOUS
 10
8.6400529572
 20
-22.4402852655
 11
8.8377780975
 21
-22.3512690075
  0
LINE
  5
294
100
AcDbEntity
  8
RACCORDO
100
AcDbLine
 62
253
  6
CONTINUOUS
 10
32.6618778719
 20
-26.1561288684
 11
32.6618778719
 21
-5.8045318795
  0
LINE
  5
295
100
AcDbEntity
  8
RACCORDO
100
AcDbLine
 62
253
  6
CONTINUOUS
 10
33.8520243892
 20
-26.1009277165
 11
33.8520243892
 21
-5.7493307255
  0
LINE
  5
296
100
AcDbEntity
  8
RACCORDO
100
AcDbLine
 62
7
  6
CONTINUOUS
 10
36.0273799141
 20
-11.8651245811
 11
36.8686775731
 21
-11.3574743999
  0
LINE
  5
297
100
AcDbEntity
  8
RACCORDO
100
AcDbLine
 62
253
  6
CONTINUOUS
 10
13.0838376108
 20
-25.6497607292
 11
13.4550432366
 21
-25.4352533978
  0
LINE
  5
298
100
AcDbEntity
  8
RACCORDO
100
AcDbLine
 62
7
  6
CONTINUOUS
 10
13.1326351767
 20
-25.7388487202
 11
13.3822003645
 21
-25.5946333347
  0
LINE
  5
299
100
AcDbEntity
  8
DRAFT
100
AcDbLine
 62
7
  6
CONTINUOUS
 10
12.271937393
 20
-25.3168876552
 11
12.40594717
 21
-25.2424711875
  0
LINE
  5
29A
100
AcDbEntity
  8
DRAFT
100
AcDbLine
 62
7
  6
CONTINUOUS
 10
12.6069618356
 20
-25.1308464859
 11
12.7409716126
 21
-25.0564300182
  0
LINE
  5
29B
100
AcDbEntity
  8
DRAFT
100
AcDbLine
 62
7
  6
CONTINUOUS
 10
12.9419862781
 20
-24.9448053166
 11
13.0759960551
 21
-24.8703888489
  0
LINE
  5
29C
100
AcDbEntity
  8
RACCORDO
100
AcDbLine
 62
7
  6
CONTINUOUS
 10
13.2770107206
 20
-24.7587641473
 11
13.4445229419
 21
-24.6657435626
  0
LINE
  5
29D
100
AcDbEntity
  8
0
100
AcDbLine
 62
7
  6
CONTINUOUS
 10
7.3023194
 20
-27.8724477771
 11
7.3447714455
 21
-27.8512217543
  0
LINE
  5
29E
100
AcDbEntity
  8
0
100
AcDbLine
 62
7
  6
CONTINUOUS
 10
7.7673392519
 20
-28.1048683379
 11
7.8097914067
 21
-28.0836422605
  0
LINE
  5
29F
100
AcDbEntity
  8
0
100
AcDbLine
 62
7
  6
CONTINUOUS
 10
8.5611145285
 20
-28.5015935102
 11
8.6035668893
 21
-28.4803673298
  0
LINE
  5
2A0
100
AcDbEntity
  8
0
100
AcDbLine
 62
7
  6
CONTINUOUS
 10
8.9888786586
 20
-28.7154106386
 11
9.0313311214
 21
-28.6941844072
  0
LINE
  5
2A1
100
AcDbEntity
  8
0
100
AcDbLine
 62
7
  6
CONTINUOUS
 10
9.1477172163
 20
-28.7946688752
 11
9.1901697084
 21
-28.7734426292
  0
LINE
  5
2A2
100
AcDbEntity
  8
0
100
AcDbLine
 62
7
  6
CONTINUOUS
 10
9.575711238
 20
-29.0086638
 11
9.6181637857
 21
-28.9874375262
  0
LINE
  5
2A3
100
AcDbEntity
  8
0
100
AcDbLine
 62
7
  6
CONTINUOUS
 10
9.9911996334
 20
-29.2166072476
 11
10.0336521436
 21
-29.1953809925
  0
LINE
  5
2A4
100
AcDbEntity
  8
0
100
AcDbLine
 62
7
  6
CONTINUOUS
 10
10.4187909043
 20
-29.4304492873
 11
10.4612432841
 21
-29.4092230974
  0
LINE
  5
2A5
100
AcDbEntity
  8
0
100
AcDbLine
 62
7
  6
CONTINUOUS
 10
8.430549028
 20
-30.8466799981
 11
8.4730610136
 21
-30.8254240053
  0
LINE
  5
2A6
100
AcDbEntity
  8
RACCORDO
100
AcDbLine
 62
7
  6
CONTINUOUS
 10
36.8686775731
 20
-17.776577315
 11
36.0273799141
 21
-18.0264349485
  0
LINE
  5
2A7
100
AcDbEntity
  8
RACCORDO
100
AcDbLine
 62
7
  6
CONTINUOUS
 10
35.7038640663
 20
-17.7427742192
 11
35.7038640663
 21
-12.4400802882
  0
LINE
  5
2A8
100
AcDbEntity
  8
RACCORDO
100
AcDbLine
 62
7
  6
CONTINUOUS
 10
37.1921934209
 20
-52.959508837
 11
37.1921934209
 21
-18.0602380444
  0
LINE
  5
2A9
100
AcDbEntity
  8
RACCORDO
100
AcDbLine
 62
7
  6
CONTINUOUS
 10
37.1921934209
 20
-10.7825186929
 11
37.1921934209
 21
24.1167520998
  0
LINE
  5
2AA
100
AcDbEntity
  8
0
100
AcDbLine
 62
253
  6
CONTINUOUS
 10
14.840992856
 20
-31.6777865406
 11
14.8833039213
 21
-31.6564145326
  0
LINE
  5
2AB
100
AcDbEntity
  8
0
100
AcDbLine
 62
7
  6
CONTINUOUS
 10
11.2704971515
 20
-29.8560587943
 11
11.3129494197
 21
-29.8348326602
  0
LINE
  5
2AC
100
AcDbEntity
  8
0
100
AcDbLine
 62
7
  6
CONTINUOUS
 10
11.6943980814
 20
-30.067564175
 11
11.7368505536
 21
-30.0463379389
  0
LINE
  5
2AD
100
AcDbEntity
  8
0
100
AcDbLine
 62
7
  6
CONTINUOUS
 10
9.6772360847
 20
-31.4692260913
 11
9.7197491057
 21
-31.4479695808
  0
LINE
  5
2AE
100
AcDbEntity
  8
0
100
AcDbLine
 62
7
  6
CONTINUOUS
 10
12.5984489711
 20
-30.517601922
 11
12.6409028636
 21
-30.4963749757
  0
LINE
  5
2AF
100
AcDbEntity
  8
0
100
AcDbLine
 62
7
  6
CONTINUOUS
 10
10.3174256068
 20
-31.7889809428
 11
10.3599393672
 21
-31.7677240626
  0
LINE
  5
2B0
100
AcDbEntity
  8
0
100
AcDbLine
 62
7
  6
CONTINUOUS
 10
13.0139986134
 20
-30.7238579202
 11
13.0564535572
 21
-30.7026304483
  0
LINE
  5
2B1
100
AcDbEntity
  8
0
100
AcDbLine
 62
7
  6
CONTINUOUS
 10
10.9721769014
 20
-32.1160771692
 11
11.0146913778
 21
-32.0948199311
  0
LINE
  5
2B2
100
AcDbEntity
  8
0
100
AcDbLine
 62
7
  6
CONTINUOUS
 10
13.7738049357
 20
-31.1280751158
 11
13.8162628549
 21
-31.1068461562
  0
LINE
  5
2B3
100
AcDbEntity
  8
0
100
AcDbLine
 62
7
  6
CONTINUOUS
 10
12.6433600745
 20
-32.1029510669
 11
12.6858485649
 21
-32.0817068217
  0
LINE
  5
2B4
100
AcDbEntity
  8
0
100
AcDbLine
 62
7
  6
CONTINUOUS
 10
11.9886244922
 20
-32.6233569995
 11
12.0311393648
 21
-32.6020995632
  0
LINE
  5
2B5
100
AcDbEntity
  8
0
100
AcDbLine
 62
7
  6
CONTINUOUS
 10
12.4801708671
 20
-32.8681384343
 11
12.522685672
 21
-32.8468810319
  0
LINE
  5
2B6
100
AcDbEntity
  8
0
100
AcDbLine
 62
7
  6
CONTINUOUS
 10
14.2263416022
 20
-32.4017151089
 11
14.2688198047
 21
-32.3804760077
  0
LINE
  5
2B7
100
AcDbEntity
  8
0
100
AcDbLine
 62
253
  6
CONTINUOUS
 10
14.4732319041
 20
-32.5228628577
 11
14.5157106542
 21
-32.5016234826
  0
LINE
  5
2B8
100
AcDbEntity
  8
0
100
AcDbLine
 62
7
  6
CONTINUOUS
 10
14.8850104759
 20
-32.9213412136
 11
14.9274940324
 21
-32.9000992158
  0
LINE
  5
2B9
100
AcDbEntity
  8
0
100
AcDbLine
 62
7
  6
CONTINUOUS
 10
13.7481579257
 20
-33.4970545868
 11
13.7906720666
 21
-33.4757975164
  0
LINE
  5
2BA
100
AcDbEntity
  8
SUPERFICI
100
AcDbLine
 62
7
  6
CONTINUOUS
 10
15.0118733498
 20
-32.9398408236
 11
15.0543565551
 21
-32.918599221
  0
LINE
  5
2BB
100
AcDbEntity
  8
RACCORDO
100
AcDbLine
 62
253
  6
CONTINUOUS
 10
8.0890162135
 20
36.5773852403
 11
-8.5279931444
 21
44.8858899193
  0
LINE
  5
2BC
100
AcDbEntity
  8
RACCORDO
100
AcDbLine
 62
253
  6
CONTINUOUS
 10
8.7392906276
 20
37.5637280411
 11
-7.8777187296
 21
45.8722327197
  0
LINE
  5
2BD
100
AcDbEntity
  8
0
100
AcDbLine
 62
7
  6
CONTINUOUS
 10
14.3038668004
 20
-33.771148137
 11
14.3463801888
 21
-33.7498914428
  0
LINE
  5
2BE
100
AcDbEntity
  8
0
100
AcDbLine
 62
253
  6
CONTINUOUS
 10
15.2015042654
 20
-33.5632356426
 11
15.2439989999
 21
-33.5419882753
  0
LINE
  5
2BF
100
AcDbEntity
  8
0
100
AcDbLine
 62
7
  6
CONTINUOUS
 10
15.3822163607
 20
-34.2990613898
 11
15.4247278119
 21
-34.2778056642
  0
LINE
  5
2C0
100
AcDbEntity
  8
SUPERFICI
100
AcDbLine
 62
7
  6
CONTINUOUS
 10
35.0708730774
 20
27.7754884829
 11
-27.8616304482
 21
59.2417402457
  0
LINE
  5
2C1
100
AcDbEntity
  8
RACCORDO
100
AcDbLine
 62
253
  6
CONTINUOUS
 10
37.1921934209
 20
-52.959508837
 11
33.9150942995
 21
-54.4348711888
  0
LINE
  5
2C2
100
AcDbEntity
  8
RACCORDO
100
AcDbLine
 62
253
  6
CONTINUOUS
 10
33.1494380859
 20
-55.9544186886
 11
33.1539574737
 21
-55.9524992338
  0
LINE
  5
2C3
100
AcDbEntity
  8
SUPERFICI
100
AcDbLine
 62
7
  6
CONTINUOUS
 10
36.3447037198
 20
-54.6132704826
 11
33.1474831234
 21
-55.95524129
  0
ARC
  5
2C4
100
AcDbEntity
  8
0
100
AcDbCircle
 62
7
  6
CONTINUOUS
 10
-30.901587017
 20
-44.9878375392
 40
47.4975426123
100
AcDbArc
 50
13.6118692299
 51
13.9178458279
  0
ARC
  5
2C5
100
AcDbEntity
  8
RACCORDO
100
AcDbCircle
 62
253
  6
CONTINUOUS
 10
-11.4362639809
 20
11.631673507
 40
40.9296423008
100
AcDbArc
 50
240.3792036474
 51
241.594777535
  0
ARC
  5
2C6
100
AcDbEntity
  8
RACCORDO
100
AcDbCircle
 62
253
  6
CONTINUOUS
 10
7.325032676
 20
-19.7385971317
 40
40.3512222039
100
AcDbArc
 50
182.6251672539
 51
182.7612369183
  0
ARC
  5
2C7
100
AcDbEntity
  8
SUPERFICI
100
AcDbCircle
 62
7
  6
CONTINUOUS
 10
-19.1177614265
 20
-42.0743475088
 40
35.4052500861
100
AcDbArc
 50
13.744050496
 51
13.9450585219
  0
ARC
  5
2C8
100
AcDbEntity
  8
0
100
AcDbCircle
 62
7
  6
CONTINUOUS
 10
38.479053578
 20
-28.4355604147
 40
23.8294887299
100
AcDbArc
 50
193.941937811
 51
194.244527197
  0
ARC
  5
2C9
100
AcDbEntity
  8
0
100
AcDbCircle
 62
7
  6
CONTINUOUS
 10
9.1318716039
 20
-35.0152416604
 40
5.8763161156
100
AcDbArc
 50
15.9328077906
 51
17.3813259736
  0
ARC
  5
2CA
100
AcDbEntity
  8
0
100
AcDbCircle
 62
7
  6
CONTINUOUS
 10
9.6596639487
 20
-34.9352620168
 40
5.7091549696
100
AcDbArc
 50
13.9054510667
 51
14.7183367472
  0
ARC
  5
2CB
100
AcDbEntity
  8
RACCORDO
100
AcDbCircle
 62
253
  6
CONTINUOUS
 10
-29.7331207551
 20
-21.3544502125
 40
3.2764473731
100
AcDbArc
 50
204.088650776
 51
210.8522749262
  0
ARC
  5
2CC
100
AcDbEntity
  8
RACCORDO
100
AcDbCircle
 62
253
  6
CONTINUOUS
 10
10.605919535
 20
-30.9130353444
 40
2.9208282629
100
AcDbArc
 50
1.2402673871
 51
4.5740753854
  0
ARC
  5
2CD
100
AcDbEntity
  8
RACCORDO
100
AcDbCircle
 62
253
  6
CONTINUOUS
 10
11.6439129387
 20
10.0227511136
 40
2.8115811156
100
AcDbArc
 50
38.801085646
 51
40.1329331151
  0
ARC
  5
2CE
100
AcDbEntity
  8
RACCORDO
100
AcDbCircle
 62
253
  6
CONTINUOUS
 10
-30.6839377791
 20
-21.5693945624
 40
2.2981861174
100
AcDbArc
 50
182.8204033213
 51
187.6870053674
  0
ARC
  5
2CF
100
AcDbEntity
  8
0
100
AcDbCircle
 62
7
  6
CONTINUOUS
 10
13.6171493456
 20
-33.0278196263
 40
1.8221916119
100
AcDbArc
 50
47.806795605
 51
52.1476991739
  0
ARC
  5
2D0
100
AcDbEntity
  8
RACCORDO
100
AcDbCircle
 62
253
  6
CONTINUOUS
 10
30.9992464971
 20
-54.4967861087
 40
1.6331335947
100
AcDbArc
 50
356.5047951578
 51
0.2967808642
  0
ARC
  5
2D1
100
AcDbEntity
  8
RACCORDO
100
AcDbCircle
 62
253
  6
CONTINUOUS
 10
12.3983996497
 20
10.9334284289
 40
1.6215524897
100
AcDbArc
 50
60.9833838602
 51
63.7549207971
  0
ARC
  5
2D2
100
AcDbEntity
  8
SUPERFICI
100
AcDbCircle
 62
7
  6
CONTINUOUS
 10
14.0149130263
 20
-32.5202321556
 40
1.2301715579
100
AcDbArc
 50
5.4857168319
 51
9.0270179388
  0
ARC
  5
2D3
100
AcDbEntity
  8
RACCORDO
100
AcDbCircle
 62
253
  6
CONTINUOUS
 10
14.099343159
 20
-28.7590103457
 40
0.9281449082
100
AcDbArc
 50
118.5141628849
 51
122.8156708535
  0
ARC
  5
2D4
100
AcDbEntity
  8
RACCORDO
100
AcDbCircle
 62
7
  6
CONTINUOUS
 10
-15.1657552783
 20
3.8726442643
 40
0.3001308952
100
AcDbArc
 50
63.4411781685
 51
112.7739301733
  0
ARC
  5
2D5
100
AcDbEntity
  8
RACCORDO
100
AcDbCircle
 62
253
  6
CONTINUOUS
 10
15.4999001876
 20
53.1866642822
 40
48.5323665542
100
AcDbArc
 50
177.5404925207
 51
178.4681047639
  0
ARC
  5
2D6
100
AcDbEntity
  8
RACCORDO
100
AcDbCircle
 62
253
  6
CONTINUOUS
 10
11.5734300162
 20
53.3411720892
 40
44.6028755291
100
AcDbArc
 50
177.2835528951
 51
177.5223383771
  0
ARC
  5
2D7
100
AcDbEntity
  8
RACCORDO
100
AcDbCircle
 62
253
  6
CONTINUOUS
 10
-19.1986166253
 20
27.3056505568
 40
2.7997082025
100
AcDbArc
 50
62.7497633663
 51
66.9265471541
  0
ARC
  5
2D8
100
AcDbEntity
  8
RACCORDO
100
AcDbCircle
 62
253
  6
CONTINUOUS
 10
-31.0030761
 20
55.3616164382
 40
1.9784568719
100
AcDbArc
 50
175.2504696951
 51
177.2933330862
  0
ARC
  5
2D9
100
AcDbEntity
  8
RACCORDO
100
AcDbCircle
 62
253
  6
CONTINUOUS
 10
-18.5870931231
 20
27.8790240641
 40
1.1838611147
100
AcDbArc
 50
291.4235563066
 51
294.9781966667
  0
ARC
  5
2DA
100
AcDbEntity
  8
RACCORDO
100
AcDbCircle
 62
7
  6
CONTINUOUS
 10
-15.1657552783
 20
23.3582158495
 40
0.3001308952
100
AcDbArc
 50
63.4411781685
 51
112.7739301733
  0
ARC
  5
2DB
100
AcDbEntity
  8
0
100
AcDbCircle
 62
7
  6
CONTINUOUS
 10
58.8192069851
 20
-22.5458286446
 40
45.3492128771
100
AcDbArc
 50
194.3970245331
 51
194.7551346117
  0
ARC
  5
2DC
100
AcDbEntity
  8
0
100
AcDbCircle
 62
7
  6
CONTINUOUS
 10
107.2457429915
 20
-55.6119503091
 40
101.8716606067
100
AcDbArc
 50
164.6910469993
 51
164.8987295376
  0
ARC
  5
2DD
100
AcDbEntity
  8
SUPERFICI
100
AcDbCircle
 62
7
  6
CONTINUOUS
 10
106.0311478826
 20
-55.2498360237
 40
100.5692076842
100
AcDbArc
 50
164.8293567928
 51
165.251791808
  0
ARC
  5
2DE
100
AcDbEntity
  8
0
100
AcDbCircle
 62
7
  6
CONTINUOUS
 10
105.5753589217
 20
-55.1636322733
 40
100.1421587409
100
AcDbArc
 50
165.0033257712
 51
165.3223453869
  0
ARC
  5
2DF
100
AcDbEntity
  8
0
100
AcDbCircle
 62
7
  6
CONTINUOUS
 10
109.1930006884
 20
-56.1961720195
 40
99.9494685144
100
AcDbArc
 50
165.1483481414
 51
165.3189105814
  0
ARC
  5
2E0
100
AcDbEntity
  8
0
100
AcDbCircle
 62
7
  6
CONTINUOUS
 10
105.7163609263
 20
-61.4611028464
 40
99.593673471
100
AcDbArc
 50
161.6166275658
 51
161.7345244586
  0
ARC
  5
2E1
100
AcDbEntity
  8
0
100
AcDbCircle
 62
7
  6
CONTINUOUS
 10
105.5052757811
 20
-51.3159359194
 40
99.5924912263
100
AcDbArc
 50
166.820939149
 51
167.1938689125
  0
ARC
  5
2E2
100
AcDbEntity
  8
0
100
AcDbCircle
 62
7
  6
CONTINUOUS
 10
105.1254712765
 20
-61.2662542967
 40
98.9714865957
100
AcDbArc
 50
161.734428471
 51
161.9691149661
  0
ARC
  5
2E3
100
AcDbEntity
  8
SUPERFICI
100
AcDbCircle
 62
7
  6
CONTINUOUS
 10
104.4522944401
 20
-54.833956363
 40
98.9365001099
100
AcDbArc
 50
165.251934638
 51
165.5386388603
  0
ARC
  5
2E4
100
AcDbEntity
  8
0
100
AcDbCircle
 62
7
  6
CONTINUOUS
 10
104.9686222162
 20
-61.2150920121
 40
98.8065041814
100
AcDbArc
 50
161.9691731082
 51
162.0854163037
  0
ARC
  5
2E5
100
AcDbEntity
  8
0
100
AcDbCircle
 62
7
  6
CONTINUOUS
 10
104.9051108837
 20
-61.1945604604
 40
98.7397566423
100
AcDbArc
 50
162.085416357
 51
162.2008742475
  0
ARC
  5
2E6
100
AcDbEntity
  8
SUPERFICI
100
AcDbCircle
 62
7
  6
CONTINUOUS
 10
104.4441582512
 20
-61.6951988989
 40
98.0063656876
100
AcDbArc
 50
162.2858562971
 51
162.4207261017
  0
ARC
  5
2E7
100
AcDbEntity
  8
0
100
AcDbCircle
 62
7
  6
CONTINUOUS
 10
104.3415003802
 20
-61.700227883
 40
97.944129688
100
AcDbArc
 50
162.011285582
 51
162.4191499093
  0
ARC
  5
2E8
100
AcDbEntity
  8
SUPERFICI
100
AcDbCircle
 62
7
  6
CONTINUOUS
 10
103.4423912682
 20
-54.5730486254
 40
97.8934387178
100
AcDbArc
 50
165.5388970101
 51
165.6809847887
  0
ARC
  5
2E9
100
AcDbEntity
  8
SUPERFICI
100
AcDbCircle
 62
7
  6
CONTINUOUS
 10
104.3290950624
 20
-61.6584457425
 40
97.8855752413
100
AcDbArc
 50
162.1497773237
 51
162.2858565811
  0
ARC
  5
2EA
100
AcDbEntity
  8
0
100
AcDbCircle
 62
7
  6
CONTINUOUS
 10
104.2823336253
 20
-61.6813937893
 40
97.8820386339
100
AcDbArc
 50
161.593268952
 51
162.0110754306
  0
ARC
  5
2EB
100
AcDbEntity
  8
SUPERFICI
100
AcDbCircle
 62
7
  6
CONTINUOUS
 10
104.2639271764
 20
-61.6378319596
 40
97.8172266496
100
AcDbArc
 50
161.7347758455
 51
161.8740864047
  0
ARC
  5
2EC
100
AcDbEntity
  8
0
100
AcDbCircle
 62
7
  6
CONTINUOUS
 10
103.2996746676
 20
-54.5711546631
 40
97.7906080881
100
AcDbArc
 50
165.5367356518
 51
165.7500291547
  0
ARC
  5
2ED
100
AcDbEntity
  8
0
100
AcDbCircle
 62
7
  6
CONTINUOUS
 10
103.7000467368
 20
-50.9060723548
 40
97.7413186728
100
AcDbArc
 50
167.1935959307
 51
167.6478139462
  0
ARC
  5
2EE
100
AcDbEntity
  8
SUPERFICI
100
AcDbCircle
 62
7
  6
CONTINUOUS
 10
104.1859264809
 20
-61.6123048705
 40
97.735155091
100
AcDbArc
 50
161.8740827718
 51
162.1497974118
  0
ARC
  5
2EF
100
AcDbEntity
  8
0
100
AcDbCircle
 62
7
  6
CONTINUOUS
 10
106.655208195
 20
-55.5315851684
 40
97.3260992423
100
AcDbArc
 50
165.3187423731
 51
165.532307237
  0
ARC
  5
2F0
100
AcDbEntity
  8
0
100
AcDbCircle
 62
7
  6
CONTINUOUS
 10
102.4493230819
 20
-54.3550455519
 40
96.913225078
100
AcDbArc
 50
165.7501138355
 51
165.9078867769
  0
ARC
  5
2F1
100
AcDbEntity
  8
SUPERFICI
100
AcDbCircle
 62
7
  6
CONTINUOUS
 10
102.4688955433
 20
-54.3249793757
 40
96.8888332655
100
AcDbArc
 50
165.6807465409
 51
165.9634141838
  0
ARC
  5
2F2
100
AcDbEntity
  8
0
100
AcDbCircle
 62
7
  6
CONTINUOUS
 10
103.9999561891
 20
-54.8465041878
 40
94.5838922543
100
AcDbArc
 50
165.5322974045
 51
165.7540975806
  0
ARC
  5
2F3
100
AcDbEntity
  8
0
100
AcDbCircle
 62
7
  6
CONTINUOUS
 10
104.2909609626
 20
-51.7595333614
 40
93.7318727864
100
AcDbArc
 50
167.3894363276
 51
167.894597404
  0
ARC
  5
2F4
100
AcDbEntity
  8
SUPERFICI
100
AcDbCircle
 62
7
  6
CONTINUOUS
 10
104.2128268363
 20
-51.7106379414
 40
93.6081372907
100
AcDbArc
 50
167.4736516057
 51
167.810864017
  0
ARC
  5
2F5
100
AcDbEntity
  8
0
100
AcDbCircle
 62
7
  6
CONTINUOUS
 10
102.2757733301
 20
-54.4081866336
 40
92.80486766
100
AcDbArc
 50
165.7544339673
 51
165.982572299
  0
ARC
  5
2F6
100
AcDbEntity
  8
0
100
AcDbCircle
 62
7
  6
CONTINUOUS
 10
101.393249539
 20
-54.187869955
 40
91.8952591285
100
AcDbArc
 50
165.9825684501
 51
166.2150753482
  0
ARC
  5
2F7
100
AcDbEntity
  8
0
100
AcDbCircle
 62
7
  6
CONTINUOUS
 10
100.5167522146
 20
-53.9728324392
 40
90.9927688555
100
AcDbArc
 50
166.2150714593
 51
166.4520188757
  0
ARC
  5
2F8
100
AcDbEntity
  8
0
100
AcDbCircle
 62
7
  6
CONTINUOUS
 10
100.397169547
 20
-51.7093071715
 40
89.9132267493
100
AcDbArc
 50
167.6238456743
 51
167.8576831155
  0
ARC
  5
2F9
100
AcDbEntity
  8
SUPERFICI
100
AcDbCircle
 62
7
  6
CONTINUOUS
 10
100.1331748106
 20
-51.6189736006
 40
89.5990472411
100
AcDbArc
 50
167.7660858526
 51
167.9062331539
  0
ARC
  5
2FA
100
AcDbEntity
  8
0
100
AcDbCircle
 62
7
  6
CONTINUOUS
 10
107.585032726
 20
-33.8446143353
 40
97.7035035159
100
AcDbArc
 50
177.3853353537
 51
177.7479201824
  0
ARC
  5
2FB
100
AcDbEntity
  8
0
100
AcDbCircle
 62
7
  6
CONTINUOUS
 10
107.335815112
 20
-33.8347195704
 40
97.4540895695
100
AcDbArc
 50
177.7479753564
 51
177.9801022948
  0
ARC
  5
2FC
100
AcDbEntity
  8
0
100
AcDbCircle
 62
7
  6
CONTINUOUS
 10
110.9467050132
 20
-28.356259914
 40
97.2114650123
100
AcDbArc
 50
182.8236370642
 51
183.0682301384
  0
ARC
  5
2FD
100
AcDbEntity
  8
0
100
AcDbCircle
 62
7
  6
CONTINUOUS
 10
106.8995303129
 20
-33.8194958371
 40
97.0175392732
100
AcDbArc
 50
177.9800058747
 51
178.2132340041
  0
ARC
  5
2FE
100
AcDbEntity
  8
SUPERFICI
100
AcDbCircle
 62
7
  6
CONTINUOUS
 10
107.3534477203
 20
-32.174605696
 40
96.9943811328
100
AcDbArc
 50
178.9930129079
 51
179.1461989538
  0
ARC
  5
2FF
100
AcDbEntity
  8
0
100
AcDbCircle
 62
7
  6
CONTINUOUS
 10
107.1710708331
 20
-32.195930922
 40
96.8545051129
100
AcDbArc
 50
178.8381661686
 51
179.6051014296
  0
ARC
  5
300
100
AcDbEntity
  8
SUPERFICI
100
AcDbCircle
 62
7
  6
CONTINUOUS
 10
107.1188533046
 20
-32.17123284
 40
96.7597625044
100
AcDbArc
 50
179.1461259835
 51
179.4534510765
  0
ARC
  5
301
100
AcDbEntity
  8
SUPERFICI
100
AcDbCircle
 62
7
  6
CONTINUOUS
 10
106.7429555418
 20
-32.1674975783
 40
96.3838462133
100
AcDbArc
 50
179.4535399046
 51
179.6079094594
  0
ARC
  5
302
100
AcDbEntity
  8
0
100
AcDbCircle
 62
7
  6
CONTINUOUS
 10
106.2276266543
 20
-33.7985365201
 40
96.3453087923
100
AcDbArc
 50
178.2132335525
 51
178.4481499447
  0
ARC
  5
303
100
AcDbEntity
  8
0
100
AcDbCircle
 62
7
  6
CONTINUOUS
 10
106.4679692021
 20
-32.1902208474
 40
96.1513807864
100
AcDbArc
 50
179.6403314579
 51
179.7609039034
  0
ARC
  5
304
100
AcDbEntity
  8
SUPERFICI
100
AcDbCircle
 62
7
  6
CONTINUOUS
 10
106.4791969787
 20
-32.1656928116
 40
96.1200814758
100
AcDbArc
 50
179.6079093207
 51
179.7627759518
  0
ARC
  5
305
100
AcDbEntity
  8
0
100
AcDbCircle
 62
7
  6
CONTINUOUS
 10
105.5622907767
 20
-33.7805123022
 40
95.6797288179
100
AcDbArc
 50
178.4481495011
 51
178.6847653023
  0
ARC
  5
306
100
AcDbEntity
  8
0
100
AcDbCircle
 62
7
  6
CONTINUOUS
 10
110.8898178055
 20
-25.8453840763
 40
101.7848336489
100
AcDbArc
 50
181.7882437574
 51
182.3475541799
  0
ARC
  5
307
100
AcDbEntity
  8
0
100
AcDbCircle
 62
7
  6
CONTINUOUS
 10
111.1502124555
 20
-26.0556445915
 40
101.6174137558
100
AcDbArc
 50
181.8982217923
 51
182.1305657518
  0
ARC
  5
308
100
AcDbEntity
  8
0
100
AcDbCircle
 62
7
  6
CONTINUOUS
 10
110.6507847395
 20
-26.0742242874
 40
101.1176405586
100
AcDbArc
 50
182.1305659114
 51
182.3634405349
  0
ARC
  5
309
100
AcDbEntity
  8
SUPERFICI
100
AcDbCircle
 62
7
  6
CONTINUOUS
 10
110.6307796412
 20
-26.0530326822
 40
101.055208213
100
AcDbArc
 50
182.1317289417
 51
182.3647287356
  0
ARC
  5
30A
100
AcDbEntity
  8
0
100
AcDbCircle
 62
7
  6
CONTINUOUS
 10
109.8427619023
 20
-25.8873696988
 40
100.7369367229
100
AcDbArc
 50
182.348087775
 51
182.5822241605
  0
ARC
  5
30B
100
AcDbEntity
  8
SUPERFICI
100
AcDbCircle
 62
7
  6
CONTINUOUS
 10
110.0642815417
 20
-26.0764746621
 40
100.4882253025
100
AcDbArc
 50
182.3647013823
 51
182.5984304709
  0
ARC
  5
30C
100
AcDbEntity
  8
0
100
AcDbCircle
 62
7
  6
CONTINUOUS
 10
109.4546998351
 20
-26.1253497334
 40
99.9204648057
100
AcDbArc
 50
182.3624326678
 51
183.0657154128
  0
ARC
  5
30D
100
AcDbEntity
  8
SUPERFICI
100
AcDbCircle
 62
7
  6
CONTINUOUS
 10
109.4330746804
 20
-26.1051198657
 40
99.8563687923
100
AcDbArc
 50
182.5984307035
 51
182.8330536181
  0
ARC
  5
30E
100
AcDbEntity
  8
0
100
AcDbCircle
 62
7
  6
CONTINUOUS
 10
108.8556324532
 20
-25.9325758666
 40
99.7487729357
100
AcDbArc
 50
182.58182951
 51
183.0588664378
  0
ARC
  5
30F
100
AcDbEntity
  8
SUPERFICI
100
AcDbCircle
 62
7
  6
CONTINUOUS
 10
108.808910999
 20
-26.1360070877
 40
99.2314413392
100
AcDbArc
 50
182.833053862
 51
183.0685695285
  0
ARC
  5
310
100
AcDbEntity
  8
0
100
AcDbCircle
 62
7
  6
CONTINUOUS
 10
114.9458445564
 20
-28.1674216796
 40
101.2150691177
100
AcDbArc
 50
182.3554395105
 51
182.5860977113
  0
ARC
  5
311
100
AcDbEntity
  8
0
100
AcDbCircle
 62
7
  6
CONTINUOUS
 10
113.7693026837
 20
-28.4786224213
 40
99.6061489684
100
AcDbArc
 50
182.5848398994
 51
182.9532300021
  0
ARC
  5
312
100
AcDbEntity
  8
0
100
AcDbCircle
 62
7
  6
CONTINUOUS
 10
112.9163058552
 20
-28.2591023885
 40
99.1834607174
100
AcDbArc
 50
182.5860900047
 51
182.8236448333
  0
ARC
  5
313
100
AcDbEntity
  8
SUPERFICI
100
AcDbCircle
 62
7
  6
CONTINUOUS
 10
113.1347012976
 20
-28.4876028822
 40
98.9283784786
100
AcDbArc
 50
182.6773304597
 51
183.0491684592
  0
ARC
  5
314
100
AcDbEntity
  8
0
100
AcDbCircle
 62
7
  6
CONTINUOUS
 10
116.8675566573
 20
-19.2652770639
 40
105.7264521852
100
AcDbArc
 50
185.8642598711
 51
186.3360804448
  0
ARC
  5
315
100
AcDbEntity
  8
SUPERFICI
100
AcDbCircle
 62
7
  6
CONTINUOUS
 10
116.8389050099
 20
-19.249508032
 40
105.6551626139
100
AcDbArc
 50
185.8652556288
 51
186.3372370427
  0
ARC
  5
316
100
AcDbEntity
  8
0
100
AcDbCircle
 62
7
  6
CONTINUOUS
 10
115.5329552022
 20
-19.4125339276
 40
104.3837516405
100
AcDbArc
 50
186.3365906582
 51
186.5728415301
  0
ARC
  5
317
100
AcDbEntity
  8
SUPERFICI
100
AcDbCircle
 62
7
  6
CONTINUOUS
 10
115.5058473289
 20
-19.3966217023
 40
104.3140122348
100
AcDbArc
 50
186.3377470592
 51
186.5741342933
  0
ARC
  5
318
100
AcDbEntity
  8
0
100
AcDbCircle
 62
7
  6
CONTINUOUS
 10
114.9143822203
 20
-19.4836331611
 40
103.7611059912
100
AcDbArc
 50
186.5729375209
 51
186.8088045133
  0
ARC
  5
319
100
AcDbEntity
  8
SUPERFICI
100
AcDbCircle
 62
7
  6
CONTINUOUS
 10
114.8887234085
 20
-19.4675675844
 40
103.6928236799
100
AcDbArc
 50
186.5742306184
 51
186.8102702513
  0
ARC
  5
31A
100
AcDbEntity
  8
SUPERFICI
100
AcDbCircle
 62
7
  6
CONTINUOUS
 10
114.5254304723
 20
-19.5109524976
 40
103.3269493733
100
AcDbArc
 50
186.8102709088
 51
187.0453804868
  0
ARC
  5
31B
100
AcDbEntity
  8
0
100
AcDbCircle
 62
7
  6
CONTINUOUS
 10
114.368437012
 20
-19.5491918043
 40
103.2112387638
100
AcDbArc
 50
186.8085986176
 51
187.2774289153
  0
ARC
  5
31C
100
AcDbEntity
  8
SUPERFICI
100
AcDbCircle
 62
7
  6
CONTINUOUS
 10
114.2054578009
 20
-19.5504465846
 40
103.0045485502
100
AcDbArc
 50
187.0454085824
 51
187.2267356968
  0
ARC
  5
31D
100
AcDbEntity
  8
0
100
AcDbCircle
 62
7
  6
CONTINUOUS
 10
111.7806790314
 20
-25.8164494076
 40
102.6761639434
100
AcDbArc
 50
181.662151528
 51
181.7888691081
  0
ARC
  5
31E
100
AcDbEntity
  8
0
100
AcDbCircle
 62
7
  6
CONTINUOUS
 10
113.2991950843
 20
-21.5796058505
 40
102.305156778
100
AcDbArc
 50
185.312151698
 51
185.4671834982
  0
ARC
  5
31F
100
AcDbEntity
  8
SUPERFICI
100
AcDbCircle
 62
7
  6
CONTINUOUS
 10
111.7390146358
 20
-26.0145688145
 40
102.1641136932
100
AcDbArc
 50
181.6674825575
 51
181.8024572039
  0
ARC
  5
320
100
AcDbEntity
  8
0
100
AcDbCircle
 62
7
  6
CONTINUOUS
 10
111.6535249577
 20
-26.0389639008
 40
102.1210025964
100
AcDbArc
 50
181.6664080561
 51
181.8982216427
  0
ARC
  5
321
100
AcDbEntity
  8
0
100
AcDbCircle
 62
7
  6
CONTINUOUS
 10
113.0446442844
 20
-21.6039687579
 40
102.0494427561
100
AcDbArc
 50
185.4671837261
 51
185.6218033682
  0
ARC
  5
322
100
AcDbEntity
  8
0
100
AcDbCircle
 62
7
  6
CONTINUOUS
 10
112.6976521358
 20
-21.6382663473
 40
101.7007597253
100
AcDbArc
 50
185.621724094
 51
185.9296179347
  0
ARC
  5
323
100
AcDbEntity
  8
SUPERFICI
100
AcDbCircle
 62
7
  6
CONTINUOUS
 10
111.2351152637
 20
-26.0307095417
 40
101.6599559603
100
AcDbArc
 50
181.802297547
 51
182.1316320899
  0
ARC
  5
324
100
AcDbEntity
  8
0
100
AcDbCircle
 62
7
  6
CONTINUOUS
 10
112.3683559032
 20
-21.6723182531
 40
101.3697075861
100
AcDbArc
 50
185.9297020385
 51
186.08294727
  0
ARC
  5
325
100
AcDbEntity
  8
RACCORDO
100
AcDbCircle
 62
253
  6
CONTINUOUS
 10
116.1965615357
 20
22.0639087703
 40
126.7858067877
100
AcDbArc
 50
173.5050009669
 51
173.924075991
  0
ARC
  5
326
100
AcDbEntity
  8
RACCORDO
100
AcDbCircle
 62
253
  6
CONTINUOUS
 10
115.3410076384
 20
22.1555570104
 40
125.9253583368
100
AcDbArc
 50
173.9243381823
 51
174.1069575623
  0
ARC
  5
327
100
AcDbEntity
  8
RACCORDO
100
AcDbCircle
 62
253
  6
CONTINUOUS
 10
114.511567089
 20
22.2407354037
 40
125.0915557247
100
AcDbArc
 50
174.1067597572
 51
174.4624531067
  0
ARC
  5
328
100
AcDbEntity
  8
RACCORDO
100
AcDbCircle
 62
253
  6
CONTINUOUS
 10
110.1060632009
 20
22.6422947013
 40
120.6678617842
100
AcDbArc
 50
174.4503749769
 51
177.4019838784
  0
ARC
  5
329
100
AcDbEntity
  8
RACCORDO
100
AcDbCircle
 62
253
  6
CONTINUOUS
 10
104.8786045014
 20
22.9326046888
 40
115.4325052994
100
AcDbArc
 50
177.4283202353
 51
177.6077486433
  0
ARC
  5
32A
100
AcDbEntity
  8
RACCORDO
100
AcDbCircle
 62
253
  6
CONTINUOUS
 10
103.4051248976
 20
22.9913537631
 40
113.9578576733
100
AcDbArc
 50
177.6063378665
 51
178.4489587812
  0
ARC
  5
32B
100
AcDbEntity
  8
RACCORDO
100
AcDbCircle
 62
253
  6
CONTINUOUS
 10
63.3478616724
 20
101.5778663706
 40
111.5826278477
100
AcDbArc
 50
245.9282516454
 51
246.0934808835
  0
ARC
  5
32C
100
AcDbEntity
  8
RACCORDO
100
AcDbCircle
 62
253
  6
CONTINUOUS
 10
62.3384611029
 20
99.3323633832
 40
109.1206896488
100
AcDbArc
 50
244.9467391247
 51
245.9312560914
  0
ARC
  5
32D
100
AcDbEntity
  8
0
100
AcDbCircle
 62
7
  6
CONTINUOUS
 10
123.8216372468
 20
-27.8395056782
 40
110.0969576569
100
AcDbArc
 50
181.7116656353
 51
181.9178659347
  0
ARC
  5
32E
100
AcDbEntity
  8
0
100
AcDbCircle
 62
7
  6
CONTINUOUS
 10
123.9053803655
 20
-28.0497730467
 40
109.7653475924
100
AcDbArc
 50
181.9186308401
 51
182.2332810599
  0
ARC
  5
32F
100
AcDbEntity
  8
SUPERFICI
100
AcDbCircle
 62
7
  6
CONTINUOUS
 10
123.5791602385
 20
-28.0406560665
 40
109.3964592962
100
AcDbArc
 50
181.9774325477
 51
182.213965166
  0
ARC
  5
330
100
AcDbEntity
  8
0
100
AcDbCircle
 62
7
  6
CONTINUOUS
 10
120.5694693993
 20
-27.9484253405
 40
106.8429663845
100
AcDbArc
 50
181.9178557901
 51
182.1323417541
  0
ARC
  5
331
100
AcDbEntity
  8
0
100
AcDbCircle
 62
7
  6
CONTINUOUS
 10
117.4745756134
 20
-28.0636778303
 40
103.745927366
100
AcDbArc
 50
182.1323315297
 51
182.3552897898
  0
ARC
  5
332
100
AcDbEntity
  8
RACCORDO
100
AcDbCircle
 62
253
  6
CONTINUOUS
 10
123.3823199955
 20
21.1329219645
 40
134.031840054
100
AcDbArc
 50
169.7921928724
 51
172.5503546538
  0
ARC
  5
333
100
AcDbEntity
  8
RACCORDO
100
AcDbCircle
 62
253
  6
CONTINUOUS
 10
119.2518748658
 20
21.6984148821
 40
129.8629427867
100
AcDbArc
 50
172.561467488
 51
172.7618819427
  0
ARC
  5
334
100
AcDbEntity
  8
RACCORDO
100
AcDbCircle
 62
253
  6
CONTINUOUS
 10
117.8101530229
 20
21.8788173937
 40
128.4099787078
100
AcDbArc
 50
172.8001291256
 51
173.5043853959
  0
ARC
  5
335
100
AcDbEntity
  8
SUPERFICI
100
AcDbCircle
 62
7
  6
CONTINUOUS
 10
128.4846163466
 20
-0.1328623277
 40
123.8694997806
100
AcDbArc
 50
193.4877662877
 51
193.789252477
  0
ARC
  5
336
100
AcDbEntity
  8
0
100
AcDbCircle
 62
7
  6
CONTINUOUS
 10
128.3220221214
 20
-0.1860179808
 40
123.7452420389
100
AcDbArc
 50
193.4865846488
 51
193.9401337655
  0
ARC
  5
337
100
AcDbEntity
  8
SUPERFICI
100
AcDbCircle
 62
7
  6
CONTINUOUS
 10
127.9556306272
 20
-0.2623820306
 40
123.3248887673
100
AcDbArc
 50
193.7893907449
 51
193.9031683124
  0
ARC
  5
338
100
AcDbEntity
  8
RACCORDO
100
AcDbCircle
 62
253
  6
CONTINUOUS
 10
127.4580152212
 20
14.285808305
 40
121.404264625
100
AcDbArc
 50
173.7081124542
 51
177.3951005721
  0
ARC
  5
339
100
AcDbEntity
  8
RACCORDO
100
AcDbCircle
 62
253
  6
CONTINUOUS
 10
120.281359989
 20
14.6744204258
 40
114.21721658
100
AcDbArc
 50
177.4262237382
 51
178.4482519795
  0
ARC
  5
33A
100
AcDbEntity
  8
0
100
AcDbCircle
 62
7
  6
CONTINUOUS
 10
129.9351914444
 20
-4.6883761559
 40
120.0993908728
100
AcDbArc
 50
192.9643922798
 51
193.1294912034
  0
ARC
  5
33B
100
AcDbEntity
  8
0
100
AcDbCircle
 62
7
  6
CONTINUOUS
 10
128.97638374
 20
-3.9595560363
 40
119.337718635
100
AcDbArc
 50
194.0397126784
 51
194.2191558525
  0
ARC
  5
33C
100
AcDbEntity
  8
RACCORDO
100
AcDbCircle
 62
253
  6
CONTINUOUS
 10
139.7246057903
 20
12.869697907
 40
133.7534404454
100
AcDbArc
 50
169.7904270097
 51
172.8255983911
  0
ARC
  5
33D
100
AcDbEntity
  8
0
100
AcDbCircle
 62
7
  6
CONTINUOUS
 10
138.4694264828
 20
7.9946945128
 40
133.4076709208
100
AcDbArc
 50
196.2919690062
 51
196.4093685747
  0
ARC
  5
33E
100
AcDbEntity
  8
SUPERFICI
100
AcDbCircle
 62
7
  6
CONTINUOUS
 10
138.4303879674
 20
7.9943447764
 40
133.3233995992
100
AcDbArc
 50
196.2928935201
 51
196.4103406111
  0
ARC
  5
33F
100
AcDbEntity
  8
0
100
AcDbCircle
 62
7
  6
CONTINUOUS
 10
137.7456544058
 20
8.3059821525
 40
133.1100277329
100
AcDbArc
 50
196.8292364484
 51
196.9676844462
  0
ARC
  5
340
100
AcDbEntity
  8
0
100
AcDbCircle
 62
7
  6
CONTINUOUS
 10
138.1097842931
 20
7.8887817095
 40
133.0327575621
100
AcDbArc
 50
196.4093683897
 51
196.5273949017
  0
ARC
  5
341
100
AcDbEntity
  8
SUPERFICI
100
AcDbCircle
 62
7
  6
CONTINUOUS
 10
137.9978405318
 20
7.8668878834
 40
132.8724644159
100
AcDbArc
 50
196.4103131337
 51
196.5767594629
  0
ARC
  5
342
100
AcDbEntity
  8
0
100
AcDbCircle
 62
7
  6
CONTINUOUS
 10
137.3848538907
 20
8.1958962835
 40
132.7328064315
100
AcDbArc
 50
196.9676842148
 51
197.1068548334
  0
ARC
  5
343
100
AcDbEntity
  8
0
100
AcDbCircle
 62
7
  6
CONTINUOUS
 10
137.7506847853
 20
7.7822243528
 40
132.6581818999
100
AcDbArc
 50
196.5273947161
 51
196.6460519385
  0
ARC
  5
344
100
AcDbEntity
  8
0
100
AcDbCircle
 62
7
  6
CONTINUOUS
 10
137.024413155
 20
8.0849624676
 40
132.355680676
100
AcDbArc
 50
197.1068546013
 51
197.2467527188
  0
ARC
  5
345
100
AcDbEntity
  8
SUPERFICI
100
AcDbCircle
 62
7
  6
CONTINUOUS
 10
137.4003935518
 20
7.6889941227
 40
132.2490952783
100
AcDbArc
 50
196.5767383174
 51
196.8862016222
  0
ARC
  5
346
100
AcDbEntity
  8
0
100
AcDbCircle
 62
7
  6
CONTINUOUS
 10
137.2816648321
 20
7.6418408274
 40
132.1686032755
100
AcDbArc
 50
196.6459887967
 51
196.8850800187
  0
ARC
  5
347
100
AcDbEntity
  8
0
100
AcDbCircle
 62
7
  6
CONTINUOUS
 10
136.6873465029
 20
7.9803311833
 40
132.0027477736
100
AcDbArc
 50
197.2467567597
 51
197.3873616084
  0
ARC
  5
348
100
AcDbEntity
  8
0
100
AcDbCircle
 62
7
  6
CONTINUOUS
 10
136.3732555607
 20
7.8819765974
 40
131.6736174886
100
AcDbArc
 50
197.3873613873
 51
197.5286520474
  0
ARC
  5
349
100
AcDbEntity
  8
SUPERFICI
100
AcDbCircle
 62
7
  6
CONTINUOUS
 10
136.8110150106
 20
7.5106002277
 40
131.6333102511
100
AcDbArc
 50
196.8864173563
 51
197.0069269949
  0
ARC
  5
34A
100
AcDbEntity
  8
0
100
AcDbCircle
 62
7
  6
CONTINUOUS
 10
136.0590696749
 20
7.7827408724
 40
131.3441322841
100
AcDbArc
 50
197.5286518256
 51
197.6706329419
  0
ARC
  5
34B
100
AcDbEntity
  8
0
100
AcDbCircle
 62
7
  6
CONTINUOUS
 10
133.2231226864
 20
4.5611453211
 40
130.0307143007
100
AcDbArc
 50
194.4437996701
 51
194.5944318388
  0
ARC
  5
34C
100
AcDbEntity
  8
0
100
AcDbCircle
 62
7
  6
CONTINUOUS
 10
132.6669107589
 20
4.4160961225
 40
129.4559004779
100
AcDbArc
 50
194.5943356562
 51
194.8757854155
  0
ARC
  5
34D
100
AcDbEntity
  8
0
100
AcDbCircle
 62
7
  6
CONTINUOUS
 10
132.0340299705
 20
4.2481184305
 40
128.8011069372
100
AcDbArc
 50
194.8758423771
 51
195.090639969
  0
ARC
  5
34E
100
AcDbEntity
  8
0
100
AcDbCircle
 62
7
  6
CONTINUOUS
 10
137.391191657
 20
0.7045942249
 40
128.2865298995
100
AcDbArc
 50
194.1810286382
 51
194.3908515953
  0
ARC
  5
34F
100
AcDbEntity
  8
RACCORDO
100
AcDbCircle
 62
253
  6
CONTINUOUS
 10
134.2674598478
 20
13.5891077094
 40
128.2491751588
100
AcDbArc
 50
172.9096705338
 51
173.5046814357
  0
ARC
  5
350
100
AcDbEntity
  8
0
100
AcDbCircle
 62
7
  6
CONTINUOUS
 10
131.4890980162
 20
4.101179838
 40
128.2367118763
100
AcDbArc
 50
195.0906398976
 51
195.3045936776
  0
ARC
  5
351
100
AcDbEntity
  8
SUPERFICI
100
AcDbCircle
 62
7
  6
CONTINUOUS
 10
137.3635260742
 20
0.7101902427
 40
128.2147167119
100
AcDbArc
 50
194.1819328711
 51
194.3915454209
  0
ARC
  5
352
100
AcDbEntity
  8
0
100
AcDbCircle
 62
7
  6
CONTINUOUS
 10
130.9476085663
 20
3.953000799
 40
127.6753137539
100
AcDbArc
 50
195.3045947058
 51
195.5176953021
  0
ARC
  5
353
100
AcDbEntity
  8
0
100
AcDbCircle
 62
7
  6
CONTINUOUS
 10
136.6096741093
 20
0.504063427
 40
127.4796951715
100
AcDbArc
 50
194.3908497658
 51
194.603494679
  0
ARC
  5
354
100
AcDbEntity
  8
0
100
AcDbCircle
 62
7
  6
CONTINUOUS
 10
130.4133627552
 20
3.8046660021
 40
127.1208574448
100
AcDbArc
 50
195.5176963363
 51
195.7299278626
  0
ARC
  5
355
100
AcDbEntity
  8
RACCORDO
100
AcDbCircle
 62
253
  6
CONTINUOUS
 10
133.1365058624
 20
13.7192195187
 40
127.1107621467
100
AcDbArc
 50
173.5052858174
 51
173.6960466782
  0
ARC
  5
356
100
AcDbEntity
  8
SUPERFICI
100
AcDbCircle
 62
7
  6
CONTINUOUS
 10
136.0856522336
 20
0.3809522694
 40
126.8951105625
100
AcDbArc
 50
194.4462458317
 51
194.8194477146
  0
ARC
  5
357
100
AcDbEntity
  8
0
100
AcDbCircle
 62
7
  6
CONTINUOUS
 10
135.8308490884
 20
0.3011397609
 40
126.6748682166
100
AcDbArc
 50
194.6034928336
 51
194.8189955547
  0
ARC
  5
358
100
AcDbEntity
  8
0
100
AcDbCircle
 62
7
  6
CONTINUOUS
 10
135.0593521852
 20
0.0970266303
 40
125.8768270887
100
AcDbArc
 50
194.8189950272
 51
195.0373835296
  0
ARC
  5
359
100
AcDbEntity
  8
SUPERFICI
100
AcDbCircle
 62
7
  6
CONTINUOUS
 10
135.0243546438
 20
0.1006811831
 40
125.7974292792
100
AcDbArc
 50
194.8196772249
 51
195.0382691931
  0
ARC
  5
35A
100
AcDbEntity
  8
0
100
AcDbCircle
 62
7
  6
CONTINUOUS
 10
129.8323990934
 20
0.1738945443
 40
125.297914046
100
AcDbArc
 50
193.043585813
 51
193.1902469486
  0
ARC
  5
35B
100
AcDbEntity
  8
0
100
AcDbCircle
 62
7
  6
CONTINUOUS
 10
134.2947359749
 20
-0.1083908281
 40
125.0850984222
100
AcDbArc
 50
195.0373815989
 51
195.2586846079
  0
ARC
  5
35C
100
AcDbEntity
  8
SUPERFICI
100
AcDbCircle
 62
7
  6
CONTINUOUS
 10
129.6141663243
 20
0.1365572343
 40
125.0307378551
100
AcDbArc
 50
193.0444025045
 51
193.338820346
  0
ARC
  5
35D
100
AcDbEntity
  8
SUPERFICI
100
AcDbCircle
 62
7
  6
CONTINUOUS
 10
134.2572875894
 20
-0.1054077406
 40
125.0031594822
100
AcDbArc
 50
195.0382671121
 51
195.2599153755
  0
ARC
  5
35E
100
AcDbEntity
  8
0
100
AcDbCircle
 62
7
  6
CONTINUOUS
 10
129.2737513131
 20
0.0427096953
 40
124.7240702128
100
AcDbArc
 50
193.1901326658
 51
193.4867961152
  0
ARC
  5
35F
100
AcDbEntity
  8
SUPERFICI
100
AcDbCircle
 62
7
  6
CONTINUOUS
 10
129.0570033677
 20
0.0047003148
 40
124.4581850207
100
AcDbArc
 50
193.3389321
 51
193.4878889163
  0
ARC
  5
360
100
AcDbEntity
  8
SUPERFICI
100
AcDbCircle
 62
7
  6
CONTINUOUS
 10
133.4921527956
 20
-0.3141544094
 40
124.2100602297
100
AcDbArc
 50
195.2599132742
 51
195.4846577152
  0
ARC
  5
361
100
AcDbEntity
  8
0
100
AcDbCircle
 62
7
  6
CONTINUOUS
 10
133.4152695016
 20
-0.3486626503
 40
124.173400859
100
AcDbArc
 50
195.3277411937
 51
195.4829992463
  0
ARC
  5
362
100
AcDbEntity
  8
RACCORDO
100
AcDbCircle
 62
253
  6
CONTINUOUS
 10
264.9183094522
 20
589.980435429
 40
629.2275983376
100
AcDbArc
 50
243.2443619016
 51
243.3807081732
  0
SPLINE
  5
363
100
AcDbEntity
  8
SUPERFICI
100
AcDbSpline
 62
7
  6
CONTINUOUS
 70
0
 71
3
 72
9
 73
5
 74
3
 42
0.0000001
 43
0.0000001
 44
0.0000000001
 12
-1.2877596021
 22
0.6438798011
 32
0.0
 13
-1.2619714153
 23
-0.7644736371
 33
0.0
 40
0.0
 40
0.0
 40
0.0
 40
0.0
 40
0.747489447
 40
1.0
 40
1.0
 40
1.0
 40
1.0
 10
-27.8616304482
 20
59.2417402457
 30
0.0
 10
-28.1824926859
 20
59.4021713645
 30
0.0
 10
-28.7019900548
 20
59.5398023368
 30
0.0
 10
-29.155554008
 20
59.3482417582
 30
0.0
 10
-29.2617743746
 20
59.2838958713
 30
0.0
 11
-27.8616304482
 21
59.2417402457
 31
0.0
 11
-28.92229062
 21
59.4239941203
 31
0.0
 11
-29.2617743746
 21
59.2838958713
 31
0.0
  0
SPLINE
  5
364
100
AcDbEntity
  8
0
100
AcDbSpline
 62
7
  6
CONTINUOUS
 70
0
 71
3
 72
9
 73
5
 74
3
 42
0.0000001
 43
0.0000001
 44
0.0000000001
 12
-0.1181457857
 22
-0.0605218646
 32
0.0
 13
-0.1086201284
 23
0.0766572264
 33
0.0
 40
0.0
 40
0.0
 40
0.0
 40
0.0
 40
0.2257156537
 40
1.0
 40
1.0
 40
1.0
 40
1.0
 10
15.0118855729
 20
-32.9398538984
 30
0.0
 10
15.0029964551
 20
-32.9444074758
 30
0.0
 10
14.9618747944
 20
-32.9592750266
 30
0.0
 10
14.9130447643
 20
-32.9411260438
 30
0.0
 10
14.8850104759
 20
-32.9213412136
 30
0.0
 11
15.0118855729
 21
-32.9398538984
 31
0.0
 11
14.9840401275
 21
-32.949437042
 31
0.0
 11
14.8850104759
 21
-32.9213412136
 31
0.0
  0
SPLINE
  5
365
100
AcDbEntity
  8
SUPERFICI
100
AcDbSpline
 62
7
  6
CONTINUOUS
 70
0
 71
3
 72
10
 73
6
 74
4
 42
0.0000001
 43
0.0000001
 44
0.0000000001
 12
0.0
 22
4.3940700466
 32
0.0
 13
-3.9301757288
 23
1.9650878644
 33
0.0
 40
0.0
 40
0.0
 40
0.0
 40
0.0
 40
0.3342904765
 40
0.6865843886
 40
1.0
 40
1.0
 40
1.0
 40
1.0
 10
37.1921934209
 20
24.1167520998
 30
0.0
 10
37.1921934209
 20
24.606384023
 30
0.0
 10
36.968823847
 20
25.6142049613
 30
0.0
 10
36.2337473089
 20
26.8984613052
 30
0.0
 10
35.4814658871
 20
27.5701920781
 30
0.0
 10
35.0708730774
 20
27.7754884829
 30
0.0
 11
37.1921934209
 21
24.1167520998
 31
0.0
 11
36.9079903845
 21
25.5578917237
 31
0.0
 11
36.1315332492
 21
26.8970821857
 31
0.0
 11
35.0708730774
 21
27.7754884829
 31
0.0
  0
SPLINE
  5
366
100
AcDbEntity
  8
0
100
AcDbSpline
 62
7
  6
CONTINUOUS
 70
0
 71
3
 72
10
 73
6
 74
4
 42
0.0000001
 43
0.0000001
 44
0.0000000001
 12
0.0
 22
-0.4394070047
 32
0.0
 13
0.3930175729
 23
-0.1965087864
 33
0.0
 40
0.0
 40
0.0
 40
0.0
 40
0.0
 40
0.3342904765
 40
0.6865843886
 40
1.0
 40
1.0
 40
1.0
 40
1.0
 10
-16.1590132196
 20
-10.833216901
 30
0.0
 10
-16.1590132196
 20
-10.8821800933
 30
0.0
 10
-16.1366762622
 20
-10.9829621871
 30
0.0
 10
-16.0631686084
 20
-11.1113878215
 30
0.0
 10
-15.9879404662
 20
-11.1785608988
 30
0.0
 10
-15.9468811852
 20
-11.1990905393
 30
0.0
 11
-16.1590132196
 21
-10.833216901
 31
0.0
 11
-16.1305929159
 21
-10.9773308634
 31
0.0
 11
-16.0529472024
 21
-11.1112499095
 31
0.0
 11
-15.9468811852
 21
-11.1990905393
 31
0.0
  0
SPLINE
  5
367
100
AcDbEntity
  8
RACCORDO
100
AcDbSpline
 62
7
  6
CONTINUOUS
 70
0
 71
3
 72
10
 73
6
 74
4
 42
0.0000001
 43
0.0000001
 44
0.0000000001
 12
0.2721276121
 22
0.1569084644
 32
0.0
 13
0.0005624258
 23
0.3144289218
 33
0.0
 40
0.0
 40
0.0
 40
0.0
 40
0.0
 40
0.2480219851
 40
0.7448357283
 40
1.0
 40
1.0
 40
1.0
 40
1.0
 10
-2.5281644053
 20
-17.6397959646
 30
0.0
 10
-2.5056665285
 20
-17.626823715
 30
0.0
 10
-2.4428239287
 20
-17.5791653076
 30
0.0
 10
-2.3884239709
 20
-17.4860932129
 30
0.0
 10
-2.3780035919
 20
-17.4070299065
 30
0.0
 10
-2.3779557549
 20
-17.3802862309
 30
0.0
 11
-2.5281644053
 21
-17.6397959646
 31
0.0
 11
-2.4662900318
 21
-17.5926820287
 31
0.0
 11
-2.388585685
 21
-17.4596411598
 31
0.0
 11
-2.3779557549
 21
-17.3802862309
 31
0.0
  0
SPLINE
  5
368
100
AcDbEntity
  8
RACCORDO
100
AcDbSpline
 62
7
  6
CONTINUOUS
 70
0
 71
3
 72
10
 73
6
 74
4
 42
0.0000001
 43
0.0000001
 44
0.0000000001
 12
0.2721276121
 22
0.1569084644
 32
0.0
 13
0.0005624258
 23
0.3144289218
 33
0.0
 40
0.0
 40
0.0
 40
0.0
 40
0.0
 40
0.2480219851
 40
0.7448357283
 40
1.0
 40
1.0
 40
1.0
 40
1.0
 10
13.3817381714
 20
-25.5947472529
 30
0.0
 10
13.4042360482
 20
-25.5817750033
 30
0.0
 10
13.467078648
 20
-25.534116596
 30
0.0
 10
13.5214786058
 20
-25.4410445013
 30
0.0
 10
13.5318989848
 20
-25.3619811948
 30
0.0
 10
13.5319468218
 20
-25.3352375192
 30
0.0
 11
13.3817381714
 21
-25.5947472529
 31
0.0
 11
13.4436125449
 21
-25.547633317
 31
0.0
 11
13.5213168917
 21
-25.4145924482
 31
0.0
 11
13.5319468218
 21
-25.3352375192
 31
0.0
  0
SPLINE
  5
369
100
AcDbEntity
  8
RACCORDO
100
AcDbSpline
 62
7
  6
CONTINUOUS
 70
0
 71
3
 72
9
 73
5
 74
3
 42
0.0000001
 43
0.0000001
 44
0.0000000001
 12
0.2701410355
 22
0.1549407229
 32
0.0
 13
-0.0006404762
 23
0.3156455672
 33
0.0
 40
0.0
 40
0.0
 40
0.0
 40
0.0
 40
0.4934403201
 40
1.0
 40
1.0
 40
1.0
 40
1.0
 10
-14.8097740441
 20
18.4302776743
 30
0.0
 10
-14.7653412178
 20
18.455762341
 30
0.0
 10
-14.6874709862
 20
18.5325294029
 30
0.0
 10
-14.6589252847
 20
18.637219688
 30
0.0
 10
-14.6590334312
 20
18.6905174605
 30
0.0
 11
-14.8097740441
 21
18.4302776743
 31
0.0
 11
-14.7005022956
 21
18.5383211081
 31
0.0
 11
-14.6590334312
 21
18.6905174605
 31
0.0
  0
SPLINE
  5
36A
100
AcDbEntity
  8
RACCORDO
100
AcDbSpline
 62
7
  6
CONTINUOUS
 70
0
 71
3
 72
10
 73
6
 74
4
 42
0.0000001
 43
0.0000001
 44
0.0000000001
 12
0.0
 22
0.3287179177
 32
0.0
 13
-0.2987242032
 23
0.1480191003
 33
0.0
 40
0.0
 40
0.0
 40
0.0
 40
0.0
 40
0.4608751492
 40
0.9273005524
 40
1.0
 40
1.0
 40
1.0
 40
1.0
 10
-14.6590326767
 20
23.255000892
 30
0.0
 10
-14.6590326767
 20
23.3055001984
 30
0.0
 10
-14.6858841459
 20
23.4089588056
 30
0.0
 10
-14.7653167393
 20
23.491061645
 30
0.0
 10
-14.8179050402
 20
23.5198127534
 30
0.0
 10
-14.8251440683
 20
23.5233997224
 30
0.0
 11
-14.6590326767
 21
23.255000892
 31
0.0
 11
-14.697285376
 21
23.4015899454
 31
0.0
 11
-14.8038998256
 21
23.5117766668
 31
0.0
 11
-14.8251440683
 21
23.5233997224
 31
0.0
  0
SPLINE
  5
36B
100
AcDbEntity
  8
RACCORDO
100
AcDbSpline
 62
7
  6
CONTINUOUS
 70
0
 71
3
 72
10
 73
6
 74
4
 42
0.0000001
 43
0.0000001
 44
0.0000000001
 12
0.0
 22
0.3287179177
 32
0.0
 13
-0.2987242032
 23
0.1480191003
 33
0.0
 40
0.0
 40
0.0
 40
0.0
 40
0.0
 40
0.4608751492
 40
0.9273005524
 40
1.0
 40
1.0
 40
1.0
 40
1.0
 10
-14.6590326767
 20
3.7694293068
 30
0.0
 10
-14.6590326767
 20
3.8199286133
 30
0.0
 10
-14.6858841459
 20
3.9233872204
 30
0.0
 10
-14.7653167393
 20
4.0054900598
 30
0.0
 10
-14.8179050402
 20
4.0342411683
 30
0.0
 10
-14.8251440683
 20
4.0378281372
 30
0.0
 11
-14.6590326767
 21
3.7694293068
 31
0.0
 11
-14.697285376
 21
3.9160183602
 31
0.0
 11
-14.8038998256
 21
4.0262050816
 31
0.0
 11
-14.8251440683
 21
4.0378281372
 31
0.0
  0
SPLINE
  5
36C
100
AcDbEntity
  8
RACCORDO
100
AcDbSpline
 62
7
  6
CONTINUOUS
 70
0
 71
3
 72
9
 73
5
 74
3
 42
0.0000001
 43
0.0000001
 44
0.0000000001
 12
0.2701410355
 22
0.1549407229
 32
0.0
 13
-0.0006404762
 23
0.3156455672
 33
0.0
 40
0.0
 40
0.0
 40
0.0
 40
0.0
 40
0.4934403201
 40
1.0
 40
1.0
 40
1.0
 40
1.0
 10
-14.8097740441
 20
-1.0552939108
 30
0.0
 10
-14.7653412178
 20
-1.0298092442
 30
0.0
 10
-14.6874709862
 20
-0.9530421822
 30
0.0
 10
-14.6589252847
 20
-0.8483518971
 30
0.0
 10
-14.6590334312
 20
-0.7950541247
 30
0.0
 11
-14.8097740441
 21
-1.0552939108
 31
0.0
 11
-14.7005022956
 21
-0.947250477
 31
0.0
 11
-14.6590334312
 21
-0.7950541247
 31
0.0
  0
SPLINE
  5
36D
100
AcDbEntity
  8
0
100
AcDbSpline
 62
7
  6
CONTINUOUS
 70
0
 71
3
 72
10
 73
6
 74
4
 42
0.0000001
 43
0.0000001
 44
0.0000000001
 12
0.8387318421
 22
-0.4189475091
 32
0.0
 13
-0.000348695
 23
-0.9375344147
 33
0.0
 40
0.0
 40
0.0
 40
0.0
 40
0.0
 40
0.2260272389
 40
0.6632923354
 40
1.0
 40
1.0
 40
1.0
 40
1.0
 10
13.2337037821
 20
11.2570851354
 30
0.0
 10
13.2968958629
 20
11.2255206191
 30
0.0
 10
13.4457728721
 20
11.0714521592
 30
0.0
 10
13.6032414777
 20
10.8007505113
 30
0.0
 10
13.6648543641
 20
10.5597781514
 30
0.0
 10
13.664815228
 20
10.4545531436
 30
0.0
 11
13.2337037821
 21
11.2570851354
 31
0.0
 11
13.3932010188
 21
11.1175586934
 31
0.0
 11
13.5998410891
 21
10.7634890525
 31
0.0
 11
13.664815228
 21
10.4545531436
 31
0.0
  0
SPLINE
  5
36E
100
AcDbEntity
  8
0
100
AcDbSpline
 62
7
  6
CONTINUOUS
 70
0
 71
3
 72
9
 73
5
 74
3
 42
0.0000001
 43
0.0000001
 44
0.0000000001
 12
0.0000670818
 22
-0.0527342843
 32
0.0
 13
0.0131891487
 23
-0.0201779901
 33
0.0
 40
0.0
 40
0.0
 40
0.0
 40
0.0
 40
0.7573681487
 40
1.0
 40
1.0
 40
1.0
 40
1.0
 10
13.664816049
 20
-28.0834522153
 30
0.0
 10
13.6648329842
 20
-28.0967653044
 30
0.0
 10
13.664781142
 20
-28.1188729342
 30
0.0
 10
13.6683559384
 20
-28.1283867327
 30
0.0
 10
13.6694226409
 20
-28.1300186738
 30
0.0
 11
13.664816049
 21
-28.0834522153
 31
0.0
 11
13.6668347204
 21
-28.1230286301
 31
0.0
 11
13.6694226409
 21
-28.1300186738
 31
0.0
  0
SPLINE
  5
36F
100
AcDbEntity
  8
SUPERFICI
100
AcDbSpline
 62
7
  6
CONTINUOUS
 70
0
 71
3
 72
9
 73
5
 74
3
 42
0.0000001
 43
0.0000001
 44
0.0000000001
 12
1.7918844005
 22
0.8071883358
 32
0.0
 13
0.0
 23
1.9340051951
 33
0.0
 40
0.0
 40
0.0
 40
0.0
 40
0.0
 40
0.3840074907
 40
1.0
 40
1.0
 40
1.0
 40
1.0
 10
36.3380937995
 20
-54.609089041
 30
0.0
 10
36.5674594769
 20
-54.5057669186
 30
0.0
 10
37.0925303308
 20
-54.0410233154
 30
0.0
 10
37.1921934209
 20
-53.3566197414
 30
0.0
 10
37.1921934209
 20
-52.959508837
 30
0.0
 11
36.3380937995
 21
-54.609089041
 31
0.0
 11
36.9079903845
 21
-54.1164454245
 31
0.0
 11
37.1921934209
 21
-52.959508837
 31
0.0
  0
SPLINE
  5
370
100
AcDbEntity
  8
0
100
AcDbSpline
 62
7
  6
CONTINUOUS
 70
0
 71
3
 72
9
 73
5
 74
3
 42
0.0000001
 43
0.0000001
 44
0.0000000001
 12
-0.4169504093
 22
0.2028866548
 32
0.0
 13
-0.4165539911
 23
0.203699315
 33
0.0
 40
0.0
 40
0.0
 40
0.0
 40
0.0
 40
0.4981559163
 40
1.0
 40
1.0
 40
1.0
 40
1.0
 10
15.3822163607
 20
-34.2990613898
 30
0.0
 10
15.3129809229
 20
-34.2653716607
 30
0.0
 10
15.1740332394
 20
-34.1976692117
 30
0.0
 10
15.0351514389
 20
-34.1298317291
 30
0.0
 10
14.9654697203
 20
-34.0957566304
 30
0.0
 11
15.3822163607
 21
-34.2990613898
 31
0.0
 11
15.1745620512
 21
-34.1978853998
 31
0.0
 11
14.9654697203
 21
-34.0957566304
 31
0.0
  0
SPLINE
  5
371
100
AcDbEntity
  8
0
100
AcDbSpline
 62
7
  6
CONTINUOUS
 70
0
 71
3
 72
9
 73
5
 74
3
 42
0.0000001
 43
0.0000001
 44
0.0000000001
 12
-0.1083587831
 22
0.4201273661
 32
0.0
 13
-0.1194073547
 23
0.4171284252
 33
0.0
 40
0.0
 40
0.0
 40
0.0
 40
0.0
 40
0.3298519323
 40
1.0
 40
1.0
 40
1.0
 40
1.0
 10
14.8941374012
 20
-33.82143819
 30
0.0
 10
14.8822232832
 20
-33.7752449155
 30
0.0
 10
14.8460802142
 20
-33.6351996339
 30
0.0
 10
14.8091183513
 20
-33.4953141531
 30
0.0
 10
14.7824448153
 20
-33.4021348837
 30
0.0
 11
14.8941374012
 21
-33.82143819
 31
0.0
 11
14.8582904742
 21
-33.6828738887
 31
0.0
 11
14.7824448153
 21
-33.4021348837
 31
0.0
  0
SPLINE
  5
372
100
AcDbEntity
  8
0
100
AcDbSpline
 62
7
  6
CONTINUOUS
 70
0
 71
3
 72
8
 73
4
 74
2
 42
0.0000001
 43
0.0000001
 44
0.0000000001
 12
-0.0277223428
 22
0.0883388826
 32
0.0
 13
-0.041331532
 23
0.0831794051
 33
0.0
 40
0.0
 40
0.0
 40
0.0
 40
0.0
 40
1.0
 40
1.0
 40
1.0
 40
1.0
 10
14.7398618721
 20
-33.2598111153
 30
0.0
 10
14.7306210912
 20
-33.2303648211
 30
0.0
 10
14.7187219162
 20
-33.2017200176
 30
0.0
 10
14.7049447388
 20
-33.1739935492
 30
0.0
 11
14.7398618721
 21
-33.2598111153
 31
0.0
 11
14.7049447388
 21
-33.1739935492
 31
0.0
  0
SPLINE
  5
373
100
AcDbEntity
  8
0
100
AcDbSpline
 62
7
  6
CONTINUOUS
 70
0
 71
3
 72
9
 73
5
 74
3
 42
0.0000001
 43
0.0000001
 44
0.0000000001
 12
-0.0894532029
 22
0.1800239149
 32
0.0
 13
-0.1360215095
 23
0.1497043223
 33
0.0
 40
0.0
 40
0.0
 40
0.0
 40
0.0
 40
0.2474035632
 40
1.0
 40
1.0
 40
1.0
 40
1.0
 10
14.7049447388
 20
-33.1739935492
 30
0.0
 10
14.6975677251
 20
-33.1591473632
 30
0.0
 10
14.6655736302
 20
-33.1002036227
 30
0.0
 10
14.6267400514
 20
-33.0458545421
 30
0.0
 10
14.5926169503
 20
-33.0082988956
 30
0.0
 11
14.7049447388
 21
-33.1739935492
 31
0.0
 11
14.6813181843
 21
-33.1302628127
 31
0.0
 11
14.5926169503
 21
-33.0082988956
 31
0.0
  0
SPLINE
  5
374
100
AcDbEntity
  8
0
100
AcDbSpline
 62
7
  6
CONTINUOUS
 70
0
 71
3
 72
8
 73
4
 74
2
 42
0.0000001
 43
0.0000001
 44
0.0000000001
 12
-0.0900963428
 22
0.0991594049
 32
0.0
 13
-0.1191744252
 23
0.0584307985
 33
0.0
 40
0.0
 40
0.0
 40
0.0
 40
0.0
 40
1.0
 40
1.0
 40
1.0
 40
1.0
 10
14.5926169503
 20
-33.0082988956
 30
0.0
 10
14.562584836
 20
-32.9752457606
 30
0.0
 10
14.5287594606
 20
-32.9447854112
 30
0.0
 10
14.4890346522
 20
-32.9253084784
 30
0.0
 11
14.5926169503
 21
-33.0082988956
 31
0.0
 11
14.4890346522
 21
-32.9253084784
 31
0.0
  0
LINE
  5
375
100
AcDbEntity
  8
0
100
AcDbLine
 62
7
  6
CONTINUOUS
 10
14.4890346522
 20
-32.9253084784
 11
14.3348236696
 21
-32.8496415643
  0
LINE
  5
376
100
AcDbEntity
  8
0
100
AcDbLine
 62
7
  6
CONTINUOUS
 10
14.3348236696
 20
-32.8496415643
 11
14.2574382876
 21
-32.8116278432
  0
LINE
  5
377
100
AcDbEntity
  8
0
100
AcDbLine
 62
7
  6
CONTINUOUS
 10
14.3038668004
 20
-33.771148137
 11
14.1613354146
 21
-33.7009599492
  0
LINE
  5
378
100
AcDbEntity
  8
0
100
AcDbLine
 62
7
  6
CONTINUOUS
 10
14.1613354146
 20
-33.7009599492
 11
13.9464886026
 21
-33.5950095039
  0
LINE
  5
379
100
AcDbEntity
  8
0
100
AcDbLine
 62
7
  6
CONTINUOUS
 10
13.9464886026
 20
-33.5950095039
 11
13.8745923531
 21
-33.5595159646
  0
SPLINE
  5
37A
100
AcDbEntity
  8
0
100
AcDbSpline
 62
7
  6
CONTINUOUS
 70
0
 71
3
 72
8
 73
4
 74
2
 42
0.0000001
 43
0.0000001
 44
0.0000000001
 12
-0.002971195
 22
0.0627716312
 32
0.0
 13
-0.0149836503
 23
0.0611424173
 33
0.0
 40
0.0
 40
0.0
 40
0.0
 40
0.0
 40
1.0
 40
1.0
 40
1.0
 40
1.0
 10
14.7948135528
 20
-32.3047606431
 30
0.0
 10
14.7938231545
 20
-32.2838367661
 30
0.0
 10
14.7905764934
 20
-32.2631478355
 30
0.0
 10
14.7855819433
 20
-32.2427670297
 30
0.0
 11
14.7948135528
 21
-32.3047606431
 31
0.0
 11
14.7855819433
 21
-32.2427670297
 31
0.0
  0
SPLINE
  5
37B
100
AcDbEntity
  8
0
100
AcDbSpline
 62
7
  6
CONTINUOUS
 70
0
 71
3
 72
9
 73
5
 74
3
 42
0.0000001
 43
0.0000001
 44
0.0000000001
 12
-0.0905211362
 22
0.3693813564
 32
0.0
 13
-0.2720886501
 23
0.2668211089
 33
0.0
 40
0.0
 40
0.0
 40
0.0
 40
0.0
 40
0.3753792561
 40
1.0
 40
1.0
 40
1.0
 40
1.0
 10
14.7855819433
 20
-32.2427670297
 30
0.0
 10
14.7742553577
 20
-32.1965476635
 30
0.0
 10
14.7201347705
 20
-32.0776419947
 30
0.0
 10
14.6442979267
 20
-31.9760390396
 30
0.0
 10
14.5876471883
 20
-31.9204850398
 30
0.0
 11
14.7855819433
 21
-32.2427670297
 31
0.0
 11
14.7305638375
 21
-32.1097163387
 31
0.0
 11
14.5876471883
 21
-31.9204850398
 31
0.0
  0
SPLINE
  5
37C
100
AcDbEntity
  8
0
100
AcDbSpline
 62
7
  6
CONTINUOUS
 70
0
 71
3
 72
8
 73
4
 74
2
 42
0.0000001
 43
0.0000001
 44
0.0000000001
 12
-0.1109741088
 22
0.1088256888
 32
0.0
 13
-0.1323746481
 23
0.0816303153
 33
0.0
 40
0.0
 40
0.0
 40
0.0
 40
0.0
 40
1.0
 40
1.0
 40
1.0
 40
1.0
 10
14.5876471883
 20
-31.9204850398
 30
0.0
 10
14.5506558187
 20
-31.8842098102
 30
0.0
 10
14.50970708
 20
-31.8513068981
 30
0.0
 10
14.4655821973
 20
-31.824096793
 30
0.0
 11
14.5876471883
 21
-31.9204850398
 31
0.0
 11
14.4655821973
 21
-31.824096793
 31
0.0
  0
SPLINE
  5
37D
100
AcDbEntity
  8
0
100
AcDbSpline
 62
7
  6
CONTINUOUS
 70
0
 71
3
 72
9
 73
5
 74
3
 42
0.0000001
 43
0.0000001
 44
0.0000000001
 12
-0.1213272796
 22
0.0748178313
 32
0.0
 13
-0.1344557087
 23
0.0455268171
 33
0.0
 40
0.0
 40
0.0
 40
0.0
 40
0.0
 40
0.505740796
 40
1.0
 40
1.0
 40
1.0
 40
1.0
 10
14.4655821973
 20
-31.824096793
 30
0.0
 10
14.4451288124
 20
-31.8114839832
 30
0.0
 10
14.4033370021
 20
-31.7889632931
 30
0.0
 10
14.359181263
 20
-31.7721284531
 30
0.0
 10
14.3370292725
 20
-31.7646277704
 30
0.0
 11
14.4655821973
 21
-31.824096793
 31
0.0
 11
14.4022525347
 21
-31.790159011
 31
0.0
 11
14.3370292725
 21
-31.7646277704
 31
0.0
  0
SPLINE
  5
37E
100
AcDbEntity
  8
0
100
AcDbSpline
 62
7
  6
CONTINUOUS
 70
0
 71
3
 72
8
 73
4
 74
2
 42
0.0000001
 43
0.0000001
 44
0.0000000001
 12
-0.0661933425
 22
0.0224131219
 32
0.0
 13
-0.067402712
 23
0.0192179807
 33
0.0
 40
0.0
 40
0.0
 40
0.0
 40
0.0
 40
1.0
 40
1.0
 40
1.0
 40
1.0
 10
14.3370292725
 20
-31.7646277704
 30
0.0
 10
14.314964825
 20
-31.7571567297
 30
0.0
 10
14.2925753517
 20
-31.7504993118
 30
0.0
 10
14.2701077811
 20
-31.7440933182
 30
0.0
 11
14.3370292725
 21
-31.7646277704
 31
0.0
 11
14.2701077811
 21
-31.7440933182
 31
0.0
  0
LINE
  5
37F
100
AcDbEntity
  8
0
100
AcDbLine
 62
7
  6
CONTINUOUS
 10
14.2701077811
 20
-31.7440933182
 11
14.2015691972
 21
-31.7247352544
  0
SPLINE
  5
380
100
AcDbEntity
  8
0
100
AcDbSpline
 62
7
  6
CONTINUOUS
 70
0
 71
3
 72
11
 73
7
 74
5
 42
0.0000001
 43
0.0000001
 44
0.0000000001
 12
0.4228943726
 22
-0.1962382574
 32
0.0
 13
-0.0220424928
 23
0.4656857659
 33
0.0
 40
0.0
 40
0.0
 40
0.0
 40
0.0
 40
0.2346387833
 40
0.4524681429
 40
0.6888918047
 40
1.0
 40
1.0
 40
1.0
 40
1.0
 10
14.4732319041
 20
-32.5228628577
 30
0.0
 10
14.5063077111
 20
-32.5382112263
 30
0.0
 10
14.5778637765
 20
-32.5541765377
 30
0.0
 10
14.6851493004
 20
-32.5266804575
 30
0.0
 10
14.7771085829
 20
-32.4428357457
 30
0.0
 10
14.7970993807
 20
-32.3530535102
 30
0.0
 10
14.7948135139
 20
-32.3047606241
 30
0.0
 11
14.4732319041
 21
-32.5228628577
 31
0.0
 11
14.5802289147
 21
-32.5456196719
 31
0.0
 11
14.6785364194
 21
-32.5201487266
 31
0.0
 11
14.7595964541
 21
-32.4454610541
 31
0.0
 11
14.7948135139
 21
-32.3047606241
 31
0.0
  0
LINE
  5
381
100
AcDbEntity
  8
0
100
AcDbLine
 62
7
  6
CONTINUOUS
 10
12.5825727844
 20
-30.5774000638
 11
12.5984489711
 21
-30.517601922
  0
LINE
  5
382
100
AcDbEntity
  8
0
100
AcDbLine
 62
7
  6
CONTINUOUS
 10
13.7481579257
 20
-33.4970545868
 11
13.3707101538
 21
-33.3102801864
  0
LINE
  5
383
100
AcDbEntity
  8
0
100
AcDbLine
 62
7
  6
CONTINUOUS
 10
13.3707101538
 20
-33.3102801864
 11
13.294781205
 21
-33.2726576112
  0
LINE
  5
384
100
AcDbEntity
  8
0
100
AcDbLine
 62
7
  6
CONTINUOUS
 10
13.2035437472
 20
-32.9102142154
 11
13.1808927765
 21
-32.8194830754
  0
LINE
  5
385
100
AcDbEntity
  8
0
100
AcDbLine
 62
7
  6
CONTINUOUS
 10
13.1808927765
 20
-32.8194830754
 11
13.1583051689
 21
-32.7287038177
  0
LINE
  5
386
100
AcDbEntity
  8
0
100
AcDbLine
 62
7
  6
CONTINUOUS
 10
13.1583051689
 20
-32.7287038177
 11
12.6699579257
 21
-32.486311084
  0
LINE
  5
387
100
AcDbEntity
  8
0
100
AcDbLine
 62
7
  6
CONTINUOUS
 10
12.6699579257
 20
-32.486311084
 11
12.5733856096
 21
-32.4383103268
  0
LINE
  5
388
100
AcDbEntity
  8
0
100
AcDbLine
 62
7
  6
CONTINUOUS
 10
12.4801708671
 20
-32.8681384343
 11
12.2685359929
 21
-32.7628043291
  0
LINE
  5
389
100
AcDbEntity
  8
0
100
AcDbLine
 62
7
  6
CONTINUOUS
 10
12.2685359929
 20
-32.7628043291
 11
12.1269125044
 21
-32.6922673856
  0
LINE
  5
38A
100
AcDbEntity
  8
0
100
AcDbLine
 62
7
  6
CONTINUOUS
 10
12.1269125044
 20
-32.6922673856
 11
12.0559403525
 21
-32.6569053262
  0
LINE
  5
38B
100
AcDbEntity
  8
0
100
AcDbLine
 62
7
  6
CONTINUOUS
 10
13.0546140919
 20
-32.3070959734
 11
13.0148060146
 21
-32.1380937948
  0
LINE
  5
38C
100
AcDbEntity
  8
0
100
AcDbLine
 62
7
  6
CONTINUOUS
 10
13.0148060146
 20
-32.1380937948
 11
12.9752975364
 21
-31.9692651636
  0
LINE
  5
38D
100
AcDbEntity
  8
0
100
AcDbLine
 62
7
  6
CONTINUOUS
 10
12.897172791
 20
-31.6321301202
 11
12.8585532006
 21
-31.4638244782
  0
LINE
  5
38E
100
AcDbEntity
  8
0
100
AcDbLine
 62
7
  6
CONTINUOUS
 10
12.8585532006
 20
-31.4638244782
 11
12.8202265635
 21
-31.2956939236
  0
LINE
  5
38F
100
AcDbEntity
  8
0
100
AcDbLine
 62
7
  6
CONTINUOUS
 10
10.9721769014
 20
-32.1160771692
 11
10.9121227839
 21
-32.0860786404
  0
LINE
  5
390
100
AcDbEntity
  8
0
100
AcDbLine
 62
7
  6
CONTINUOUS
 10
10.3174256068
 20
-31.7889809428
 11
9.9077695949
 21
-31.5843601813
  0
LINE
  5
391
100
AcDbEntity
  8
0
100
AcDbLine
 62
7
  6
CONTINUOUS
 10
9.9832457308
 20
-29.3875104972
 11
9.9911996334
 21
-29.2166072476
  0
LINE
  5
392
100
AcDbEntity
  8
0
100
AcDbLine
 62
7
  6
CONTINUOUS
 10
11.2051941413
 20
-30.0518820922
 11
11.2493934464
 21
-29.9191951848
  0
LINE
  5
393
100
AcDbEntity
  8
0
100
AcDbLine
 62
7
  6
CONTINUOUS
 10
11.2493934464
 20
-29.9191951848
 11
11.2704971515
 21
-29.8560587943
  0
LINE
  5
394
100
AcDbEntity
  8
0
100
AcDbLine
 62
7
  6
CONTINUOUS
 10
11.9886244922
 20
-32.6233569995
 11
11.9189935118
 21
-32.5886470071
  0
LINE
  5
395
100
AcDbEntity
  8
0
100
AcDbLine
 62
7
  6
CONTINUOUS
 10
11.9189935118
 20
-32.5886470071
 11
11.6395161397
 21
-32.4492588085
  0
LINE
  5
396
100
AcDbEntity
  8
0
100
AcDbLine
 62
7
  6
CONTINUOUS
 10
11.6395161397
 20
-32.4492588085
 11
11.5694077112
 21
-32.4142761511
  0
LINE
  5
397
100
AcDbEntity
  8
0
100
AcDbLine
 62
7
  6
CONTINUOUS
 10
11.4334302407
 20
-31.0511979125
 11
11.4252491739
 21
-30.9627966857
  0
LINE
  5
398
100
AcDbEntity
  8
0
100
AcDbLine
 62
7
  6
CONTINUOUS
 10
11.4252491739
 20
-30.9627966857
 11
11.4080455089
 21
-30.774111573
  0
LINE
  5
399
100
AcDbEntity
  8
0
100
AcDbLine
 62
7
  6
CONTINUOUS
 10
9.6772360847
 20
-31.4692260913
 11
9.3920641666
 21
-31.3268152948
  0
LINE
  5
39A
100
AcDbEntity
  8
0
100
AcDbLine
 62
7
  6
CONTINUOUS
 10
9.3920641666
 20
-31.3268152948
 11
9.2489778736
 21
-31.2553632612
  0
LINE
  5
39B
100
AcDbEntity
  8
0
100
AcDbLine
 62
7
  6
CONTINUOUS
 10
8.430549028
 20
-30.8466799981
 11
8.0531471326
 21
-30.6582130171
  0
LINE
  5
39C
100
AcDbEntity
  8
0
100
AcDbLine
 62
7
  6
CONTINUOUS
 10
8.5358226769
 20
-28.6093405486
 11
8.5611145285
 21
-28.5015935102
  0
SPLINE
  5
39D
100
AcDbEntity
  8
RACCORDO
100
AcDbSpline
 62
7
  6
CONTINUOUS
 70
0
 71
3
 72
9
 73
5
 74
3
 42
0.0000001
 43
0.0000001
 44
0.0000000001
 12
0.1578787831
 22
0.0710773474
 32
0.0
 13
0.1602720805
 23
-0.079213218
 33
0.0
 40
0.0
 40
0.0
 40
0.0
 40
0.0
 40
0.899858007
 40
1.0
 40
1.0
 40
1.0
 40
1.0
 10
-7.0721244792
 20
-14.3963177192
 30
0.0
 10
-7.0247683168
 20
-14.3749978791
 30
0.0
 10
-6.9603001145
 20
-14.3894745224
 30
0.0
 10
-6.9059204886
 20
-14.4148421233
 30
0.0
 10
-6.9005705
 20
-14.4174863132
 30
0.0
 11
-7.0721244792
 21
-14.3963177192
 31
0.0
 11
-6.9169130293
 21
-14.4098706182
 31
0.0
 11
-6.9005705
 21
-14.4174863132
 31
0.0
  0
SPLINE
  5
39E
100
AcDbEntity
  8
RACCORDO
100
AcDbSpline
 62
7
  6
CONTINUOUS
 70
0
 71
3
 72
9
 73
5
 74
3
 42
0.0000001
 43
0.0000001
 44
0.0000000001
 12
0.1578787831
 22
0.0710773474
 32
0.0
 13
0.1602720805
 23
-0.079213218
 33
0.0
 40
0.0
 40
0.0
 40
0.0
 40
0.0
 40
0.899858007
 40
1.0
 40
1.0
 40
1.0
 40
1.0
 10
8.8377780975
 20
-22.3512690075
 30
0.0
 10
8.8851342599
 20
-22.3299491675
 30
0.0
 10
8.9496024622
 20
-22.3444258108
 30
0.0
 10
9.0039820881
 20
-22.3697934117
 30
0.0
 10
9.0093320767
 20
-22.3724376015
 30
0.0
 11
8.8377780975
 21
-22.3512690075
 31
0.0
 11
8.9929895474
 21
-22.3648219065
 31
0.0
 11
9.0093320767
 21
-22.3724376015
 31
0.0
  0
SPLINE
  5
39F
100
AcDbEntity
  8
SUPERFICI
100
AcDbSpline
 62
7
  6
CONTINUOUS
 70
0
 71
3
 72
9
 73
5
 74
3
 42
0.0000001
 43
0.0000001
 44
0.0000000001
 12
-0.1861732361
 22
-0.0931417875
 32
0.0
 13
-0.1870685336
 23
0.0868062074
 33
0.0
 40
0.0
 40
0.0
 40
0.0
 40
0.0
 40
0.4856008624
 40
1.0
 40
1.0
 40
1.0
 40
1.0
 10
14.71674298
 20
-32.5011055304
 30
0.0
 10
14.6866076854
 20
-32.5161821078
 30
0.0
 10
14.6174280553
 20
-32.532557451
 30
0.0
 10
14.5477866184
 20
-32.5165078287
 30
0.0
 10
14.5157106542
 20
-32.5016234826
 30
0.0
 11
14.71674298
 21
-32.5011055304
 31
0.0
 11
14.6193114115
 21
-32.5244397967
 31
0.0
 11
14.5157106542
 21
-32.5016234826
 31
0.0
  0
LINE
  5
3A0
100
AcDbEntity
  8
SUPERFICI
100
AcDbLine
 62
7
  6
CONTINUOUS
 10
12.0311393648
 20
-32.6020995632
 11
12.0191660985
 21
-32.5080239093
  0
SPLINE
  5
3A1
100
AcDbEntity
  8
RACCORDO
100
AcDbSpline
 62
253
  6
CONTINUOUS
 70
0
 71
3
 72
10
 73
6
 74
4
 42
0.0000001
 43
0.0000001
 44
0.0000000001
 12
-0.0468510588
 22
-1.7320088074
 32
0.0
 13
-0.7311481767
 23
-1.5708188548
 33
0.0
 40
0.0
 40
0.0
 40
0.0
 40
0.0
 40
0.3176272482
 40
0.6535070734
 40
1.0
 40
1.0
 40
1.0
 40
1.0
 10
6.1060253309
 20
17.7674000804
 30
0.0
 10
6.10106494
 20
17.58402235
 30
0.0
 10
6.0597178767
 20
17.2071653222
 30
0.0
 10
5.9177789286
 20
16.6458195005
 30
0.0
 10
5.7731247362
 20
16.2778994254
 30
0.0
 10
5.6886788457
 20
16.0964735514
 30
0.0
 11
6.1060253309
 21
17.7674000804
 31
0.0
 11
6.048727881
 21
17.220056514
 31
0.0
 11
5.9077044338
 21
16.655442153
 31
0.0
 11
5.6886788457
 21
16.0964735514
 31
0.0
  0
SPLINE
  5
3A2
100
AcDbEntity
  8
RACCORDO
100
AcDbSpline
 62
253
  6
CONTINUOUS
 70
0
 71
3
 72
10
 73
6
 74
4
 42
0.0000001
 43
0.0000001
 44
0.0000000001
 12
-0.0371824505
 22
-1.7446386748
 32
0.0
 13
-0.7279572773
 23
-1.5859460403
 33
0.0
 40
0.0
 40
0.0
 40
0.0
 40
0.0
 40
0.3179595909
 40
0.6538821374
 40
1.0
 40
1.0
 40
1.0
 40
1.0
 10
13.5260728528
 20
14.0731252735
 30
0.0
 10
13.5221320139
 20
13.8882170737
 30
0.0
 10
13.4827036372
 20
13.5082111162
 30
0.0
 10
13.3430907865
 20
12.9420129745
 30
0.0
 10
13.1995640346
 20
12.5708173605
 30
0.0
 10
13.1155776957
 20
12.3878426093
 30
0.0
 11
13.5260728528
 21
14.0731252735
 31
0.0
 11
13.4715238624
 21
13.520962652
 31
0.0
 11
13.3327962376
 21
12.951418059
 31
0.0
 11
13.1155776957
 21
12.3878426093
 31
0.0
  0
SPLINE
  5
3A3
100
AcDbEntity
  8
RACCORDO
100
AcDbSpline
 62
253
  6
CONTINUOUS
 70
0
 71
3
 72
10
 73
6
 74
4
 42
0.0000001
 43
0.0000001
 44
0.0000000001
 12
-1.5070845672
 22
0.6985507451
 32
0.0
 13
-1.6567819947
 23
0.1197933982
 33
0.0
 40
0.0
 40
0.0
 40
0.0
 40
0.0
 40
0.3091441676
 40
0.6454533425
 40
1.0
 40
1.0
 40
1.0
 40
1.0
 10
16.1286032407
 20
9.5762255747
 30
0.0
 10
15.973301106
 20
9.6482098709
 30
0.0
 10
15.6368075266
 20
9.7726646293
 30
0.0
 10
15.0967228624
 20
9.8993595629
 30
0.0
 10
14.7161989785
 20
9.94602123
 30
0.0
 10
14.5203968057
 20
9.9601786796
 30
0.0
 11
16.1286032407
 21
9.5762255747
 31
0.0
 11
15.6481923534
 21
9.7576361775
 31
0.0
 11
15.1048182633
 21
9.8873646818
 31
0.0
 11
14.5203968057
 21
9.9601786796
 31
0.0
  0
SPLINE
  5
3A4
100
AcDbEntity
  8
RACCORDO
100
AcDbSpline
 62
253
  6
CONTINUOUS
 70
0
 71
3
 72
10
 73
6
 74
4
 42
0.0000001
 43
0.0000001
 44
0.0000000001
 12
-1.5084677696
 22
0.7053091348
 32
0.0
 13
-1.6607003271
 23
0.1225169842
 33
0.0
 40
0.0
 40
0.0
 40
0.0
 40
0.0
 40
0.3089722548
 40
0.6452941087
 40
1.0
 40
1.0
 40
1.0
 40
1.0
 10
16.1301508964
 20
0.4783406772
 30
0.0
 10
15.974792667
 20
0.5509809951
 30
0.0
 10
15.6378814602
 20
0.6766528657
 30
0.0
 10
15.0967222532
 20
0.8048074635
 30
0.0
 10
14.7152331646
 20
0.8522235002
 30
0.0
 10
14.5188797681
 20
0.8667093323
 30
0.0
 11
16.1301508964
 21
0.4783406772
 31
0.0
 11
15.6493419514
 21
0.6614742772
 31
0.0
 11
15.1048865503
 21
0.7927058718
 31
0.0
 11
14.5188797681
 21
0.8667093323
 31
0.0
  0
SPLINE
  5
3A5
100
AcDbEntity
  8
RACCORDO
100
AcDbSpline
 62
253
  6
CONTINUOUS
 70
0
 71
3
 72
10
 73
6
 74
4
 42
0.0000001
 43
0.0000001
 44
0.0000000001
 12
-1.5084848243
 22
0.7052278068
 32
0.0
 13
-1.6606866823
 23
0.1224437322
 33
0.0
 40
0.0
 40
0.0
 40
0.0
 40
0.0
 40
0.3089707814
 40
0.6452933442
 40
1.0
 40
1.0
 40
1.0
 40
1.0
 10
16.1301508964
 20
-19.8732562265
 30
0.0
 10
15.9747916514
 20
-19.800624631
 30
0.0
 10
15.637878651
 20
-19.6749705668
 30
0.0
 10
15.0967195683
 20
-19.5468431357
 30
0.0
 10
14.7152319753
 20
-19.4994443844
 30
0.0
 10
14.5188797689
 20
-19.4849671821
 30
0.0
 11
16.1301508964
 21
-19.8732562265
 31
0.0
 11
15.6493409192
 21
-19.6901487205
 31
0.0
 11
15.1048844161
 21
-19.5589439269
 31
0.0
 11
14.5188797689
 21
-19.4849671821
 31
0.0
  0
SPLINE
  5
3A6
100
AcDbEntity
  8
RACCORDO
100
AcDbSpline
 62
253
  6
CONTINUOUS
 70
0
 71
3
 72
10
 73
6
 74
4
 42
0.0000001
 43
0.0000001
 44
0.0000000001
 12
-1.5066773946
 22
0.7008349138
 32
0.0
 13
-1.6572127178
 23
0.1220342405
 33
0.0
 40
0.0
 40
0.0
 40
0.0
 40
0.0
 40
0.3092054987
 40
0.6455143435
 40
1.0
 40
1.0
 40
1.0
 40
1.0
 10
16.1286052471
 20
-28.9650246339
 30
0.0
 10
15.9733142688
 20
-28.8927906309
 30
0.0
 10
15.6368435033
 20
-28.7678106643
 30
0.0
 10
15.09674323
 20
-28.6403156676
 30
0.0
 10
14.71618051
 20
-28.593123142
 30
0.0
 10
14.5203611306
 20
-28.578703346
 30
0.0
 11
16.1286052471
 21
-28.9650246339
 31
0.0
 11
15.6481782085
 21
-28.7828510547
 31
0.0
 11
15.104791339
 21
-28.6523224354
 31
0.0
 11
14.5203611306
 21
-28.578703346
 31
0.0
  0
SPLINE
  5
3A7
100
AcDbEntity
  8
RACCORDO
100
AcDbSpline
 62
253
  6
CONTINUOUS
 70
0
 71
3
 72
10
 73
6
 74
4
 42
0.0000001
 43
0.0000001
 44
0.0000000001
 12
-0.0940149972
 22
1.1679093041
 32
0.0
 13
-0.7697488118
 23
0.8810897168
 33
0.0
 40
0.0
 40
0.0
 40
0.0
 40
0.0
 40
0.2764370998
 40
0.6566854362
 40
1.0
 40
1.0
 40
1.0
 40
1.0
 10
13.5174451469
 20
-30.6801054133
 30
0.0
 10
13.5087820691
 20
-30.572487593
 30
0.0
 10
13.4732891
 20
-30.3178703303
 30
0.0
 10
13.3554922024
 20
-29.9430010499
 30
0.0
 10
13.2035584367
 20
-29.6999173429
 30
0.0
 10
13.1154697775
 20
-29.5990870323
 30
0.0
 11
13.5174451469
 21
-30.6801054133
 31
0.0
 11
13.4714816747
 21
-30.3596178505
 31
0.0
 11
13.3327206605
 21
-29.9369321515
 31
0.0
 11
13.1154697775
 21
-29.5990870323
 31
0.0
  0
SPLINE
  5
3A8
100
AcDbEntity
  8
RACCORDO
100
AcDbSpline
 62
253
  6
CONTINUOUS
 70
0
 71
3
 72
10
 73
6
 74
4
 42
0.0000001
 43
0.0000001
 44
0.0000000001
 12
-0.0372930682
 22
1.3436494291
 32
0.0
 13
-0.8826733357
 23
1.013741754
 33
0.0
 40
0.0
 40
0.0
 40
0.0
 40
0.0
 40
0.3670439506
 40
0.6991666814
 40
1.0
 40
1.0
 40
1.0
 40
1.0
 10
6.1060253309
 20
-27.1381900538
 30
0.0
 10
6.1014625992
 20
-26.9737972556
 30
0.0
 10
6.0675658549
 20
-26.6602628729
 30
0.0
 10
5.9302371027
 20
-26.2302692548
 30
0.0
 10
5.7772667759
 20
-25.986303481
 30
0.0
 10
5.6887542597
 20
-25.8846477157
 30
0.0
 11
6.1060253309
 21
-27.1381900538
 31
0.0
 11
6.0487530143
 21
-26.6481572208
 31
0.0
 11
5.9077555183
 21
-26.2245796063
 31
0.0
 11
5.6887542597
 21
-25.8846477157
 31
0.0
  0
SPLINE
  5
3A9
100
AcDbEntity
  8
RACCORDO
100
AcDbSpline
 62
253
  6
CONTINUOUS
 70
0
 71
3
 72
10
 73
6
 74
4
 42
0.0000001
 43
0.0000001
 44
0.0000000001
 12
-0.0373579856
 22
1.3437071032
 32
0.0
 13
-0.8827398225
 23
1.0137626961
 33
0.0
 40
0.0
 40
0.0
 40
0.0
 40
0.0
 40
0.3670397025
 40
0.6991632286
 40
1.0
 40
1.0
 40
1.0
 40
1.0
 10
-10.5109840281
 20
-18.8296853744
 30
0.0
 10
-10.5155546494
 20
-18.6652874226
 30
0.0
 10
-10.5494677906
 20
-18.3517423232
 30
0.0
 10
-10.6868232215
 20
-17.9217363638
 30
0.0
 10
-10.8398103128
 20
-17.6777643622
 30
0.0
 10
-10.9283305122
 20
-17.5761053301
 30
0.0
 11
-10.5109840281
 21
-18.8296853744
 31
0.0
 11
-10.5682814777
 21
-18.3396392578
 31
0.0
 11
-10.7093049245
 21
-17.9160483437
 31
0.0
 11
-10.9283305122
 21
-17.5761053301
 31
0.0
  0
SPLINE
  5
3AA
100
AcDbEntity
  8
RACCORDO
100
AcDbSpline
 62
253
  6
CONTINUOUS
 70
0
 71
3
 72
10
 73
6
 74
4
 42
0.0000001
 43
0.0000001
 44
0.0000000001
 12
-0.0478733536
 22
1.3581157291
 32
0.0
 13
-0.9033320467
 23
1.0152642045
 33
0.0
 40
0.0
 40
0.0
 40
0.0
 40
0.0
 40
0.3662975596
 40
0.6984029688
 40
1.0
 40
1.0
 40
1.0
 40
1.0
 10
-17.9168780899
 20
-15.1283338373
 30
0.0
 10
-17.9227233874
 20
-14.9625090115
 30
0.0
 10
-17.9596463932
 20
-14.6461299694
 30
0.0
 10
-18.1029442028
 20
-14.2127988956
 30
0.0
 10
-18.2605429538
 20
-13.9676051177
 30
0.0
 10
-18.3513570416
 20
-13.8655382277
 30
0.0
 11
-17.9168780899
 21
-15.1283338373
 31
0.0
 11
-17.9788270514
 21
-14.6344201918
 31
0.0
 11
-18.1256600841
 21
-14.2076559276
 31
0.0
 11
-18.3513570416
 21
-13.8655382277
 31
0.0
  0
SPLINE
  5
3AB
100
AcDbEntity
  8
RACCORDO
100
AcDbSpline
 62
253
  6
CONTINUOUS
 70
0
 71
3
 72
10
 73
6
 74
4
 42
0.0000001
 43
0.0000001
 44
0.0000000001
 12
1.0024580151
 22
-0.5388461841
 32
0.0
 13
0.3192961169
 23
-1.0923951995
 33
0.0
 40
0.0
 40
0.0
 40
0.0
 40
0.0
 40
0.3827390013
 40
0.713095429
 40
1.0
 40
1.0
 40
1.0
 40
1.0
 10
-20.5290368307
 20
-10.6361181987
 30
0.0
 10
-20.4011435708
 20
-10.7048640155
 30
0.0
 10
-20.1718281865
 20
-10.8519031221
 30
0.0
 10
-19.9010714225
 20
-11.1226796705
 30
0.0
 10
-19.7892268072
 20
-11.3346609563
 30
0.0
 10
-19.7586909688
 20
-11.439132015
 30
0.0
 11
-20.5290368307
 21
-10.6361181987
 31
0.0
 11
-20.1654230739
 21
-10.8759704347
 31
0.0
 11
-19.9051415818
 21
-11.1472896367
 31
0.0
 11
-19.7586909688
 21
-11.439132015
 31
0.0
  0
SPLINE
  5
3AC
100
AcDbEntity
  8
RACCORDO
100
AcDbSpline
 62
253
  6
CONTINUOUS
 70
0
 71
3
 72
10
 73
6
 74
4
 42
0.0000001
 43
0.0000001
 44
0.0000000001
 12
1.0092130046
 22
-0.5397414895
 32
0.0
 13
0.3237213446
 23
-1.0977414336
 33
0.0
 40
0.0
 40
0.0
 40
0.0
 40
0.0
 40
0.3827828953
 40
0.7131766296
 40
1.0
 40
1.0
 40
1.0
 40
1.0
 10
-20.5351096039
 20
-1.5406259764
 30
0.0
 10
-20.4063397786
 20
-1.6094939131
 30
0.0
 10
-20.175399811
 20
-1.7568789859
 30
0.0
 10
-19.9024927756
 20
-2.0285240657
 30
0.0
 10
-19.7894817127
 20
-2.2413884761
 30
0.0
 10
-19.7585314303
 20
-2.3463411087
 30
0.0
 11
-20.5351096039
 21
-1.5406259764
 31
0.0
 11
-20.168895074
 21
-1.7810569718
 31
0.0
 11
-19.9064856419
 21
-2.0533115421
 31
0.0
 11
-19.7585314303
 21
-2.3463411087
 31
0.0
  0
SPLINE
  5
3AD
100
AcDbEntity
  8
RACCORDO
100
AcDbSpline
 62
253
  6
CONTINUOUS
 70
0
 71
3
 72
10
 73
6
 74
4
 42
0.0000001
 43
0.0000001
 44
0.0000000001
 12
1.0091890624
 22
-0.5396646906
 32
0.0
 13
0.3237310001
 23
-1.0976788153
 33
0.0
 40
0.0
 40
0.0
 40
0.0
 40
0.0
 40
0.3827899655
 40
0.7131837952
 40
1.0
 40
1.0
 40
1.0
 40
1.0
 10
-20.5351096039
 20
18.8109709273
 30
0.0
 10
-20.4063404551
 20
18.7421115179
 30
0.0
 10
-20.1754022795
 20
18.5947441468
 30
0.0
 10
-19.9024946643
 20
18.3231268555
 30
0.0
 10
-19.7894818627
 20
18.1102794298
 30
0.0
 10
-19.7585314305
 20
18.0053354059
 30
0.0
 11
-20.5351096039
 21
18.8109709273
 31
0.0
 11
-20.1688945636
 21
18.5705659528
 31
0.0
 11
-19.9064849483
 21
18.2983377154
 31
0.0
 11
-19.7585314305
 21
18.0053354059
 31
0.0
  0
SPLINE
  5
3AE
100
AcDbEntity
  8
RACCORDO
100
AcDbSpline
 62
253
  6
CONTINUOUS
 70
0
 71
3
 72
10
 73
6
 74
4
 42
0.0000001
 43
0.0000001
 44
0.0000000001
 12
1.0030997592
 22
-0.540772335
 32
0.0
 13
0.318935904
 23
-1.0940400973
 33
0.0
 40
0.0
 40
0.0
 40
0.0
 40
0.0
 40
0.3825554173
 40
0.7129182945
 40
1.0
 40
1.0
 40
1.0
 40
1.0
 10
-20.5290422542
 20
27.9046167575
 30
0.0
 10
-20.4011285052
 20
27.8356582954
 30
0.0
 10
-20.1717647393
 20
27.6881596221
 30
0.0
 10
-19.9010404252
 20
27.4166470582
 30
0.0
 10
-19.7892711538
 20
27.2042125716
 30
0.0
 10
-19.7587509327
 20
27.0995196059
 30
0.0
 11
-20.5290422542
 21
27.9046167575
 31
0.0
 11
-20.1654425984
 21
27.6640963627
 31
0.0
 11
-19.9051794692
 21
27.3920731776
 31
0.0
 11
-19.7587509327
 21
27.0995196059
 31
0.0
  0
SPLINE
  5
3AF
100
AcDbEntity
  8
RACCORDO
100
AcDbSpline
 62
253
  6
CONTINUOUS
 70
0
 71
3
 72
10
 73
6
 74
4
 42
0.0000001
 43
0.0000001
 44
0.0000000001
 12
-0.0601832575
 22
-1.7384437484
 32
0.0
 13
-0.750658315
 23
-1.569178379
 33
0.0
 40
0.0
 40
0.0
 40
0.0
 40
0.0
 40
0.317327346
 40
0.6532257955
 40
1.0
 40
1.0
 40
1.0
 40
1.0
 10
-17.9166931257
 20
29.7946337842
 30
0.0
 10
-17.9230590568
 20
29.6107485372
 30
0.0
 10
-17.967742706
 20
29.2328985263
 30
0.0
 10
-18.1156034801
 20
28.6706984263
 30
0.0
 10
-18.2646910912
 20
28.3026642198
 30
0.0
 10
-18.3514607379
 20
28.1212806918
 30
0.0
 11
-17.9166931257
 21
29.7946337842
 31
0.0
 11
-17.978720756
 21
29.2461437157
 31
0.0
 11
-18.1256516943
 21
28.6806293114
 31
0.0
 11
-18.3514607379
 21
28.1212806918
 31
0.0
  0
SPLINE
  5
3B0
100
AcDbEntity
  8
RACCORDO
100
AcDbSpline
 62
253
  6
CONTINUOUS
 70
0
 71
3
 72
10
 73
6
 74
4
 42
0.0000001
 43
0.0000001
 44
0.0000000001
 12
-0.0468511501
 22
-1.7320088012
 32
0.0
 13
-0.7311480901
 23
-1.5708188909
 33
0.0
 40
0.0
 40
0.0
 40
0.0
 40
0.0
 40
0.3176266748
 40
0.6535058612
 40
1.0
 40
1.0
 40
1.0
 40
1.0
 10
-10.5109840281
 20
26.0759047598
 30
0.0
 10
-10.5159444197
 20
25.8925273611
 30
0.0
 10
-10.5572913642
 20
25.5156710345
 30
0.0
 10
-10.69923011
 20
24.9543251705
 30
0.0
 10
-10.8438843366
 20
24.5864047423
 30
0.0
 10
-10.9283305126
 20
24.4049782293
 30
0.0
 11
-10.5109840281
 21
26.0759047598
 31
0.0
 11
-10.5682813227
 21
25.5285621773
 31
0.0
 11
-10.7093043027
 21
24.9639488418
 31
0.0
 11
-10.9283305126
 21
24.4049782293
 31
0.0
  0
LINE
  5
3B1
100
AcDbEntity
  8
SUPERFICI
100
AcDbLine
 62
7
  6
CONTINUOUS
 10
11.7368505536
 20
-30.0463379389
 11
11.3129494197
 21
-29.8348326602
  0
LINE
  5
3B2
100
AcDbEntity
  8
SUPERFICI
100
AcDbLine
 62
7
  6
CONTINUOUS
 10
10.4612432841
 20
-29.4092230974
 11
10.0336521436
 21
-29.1953809925
  0
SPLINE
  5
3B3
100
AcDbEntity
  8
RACCORDO
100
AcDbSpline
 62
253
  6
CONTINUOUS
 70
0
 71
3
 72
35
 73
31
 74
29
 42
0.0000001
 43
0.0000001
 44
0.0000000001
 12
-23.1243165395
 22
11.5621511996
 32
0.0
 13
-22.7427178631
 23
12.2957773231
 33
0.0
 40
0.0
 40
0.0
 40
0.0
 40
0.0
 40
0.0863698227
 40
0.1654875053
 40
0.2381302262
 40
0.3049272873
 40
0.3664348992
 40
0.4231380863
 40
0.4754551235
 40
0.5237760156
 40
0.5684555757
 40
0.6097932911
 40
0.6480070132
 40
0.6833013665
 40
0.7159157652
 40
0.7461084207
 40
0.7741057826
 40
0.7999994201
 40
0.8238621621
 40
0.8458410621
 40
0.8661163081
 40
0.8848430753
 40
0.9020172072
 40
0.917454682
 40
0.9312807478
 40
0.9441390104
 40
0.9567885756
 40
0.9699879013
 40
0.9844202104
 40
1.0
 40
1.0
 40
1.0
 40
1.0
 10
-7.8777187296
 20
45.8722327197
 30
0.0
 10
-8.5434664365
 20
46.2051063696
 30
0.0
 10
-9.8189138935
 20
46.8431989544
 30
0.0
 10
-11.6539758567
 20
47.7619061579
 30
0.0
 10
-13.338086242
 20
48.6053439643
 30
0.0
 10
-14.8864720748
 20
49.3808801808
 30
0.0
 10
-16.3120049194
 20
50.0949633535
 30
0.0
 10
-17.6259006229
 20
50.7532867827
 30
0.0
 10
-18.8381669325
 20
51.3607574291
 30
0.0
 10
-19.9578139093
 20
51.92176848
 30
0.0
 10
-20.9929098003
 20
52.4403075519
 30
0.0
 10
-21.9501743351
 20
52.9197417493
 30
0.0
 10
-22.8351729934
 20
53.3628525125
 30
0.0
 10
-23.6529939209
 20
53.7722182722
 30
0.0
 10
-24.408928506
 20
54.1507885165
 30
0.0
 10
-25.1084894334
 20
54.5014905923
 30
0.0
 10
-25.7561251
 20
54.8265314713
 30
0.0
 10
-26.354869261
 20
55.1273752689
 30
0.0
 10
-26.9070213135
 20
55.4054234387
 30
0.0
 10
-27.4155662569
 20
55.6624122075
 30
0.0
 10
-27.8842501807
 20
55.9001432544
 30
0.0
 10
-28.3158094883
 20
56.1195296557
 30
0.0
 10
-28.7101108693
 20
56.3202057061
 30
0.0
 10
-29.0666835134
 20
56.501900523
 30
0.0
 10
-29.3901140141
 20
56.6667141289
 30
0.0
 10
-29.6924279833
 20
56.8200488465
 30
0.0
 10
-29.9902133813
 20
56.9703691269
 30
0.0
 10
-30.2996545945
 20
57.127702634
 30
0.0
 10
-30.6301585377
 20
57.2993065671
 30
0.0
 10
-30.8583936046
 20
57.4209946373
 30
0.0
 10
-30.976502524
 20
57.484849845
 30
0.0
 11
-7.8777187296
 21
45.8722327197
 31
0.0
 11
-9.8747587652
 21
46.8712597369
 31
0.0
 11
-11.7038498319
 21
47.786932324
 31
0.0
 11
-13.3831249596
 21
48.6279138797
 31
0.0
 11
-14.9272235249
 21
49.401306303
 31
0.0
 11
-16.3490120688
 21
50.1135315043
 31
0.0
 11
-17.659690232
 21
50.7702297681
 31
0.0
 11
-18.8689596154
 21
51.3761788088
 31
0.0
 11
-19.9858777548
 21
51.9358102173
 31
0.0
 11
-21.0186677963
 21
52.453189792
 31
0.0
 11
-21.9742560621
 21
52.9317784801
 31
0.0
 11
-22.8576777947
 21
53.3740999212
 31
0.0
 11
-23.6736330594
 21
53.7825833835
 31
0.0
 11
-24.4275624363
 21
54.1601881644
 31
0.0
 11
-25.1253744453
 21
54.5100242489
 31
0.0
 11
-25.7723029874
 21
54.8347147567
 31
0.0
 11
-26.3704618447
 21
55.135325404
 31
0.0
 11
-26.921453399
 21
55.4128600987
 31
0.0
 11
-27.4286031356
 21
55.6691663291
 31
0.0
 11
-27.8961145519
 21
55.9062524396
 31
0.0
 11
-28.3277195379
 21
56.1256279803
 31
0.0
 11
-28.723431793
 21
56.3270282046
 31
0.0
 11
-29.0790562386
 21
56.5082064462
 31
0.0
 11
-29.3975981252
 21
56.6703970519
 31
0.0
 11
-29.6940803006
 21
56.8207667532
 31
0.0
 11
-29.9859141781
 21
56.9683724833
 31
0.0
 11
-30.2899715975
 21
57.1232990048
 31
0.0
 11
-30.6210782721
 21
57.2953282348
 31
0.0
 11
-30.976502524
 21
57.484849845
 31
0.0
  0
LINE
  5
3B4
100
AcDbEntity
  8
SUPERFICI
100
AcDbLine
 62
7
  6
CONTINUOUS
 10
10.374046454
 20
-30.4699939007
 11
10.3759965564
 21
-30.3624371812
  0
LINE
  5
3B5
100
AcDbEntity
  8
SUPERFICI
100
AcDbLine
 62
7
  6
CONTINUOUS
 10
10.3759965564
 20
-30.3624371812
 11
10.37894766
 21
-30.2108318358
  0
SPLINE
  5
3B6
100
AcDbEntity
  8
RACCORDO
100
AcDbSpline
 62
253
  6
CONTINUOUS
 70
0
 71
3
 72
10
 73
6
 74
4
 42
0.0000001
 43
0.0000001
 44
0.0000000001
 12
-1.1748244806
 22
0.6178281047
 32
0.0
 13
-1.1574381198
 23
-0.6620076852
 33
0.0
 40
0.0
 40
0.0
 40
0.0
 40
0.0
 40
0.4135990896
 40
0.7423025515
 40
1.0
 40
1.0
 40
1.0
 40
1.0
 10
-30.9765082472
 20
57.4848465537
 30
0.0
 10
-31.1384770257
 20
57.5700242676
 30
0.0
 10
-31.4524465465
 20
57.6868370075
 30
0.0
 10
-31.904494572
 20
57.6921322311
 30
0.0
 10
-32.152930037
 20
57.6005008163
 30
0.0
 10
-32.2523529871
 20
57.5436349192
 30
0.0
 11
-30.9765082472
 21
57.4848465537
 31
0.0
 11
-31.4950563333
 21
57.6651519497
 31
0.0
 11
-31.9313623978
 21
57.6627411052
 31
0.0
 11
-32.2523529871
 21
57.5436349192
 31
0.0
  0
LINE
  5
3B7
100
AcDbEntity
  8
SUPERFICI
100
AcDbLine
 62
7
  6
CONTINUOUS
 10
11.375135274
 20
-30.9803342089
 11
11.4156467444
 21
-30.8578601741
  0
LINE
  5
3B8
100
AcDbEntity
  8
SUPERFICI
100
AcDbLine
 62
7
  6
CONTINUOUS
 10
11.4156467444
 20
-30.8578601741
 11
11.4505153813
 21
-30.7528766368
  0
LINE
  5
3B9
100
AcDbEntity
  8
SUPERFICI
100
AcDbLine
 62
7
  6
CONTINUOUS
 10
12.6858485649
 20
-32.0817068217
 11
12.7149963899
 21
-31.9462661925
  0
LINE
  5
3BA
100
AcDbEntity
  8
SUPERFICI
100
AcDbLine
 62
7
  6
CONTINUOUS
 10
12.8329029525
 20
-31.408104158
 11
12.862693435
 21
-31.2744604879
  0
LINE
  5
3BB
100
AcDbEntity
  8
SUPERFICI
100
AcDbLine
 62
7
  6
CONTINUOUS
 10
13.0971027781
 20
-32.2858516303
 11
13.0288637644
 21
-32.2520078416
  0
LINE
  5
3BC
100
AcDbEntity
  8
SUPERFICI
100
AcDbLine
 62
7
  6
CONTINUOUS
 10
13.0288637644
 20
-32.2520078416
 11
12.8234192128
 21
-32.1500425527
  0
LINE
  5
3BD
100
AcDbEntity
  8
SUPERFICI
100
AcDbLine
 62
7
  6
CONTINUOUS
 10
12.8234192128
 20
-32.1500425527
 11
12.7546947264
 21
-32.1159104211
  0
LINE
  5
3BE
100
AcDbEntity
  8
SUPERFICI
100
AcDbLine
 62
7
  6
CONTINUOUS
 10
12.7546947264
 20
-32.1159104211
 11
12.6858485649
 21
-32.0817068217
  0
LINE
  5
3BF
100
AcDbEntity
  8
SUPERFICI
100
AcDbLine
 62
7
  6
CONTINUOUS
 10
12.5688648523
 20
-32.6326393565
 11
12.6001176592
 21
-32.4890686817
  0
LINE
  5
3C0
100
AcDbEntity
  8
SUPERFICI
100
AcDbLine
 62
7
  6
CONTINUOUS
 10
12.6001176592
 20
-32.4890686817
 11
12.615884932
 21
-32.4170606656
  0
SPLINE
  5
3C1
100
AcDbEntity
  8
RACCORDO
100
AcDbSpline
 62
253
  6
CONTINUOUS
 70
0
 71
3
 72
12
 73
8
 74
6
 42
0.0000001
 43
0.0000001
 44
0.0000000001
 12
0.4715634069
 22
-16.9604976338
 32
0.0
 13
3.6324551905
 23
-16.5736574496
 33
0.0
 40
0.0
 40
0.0
 40
0.0
 40
0.0
 40
0.1657473903
 40
0.3501547217
 40
0.5075058929
 40
0.8035239383
 40
1.0
 40
1.0
 40
1.0
 40
1.0
 10
6.1060298472
 20
-27.138189928
 30
0.0
 10
6.1320833152
 20
-28.0752426682
 30
0.0
 10
6.2139250031
 20
-30.0541941093
 30
0.0
 10
6.4180735848
 20
-32.9177500355
 30
0.0
 10
6.7845370046
 20
-36.506519023
 30
0.0
 10
7.3128240203
 20
-40.146007829
 30
0.0
 10
7.8511196085
 20
-42.8797419663
 30
0.0
 10
8.0890164386
 20
-43.9651842808
 30
0.0
 11
6.1060298472
 21
-27.138189928
 31
0.0
 11
6.2227859043
 21
-29.9480097823
 31
0.0
 11
6.4461052167
 21
-33.0688787517
 31
0.0
 11
6.7178762936
 21
-35.7247957462
 31
0.0
 11
7.4435747813
 21
-40.6946454345
 31
0.0
 11
8.0890164386
 21
-43.9651842808
 31
0.0
  0
LINE
  5
3C2
100
AcDbEntity
  8
SUPERFICI
100
AcDbLine
 62
7
  6
CONTINUOUS
 10
13.2026963558
 20
-31.2757727574
 11
13.1722067481
 21
-31.157187835
  0
LINE
  5
3C3
100
AcDbEntity
  8
SUPERFICI
100
AcDbLine
 62
7
  6
CONTINUOUS
 10
13.0564535572
 20
-30.7026304483
 11
12.6409028636
 21
-30.4963749757
  0
LINE
  5
3C4
100
AcDbEntity
  8
RACCORDO
100
AcDbLine
 62
253
  6
CONTINUOUS
 10
-33.1008543993
 20
6.725237412
 11
-33.1007456027
 21
5.8222293634
  0
SPLINE
  5
3C5
100
AcDbEntity
  8
RACCORDO
100
AcDbSpline
 62
253
  6
CONTINUOUS
 70
0
 71
3
 72
30
 73
26
 74
24
 42
0.0000001
 43
0.0000001
 44
0.0000000001
 12
0.0061856347
 22
-25.8902483781
 32
0.0
 13
0.4233959117
 23
-25.8868259045
 33
0.0
 40
0.0
 40
0.0
 40
0.0
 40
0.0
 40
0.0671583258
 40
0.1603261301
 40
0.2450433211
 40
0.3218100081
 40
0.3913492961
 40
0.4545246263
 40
0.5121725
 40
0.5648679578
 40
0.613093963
 40
0.6573239459
 40
0.6980242239
 40
0.7356518763
 40
0.7704801975
 40
0.802603817
 40
0.8322274305
 40
0.8596422743
 40
0.8850253774
 40
0.9084331565
 40
0.929982632
 40
0.9498409487
 40
0.9680770651
 40
0.9847586007
 40
1.0
 40
1.0
 40
1.0
 40
1.0
 10
-33.1007456027
 20
5.8222293634
 30
0.0
 10
-33.1006071304
 20
5.2426474511
 30
0.0
 10
-33.0999666648
 20
3.8590197289
 30
0.0
 10
-33.0979759275
 20
1.7442764086
 30
0.0
 10
-33.0948565788
 20
-0.4533865867
 30
0.0
 10
-33.091219129
 20
-2.4471323595
 30
0.0
 10
-33.0878434775
 20
-4.2549702352
 30
0.0
 10
-33.0851204075
 20
-5.8978120875
 30
0.0
 10
-33.0832616007
 20
-7.3952914399
 30
0.0
 10
-33.0823728492
 20
-8.7637577453
 30
0.0
 10
-33.082153595
 20
-10.0164267629
 30
0.0
 10
-33.0822961523
 20
-11.1655763866
 30
0.0
 10
-33.0827246696
 20
-12.2232612517
 30
0.0
 10
-33.0828974071
 20
-13.1998090937
 30
0.0
 10
-33.082250247
 20
-14.1023396758
 30
0.0
 10
-33.0802528501
 20
-14.9357928214
 30
0.0
 10
-33.0768227375
 20
-15.7052619306
 30
0.0
 10
-33.0719889412
 20
-16.4165510572
 30
0.0
 10
-33.0659317506
 20
-17.0741856438
 30
0.0
 10
-33.0588578472
 20
-17.6811878194
 30
0.0
 10
-33.0519993997
 20
-18.2405094729
 30
0.0
 10
-33.0455813718
 20
-18.7552013965
 30
0.0
 10
-33.0401502037
 20
-19.2278913486
 30
0.0
 10
-33.0347701474
 20
-19.6607348829
 30
0.0
 10
-33.0307866109
 20
-19.9362038178
 30
0.0
 10
-33.0286355621
 20
-20.0677209682
 30
0.0
 11
-33.1007456027
 21
5.8222293634
 31
0.0
 11
-33.0999544038
 21
4.0834837579
 31
0.0
 11
-33.0977059653
 21
1.6713471827
 31
0.0
 11
-33.0946038357
 21
-0.5219997648
 31
0.0
 11
-33.0910904556
 21
-2.5095052782
 31
0.0
 11
-33.0878068656
 21
-4.3098917436
 31
0.0
 11
-33.0851600002
 21
-5.9455146128
 31
0.0
 11
-33.0833623775
 21
-7.438031315
 31
0.0
 11
-33.0824604515
 21
-8.802329525
 31
0.0
 11
-33.0822124875
 21
-10.0509127669
 31
0.0
 11
-33.0823558084
 21
-11.1960380147
 31
0.0
 11
-33.0826937524
 21
-12.2497782802
 31
0.0
 11
-33.0827509289
 21
-13.2239675565
 31
0.0
 11
-33.0819709122
 21
-14.1256811182
 31
0.0
 11
-33.0799038641
 21
-14.9573670449
 31
0.0
 11
-33.0764273387
 21
-15.7243218875
 31
0.0
 11
-33.0715731656
 21
-16.4340824125
 31
0.0
 11
-33.0654963459
 21
-17.0912291677
 31
0.0
 11
-33.0586070023
 21
-17.6972232299
 31
0.0
 11
-33.051800365
 21
-18.2551029863
 31
0.0
 11
-33.0454943228
 21
-18.7692010719
 31
0.0
 11
-33.039918847
 21
-19.2413057383
 31
0.0
 11
-33.0344629026
 21
-19.6731603791
 31
0.0
 11
-33.0286355621
 21
-20.0677209682
 31
0.0
  0
SPLINE
  5
3C6
100
AcDbEntity
  8
RACCORDO
100
AcDbSpline
 62
253
  6
CONTINUOUS
 70
0
 71
3
 72
12
 73
8
 74
6
 42
0.0000001
 43
0.0000001
 44
0.0000000001
 12
0.0248531752
 22
-1.5195466022
 32
0.0
 13
0.0696082288
 23
-1.5181555172
 33
0.0
 40
0.0
 40
0.0
 40
0.0
 40
0.0
 40
0.2389436796
 40
0.4616822983
 40
0.6714685824
 40
0.8711647743
 40
1.0
 40
1.0
 40
1.0
 40
1.0
 10
-33.0286355621
 20
-20.0677209682
 30
0.0
 10
-33.0266560591
 20
-20.1887496537
 30
0.0
 10
-33.0224236458
 20
-20.4225928298
 30
0.0
 10
-33.0139335904
 20
-20.7626433379
 30
0.0
 10
-33.0042105971
 20
-21.0827697063
 30
0.0
 10
-32.994052292
 20
-21.3552851129
 30
0.0
 10
-32.986832174
 20
-21.5215577522
 30
0.0
 10
-32.9838428434
 20
-21.5867550551
 30
0.0
 11
-33.0286355621
 21
-20.0677209682
 31
0.0
 11
-33.0218451485
 21
-20.4307915382
 31
0.0
 11
-33.0134560938
 21
-20.7691940341
 31
0.0
 11
-33.0036801766
 21
-21.0878663059
 31
0.0
 11
-32.9923380342
 21
-21.391142081
 31
0.0
 11
-32.9838428434
 21
-21.5867550551
 31
0.0
  0
LINE
  5
3C7
100
AcDbEntity
  8
SUPERFICI
100
AcDbLine
 62
7
  6
CONTINUOUS
 10
14.5157106542
 20
-32.5016234826
 11
14.4336303557
 21
-32.4613793961
  0
LINE
  5
3C8
100
AcDbEntity
  8
SUPERFICI
100
AcDbLine
 62
7
  6
CONTINUOUS
 10
14.4336303557
 20
-32.4613793961
 11
14.2688198047
 21
-32.3804760077
  0
LINE
  5
3C9
100
AcDbEntity
  8
SUPERFICI
100
AcDbLine
 62
7
  6
CONTINUOUS
 10
14.2688198047
 20
-32.3804760077
 11
14.2643621003
 21
-32.2667907704
  0
LINE
  5
3CA
100
AcDbEntity
  8
SUPERFICI
100
AcDbLine
 62
7
  6
CONTINUOUS
 10
14.247847017
 20
-31.8154747127
 11
14.2440349697
 21
-31.7035023682
  0
SPLINE
  5
3CB
100
AcDbEntity
  8
RACCORDO
100
AcDbSpline
 62
253
  6
CONTINUOUS
 70
0
 71
3
 72
14
 73
10
 74
8
 42
0.0000001
 43
0.0000001
 44
0.0000000001
 12
1.6597178155
 22
0.7105869777
 32
0.0
 13
-0.0358002421
 23
1.7993703141
 33
0.0
 40
0.0
 40
0.0
 40
0.0
 40
0.0
 40
0.1164148883
 40
0.269263267
 40
0.4223928324
 40
0.5737740957
 40
0.7196618973
 40
0.8604363673
 40
1.0
 40
1.0
 40
1.0
 40
1.0
 10
33.1539445181
 20
-55.9524689734
 30
0.0
 10
33.2183498061
 20
-55.9248946722
 30
0.0
 10
33.3609856254
 20
-55.8462404144
 30
0.0
 10
33.5506557317
 20
-55.6741553535
 30
0.0
 10
33.706585887
 20
-55.4458329094
 30
0.0
 10
33.8137978259
 20
-55.1963553805
 30
0.0
 10
33.8795476913
 20
-54.9410845509
 30
0.0
 10
33.9124759978
 20
-54.6870051006
 30
0.0
 10
33.9167597195
 20
-54.5185800975
 30
0.0
 10
33.9150942489
 20
-54.4348712116
 30
0.0
 11
33.1539445181
 21
-55.9524689734
 31
0.0
 11
33.3376246494
 21
-55.8510799414
 31
0.0
 11
33.5422755013
 21
-55.6672595616
 31
0.0
 11
33.6992583526
 21
-55.4407491588
 31
0.0
 11
33.8083263183
 21
-55.1910886293
 31
0.0
 11
33.8749069358
 21
-54.9371126592
 31
0.0
 11
33.9081884533
 21
-54.6859526173
 31
0.0
 11
33.9150942489
 21
-54.4348712116
 31
0.0
  0
SPLINE
  5
3CC
100
AcDbEntity
  8
SUPERFICI
100
AcDbSpline
 62
7
  6
CONTINUOUS
 70
0
 71
3
 72
14
 73
10
 74
8
 42
0.0000001
 43
0.0000001
 44
0.0000000001
 12
-0.1760636544
 22
0.7086153725
 32
0.0
 13
-0.5965602365
 23
0.4210107372
 33
0.0
 40
0.0
 40
0.0
 40
0.0
 40
0.0
 40
0.1052790018
 40
0.2193488339
 40
0.3439197653
 40
0.485067585
 40
0.6454316376
 40
0.8194394992
 40
1.0
 40
1.0
 40
1.0
 40
1.0
 10
15.2439989785
 20
-33.5419881909
 30
0.0
 10
15.2378203765
 20
-33.5171207512
 30
0.0
 10
15.2247694278
 20
-33.4653525317
 30
0.0
 10
15.2027864146
 20
-33.3845768431
 30
0.0
 10
15.1756491575
 20
-33.296188743
 30
0.0
 10
15.140191929
 20
-33.1986694759
 30
0.0
 10
15.0917734229
 20
-33.0933047543
 30
0.0
 10
15.0244484054
 20
-32.9870103869
 30
0.0
 10
14.9622329777
 20
-32.9251936709
 30
0.0
 10
14.926327906
 20
-32.8998543677
 30
0.0
 11
15.2439989785
 21
-33.5419881909
 31
0.0
 11
15.2250691068
 21
-33.4674848885
 31
0.0
 11
15.2030468108
 21
-33.3871597929
 31
0.0
 11
15.1761466693
 21
-33.3002718538
 31
0.0
 11
15.140561662
 21
-33.2035496596
 31
0.0
 11
15.0909381866
 21
-33.0974934283
 31
0.0
 11
15.0214859885
 21
-32.9911025429
 31
0.0
 11
14.926327906
 21
-32.8998543677
 31
0.0
  0
SPLINE
  5
3CD
100
AcDbEntity
  8
SUPERFICI
100
AcDbSpline
 62
7
  6
CONTINUOUS
 70
0
 71
3
 72
9
 73
5
 74
3
 42
0.0000001
 43
0.0000001
 44
0.0000000001
 12
-0.750832414
 22
0.6813226944
 32
0.0
 13
-0.9580751408
 23
0.333124224
 33
0.0
 40
0.0
 40
0.0
 40
0.0
 40
0.0
 40
0.6146223105
 40
1.0
 40
1.0
 40
1.0
 40
1.0
 10
14.8833040785
 20
-31.6564146311
 30
0.0
 10
14.7294779608
 20
-31.5168292549
 30
0.0
 10
14.438505251
 20
-31.3331169515
 30
0.0
 10
14.1231662647
 20
-31.2105359868
 30
0.0
 10
14.00009267
 20
-31.1677431056
 30
0.0
 11
14.8833040785
 21
-31.6564146311
 31
0.0
 11
14.3625967036
 21
-31.3140949044
 31
0.0
 11
14.00009267
 21
-31.1677431056
 31
0.0
  0
SPLINE
  5
3CE
100
AcDbEntity
  8
SUPERFICI
100
AcDbSpline
 62
7
  6
CONTINUOUS
 70
0
 71
3
 72
8
 73
4
 74
2
 42
0.0000001
 43
0.0000001
 44
0.0000000001
 12
-0.1829407632
 22
0.0636087893
 32
0.0
 13
-0.1844670989
 23
0.0587485283
 33
0.0
 40
0.0
 40
0.0
 40
0.0
 40
0.0
 40
1.0
 40
1.0
 40
1.0
 40
1.0
 10
14.00009267
 20
-31.1677431056
 30
0.0
 10
13.9391124156
 20
-31.1465401758
 30
0.0
 10
13.8777518879
 20
-31.126428999
 30
0.0
 10
13.8162628549
 20
-31.1068461562
 30
0.0
 11
14.00009267
 21
-31.1677431056
 31
0.0
 11
13.8162628549
 21
-31.1068461562
 31
0.0
  0
SPLINE
  5
3CF
100
AcDbEntity
  8
RACCORDO
100
AcDbSpline
 62
253
  6
CONTINUOUS
 70
0
 71
3
 72
12
 73
8
 74
6
 42
0.0000001
 43
0.0000001
 44
0.0000000001
 12
-13.283239347
 22
7.1032483562
 32
0.0
 13
-11.652944511
 23
9.5451280199
 33
0.0
 40
0.0
 40
0.0
 40
0.0
 40
0.0
 40
0.1687632043
 40
0.3551899494
 40
0.5131043001
 40
0.8071365657
 40
1.0
 40
1.0
 40
1.0
 40
1.0
 10
-20.5351077605
 20
-1.5406225717
 30
0.0
 10
-21.282348439
 20
-1.1410335872
 30
0.0
 10
-22.8438542106
 20
-0.2789291292
 30
0.0
 10
-25.0613509533
 20
1.0336074705
 30
0.0
 10
-27.7676052972
 20
2.7518634719
 30
0.0
 10
-30.4242402394
 20
4.6063393218
 30
0.0
 10
-32.3517123691
 20
6.1116022422
 30
0.0
 10
-33.1008546684
 20
6.7252376324
 30
0.0
 11
-20.5351077605
 21
-1.5406225717
 31
0.0
 11
-22.7602246855
 21
-0.3113078991
 31
0.0
 11
-25.1762539436
 21
1.1200260423
 31
0.0
 11
-27.1839800895
 21
2.3956601922
 31
0.0
 11
-30.812412047
 21
4.9355746587
 31
0.0
 11
-33.1008546684
 21
6.7252376324
 31
0.0
  0
SPLINE
  5
3D0
100
AcDbEntity
  8
RACCORDO
100
AcDbSpline
 62
253
  6
CONTINUOUS
 70
0
 71
3
 72
26
 73
22
 74
20
 42
0.0000001
 43
0.0000001
 44
0.0000000001
 12
0.0000005818
 22
-9.0954991722
 32
0.0
 13
0.0095775264
 23
-9.0954941297
 33
0.0
 40
0.0
 40
0.0
 40
0.0
 40
0.0
 40
0.0934404551
 40
0.1794845119
 40
0.2587979894
 40
0.3319882212
 40
0.3995821056
 40
0.4619710912
 40
0.5192659273
 40
0.5713981888
 40
0.6187393879
 40
0.6626169403
 40
0.7044135259
 40
0.7454383613
 40
0.7858445401
 40
0.8245230152
 40
0.8611754593
 40
0.896373142
 40
0.9307765761
 40
0.9652757483
 40
1.0
 40
1.0
 40
1.0
 40
1.0
 10
-20.5351048563
 20
-1.5406241247
 30
0.0
 10
-20.5351048382
 20
-1.8239199854
 30
0.0
 10
-20.5350714936
 20
-2.3680870617
 30
0.0
 10
-20.5349964695
 20
-3.1527193575
 30
0.0
 10
-20.5349571296
 20
-3.8759563598
 30
0.0
 10
-20.534959816
 20
-4.5432555201
 30
0.0
 10
-20.5349961728
 20
-5.1592424463
 30
0.0
 10
-20.5350801479
 20
-5.7270371797
 30
0.0
 10
-20.5351501953
 20
-6.2479548598
 30
0.0
 10
-20.5350696103
 20
-6.7232501638
 30
0.0
 10
-20.5348997545
 20
-7.1578664742
 30
0.0
 10
-20.5346362156
 20
-7.5611466889
 30
0.0
 10
-20.5342905892
 20
-7.9452766727
 30
0.0
 10
-20.5338475503
 20
-8.3188819289
 30
0.0
 10
-20.5332735185
 20
-8.6830334037
 30
0.0
 10
-20.5325602713
 20
-9.0339282667
 30
0.0
 10
-20.5316299936
 20
-9.3690312566
 30
0.0
 10
-20.5308209556
 20
-9.6911732984
 30
0.0
 10
-20.5300981765
 20
-10.0067871781
 30
0.0
 10
-20.5295083765
 20
-10.3209659535
 30
0.0
 10
-20.5291464139
 20
-10.5308395316
 30
0.0
 10
-20.5290355564
 20
-10.6361176074
 30
0.0
 11
-20.5351048563
 21
-1.5406241247
 31
0.0
 11
-20.5350650548
 21
-2.3905117059
 31
0.0
 11
-20.5350001141
 21
-3.1731253509
 31
0.0
 11
-20.5349634258
 21
-3.8945210189
 31
0.0
 11
-20.5349662287
 21
-4.5602227109
 31
0.0
 11
-20.5350065756
 21
-5.1750228292
 31
0.0
 11
-20.5350811081
 21
-5.7424817913
 31
0.0
 11
-20.5351246491
 21
-6.2636069243
 31
0.0
 11
-20.5350488187
 21
-6.7377758598
 31
0.0
 11
-20.5348760841
 21
-7.1683676619
 31
0.0
 11
-20.5346153138
 21
-7.5674558183
 31
0.0
 11
-20.5342701887
 21
-7.9476164716
 31
0.0
 11
-20.5338208559
 21
-8.3207575568
 31
0.0
 11
-20.5332367016
 21
-8.6882714591
 31
0.0
 11
-20.532503023
 21
-9.040070732
 31
0.0
 11
-20.5316327522
 21
-9.3734418707
 31
0.0
 11
-20.5308268537
 21
-9.6935813506
 31
0.0
 11
-20.5301203398
 21
-10.0064969591
 31
0.0
 11
-20.5295176125
 21
-10.3202835729
 31
0.0
 11
-20.5290355564
 21
-10.6361176074
 31
0.0
  0
LINE
  5
3D1
100
AcDbEntity
  8
SUPERFICI
100
AcDbLine
 62
7
  6
CONTINUOUS
 10
14.3143095918
 20
-33.1086689393
 11
14.3068775222
 21
-32.9469870589
  0
LINE
  5
3D2
100
AcDbEntity
  8
SUPERFICI
100
AcDbLine
 62
7
  6
CONTINUOUS
 10
14.3068775222
 20
-32.9469870589
 11
14.299925416
 21
-32.790384279
  0
SPLINE
  5
3D3
100
AcDbEntity
  8
RACCORDO
100
AcDbSpline
 62
253
  6
CONTINUOUS
 70
0
 71
3
 72
22
 73
18
 74
16
 42
0.0000001
 43
0.0000001
 44
0.0000000001
 12
0.0057091416
 22
-5.4330369895
 32
0.0
 13
4.864033111
 23
-2.4205589062
 33
0.0
 40
0.0
 40
0.0
 40
0.0
 40
0.0
 40
0.061799555
 40
0.1247736979
 40
0.1892766574
 40
0.2537627563
 40
0.3167620348
 40
0.3821321516
 40
0.4463876171
 40
0.5138463885
 40
0.5797273598
 40
0.6429716489
 40
0.7074549315
 40
0.7756524022
 40
0.8477849083
 40
0.9229421945
 40
1.0
 40
1.0
 40
1.0
 40
1.0
 10
-20.5290355564
 20
-10.6361176074
 30
0.0
 10
-20.5289179489
 20
-10.7480373635
 30
0.0
 10
-20.5193954362
 20
-10.9740693647
 30
0.0
 10
-20.4800433882
 20
-11.3148534802
 30
0.0
 10
-20.4161693754
 20
-11.656863744
 30
0.0
 10
-20.3297404397
 20
-11.9938990319
 30
0.0
 10
-20.2210129236
 20
-12.3260741696
 30
0.0
 10
-20.0915630004
 20
-12.6501946625
 30
0.0
 10
-19.9428911866
 20
-12.9749192573
 30
0.0
 10
-19.77034183
 20
-13.2887721392
 30
0.0
 10
-19.5799635984
 20
-13.5898486482
 30
0.0
 10
-19.3747475075
 20
-13.87441588
 30
0.0
 10
-19.1495981169
 20
-14.1489682607
 30
0.0
 10
-18.8951073604
 20
-14.4192594681
 30
0.0
 10
-18.6057175722
 20
-14.6817991293
 30
0.0
 10
-18.2803113668
 20
-14.926145385
 30
0.0
 10
-18.0418247017
 20
-15.0661645462
 30
0.0
 10
-17.9168874625
 20
-15.1283388654
 30
0.0
 11
-20.5290355564
 21
-10.6361176074
 31
0.0
 11
-20.515457276
 21
-10.9716023925
 31
0.0
 11
-20.4764777434
 21
-11.3115157416
 31
0.0
 11
-20.4123757488
 21
-11.656050421
 31
0.0
 11
-20.3253656074
 21
-11.995429633
 31
0.0
 11
-20.2190025608
 21
-12.3207615515
 31
0.0
 11
-20.0880999839
 21
-12.6509161306
 31
0.0
 11
-19.941580836
 21
-12.9677831442
 31
0.0
 11
-19.7657154945
 21
-13.2893390153
 31
0.0
 11
-19.574333816
 21
-13.5918117692
 31
0.0
 11
-19.3732672251
 21
-13.8704498864
 31
0.0
 11
-19.1509395798
 21
-14.1412057007
 31
0.0
 11
-18.8966691531
 21
-14.4107076732
 31
0.0
 11
-18.6059822139
 21
-14.6735493843
 31
0.0
 11
-18.278751466
 21
-14.9177941426
 31
0.0
 11
-17.9168874625
 21
-15.1283388654
 31
0.0
  0
SPLINE
  5
3D4
100
AcDbEntity
  8
RACCORDO
100
AcDbSpline
 62
253
  6
CONTINUOUS
 70
0
 71
3
 72
18
 73
14
 74
12
 42
0.0000001
 43
0.0000001
 44
0.0000000001
 12
7.4122076692
 22
-3.6887143971
 32
0.0
 13
7.4052648883
 23
-3.7026326268
 33
0.0
 40
0.0
 40
0.0
 40
0.0
 40
0.0
 40
0.1162784763
 40
0.2291976748
 40
0.3448038332
 40
0.4597048267
 40
0.5627919285
 40
0.6547350042
 40
0.7376461108
 40
0.8126774268
 40
0.8808447858
 40
0.9430010703
 40
1.0
 40
1.0
 40
1.0
 40
1.0
 10
-17.9168874625
 20
-15.1283388654
 30
0.0
 10
-17.6295940579
 20
-15.2713115619
 30
0.0
 10
-17.0634354035
 20
-15.5533844135
 30
0.0
 10
-16.2121519549
 20
-15.9786205904
 30
0.0
 10
-15.3642090883
 20
-16.4020371535
 30
0.0
 10
-14.5407296218
 20
-16.813706531
 30
0.0
 10
-13.775848401
 20
-17.1965459742
 30
0.0
 10
-13.0898846193
 20
-17.5398090289
 30
0.0
 10
-12.4731290714
 20
-17.8483548365
 30
0.0
 10
-11.9150431454
 20
-18.1275186668
 30
0.0
 10
-11.4081719384
 20
-18.3810328151
 30
0.0
 10
-10.9458002937
 20
-18.6122672617
 30
0.0
 10
-10.6516769754
 20
-18.7593339024
 30
0.0
 10
-10.5109795843
 20
-18.8296826014
 30
0.0
 11
-17.9168874625
 21
-15.1283388654
 31
0.0
 11
-17.0552131514
 21
-15.5576704529
 31
0.0
 11
-16.2187759763
 21
-15.9752872167
 31
0.0
 11
-15.3625005399
 21
-16.4029717378
 31
0.0
 11
-14.5116032611
 21
-16.8283579293
 31
0.0
 11
-13.7483399815
 21
-17.2102995266
 31
0.0
 11
-13.0675870049
 21
-17.5509505761
 31
0.0
 11
-12.4536781441
 21
-17.8580795973
 31
0.0
 11
-11.8980990811
 21
-18.1359883897
 31
0.0
 11
-11.3933332382
 21
-18.388450082
 31
0.0
 11
-10.9330674787
 21
-18.6186279471
 31
0.0
 11
-10.5109795843
 21
-18.8296826014
 31
0.0
  0
SPLINE
  5
3D5
100
AcDbEntity
  8
SUPERFICI
100
AcDbSpline
 62
7
  6
CONTINUOUS
 70
0
 71
3
 72
9
 73
5
 74
3
 42
0.0000001
 43
0.0000001
 44
0.0000000001
 12
-0.1559798423
 22
0.6139736126
 32
0.0
 13
-0.1505921728
 23
0.6153150954
 33
0.0
 40
0.0
 40
0.0
 40
0.0
 40
0.0
 40
0.6039295727
 40
1.0
 40
1.0
 40
1.0
 40
1.0
 10
15.4247278119
 20
-34.2778056642
 30
0.0
 10
15.3933275321
 20
-34.1542067237
 30
0.0
 10
15.3432513893
 20
-33.9490664258
 30
0.0
 10
15.2936028256
 20
-33.743826199
 30
0.0
 10
15.2737211235
 20
-33.6625901614
 30
0.0
 11
15.4247278119
 21
-34.2778056642
 31
0.0
 11
15.3329985564
 21
-33.9063896916
 31
0.0
 11
15.2737211235
 21
-33.6625901614
 31
0.0
  0
SPLINE
  5
3D6
100
AcDbEntity
  8
RACCORDO
100
AcDbSpline
 62
253
  6
CONTINUOUS
 70
0
 71
3
 72
16
 73
12
 74
10
 42
0.0000001
 43
0.0000001
 44
0.0000000001
 12
0.0797945477
 22
4.0874653819
 32
0.0
 13
-3.692108742
 23
1.7555835085
 33
0.0
 40
0.0
 40
0.0
 40
0.0
 40
0.0
 40
0.1085302762
 40
0.2128751013
 40
0.316416739
 40
0.420769277
 40
0.5272660403
 40
0.6377127322
 40
0.7541902729
 40
0.876008389
 40
1.0
 40
1.0
 40
1.0
 40
1.0
 10
33.9150933364
 20
22.6413448544
 30
0.0
 10
33.9179800445
 20
22.7892161034
 30
0.0
 10
33.9008800006
 20
23.0799950841
 30
0.0
 10
33.8214540896
 20
23.5046687773
 30
0.0
 10
33.6983808365
 20
23.9127901597
 30
0.0
 10
33.5341473821
 20
24.3092284783
 30
0.0
 10
33.3275678924
 20
24.6960833843
 30
0.0
 10
33.0735274778
 20
25.0738027496
 30
0.0
 10
32.7644836496
 20
25.4364840222
 30
0.0
 10
32.395330803
 20
25.7667534361
 30
0.0
 10
32.1089796908
 20
25.9457759536
 30
0.0
 10
31.9563828539
 20
26.0183351628
 30
0.0
 11
33.9150933364
 21
22.6413448544
 31
0.0
 11
33.8910992786
 21
23.0843938804
 31
0.0
 11
33.8137553059
 21
23.5039108447
 31
0.0
 11
33.6920881737
 21
23.9093525292
 31
0.0
 11
33.5290405339
 21
24.303584624
 31
0.0
 11
33.3238882259
 21
24.6876060166
 31
0.0
 11
33.0714435896
 21
25.0619772175
 31
0.0
 11
32.7616564232
 21
25.42362279
 31
0.0
 11
32.3887326454
 21
25.7537045541
 31
0.0
 11
31.9563828539
 21
26.0183351628
 31
0.0
  0
SPLINE
  5
3D7
100
AcDbEntity
  8
RACCORDO
100
AcDbSpline
 62
253
  6
CONTINUOUS
 70
0
 71
3
 72
12
 73
8
 74
6
 42
0.0000001
 43
0.0000001
 44
0.0000000001
 12
-3.6324551905
 22
16.5736574496
 32
0.0
 13
-0.4715634069
 23
16.9604976337
 33
0.0
 40
0.0
 40
0.0
 40
0.0
 40
0.0
 40
0.1964760617
 40
0.4924941071
 40
0.6498452783
 40
0.8342526097
 40
1.0
 40
1.0
 40
1.0
 40
1.0
 10
-8.5279929193
 20
-35.6566796019
 30
0.0
 10
-8.7658897494
 20
-34.5712372874
 30
0.0
 10
-9.3041853376
 20
-31.8375031501
 30
0.0
 10
-9.8324723533
 20
-28.198014344
 30
0.0
 10
-10.1989357731
 20
-24.6092453565
 30
0.0
 10
-10.4030843548
 20
-21.7456894304
 30
0.0
 10
-10.4849260427
 20
-19.7667379893
 30
0.0
 10
-10.5109795107
 20
-18.8296852491
 30
0.0
 11
-8.5279929193
 21
-35.6566796019
 31
0.0
 11
-9.1734345765
 21
-32.3861407556
 31
0.0
 11
-9.8991330643
 21
-27.4162910673
 31
0.0
 11
-10.1709041412
 21
-24.7603740728
 31
0.0
 11
-10.3942234536
 21
-21.6395051034
 31
0.0
 11
-10.5109795107
 21
-18.8296852491
 31
0.0
  0
SPLINE
  5
3D8
100
AcDbEntity
  8
RACCORDO
100
AcDbSpline
 62
253
  6
CONTINUOUS
 70
0
 71
3
 72
16
 73
12
 74
10
 42
0.0000001
 43
0.0000001
 44
0.0000000001
 12
0.0123896439
 22
2.7346011354
 32
0.0
 13
-2.4464890492
 23
1.2218380438
 33
0.0
 40
0.0
 40
0.0
 40
0.0
 40
0.0
 40
0.1082914317
 40
0.2127531354
 40
0.3162202023
 40
0.4204289946
 40
0.5268801588
 40
0.6372724098
 40
0.7537083723
 40
0.8757810001
 40
1.0
 40
1.0
 40
1.0
 40
1.0
 10
32.6323581831
 20
22.6491807992
 30
0.0
 10
32.6328054139
 20
22.7478920899
 30
0.0
 10
32.6182099967
 20
22.9420649851
 30
0.0
 10
32.5614952508
 20
23.2251957875
 30
0.0
 10
32.4770575255
 20
23.4974043414
 30
0.0
 10
32.366071774
 20
23.7618197036
 30
0.0
 10
32.2276768403
 20
24.0201815686
 30
0.0
 10
32.0584870688
 20
24.2731281591
 30
0.0
 10
31.8532424784
 20
24.5171035816
 30
0.0
 10
31.6086156312
 20
24.7409796219
 30
0.0
 10
31.4191198867
 20
24.864602369
 30
0.0
 10
31.3178197457
 20
24.9151942023
 30
0.0
 11
32.6323581831
 21
22.6491807992
 31
0.0
 11
32.6118427144
 21
22.9446062313
 31
0.0
 11
32.5565325941
 21
23.2248645515
 31
0.0
 11
32.4729899138
 21
23.4951939119
 31
0.0
 11
32.362855946
 21
23.7580242404
 31
0.0
 11
32.2253735303
 21
24.0146180698
 31
0.0
 11
32.0572244108
 21
24.2653341226
 31
0.0
 11
31.851661429
 21
24.5084971716
 31
0.0
 11
31.6043160613
 21
24.7326808311
 31
0.0
 11
31.3178197457
 21
24.9151942023
 31
0.0
  0
SPLINE
  5
3D9
100
AcDbEntity
  8
RACCORDO
100
AcDbSpline
 62
253
  6
CONTINUOUS
 70
0
 71
3
 72
34
 73
30
 74
28
 42
0.0000001
 43
0.0000001
 44
0.0000000001
 12
-0.0000029043
 22
28.4537945199
 32
0.0
 13
0.1301181423
 23
28.4534970056
 33
0.0
 40
0.0
 40
0.0
 40
0.0
 40
0.0
 40
0.096354405
 40
0.1839958746
 40
0.2633676848
 40
0.3350086821
 40
0.3996823693
 40
0.4582718005
 40
0.5115807477
 40
0.560153501
 40
0.6044868621
 40
0.6450551801
 40
0.6823258041
 40
0.7167165007
 40
0.7483801636
 40
0.777441401
 40
0.8041960013
 40
0.8289212631
 40
0.8517149901
 40
0.8726592398
 40
0.8919055315
 40
0.9095478795
 40
0.9256303438
 40
0.9402719075
 40
0.9536869833
 40
0.9661682645
 40
0.9779354604
 40
0.9891647635
 40
1.0
 40
1.0
 40
1.0
 40
1.0
 10
32.6618777584
 20
-5.8045316779
 30
0.0
 10
32.6618776651
 20
-4.8906488645
 30
0.0
 10
32.6617101854
 20
-3.145521927
 30
0.0
 10
32.6611608159
 20
-0.6475853212
 30
0.0
 10
32.6604252972
 20
1.6159544834
 30
0.0
 10
32.6596199047
 20
3.6616540581
 30
0.0
 10
32.6589286114
 20
5.510241149
 30
0.0
 10
32.6584120628
 20
7.1849561622
 30
0.0
 10
32.6581381336
 20
8.706960347
 30
0.0
 10
32.6581105526
 20
10.0937514551
 30
0.0
 10
32.6581466736
 20
11.3597028133
 30
0.0
 10
32.6582183603
 20
12.51845801
 30
0.0
 10
32.6581454255
 20
13.5829110531
 30
0.0
 10
32.6576095523
 20
14.5629068991
 30
0.0
 10
32.656700469
 20
15.4650396831
 30
0.0
 10
32.6555098927
 20
16.2947467738
 30
0.0
 10
32.6540043059
 20
17.0586452892
 30
0.0
 10
32.6524942027
 20
17.7630987706
 30
0.0
 10
32.6511297798
 20
18.4124437943
 30
0.0
 10
32.6508283738
 20
19.0098243382
 30
0.0
 10
32.6504500658
 20
19.5583458255
 30
0.0
 10
32.6496930616
 20
20.0607552884
 30
0.0
 10
32.6474837719
 20
20.5194866913
 30
0.0
 10
32.6440339973
 20
20.938114605
 30
0.0
 10
32.6401656836
 20
21.3225812077
 30
0.0
 10
32.6358233851
 20
21.6797788124
 30
0.0
 10
32.633063761
 20
22.0162609366
 30
0.0
 10
32.6316614141
 20
22.3371391896
 30
0.0
 10
32.6318882295
 20
22.5464140097
 30
0.0
 10
32.6323581831
 20
22.6491807992
 30
0.0
 11
32.6618777584
 21
-5.8045316779
 31
0.0
 11
32.6616429302
 21
-3.0628832476
 31
0.0
 11
32.6610977593
 21
-0.569150938
 31
0.0
 11
32.6603742654
 21
1.6892781227
 31
0.0
 11
32.6596009384
 21
3.7277361924
 31
0.0
 11
32.6589281179
 21
5.5679478758
 31
0.0
 11
32.658433992
 21
7.2350394393
 31
0.0
 11
32.6581724023
 21
8.7518812453
 31
0.0
 11
32.6581214155
 21
10.1339603871
 31
0.0
 11
32.6581550112
 21
11.3954127328
 31
0.0
 11
32.6581941484
 21
12.5497353162
 31
0.0
 11
32.658055619
 21
13.6102259849
 31
0.0
 11
32.6575171384
 21
14.5887716528
 31
0.0
 11
32.6566086943
 21
15.4897225514
 31
0.0
 11
32.655401579
 21
16.3166241473
 31
0.0
 11
32.6539435916
 21
17.0778926512
 31
0.0
 11
32.6524601078
 21
17.7814186068
 31
0.0
 11
32.6512728117
 21
18.4299855435
 31
0.0
 11
32.6508010826
 21
19.0259287347
 31
0.0
 11
32.6503617567
 21
19.573558587
 31
0.0
 11
32.6493810901
 21
20.0755493752
 31
0.0
 11
32.6471445373
 21
20.5331510444
 31
0.0
 11
32.6438061997
 21
20.9497457117
 31
0.0
 11
32.6399385113
 21
21.3314359284
 31
0.0
 11
32.635982019
 21
21.6865536988
 31
0.0
 11
32.6332406958
 21
22.0213638498
 31
0.0
 11
32.6319407146
 21
22.3408774897
 31
0.0
 11
32.6323581831
 21
22.6491807992
 31
0.0
  0
SPLINE
  5
3DA
100
AcDbEntity
  8
RACCORDO
100
AcDbSpline
 62
253
  6
CONTINUOUS
 70
0
 71
3
 72
11
 73
7
 74
5
 42
0.0000001
 43
0.0000001
 44
0.0000000001
 12
0.0001207722
 22
9.097898017
 32
0.0
 13
-0.0102619693
 23
9.0978922303
 33
0.0
 40
0.0
 40
0.0
 40
0.0
 40
0.0
 40
0.2844058908
 40
0.5447507456
 40
0.782348751
 40
1.0
 40
1.0
 40
1.0
 40
1.0
 10
16.1301546849
 20
0.4783430936
 30
0.0
 10
16.1301661344
 20
1.3408416901
 30
0.0
 10
16.1278687156
 20
2.9928715637
 30
0.0
 10
16.1316119168
 20
5.3654429035
 30
0.0
 10
16.1384436052
 20
7.5355816322
 30
0.0
 10
16.1293501002
 20
8.9161709716
 30
0.0
 10
16.1286055901
 20
9.5762268406
 30
0.0
 11
16.1301546849
 21
0.4783430936
 31
0.0
 11
16.129103885
 21
3.06583867
 31
0.0
 11
16.1323689908
 21
5.4344273579
 31
0.0
 11
16.1349732252
 21
7.5960682123
 31
0.0
 11
16.1286055901
 21
9.5762268406
 31
0.0
  0
SPLINE
  5
3DB
100
AcDbEntity
  8
RACCORDO
100
AcDbSpline
 62
253
  6
CONTINUOUS
 70
0
 71
3
 72
21
 73
17
 74
15
 42
0.0000001
 43
0.0000001
 44
0.0000000001
 12
-0.0080683499
 22
5.4284946782
 32
0.0
 13
-4.8830742477
 23
2.3715407355
 33
0.0
 40
0.0
 40
0.0
 40
0.0
 40
0.0
 40
0.0775007506
 40
0.1505450956
 40
0.2187376615
 40
0.2844714235
 40
0.352611543
 40
0.4204121981
 40
0.490013155
 40
0.5600613304
 40
0.6269997837
 40
0.6940236961
 40
0.7647136328
 40
0.8398948214
 40
0.91870826
 40
1.0
 40
1.0
 40
1.0
 40
1.0
 10
16.1286055901
 20
9.5762268406
 30
0.0
 10
16.1283971557
 20
9.7164643112
 30
0.0
 10
16.1131453466
 20
9.9890005302
 30
0.0
 10
16.0556758526
 20
10.3810262958
 30
0.0
 10
15.9731062196
 20
10.7466326157
 30
0.0
 10
15.8693223486
 20
11.0975270585
 30
0.0
 10
15.7413848675
 20
11.4395493892
 30
0.0
 10
15.5940342823
 20
11.7811748229
 30
0.0
 10
15.4273644565
 20
12.117788659
 30
0.0
 10
15.2391654504
 20
12.4411292978
 30
0.0
 10
15.0323874204
 20
12.7472535508
 30
0.0
 10
14.8049363359
 20
13.0398587331
 30
0.0
 10
14.5465275566
 20
13.3260934824
 30
0.0
 10
14.2490541422
 20
13.6040992436
 30
0.0
 10
13.9096979053
 20
13.8625103993
 30
0.0
 10
13.6583814554
 20
14.0088587587
 30
0.0
 10
13.5260635881
 20
14.0731209829
 30
0.0
 11
16.1286055901
 21
9.5762268406
 31
0.0
 11
16.1062535409
 21
9.9963455267
 31
0.0
 11
16.0492555139
 21
10.3887488237
 31
0.0
 11
15.9681437293
 21
10.7499366148
 31
0.0
 11
15.8666605123
 21
11.0920373668
 31
0.0
 11
15.7383512792
 21
11.4389693164
 31
0.0
 11
15.5924298177
 21
11.7768629003
 31
0.0
 11
15.423992386
 21
12.1150691464
 31
0.0
 11
15.2326583241
 21
12.4436818876
 31
0.0
 11
15.0292015956
 21
12.7447584052
 31
0.0
 11
14.8056710673
 21
13.03183536
 31
0.0
 11
14.5482047257
 21
13.3163836929
 31
0.0
 11
14.2495191349
 21
13.5945019718
 31
0.0
 11
13.9083302879
 21
13.8526418828
 31
0.0
 11
13.5260635881
 21
14.0731209829
 31
0.0
  0
SPLINE
  5
3DC
100
AcDbEntity
  8
RACCORDO
100
AcDbSpline
 62
253
  6
CONTINUOUS
 70
0
 71
3
 72
12
 73
8
 74
6
 42
0.0000001
 43
0.0000001
 44
0.0000000001
 12
-3.9525866835
 22
1.9197409004
 32
0.0
 13
-3.9291624691
 23
1.9672386179
 33
0.0
 40
0.0
 40
0.0
 40
0.0
 40
0.0
 40
0.220301273
 40
0.4336695366
 40
0.6517313976
 40
0.868234941
 40
1.0
 40
1.0
 40
1.0
 40
1.0
 10
13.5260635881
 20
14.0731209829
 30
0.0
 10
13.2358102954
 20
14.214094771
 30
0.0
 10
12.6653108679
 20
14.4934043
 30
0.0
 10
11.8097909503
 20
14.9168929506
 30
0.0
 10
10.9601675551
 20
15.3397488763
 30
0.0
 10
10.2182691115
 20
15.7107915622
 30
0.0
 10
9.7621524595
 20
15.9392033334
 30
0.0
 10
9.589577018
 20
16.0256077709
 30
0.0
 11
13.5260635881
 21
14.0731209829
 31
0.0
 11
12.6565069324
 21
14.4985107664
 31
0.0
 11
11.8161005926
 21
14.9141419486
 31
0.0
 11
10.9582633103
 21
15.3410446407
 31
0.0
 11
10.1073067108
 21
15.7664011266
 31
0.0
 11
9.589577018
 21
16.0256077709
 31
0.0
  0
LINE
  5
3DD
100
AcDbEntity
  8
RACCORDO
100
AcDbLine
 62
253
  6
CONTINUOUS
 10
9.589577018
 20
16.0256077709
 11
9.1092625725
 21
16.2660059004
  0
LINE
  5
3DE
100
AcDbEntity
  8
RACCORDO
100
AcDbLine
 62
253
  6
CONTINUOUS
 10
9.1092625725
 20
16.2660059004
 11
8.8824379306
 21
16.3794652008
  0
LINE
  5
3DF
100
AcDbEntity
  8
RACCORDO
100
AcDbLine
 62
253
  6
CONTINUOUS
 10
8.8824379306
 20
16.3794652008
 11
6.1060297735
 21
17.7674017505
  0
LINE
  5
3E0
100
AcDbEntity
  8
RACCORDO
100
AcDbLine
 62
253
  6
CONTINUOUS
 10
7.018374772
 20
29.5741607809
 11
7.0099731831
 21
29.5071269721
  0
LINE
  5
3E1
100
AcDbEntity
  8
RACCORDO
100
AcDbLine
 62
253
  6
CONTINUOUS
 10
7.0099731831
 20
29.5071269721
 11
6.9990336362
 21
29.4194146724
  0
LINE
  5
3E2
100
AcDbEntity
  8
RACCORDO
100
AcDbLine
 62
253
  6
CONTINUOUS
 10
6.7943339904
 20
27.6763488864
 11
6.7849289684
 21
27.5909470907
  0
SPLINE
  5
3E3
100
AcDbEntity
  8
RACCORDO
100
AcDbSpline
 62
253
  6
CONTINUOUS
 70
0
 71
3
 72
41
 73
37
 74
35
 42
0.0000001
 43
0.0000001
 44
0.0000000001
 12
-23.2531457759
 22
11.6138919817
 32
0.0
 13
-23.2480741114
 23
11.6240408442
 33
0.0
 40
0.0
 40
0.0
 40
0.0
 40
0.0
 40
0.0107494518
 40
0.0216785207
 40
0.0326673997
 40
0.0434157612
 40
0.0536024503
 40
0.063382018
 40
0.0731801512
 40
0.083292139
 40
0.093957632
 40
0.1053675314
 40
0.1177231138
 40
0.1312377106
 40
0.1461096528
 40
0.1624215349
 40
0.1801155957
 40
0.1991425619
 40
0.2195155635
 40
0.2414531644
 40
0.2652214518
 40
0.2910750576
 40
0.3192694657
 40
0.350045941
 40
0.3835954203
 40
0.4201078031
 40
0.4597744339
 40
0.5027491145
 40
0.5491522071
 40
0.5991569257
 40
0.6532060904
 40
0.7117974256
 40
0.7753855559
 40
0.8443643855
 40
0.9191059377
 40
1.0
 40
1.0
 40
1.0
 40
1.0
 10
31.3178197457
 20
24.9151942023
 30
0.0
 10
31.2345002226
 20
24.9568085263
 30
0.0
 10
31.0668044886
 20
25.041405856
 30
0.0
 10
30.8151114289
 20
25.1708643088
 30
0.0
 10
30.5644808608
 20
25.3023439438
 30
0.0
 10
30.31970356
 20
25.431129338
 30
0.0
 10
30.0835226094
 20
25.5537582327
 30
0.0
 10
29.8530671793
 20
25.6694918305
 30
0.0
 10
29.6232037775
 20
25.7849520063
 30
0.0
 10
29.3864512088
 20
25.9038002954
 30
0.0
 10
29.1373969592
 20
26.029267787
 30
0.0
 10
28.8710040607
 20
26.1635235643
 30
0.0
 10
28.5825415121
 20
26.3088369615
 30
0.0
 10
28.2673049997
 20
26.4676734371
 30
0.0
 10
27.9214930778
 20
26.6420051681
 30
0.0
 10
27.5434764988
 20
26.8328952174
 30
0.0
 10
27.1333535076
 20
27.0400681155
 30
0.0
 10
26.6917609866
 20
27.2629802551
 30
0.0
 10
26.2171931553
 20
27.5021557613
 30
0.0
 10
25.7056845745
 20
27.7593082207
 30
0.0
 10
25.151593504
 20
28.0374747673
 30
0.0
 10
24.548870419
 20
28.3395939713
 30
0.0
 10
23.8917099566
 20
28.6686113073
 30
0.0
 10
23.1748054081
 20
29.0272358445
 30
0.0
 10
22.3934476541
 20
29.4181013808
 30
0.0
 10
21.5432829994
 20
29.843585513
 30
0.0
 10
20.6201317349
 20
30.3056944827
 30
0.0
 10
19.6203612898
 20
30.8061816889
 30
0.0
 10
18.5404938012
 20
31.3467586649
 30
0.0
 10
17.3748332525
 20
31.9302998486
 30
0.0
 10
16.114751071
 20
32.5611253783
 30
0.0
 10
14.7494076719
 20
33.2445853193
 30
0.0
 10
13.2683746256
 20
33.9859042972
 30
0.0
 10
11.6621998416
 20
34.7898243588
 30
0.0
 10
9.9218716511
 20
35.6607123938
 30
0.0
 10
8.7158934145
 20
36.2639463661
 30
0.0
 10
8.0890163627
 20
36.5773849941
 30
0.0
 11
31.3178197457
 21
24.9151942023
 31
0.0
 11
31.0683583884
 21
25.041027764
 31
0.0
 11
30.8157480998
 21
25.1709651944
 31
0.0
 11
30.5626628925
 21
25.3033631331
 31
0.0
 11
30.3152754601
 21
25.4331655912
 31
0.0
 11
30.0801159274
 21
25.5548421202
 31
0.0
 11
29.8532131697
 21
25.669422446
 31
0.0
 11
29.6256289454
 21
25.7837224434
 31
0.0
 11
29.390764396
 21
25.9017029634
 31
0.0
 11
29.1431601189
 21
26.0263724529
 31
0.0
 11
28.8783169866
 21
26.1598284748
 31
0.0
 11
28.5915117087
 21
26.3043233776
 31
0.0
 11
28.2778124409
 21
26.4623919788
 31
0.0
 11
27.9326521218
 21
26.6364265386
 31
0.0
 11
27.5541702768
 21
26.8275053958
 31
0.0
 11
27.1436518871
 21
27.0348423826
 31
0.0
 11
26.7021488373
 21
27.2576792891
 31
0.0
 11
26.2292602506
 21
27.4959790045
 31
0.0
 11
25.7198324741
 21
27.7521376902
 31
0.0
 11
25.1677132245
 21
28.0293147406
 31
0.0
 11
24.5669783063
 21
28.3304605526
 31
0.0
 11
23.9116962393
 21
28.6585604958
 31
0.0
 11
23.1962922811
 21
29.0164870857
 31
0.0
 11
22.4164177048
 21
29.406639961
 31
0.0
 11
21.5677274803
 21
29.8313659717
 31
0.0
 11
20.6457625145
 21
30.2928678823
 31
0.0
 11
19.6469224685
 21
30.7928840718
 31
0.0
 11
18.5683984255
 21
31.3327921916
 31
0.0
 11
17.4061684108
 21
31.9146155146
 31
0.0
 11
16.1499375757
 21
32.5435011374
 31
0.0
 11
14.7881175912
 21
33.2252002836
 31
0.0
 11
13.3101378183
 21
33.9649945421
 31
0.0
 11
11.7068374659
 21
34.767456129
 31
0.0
 11
9.9695180218
 21
35.6368101624
 31
0.0
 11
8.0890163627
 21
36.5773849941
 31
0.0
  0
SPLINE
  5
3E4
100
AcDbEntity
  8
RACCORDO
100
AcDbSpline
 62
253
  6
CONTINUOUS
 70
0
 71
3
 72
10
 73
6
 74
4
 42
0.0000001
 43
0.0000001
 44
0.0000000001
 12
0.7667679533
 22
-0.4138761279
 32
0.0
 13
0.7750114111
 23
-0.398216562
 33
0.0
 40
0.0
 40
0.0
 40
0.0
 40
0.0
 40
0.3344378638
 40
0.6687083616
 40
1.0
 40
1.0
 40
1.0
 40
1.0
 10
-30.9066761688
 20
-24.3702567202
 30
0.0
 10
-30.8211974233
 20
-24.4163953362
 30
0.0
 10
-30.6498339843
 20
-24.5078204146
 30
0.0
 10
-30.3920479883
 20
-24.6416362783
 30
0.0
 10
-30.219930251
 20
-24.7296348625
 30
0.0
 10
-30.1343453176
 20
-24.7736101349
 30
0.0
 11
-30.9066761688
 21
-24.3702567202
 31
0.0
 11
-30.6495359144
 21
-24.5073577309
 31
0.0
 11
-30.3911425726
 21
-24.6417664631
 31
0.0
 11
-30.1343453176
 21
-24.7736101349
 31
0.0
  0
SPLINE
  5
3E5
100
AcDbEntity
  8
RACCORDO
100
AcDbSpline
 62
253
  6
CONTINUOUS
 70
0
 71
3
 72
33
 73
29
 74
27
 42
0.0000001
 43
0.0000001
 44
0.0000000001
 12
20.8544286548
 22
-10.7154278808
 32
0.0
 13
20.9678928759
 23
-10.4917095793
 33
0.0
 40
0.0
 40
0.0
 40
0.0
 40
0.0
 40
0.0122304849
 40
0.0244508241
 40
0.0370723045
 40
0.050564924
 40
0.0654170227
 40
0.0821205428
 40
0.1009306561
 40
0.1217195326
 40
0.1443175235
 40
0.1686603157
 40
0.1950120133
 40
0.2237075833
 40
0.2550756522
 40
0.2894436938
 40
0.3270816563
 40
0.3682091266
 40
0.4130523819
 40
0.4618154678
 40
0.5146439605
 40
0.5716884615
 40
0.6334043501
 40
0.7004124258
 40
0.7732820217
 40
0.8525001307
 40
0.9385226734
 40
1.0
 40
1.0
 40
1.0
 40
1.0
 10
-30.1343453176
 20
-24.7736101349
 30
0.0
 10
-30.0493253927
 20
-24.8172950945
 30
0.0
 10
-29.8795311837
 20
-24.9049698993
 30
0.0
 10
-29.6222378683
 20
-25.038187926
 30
0.0
 10
-29.3562867761
 20
-25.1761381972
 30
0.0
 10
-29.0719437709
 20
-25.3233010566
 30
0.0
 10
-28.7591641659
 20
-25.4849277083
 30
0.0
 10
-28.4092903947
 20
-25.6652963384
 30
0.0
 10
-28.0179659511
 20
-25.8665181434
 30
0.0
 10
-27.5852849137
 20
-26.0880511475
 30
0.0
 10
-27.1136364368
 20
-26.328353262
 30
0.0
 10
-26.6027549781
 20
-26.587417607
 30
0.0
 10
-26.0489320221
 20
-26.8671678346
 30
0.0
 10
-25.4457608349
 20
-27.1709989824
 30
0.0
 10
-24.7862915882
 20
-27.5023298447
 30
0.0
 10
-24.0641074718
 20
-27.8645083336
 30
0.0
 10
-23.2736136142
 20
-28.2606214799
 30
0.0
 10
-22.4100445046
 20
-28.69364656
 30
0.0
 10
-21.4688504109
 20
-29.1658417014
 30
0.0
 10
-20.4460089061
 20
-29.6792262784
 30
0.0
 10
-19.3380121086
 20
-30.2355263767
 30
0.0
 10
-18.1395791972
 20
-30.8373146588
 30
0.0
 10
-16.8420612225
 20
-31.4887328958
 30
0.0
 10
-15.4338857194
 20
-32.1953933811
 30
0.0
 10
-13.9033840369
 20
-32.9632675225
 30
0.0
 10
-12.2399948133
 20
-33.7976603385
 30
0.0
 10
-10.6559646913
 20
-34.5916834744
 30
0.0
 10
-9.6251813555
 20
-35.1077995627
 30
0.0
 10
-9.1954980224
 20
-35.322800315
 30
0.0
 11
-30.1343453176
 21
-24.7736101349
 31
0.0
 11
-29.8794852218
 21
-24.905053412
 31
0.0
 11
-29.6250378814
 21
-25.0367773021
 31
0.0
 11
-29.3623105326
 21
-25.1729648899
 31
0.0
 11
-29.0813650471
 21
-25.3183888686
 31
0.0
 11
-28.7719948806
 21
-25.4782383782
 31
0.0
 11
-28.4238949017
 21
-25.6576953951
 31
0.0
 11
-28.0316634292
 21
-25.8593376593
 31
0.0
 11
-27.5977998459
 21
-26.0814696198
 31
0.0
 11
-27.1257131893
 21
-26.3220181391
 31
0.0
 11
-26.6166933668
 21
-26.5801891441
 31
0.0
 11
-26.0652331684
 21
-26.8588101871
 31
0.0
 11
-25.4643645904
 21
-27.16150315
 31
0.0
 11
-24.8072036833
 21
-27.4917273805
 31
0.0
 11
-24.0869327904
 21
-27.853014507
 31
0.0
 11
-23.29801289
 21
-28.2484379167
 31
0.0
 11
-22.4360185466
 21
-28.6806581588
 31
0.0
 11
-21.4962460649
 21
-29.1521306744
 31
0.0
 11
-20.4744159283
 21
-29.6649939554
 31
0.0
 11
-19.3674637844
 21
-30.2207515343
 31
0.0
 11
-18.17219829
 21
-30.8209166436
 31
0.0
 11
-16.8790065839
 21
-31.4701385097
 31
0.0
 11
-15.4748195768
 21
-32.174826331
 31
0.0
 11
-13.9477228255
 21
-32.9409997162
 31
0.0
 11
-12.2874915055
 21
-33.7737409062
 31
0.0
 11
-10.4843931774
 21
-34.6774886753
 31
0.0
 11
-9.1954980224
 21
-35.322800315
 31
0.0
  0
LINE
  5
3E6
100
AcDbEntity
  8
RACCORDO
100
AcDbLine
 62
253
  6
CONTINUOUS
 10
-9.1954980224
 20
-35.322800315
 11
-8.5279929952
 21
-35.6566792558
  0
LINE
  5
3E7
100
AcDbEntity
  8
0
100
AcDbLine
 62
253
  6
CONTINUOUS
 10
13.6563913452
 20
-27.9433838577
 11
10.5281688292
 21
-26.3794578685
  0
LINE
  5
3E8
100
AcDbEntity
  8
0
100
AcDbLine
 62
253
  6
CONTINUOUS
 10
10.5281688292
 20
-26.3794578685
 11
6.2315646036
 21
-24.2311541052
  0
LINE
  5
3E9
100
AcDbEntity
  8
0
100
AcDbLine
 62
253
  6
CONTINUOUS
 10
-10.385415301
 20
-15.9226641515
 11
-11.2890034102
 21
-15.4708695065
  0
SPLINE
  5
3EA
100
AcDbEntity
  8
0
100
AcDbSpline
 62
253
  6
CONTINUOUS
 70
0
 71
3
 72
10
 73
6
 74
4
 42
0.0000001
 43
0.0000001
 44
0.0000000001
 12
-6.5209276
 22
3.2604703621
 32
0.0
 13
-6.520448589
 23
3.2614282042
 33
0.0
 40
0.0
 40
0.0
 40
0.0
 40
0.0
 40
0.2670914871
 40
0.6426204365
 40
1.0
 40
1.0
 40
1.0
 40
1.0
 10
-11.2890034102
 20
-15.4708695065
 30
0.0
 10
-11.8695648268
 20
-15.180588214
 30
0.0
 10
-13.2663918837
 20
-14.4821731384
 30
0.0
 10
-15.4400411194
 20
-13.3953630955
 30
0.0
 10
-17.0331020633
 20
-12.5987805738
 30
0.0
 10
-17.8098604202
 20
-12.2102579778
 30
0.0
 11
-11.2890034102
 21
-15.4708695065
 31
0.0
 11
-13.0306883668
 21
-14.6000270432
 31
0.0
 11
-15.4794849324
 21
-13.3756249842
 31
0.0
 11
-17.8098604202
 21
-12.2102579778
 31
0.0
  0
SPLINE
  5
3EB
100
AcDbEntity
  8
RACCORDO
100
AcDbSpline
 62
253
  6
CONTINUOUS
 70
0
 71
3
 72
11
 73
7
 74
5
 42
0.0000001
 43
0.0000001
 44
0.0000000001
 12
0.1131405794
 22
-0.8444781185
 32
0.0
 13
0.347537179
 23
-0.7773817506
 33
0.0
 40
0.0
 40
0.0
 40
0.0
 40
0.0
 40
0.1129615266
 40
0.4461581749
 40
0.7776432971
 40
1.0
 40
1.0
 40
1.0
 40
1.0
 10
-32.9614713899
 20
-21.8768032189
 30
0.0
 10
-32.9572112123
 20
-21.9086010647
 30
0.0
 10
-32.9379344868
 20
-22.0338733099
 30
0.0
 10
-32.8887683329
 20
-22.2493131991
 30
0.0
 10
-32.8099939162
 20
-22.4887367296
 30
0.0
 10
-32.74999792
 20
-22.6341123374
 30
0.0
 10
-32.7242388462
 20
-22.6917310184
 30
0.0
 11
-32.9614713899
 21
-21.8768032189
 31
0.0
 11
-32.9468774351
 21
-21.9719288117
 31
0.0
 11
-32.8843873084
 21
-22.2485966779
 31
0.0
 11
-32.796429703
 21
-22.5167183158
 31
0.0
 11
-32.7242388462
 21
-22.6917310184
 31
0.0
  0
SPLINE
  5
3EC
100
AcDbEntity
  8
RACCORDO
100
AcDbSpline
 62
253
  6
CONTINUOUS
 70
0
 71
3
 72
11
 73
7
 74
5
 42
0.0000001
 43
0.0000001
 44
0.0000000001
 12
0.6576429628
 22
-1.1003059599
 32
0.0
 13
1.114073688
 23
-0.6331428298
 33
0.0
 40
0.0
 40
0.0
 40
0.0
 40
0.0
 40
0.2354495955
 40
0.483159728
 40
0.7412372445
 40
1.0
 40
1.0
 40
1.0
 40
1.0
 10
-32.5459258163
 20
-23.0346987288
 30
0.0
 10
-32.4943118931
 20
-23.1210542598
 30
0.0
 10
-32.380138094
 20
-23.2933364837
 30
0.0
 10
-32.1790332122
 20
-23.5387243144
 30
0.0
 10
-31.9430325998
 20
-23.7655863373
 30
0.0
 10
-31.7621450106
 20
-23.8945047232
 30
0.0
 10
-31.6660514181
 20
-23.9491159843
 30
0.0
 11
-32.5459258163
 21
-23.0346987288
 31
0.0
 11
-32.3790191605
 21
-23.2860363215
 31
0.0
 11
-32.1773124886
 21
-23.5311279155
 31
0.0
 11
-31.9379207926
 21
-23.7592888041
 31
0.0
 11
-31.6660514181
 21
-23.9491159843
 31
0.0
  0
LINE
  5
3ED
100
AcDbEntity
  8
RACCORDO
100
AcDbLine
 62
253
  6
CONTINUOUS
 10
-9.5873109189
 20
37.9725681357
 11
-9.5762030339
 21
38.060268502
  0
SPLINE
  5
3EE
100
AcDbEntity
  8
RACCORDO
100
AcDbSpline
 62
253
  6
CONTINUOUS
 70
0
 71
3
 72
30
 73
26
 74
24
 42
0.0000001
 43
0.0000001
 44
0.0000000001
 12
-0.8856002245
 22
28.3204190835
 32
0.0
 13
0.0000046531
 23
28.3342623836
 33
0.0
 40
0.0
 40
0.0
 40
0.0
 40
0.0
 40
0.0129637864
 40
0.0272866669
 40
0.0429076066
 40
0.0599055449
 40
0.0786016785
 40
0.0993555193
 40
0.1226028421
 40
0.1488046747
 40
0.1780985605
 40
0.2102920229
 40
0.2453557448
 40
0.2834502839
 40
0.3247387552
 40
0.3694174264
 40
0.4177547539
 40
0.4700506492
 40
0.526676378
 40
0.5880766376
 40
0.655317301
 40
0.7297455917
 40
0.8118926477
 40
0.9019040532
 40
1.0
 40
1.0
 40
1.0
 40
1.0
 10
33.9150942995
 20
-54.4348711888
 30
0.0
 10
33.9112673888
 20
-54.3124912343
 30
0.0
 10
33.9044604845
 20
-54.0548611431
 30
0.0
 10
33.8972375561
 20
-53.6496697245
 30
0.0
 10
33.8924702577
 20
-53.2063392122
 30
0.0
 10
33.8895807478
 20
-52.7216896044
 30
0.0
 10
33.886854164
 20
-52.1885600684
 30
0.0
 10
33.8832820897
 20
-51.5964100163
 30
0.0
 10
33.8782080233
 20
-50.9333793065
 30
0.0
 10
33.8725249066
 20
-50.1896922501
 30
0.0
 10
33.8678324555
 20
-49.3615020528
 30
0.0
 10
33.864631953
 20
-48.4496060095
 30
0.0
 10
33.8627299825
 20
-47.4545863848
 30
0.0
 10
33.8620406249
 20
-46.3736651381
 30
0.0
 10
33.8622961028
 20
-45.2019330479
 30
0.0
 10
33.8627374844
 20
-43.9334604317
 30
0.0
 10
33.8628197459
 20
-42.5610253009
 30
0.0
 10
33.8625077017
 20
-41.0757531786
 30
0.0
 10
33.8615955904
 20
-39.4671050898
 30
0.0
 10
33.860085981
 20
-37.7173077501
 30
0.0
 10
33.8580870949
 20
-35.7993699955
 30
0.0
 10
33.8558198805
 20
-33.6854840234
 30
0.0
 10
33.8538290774
 20
-31.3565335994
 30
0.0
 10
33.8523990636
 20
-28.8040475226
 30
0.0
 10
33.852024237
 20
-27.027419815
 30
0.0
 10
33.8520243892
 20
-26.1009277165
 30
0.0
 11
33.9150942995
 21
-54.4348711888
 31
0.0
 11
33.9052991579
 21
-54.0676824883
 31
0.0
 11
33.89791357
 21
-53.661921443
 31
0.0
 11
33.8929485952
 21
-53.2193414874
 31
0.0
 11
33.8897411823
 21
-52.7377281249
 31
0.0
 11
33.8868767303
 21
-52.2079947143
 31
0.0
 11
33.8832743455
 21
-51.6199609776
 31
0.0
 11
33.8784227046
 21
-50.9612831024
 31
0.0
 11
33.8729789192
 21
-50.2188934598
 31
0.0
 11
33.8682718237
 21
-49.3888861613
 31
0.0
 11
33.8649597042
 21
-48.4767141637
 31
0.0
 11
33.8629868725
 21
-47.4832114245
 31
0.0
 11
33.8622076219
 21
-46.403831042
 31
0.0
 11
33.8623134558
 21
-45.2339526658
 31
0.0
 11
33.8626670806
 21
-43.9680155232
 31
0.0
 11
33.8627582905
 21
-42.5984130046
 31
0.0
 11
33.8624316537
 21
-41.1166474239
 31
0.0
 11
33.8615452779
 21
-39.5121994102
 31
0.0
 11
33.8600838942
 21
-37.7724689569
 31
0.0
 11
33.8581487038
 21
-35.8672553408
 31
0.0
 11
33.8559708238
 21
-33.758385749
 31
0.0
 11
33.8540016195
 21
-31.4308103416
 31
0.0
 11
33.8525839233
 21
-28.8804039555
 31
0.0
 11
33.8520243892
 21
-26.1009277165
 31
0.0
  0
LINE
  5
3EF
100
AcDbEntity
  8
0
100
AcDbLine
 62
253
  6
CONTINUOUS
 10
-18.0872289853
 20
-11.7322620464
 11
-18.0872313722
 21
-2.6389653619
  0
LINE
  5
3F0
100
AcDbEntity
  8
0
100
AcDbLine
 62
253
  6
CONTINUOUS
 10
-18.0872313712
 20
17.7126005698
 11
-18.0872614821
 21
25.8710040055
  0
LINE
  5
3F1
100
AcDbEntity
  8
0
100
AcDbLine
 62
253
  6
CONTINUOUS
 10
-18.0872614821
 20
25.8710040055
 11
-18.08723354
 21
26.8058662984
  0
SPLINE
  5
3F2
100
AcDbEntity
  8
RACCORDO
100
AcDbSpline
 62
253
  6
CONTINUOUS
 70
0
 71
3
 72
34
 73
30
 74
28
 42
0.0000001
 43
0.0000001
 44
0.0000000001
 12
-0.0000048407
 22
28.3909906484
 32
0.0
 13
0.8631430716
 23
28.3778669747
 33
0.0
 40
0.0
 40
0.0
 40
0.0
 40
0.0
 40
0.0965459239
 40
0.1843499298
 40
0.2638606262
 40
0.3356251489
 40
0.4004164062
 40
0.4591205768
 40
0.5125435589
 40
0.5612284902
 40
0.6056681048
 40
0.6463356792
 40
0.6836897182
 40
0.7181325839
 40
0.7498186892
 40
0.7788760696
 40
0.8056014529
 40
0.8302729996
 40
0.8530011823
 40
0.8739119721
 40
0.8931604509
 40
0.9108285563
 40
0.9269162121
 40
0.9415022552
 40
0.9547938674
 40
0.9670588673
 40
0.9785655788
 40
0.9894954079
 40
1.0
 40
1.0
 40
1.0
 40
1.0
 10
33.8520243892
 20
-5.7493307255
 30
0.0
 10
33.8520242334
 20
-4.8356525847
 30
0.0
 10
33.8523874394
 20
-3.0910268589
 30
0.0
 10
33.8537639461
 20
-0.5939390119
 30
0.0
 10
33.8556595413
 20
1.6686255686
 30
0.0
 10
33.8578232106
 20
3.713404865
 30
0.0
 10
33.8597723811
 20
5.5612783144
 30
0.0
 10
33.8612878619
 20
7.2355739474
 30
0.0
 10
33.8622825589
 20
8.7574451029
 30
0.0
 10
33.8627398519
 20
10.1443215492
 30
0.0
 10
33.8628058634
 20
11.4104851718
 30
0.0
 10
33.8626031273
 20
12.5694170255
 30
0.0
 10
33.8621988373
 20
13.633742938
 30
0.0
 10
33.862105042
 20
14.6130713624
 30
0.0
 10
33.8626814509
 20
15.5138829052
 30
0.0
 10
33.8640623951
 20
16.3416578687
 30
0.0
 10
33.8662453774
 20
17.103047485
 30
0.0
 10
33.8693086584
 20
17.8045362511
 30
0.0
 10
33.8732609974
 20
18.4509922588
 30
0.0
 10
33.877749564
 20
19.0461210739
 30
0.0
 10
33.8818997234
 20
19.5933641243
 30
0.0
 10
33.8853219731
 20
20.0949669013
 30
0.0
 10
33.8877532252
 20
20.552451098
 30
0.0
 10
33.8899479047
 20
20.9685181694
 30
0.0
 10
33.8922872303
 20
21.3484077874
 30
0.0
 10
33.8956133615
 20
21.6991479062
 30
0.0
 10
33.9003603744
 20
22.0275188841
 30
0.0
 10
33.9066332172
 20
22.3392014173
 30
0.0
 10
33.9120704603
 20
22.5419786321
 30
0.0
 10
33.9150927823
 20
22.6413446046
 30
0.0
 11
33.8520243892
 21
-5.7493307255
 31
0.0
 11
33.8525688173
 21
-3.0082963571
 31
0.0
 11
33.8539321715
 21
-0.5154540205
 31
0.0
 11
33.8558081002
 21
1.7419326399
 31
0.0
 11
33.8578918535
 21
3.7793974657
 31
0.0
 11
33.8597849964
 21
5.6188844724
 31
0.0
 11
33.8612599361
 21
7.285553378
 31
0.0
 11
33.8622261957
 21
8.8022844547
 31
0.0
 11
33.8626862349
 21
10.184497808
 31
0.0
 11
33.8627578601
 21
11.4461824879
 31
0.0
 11
33.8625565334
 21
12.600775196
 31
0.0
 11
33.8622406202
 21
13.6612933211
 31
0.0
 11
33.8622274365
 21
14.6391603981
 31
0.0
 11
33.8628582306
 21
15.5387600973
 31
0.0
 11
33.8642709363
 21
16.3637267008
 31
0.0
 11
33.8664983348
 21
17.1224835389
 31
0.0
 11
33.8696012735
 21
17.8229263181
 31
0.0
 11
33.8735261447
 21
18.4681900043
 31
0.0
 11
33.877872495
 21
19.0618521327
 31
0.0
 11
33.8819408578
 21
19.6083203711
 31
0.0
 11
33.8852920272
 21
20.1099241906
 31
0.0
 11
33.8878255857
 21
20.5666616497
 31
0.0
 11
33.8900762974
 21
20.980767745
 31
0.0
 11
33.8925645774
 21
21.35812158
 31
0.0
 11
33.8959791725
 21
21.7063203341
 31
0.0
 11
33.9007557774
 21
22.0329723511
 31
0.0
 11
33.9070666672
 21
22.3432168471
 31
0.0
 11
33.9150927823
 21
22.6413446046
 31
0.0
  0
SPLINE
  5
3F3
100
AcDbEntity
  8
0
100
AcDbSpline
 62
253
  6
CONTINUOUS
 70
0
 71
3
 72
10
 73
6
 74
4
 42
0.0000001
 43
0.0000001
 44
0.0000000001
 12
-0.513556187
 22
0.2567780876
 32
0.0
 13
-0.0000000024
 23
0.5741732696
 33
0.0
 40
0.0
 40
0.0
 40
0.0
 40
0.0
 40
0.3134156114
 40
0.6657095235
 40
1.0
 40
1.0
 40
1.0
 40
1.0
 10
-17.8099833397
 20
-12.2103246947
 30
0.0
 10
-17.8636355152
 20
-12.1834986076
 30
0.0
 10
-17.9619361515
 20
-12.0957235258
 30
0.0
 10
-18.0579886259
 20
-11.9279097098
 30
0.0
 10
-18.0871763347
 20
-11.7962177164
 30
0.0
 10
-18.0871763349
 20
-11.7322374978
 30
0.0
 11
-17.8099833397
 21
-12.2103246947
 31
0.0
 11
-17.9485798373
 21
-12.0955433165
 31
0.0
 11
-18.0500395153
 21
-11.9205512572
 31
0.0
 11
-18.0871763349
 21
-11.7322374978
 31
0.0
  0
SPLINE
  5
3F4
100
AcDbEntity
  8
0
100
AcDbSpline
 62
7
  6
CONTINUOUS
 70
0
 71
3
 72
9
 73
5
 74
3
 42
0.0000001
 43
0.0000001
 44
0.0000000001
 12
0.0892246255
 22
-0.3675181672
 32
0.0
 13
0.0911747876
 23
-0.3670377706
 33
0.0
 40
0.0
 40
0.0
 40
0.0
 40
0.0
 40
0.3338790423
 40
1.0
 40
1.0
 40
1.0
 40
1.0
 10
15.2618573646
 20
-33.8096016752
 30
0.0
 10
15.2717874421
 20
-33.8505038798
 30
0.0
 10
15.3014753554
 20
-33.9730234671
 30
0.0
 10
15.3313279101
 20
-34.0955044248
 30
0.0
 10
15.351572389
 20
-34.1770016085
 30
0.0
 11
15.2618573646
 21
-33.8096016752
 31
0.0
 11
15.2916301397
 21
-33.9323130185
 31
0.0
 11
15.351572389
 21
-34.1770016085
 31
0.0
  0
LINE
  5
3F5
100
AcDbEntity
  8
0
100
AcDbLine
 62
7
  6
CONTINUOUS
 10
14.2574382876
 20
-32.8116278432
 11
14.2644992286
 21
-32.9707267909
  0
LINE
  5
3F6
100
AcDbEntity
  8
0
100
AcDbLine
 62
7
  6
CONTINUOUS
 10
14.2954383127
 20
-33.6104076281
 11
14.3038668004
 21
-33.771148137
  0
SPLINE
  5
3F7
100
AcDbEntity
  8
RACCORDO
100
AcDbSpline
 62
253
  6
CONTINUOUS
 70
0
 71
3
 72
35
 73
31
 74
29
 42
0.0000001
 43
0.0000001
 44
0.0000000001
 12
-23.1190424362
 22
11.5595161645
 32
0.0
 13
-23.1074313572
 23
11.5827092339
 33
0.0
 40
0.0
 40
0.0
 40
0.0
 40
0.0
 40
0.0863935871
 40
0.1655171323
 40
0.2381567881
 40
0.3049476871
 40
0.3664491869
 40
0.4231450793
 40
0.4754524695
 40
0.5237630812
 40
0.5684333374
 40
0.6097637678
 40
0.6479720321
 40
0.6832670869
 40
0.7158857955
 40
0.7460801139
 40
0.7740703755
 40
0.799954895
 40
0.8238109073
 40
0.8457861525
 40
0.8660461622
 40
0.884741397
 40
0.9018774516
 40
0.9172668632
 40
0.9310227808
 40
0.943784472
 40
0.9563821078
 40
0.9696533334
 40
0.9842445691
 40
1.0
 40
1.0
 40
1.0
 40
1.0
 10
-8.5279929952
 20
44.8858896731
 30
0.0
 10
-9.1937719973
 20
45.2187790286
 30
0.0
 10
-10.4694147101
 20
45.8563246601
 30
0.0
 10
-12.3050511959
 20
46.7733484233
 30
0.0
 10
-13.9896596476
 20
47.6147653742
 30
0.0
 10
-15.5384480001
 20
48.3883185456
 30
0.0
 10
-16.9643675754
 20
49.1004388182
 30
0.0
 10
-18.2786722261
 20
49.7567515504
 30
0.0
 10
-19.4912863655
 20
50.3623114704
 30
0.0
 10
-20.6111898179
 20
50.9216085195
 30
0.0
 10
-21.6464651336
 20
51.438681251
 30
0.0
 10
-22.6038464752
 20
51.9169115278
 30
0.0
 10
-23.4889090978
 20
52.3591579523
 30
0.0
 10
-24.3068443426
 20
52.7678202674
 30
0.0
 10
-25.0631623988
 20
53.1453210065
 30
0.0
 10
-25.7632967077
 20
53.4944555141
 30
0.0
 10
-26.411698783
 20
53.8173134227
 30
0.0
 10
-27.0115505441
 20
54.1151556439
 30
0.0
 10
-27.5653101946
 20
54.389292228
 30
0.0
 10
-28.0757497026
 20
54.6417064362
 30
0.0
 10
-28.5461172348
 20
54.8748431629
 30
0.0
 10
-28.9789372609
 20
55.0898470186
 30
0.0
 10
-29.3742914524
 20
55.2859447864
 30
0.0
 10
-29.7316189476
 20
55.4629347621
 30
0.0
 10
-30.0549130723
 20
55.6237197031
 30
0.0
 10
-30.3563117402
 20
55.7745144179
 30
0.0
 10
-30.6555629096
 20
55.9202449229
 30
0.0
 10
-30.970837826
 20
56.0689953386
 30
0.0
 10
-31.3100973072
 20
56.2306719697
 30
0.0
 10
-31.5445738484
 20
56.3463903373
 30
0.0
 10
-31.6659296948
 20
56.4072205291
 30
0.0
 11
-8.5279929952
 21
44.8858896731
 31
0.0
 11
-10.5254751231
 21
45.8842674436
 31
0.0
 11
-12.3550388792
 21
46.7982907769
 31
0.0
 11
-14.0347435913
 21
47.637278842
 31
0.0
 11
-15.5792236987
 21
48.4086719922
 31
0.0
 11
-17.0014149067
 21
49.1189283241
 31
0.0
 11
-18.3124981263
 21
49.7736480438
 31
0.0
 11
-19.5220918723
 21
50.3777018591
 31
0.0
 11
-20.6392472085
 21
50.9356283404
 31
0.0
 11
-21.6722039749
 21
51.4515482134
 31
0.0
 11
-22.6279010732
 21
51.9289535788
 31
0.0
 11
-23.5113653375
 21
52.3703709781
 31
0.0
 11
-24.3275003714
 21
52.7780702754
 31
0.0
 11
-25.0818761795
 21
53.1546013063
 31
0.0
 11
-25.7803266534
 21
53.5028584504
 31
0.0
 11
-26.4280025304
 21
53.8252741683
 31
0.0
 11
-27.0272658535
 21
54.1228047509
 31
0.0
 11
-27.5798533699
 21
54.3964397448
 31
0.0
 11
-28.088956742
 21
54.6483383718
 31
0.0
 11
-28.5581611575
 21
54.8809024042
 31
0.0
 11
-28.9909907972
 21
55.0957784685
 31
0.0
 11
-29.3877923025
 21
55.2925932238
 31
0.0
 11
-29.7441803564
 21
55.4692830982
 31
0.0
 11
-30.0625177536
 21
55.6276657908
 31
0.0
 11
-30.3578397243
 21
55.7746156135
 31
0.0
 11
-30.6506256442
 21
55.9171152665
 31
0.0
 11
-30.9604618811
 21
56.0643331743
 31
0.0
 11
-31.3006816753
 21
56.2271042682
 31
0.0
 11
-31.6659296948
 21
56.4072205291
 31
0.0
  0
SPLINE
  5
3F8
100
AcDbEntity
  8
0
100
AcDbSpline
 62
7
  6
CONTINUOUS
 70
0
 71
3
 72
10
 73
6
 74
4
 42
0.0000001
 43
0.0000001
 44
0.0000000001
 12
1.0206645312
 22
-0.3250593842
 32
0.0
 13
0.8465843583
 23
-0.6587698625
 33
0.0
 40
0.0
 40
0.0
 40
0.0
 40
0.0
 40
0.3756285598
 40
0.7479718467
 40
1.0
 40
1.0
 40
1.0
 40
1.0
 10
13.7738049357
 20
-31.1280751158
 30
0.0
 10
13.9016018517
 20
-31.1687756453
 30
0.0
 10
14.1552478515
 20
-31.2535641428
 30
0.0
 10
14.4780503193
 20
-31.4087958231
 30
0.0
 10
14.6641762345
 20
-31.5336830101
 30
0.0
 10
14.7352972653
 20
-31.5890258607
 30
0.0
 11
13.7738049357
 21
-31.1280751158
 31
0.0
 11
14.1532853666
 21
-31.2618355961
 31
0.0
 11
14.5114035241
 21
-31.4374177816
 31
0.0
 11
14.7352972653
 21
-31.5890258607
 31
0.0
  0
SPLINE
  5
3F9
100
AcDbEntity
  8
0
100
AcDbSpline
 62
7
  6
CONTINUOUS
 70
0
 71
3
 72
14
 73
10
 74
8
 42
0.0000001
 43
0.0000001
 44
0.0000000001
 12
0.9736943966
 22
-0.8840998024
 32
0.0
 13
-0.8339021946
 23
-1.0253451512
 33
0.0
 40
0.0
 40
0.0
 40
0.0
 40
0.0
 40
0.2141629695
 40
0.4157749107
 40
0.5902933089
 40
0.7344813895
 40
0.8514112486
 40
0.9454306502
 40
1.0
 40
1.0
 40
1.0
 40
1.0
 10
14.8409925921
 20
-31.6777866284
 30
0.0
 10
14.9105023533
 20
-31.7409004414
 30
0.0
 10
15.0220519279
 20
-31.8886091386
 30
0.0
 10
15.136905956
 20
-32.1218023962
 30
0.0
 10
15.1933442958
 20
-32.3446346996
 30
0.0
 10
15.2063571805
 20
-32.5357397868
 30
0.0
 10
15.189344918
 20
-32.6923582898
 30
0.0
 10
15.1392237154
 20
-32.7998003151
 30
0.0
 10
15.1030257377
 20
-32.8528486105
 30
0.0
 10
15.0878572375
 20
-32.8714994165
 30
0.0
 11
14.8409925921
 21
-31.6777866284
 31
0.0
 11
15.0172867099
 21
-31.8974568963
 31
0.0
 11
15.1328727408
 21
-32.136095057
 31
0.0
 11
15.1891231118
 21
-32.35861967
 31
0.0
 11
15.2009790217
 21
-32.5478827832
 31
0.0
 11
15.179117396
 21
-32.7001054248
 31
0.0
 11
15.1285140943
 21
-32.8129298984
 31
0.0
 11
15.0878572375
 21
-32.8714994165
 31
0.0
  0
SPLINE
  5
3FA
100
AcDbEntity
  8
0
100
AcDbSpline
 62
7
  6
CONTINUOUS
 70
0
 71
3
 72
9
 73
5
 74
3
 42
0.0000001
 43
0.0000001
 44
0.0000000001
 12
-0.0426101613
 22
-0.052392382
 32
0.0
 13
-0.053926233
 23
-0.0443434896
 33
0.0
 40
0.0
 40
0.0
 40
0.0
 40
0.0
 40
0.5107165942
 40
1.0
 40
1.0
 40
1.0
 40
1.0
 10
15.0878572375
 20
-32.8714994165
 30
0.0
 10
15.0806033321
 20
-32.8804186362
 30
0.0
 10
15.0655604377
 20
-32.8975105448
 30
0.0
 10
15.0485485326
 20
-32.9139253865
 30
0.0
 10
15.0397534623
 20
-32.9211575644
 30
0.0
 11
15.0878572375
 21
-32.8714994165
 31
0.0
 11
15.0647244406
 21
-32.8977002785
 31
0.0
 11
15.0397534623
 21
-32.9211575644
 31
0.0
  0
SPLINE
  5
3FB
100
AcDbEntity
  8
0
100
AcDbSpline
 62
7
  6
CONTINUOUS
 70
0
 71
3
 72
8
 73
4
 74
2
 42
0.0000001
 43
0.0000001
 44
0.0000000001
 12
-0.0264469326
 22
-0.0217472873
 32
0.0
 13
-0.0292888964
 23
-0.0150036551
 33
0.0
 40
0.0
 40
0.0
 40
0.0
 40
0.0
 40
1.0
 40
1.0
 40
1.0
 40
1.0
 10
15.0397534623
 20
-32.9211575644
 30
0.0
 10
15.0309378181
 20
-32.9284066601
 30
0.0
 10
15.0216485383
 20
-32.93485268
 30
0.0
 10
15.0118855729
 20
-32.9398538984
 30
0.0
 11
15.0397534623
 21
-32.9211575644
 31
0.0
 11
15.0118855729
 21
-32.9398538984
 31
0.0
  0
SPLINE
  5
3FC
100
AcDbEntity
  8
0
100
AcDbSpline
 62
7
  6
CONTINUOUS
 70
0
 71
3
 72
8
 73
4
 74
2
 42
0.0000001
 43
0.0000001
 44
0.0000000001
 12
0.1972221431
 22
-0.1391869324
 32
0.0
 13
0.1201438987
 23
-0.2123179482
 33
0.0
 40
0.0
 40
0.0
 40
0.0
 40
0.0
 40
1.0
 40
1.0
 40
1.0
 40
1.0
 10
14.8848681374
 20
-32.9221053269
 30
0.0
 10
14.9506088518
 20
-32.968500971
 30
0.0
 10
15.001323904
 20
-33.0351155861
 30
0.0
 10
15.0413718703
 20
-33.1058882355
 30
0.0
 11
14.8848681374
 21
-32.9221053269
 31
0.0
 11
15.0413718703
 21
-33.1058882355
 31
0.0
  0
SPLINE
  5
3FD
100
AcDbEntity
  8
0
100
AcDbSpline
 62
7
  6
CONTINUOUS
 70
0
 71
3
 72
9
 73
5
 74
3
 42
0.0000001
 43
0.0000001
 44
0.0000000001
 12
0.2013927302
 22
-0.3559006468
 32
0.0
 13
0.1031882113
 23
-0.391521105
 33
0.0
 40
0.0
 40
0.0
 40
0.0
 40
0.0
 40
0.5882875102
 40
1.0
 40
1.0
 40
1.0
 40
1.0
 10
15.0413718703
 20
-33.1058882355
 30
0.0
 10
15.0808641462
 20
-33.1756788706
 30
0.0
 10
15.1303623261
 20
-33.3011856647
 30
0.0
 10
15.1673202209
 20
-33.4310199521
 30
0.0
 10
15.1814815127
 20
-33.4847513284
 30
0.0
 11
15.0413718703
 21
-33.1058882355
 31
0.0
 11
15.1347624988
 21
-33.3248446978
 31
0.0
 11
15.1814815127
 21
-33.4847513284
 31
0.0
  0
LINE
  5
3FE
100
AcDbEntity
  8
0
100
AcDbLine
 62
7
  6
CONTINUOUS
 10
14.2234050719
 20
-32.3271352916
 11
14.2263416022
 21
-32.4017151089
  0
LINE
  5
3FF
100
AcDbEntity
  8
0
100
AcDbLine
 62
7
  6
CONTINUOUS
 10
14.2263416022
 20
-32.4017151089
 11
14.4732319041
 21
-32.5228628577
  0
LINE
  5
400
100
AcDbEntity
  8
0
100
AcDbLine
 62
7
  6
CONTINUOUS
 10
12.5984489711
 20
-30.517601922
 11
13.0139986134
 21
-30.7238579202
  0
LINE
  5
401
100
AcDbEntity
  8
0
100
AcDbLine
 62
7
  6
CONTINUOUS
 10
13.6192070159
 20
-33.0279679484
 11
13.6587730565
 21
-33.1726636265
  0
LINE
  5
402
100
AcDbEntity
  8
0
100
AcDbLine
 62
7
  6
CONTINUOUS
 10
12.4954678104
 20
-32.7968991732
 11
12.4801708671
 21
-32.8681384343
  0
SPLINE
  5
403
100
AcDbEntity
  8
RACCORDO
100
AcDbSpline
 62
253
  6
CONTINUOUS
 70
0
 71
3
 72
12
 73
8
 74
6
 42
0.0000001
 43
0.0000001
 44
0.0000000001
 12
-4.2824625891
 22
2.1412322075
 32
0.0
 13
-4.282604705
 23
2.1409485019
 33
0.0
 40
0.0
 40
0.0
 40
0.0
 40
0.0
 40
0.206021875
 40
0.4273838763
 40
0.6405887604
 40
0.8298312105
 40
1.0
 40
1.0
 40
1.0
 40
1.0
 10
-10.5109795846
 20
26.0759064186
 30
0.0
 10
-10.805073242
 20
26.22295331
 30
0.0
 10
-11.4151396884
 20
26.5280334362
 30
0.0
 10
-12.3295096603
 20
26.9853748149
 30
0.0
 10
-13.2199165904
 20
27.4307613005
 30
0.0
 10
-14.0374891736
 20
27.8391221341
 30
0.0
 10
-14.5507011062
 20
28.0953358148
 30
0.0
 10
-14.7936229923
 20
28.2167766864
 30
0.0
 11
-10.5109795846
 21
26.0759064186
 31
0.0
 11
-11.393237179
 21
26.5170938452
 31
0.0
 11
-12.3411508317
 21
26.9912029458
 31
0.0
 11
-13.2541666702
 21
27.4477763098
 31
0.0
 11
-14.064736128
 21
27.8526967179
 31
0.0
 11
-14.7936229923
 21
28.2167766864
 31
0.0
  0
SPLINE
  5
404
100
AcDbEntity
  8
RACCORDO
100
AcDbSpline
 62
253
  6
CONTINUOUS
 70
0
 71
3
 72
13
 73
9
 74
7
 42
0.0000001
 43
0.0000001
 44
0.0000000001
 12
-3.1297475375
 22
1.5646151731
 32
0.0
 13
-3.1118815337
 23
1.5998538531
 33
0.0
 40
0.0
 40
0.0
 40
0.0
 40
0.0
 40
0.2102540881
 40
0.4012093358
 40
0.5746546634
 40
0.7312532272
 40
0.8722741173
 40
1.0
 40
1.0
 40
1.0
 40
1.0
 10
-14.7936229923
 20
28.2167766864
 30
0.0
 10
-15.0129703971
 20
28.3264322652
 30
0.0
 10
-15.4314286947
 20
28.5358845703
 30
0.0
 10
-16.0303897545
 20
28.8366806202
 30
0.0
 10
-16.5732321874
 20
29.1097771925
 30
0.0
 10
-17.0633785159
 20
29.3580240643
 30
0.0
 10
-17.5053344552
 20
29.5833949913
 30
0.0
 10
-17.7842037179
 20
29.7265195971
 30
0.0
 10
-17.9166929898
 20
29.7946338456
 30
0.0
 11
-14.7936229923
 21
28.2167766864
 31
0.0
 11
-15.4514806582
 21
28.5461122377
 31
0.0
 11
-16.0486031124
 21
28.8459200865
 31
0.0
 11
-16.5906559686
 21
29.1188642523
 31
0.0
 11
-17.0794672915
 21
29.3664692662
 31
0.0
 11
-17.5190460601
 21
29.5906398716
 31
0.0
 11
-17.9166929898
 21
29.7946338456
 31
0.0
  0
LINE
  5
405
100
AcDbEntity
  8
0
100
AcDbLine
 62
7
  6
CONTINUOUS
 10
12.6433600745
 20
-32.1029510669
 11
12.9860105919
 21
-32.2730713473
  0
LINE
  5
406
100
AcDbEntity
  8
0
100
AcDbLine
 62
7
  6
CONTINUOUS
 10
12.9860105919
 20
-32.2730713473
 11
13.0546140919
 21
-32.3070959734
  0
SPLINE
  5
407
100
AcDbEntity
  8
RACCORDO
100
AcDbSpline
 62
253
  6
CONTINUOUS
 70
0
 71
3
 72
9
 73
5
 74
3
 42
0.0000001
 43
0.0000001
 44
0.0000000001
 12
-0.1117470971
 22
0.0590115152
 32
0.0
 13
-0.1142741131
 23
-0.0498022402
 33
0.0
 40
0.0
 40
0.0
 40
0.0
 40
0.0
 40
0.1725537545
 40
1.0
 40
1.0
 40
1.0
 40
1.0
 10
-14.8253542255
 20
23.523005055
 30
0.0
 10
-14.8317816859
 20
23.5263992745
 30
0.0
 10
-14.8706312866
 20
23.5424620502
 30
0.0
 10
-14.9164119819
 20
23.5337397478
 30
0.0
 10
-14.9479305438
 20
23.5200035222
 30
0.0
 11
-14.8253542255
 21
23.523005055
 31
0.0
 11
-14.8453953468
 21
23.5312046883
 31
0.0
 11
-14.9479305438
 21
23.5200035222
 31
0.0
  0
LINE
  5
408
100
AcDbEntity
  8
0
100
AcDbLine
 62
7
  6
CONTINUOUS
 10
10.3188661764
 20
-31.528387813
 11
10.3184828683
 21
-31.5866441073
  0
LINE
  5
409
100
AcDbEntity
  8
0
100
AcDbLine
 62
7
  6
CONTINUOUS
 10
9.9911996334
 20
-29.2166072476
 11
10.4187909043
 21
-29.4304492873
  0
LINE
  5
40A
100
AcDbEntity
  8
0
100
AcDbLine
 62
7
  6
CONTINUOUS
 10
10.810949001
 20
-30.7469300434
 11
10.8691884571
 21
-30.9382746546
  0
LINE
  5
40B
100
AcDbEntity
  8
0
100
AcDbLine
 62
7
  6
CONTINUOUS
 10
10.8691884571
 20
-30.9382746546
 11
10.8916257965
 21
-31.0117149427
  0
SPLINE
  5
40C
100
AcDbEntity
  8
RACCORDO
100
AcDbSpline
 62
253
  6
CONTINUOUS
 70
0
 71
3
 72
22
 73
18
 74
16
 42
0.0000001
 43
0.0000001
 44
0.0000000001
 12
-3.5489770024
 22
1.5086188285
 32
0.0
 13
-0.0037035998
 23
-3.8538027941
 33
0.0
 40
0.0
 40
0.0
 40
0.0
 40
0.0
 40
0.0256737029
 40
0.0996123028
 40
0.1691504387
 40
0.2354618248
 40
0.3002370266
 40
0.3618087864
 40
0.4193321242
 40
0.4786324633
 40
0.5377461768
 40
0.598079582
 40
0.6601835171
 40
0.727802656
 40
0.8055929185
 40
0.8965245931
 40
1.0
 40
1.0
 40
1.0
 40
1.0
 10
-18.1013804953
 20
29.8813910123
 30
0.0
 10
-18.131752289
 20
29.8943016228
 30
0.0
 10
-18.2505375138
 20
29.942179624
 30
0.0
 10
-18.4582502929
 20
30.0077792271
 30
0.0
 10
-18.7243563066
 20
30.0553320099
 30
0.0
 10
-18.9828731217
 20
30.0642364014
 30
0.0
 10
-19.2296264372
 20
30.0339866254
 30
0.0
 10
-19.4571144391
 20
29.9663826836
 30
0.0
 10
-19.6639841059
 20
29.8655799963
 30
0.0
 10
-19.8492939353
 20
29.7342952028
 30
0.0
 10
-20.0125089927
 20
29.5714291296
 30
0.0
 10
-20.1531247061
 20
29.3846585803
 30
0.0
 10
-20.277013568
 20
29.1735351214
 30
0.0
 10
-20.3792280792
 20
28.9265001636
 30
0.0
 10
-20.4614237971
 20
28.6335502706
 30
0.0
 10
-20.5164544803
 20
28.2875071882
 30
0.0
 10
-20.5289144071
 20
28.0375414095
 30
0.0
 10
-20.529042151
 20
27.9046168055
 30
0.0
 11
-18.1013804953
 21
29.8813910123
 31
0.0
 11
-18.1932177221
 21
29.9183671878
 31
0.0
 11
-18.4651961733
 21
30.0033455749
 31
0.0
 11
-18.7291650178
 21
30.0495749214
 31
0.0
 11
-18.9845917039
 21
30.0575489114
 31
0.0
 11
-19.2322827105
 21
30.0264879073
 31
0.0
 11
-19.4596528129
 21
29.9586111141
 31
0.0
 11
-19.6589114353
 21
29.8614531744
 31
0.0
 11
-19.8453279707
 21
29.7292574373
 31
0.0
 11
-20.0073411266
 21
29.5691001297
 31
0.0
 11
-20.1481063065
 21
29.3840392465
 31
0.0
 11
-20.2686826544
 21
29.1772947893
 31
0.0
 11
-20.3696654201
 21
28.9370654767
 31
0.0
 11
-20.4516309377
 21
28.648699771
 31
0.0
 11
-20.5080456337
 21
28.3028376568
 31
0.0
 11
-20.529042151
 21
27.9046168055
 31
0.0
  0
LINE
  5
40D
100
AcDbEntity
  8
0
100
AcDbLine
 62
7
  6
CONTINUOUS
 10
11.2704971515
 20
-29.8560587943
 11
11.6943980814
 21
-30.067564175
  0
SPLINE
  5
40E
100
AcDbEntity
  8
RACCORDO
100
AcDbSpline
 62
253
  6
CONTINUOUS
 70
0
 71
3
 72
9
 73
5
 74
3
 42
0.0000001
 43
0.0000001
 44
0.0000000001
 12
0.1200264511
 22
0.053674187
 32
0.0
 13
0.1150395429
 23
-0.0594269587
 33
0.0
 40
0.0
 40
0.0
 40
0.0
 40
0.0
 40
0.1871983512
 40
1.0
 40
1.0
 40
1.0
 40
1.0
 10
-15.2813937175
 20
23.6345068543
 30
0.0
 10
-15.2739041329
 20
23.6378560941
 30
0.0
 10
-15.2323872355
 20
23.6516392243
 30
0.0
 10
-15.1857919042
 20
23.6394509241
 30
0.0
 10
-15.1546237941
 20
23.6233501474
 30
0.0
 11
-15.2813937175
 21
23.6345068543
 31
0.0
 11
-15.2581823788
 21
23.6421063299
 31
0.0
 11
-15.1546237941
 21
23.6233501474
 31
0.0
  0
SPLINE
  5
40F
100
AcDbEntity
  8
0
100
AcDbSpline
 62
253
  6
CONTINUOUS
 70
0
 71
3
 72
8
 73
4
 74
2
 42
0.0000001
 43
0.0000001
 44
0.0000000001
 12
0.0000000002
 22
0.1041369073
 32
0.0
 13
0.0332774132
 23
0.1000710693
 33
0.0
 40
0.0
 40
0.0
 40
0.0
 40
0.0
 40
1.0
 40
1.0
 40
1.0
 40
1.0
 10
-18.0871801304
 20
26.805891201
 30
0.0
 10
-18.0871801303
 20
26.8406035034
 30
0.0
 10
-18.0835902762
 20
26.8767470628
 30
0.0
 10
-18.0724978051
 20
26.9101040859
 30
0.0
 11
-18.0871801304
 21
26.805891201
 31
0.0
 11
-18.0724978051
 21
26.9101040859
 31
0.0
  0
SPLINE
  5
410
100
AcDbEntity
  8
RACCORDO
100
AcDbSpline
 62
253
  6
CONTINUOUS
 70
0
 71
3
 72
22
 73
18
 74
16
 42
0.0000001
 43
0.0000001
 44
0.0000000001
 12
-0.0087915743
 22
-9.0936453673
 32
0.0
 13
-0.0000001524
 23
-9.0936496171
 33
0.0
 40
0.0
 40
0.0
 40
0.0
 40
0.0
 40
0.0358111161
 40
0.0752025549
 40
0.1184167686
 40
0.1655394009
 40
0.2165899634
 40
0.2716731918
 40
0.3310469412
 40
0.3950063747
 40
0.463838104
 40
0.5379115218
 40
0.6176142687
 40
0.7033137128
 40
0.7952532319
 40
0.8939206972
 40
1.0
 40
1.0
 40
1.0
 40
1.0
 10
-20.529042151
 20
27.9046168055
 30
0.0
 10
-20.5291470963
 20
27.7960656088
 30
0.0
 10
-20.5295372871
 20
27.5681106786
 30
0.0
 10
-20.5302427919
 20
27.2091645138
 30
0.0
 10
-20.5311688351
 20
26.8159310634
 30
0.0
 10
-20.5323679311
 20
26.3873568835
 30
0.0
 10
-20.5333695126
 20
25.9228045124
 30
0.0
 10
-20.5340850272
 20
25.4211157997
 30
0.0
 10
-20.5346190885
 20
24.8802972752
 30
0.0
 10
-20.5349801871
 20
24.2978039155
 30
0.0
 10
-20.5351561156
 20
23.670752586
 30
0.0
 10
-20.5350832078
 20
22.9959798524
 30
0.0
 10
-20.5349766666
 20
22.2700774356
 30
0.0
 10
-20.5349515521
 20
21.4900189863
 30
0.0
 10
-20.5349767055
 20
20.6524743706
 30
0.0
 10
-20.535060754
 20
19.7531539939
 30
0.0
 10
-20.5351048575
 20
19.1325222048
 30
0.0
 10
-20.5351048629
 20
18.8109728677
 30
0.0
 11
-20.529042151
 21
27.9046168055
 31
0.0
 11
-20.5295318291
 21
27.5789634314
 31
0.0
 11
-20.5302421917
 21
27.2207521935
 31
0.0
 11
-20.53116869
 21
26.8277783675
 31
0.0
 11
-20.532290612
 21
26.3992631292
 31
0.0
 11
-20.5332888368
 21
25.9350282747
 31
0.0
 11
-20.5340312264
 21
25.4341212459
 31
0.0
 11
-20.5345735138
 21
24.8941974449
 31
0.0
 11
-20.5349393424
 21
24.3125728815
 31
0.0
 11
-20.535112604
 21
23.686641277
 31
0.0
 11
-20.5350808634
 21
23.0130435697
 31
0.0
 11
-20.5349926732
 21
22.2882547213
 31
0.0
 11
-20.5349599598
 21
21.5089340053
 31
0.0
 11
-20.5349846191
 21
20.6728682331
 31
0.0
 11
-20.5350554265
 21
19.7756208777
 31
0.0
 11
-20.5351048629
 21
18.8109728677
 31
0.0
  0
SPLINE
  5
411
100
AcDbEntity
  8
RACCORDO
100
AcDbSpline
 62
253
  6
CONTINUOUS
 70
0
 71
3
 72
9
 73
5
 74
3
 42
0.0000001
 43
0.0000001
 44
0.0000000001
 12
-0.0005179582
 22
-0.1450569098
 32
0.0
 13
-0.1242134314
 23
-0.0632002531
 33
0.0
 40
0.0
 40
0.0
 40
0.0
 40
0.0
 40
0.2832779061
 40
1.0
 40
1.0
 40
1.0
 40
1.0
 10
-14.6612505734
 20
18.6903633394
 30
0.0
 10
-14.6612994821
 20
18.6766662002
 30
0.0
 10
-14.6712391729
 20
18.6283003292
 30
0.0
 10
-14.7153820384
 20
18.6004745324
 30
0.0
 10
-14.7450575419
 20
18.5853755265
 30
0.0
 11
-14.6612505734
 21
18.6903633394
 31
0.0
 11
-14.6696755524
 21
18.6509125013
 31
0.0
 11
-14.7450575419
 21
18.5853755265
 31
0.0
  0
SPLINE
  5
412
100
AcDbEntity
  8
RACCORDO
100
AcDbSpline
 62
253
  6
CONTINUOUS
 70
0
 71
3
 72
9
 73
5
 74
3
 42
0.0000001
 43
0.0000001
 44
0.0000000001
 12
-0.1117470971
 22
0.0590115152
 32
0.0
 13
-0.1142741131
 23
-0.0498022402
 33
0.0
 40
0.0
 40
0.0
 40
0.0
 40
0.0
 40
0.1725537545
 40
1.0
 40
1.0
 40
1.0
 40
1.0
 10
-14.8253542255
 20
4.0374334699
 30
0.0
 10
-14.8317816859
 20
4.0408276894
 30
0.0
 10
-14.8706312866
 20
4.0568904651
 30
0.0
 10
-14.9164119819
 20
4.0481681626
 30
0.0
 10
-14.9479305438
 20
4.0344319371
 30
0.0
 11
-14.8253542255
 21
4.0374334699
 31
0.0
 11
-14.8453953468
 21
4.0456331032
 31
0.0
 11
-14.9479305438
 21
4.0344319371
 31
0.0
  0
SPLINE
  5
413
100
AcDbEntity
  8
RACCORDO
100
AcDbSpline
 62
253
  6
CONTINUOUS
 70
0
 71
3
 72
11
 73
7
 74
5
 42
0.0000001
 43
0.0000001
 44
0.0000000001
 12
-7.7720150288
 22
4.1561061677
 32
0.0
 13
-7.29929278
 23
4.9418670249
 33
0.0
 40
0.0
 40
0.0
 40
0.0
 40
0.0
 40
0.2884351133
 40
0.6070591853
 40
0.8769523995
 40
1.0
 40
1.0
 40
1.0
 40
1.0
 10
-20.5351077605
 20
18.8109744172
 30
0.0
 10
-21.282348439
 20
19.2105634017
 30
0.0
 10
-22.8438542106
 20
20.0726678597
 30
0.0
 10
-25.0613509533
 20
21.3852044594
 30
0.0
 10
-26.8263236735
 20
22.5058215868
 30
0.0
 10
-27.7870285753
 20
23.1462148795
 30
0.0
 10
-28.0864153959
 20
23.3489098393
 30
0.0
 11
-20.5351077605
 21
18.8109744172
 31
0.0
 11
-22.7602246855
 21
20.0402890899
 31
0.0
 11
-25.1762539436
 21
21.4716230313
 31
0.0
 11
-27.1839800895
 21
22.7472571812
 31
0.0
 11
-28.0864153959
 21
23.3489098393
 31
0.0
  0
SPLINE
  5
414
100
AcDbEntity
  8
RACCORDO
100
AcDbSpline
 62
253
  6
CONTINUOUS
 70
0
 71
3
 72
9
 73
5
 74
3
 42
0.0000001
 43
0.0000001
 44
0.0000000001
 12
-5.176011591
 22
3.5043341558
 32
0.0
 13
-4.8348139704
 23
3.9602795891
 33
0.0
 40
0.0
 40
0.0
 40
0.0
 40
0.0
 40
0.5351575238
 40
1.0
 40
1.0
 40
1.0
 40
1.0
 10
-28.0864153959
 20
23.3489098393
 30
0.0
 10
-29.0097425779
 20
23.9740334357
 30
0.0
 10
-30.7092468613
 20
25.1805127586
 30
0.0
 10
-32.3517123691
 20
26.4631992311
 30
0.0
 10
-33.1008546684
 20
27.0768346214
 30
0.0
 11
-28.0864153959
 21
23.3489098393
 31
0.0
 11
-30.812412047
 21
25.2871716476
 31
0.0
 11
-33.1008546684
 21
27.0768346214
 31
0.0
  0
SPLINE
  5
415
100
AcDbEntity
  8
RACCORDO
100
AcDbSpline
 62
253
  6
CONTINUOUS
 70
0
 71
3
 72
33
 73
29
 74
27
 42
0.0000001
 43
0.0000001
 44
0.0000000001
 12
-0.724147241
 22
-26.5748897225
 32
0.0
 13
-0.0058015802
 23
-26.5847039075
 33
0.0
 40
0.0
 40
0.0
 40
0.0
 40
0.0
 40
0.0081421745
 40
0.0212655292
 40
0.0357078993
 40
0.0515654761
 40
0.0688380077
 40
0.0875802915
 40
0.1078736147
 40
0.1297827793
 40
0.1533956705
 40
0.1788963127
 40
0.2064735208
 40
0.2362587117
 40
0.2684284563
 40
0.3032825321
 40
0.3411173562
 40
0.3821895747
 40
0.4266971319
 40
0.4748370764
 40
0.5268347461
 40
0.5829478408
 40
0.6435855621
 40
0.7092392531
 40
0.7804466712
 40
0.8573649686
 40
0.9403545438
 40
1.0
 40
1.0
 40
1.0
 40
1.0
 10
-33.0151370279
 20
54.4841013572
 30
0.0
 10
-33.0171024056
 20
54.4119755607
 30
0.0
 10
-33.021863308
 20
54.2235891567
 30
0.0
 10
-33.028050826
 20
53.9072195475
 30
0.0
 10
-33.0336945435
 20
53.522461873
 30
0.0
 10
-33.0391890286
 20
53.1009308147
 30
0.0
 10
-33.0444194604
 20
52.6412897246
 30
0.0
 10
-33.0506264638
 20
52.1423498962
 30
0.0
 10
-33.0572779285
 20
51.6023246497
 30
0.0
 10
-33.0642456245
 20
51.0191386644
 30
0.0
 10
-33.0704810678
 20
50.3897964807
 30
0.0
 10
-33.0755554829
 20
49.7102145398
 30
0.0
 10
-33.0793356602
 20
48.9759271888
 30
0.0
 10
-33.08174013
 20
48.182535117
 30
0.0
 10
-33.0827837006
 20
47.3246557898
 30
0.0
 10
-33.0828570761
 20
46.3954436948
 30
0.0
 10
-33.0824373728
 20
45.3873418894
 30
0.0
 10
-33.0821802711
 20
44.2936950341
 30
0.0
 10
-33.0822231457
 20
43.1087286164
 30
0.0
 10
-33.0827549354
 20
41.8269456455
 30
0.0
 10
-33.0841097903
 20
40.4423199448
 30
0.0
 10
-33.0863041398
 20
38.9469453255
 30
0.0
 10
-33.089177613
 20
37.3305579172
 30
0.0
 10
-33.092472725
 20
35.580411697
 30
0.0
 10
-33.0957403069
 20
33.6859937272
 30
0.0
 10
-33.0984235389
 20
31.6379515385
 30
0.0
 10
-33.1001132501
 20
29.6923654429
 30
0.0
 10
-33.1006485589
 20
28.4283954595
 30
0.0
 10
-33.1007639048
 20
27.8998431954
 30
0.0
 11
-33.0151370279
 21
54.4841013572
 31
0.0
 11
-33.0205903904
 21
54.2677126492
 31
0.0
 11
-33.0275516665
 21
53.9189016023
 31
0.0
 11
-33.033410981
 21
53.5350001784
 31
0.0
 11
-33.0389142998
 21
53.1134671142
 31
0.0
 11
-33.0443491304
 21
52.6543141334
 31
0.0
 11
-33.0504456475
 21
52.1560933642
 31
0.0
 11
-33.0570696488
 21
51.6166420365
 31
0.0
 11
-33.0638746914
 21
51.0342331323
 31
0.0
 11
-33.0700697994
 21
50.4065219745
 31
0.0
 11
-33.0751663428
 21
49.7286141035
 31
0.0
 11
-33.0789861673
 21
48.9954921351
 31
0.0
 11
-33.0814458882
 21
48.2036654685
 31
0.0
 11
-33.0825991235
 21
47.3484431023
 31
0.0
 11
-33.0827816379
 21
46.4218578268
 31
0.0
 11
-33.0824784534
 21
45.4160302668
 31
0.0
 11
-33.0822348121
 21
44.3241375159
 31
0.0
 11
-33.0822937341
 21
43.1409172755
 31
0.0
 11
-33.0828563391
 21
41.8611312155
 31
0.0
 11
-33.0841824609
 21
40.4787891867
 31
0.0
 11
-33.0863194585
 21
38.9870406956
 31
0.0
 11
-33.089125698
 21
37.375007255
 31
0.0
 11
-33.0923359923
 21
35.6296262567
 31
0.0
 11
-33.0955272214
 21
33.7366008016
 31
0.0
 11
-33.0982082454
 21
31.6917523779
 31
0.0
 11
-33.1001025114
 21
29.485499886
 31
0.0
 11
-33.1007639048
 21
27.8998431954
 31
0.0
  0
LINE
  5
416
100
AcDbEntity
  8
RACCORDO
100
AcDbLine
 62
253
  6
CONTINUOUS
 10
-33.1007639048
 20
27.8998431954
 11
-33.1008543993
 21
27.0768344009
  0
SPLINE
  5
417
100
AcDbEntity
  8
RACCORDO
100
AcDbSpline
 62
253
  6
CONTINUOUS
 70
0
 71
3
 72
9
 73
5
 74
3
 42
0.0000001
 43
0.0000001
 44
0.0000000001
 12
-0.0005179582
 22
-0.1450569098
 32
0.0
 13
-0.1242134314
 23
-0.0632002531
 33
0.0
 40
0.0
 40
0.0
 40
0.0
 40
0.0
 40
0.2832779061
 40
1.0
 40
1.0
 40
1.0
 40
1.0
 10
-14.6612505734
 20
-0.7952082457
 30
0.0
 10
-14.6612994821
 20
-0.808905385
 30
0.0
 10
-14.6712391729
 20
-0.8572712559
 30
0.0
 10
-14.7153820384
 20
-0.8850970527
 30
0.0
 10
-14.7450575419
 20
-0.9001960587
 30
0.0
 11
-14.6612505734
 21
-0.7952082457
 31
0.0
 11
-14.6696755524
 21
-0.8346590838
 31
0.0
 11
-14.7450575419
 21
-0.9001960587
 31
0.0
  0
LINE
  5
418
100
AcDbEntity
  8
0
100
AcDbLine
 62
7
  6
CONTINUOUS
 10
9.1477172163
 20
-28.7946688752
 11
9.575711238
 21
-29.0086638
  0
LINE
  5
419
100
AcDbEntity
  8
0
100
AcDbLine
 62
7
  6
CONTINUOUS
 10
8.5611145285
 20
-28.5015935102
 11
8.9888786586
 21
-28.7154106386
  0
LINE
  5
41A
100
AcDbEntity
  8
0
100
AcDbLine
 62
7
  6
CONTINUOUS
 10
8.8920312852
 20
-29.0717425408
 11
8.8439571886
 21
-29.2505491677
  0
LINE
  5
41B
100
AcDbEntity
  8
0
100
AcDbLine
 62
7
  6
CONTINUOUS
 10
8.7011748018
 20
-29.7895429616
 11
8.6544710824
 21
-29.968536459
  0
LINE
  5
41C
100
AcDbEntity
  8
0
100
AcDbLine
 62
7
  6
CONTINUOUS
 10
8.6544710824
 20
-29.968536459
 11
8.6082490213
 21
-30.1470489616
  0
LINE
  5
41D
100
AcDbEntity
  8
0
100
AcDbLine
 62
7
  6
CONTINUOUS
 10
8.452649203
 20
-30.758467522
 11
8.430549028
 21
-30.8466799981
  0
SPLINE
  5
41E
100
AcDbEntity
  8
RACCORDO
100
AcDbSpline
 62
253
  6
CONTINUOUS
 70
0
 71
3
 72
9
 73
5
 74
3
 42
0.0000001
 43
0.0000001
 44
0.0000000001
 12
0.1200264511
 22
0.053674187
 32
0.0
 13
0.1150395429
 23
-0.0594269587
 33
0.0
 40
0.0
 40
0.0
 40
0.0
 40
0.0
 40
0.1871983512
 40
1.0
 40
1.0
 40
1.0
 40
1.0
 10
-15.2813937175
 20
4.1489352691
 30
0.0
 10
-15.2739041329
 20
4.1522845089
 30
0.0
 10
-15.2323872355
 20
4.1660676391
 30
0.0
 10
-15.1857919042
 20
4.1538793389
 30
0.0
 10
-15.1546237941
 20
4.1377785622
 30
0.0
 11
-15.2813937175
 21
4.1489352691
 31
0.0
 11
-15.2581823788
 21
4.1565347448
 31
0.0
 11
-15.1546237941
 21
4.1377785622
 31
0.0
  0
LINE
  5
41F
100
AcDbEntity
  8
0
100
AcDbLine
 62
7
  6
CONTINUOUS
 10
7.3023194
 20
-27.8724477771
 11
7.7673392519
 21
-28.1048683379
  0
SPLINE
  5
420
100
AcDbEntity
  8
RACCORDO
100
AcDbSpline
 62
253
  6
CONTINUOUS
 70
0
 71
3
 72
12
 73
8
 74
6
 42
0.0000001
 43
0.0000001
 44
0.0000000001
 12
14.1730180655
 22
-6.2825732978
 32
0.0
 13
14.8272884015
 23
-4.5253864034
 33
0.0
 40
0.0
 40
0.0
 40
0.0
 40
0.0
 40
0.0323743623
 40
0.2328010596
 40
0.4096539242
 40
0.7576025509
 40
1.0
 40
1.0
 40
1.0
 40
1.0
 10
18.1294918063
 20
-0.4318481867
 30
0.0
 10
18.2824392801
 20
-0.499646288
 30
0.0
 10
19.3833642551
 20
-0.9847112001
 30
0.0
 10
21.3341634934
 20
-1.8073226216
 30
0.0
 10
24.8220182642
 20
-3.1789708186
 30
0.0
 10
28.5575439527
 20
-4.5105746844
 30
0.0
 10
31.4638456232
 20
-5.4388843533
 30
0.0
 10
32.6618779185
 20
-5.8045317268
 30
0.0
 11
18.1294918063
 21
-0.4318481867
 31
0.0
 11
18.5887871362
 21
-0.634216821
 31
0.0
 11
21.451455019
 21
-1.8422314501
 31
0.0
 11
24.0027233188
 21
-2.846094523
 31
0.0
 11
29.0825522518
 21
-4.6603105017
 31
0.0
 11
32.6618779185
 21
-5.8045317268
 31
0.0
  0
LINE
  5
421
100
AcDbEntity
  8
RACCORDO
100
AcDbLine
 62
253
  6
CONTINUOUS
 10
8.0890163627
 20
-43.9651839347
 11
8.7483308824
 21
-44.2947177877
  0
LINE
  5
422
100
AcDbEntity
  8
RACCORDO
100
AcDbLine
 62
253
  6
CONTINUOUS
 10
8.7483308824
 20
-44.2947177877
 11
9.3921124628
 21
-44.6162711846
  0
SPLINE
  5
423
100
AcDbEntity
  8
RACCORDO
100
AcDbSpline
 62
253
  6
CONTINUOUS
 70
0
 71
3
 72
37
 73
33
 74
31
 42
0.0000001
 43
0.0000001
 44
0.0000000001
 12
20.820287359
 22
-10.3961081205
 32
0.0
 13
21.0220301018
 23
-9.9821591588
 33
0.0
 40
0.0
 40
0.0
 40
0.0
 40
0.0
 40
0.0301222994
 40
0.1152748526
 40
0.1934803972
 40
0.2652928317
 40
0.3312284776
 40
0.3918195564
 40
0.4475823537
 40
0.4989881509
 40
0.546348534
 40
0.5899573369
 40
0.6300787965
 40
0.6669408532
 40
0.7007572099
 40
0.7317430551
 40
0.7601635849
 40
0.7862957295
 40
0.8104172192
 40
0.8328160103
 40
0.8537164699
 40
0.8731276326
 40
0.891003153
 40
0.9072931143
 40
0.922102397
 40
0.9356505456
 40
0.9481710653
 40
0.9598887323
 40
0.9710222982
 40
0.9818307781
 40
0.9926206136
 40
1.0
 40
1.0
 40
1.0
 40
1.0
 10
9.3921124628
 20
-44.6162711846
 30
0.0
 10
9.6011641063
 20
-44.7206560786
 30
0.0
 10
10.401226845
 20
-45.1200374703
 30
0.0
 10
11.7443101638
 20
-45.7898955872
 30
0.0
 10
13.3770258542
 20
-46.6036260951
 30
0.0
 10
14.8763841048
 20
-47.3507432623
 30
0.0
 10
16.2535008687
 20
-48.0368104897
 30
0.0
 10
17.5192861058
 20
-48.667150264
 30
0.0
 10
18.6842355268
 20
-49.24713311
 30
0.0
 10
19.7572914475
 20
-49.7814095801
 30
0.0
 10
20.7458966825
 20
-50.2737702846
 30
0.0
 10
21.6560778567
 20
-50.7272466845
 30
0.0
 10
22.4932931945
 20
-51.1445560745
 30
0.0
 10
23.2624209552
 20
-51.52818581
 30
0.0
 10
23.968130195
 20
-51.8801903131
 30
0.0
 10
24.615404919
 20
-52.20263998
 30
0.0
 10
25.2095574835
 20
-52.4980450746
 30
0.0
 10
25.7563076424
 20
-52.7691853164
 30
0.0
 10
26.2614736363
 20
-53.0190390643
 30
0.0
 10
26.7306222357
 20
-53.2501728773
 30
0.0
 10
27.1673722709
 20
-53.4643890127
 30
0.0
 10
27.5729818164
 20
-53.6624139609
 30
0.0
 10
27.9467611746
 20
-53.8441146253
 30
0.0
 10
28.2886019864
 20
-54.0098650369
 30
0.0
 10
28.6003795364
 20
-54.1606776313
 30
0.0
 10
28.88593411
 20
-54.2985518059
 30
0.0
 10
29.1499788375
 20
-54.4258185929
 30
0.0
 10
29.3971778222
 20
-54.5448970277
 30
0.0
 10
29.632228529
 20
-54.6585923444
 30
0.0
 10
29.8606606115
 20
-54.7694410038
 30
0.0
 10
30.0626148407
 20
-54.8681491178
 30
0.0
 10
30.1897392595
 20
-54.9290124142
 30
0.0
 10
30.2414491539
 20
-54.9535664841
 30
0.0
 11
9.3921124628
 21
-44.6162711846
 31
0.0
 11
10.0193001291
 21
-44.9293602922
 31
0.0
 11
11.7925779915
 21
-45.8138593863
 31
0.0
 11
13.4214224677
 21
-46.6257247894
 31
0.0
 11
14.9171968409
 21
-47.3710538315
 31
0.0
 11
16.2906292804
 21
-48.0552579418
 31
0.0
 11
17.5528234976
 21
-48.683824541
 31
0.0
 11
18.7144879348
 21
-49.2622028293
 31
0.0
 11
19.7853730522
 21
-49.7954163394
 31
0.0
 11
20.7719333878
 21
-50.2867701604
 31
0.0
 11
21.6802769601
 21
-50.7393384462
 31
0.0
 11
22.5159021976
 21
-51.1558743094
 31
0.0
 11
23.2835624405
 21
-51.5387321996
 31
0.0
 11
23.9878092175
 21
-51.8899288912
 31
0.0
 11
24.6332604958
 21
-52.2114252349
 31
0.0
 11
25.2255048987
 21
-52.5058427559
 31
0.0
 11
25.7703302115
 21
-52.7760150175
 31
0.0
 11
26.2735185745
 21
-53.0248284163
 31
0.0
 11
26.7411183124
 21
-53.2551673058
 31
0.0
 11
27.1778119883
 21
-53.4693385981
 31
0.0
 11
27.5837446348
 21
-53.6675206104
 31
0.0
 11
27.9578547053
 21
-53.8494263438
 31
0.0
 11
28.2989640784
 21
-54.0148204007
 31
0.0
 11
28.609204985
 21
-54.164898632
 31
0.0
 11
28.8931288194
 21
-54.3019842939
 31
0.0
 11
29.1555939722
 21
-54.4285124342
 31
0.0
 11
29.4012271097
 21
-54.5469313059
 31
0.0
 11
29.634474586
 21
-54.6597400114
 31
0.0
 11
29.8607388643
 21
-54.7696111421
 31
0.0
 11
30.0865587956
 21
-54.8794039742
 31
0.0
 11
30.2414491539
 21
-54.9535664841
 31
0.0
  0
SPLINE
  5
424
100
AcDbEntity
  8
RACCORDO
100
AcDbSpline
 62
253
  6
CONTINUOUS
 70
0
 71
3
 72
12
 73
8
 74
6
 42
0.0000001
 43
0.0000001
 44
0.0000000001
 12
1.0674387115
 22
-0.5068655624
 32
0.0
 13
1.0831501371
 23
-0.4723439135
 33
0.0
 40
0.0
 40
0.0
 40
0.0
 40
0.0
 40
0.0742233703
 40
0.3039652733
 40
0.5378979994
 40
0.7706805053
 40
1.0
 40
1.0
 40
1.0
 40
1.0
 10
30.2414491539
 20
-54.9535664841
 30
0.0
 10
30.2678587868
 20
-54.9661069075
 30
0.0
 10
30.3760975293
 20
-55.017286719
 30
0.0
 10
30.5682319739
 20
-55.106590203
 30
0.0
 10
30.8180674306
 20
-55.2198957943
 30
0.0
 10
31.0683935099
 20
-55.3317022456
 30
0.0
 10
31.2350239317
 20
-55.4049456773
 30
0.0
 10
31.3178197457
 20
-55.4410515665
 30
0.0
 11
30.2414491539
 21
-54.9535664841
 31
0.0
 11
30.3207391049
 21
-54.9910588546
 31
0.0
 11
30.5669090191
 21
-55.1055148491
 31
0.0
 11
30.8185882187
 21
-55.2198419523
 31
0.0
 11
31.0697499383
 21
-55.3320084137
 31
0.0
 11
31.3178197457
 21
-55.4410515665
 31
0.0
  0
LINE
  5
425
100
AcDbEntity
  8
RACCORDO
100
AcDbLine
 62
253
  6
CONTINUOUS
 10
6.1060297732
 20
-27.1381872692
 11
7.7445632465
 21
-27.9572694624
  0
LINE
  5
426
100
AcDbEntity
  8
RACCORDO
100
AcDbLine
 62
253
  6
CONTINUOUS
 10
7.7445632465
 20
-27.9572694624
 11
8.5389595255
 21
-28.3542665486
  0
LINE
  5
427
100
AcDbEntity
  8
RACCORDO
100
AcDbLine
 62
253
  6
CONTINUOUS
 10
8.5389595255
 20
-28.3542665486
 11
8.9696832956
 21
-28.5694700213
  0
LINE
  5
428
100
AcDbEntity
  8
RACCORDO
100
AcDbLine
 62
253
  6
CONTINUOUS
 10
8.9696832956
 20
-28.5694700213
 11
9.6632251511
 21
-28.915931563
  0
LINE
  5
429
100
AcDbEntity
  8
RACCORDO
100
AcDbLine
 62
253
  6
CONTINUOUS
 10
9.6632251511
 20
-28.915931563
 11
10.4109552333
 21
-29.2896111559
  0
LINE
  5
42A
100
AcDbEntity
  8
RACCORDO
100
AcDbLine
 62
253
  6
CONTINUOUS
 10
10.4109552333
 20
-29.2896111559
 11
11.1785931327
 21
-29.6736111939
  0
LINE
  5
42B
100
AcDbEntity
  8
RACCORDO
100
AcDbLine
 62
253
  6
CONTINUOUS
 10
11.1785931327
 20
-29.6736111939
 11
11.4276630386
 21
-29.7982755922
  0
LINE
  5
42C
100
AcDbEntity
  8
RACCORDO
100
AcDbLine
 62
253
  6
CONTINUOUS
 10
11.4276630386
 20
-29.7982755922
 11
11.6707325946
 21
-29.9199507797
  0
SPLINE
  5
42D
100
AcDbEntity
  8
RACCORDO
100
AcDbSpline
 62
253
  6
CONTINUOUS
 70
0
 71
3
 72
10
 73
6
 74
4
 42
0.0000001
 43
0.0000001
 44
0.0000000001
 12
1.4933419572
 22
-0.747549623
 32
0.0
 13
1.4925323099
 23
-0.7491649151
 33
0.0
 40
0.0
 40
0.0
 40
0.0
 40
0.0
 40
0.4561798748
 40
0.8707093239
 40
1.0
 40
1.0
 40
1.0
 40
1.0
 10
11.6707325946
 20
-29.9199507797
 30
0.0
 10
11.8978101102
 20
-30.0336231442
 30
0.0
 10
12.3312314391
 20
-30.250591113
 30
0.0
 10
12.828964166
 20
-30.499870188
 30
0.0
 10
13.0995382242
 20
-30.6356385843
 30
0.0
 10
13.163861728
 20
-30.6679252637
 30
0.0
 11
11.6707325946
 21
-29.9199507797
 31
0.0
 11
12.3519529709
 21
-30.260992198
 31
0.0
 11
12.9708769829
 21
-30.5710936003
 31
0.0
 11
13.163861728
 21
-30.6679252637
 31
0.0
  0
LINE
  5
42E
100
AcDbEntity
  8
RACCORDO
100
AcDbLine
 62
253
  6
CONTINUOUS
 10
13.163861728
 20
-30.6679252637
 11
13.3490366251
 21
-30.7608977735
  0
LINE
  5
42F
100
AcDbEntity
  8
RACCORDO
100
AcDbLine
 62
253
  6
CONTINUOUS
 10
13.3490366251
 20
-30.7608977735
 11
13.5260635382
 21
-30.849813824
  0
SPLINE
  5
430
100
AcDbEntity
  8
RACCORDO
100
AcDbSpline
 62
253
  6
CONTINUOUS
 70
0
 71
3
 72
10
 73
6
 74
4
 42
0.0000001
 43
0.0000001
 44
0.0000000001
 12
0.7928589062
 22
-0.3982766334
 32
0.0
 13
0.8844030077
 23
-0.080309486
 33
0.0
 40
0.0
 40
0.0
 40
0.0
 40
0.0
 40
0.3755004377
 40
0.6999577291
 40
1.0
 40
1.0
 40
1.0
 40
1.0
 10
13.5260635382
 20
-30.849813824
 30
0.0
 10
13.6253031603
 20
-30.8996648407
 30
0.0
 10
13.8154964267
 20
-30.9828578766
 30
0.0
 10
14.0995042102
 20
-31.0678928859
 30
0.0
 10
14.28229731
 20
-31.0979610891
 30
0.0
 10
14.3707500722
 20
-31.1059931693
 30
0.0
 11
13.5260635382
 21
-30.849813824
 31
0.0
 11
13.8318409791
 21
-30.9821119525
 31
0.0
 11
14.1079040828
 21
-31.0637508818
 31
0.0
 11
14.3707500722
 21
-31.1059931693
 31
0.0
  0
SPLINE
  5
431
100
AcDbEntity
  8
RACCORDO
100
AcDbSpline
 62
253
  6
CONTINUOUS
 70
0
 71
3
 72
19
 73
15
 74
13
 42
0.0000001
 43
0.0000001
 44
0.0000000001
 12
3.1447733451
 22
-0.2855656626
 32
0.0
 13
0.0048088076
 23
3.1549671173
 33
0.0
 40
0.0
 40
0.0
 40
0.0
 40
0.0
 40
0.0813354056
 40
0.1589524075
 40
0.2305577126
 40
0.3009344839
 40
0.3751431415
 40
0.4487386437
 40
0.5229064441
 40
0.6023162112
 40
0.6902677042
 40
0.7910271358
 40
0.8935881071
 40
1.0
 40
1.0
 40
1.0
 40
1.0
 10
14.3707500722
 20
-31.1059931693
 30
0.0
 10
14.4560105441
 20
-31.1137353689
 30
0.0
 10
14.6237764701
 20
-31.1172190201
 30
0.0
 10
14.8650294079
 20
-31.083732296
 30
0.0
 10
15.0864123998
 20
-31.0142204823
 30
0.0
 10
15.2895591998
 20
-30.9099295794
 30
0.0
 10
15.4742394245
 20
-30.7713901925
 30
0.0
 10
15.631846915
 20
-30.5980069329
 30
0.0
 10
15.7732101853
 20
-30.4048747032
 30
0.0
 10
15.8951266597
 20
-30.1811044254
 30
0.0
 10
15.996931739
 20
-29.9174025721
 30
0.0
 10
16.0726595146
 20
-29.6198603047
 30
0.0
 10
16.1184966008
 20
-29.2968404415
 30
0.0
 10
16.1284345353
 20
-29.0769333837
 30
0.0
 10
16.1286051068
 20
-28.9650247094
 30
0.0
 11
14.3707500722
 21
-31.1059931693
 31
0.0
 11
14.6273240216
 21
-31.1103435325
 31
0.0
 11
14.8697751451
 21
-31.0759435303
 31
0.0
 11
15.0851786987
 21
-31.0078418975
 31
0.0
 11
15.2827655204
 21
-30.9065515969
 31
0.0
 11
15.4696756193
 21
-30.765556322
 31
0.0
 11
15.6282236249
 21
-30.595922904
 31
0.0
 11
15.7657395619
 21
-30.4065975837
 31
0.0
 11
15.8861025901
 21
-30.1868687152
 31
0.0
 11
15.9871615912
 21
-29.9284414231
 31
0.0
 11
16.0665985695
 21
-29.6206334214
 31
0.0
 11
16.1128713471
 21
-29.3003822398
 31
0.0
 11
16.1286051068
 21
-28.9650247094
 31
0.0
  0
SPLINE
  5
432
100
AcDbEntity
  8
RACCORDO
100
AcDbSpline
 62
253
  6
CONTINUOUS
 70
0
 71
3
 72
17
 73
13
 74
11
 42
0.0000001
 43
0.0000001
 44
0.0000000001
 12
0.0139027692
 22
9.0917761659
 32
0.0
 13
0.0000006734
 23
9.0917867956
 33
0.0
 40
0.0
 40
0.0
 40
0.0
 40
0.0
 40
0.0671058906
 40
0.1404981043
 40
0.2202192506
 40
0.3063758252
 40
0.3996545474
 40
0.5011654728
 40
0.6115591138
 40
0.7313056193
 40
0.8603143212
 40
1.0
 40
1.0
 40
1.0
 40
1.0
 10
16.1286051068
 20
-28.9650247094
 30
0.0
 10
16.1289160927
 20
-28.7616541305
 30
0.0
 10
16.1305855746
 20
-28.3358638165
 30
0.0
 10
16.1335649833
 20
-27.6684751889
 30
0.0
 10
16.1353125367
 20
-26.9433458836
 30
0.0
 10
16.1350099912
 20
-26.1579469563
 30
0.0
 10
16.1335772045
 20
-25.3065136901
 30
0.0
 10
16.1311923193
 20
-24.3816296128
 30
0.0
 10
16.1293028521
 20
-23.3765308585
 30
0.0
 10
16.1289346234
 20
-22.2880956349
 30
0.0
 10
16.1296053823
 20
-21.1108886076
 30
0.0
 10
16.1301546606
 20
-20.2965847021
 30
0.0
 10
16.130154692
 20
-19.8732538987
 30
0.0
 11
16.1286051068
 21
-28.9650247094
 31
0.0
 11
16.130563656
 21
-28.3549154031
 31
0.0
 11
16.1332603455
 21
-27.687654493
 31
0.0
 11
16.1349409709
 21
-26.9628487762
 31
0.0
 11
16.134855627
 21
-26.1795315729
 31
0.0
 11
16.1334979249
 21
-25.3314624055
 31
0.0
 11
16.1313647011
 21
-24.4085491798
 31
0.0
 11
16.1296035294
 21
-23.4048752771
 31
0.0
 11
16.1291027604
 21
-22.3161656948
 31
0.0
 11
16.1296066086
 21
-21.1432461906
 31
0.0
 11
16.130154692
 21
-19.8732538987
 31
0.0
  0
SPLINE
  5
433
100
AcDbEntity
  8
RACCORDO
100
AcDbSpline
 62
253
  6
CONTINUOUS
 70
0
 71
3
 72
15
 73
11
 74
9
 42
0.0000001
 43
0.0000001
 44
0.0000000001
 12
-6.0856597103
 22
3.0428302653
 32
0.0
 13
-6.0822051921
 23
3.0497296816
 33
0.0
 40
0.0
 40
0.0
 40
0.0
 40
0.0
 40
0.1450261825
 40
0.3008413595
 40
0.4508760786
 40
0.5839769326
 40
0.7037557194
 40
0.8120569552
 40
0.9105078642
 40
1.0
 40
1.0
 40
1.0
 40
1.0
 10
-10.9283292167
 20
24.4049807065
 30
0.0
 10
-11.2225225486
 20
24.5520773923
 30
0.0
 10
-11.8327834625
 20
24.8572373902
 30
0.0
 10
-12.7473628935
 20
25.3146439004
 30
0.0
 10
-13.6377432075
 20
25.7599707272
 30
0.0
 10
-14.4550663233
 20
26.1686576315
 30
0.0
 10
-15.1877896499
 20
26.5348976004
 30
0.0
 10
-15.85015688
 20
26.8661266577
 30
0.0
 10
-16.4509657658
 20
27.1668770409
 30
0.0
 10
-16.8320578664
 20
27.3578237414
 30
0.0
 10
-17.0134943774
 20
27.448799349
 30
0.0
 11
-10.9283292167
 21
24.4049807065
 31
0.0
 11
-11.8108933371
 21
24.8463025131
 31
0.0
 11
-12.7590865999
 21
25.3205114038
 31
0.0
 11
-13.6721002491
 21
25.7771347678
 31
0.0
 11
-14.482101714
 21
26.1821481534
 31
0.0
 11
-15.2110620444
 21
26.5465598788
 31
0.0
 11
-15.8701148927
 21
26.8761653872
 31
0.0
 11
-16.4691150173
 21
27.1760118441
 31
0.0
 11
-17.0134943774
 21
27.448799349
 31
0.0
  0
SPLINE
  5
434
100
AcDbEntity
  8
RACCORDO
100
AcDbSpline
 62
253
  6
CONTINUOUS
 70
0
 71
3
 72
10
 73
6
 74
4
 42
0.0000001
 43
0.0000001
 44
0.0000000001
 12
-0.5155217653
 22
-1.1075603413
 32
0.0
 13
1.085336344
 23
-0.5849097977
 33
0.0
 40
0.0
 40
0.0
 40
0.0
 40
0.0
 40
0.4259970264
 40
0.7777467252
 40
1.0
 40
1.0
 40
1.0
 40
1.0
 10
-10.9283304211
 20
24.4049781836
 30
0.0
 10
-11.0015340008
 20
24.247705713
 30
0.0
 10
-11.0893971938
 20
23.9389568486
 30
0.0
 10
-11.0603081673
 20
23.5130073104
 30
0.0
 10
-10.8875232792
 20
23.3227428804
 30
0.0
 10
-10.8071167603
 20
23.2794101744
 30
0.0
 11
-10.9283304211
 21
24.4049781836
 31
0.0
 11
-11.0646377144
 21
23.9027224034
 31
0.0
 11
-10.9979263643
 21
23.4782138074
 31
0.0
 11
-10.8071167603
 21
23.2794101744
 31
0.0
  0
SPLINE
  5
435
100
AcDbEntity
  8
RACCORDO
100
AcDbSpline
 62
253
  6
CONTINUOUS
 70
0
 71
3
 72
10
 73
6
 74
4
 42
0.0000001
 43
0.0000001
 44
0.0000000001
 12
-0.5211359845
 22
-1.1104035123
 32
0.0
 13
1.0877491485
 23
-0.5875575111
 33
0.0
 40
0.0
 40
0.0
 40
0.0
 40
0.0
 40
0.4251561898
 40
0.7776938523
 40
1.0
 40
1.0
 40
1.0
 40
1.0
 10
-18.3514603738
 20
28.1212805043
 30
0.0
 10
-18.4253151036
 20
27.9639155288
 30
0.0
 10
-18.5171468869
 20
27.6545092708
 30
0.0
 10
-18.4852253865
 20
27.2271266539
 30
0.0
 10
-18.3121595459
 20
27.0352506233
 30
0.0
 10
-18.231555105
 20
26.9917114077
 30
0.0
 11
-18.3514603738
 21
28.1212805043
 31
0.0
 11
-18.4908567938
 21
27.6187539401
 31
0.0
 11
-18.4228784568
 21
27.191703356
 31
0.0
 11
-18.231555105
 21
26.9917114077
 31
0.0
  0
SPLINE
  5
436
100
AcDbEntity
  8
RACCORDO
100
AcDbSpline
 62
253
  6
CONTINUOUS
 70
0
 71
3
 72
22
 73
18
 74
16
 42
0.0000001
 43
0.0000001
 44
0.0000000001
 12
-1.9442051221
 22
0.9865853742
 32
0.0
 13
-0.0002774419
 23
-2.1802027842
 33
0.0
 40
0.0
 40
0.0
 40
0.0
 40
0.0
 40
0.0735224506
 40
0.1426661985
 40
0.2077030456
 40
0.2697482828
 40
0.3303867923
 40
0.3880659659
 40
0.441996993
 40
0.4976734081
 40
0.5566889774
 40
0.6166961441
 40
0.6769831025
 40
0.7420957092
 40
0.8165663242
 40
0.9027794327
 40
1.0
 40
1.0
 40
1.0
 40
1.0
 10
-18.3514603738
 20
28.1212805043
 30
0.0
 10
-18.3991079488
 20
28.1454592291
 30
0.0
 10
-18.4940451212
 20
28.1877398554
 30
0.0
 10
-18.6384692993
 20
28.2328483537
 30
0.0
 10
-18.7793085887
 20
28.2577873345
 30
0.0
 10
-18.9161341619
 20
28.2625787339
 30
0.0
 10
-19.0468475186
 20
28.2469445662
 30
0.0
 10
-19.1676001125
 20
28.2118408461
 30
0.0
 10
-19.2777704212
 20
28.1592552938
 30
0.0
 10
-19.3789644079
 20
28.0892144679
 30
0.0
 10
-19.4710471745
 20
28.0010927852
 30
0.0
 10
-19.5515157552
 20
27.8980482749
 30
0.0
 10
-19.6193069731
 20
27.7811625134
 30
0.0
 10
-19.6760161059
 20
27.6470562087
 30
0.0
 10
-19.7214987915
 20
27.4889881908
 30
0.0
 10
-19.751953656
 20
27.3036433696
 30
0.0
 10
-19.7586865124
 20
27.1701912338
 30
0.0
 10
-19.7586955035
 20
27.0995377166
 30
0.0
 11
-18.3514603738
 21
28.1212805043
 31
0.0
 11
-18.4980914471
 21
28.1860373385
 31
0.0
 11
-18.6421231422
 21
28.2305305658
 31
0.0
 11
-18.7818265072
 21
28.2547869269
 31
0.0
 11
-18.9170291268
 21
28.2590938078
 31
0.0
 11
-19.0482560597
 21
28.2430483938
 31
0.0
 11
-19.1689619251
 21
28.2077817809
 31
0.0
 11
-19.2750698553
 21
28.1571231279
 31
0.0
 11
-19.3749867813
 21
28.0881946229
 31
0.0
 11
-19.4682325774
 21
27.9995372045
 31
0.0
 11
-19.5489016901
 21
27.8965400896
 31
0.0
 11
-19.6151686444
 21
27.7830298044
 31
0.0
 11
-19.6708612851
 21
27.6524518632
 31
0.0
 11
-19.7162568367
 21
27.4965661604
 31
0.0
 11
-19.7473562729
 21
27.3111947457
 31
0.0
 11
-19.7586955035
 21
27.0995377166
 31
0.0
  0
SPLINE
  5
437
100
AcDbEntity
  8
RACCORDO
100
AcDbSpline
 62
253
  6
CONTINUOUS
 70
0
 71
3
 72
8
 73
4
 74
2
 42
0.0000001
 43
0.0000001
 44
0.0000000001
 12
0.0011255708
 22
-0.0829480944
 32
0.0
 13
-0.0282549565
 23
-0.0791846893
 33
0.0
 40
0.0
 40
0.0
 40
0.0
 40
0.0
 40
1.0
 40
1.0
 40
1.0
 40
1.0
 10
-2.4548593401
 20
-17.4803021094
 30
0.0
 10
-2.4544841498
 20
-17.5079514742
 30
0.0
 10
-2.4574933341
 20
-17.5369502598
 30
0.0
 10
-2.4669116529
 20
-17.5633451562
 30
0.0
 11
-2.4548593401
 21
-17.4803021094
 31
0.0
 11
-2.4669116529
 21
-17.5633451562
 31
0.0
  0
SPLINE
  5
438
100
AcDbEntity
  8
RACCORDO
100
AcDbSpline
 62
253
  6
CONTINUOUS
 70
0
 71
3
 72
9
 73
5
 74
3
 42
0.0000001
 43
0.0000001
 44
0.0000000001
 12
-0.0331822712
 22
-0.0929935191
 32
0.0
 13
-0.0859839842
 23
-0.0510589755
 33
0.0
 40
0.0
 40
0.0
 40
0.0
 40
0.0
 40
0.3789898952
 40
1.0
 40
1.0
 40
1.0
 40
1.0
 10
-2.4669116529
 20
-17.5633451562
 30
0.0
 10
-2.4711035681
 20
-17.5750930243
 30
0.0
 10
-2.4855143648
 20
-17.6047298172
 30
0.0
 10
-2.5106212999
 20
-17.6283486238
 30
0.0
 10
-2.5284202743
 20
-17.6389180037
 30
0.0
 11
-2.4669116529
 21
-17.5633451562
 31
0.0
 11
-2.4835629829
 21
-17.5966927309
 31
0.0
 11
-2.5284202743
 21
-17.6389180037
 31
0.0
  0
SPLINE
  5
439
100
AcDbEntity
  8
RACCORDO
100
AcDbSpline
 62
253
  6
CONTINUOUS
 70
0
 71
3
 72
10
 73
6
 74
4
 42
0.0000001
 43
0.0000001
 44
0.0000000001
 12
0.4881778144
 22
-1.6715571204
 32
0.0
 13
1.6220758794
 23
0.6371505028
 33
0.0
 40
0.0
 40
0.0
 40
0.0
 40
0.0
 40
0.2668062997
 40
0.6570750794
 40
1.0
 40
1.0
 40
1.0
 40
1.0
 10
-19.7586955035
 20
27.0995377166
 30
0.0
 10
-19.715279198
 20
26.95087706
 30
0.0
 10
-19.344342031
 20
26.7109178773
 30
0.0
 10
-18.7769982673
 20
26.6438471594
 30
0.0
 10
-18.3400933005
 20
26.7041293814
 30
0.0
 10
-18.1546765531
 20
26.7769609766
 30
0.0
 11
-19.7586955035
 21
27.0995377166
 31
0.0
 11
-19.4137349663
 21
26.7883031981
 31
0.0
 11
-18.7442073667
 21
26.6716843513
 31
0.0
 11
-18.1546765531
 21
26.7769609766
 31
0.0
  0
SPLINE
  5
43A
100
AcDbEntity
  8
RACCORDO
100
AcDbSpline
 62
253
  6
CONTINUOUS
 70
0
 71
3
 72
18
 73
14
 74
12
 42
0.0000001
 43
0.0000001
 44
0.0000000001
 12
-0.000512011
 22
-5.6152651612
 32
0.0
 13
0.0001931397
 23
-5.6152651816
 33
0.0
 40
0.0
 40
0.0
 40
0.0
 40
0.0
 40
0.0582828756
 40
0.1222453016
 40
0.1922427895
 40
0.2684060063
 40
0.3508663067
 40
0.4398814512
 40
0.5358557816
 40
0.6392931653
 40
0.7507066924
 40
0.8707425345
 40
1.0
 40
1.0
 40
1.0
 40
1.0
 10
-19.7587509093
 20
27.0995196227
 30
0.0
 10
-19.7587608565
 20
26.9904283557
 30
0.0
 10
-19.7587753616
 20
26.7616150941
 30
0.0
 10
-19.7587994692
 20
26.4017836807
 30
0.0
 10
-19.7588309289
 20
26.0084846486
 30
0.0
 10
-19.7588419961
 20
25.5805621251
 30
0.0
 10
-19.7588297191
 20
25.1170432065
 30
0.0
 10
-19.7587940709
 20
24.616442737
 30
0.0
 10
-19.7587397828
 20
24.0765783072
 30
0.0
 10
-19.7586732244
 20
23.4947895926
 30
0.0
 10
-19.7586037411
 20
22.8679636216
 30
0.0
 10
-19.7585423686
 20
22.1928087806
 30
0.0
 10
-19.7585188949
 20
21.7261927709
 30
0.0
 10
-19.7585105733
 20
21.4842544557
 30
0.0
 11
-19.7587509093
 21
27.0995196227
 31
0.0
 11
-19.7587748751
 21
26.7722458212
 31
0.0
 11
-19.7587994551
 21
26.4130798383
 31
0.0
 11
-19.7588266096
 21
26.0200253826
 31
0.0
 11
-19.758838108
 21
25.5923487232
 31
0.0
 11
-19.7588267245
 21
25.1293122694
 31
0.0
 11
-19.7587926456
 21
24.6294686284
 31
0.0
 11
-19.7587399905
 21
24.0905473151
 31
0.0
 11
-19.7586752636
 21
23.5097189793
 31
0.0
 11
-19.7586075326
 21
22.8841024829
 31
0.0
 11
-19.7585483293
 21
22.2100694006
 31
0.0
 11
-19.7585105733
 21
21.4842544557
 31
0.0
  0
LINE
  5
43B
100
AcDbEntity
  8
RACCORDO
100
AcDbLine
 62
253
  6
CONTINUOUS
 10
-19.7585105733
 20
21.4842544557
 11
-19.7585032126
 21
21.2303261201
  0
LINE
  5
43C
100
AcDbEntity
  8
RACCORDO
100
AcDbLine
 62
253
  6
CONTINUOUS
 10
-19.7585032126
 20
21.2303261201
 11
-19.7585318167
 21
18.0053367226
  0
SPLINE
  5
43D
100
AcDbEntity
  8
RACCORDO
100
AcDbSpline
 62
7
  6
CONTINUOUS
 70
0
 71
3
 72
9
 73
5
 74
3
 42
0.0000001
 43
0.0000001
 44
0.0000000001
 12
0.0796370452
 22
0.0442229495
 32
0.0
 13
-0.0079390647
 23
-0.0552323601
 33
0.0
 40
0.0
 40
0.0
 40
0.0
 40
0.0
 40
0.9890318952
 40
1.0
 40
1.0
 40
1.0
 40
1.0
 10
-2.4653796348
 20
-16.7107922743
 30
0.0
 10
-2.4391251089
 20
-16.6962129717
 30
0.0
 10
-2.3796445036
 20
-16.6601923877
 30
0.0
 10
-2.3816387628
 20
-16.6780399724
 30
0.0
 10
-2.3816677883
 20
-16.6782419038
 30
0.0
 11
-2.4653796348
 21
-16.7107922743
 31
0.0
 11
-2.3816024117
 21
-16.6776549443
 31
0.0
 11
-2.3816677883
 21
-16.6782419038
 31
0.0
  0
SPLINE
  5
43E
100
AcDbEntity
  8
RACCORDO
100
AcDbSpline
 62
253
  6
CONTINUOUS
 70
0
 71
3
 72
11
 73
7
 74
5
 42
0.0000001
 43
0.0000001
 44
0.0000000001
 12
0.5158398205
 22
-1.7490647104
 32
0.0
 13
1.6527251825
 23
0.770595583
 33
0.0
 40
0.0
 40
0.0
 40
0.0
 40
0.0
 40
0.1800325715
 40
0.4358837654
 40
0.7299283159
 40
1.0
 40
1.0
 40
1.0
 40
1.0
 10
-19.7585314305
 20
18.0053354062
 30
0.0
 10
-19.7275754407
 20
17.9003725336
 30
0.0
 10
-19.5084982682
 20
17.7052422577
 30
0.0
 10
-19.0808514933
 20
17.5825326923
 30
0.0
 10
-18.5772330495
 20
17.5648381945
 30
0.0
 10
-18.2360161298
 20
17.6432285538
 30
0.0
 10
-18.087231372
 20
17.7126005694
 30
0.0
 11
-19.7585314305
 21
18.0053354062
 31
0.0
 11
-19.5404131755
 21
17.7599709261
 31
0.0
 11
-19.0998570163
 21
17.6063967152
 31
0.0
 11
-18.5639380687
 21
17.5889270005
 31
0.0
 11
-18.087231372
 21
17.7126005694
 31
0.0
  0
SPLINE
  5
43F
100
AcDbEntity
  8
RACCORDO
100
AcDbSpline
 62
253
  6
CONTINUOUS
 70
0
 71
3
 72
11
 73
7
 74
5
 42
0.0000001
 43
0.0000001
 44
0.0000000001
 12
0.5157846625
 22
-1.7491086641
 32
0.0
 13
1.6526111467
 23
0.7709029346
 33
0.0
 40
0.0
 40
0.0
 40
0.0
 40
0.0
 40
0.1800407647
 40
0.4358854039
 40
0.7299236173
 40
1.0
 40
1.0
 40
1.0
 40
1.0
 10
-19.7585314303
 20
-2.3463410094
 30
0.0
 10
-19.727577342
 20
-2.4513112965
 30
0.0
 10
-19.5085051262
 20
-2.6464586097
 30
0.0
 10
-19.0808441905
 20
-2.7691525586
 30
0.0
 10
-18.5772217002
 20
-2.7868063436
 30
0.0
 10
-18.2360084522
 20
-2.7083662539
 30
0.0
 10
-18.087231372
 20
-2.6389653619
 30
0.0
 11
-19.7585314303
 21
-2.3463410094
 31
0.0
 11
-19.5404083663
 21
-2.5917276021
 31
0.0
 11
-19.09985226
 21
-2.7452862929
 31
0.0
 11
-18.5639356
 21
-2.7627111077
 31
0.0
 11
-18.087231372
 21
-2.6389653619
 31
0.0
  0
SPLINE
  5
440
100
AcDbEntity
  8
RACCORDO
100
AcDbSpline
 62
253
  6
CONTINUOUS
 70
0
 71
3
 72
26
 73
22
 74
20
 42
0.0000001
 43
0.0000001
 44
0.0000000001
 12
0.0000001411
 22
-9.0928099871
 32
0.0
 13
0.0014758556
 23
-9.0928098673
 33
0.0
 40
0.0
 40
0.0
 40
0.0
 40
0.0
 40
0.0933725432
 40
0.1794236192
 40
0.2588078749
 40
0.3321163868
 40
0.3998635175
 40
0.4624281909
 40
0.5198818573
 40
0.5721038284
 40
0.6194826548
 40
0.6633552409
 40
0.7051117469
 40
0.7460616707
 40
0.786352752
 40
0.8248723538
 40
0.8613286155
 40
0.8963725603
 40
0.9306954342
 40
0.9651928473
 40
1.0
 40
1.0
 40
1.0
 40
1.0
 10
-19.7585318119
 20
-2.34633969
 30
0.0
 10
-19.7585318075
 20
-2.6293459543
 30
0.0
 10
-19.758523561
 20
-3.1731675798
 30
0.0
 10
-19.7585050121
 20
-3.957597856
 30
0.0
 10
-19.7584939609
 20
-4.6812153245
 30
0.0
 10
-19.7584964636
 20
-5.3493546941
 30
0.0
 10
-19.7585131267
 20
-5.966514975
 30
0.0
 10
-19.7585443494
 20
-6.5356202227
 30
0.0
 10
-19.7585895012
 20
-7.057669694
 30
0.0
 10
-19.7586396957
 20
-7.533691824
 30
0.0
 10
-19.7586886445
 20
-7.9685505596
 30
0.0
 10
-19.7587340934
 20
-8.3716891336
 30
0.0
 10
-19.7587744056
 20
-8.7553421116
 30
0.0
 10
-19.7588070096
 20
-9.1281397762
 30
0.0
 10
-19.7588294117
 20
-9.4911265897
 30
0.0
 10
-19.7588406464
 20
-9.8404933985
 30
0.0
 10
-19.7588372476
 20
-10.1739564692
 30
0.0
 10
-19.7588180044
 20
-10.4946995226
 30
0.0
 10
-19.7587917545
 20
-10.8095054297
 30
0.0
 10
-19.7587800798
 20
-11.1235936354
 30
0.0
 10
-19.7587630619
 20
-11.3336513847
 30
0.0
 10
-19.7587459385
 20
-11.4391496585
 30
0.0
 11
-19.7585318119
 21
-2.34633969
 31
0.0
 11
-19.7585219753
 21
-3.1953584829
 31
0.0
 11
-19.7585056704
 21
-3.9778045663
 31
0.0
 11
-19.7584960586
 21
-4.6996305189
 31
0.0
 11
-19.758499212
 21
-5.3662108884
 31
0.0
 11
-19.7585165253
 21
-5.9822226746
 31
0.0
 11
-19.7585483257
 21
-6.5511113611
 31
0.0
 11
-19.7585926019
 21
-7.0735266306
 31
0.0
 11
-19.7586418341
 21
-7.5483710889
 31
0.0
 11
-19.7586898538
 21
-7.9791777518
 31
0.0
 11
-19.7587342944
 21
-8.3781028382
 31
0.0
 11
-19.7587735368
 21
-8.7577868114
 31
0.0
 11
-19.7588055738
 21
-9.130136686
 31
0.0
 11
-19.7588278976
 21
-9.4964958321
 31
0.0
 11
-19.7588383073
 21
-9.8467472517
 31
0.0
 11
-19.7588343981
 21
-10.1782371119
 31
0.0
 11
-19.7588166182
 21
-10.4968850432
 31
0.0
 11
-19.7587941963
 21
-10.8089764121
 31
0.0
 11
-19.7587778327
 21
-11.1226548345
 31
0.0
 11
-19.7587459385
 21
-11.4391496585
 31
0.0
  0
SPLINE
  5
441
100
AcDbEntity
  8
RACCORDO
100
AcDbSpline
 62
253
  6
CONTINUOUS
 70
0
 71
3
 72
8
 73
4
 74
2
 42
0.0000001
 43
0.0000001
 44
0.0000000001
 12
0.0011255708
 22
-0.0829480944
 32
0.0
 13
-0.0282549565
 23
-0.0791846893
 33
0.0
 40
0.0
 40
0.0
 40
0.0
 40
0.0
 40
1.0
 40
1.0
 40
1.0
 40
1.0
 10
13.4550432366
 20
-25.4352533978
 30
0.0
 10
13.4554184269
 20
-25.4629027625
 30
0.0
 10
13.4524092426
 20
-25.4919015481
 30
0.0
 10
13.4429909238
 20
-25.5182964446
 30
0.0
 11
13.4550432366
 21
-25.4352533978
 31
0.0
 11
13.4429909238
 21
-25.5182964446
 31
0.0
  0
SPLINE
  5
442
100
AcDbEntity
  8
RACCORDO
100
AcDbSpline
 62
253
  6
CONTINUOUS
 70
0
 71
3
 72
9
 73
5
 74
3
 42
0.0000001
 43
0.0000001
 44
0.0000000001
 12
-0.0331822712
 22
-0.0929935191
 32
0.0
 13
-0.0859839842
 23
-0.0510589755
 33
0.0
 40
0.0
 40
0.0
 40
0.0
 40
0.0
 40
0.3789898952
 40
1.0
 40
1.0
 40
1.0
 40
1.0
 10
13.4429909238
 20
-25.5182964446
 30
0.0
 10
13.4387990086
 20
-25.5300443126
 30
0.0
 10
13.4243882119
 20
-25.5596811055
 30
0.0
 10
13.3992812768
 20
-25.5832999122
 30
0.0
 10
13.3814823024
 20
-25.5938692921
 30
0.0
 11
13.4429909238
 21
-25.5182964446
 31
0.0
 11
13.4263395938
 21
-25.5516440192
 31
0.0
 11
13.3814823024
 21
-25.5938692921
 31
0.0
  0
SPLINE
  5
443
100
AcDbEntity
  8
RACCORDO
100
AcDbSpline
 62
253
  6
CONTINUOUS
 70
0
 71
3
 72
10
 73
6
 74
4
 42
0.0000001
 43
0.0000001
 44
0.0000000001
 12
0.5074106431
 22
-1.740477541
 32
0.0
 13
1.6431518124
 23
0.7660155044
 33
0.0
 40
0.0
 40
0.0
 40
0.0
 40
0.0
 40
0.254994073
 40
0.6301498875
 40
1.0
 40
1.0
 40
1.0
 40
1.0
 10
-19.7586913288
 20
-11.4391320166
 30
0.0
 10
-19.7155624266
 20
-11.587069169
 30
0.0
 10
-19.3419813997
 20
-11.8224194899
 30
0.0
 10
-18.7538396268
 20
-11.898509742
 30
0.0
 10
-18.2897496292
 20
-11.8266744748
 30
0.0
 10
-18.0871763349
 20
-11.7322375013
 30
0.0
 11
-19.7586913288
 21
-11.4391320166
 31
0.0
 11
-19.4137039246
 21
-11.746854652
 31
0.0
 11
-18.7441462702
 21
-11.8663234352
 31
0.0
 11
-18.0871763349
 21
-11.7322375013
 31
0.0
  0
SPLINE
  5
444
100
AcDbEntity
  8
RACCORDO
100
AcDbSpline
 62
253
  6
CONTINUOUS
 70
0
 71
3
 72
22
 73
18
 74
16
 42
0.0000001
 43
0.0000001
 44
0.0000000001
 12
0.0006317203
 22
-2.9297901758
 32
0.0
 13
2.622091719
 23
-1.3070217635
 33
0.0
 40
0.0
 40
0.0
 40
0.0
 40
0.0
 40
0.060803806
 40
0.1232793037
 40
0.1878580728
 40
0.2529398532
 40
0.3165616063
 40
0.3834430907
 40
0.4525964511
 40
0.5211443571
 40
0.5863970488
 40
0.648831731
 40
0.7123635439
 40
0.7794372981
 40
0.8503013281
 40
0.9241532857
 40
1.0
 40
1.0
 40
1.0
 40
1.0
 10
-19.7586913288
 20
-11.4391320166
 30
0.0
 10
-19.7586785251
 20
-11.4985128144
 30
0.0
 10
-19.7535563608
 20
-11.6189505094
 30
0.0
 10
-19.7318426175
 20
-11.8012757756
 30
0.0
 10
-19.6964813329
 20
-11.9857081204
 30
0.0
 10
-19.6486169542
 20
-12.1684339176
 30
0.0
 10
-19.5887561088
 20
-12.3499397708
 30
0.0
 10
-19.5165090645
 20
-12.5311771038
 30
0.0
 10
-19.4311723056
 20
-12.7119735981
 30
0.0
 10
-19.3355726101
 20
-12.8857436503
 30
0.0
 10
-19.2330707489
 20
-13.0478075564
 30
0.0
 10
-19.1239219184
 20
-13.1994682367
 30
0.0
 10
-19.0044852242
 20
-13.3454962031
 30
0.0
 10
-18.8697098192
 20
-13.4890769365
 30
0.0
 10
-18.7165341959
 20
-13.6284489113
 30
0.0
 10
-18.5441500807
 20
-13.7581654738
 30
0.0
 10
-18.4177576482
 20
-13.8325758714
 30
0.0
 10
-18.351465301
 20
-13.8656203068
 30
0.0
 11
-19.7586913288
 21
-11.4391320166
 31
0.0
 11
-19.751405486
 21
-11.6171253601
 31
0.0
 11
-19.7299826818
 21
-11.7989074908
 31
0.0
 11
-19.6945283739
 21
-11.9847581903
 31
0.0
 11
-19.6463327645
 21
-12.1692426258
 31
0.0
 11
-19.5880231968
 21
-12.3462859954
 31
0.0
 11
-19.5155137769
 21
-12.5283252359
 31
0.0
 11
-19.4290473419
 21
-12.7115526276
 31
0.0
 11
-19.3322188598
 21
-12.88749958
 31
0.0
 11
-19.2299827138
 21
-13.0490430756
 31
0.0
 11
-19.123065596
 21
-13.1974635849
 31
0.0
 11
-19.0051238003
 21
-13.3414633363
 31
0.0
 11
-18.8704749311
 21
-13.484594955
 31
0.0
 11
-18.7166714206
 21
-13.6240553162
 31
0.0
 11
-18.5434229858
 21
-13.7536750644
 31
0.0
 11
-18.351465301
 21
-13.8656203068
 31
0.0
  0
SPLINE
  5
445
100
AcDbEntity
  8
RACCORDO
100
AcDbSpline
 62
253
  6
CONTINUOUS
 70
0
 71
3
 72
11
 73
7
 74
5
 42
0.0000001
 43
0.0000001
 44
0.0000000001
 12
-1.2639002762
 22
1.4323605774
 32
0.0
 13
1.6788512582
 23
0.9113501987
 33
0.0
 40
0.0
 40
0.0
 40
0.0
 40
0.0
 40
0.2051216179
 40
0.4645445473
 40
0.7461171911
 40
1.0
 40
1.0
 40
1.0
 40
1.0
 10
-18.351465301
 20
-13.8656203068
 30
0.0
 10
-18.4378830575
 20
-13.7676842672
 30
0.0
 10
-18.5304867804
 20
-13.4616649976
 30
0.0
 10
-18.4422264413
 20
-12.9865852174
 30
0.0
 10
-18.2076418672
 20
-12.5307386418
 30
0.0
 10
-17.9520604921
 20
-12.2874500801
 30
0.0
 10
-17.8099833344
 20
-12.2103246973
 30
0.0
 11
-18.351465301
 21
-13.8656203068
 31
0.0
 11
-18.4908931705
 21
-13.4994300042
 31
0.0
 11
-18.4228491553
 21
-13.008557896
 31
0.0
 11
-18.1724929039
 21
-12.5324970158
 31
0.0
 11
-17.8099833344
 21
-12.2103246973
 31
0.0
  0
SPLINE
  5
446
100
AcDbEntity
  8
RACCORDO
100
AcDbSpline
 62
7
  6
CONTINUOUS
 70
0
 71
3
 72
9
 73
5
 74
3
 42
0.0000001
 43
0.0000001
 44
0.0000000001
 12
0.0796370452
 22
0.0442229495
 32
0.0
 13
-0.0079390647
 23
-0.0552323601
 33
0.0
 40
0.0
 40
0.0
 40
0.0
 40
0.0
 40
0.9890318952
 40
1.0
 40
1.0
 40
1.0
 40
1.0
 10
13.4445229419
 20
-24.6657435626
 30
0.0
 10
13.4707774678
 20
-24.6511642601
 30
0.0
 10
13.5302580731
 20
-24.615143676
 30
0.0
 10
13.5282638138
 20
-24.6329912607
 30
0.0
 10
13.5282347884
 20
-24.6331931922
 30
0.0
 11
13.4445229419
 21
-24.6657435626
 31
0.0
 11
13.528300165
 21
-24.6326062327
 31
0.0
 11
13.5282347884
 21
-24.6331931922
 31
0.0
  0
SPLINE
  5
447
100
AcDbEntity
  8
RACCORDO
100
AcDbSpline
 62
253
  6
CONTINUOUS
 70
0
 71
3
 72
16
 73
12
 74
10
 42
0.0000001
 43
0.0000001
 44
0.0000000001
 12
6.358027773
 22
-3.1742552911
 32
0.0
 13
6.3561877195
 23
-3.1779382451
 33
0.0
 40
0.0
 40
0.0
 40
0.0
 40
0.0
 40
0.1368409741
 40
0.2691854919
 40
0.4043685448
 40
0.5383959769
 40
0.6584188447
 40
0.7654761195
 40
0.8620605951
 40
0.9494878747
 40
1.0
 40
1.0
 40
1.0
 40
1.0
 10
-18.3513561484
 20
-13.8655377732
 30
0.0
 10
-18.0613432438
 20
-14.0103271686
 30
0.0
 10
-17.4908863189
 20
-14.2952271552
 30
0.0
 10
-16.6340449807
 20
-14.7233921015
 30
0.0
 10
-15.7832258382
 20
-15.1486987986
 30
0.0
 10
-14.9585608453
 20
-15.5610488383
 30
0.0
 10
-14.1934872325
 20
-15.9436058243
 30
0.0
 10
-13.5077296796
 20
-16.2864681562
 30
0.0
 10
-12.891030927
 20
-16.5947967139
 30
0.0
 10
-12.3941365733
 20
-16.8432273487
 30
0.0
 10
-12.101879981
 20
-16.9893476351
 30
0.0
 10
-11.9948584641
 20
-17.0428557734
 30
0.0
 11
-18.3513561484
 21
-13.8655377732
 31
0.0
 11
-17.4813737922
 21
-14.3000188251
 31
0.0
 11
-16.6400695762
 21
-14.7204062294
 31
0.0
 11
-15.7807854758
 21
-15.1499391338
 31
0.0
 11
-14.9288898144
 21
-15.5758857494
 31
0.0
 11
-14.1660145031
 21
-15.9573361454
 31
0.0
 11
-13.4855401917
 21
-16.297561202
 31
0.0
 11
-12.8716292561
 21
-16.6044969445
 31
0.0
 11
-12.3159233574
 21
-16.8823320437
 31
0.0
 11
-11.9948584641
 21
-17.0428557734
 31
0.0
  0
LINE
  5
448
100
AcDbEntity
  8
RACCORDO
100
AcDbLine
 62
253
  6
CONTINUOUS
 10
-11.9948584641
 20
-17.0428557734
 11
-10.9283293155
 21
-17.5761066503
  0
SPLINE
  5
449
100
AcDbEntity
  8
RACCORDO
100
AcDbSpline
 62
253
  6
CONTINUOUS
 70
0
 71
3
 72
11
 73
7
 74
5
 42
0.0000001
 43
0.0000001
 44
0.0000000001
 12
-1.2524514717
 22
1.4383497594
 32
0.0
 13
1.6762279788
 23
0.9098046397
 33
0.0
 40
0.0
 40
0.0
 40
0.0
 40
0.0
 40
0.2047536
 40
0.4646761232
 40
0.746151557
 40
1.0
 40
1.0
 40
1.0
 40
1.0
 10
-10.9283305122
 20
-17.5761053301
 30
0.0
 10
-11.0138118281
 20
-17.477936233
 30
0.0
 10
-11.1025670511
 20
-17.1717115596
 30
0.0
 10
-11.0185503534
 20
-16.6972646471
 30
0.0
 10
-10.7821070736
 20
-16.2423757486
 30
0.0
 10
-10.5272512715
 20
-15.9996483228
 30
0.0
 10
-10.3854153174
 20
-15.9226641591
 30
0.0
 11
-10.9283305122
 21
-17.5761053301
 31
0.0
 11
-11.0646377138
 21
-17.2101567138
 31
0.0
 11
-10.9979263662
 21
-16.718936765
 31
0.0
 11
-10.747436797
 21
-16.2441240205
 31
0.0
 11
-10.3854153174
 21
-15.9226641591
 31
0.0
  0
SPLINE
  5
44A
100
AcDbEntity
  8
RACCORDO
100
AcDbSpline
 62
253
  6
CONTINUOUS
 70
0
 71
3
 72
9
 73
5
 74
3
 42
0.0000001
 43
0.0000001
 44
0.0000000001
 12
-0.5819500995
 22
0.6683829634
 32
0.0
 13
0.2805422808
 23
0.8436759795
 33
0.0
 40
0.0
 40
0.0
 40
0.0
 40
0.0
 40
0.4406255431
 40
1.0
 40
1.0
 40
1.0
 40
1.0
 10
5.6887541662
 20
-25.8846476689
 30
0.0
 10
5.60328014
 20
-25.7864788002
 30
0.0
 10
5.5145430768
 20
-25.4802553477
 30
0.0
 10
5.5668543869
 20
-25.1847920708
 30
0.0
 10
5.6191637822
 20
-25.0274818066
 30
0.0
 11
5.6887541662
 21
-25.8846476689
 31
0.0
 11
5.5524651709
 21
-25.5187081475
 31
0.0
 11
5.6191637822
 21
-25.0274818066
 31
0.0
  0
SPLINE
  5
44B
100
AcDbEntity
  8
RACCORDO
100
AcDbSpline
 62
253
  6
CONTINUOUS
 70
0
 71
3
 72
9
 73
5
 74
3
 42
0.0000001
 43
0.0000001
 44
0.0000000001
 12
0.3231893334
 22
0.97192864
 32
0.0
 13
0.8972148391
 23
0.4871807818
 33
0.0
 40
0.0
 40
0.0
 40
0.0
 40
0.0
 40
0.5258182495
 40
1.0
 40
1.0
 40
1.0
 40
1.0
 10
5.6191637822
 20
-25.0274818066
 30
0.0
 10
5.6758100654
 20
-24.8571292012
 30
0.0
 10
5.8349414826
 20
-24.5509152343
 30
0.0
 10
6.0897502876
 20
-24.3081581906
 30
0.0
 10
6.2315645886
 20
-24.231154112
 30
0.0
 11
5.6191637822
 21
-25.0274818066
 31
0.0
 11
5.8696118183
 21
-24.5526482938
 31
0.0
 11
6.2315645886
 21
-24.231154112
 31
0.0
  0
LINE
  5
44C
100
AcDbEntity
  8
RACCORDO
100
AcDbLine
 62
253
  6
CONTINUOUS
 10
5.6887553707
 20
-25.8846489873
 11
8.5523766623
 21
-27.3165271556
  0
LINE
  5
44D
100
AcDbEntity
  8
RACCORDO
100
AcDbLine
 62
253
  6
CONTINUOUS
 10
8.5523766623
 20
-27.3165271556
 11
9.0073366229
 21
-27.5440110975
  0
LINE
  5
44E
100
AcDbEntity
  8
RACCORDO
100
AcDbLine
 62
253
  6
CONTINUOUS
 10
9.0073366229
 20
-27.5440110975
 11
9.99483069
 21
-28.0377407816
  0
LINE
  5
44F
100
AcDbEntity
  8
RACCORDO
100
AcDbLine
 62
253
  6
CONTINUOUS
 10
9.99483069
 20
-28.0377407816
 11
10.7626157862
 21
-28.4216541773
  0
SPLINE
  5
450
100
AcDbEntity
  8
RACCORDO
100
AcDbSpline
 62
253
  6
CONTINUOUS
 70
0
 71
3
 72
11
 73
7
 74
5
 42
0.0000001
 43
0.0000001
 44
0.0000000001
 12
2.3532304113
 22
-1.1768133575
 32
0.0
 13
2.3526047274
 23
-1.17806368
 33
0.0
 40
0.0
 40
0.0
 40
0.0
 40
0.0
 40
0.2094038749
 40
0.4995738976
 40
0.7632814385
 40
1.0
 40
1.0
 40
1.0
 40
1.0
 10
10.7626157862
 20
-28.4216541773
 30
0.0
 10
10.9268743084
 20
-28.5037972696
 30
0.0
 10
11.3187382068
 20
-28.6997795414
 30
0.0
 10
11.9174218171
 20
-28.9992769539
 30
0.0
 10
12.5374917125
 20
-29.3095683438
 30
0.0
 10
12.9299424494
 20
-29.5060480684
 30
0.0
 10
13.1155775183
 20
-29.5990045816
 30
0.0
 11
10.7626157862
 21
-28.4216541773
 31
0.0
 11
11.2553819201
 21
-28.6681023151
 31
0.0
 11
11.938170466
 21
-29.0096749911
 31
0.0
 11
12.5586491204
 21
-29.3201813595
 31
0.0
 11
13.1155775183
 21
-29.5990045816
 31
0.0
  0
SPLINE
  5
451
100
AcDbEntity
  8
RACCORDO
100
AcDbSpline
 62
253
  6
CONTINUOUS
 70
0
 71
3
 72
11
 73
7
 74
5
 42
0.0000001
 43
0.0000001
 44
0.0000000001
 12
-1.2161661995
 22
1.3802869083
 32
0.0
 13
1.5475103175
 23
0.9969072371
 33
0.0
 40
0.0
 40
0.0
 40
0.0
 40
0.0
 40
0.2116084201
 40
0.4817983275
 40
0.7741760731
 40
1.0
 40
1.0
 40
1.0
 40
1.0
 10
13.1154693739
 20
-29.5990868794
 30
0.0
 10
13.0296857045
 20
-29.5017267687
 30
0.0
 10
12.9421893203
 20
-29.1950581816
 30
0.0
 10
13.0209166837
 20
-28.7198232334
 30
0.0
 10
13.2482779783
 20
-28.2848264909
 30
0.0
 10
13.479857793
 20
-28.0540221129
 30
0.0
 10
13.5963460786
 20
-27.9789802772
 30
0.0
 11
13.1154693739
 21
-29.5990868794
 31
0.0
 11
12.9791573022
 21
-29.2344507858
 31
0.0
 11
13.0428870974
 21
-28.7415028435
 31
0.0
 11
13.2936188482
 21
-28.2656504219
 31
0.0
 11
13.5963460786
 21
-27.9789802772
 31
0.0
  0
SPLINE
  5
452
100
AcDbEntity
  8
RACCORDO
100
AcDbSpline
 62
253
  6
CONTINUOUS
 70
0
 71
3
 72
22
 73
18
 74
16
 42
0.0000001
 43
0.0000001
 44
0.0000000001
 12
1.9453357675
 22
-0.9756380628
 32
0.0
 13
0.0010815681
 23
2.1762811647
 33
0.0
 40
0.0
 40
0.0
 40
0.0
 40
0.0
 40
0.0807969983
 40
0.1506901538
 40
0.2154603218
 40
0.2781064715
 40
0.3381302124
 40
0.3937243036
 40
0.448479021
 40
0.5068537266
 40
0.5680002862
 40
0.6281639538
 40
0.6908422824
 40
0.7600413222
 40
0.8387014656
 40
0.918114205
 40
1.0
 40
1.0
 40
1.0
 40
1.0
 10
13.1154693739
 20
-29.5990868794
 30
0.0
 10
13.1678618041
 20
-29.6253630884
 30
0.0
 10
13.2683761716
 20
-29.6691146091
 30
0.0
 10
13.4185493204
 20
-29.7137768543
 30
0.0
 10
13.5602526301
 20
-29.7367930061
 30
0.0
 10
13.6967085049
 20
-29.7394377221
 30
0.0
 10
13.8253813916
 20
-29.7216881894
 30
0.0
 10
13.9439538659
 20
-29.6849538764
 30
0.0
 10
14.0538917537
 20
-29.6299113661
 30
0.0
 10
14.15628887
 20
-29.5547153325
 30
0.0
 10
14.2477017082
 20
-29.4610803793
 30
0.0
 10
14.3269996116
 20
-29.3532218111
 30
0.0
 10
14.3936682814
 20
-29.2304438662
 30
0.0
 10
14.4493889083
 20
-29.0878439193
 30
0.0
 10
14.4905715021
 20
-28.9277891684
 30
0.0
 10
14.5151914567
 20
-28.7551736021
 30
0.0
 10
14.5203675944
 20
-28.6380802281
 30
0.0
 10
14.5203971161
 20
-28.578678057
 30
0.0
 11
13.1154693739
 21
-29.5990868794
 31
0.0
 11
13.2769472761
 21
-29.668682427
 31
0.0
 11
13.4228886841
 21
-29.7115508136
 31
0.0
 11
13.5621013585
 21
-29.7336646381
 31
0.0
 11
13.6984196893
 21
-29.735837843
 31
0.0
 11
13.8277732016
 21
-29.7176310398
 31
0.0
 11
13.9432951902
 21
-29.6816746731
 31
0.0
 11
14.049836172
 21
-29.6283031083
 31
0.0
 11
14.1524131194
 21
-29.5533559428
 31
0.0
 11
14.245805538
 21
-29.4585611861
 31
0.0
 11
14.323445517
 21
-29.3531310993
 31
0.0
 11
14.3889469334
 21
-29.2334812989
 31
0.0
 11
14.4441822084
 21
-29.0933799214
 31
0.0
 11
14.4873583761
 21
-28.9277276535
 31
0.0
 11
14.5121809332
 21
-28.7566950888
 31
0.0
 11
14.5203971161
 21
-28.578678057
 31
0.0
  0
SPLINE
  5
453
100
AcDbEntity
  8
RACCORDO
100
AcDbSpline
 62
253
  6
CONTINUOUS
 70
0
 71
3
 72
9
 73
5
 74
3
 42
0.0000001
 43
0.0000001
 44
0.0000000001
 12
-1.0354485677
 22
0.074935423
 32
0.0
 13
-0.0209554761
 23
0.9566816463
 33
0.0
 40
0.0
 40
0.0
 40
0.0
 40
0.0
 40
0.6206401974
 40
1.0
 40
1.0
 40
1.0
 40
1.0
 10
14.5203971161
 20
-28.578678057
 30
0.0
 10
14.3061834482
 20
-28.5631754117
 30
0.0
 10
13.9664642958
 20
-28.5181274732
 30
0.0
 10
13.6676485451
 20
-28.2045757887
 30
0.0
 10
13.6649986567
 20
-28.0836002686
 30
0.0
 11
14.5203971161
 21
-28.578678057
 31
0.0
 11
13.9002524799
 21
-28.4038321885
 31
0.0
 11
13.6649986567
 21
-28.0836002686
 31
0.0
  0
SPLINE
  5
454
100
AcDbEntity
  8
RACCORDO
100
AcDbSpline
 62
253
  6
CONTINUOUS
 70
0
 71
3
 72
17
 73
13
 74
11
 42
0.0000001
 43
0.0000001
 44
0.0000000001
 12
0.0011221125
 22
9.093738918
 32
0.0
 13
0.0000003662
 23
9.0937389872
 33
0.0
 40
0.0
 40
0.0
 40
0.0
 40
0.0
 40
0.0672976095
 40
0.1406096604
 40
0.2201234819
 40
0.3061307887
 40
0.3993329003
 40
0.500896103
 40
0.6114701958
 40
0.7313690588
 40
0.8604313091
 40
1.0
 40
1.0
 40
1.0
 40
1.0
 10
14.5203611215
 20
-28.5787055812
 30
0.0
 10
14.5203862933
 20
-28.374709951
 30
0.0
 10
14.5206312408
 20
-27.9484874881
 30
0.0
 10
14.5209428511
 20
-27.2812390586
 30
0.0
 10
14.5209050738
 20
-26.557276826
 30
0.0
 10
14.5205371947
 20
-25.7730230287
 30
0.0
 10
14.5199212424
 20
-24.9219322713
 30
0.0
 10
14.5191679051
 20
-23.9963736181
 30
0.0
 10
14.518677481
 20
-22.9898903244
 30
0.0
 10
14.5185680043
 20
-21.9000505349
 30
0.0
 10
14.5187444649
 20
-20.722321005
 30
0.0
 10
14.5188823847
 20
-19.9080344575
 30
0.0
 10
14.5188824017
 20
-19.4849673755
 30
0.0
 11
14.5203611215
 21
-28.5787055812
 31
0.0
 11
14.5206102495
 21
-27.9667187367
 31
0.0
 11
14.5208787239
 21
-27.3000381351
 31
0.0
 11
14.52085783
 21
-26.5769601973
 31
0.0
 11
14.5205155642
 21
-25.7948322725
 31
0.0
 11
14.5199273894
 21
-24.9472768009
 31
0.0
 11
14.5192382846
 21
-24.0236878023
 31
0.0
 11
14.5187534565
 21
-23.0181559798
 31
0.0
 11
14.5186146023
 21
-21.9278270236
 31
0.0
 11
14.5187433666
 21
-20.7541686139
 31
0.0
 11
14.5188824017
 21
-19.4849673755
 31
0.0
  0
SPLINE
  5
455
100
AcDbEntity
  8
RACCORDO
100
AcDbSpline
 62
253
  6
CONTINUOUS
 70
0
 71
3
 72
10
 73
6
 74
4
 42
0.0000001
 43
0.0000001
 44
0.0000000001
 12
-1.0455424599
 22
0.0770886908
 32
0.0
 13
-0.0442293193
 23
1.0824060045
 33
0.0
 40
0.0
 40
0.0
 40
0.0
 40
0.0
 40
0.47950612
 40
0.8400334538
 40
1.0
 40
1.0
 40
1.0
 40
1.0
 10
14.5188797689
 20
-19.4849671824
 30
0.0
 10
14.3517650994
 20
-19.4726456827
 30
0.0
 10
14.0677956198
 20
-19.4122880196
 30
0.0
 10
13.7318409547
 20
-19.2387508103
 30
0.0
 10
13.6748231854
 20
-19.0477191184
 30
0.0
 10
13.6724647816
 20
-18.9900028683
 30
0.0
 11
14.5188797689
 21
-19.4849671824
 31
0.0
 11
14.0281476512
 21
-19.3759067516
 31
0.0
 11
13.7210014844
 21
-19.1556286873
 31
0.0
 11
13.6724647816
 21
-18.9900028683
 31
0.0
  0
SPLINE
  5
456
100
AcDbEntity
  8
RACCORDO
100
AcDbSpline
 62
253
  6
CONTINUOUS
 70
0
 71
3
 72
10
 73
6
 74
4
 42
0.0000001
 43
0.0000001
 44
0.0000000001
 12
-1.045510344
 22
0.077155362
 32
0.0
 13
-0.0442364611
 23
1.0823768811
 33
0.0
 40
0.0
 40
0.0
 40
0.0
 40
0.0
 40
0.4795404588
 40
0.8400598226
 40
1.0
 40
1.0
 40
1.0
 40
1.0
 10
14.5188797681
 20
0.8667092339
 30
0.0
 10
14.3517582647
 20
0.8790422732
 30
0.0
 10
14.0677935733
 20
0.9394171546
 30
0.0
 10
13.7318430788
 20
1.1129339182
 30
0.0
 10
13.6748248636
 20
1.3039517672
 30
0.0
 10
13.6724664678
 20
1.3616569506
 30
0.0
 11
14.5188797681
 21
0.8667092339
 31
0.0
 11
14.0281299845
 21
0.9757961561
 31
0.0
 11
13.7209964339
 21
1.1960606956
 31
0.0
 11
13.6724664678
 21
1.3616569506
 31
0.0
  0
SPLINE
  5
457
100
AcDbEntity
  8
RACCORDO
100
AcDbSpline
 62
253
  6
CONTINUOUS
 70
0
 71
3
 72
11
 73
7
 74
5
 42
0.0000001
 43
0.0000001
 44
0.0000000001
 12
0.0000341406
 22
9.0936093558
 32
0.0
 13
-0.000045569
 23
9.0936093557
 33
0.0
 40
0.0
 40
0.0
 40
0.0
 40
0.0
 40
0.2845397665
 40
0.5454237972
 40
0.782743024
 40
1.0
 40
1.0
 40
1.0
 40
1.0
 10
14.5188824083
 20
0.866709043
 30
0.0
 10
14.5188856464
 20
1.7292068706
 30
0.0
 10
14.518306822
 20
3.382497192
 30
0.0
 10
14.5192403445
 20
5.7551501893
 30
0.0
 10
14.5215507059
 20
7.9238548594
 30
0.0
 10
14.5203645003
 20
9.3017676889
 30
0.0
 10
14.5203612002
 20
9.960317712
 30
0.0
 11
14.5188824083
 21
0.866709043
 31
0.0
 11
14.5186162825
 21
3.454202512
 31
0.0
 11
14.5195466677
 21
5.8265797919
 31
0.0
 11
14.5208920996
 21
7.984667714
 31
0.0
 11
14.5203612002
 21
9.960317712
 31
0.0
  0
SPLINE
  5
458
100
AcDbEntity
  8
RACCORDO
100
AcDbSpline
 62
253
  6
CONTINUOUS
 70
0
 71
3
 72
9
 73
5
 74
3
 42
0.0000001
 43
0.0000001
 44
0.0000000001
 12
-1.0373686036
 22
0.0765173754
 32
0.0
 13
-0.0147128993
 23
0.9624493349
 33
0.0
 40
0.0
 40
0.0
 40
0.0
 40
0.0
 40
0.6181914518
 40
1.0
 40
1.0
 40
1.0
 40
1.0
 10
14.52039642
 20
9.9603451869
 30
0.0
 10
14.3066322856
 20
9.9761126493
 30
0.0
 10
13.9637075678
 20
10.0146420099
 30
0.0
 10
13.666801242
 20
10.332023717
 30
0.0
 10
13.6649287384
 20
10.4545141781
 30
0.0
 11
14.52039642
 21
9.9603451869
 31
0.0
 11
13.9002324469
 21
10.1303160919
 31
0.0
 11
13.6649287384
 21
10.4545141781
 31
0.0
  0
SPLINE
  5
459
100
AcDbEntity
  8
RACCORDO
100
AcDbSpline
 62
253
  6
CONTINUOUS
 70
0
 71
3
 72
17
 73
13
 74
11
 42
0.0000001
 43
0.0000001
 44
0.0000000001
 12
-0.0010961062
 22
1.9824893794
 32
0.0
 13
-1.2425648992
 23
1.545240065
 33
0.0
 40
0.0
 40
0.0
 40
0.0
 40
0.0
 40
0.112739017
 40
0.2201892176
 40
0.3214595321
 40
0.4196790224
 40
0.521239264
 40
0.6275511754
 40
0.7346849768
 40
0.8375868892
 40
0.9352934755
 40
1.0
 40
1.0
 40
1.0
 40
1.0
 10
14.52039642
 20
9.9603451869
 30
0.0
 10
14.5203552287
 20
10.0348464882
 30
0.0
 10
14.5123115711
 20
10.1804324501
 30
0.0
 10
14.4813145849
 20
10.3908132437
 30
0.0
 10
14.4364474643
 20
10.5888009068
 30
0.0
 10
14.3796004031
 20
10.7795864276
 30
0.0
 10
14.309606358
 20
10.9695111566
 30
0.0
 10
14.2255083126
 20
11.1600646117
 30
0.0
 10
14.1303368424
 20
11.3463369031
 30
0.0
 10
14.0263803992
 20
11.5212926796
 30
0.0
 10
13.9272342734
 20
11.6660381729
 30
0.0
 10
13.8618521468
 20
11.7512110367
 30
0.0
 10
13.8350514614
 20
11.7845400748
 30
0.0
 11
14.52039642
 21
9.9603451869
 31
0.0
 11
14.5086610129
 21
10.1835408197
 31
0.0
 11
14.4779667361
 21
10.3943367379
 31
0.0
 11
14.4338087001
 21
10.5901876968
 31
0.0
 11
14.3783073739
 21
10.7768294416
 31
0.0
 11
14.3087923705
 21
10.9657905965
 31
0.0
 11
14.2239341847
 21
11.1587149903
 31
0.0
 11
14.1270440346
 21
11.3477189962
 31
0.0
 11
14.0227310798
 21
11.5230347547
 31
0.0
 11
13.9132051675
 21
11.6827991289
 31
0.0
 11
13.8350514614
 21
11.7845400748
 31
0.0
  0
SPLINE
  5
45A
100
AcDbEntity
  8
RACCORDO
100
AcDbSpline
 62
253
  6
CONTINUOUS
 70
0
 71
3
 72
11
 73
7
 74
5
 42
0.0000001
 43
0.0000001
 44
0.0000000001
 12
-0.5171514227
 22
0.6133661834
 32
0.0
 13
-0.7019983442
 23
0.3891500588
 33
0.0
 40
0.0
 40
0.0
 40
0.0
 40
0.0
 40
0.254110412
 40
0.5239000452
 40
0.8064347625
 40
1.0
 40
1.0
 40
1.0
 40
1.0
 10
13.7935101989
 20
11.8349928162
 30
0.0
 10
13.7497056785
 20
11.8869470607
 30
0.0
 10
13.6554594447
 20
11.9907574911
 30
0.0
 10
13.4976084133
 20
12.138079759
 30
0.0
 10
13.3388611911
 20
12.2593733474
 30
0.0
 10
13.2302493212
 20
12.3263335048
 30
0.0
 10
13.1849551624
 20
12.351442146
 30
0.0
 11
13.7935101989
 21
11.8349928162
 31
0.0
 11
13.6563269939
 21
11.985744453
 31
0.0
 11
13.4978509703
 21
12.1331069172
 31
0.0
 11
13.3173607618
 21
12.2701570894
 31
0.0
 11
13.1849551624
 21
12.351442146
 31
0.0
  0
SPLINE
  5
45B
100
AcDbEntity
  8
RACCORDO
100
AcDbSpline
 62
253
  6
CONTINUOUS
 70
0
 71
3
 72
10
 73
6
 74
4
 42
0.0000001
 43
0.0000001
 44
0.0000000001
 12
-0.5191157927
 22
-1.1096488552
 32
0.0
 13
1.0899542614
 23
-0.5856048766
 33
0.0
 40
0.0
 40
0.0
 40
0.0
 40
0.0
 40
0.4262331733
 40
0.7770121779
 40
1.0
 40
1.0
 40
1.0
 40
1.0
 10
13.1154690703
 20
12.3878162461
 30
0.0
 10
13.0417142797
 20
12.2301598618
 30
0.0
 10
12.9560413435
 20
11.9206129883
 30
0.0
 10
12.980228323
 20
11.4931594596
 30
0.0
 10
13.1535360652
 20
11.3020710676
 30
0.0
 10
13.2345515742
 20
11.2585434823
 30
0.0
 11
13.1154690703
 21
12.3878162461
 31
0.0
 11
12.9791569879
 21
11.883755974
 31
0.0
 11
13.0429082624
 21
11.4587815079
 31
0.0
 11
13.2345515742
 21
11.2585434823
 31
0.0
  0
SPLINE
  5
45C
100
AcDbEntity
  8
RACCORDO
100
AcDbSpline
 62
253
  6
CONTINUOUS
 70
0
 71
3
 72
15
 73
11
 74
9
 42
0.0000001
 43
0.0000001
 44
0.0000000001
 12
-6.0470775229
 22
2.9991312082
 32
0.0
 13
-6.0376440886
 23
3.0180769439
 33
0.0
 40
0.0
 40
0.0
 40
0.0
 40
0.0
 40
0.1442837705
 40
0.2837226815
 40
0.4260850121
 40
0.5671910258
 40
0.6935470794
 40
0.8062604979
 40
0.907950808
 40
1.0
 40
1.0
 40
1.0
 40
1.0
 10
13.1155777407
 20
12.387842624
 30
0.0
 10
12.8247460255
 20
12.5320846103
 30
0.0
 10
12.2530843271
 20
12.8162010651
 30
0.0
 10
11.3950984789
 20
13.2439136566
 30
0.0
 10
10.5438269911
 20
13.6690684929
 30
0.0
 10
9.7191020345
 20
14.0814950335
 30
0.0
 10
8.954053655
 20
14.464107413
 30
0.0
 10
8.2682671663
 20
14.8069383827
 30
0.0
 10
7.6515124551
 20
15.1152308983
 30
0.0
 10
7.2616000591
 20
15.3101331197
 30
0.0
 10
7.0763466392
 20
15.4027369676
 30
0.0
 11
13.1155777407
 21
12.387842624
 31
0.0
 11
12.2434114886
 21
12.8212310913
 31
0.0
 11
11.4010366897
 21
13.2410822019
 31
0.0
 11
10.5413351314
 21
13.6704054724
 31
0.0
 11
9.6894216738
 21
14.0963431515
 31
0.0
 11
8.9265887383
 21
14.4778153395
 31
0.0
 11
8.2460806912
 21
14.8180240304
 31
0.0
 11
7.6321090943
 21
15.1249298157
 31
0.0
 11
7.0763466392
 21
15.4027369676
 31
0.0
  0
LINE
  5
45D
100
AcDbEntity
  8
RACCORDO
100
AcDbLine
 62
253
  6
CONTINUOUS
 10
7.0763466392
 20
15.4027369676
 11
5.8249383203
 21
16.0283479309
  0
LINE
  5
45E
100
AcDbEntity
  8
RACCORDO
100
AcDbLine
 62
253
  6
CONTINUOUS
 10
5.8249383203
 20
16.0283479309
 11
5.6886800423
 21
16.0964760683
  0
SPLINE
  5
45F
100
AcDbEntity
  8
RACCORDO
100
AcDbSpline
 62
253
  6
CONTINUOUS
 70
0
 71
3
 72
10
 73
6
 74
4
 42
0.0000001
 43
0.0000001
 44
0.0000000001
 12
-0.5155212097
 22
-1.107559963
 32
0.0
 13
1.0853350342
 23
-0.5849113274
 33
0.0
 40
0.0
 40
0.0
 40
0.0
 40
0.0
 40
0.4259972378
 40
0.7777471068
 40
1.0
 40
1.0
 40
1.0
 40
1.0
 10
5.6886788457
 20
16.0964735514
 30
0.0
 10
5.6154753085
 20
15.9392010564
 30
0.0
 10
5.5276121853
 20
15.6304521793
 30
0.0
 10
5.5567011713
 20
15.2045028449
 30
0.0
 10
5.7294857816
 20
15.0142385269
 30
0.0
 10
5.8098920654
 20
14.970905782
 30
0.0
 11
5.6886788457
 21
16.0964735514
 31
0.0
 11
5.5523716441
 21
15.5942177335
 31
0.0
 11
5.6190829917
 21
15.1697091323
 31
0.0
 11
5.8098920654
 21
14.970905782
 31
0.0
  0
SPLINE
  5
460
100
AcDbEntity
  8
RACCORDO
100
AcDbSpline
 62
253
  6
CONTINUOUS
 70
0
 71
3
 72
12
 73
8
 74
6
 42
0.0000001
 43
0.0000001
 44
0.0000000001
 12
16.0336135091
 22
-7.4958084495
 32
0.0
 13
16.9283678217
 23
-5.1666497271
 33
0.0
 40
0.0
 40
0.0
 40
0.0
 40
0.0
 40
0.1524720784
 40
0.3280226381
 40
0.4829252522
 40
0.7876879258
 40
1.0
 40
1.0
 40
1.0
 40
1.0
 10
16.1301524866
 20
-19.8732528676
 30
0.0
 10
16.9450452789
 20
-20.2542200323
 30
0.0
 10
18.7085625182
 20
-21.0517583465
 30
0.0
 10
21.3341634934
 20
-22.1589196105
 30
0.0
 10
24.8220182642
 20
-23.5305678075
 30
0.0
 10
28.5575439527
 20
-24.8621716733
 30
0.0
 10
31.4638456232
 20
-25.7904813422
 30
0.0
 10
32.6618779185
 20
-26.1561287157
 30
0.0
 11
16.1301524866
 21
-19.8732528676
 31
0.0
 11
18.5887871362
 21
-20.9858138099
 31
0.0
 11
21.451455019
 21
-22.193828439
 31
0.0
 11
24.0027233188
 21
-23.1976915119
 31
0.0
 11
29.0825522518
 21
-25.0119074907
 31
0.0
 11
32.6618779185
 21
-26.1561287157
 31
0.0
  0
SPLINE
  5
461
100
AcDbEntity
  8
RACCORDO
100
AcDbSpline
 62
253
  6
CONTINUOUS
 70
0
 71
3
 72
30
 73
26
 74
24
 42
0.0000001
 43
0.0000001
 44
0.0000000001
 12
-0.1358196313
 22
28.331955486
 32
0.0
 13
0.0000027785
 23
28.3322810348
 33
0.0
 40
0.0
 40
0.0
 40
0.0
 40
0.0
 40
0.0131306468
 40
0.0275894443
 40
0.043294271
 40
0.0602867165
 40
0.0789087123
 40
0.0995480662
 40
0.1227061242
 40
0.1488667234
 40
0.1781620226
 40
0.210362705
 40
0.2454382047
 40
0.2835511048
 40
0.3248555273
 40
0.3695372057
 40
0.4178705256
 40
0.4701556037
 40
0.5267618446
 40
0.5881366664
 40
0.655349421
 40
0.7297532694
 40
0.8118850566
 40
0.9018923128
 40
1.0
 40
1.0
 40
1.0
 40
1.0
 10
32.6323581831
 20
-54.4883268359
 30
0.0
 10
32.6317637166
 20
-54.3643212022
 30
0.0
 10
32.6317683246
 20
-54.1037610049
 30
0.0
 10
32.6342515887
 20
-53.6948910635
 30
0.0
 10
32.6396490287
 20
-53.2495763719
 30
0.0
 10
32.6446887519
 20
-52.7649387358
 30
0.0
 10
32.6488389723
 20
-52.2336869769
 30
0.0
 10
32.6503011773
 20
-51.644192316
 30
0.0
 10
32.6508048735
 20
-50.9835028466
 30
0.0
 10
32.651190448
 20
-50.2410650857
 30
0.0
 10
32.6531173473
 20
-49.413230159
 30
0.0
 10
32.6550546682
 20
-48.5012021406
 30
0.0
 10
32.6566085493
 20
-47.50589891
 30
0.0
 10
32.6577005147
 20
-46.4246184772
 30
0.0
 10
32.6582414097
 20
-45.2526159448
 30
0.0
 10
32.6581750151
 20
-43.9840907354
 30
0.0
 10
32.6581252414
 20
-42.6118632093
 30
0.0
 10
32.6581050808
 20
-41.1270189887
 30
0.0
 10
32.6583115784
 20
-39.5190096106
 30
0.0
 10
32.6588184047
 20
-37.7700219196
 30
0.0
 10
32.6595254673
 20
-35.8529520179
 30
0.0
 10
32.6603612654
 20
-33.7398514252
 30
0.0
 10
32.6611366499
 20
-31.4114773854
 30
0.0
 10
32.6617044085
 20
-28.8592420036
 30
0.0
 10
32.6618776675
 20
-27.0826668554
 30
0.0
 10
32.6618777584
 20
-26.1561286669
 30
0.0
 11
32.6323581831
 21
-54.4883268359
 31
0.0
 11
32.6321255034
 21
-54.1163057329
 31
0.0
 11
32.6345758744
 21
-53.7066623481
 31
0.0
 11
32.639379029
 21
-53.2617347083
 31
0.0
 11
32.6443306865
 21
-52.7803254338
 31
0.0
 11
32.6482454073
 21
-52.2527363372
 31
0.0
 11
32.6500843627
 21
-51.667979254
 31
0.0
 11
32.6507582957
 21
-51.0118589941
 31
0.0
 11
32.6513858281
 21
-50.2706698091
 31
0.0
 11
32.6530266663
 21
-49.4406687831
 31
0.0
 11
32.6549150526
 21
-48.5283519526
 31
0.0
 11
32.656476239
 21
-47.5345842641
 31
0.0
 11
32.6575753516
 21
-46.4547594287
 31
0.0
 11
32.6581304034
 21
-45.2845110517
 31
0.0
 11
32.6581800772
 21
-44.018577183
 31
0.0
 11
32.6581315713
 21
-42.6491839835
 31
0.0
 11
32.6581393014
 21
-41.1678284556
 31
0.0
 11
32.6583471841
 21
-39.5640445449
 31
0.0
 11
32.6588242954
 21
-37.82515591
 31
0.0
 11
32.6595084651
 21
-35.9208653786
 31
0.0
 11
32.6603115182
 21
-33.8128347906
 31
0.0
 11
32.6610709646
 21
-31.4858540359
 31
0.0
 11
32.6616365788
 21
-28.9357432221
 31
0.0
 11
32.6618777584
 21
-26.1561286669
 31
0.0
  0
SPLINE
  5
462
100
AcDbEntity
  8
RACCORDO
100
AcDbSpline
 62
253
  6
CONTINUOUS
 70
0
 71
3
 72
9
 73
5
 74
3
 42
0.0000001
 43
0.0000001
 44
0.0000000001
 12
0.5093569046
 22
-0.222126238
 32
0.0
 13
0.5553885003
 23
0.0444382787
 33
0.0
 40
0.0
 40
0.0
 40
0.0
 40
0.0
 40
0.5493651816
 40
1.0
 40
1.0
 40
1.0
 40
1.0
 10
31.3178197457
 20
-55.4410515665
 30
0.0
 10
31.4110940618
 20
-55.4817277068
 30
0.0
 10
31.5892291416
 20
-55.5392665098
 30
0.0
 10
31.7760469602
 20
-55.5517040858
 30
0.0
 10
31.8594727589
 20
-55.5450289405
 30
0.0
 11
31.3178197457
 21
-55.4410515665
 31
0.0
 11
31.6094369516
 21
-55.5313356916
 31
0.0
 11
31.8594727589
 21
-55.5450289405
 31
0.0
  0
SPLINE
  5
463
100
AcDbEntity
  8
RACCORDO
100
AcDbSpline
 62
253
  6
CONTINUOUS
 70
0
 71
3
 72
9
 73
5
 74
3
 42
0.0000001
 43
0.0000001
 44
0.0000000001
 12
0.2758483994
 22
0.0220714474
 32
0.0
 13
0.2509684245
 23
0.1167564085
 33
0.0
 40
0.0
 40
0.0
 40
0.0
 40
0.0
 40
0.7650637196
 40
1.0
 40
1.0
 40
1.0
 40
1.0
 10
31.8594727589
 20
-55.5450289405
 30
0.0
 10
31.9298199597
 20
-55.5394002527
 30
0.0
 10
32.0210623366
 20
-55.5206303119
 30
0.0
 10
32.106433278
 20
-55.4854072103
 30
0.0
 10
32.1260871407
 20
-55.4762637715
 30
0.0
 11
31.8594727589
 21
-55.5450289405
 31
0.0
 11
32.0659957409
 21
-55.5010494461
 31
0.0
 11
32.1260871407
 21
-55.4762637715
 31
0.0
  0
SPLINE
  5
464
100
AcDbEntity
  8
RACCORDO
100
AcDbSpline
 62
253
  6
CONTINUOUS
 70
0
 71
3
 72
9
 73
5
 74
3
 42
0.0000001
 43
0.0000001
 44
0.0000000001
 12
0.2251410263
 22
0.1047408959
 32
0.0
 13
0.1784855804
 23
0.1724739921
 33
0.0
 40
0.0
 40
0.0
 40
0.0
 40
0.0
 40
0.5041511979
 40
1.0
 40
1.0
 40
1.0
 40
1.0
 10
32.1260871407
 20
-55.4762637715
 30
0.0
 10
32.1639221801
 20
-55.4586620221
 30
0.0
 10
32.2360078011
 20
-55.4173660686
 30
0.0
 10
32.3000077822
 20
-55.3645299107
 30
0.0
 10
32.3295084026
 20
-55.3360229032
 30
0.0
 11
32.1260871407
 21
-55.4762637715
 31
0.0
 11
32.2345511701
 21
-55.4140900576
 31
0.0
 11
32.3295084026
 21
-55.3360229032
 31
0.0
  0
SPLINE
  5
465
100
AcDbEntity
  8
RACCORDO
100
AcDbSpline
 62
253
  6
CONTINUOUS
 70
0
 71
3
 72
13
 73
9
 74
7
 42
0.0000001
 43
0.0000001
 44
0.0000000001
 12
0.5878416874
 22
0.5680425405
 32
0.0
 13
0.0500560377
 23
0.8143563502
 33
0.0
 40
0.0
 40
0.0
 40
0.0
 40
0.0
 40
0.0747299274
 40
0.2990147332
 40
0.5193417984
 40
0.7305100601
 40
0.9331003826
 40
1.0
 40
1.0
 40
1.0
 40
1.0
 10
32.3295084026
 20
-55.3360229032
 30
0.0
 10
32.3441515248
 20
-55.3218729773
 30
0.0
 10
32.4005405857
 20
-55.2629797217
 30
0.0
 10
32.4823406731
 20
-55.1466763997
 30
0.0
 10
32.5560894276
 20
-54.9834666264
 30
0.0
 10
32.602786668
 20
-54.8170197399
 30
0.0
 10
32.6224636338
 20
-54.687588452
 30
0.0
 10
32.6282260636
 20
-54.6145101479
 30
0.0
 10
32.6293423069
 20
-54.5963501051
 30
0.0
 11
32.3295084026
 21
-55.3360229032
 31
0.0
 11
32.3717567095
 21
-55.2919317022
 31
0.0
 11
32.4778673252
 21
-55.1429689148
 31
0.0
 11
32.5527527125
 21
-54.9796548904
 31
0.0
 11
32.5998934067
 21
-54.8140373152
 31
0.0
 11
32.6250403142
 21
-54.6507613978
 31
0.0
 11
32.6293423069
 21
-54.5963501051
 31
0.0
  0
SPLINE
  5
466
100
AcDbEntity
  8
RACCORDO
100
AcDbSpline
 62
253
  6
CONTINUOUS
 70
0
 71
3
 72
10
 73
6
 74
4
 42
0.0000001
 43
0.0000001
 44
0.0000000001
 12
1.1585864026
 22
-0.3536078835
 32
0.0
 13
1.1045695661
 23
0.497279661
 33
0.0
 40
0.0
 40
0.0
 40
0.0
 40
0.0
 40
0.3354093353
 40
0.6841379406
 40
1.0
 40
1.0
 40
1.0
 40
1.0
 10
32.6618778719
 20
-5.804531879
 30
0.0
 10
32.7914114369
 20
-5.8440663407
 30
0.0
 10
33.0671611963
 20
-5.88855321
 30
0.0
 10
33.4725439204
 20
-5.8709631156
 30
0.0
 10
33.7357271832
 20
-5.8016879848
 30
0.0
 10
33.8520243892
 20
-5.7493307255
 30
0.0
 11
32.6618778719
 21
-5.804531879
 31
0.0
 11
33.062174388
 21
-5.8741017172
 31
0.0
 11
33.4841520069
 21
-5.8545296548
 31
0.0
 11
33.8520243892
 21
-5.7493307255
 31
0.0
  0
SPLINE
  5
467
100
AcDbEntity
  8
RACCORDO
100
AcDbSpline
 62
253
  6
CONTINUOUS
 70
0
 71
3
 72
9
 73
5
 74
3
 42
0.0000001
 43
0.0000001
 44
0.0000000001
 12
0.0020948448
 22
-0.1342421898
 32
0.0
 13
-0.1132326244
 23
-0.0628787848
 33
0.0
 40
0.0
 40
0.0
 40
0.0
 40
0.0
 40
0.2498573583
 40
1.0
 40
1.0
 40
1.0
 40
1.0
 10
-2.3796967649
 20
-17.3803160454
 30
0.0
 10
-2.3795222941
 20
-17.3914965117
 30
0.0
 10
-2.3864562139
 20
-17.4359418923
 30
0.0
 10
-2.4265458001
 20
-17.4645794235
 30
0.0
 10
-2.4548593401
 20
-17.4803021094
 30
0.0
 11
-2.3796967649
 21
-17.3803160454
 31
0.0
 11
-2.385057141
 21
-17.412719659
 31
0.0
 11
-2.4548593401
 21
-17.4803021094
 31
0.0
  0
SPLINE
  5
468
100
AcDbEntity
  8
RACCORDO
100
AcDbSpline
 62
253
  6
CONTINUOUS
 70
0
 71
3
 72
8
 73
4
 74
2
 42
0.0000001
 43
0.0000001
 44
0.0000000001
 12
-0.2200780115
 22
0.1104679738
 32
0.0
 13
-0.2398634418
 23
0.0612487393
 33
0.0
 40
0.0
 40
0.0
 40
0.0
 40
0.0
 40
1.0
 40
1.0
 40
1.0
 40
1.0
 10
-31.6659296948
 20
56.4072205291
 30
0.0
 10
-31.7392890319
 20
56.444043187
 30
0.0
 10
-31.8168021689
 20
56.474042436
 30
0.0
 10
-31.8967566495
 20
56.4944586824
 30
0.0
 11
-31.6659296948
 21
56.4072205291
 31
0.0
 11
-31.8967566495
 21
56.4944586824
 31
0.0
  0
SPLINE
  5
469
100
AcDbEntity
  8
RACCORDO
100
AcDbSpline
 62
253
  6
CONTINUOUS
 70
0
 71
3
 72
15
 73
11
 74
9
 42
0.0000001
 43
0.0000001
 44
0.0000000001
 12
-1.6347777767
 22
0.4174378434
 32
0.0
 13
-0.1393476881
 23
-1.6733427924
 33
0.0
 40
0.0
 40
0.0
 40
0.0
 40
0.0
 40
0.0654843952
 40
0.2369855275
 40
0.3846729655
 40
0.5217870407
 40
0.6556651422
 40
0.7870530246
 40
0.9151915249
 40
1.0
 40
1.0
 40
1.0
 40
1.0
 10
-31.8967566495
 20
56.4944586824
 30
0.0
 10
-31.9324407941
 20
56.5035705706
 30
0.0
 10
-32.0633402112
 20
56.5296381744
 30
0.0
 10
-32.2829166135
 20
56.5261562938
 30
0.0
 10
-32.5250927757
 20
56.4296700337
 30
0.0
 10
-32.7046191329
 20
56.273728956
 30
0.0
 10
-32.8306423288
 20
56.0847554944
 30
0.0
 10
-32.9132915677
 20
55.8795196732
 30
0.0
 10
-32.9564951196
 20
55.6911836756
 30
0.0
 10
-32.9708000214
 20
55.5727372924
 30
0.0
 10
-32.9747393097
 20
55.5254327422
 30
0.0
 11
-31.8967566495
 21
56.4944586824
 31
0.0
 11
-32.0051157128
 21
56.5158225406
 31
0.0
 11
-32.2928167293
 21
56.5072898826
 31
0.0
 11
-32.5228970298
 21
56.4151035288
 31
0.0
 11
-32.6979870493
 21
56.2657817566
 31
0.0
 11
-32.8244555572
 21
56.0800689429
 31
0.0
 11
-32.9083457585
 21
55.8761440041
 31
0.0
 11
-32.9574369298
 21
55.666769379
 31
0.0
 11
-32.9747393097
 21
55.5254327422
 31
0.0
  0
LINE
  5
46A
100
AcDbEntity
  8
SUPERFICI
100
AcDbLine
 62
7
  6
CONTINUOUS
 10
8.2638179875
 20
-29.9759842699
 11
8.2437669436
 21
-29.895098458
  0
LINE
  5
46B
100
AcDbEntity
  8
SUPERFICI
100
AcDbLine
 62
7
  6
CONTINUOUS
 10
7.8097914067
 20
-28.0836422605
 11
7.3447714455
 21
-27.8512217543
  0
SPLINE
  5
46C
100
AcDbEntity
  8
RACCORDO
100
AcDbSpline
 62
253
  6
CONTINUOUS
 70
0
 71
3
 72
10
 73
6
 74
4
 42
0.0000001
 43
0.0000001
 44
0.0000000001
 12
1.1585864132
 22
-0.3536078306
 32
0.0
 13
1.104569584
 23
0.4972796084
 33
0.0
 40
0.0
 40
0.0
 40
0.0
 40
0.0
 40
0.3354094744
 40
0.684137993
 40
1.0
 40
1.0
 40
1.0
 40
1.0
 10
32.6618778719
 20
-26.156128869
 30
0.0
 10
32.7914114918
 20
-26.1956633411
 30
0.0
 10
33.0671612763
 20
-26.2401501922
 30
0.0
 10
33.4725439953
 20
-26.2225600761
 30
0.0
 10
33.7357272006
 20
-26.1532849616
 30
0.0
 10
33.8520243892
 20
-26.1009277165
 30
0.0
 11
32.6618778719
 21
-26.156128869
 31
0.0
 11
33.0621745575
 21
-26.2256987059
 31
0.0
 11
33.4841520684
 21
-26.2061266242
 31
0.0
 11
33.8520243892
 21
-26.1009277165
 31
0.0
  0
SPLINE
  5
46D
100
AcDbEntity
  8
RACCORDO
100
AcDbSpline
 62
253
  6
CONTINUOUS
 70
0
 71
3
 72
10
 73
6
 74
4
 42
0.0000001
 43
0.0000001
 44
0.0000000001
 12
1.2250210297
 22
-0.4681848129
 32
0.0
 13
1.1766906843
 23
0.5790272668
 33
0.0
 40
0.0
 40
0.0
 40
0.0
 40
0.0
 40
0.3266399525
 40
0.6777910043
 40
1.0
 40
1.0
 40
1.0
 40
1.0
 10
32.6323582457
 20
-54.4883267926
 30
0.0
 10
32.765738516
 20
-54.5393027476
 30
0.0
 10
33.0613257991
 20
-54.5966459876
 30
0.0
 10
33.5006559856
 20
-54.5786766494
 30
0.0
 10
33.7887140414
 20
-54.4970548206
 30
0.0
 10
33.9150941493
 20
-54.4348655559
 30
0.0
 11
32.6323582457
 21
-54.4883267926
 31
0.0
 11
33.0511442797
 21
-54.5784259499
 31
0.0
 11
33.5112582122
 21
-54.5592498908
 31
0.0
 11
33.9150941493
 21
-54.4348655559
 31
0.0
  0
SPLINE
  5
46E
100
AcDbEntity
  8
RACCORDO
100
AcDbSpline
 62
253
  6
CONTINUOUS
 70
0
 71
3
 72
9
 73
5
 74
3
 42
0.0000001
 43
0.0000001
 44
0.0000000001
 12
0.0523187655
 22
-0.5165641002
 32
0.0
 13
0.4763941885
 23
-0.2310454209
 33
0.0
 40
0.0
 40
0.0
 40
0.0
 40
0.0
 40
0.6417028959
 40
1.0
 40
1.0
 40
1.0
 40
1.0
 10
31.3178213648
 20
-55.4410504398
 30
0.0
 10
31.3290123992
 20
-55.5515439994
 30
0.0
 10
31.3738548417
 20
-55.7304976603
 30
0.0
 10
31.5156988676
 20
-55.8482226603
 30
0.0
 10
31.5725957536
 20
-55.875816962
 30
0.0
 11
31.3178213648
 21
-55.4410504398
 31
0.0
 11
31.4265070145
 21
-55.7560012667
 31
0.0
 11
31.5725957536
 21
-55.875816962
 31
0.0
  0
SPLINE
  5
46F
100
AcDbEntity
  8
RACCORDO
100
AcDbSpline
 62
253
  6
CONTINUOUS
 70
0
 71
3
 72
9
 73
5
 74
3
 42
0.0000001
 43
0.0000001
 44
0.0000000001
 12
0.0921103623
 22
-0.4202672278
 32
0.0
 13
0.3925679299
 23
-0.1970609172
 33
0.0
 40
0.0
 40
0.0
 40
0.0
 40
0.0
 40
0.686743564
 40
1.0
 40
1.0
 40
1.0
 40
1.0
 10
8.0890162133
 20
-43.9651843301
 30
0.0
 10
8.1101016128
 20
-44.0613896013
 30
0.0
 10
8.1686908098
 20
-44.2029270767
 30
0.0
 10
8.2888162401
 20
-44.2902710673
 30
0.0
 10
8.329807717
 20
-44.3108479342
 30
0.0
 11
8.0890162133
 21
-43.9651843301
 31
0.0
 11
8.2195946374
 21
-44.2302309482
 31
0.0
 11
8.329807717
 21
-44.3108479342
 31
0.0
  0
SPLINE
  5
470
100
AcDbEntity
  8
RACCORDO
100
AcDbSpline
 62
253
  6
CONTINUOUS
 70
0
 71
3
 72
9
 73
5
 74
3
 42
0.0000001
 43
0.0000001
 44
0.0000000001
 12
0.0921148862
 22
-0.4202878596
 32
0.0
 13
0.3925972934
 23
-0.1970502152
 33
0.0
 40
0.0
 40
0.0
 40
0.0
 40
0.0
 40
0.6867101172
 40
1.0
 40
1.0
 40
1.0
 40
1.0
 10
-8.5279931442
 20
-35.6566796513
 30
0.0
 10
-8.5069077361
 20
-35.7528849597
 30
0.0
 10
-8.4483156446
 20
-35.8944293889
 30
0.0
 10
-8.3281812878
 20
-35.9817749847
 30
0.0
 10
-8.2871823678
 20
-36.002352931
 30
0.0
 11
-8.5279931442
 21
-35.6566796513
 31
0.0
 11
-8.3974146377
 21
-35.9217263564
 31
0.0
 11
-8.2871823678
 21
-36.002352931
 31
0.0
  0
SPLINE
  5
471
100
AcDbEntity
  8
RACCORDO
100
AcDbSpline
 62
253
  6
CONTINUOUS
 70
0
 71
3
 72
9
 73
5
 74
3
 42
0.0000001
 43
0.0000001
 44
0.0000000001
 12
0.0570381189
 22
-0.509808506
 32
0.0
 13
0.4569782644
 23
-0.2566634069
 33
0.0
 40
0.0
 40
0.0
 40
0.0
 40
0.0
 40
0.6644965272
 40
1.0
 40
1.0
 40
1.0
 40
1.0
 10
-31.6660514479
 20
-23.9491160025
 30
0.0
 10
-31.6534175706
 20
-24.0620379964
 30
0.0
 10
-31.6022524512
 20
-24.2373876663
 30
0.0
 10
-31.4659279546
 20
-24.3533051293
 30
0.0
 10
-31.4148220231
 20
-24.3820089507
 30
0.0
 11
-31.6660514479
 21
-23.9491160025
 31
0.0
 11
-31.5478168795
 21
-24.2688338639
 31
0.0
 11
-31.4148220231
 21
-24.3820089507
 31
0.0
  0
SPLINE
  5
472
100
AcDbEntity
  8
RACCORDO
100
AcDbSpline
 62
253
  6
CONTINUOUS
 70
0
 71
3
 72
9
 73
5
 74
3
 42
0.0000001
 43
0.0000001
 44
0.0000000001
 12
-0.3177186253
 22
0.2069540458
 32
0.0
 13
-0.007205883
 23
0.3894166058
 33
0.0
 40
0.0
 40
0.0
 40
0.0
 40
0.0
 40
0.7596709751
 40
1.0
 40
1.0
 40
1.0
 40
1.0
 10
-32.9793400581
 20
-21.6824778386
 30
0.0
 10
-33.0597939307
 20
-21.630072178
 30
0.0
 10
-33.1648955416
 20
-21.5360101304
 30
0.0
 10
-33.1858812833
 20
-21.407687591
 30
0.0
 10
-33.1864585442
 20
-21.3764915533
 30
0.0
 11
-32.9793400581
 21
-21.6824778386
 31
0.0
 11
-33.1709359498
 21
-21.4673880337
 31
0.0
 11
-33.1864585442
 21
-21.3764915533
 31
0.0
  0
SPLINE
  5
473
100
AcDbEntity
  8
RACCORDO
100
AcDbSpline
 62
253
  6
CONTINUOUS
 70
0
 71
3
 72
9
 73
5
 74
3
 42
0.0000001
 43
0.0000001
 44
0.0000000001
 12
-0.2351546441
 22
0.1926194548
 32
0.0
 13
0.0089587591
 23
0.3088133189
 33
0.0
 40
0.0
 40
0.0
 40
0.0
 40
0.0
 40
0.801913272
 40
1.0
 40
1.0
 40
1.0
 40
1.0
 10
-33.1008548025
 20
6.7252374682
 30
0.0
 10
-33.1637126792
 20
6.7767255006
 30
0.0
 10
-33.2374341913
 20
6.8629725065
 30
0.0
 10
-33.2459138568
 20
6.9652909785
 30
0.0
 10
-33.2453223197
 20
6.9856815852
 30
0.0
 11
-33.1008548025
 21
6.7252374682
 31
0.0
 11
-33.2399944559
 21
6.9253857337
 31
0.0
 11
-33.2453223197
 21
6.9856815852
 31
0.0
  0
SPLINE
  5
474
100
AcDbEntity
  8
RACCORDO
100
AcDbSpline
 62
253
  6
CONTINUOUS
 70
0
 71
3
 72
9
 73
5
 74
3
 42
0.0000001
 43
0.0000001
 44
0.0000000001
 12
-0.2351593197
 22
0.192623275
 32
0.0
 13
0.0089658437
 23
0.3088198136
 33
0.0
 40
0.0
 40
0.0
 40
0.0
 40
0.0
 40
0.8018975914
 40
1.0
 40
1.0
 40
1.0
 40
1.0
 10
-33.1008548025
 20
27.0768344582
 30
0.0
 10
-33.1637126999
 20
27.1283225049
 30
0.0
 10
-33.2374356746
 20
27.2145712407
 30
0.0
 10
-33.245914198
 20
27.3168920612
 30
0.0
 10
-33.2453221463
 20
27.3372847108
 30
0.0
 11
-33.1008548025
 21
27.0768344582
 31
0.0
 11
-33.2399944761
 21
27.2769828012
 31
0.0
 11
-33.2453221463
 21
27.3372847108
 31
0.0
  0
SPLINE
  5
475
100
AcDbEntity
  8
RACCORDO
100
AcDbSpline
 62
253
  6
CONTINUOUS
 70
0
 71
3
 72
9
 73
5
 74
3
 42
0.0000001
 43
0.0000001
 44
0.0000000001
 12
-0.3218287766
 22
0.2039468293
 32
0.0
 13
0.0189986779
 23
0.3940591834
 33
0.0
 40
0.0
 40
0.0
 40
0.0
 40
0.0
 40
0.7338860337
 40
1.0
 40
1.0
 40
1.0
 40
1.0
 10
-32.9793260105
 20
55.4550443947
 30
0.0
 10
-33.0580545586
 20
55.5049356379
 30
0.0
 10
-33.1696314635
 20
55.5941254058
 30
0.0
 10
-33.1866164787
 20
55.7258312404
 30
0.0
 10
-33.1849312075
 20
55.7607861245
 30
0.0
 11
-32.9793260105
 21
55.4550443947
 31
0.0
 11
-33.1708778991
 21
55.6587445615
 31
0.0
 11
-33.1849312075
 21
55.7607861245
 31
0.0
  0
SPLINE
  5
476
100
AcDbEntity
  8
RACCORDO
100
AcDbSpline
 62
253
  6
CONTINUOUS
 70
0
 71
3
 72
10
 73
6
 74
4
 42
0.0000001
 43
0.0000001
 44
0.0000000001
 12
0.1336139841
 22
1.3136758688
 32
0.0
 13
1.1684840877
 23
0.6150137575
 33
0.0
 40
0.0
 40
0.0
 40
0.0
 40
0.0
 40
0.3365515461
 40
0.6841023898
 40
1.0
 40
1.0
 40
1.0
 40
1.0
 10
-31.6659298255
 20
56.4072204875
 30
0.0
 10
-31.6509404945
 20
56.5545937024
 30
0.0
 10
-31.5648565213
 20
56.8495369415
 30
0.0
 10
-31.3269678839
 20
57.2251545375
 30
0.0
 10
-31.0991079714
 20
57.4198562189
 30
0.0
 10
-30.9760675278
 20
57.4846166777
 30
0.0
 11
-31.6659298255
 21
56.4072204875
 31
0.0
 11
-31.5476878659
 21
56.8356020226
 31
0.0
 11
-31.3002191756
 21
57.2220875949
 31
0.0
 11
-30.9760675278
 21
57.4846166777
 31
0.0
  0
SPLINE
  5
477
100
AcDbEntity
  8
RACCORDO
100
AcDbSpline
 62
253
  6
CONTINUOUS
 70
0
 71
3
 72
10
 73
6
 74
4
 42
0.0000001
 43
0.0000001
 44
0.0000000001
 12
0.2144268337
 22
1.1927811699
 32
0.0
 13
1.0555026329
 23
0.5954997718
 33
0.0
 40
0.0
 40
0.0
 40
0.0
 40
0.0
 40
0.3437714525
 40
0.6894099649
 40
1.0
 40
1.0
 40
1.0
 40
1.0
 10
-8.5279931442
 20
44.8858899192
 30
0.0
 10
-8.5034218695
 20
45.0225712909
 30
0.0
 10
-8.4126199313
 20
45.2902239674
 30
0.0
 10
-8.1907743535
 20
45.6318819517
 30
0.0
 10
-7.9869949296
 20
45.8105806214
 30
0.0
 10
-7.8777187297
 20
45.8722327197
 30
0.0
 11
-8.5279931442
 21
44.8858899192
 31
0.0
 11
-8.3974147183
 21
45.2815149677
 31
0.0
 11
-8.1668538478
 21
45.6312320862
 31
0.0
 11
-7.8777187297
 21
45.8722327197
 31
0.0
  0
SPLINE
  5
478
100
AcDbEntity
  8
RACCORDO
100
AcDbSpline
 62
253
  6
CONTINUOUS
 70
0
 71
3
 72
10
 73
6
 74
4
 42
0.0000001
 43
0.0000001
 44
0.0000000001
 12
0.2144268397
 22
1.1927811682
 32
0.0
 13
1.0555026294
 23
0.5954997768
 33
0.0
 40
0.0
 40
0.0
 40
0.0
 40
0.0
 40
0.3437716012
 40
0.6894100238
 40
1.0
 40
1.0
 40
1.0
 40
1.0
 10
8.0890162133
 20
36.5773852404
 30
0.0
 10
8.1135874994
 20
36.7140666711
 30
0.0
 10
8.2043894635
 20
36.981719368
 30
0.0
 10
8.4262350666
 20
37.3233773324
 30
0.0
 10
8.6300144487
 20
37.5020759539
 30
0.0
 10
8.7392906276
 20
37.5637280411
 30
0.0
 11
8.0890162133
 21
36.5773852404
 31
0.0
 11
8.2195947197
 21
36.973010452
 31
0.0
 11
8.4501555581
 21
37.3227274608
 31
0.0
 11
8.7392906276
 21
37.5637280411
 31
0.0
  0
SPLINE
  5
479
100
AcDbEntity
  8
RACCORDO
100
AcDbSpline
 62
253
  6
CONTINUOUS
 70
0
 71
3
 72
10
 73
6
 74
4
 42
0.0000001
 43
0.0000001
 44
0.0000000001
 12
0.1188582793
 22
1.305500852
 32
0.0
 13
1.1215908817
 23
0.6785968311
 33
0.0
 40
0.0
 40
0.0
 40
0.0
 40
0.0
 40
0.3406870872
 40
0.6894878484
 40
1.0
 40
1.0
 40
1.0
 40
1.0
 10
31.3178191373
 20
24.915193971
 30
0.0
 10
31.3313169643
 20
25.0634497319
 30
0.0
 10
31.4098750532
 20
25.3597725872
 30
0.0
 10
31.6281005339
 20
25.7425458028
 30
0.0
 10
31.8402926551
 20
25.9480981222
 30
0.0
 10
31.9563818544
 20
26.0183356429
 30
0.0
 11
31.3178191373
 21
24.915193971
 31
0.0
 11
31.4265064461
 21
25.3483737566
 31
0.0
 11
31.6555755869
 21
25.744099079
 31
0.0
 11
31.9563818544
 21
26.0183356429
 31
0.0
  0
SPLINE
  5
47A
100
AcDbEntity
  8
RACCORDO
100
AcDbSpline
 62
253
  6
CONTINUOUS
 70
0
 71
3
 72
10
 73
6
 74
4
 42
0.0000001
 43
0.0000001
 44
0.0000000001
 12
1.2144624309
 22
-0.4809757719
 32
0.0
 13
1.2093120196
 23
0.4937824706
 33
0.0
 40
0.0
 40
0.0
 40
0.0
 40
0.0
 40
0.3298859508
 40
0.682136015
 40
1.0
 40
1.0
 40
1.0
 40
1.0
 10
32.6323581799
 20
22.6491807973
 30
0.0
 10
32.7659028779
 20
22.5962917474
 30
0.0
 10
33.0597071962
 20
22.5307652315
 30
0.0
 10
33.4971235918
 20
22.5273020607
 30
0.0
 10
33.786961543
 20
22.5890770264
 30
0.0
 10
33.9150937889
 20
22.641395581
 30
0.0
 11
32.6323581799
 21
22.6491807973
 31
0.0
 11
33.0511442513
 21
22.547686128
 31
0.0
 11
33.5112580585
 21
22.5448935854
 31
0.0
 11
33.9150937889
 21
22.641395581
 31
0.0
  0
SPLINE
  5
47B
100
AcDbEntity
  8
RACCORDO
100
AcDbSpline
 62
253
  6
CONTINUOUS
 70
0
 71
3
 72
9
 73
5
 74
3
 42
0.0000001
 43
0.0000001
 44
0.0000000001
 12
0.007491852
 22
-0.1728239477
 32
0.0
 13
-0.1522667098
 23
-0.0915663891
 33
0.0
 40
0.0
 40
0.0
 40
0.0
 40
0.0
 40
0.6657520311
 40
1.0
 40
1.0
 40
1.0
 40
1.0
 10
-14.7450575419
 20
18.5853755265
 30
0.0
 10
-14.74339497
 20
18.5470228951
 30
0.0
 10
-14.7493233669
 20
18.4847980829
 30
0.0
 10
-14.7934243655
 20
18.4415027691
 30
0.0
 10
-14.8103893117
 20
18.4313008092
 30
0.0
 11
-14.7450575419
 21
18.5853755265
 31
0.0
 11
-14.7682077352
 21
18.4725603464
 31
0.0
 11
-14.8103893117
 21
18.4313008092
 31
0.0
  0
SPLINE
  5
47C
100
AcDbEntity
  8
RACCORDO
100
AcDbSpline
 62
253
  6
CONTINUOUS
 70
0
 71
3
 72
9
 73
5
 74
3
 42
0.0000001
 43
0.0000001
 44
0.0000000001
 12
0.1243915471
 22
0.063290879
 32
0.0
 13
-0.0003723421
 23
0.1451676067
 33
0.0
 40
0.0
 40
0.0
 40
0.0
 40
0.0
 40
0.7280176109
 40
1.0
 40
1.0
 40
1.0
 40
1.0
 10
-14.7450575419
 20
23.1498645023
 30
0.0
 10
-14.7148711296
 20
23.1652234605
 30
0.0
 10
-14.6704529788
 20
23.1934890876
 30
0.0
 10
-14.6611499878
 20
23.2418343638
 30
0.0
 10
-14.6611837446
 20
23.2549953747
 30
0.0
 11
-14.7450575419
 21
23.1498645023
 31
0.0
 11
-14.6688081108
 21
23.2170216168
 31
0.0
 11
-14.6611837446
 21
23.2549953747
 31
0.0
  0
SPLINE
  5
47D
100
AcDbEntity
  8
RACCORDO
100
AcDbSpline
 62
253
  6
CONTINUOUS
 70
0
 71
3
 72
10
 73
6
 74
4
 42
0.0000001
 43
0.0000001
 44
0.0000000001
 12
0.3950765252
 22
-0.1943483807
 32
0.0
 13
-0.0182643531
 23
-0.4399126814
 33
0.0
 40
0.0
 40
0.0
 40
0.0
 40
0.0
 40
0.315804534
 40
0.6704401549
 40
1.0
 40
1.0
 40
1.0
 40
1.0
 10
-14.9479305438
 20
23.5200035222
 30
0.0
 10
-14.9063415578
 20
23.4995448223
 30
0.0
 10
-14.830622345
 20
23.430933068
 30
0.0
 10
-14.7608278699
 20
23.2997310651
 30
0.0
 10
-14.7430511428
 20
23.198190354
 30
0.0
 10
-14.7450575419
 20
23.1498645023
 30
0.0
 11
-14.9479305438
 21
23.5200035222
 31
0.0
 11
-14.8414260329
 21
23.4306133182
 31
0.0
 11
-14.7671311862
 21
23.2932781574
 31
0.0
 11
-14.7450575419
 21
23.1498645023
 31
0.0
  0
SPLINE
  5
47E
100
AcDbEntity
  8
RACCORDO
100
AcDbSpline
 62
253
  6
CONTINUOUS
 70
0
 71
3
 72
9
 73
5
 74
3
 42
0.0000001
 43
0.0000001
 44
0.0000000001
 12
0.1145717275
 22
0.0499319446
 32
0.0
 13
0.1120882837
 23
-0.0594390081
 33
0.0
 40
0.0
 40
0.0
 40
0.0
 40
0.0
 40
0.8158542396
 40
1.0
 40
1.0
 40
1.0
 40
1.0
 10
-15.1546237941
 20
23.6233501474
 30
0.0
 10
-15.1234658509
 20
23.6369292103
 30
0.0
 10
-15.0777698798
 20
23.6458251077
 30
0.0
 10
-15.0386989205
 20
23.6298397419
 30
0.0
 10
-15.0318187265
 20
23.6261912615
 30
0.0
 11
-15.1546237941
 21
23.6233501474
 31
0.0
 11
-15.0533130754
 21
23.6348833014
 31
0.0
 11
-15.0318187265
 21
23.6261912615
 31
0.0
  0
SPLINE
  5
47F
100
AcDbEntity
  8
RACCORDO
100
AcDbSpline
 62
253
  6
CONTINUOUS
 70
0
 71
3
 72
9
 73
5
 74
3
 42
0.0000001
 43
0.0000001
 44
0.0000000001
 12
0.1145717275
 22
0.0499319446
 32
0.0
 13
0.1120882837
 23
-0.0594390081
 33
0.0
 40
0.0
 40
0.0
 40
0.0
 40
0.0
 40
0.8158542396
 40
1.0
 40
1.0
 40
1.0
 40
1.0
 10
-15.1546237941
 20
4.1377785622
 30
0.0
 10
-15.1234658509
 20
4.1513576251
 30
0.0
 10
-15.0777698798
 20
4.1602535225
 30
0.0
 10
-15.0386989205
 20
4.1442681568
 30
0.0
 10
-15.0318187265
 20
4.1406196763
 30
0.0
 11
-15.1546237941
 21
4.1377785622
 31
0.0
 11
-15.0533130754
 21
4.1493117162
 31
0.0
 11
-15.0318187265
 21
4.1406196763
 31
0.0
  0
SPLINE
  5
480
100
AcDbEntity
  8
RACCORDO
100
AcDbSpline
 62
253
  6
CONTINUOUS
 70
0
 71
3
 72
10
 73
6
 74
4
 42
0.0000001
 43
0.0000001
 44
0.0000000001
 12
0.3950765252
 22
-0.1943483807
 32
0.0
 13
-0.0182643531
 23
-0.4399126814
 33
0.0
 40
0.0
 40
0.0
 40
0.0
 40
0.0
 40
0.315804534
 40
0.6704401549
 40
1.0
 40
1.0
 40
1.0
 40
1.0
 10
-14.9479305438
 20
4.0344319371
 30
0.0
 10
-14.9063415578
 20
4.0139732371
 30
0.0
 10
-14.830622345
 20
3.9453614829
 30
0.0
 10
-14.7608278699
 20
3.81415948
 30
0.0
 10
-14.7430511428
 20
3.7126187689
 30
0.0
 10
-14.7450575419
 20
3.6642929172
 30
0.0
 11
-14.9479305438
 21
4.0344319371
 31
0.0
 11
-14.8414260329
 21
3.945041733
 31
0.0
 11
-14.7671311862
 21
3.8077065722
 31
0.0
 11
-14.7450575419
 21
3.6642929172
 31
0.0
  0
SPLINE
  5
481
100
AcDbEntity
  8
RACCORDO
100
AcDbSpline
 62
253
  6
CONTINUOUS
 70
0
 71
3
 72
9
 73
5
 74
3
 42
0.0000001
 43
0.0000001
 44
0.0000000001
 12
0.1243915471
 22
0.063290879
 32
0.0
 13
-0.0003723421
 23
0.1451676067
 33
0.0
 40
0.0
 40
0.0
 40
0.0
 40
0.0
 40
0.7280176109
 40
1.0
 40
1.0
 40
1.0
 40
1.0
 10
-14.7450575419
 20
3.6642929172
 30
0.0
 10
-14.7148711296
 20
3.6796518753
 30
0.0
 10
-14.6704529788
 20
3.7079175024
 30
0.0
 10
-14.6611499878
 20
3.7562627787
 30
0.0
 10
-14.6611837446
 20
3.7694237895
 30
0.0
 11
-14.7450575419
 21
3.6642929172
 31
0.0
 11
-14.6688081108
 21
3.7314500316
 31
0.0
 11
-14.6611837446
 21
3.7694237895
 31
0.0
  0
SPLINE
  5
482
100
AcDbEntity
  8
RACCORDO
100
AcDbSpline
 62
253
  6
CONTINUOUS
 70
0
 71
3
 72
9
 73
5
 74
3
 42
0.0000001
 43
0.0000001
 44
0.0000000001
 12
0.007491852
 22
-0.1728239477
 32
0.0
 13
-0.1522667098
 23
-0.0915663891
 33
0.0
 40
0.0
 40
0.0
 40
0.0
 40
0.0
 40
0.6657520311
 40
1.0
 40
1.0
 40
1.0
 40
1.0
 10
-14.7450575419
 20
-0.9001960587
 30
0.0
 10
-14.74339497
 20
-0.93854869
 30
0.0
 10
-14.7493233669
 20
-1.0007735022
 30
0.0
 10
-14.7934243655
 20
-1.044068816
 30
0.0
 10
-14.8103893117
 20
-1.0542707759
 30
0.0
 11
-14.7450575419
 21
-0.9001960587
 31
0.0
 11
-14.7682077352
 21
-1.0130112388
 31
0.0
 11
-14.8103893117
 21
-1.0542707759
 31
0.0
  0
LINE
  5
483
100
AcDbEntity
  8
SUPERFICI
100
AcDbLine
 62
7
  6
CONTINUOUS
 10
8.966706047
 20
-28.931407777
 11
9.0138343716
 21
-28.7581887502
  0
LINE
  5
484
100
AcDbEntity
  8
SUPERFICI
100
AcDbLine
 62
7
  6
CONTINUOUS
 10
9.0138343716
 20
-28.7581887502
 11
9.0313311214
 21
-28.6941844072
  0
LINE
  5
485
100
AcDbEntity
  8
SUPERFICI
100
AcDbLine
 62
7
  6
CONTINUOUS
 10
9.0313311214
 20
-28.6941844072
 11
8.6745335394
 21
-28.5158379106
  0
LINE
  5
486
100
AcDbEntity
  8
SUPERFICI
100
AcDbLine
 62
7
  6
CONTINUOUS
 10
8.6745335394
 20
-28.5158379106
 11
8.6035668893
 21
-28.4803673298
  0
LINE
  5
487
100
AcDbEntity
  8
SUPERFICI
100
AcDbLine
 62
7
  6
CONTINUOUS
 10
9.6181637857
 20
-28.9874375262
 11
9.4754078019
 21
-28.9160533521
  0
LINE
  5
488
100
AcDbEntity
  8
SUPERFICI
100
AcDbLine
 62
7
  6
CONTINUOUS
 10
9.4754078019
 20
-28.9160533521
 11
9.3327430035
 21
-28.8447219317
  0
LINE
  5
489
100
AcDbEntity
  8
SUPERFICI
100
AcDbLine
 62
7
  6
CONTINUOUS
 10
9.3327430035
 20
-28.8447219317
 11
9.1901697084
 21
-28.7734426292
  0
SPLINE
  5
48A
100
AcDbEntity
  8
SUPERFICI
100
AcDbSpline
 62
7
  6
CONTINUOUS
 70
0
 71
3
 72
10
 73
6
 74
4
 42
0.0000001
 43
0.0000001
 44
0.0000000001
 12
0.2375778279
 22
0.11179742
 32
0.0
 13
0.0885036106
 23
0.2540094364
 33
0.0
 40
0.0
 40
0.0
 40
0.0
 40
0.0
 40
0.3410888831
 40
0.818887514
 40
1.0
 40
1.0
 40
1.0
 40
1.0
 10
15.0546793838
 20
-32.9191553596
 30
0.0
 10
15.0816911024
 20
-32.9064444072
 30
0.0
 10
15.1350011003
 20
-32.8471433766
 30
0.0
 10
15.185184245
 20
-32.7747274304
 30
0.0
 10
15.2073906721
 20
-32.7202460294
 30
0.0
 10
15.2127337084
 20
-32.7049112692
 30
0.0
 11
15.0546793838
 21
-32.9191553596
 31
0.0
 11
15.1239818734
 21
-32.8570435182
 31
0.0
 11
15.1943625989
 21
-32.7496850748
 31
0.0
 11
15.2127337084
 21
-32.7049112692
 31
0.0
  0
SPLINE
  5
48B
100
AcDbEntity
  8
SUPERFICI
100
AcDbSpline
 62
7
  6
CONTINUOUS
 70
0
 71
3
 72
9
 73
5
 74
3
 42
0.0000001
 43
0.0000001
 44
0.0000000001
 12
0.1003129046
 22
0.2879026538
 32
0.0
 13
-0.0292168724
 23
0.3038052913
 33
0.0
 40
0.0
 40
0.0
 40
0.0
 40
0.0
 40
0.3511824406
 40
1.0
 40
1.0
 40
1.0
 40
1.0
 10
15.2127337084
 20
-32.7049112692
 30
0.0
 10
15.2244764187
 20
-32.6712091503
 30
0.0
 10
15.2474505524
 20
-32.5702948932
 30
0.0
 10
15.2457692797
 20
-32.468335432
 30
0.0
 10
15.2394504731
 20
-32.4026306961
 30
0.0
 11
15.2127337084
 21
-32.7049112692
 31
0.0
 11
15.2375719141
 21
-32.600201616
 31
0.0
 11
15.2394504731
 21
-32.4026306961
 31
0.0
  0
SPLINE
  5
48C
100
AcDbEntity
  8
SUPERFICI
100
AcDbSpline
 62
7
  6
CONTINUOUS
 70
0
 71
3
 72
10
 73
6
 74
4
 42
0.0000001
 43
0.0000001
 44
0.0000000001
 12
-0.1037377265
 22
0.6523872927
 32
0.0
 13
-0.4282237043
 23
0.5027769171
 33
0.0
 40
0.0
 40
0.0
 40
0.0
 40
0.0
 40
0.2533236372
 40
0.6929616833
 40
1.0
 40
1.0
 40
1.0
 40
1.0
 10
15.2298482498
 20
-32.3272179995
 30
0.0
 10
15.2210885104
 20
-32.2721296255
 30
0.0
 10
15.1867427881
 20
-32.1231484791
 30
0.0
 10
15.0946845436
 20
-31.9221809994
 30
0.0
 10
15.0013611379
 20
-31.7847934681
 30
0.0
 10
14.9575341094
 20
-31.7333362087
 30
0.0
 11
15.2298482498
 21
-32.3272179995
 31
0.0
 11
15.1920419327
 21
-32.1645033215
 31
0.0
 11
15.0739543381
 21
-31.8999252177
 31
0.0
 11
14.9575341094
 21
-31.7333362087
 31
0.0
  0
SPLINE
  5
48D
100
AcDbEntity
  8
SUPERFICI
100
AcDbSpline
 62
7
  6
CONTINUOUS
 70
0
 71
3
 72
8
 73
4
 74
2
 42
0.0000001
 43
0.0000001
 44
0.0000000001
 12
-0.0694727435
 22
0.0815678615
 32
0.0
 13
-0.0791782991
 23
0.0718482195
 33
0.0
 40
0.0
 40
0.0
 40
0.0
 40
0.0
 40
1.0
 40
1.0
 40
1.0
 40
1.0
 10
14.9575341094
 20
-31.7333362087
 30
0.0
 10
14.9343765282
 20
-31.7061469215
 30
0.0
 10
14.9096968449
 20
-31.6803640376
 30
0.0
 10
14.8833040785
 20
-31.6564146311
 30
0.0
 11
14.9575341094
 21
-31.7333362087
 31
0.0
 11
14.8833040785
 21
-31.6564146311
 31
0.0
  0
SPLINE
  5
48E
100
AcDbEntity
  8
RACCORDO
100
AcDbSpline
 62
253
  6
CONTINUOUS
 70
0
 71
3
 72
41
 73
37
 74
35
 42
0.0000001
 43
0.0000001
 44
0.0000000001
 12
-23.5373320547
 22
10.8781385981
 32
0.0
 13
-23.1920635877
 23
11.5960375195
 33
0.0
 40
0.0
 40
0.0
 40
0.0
 40
0.0
 40
0.0103901131
 40
0.0209589924
 40
0.0316131484
 40
0.042121146
 40
0.0522201632
 40
0.0620353879
 40
0.0718754611
 40
0.0820028554
 40
0.0926588204
 40
0.1040461613
 40
0.1163762999
 40
0.1298603225
 40
0.1446951479
 40
0.1609629765
 40
0.1786168138
 40
0.1976168957
 40
0.217981208
 40
0.2399290778
 40
0.2637194802
 40
0.2896085399
 40
0.3178529277
 40
0.3486942159
 40
0.382319054
 40
0.4189111042
 40
0.4586621142
 40
0.5017265562
 40
0.5482240847
 40
0.5983280492
 40
0.6524838197
 40
0.7111935738
 40
0.7749127556
 40
0.844033618
 40
0.9189309389
 40
1.0
 40
1.0
 40
1.0
 40
1.0
 10
31.9563828674
 20
26.0183351704
 30
0.0
 10
31.8748643532
 20
26.0560102006
 30
0.0
 10
31.7106938952
 20
26.1325922959
 30
0.0
 10
31.4638928676
 20
26.2498501447
 30
0.0
 10
31.2170014467
 20
26.3692761184
 30
0.0
 10
30.9744643132
 20
26.4883641402
 30
0.0
 10
30.7387901785
 20
26.6049728826
 30
0.0
 10
30.5082424948
 20
26.7189249872
 30
0.0
 10
30.277258336
 20
26.8325465596
 30
0.0
 10
30.0396595195
 20
26.9491836689
 30
0.0
 10
29.7900098129
 20
27.0716200834
 30
0.0
 10
29.5232992127
 20
27.2025065284
 30
0.0
 10
29.2346869136
 20
27.3442467049
 30
0.0
 10
28.9194010719
 20
27.4992692261
 30
0.0
 10
28.5736843547
 20
27.6695345544
 30
0.0
 10
28.1958059362
 20
27.8560687492
 30
0.0
 10
27.7858737137
 20
28.0590002974
 30
0.0
 10
27.3444253451
 20
28.278074248
 30
0.0
 10
26.869921467
 20
28.5140287876
 30
0.0
 10
26.3584709178
 20
28.7686721362
 30
0.0
 10
25.8043852777
 20
29.0448212384
 30
0.0
 10
25.2017022347
 20
29.345467086
 30
0.0
 10
24.5445745366
 20
29.6734944084
 30
0.0
 10
23.8276770059
 20
30.0314894095
 30
0.0
 10
23.046210299
 20
30.4216789343
 30
0.0
 10
22.1958117038
 20
30.8462002648
 30
0.0
 10
21.2723796321
 20
31.3070910829
 30
0.0
 10
20.2723008399
 20
31.8061286676
 30
0.0
 10
19.1921184101
 20
32.3450474278
 30
0.0
 10
18.0261489195
 20
32.9267509746
 30
0.0
 10
16.7657772798
 20
33.555672624
 30
0.0
 10
15.4001652091
 20
34.2372510554
 30
0.0
 10
13.9188431321
 20
34.9766356394
 30
0.0
 10
12.3123768637
 20
35.7785845004
 30
0.0
 10
10.571869215
 20
36.6477671963
 30
0.0
 10
9.3660102345
 20
37.2503680829
 30
0.0
 10
8.7392906276
 20
37.5637280411
 30
0.0
 11
31.9563828674
 21
26.0183351704
 31
0.0
 11
31.7122282119
 21
26.1322236626
 31
0.0
 11
31.4646962732
 21
26.2498209399
 31
0.0
 11
31.2159840581
 21
26.3700716572
 31
0.0
 11
30.971353663
 21
26.4900483459
 31
0.0
 11
30.7365834739
 21
26.6060440561
 31
0.0
 11
30.508399384
 21
26.7187575415
 31
0.0
 11
30.279471787
 21
26.8314200353
 31
0.0
 11
30.0437534881
 21
26.9471560762
 31
0.0
 11
29.7956903129
 21
27.0688465893
 31
0.0
 11
29.5306207138
 21
27.198929073
 31
0.0
 11
29.2436493192
 21
27.3398716581
 31
0.0
 11
28.9298942961
 21
27.4941501859
 31
0.0
 11
28.5848203013
 21
27.6641123985
 31
0.0
 11
28.2065815974
 21
27.8508341855
 31
0.0
 11
27.7963338315
 21
28.0539027919
 31
0.0
 11
27.3550159359
 21
28.2728898008
 31
0.0
 11
26.8821955536
 21
28.5079722312
 31
0.0
 11
26.3727433453
 21
28.7616070494
 31
0.0
 11
25.8206359464
 21
29.0367625306
 31
0.0
 11
25.219931871
 21
29.3364056558
 31
0.0
 11
24.5646645782
 21
29.6634849502
 31
0.0
 11
23.8491983389
 21
30.0207351825
 31
0.0
 11
23.0691502336
 21
30.410212314
 31
0.0
 11
22.220235198
 21
30.8339949125
 31
0.0
 11
21.2979975243
 21
31.2942890799
 31
0.0
 11
20.2988462381
 21
31.792869157
 31
0.0
 11
19.2200098161
 21
32.3311296786
 31
0.0
 11
18.0574930597
 21
32.9111311883
 31
0.0
 11
16.801005185
 21
33.5381149198
 31
0.0
 11
15.4389086943
 21
34.2179222491
 31
0.0
 11
13.9606221115
 21
34.9557968661
 31
0.0
 11
12.3570660074
 21
35.7563228623
 31
0.0
 11
10.6196308777
 21
36.6240111126
 31
0.0
 11
8.7392906276
 21
37.5637280411
 31
0.0
  0
SPLINE
  5
48F
100
AcDbEntity
  8
RACCORDO
100
AcDbSpline
 62
253
  6
CONTINUOUS
 70
0
 71
3
 72
9
 73
5
 74
3
 42
0.0000001
 43
0.0000001
 44
0.0000000001
 12
0.0020948448
 22
-0.1342421898
 32
0.0
 13
-0.1132326244
 23
-0.0628787848
 33
0.0
 40
0.0
 40
0.0
 40
0.0
 40
0.0
 40
0.2498573583
 40
1.0
 40
1.0
 40
1.0
 40
1.0
 10
13.5302058118
 20
-25.3352673338
 30
0.0
 10
13.5303802826
 20
-25.3464478001
 30
0.0
 10
13.5234463628
 20
-25.3908931807
 30
0.0
 10
13.4833567766
 20
-25.4195307118
 30
0.0
 10
13.4550432366
 20
-25.4352533978
 30
0.0
 11
13.5302058118
 21
-25.3352673338
 31
0.0
 11
13.5248454357
 21
-25.3676709474
 31
0.0
 11
13.4550432366
 21
-25.4352533978
 31
0.0
  0
ELLIPSE
  5
490
100
AcDbEntity
  8
RACCORDO
100
AcDbEllipse
 62
7
  6
CONTINUOUS
 10
36.8201110823
 20
-10.9500309141
 30
0.0
 11
0.2435324942
 21
0.4370186336
 31
0.0
 40
0.6437101552
 41
-2.2971554858
 42
-0.8572588529
  0
ELLIPSE
  5
491
100
AcDbEntity
  8
RACCORDO
100
AcDbEllipse
 62
7
  6
CONTINUOUS
 10
36.075946405
 20
-12.2725680669
 30
0.0
 11
0.2435324942
 21
0.4370186336
 31
0.0
 40
0.6437101552
 41
0.8444371678
 42
2.2843338007
  0
ELLIPSE
  5
492
100
AcDbEntity
  8
RACCORDO
100
AcDbEllipse
 62
7
  6
CONTINUOUS
 10
35.6887402324
 20
-17.6620648407
 30
0.0
 11
0.2435324942
 21
0.4370186336
 31
0.0
 40
0.6437101552
 41
0.030472449
 42
0.58263778
  0
ELLIPSE
  5
493
100
AcDbEntity
  8
RACCORDO
100
AcDbEllipse
 62
7
  6
CONTINUOUS
 10
36.8201110823
 20
-18.2277502656
 30
0.0
 11
0.2435324942
 21
0.4370186336
 31
0.0
 40
0.6437101552
 41
5.4259264543
 42
6.8658230871
  0
ELLIPSE
  5
494
100
AcDbEntity
  8
RACCORDO
100
AcDbEllipse
 62
7
  6
CONTINUOUS
 10
36.075946405
 20
-17.5752619979
 30
0.0
 11
0.2435324942
 21
0.4370186336
 31
0.0
 40
0.6437101552
 41
2.2843338007
 42
3.7242304336
  0
ENDSEC
  0
SECTION
  2
OBJECTS
  0
DICTIONARY
  5
C
100
AcDbDictionary
280
0
281
1
  3
ACAD_GROUP
350
D
  3
ACAD_MLINESTYLE
350
17
  3
ACAD_LAYOUT
350
1A
  3
ACAD_PLOTSETTINGS
350
19
  3
ACAD_PLOTSTYLENAME
350
E
  0
DICTIONARY
  5
D
102
{ACAD_REACTORS
330
C
102
}
100
AcDbDictionary
280
0
281
1
  0
ACDBDICTIONARYWDFLT
  5
E
102
{ACAD_REACTORS
330
C
102
}
100
AcDbDictionary
281
1
  3
Normal
350
F
100
AcDbDictionaryWithDefault
340
F
  0
DICTIONARY
  5
17
102
{ACAD_REACTORS
330
C
102
}
100
AcDbDictionary
280
0
281
1
  3
Standard
350
18
  0
DICTIONARY
  5
19
102
{ACAD_REACTORS
330
C
102
}
100
AcDbDictionary
281
1
  0
DICTIONARY
  5
1A
102
{ACAD_REACTORS
330
C
102
}
100
AcDbDictionary
281
1
  3
Model
350
495
  3
Layout1
350
496
  0
ACDBPLACEHOLDER
  5
F
102
{ACAD_REACTORS
330
E
102
}
  0
MLINESTYLE
  5
18
102
{ACAD_REACTORS
330
17
102
}
100
AcDbMlineStyle
  2
STANDARD
 70
0
  3

 62
256
 51
90.0
 52
90.0
 71
2
 49
0.5
 62
256
  6
BYLAYER
 49
-0.5
 62
256
  6
BYLAYER
  0
LAYOUT
  5
495
102
{ACAD_REACTORS
330
1A
102
}
100
AcDbPlotSettings
  1

  2
none_device
  4
ISO_A4_(297.00_x_210.00_MM)
  6

 40
0.0
 41
0.0
 42
0.0
 43
0.0
 44
297.0
 45
210.0
 46
0.0
 47
0.0
 48
0.0
 49
0.0
140
0.0
141
0.0
142
1.0
143
1.0
 70
1024
 72
1
 73
0
 74
0
  7

 75
0
147
1.0
148
0.0
149
0.0
100
AcDbLayout
  1
Model
 70
0
 71
0
 10
0.0
 20
0.0
 11
297.0
 21
210.0
 12
0.0
 22
0.0
 32
0.0
 14
0.0
 24
0.0
 34
0.0
 15
0.0
 25
0.0
 35
0.0
146
0.0
 13
0.0
 23
0.0
 33
0.0
 16
1.0
 26
0.0
 36
0.0
 17
0.0
 27
1.0
 37
0.0
 76
0
330
20D
345
0
346
0
  0
LAYOUT
  5
496
102
{ACAD_REACTORS
330
1A
102
}
100
AcDbPlotSettings
  1

  2
none_device
  4
ISO_A4_(297.00_x_210.00_MM)
  6

 40
0.0
 41
0.0
 42
0.0
 43
0.0
 44
297.0
 45
210.0
 46
0.0
 47
0.0
 48
0.0
 49
0.0
140
0.0
141
0.0
142
1.0
143
1.0
 70
0
 72
1
 73
0
 74
0
  7

 75
0
147
1.0
148
0.0
149
0.0
100
AcDbLayout
  1
Layout1
 70
0
 71
1
 10
0.0
 20
0.0
 11
297.0
 21
210.0
 12
0.0
 22
0.0
 32
0.0
 14
0.0
 24
0.0
 34
0.0
 15
0.0
 25
0.0
 35
0.0
146
0.0
 13
0.0
 23
0.0
 33
0.0
 16
1.0
 26
0.0
 36
0.0
 17
0.0
 27
1.0
 37
0.0
 76
0
330
20E
345
0
346
0
  0
ENDSEC
  0
EOF
