  0
SECTION
  2
HEADER
  9
$ACADVER
  1
AC1015
  9
$DWGCODEPAGE
  3
ANSI_1252
  9
$EXTMAX
 10
297.0
 20
210.0
 30
0.0
  9
$EXTMIN
 10
0.0
 20
0.0
 30
0.0
  9
$LIMMIN
 10
0.0
 20
0.0
  9
$LIMMAX
 10
297.0
 20
210.0
  9
$VIEWCTR
 10
148.5
 20
105.0
  9
$VIEWSIZE
 40
210.0
  9
$CLAYER
  8
0
  9
$LTSCALE
 40
16.335
  9
$CELTYPE
  6
BYLAYER
  9
$DIMSCALE
 40
1.0
  9
$DIMASZ
 40
3.0
  9
$DIMEXO
 40
1.85625
  9
$DIMDLI
 40
11.286
  9
$DIMEXE
 40
5.346
  9
$DIMCEN
 40
2.673
  9
$DIMLFAC
 40
1.0
  9
$DIMBLK
  1
_FILLED
  9
$DIMTXT
 40
3.0
  9
$DIMTOL
 70
1
  9
$DIMLIM
 70
0
  9
$DIMTFAC
 40
1.0
  9
$DIMTP
 40
0.01
  9
$DIMTM
 40
0.01
  9
$PDMODE
 70
3
  9
$PDSIZE
 40
3.0
  9
$HANDSEED
  5
45F
  9
$TILEMODE
 70
1
  9
$MEASUREMENT
 70
1
  9
$INSUNITS
 70
4
  0
ENDSEC
  0
SECTION
  2
CLASSES
  0
CLASS
  1
ACDBDICTIONARYWDFLT
  2
AcDbDictionaryWithDefault
  3
AutoCAD 2000
 90
0
280
0
281
0
  0
CLASS
  1
ACDBPLACEHOLDER
  2
AcDbPlaceHolder
  3
AutoCAD 2000
 90
0
280
0
281
0
  0
CLASS
  1
LAYOUT
  2
AcDbLayout
  3
AutoCAD 2000
 90
0
280
0
281
0
  0
ENDSEC
  0
SECTION
  2
TABLES
  0
TABLE
  2
VPORT
  5
8
100
AcDbSymbolTable
 70
2
  0
VPORT
  5
1F4
100
AcDbSymbolTableRecord
100
AcDbViewportTableRecord
  2
*ACTIVE
 70
0
 10
0.0
 20
0.0
 11
1.0
 21
1.0
 12
148.5
 22
105.0
 13
0.0
 23
0.0
 14
1.0
 24
1.0
 15
0.0
 25
0.0
 16
0.0
 26
0.0
 36
1.0
 17
0.0
 27
0.0
 37
0.0
 40
210.0
 41
1.4142857143
 42
50.0
 43
0.0
 44
0.0
 50
0.0
 51
0.0
 71
0
 72
100
 73
1
 74
1
 75
0
 76
0
 77
0
 78
0
  0
ENDTAB
  0
TABLE
  2
LTYPE
  5
5
100
AcDbSymbolTable
 70
6
  0
LTYPE
  5
14
100
AcDbSymbolTableRecord
100
AcDbLinetypeTableRecord
  2
BYBLOCK
 70
0
  3

 72
65
 73
0
 40
0.0
  0
LTYPE
  5
15
100
AcDbSymbolTableRecord
100
AcDbLinetypeTableRecord
  2
BYLAYER
 70
0
  3

 72
65
 73
0
 40
0.0
  0
LTYPE
  5
16
100
AcDbSymbolTableRecord
100
AcDbLinetypeTableRecord
  2
CONTINUOUS
 70
64
  3
Solid line
 72
65
 73
0
 40
0.0
  0
LTYPE
  5
1F5
100
AcDbSymbolTableRecord
100
AcDbLinetypeTableRecord
  2
CENTER
 70
64
  3
____ _ ____ _ ____ _ ____ _ ____ _ ____ _ ____
 72
65
 73
4
 40
0.6
 49
0.375
 74
0
 49
-0.075
 74
0
 49
0.075
 74
0
 49
-0.075
 74
0
  0
LTYPE
  5
1F6
100
AcDbSymbolTableRecord
100
AcDbLinetypeTableRecord
  2
HIDDEN
 70
64
  3
- - - - - - - - - - - - - - - - - - - -
 72
65
 73
2
 40
0.2
 49
0.1
 74
0
 49
-0.1
 74
0
  0
LTYPE
  5
1F7
100
AcDbSymbolTableRecord
100
AcDbLinetypeTableRecord
  2
PHANTOM
 70
64
  3
_____ _ _ _____ _ _ _____ _ _ _____
 72
65
 73
6
 40
0.8
 49
0.45
 74
0
 49
-0.05
 74
0
 49
0.1
 74
0
 49
-0.05
 74
0
 49
0.1
 74
0
 49
-0.05
 74
0
  0
LTYPE
  5
1F8
100
AcDbSymbolTableRecord
100
AcDbLinetypeTableRecord
  2
DOT
 70
64
  3
. . . . . . . . . . . . . . . . . . . .
 72
65
 73
2
 40
0.2
 49
0.1
 74
0
 49
-0.1
 74
0
  0
LTYPE
  5
1F9
100
AcDbSymbolTableRecord
100
AcDbLinetypeTableRecord
  2
DASHED
 70
64
  3
- - - - - - - - - - - - - - - - - - - -
 72
65
 73
2
 40
0.2
 49
0.1
 74
0
 49
-0.1
 74
0
  0
ENDTAB
  0
TABLE
  2
LAYER
  5
2
100
AcDbSymbolTable
 70
36
  0
LAYER
  5
10
100
AcDbSymbolTableRecord
100
AcDbLayerTableRecord
  2
0
 70
0
 62
7
  6
CONTINUOUS
370
-3
390
F
  0
LAYER
  5
1FA
100
AcDbSymbolTableRecord
100
AcDbLayerTableRecord
  2
DEFAULT_1
 70
0
 62
7
  6
CENTER
370
-3
390
F
  0
LAYER
  5
1FB
100
AcDbSymbolTableRecord
100
AcDbLayerTableRecord
  2
DEFAULT_2
 70
0
 62
7
  6
HIDDEN
370
-3
390
F
  0
LAYER
  5
1FC
100
AcDbSymbolTableRecord
100
AcDbLayerTableRecord
  2
DEFAULT_3
 70
0
 62
7
  6
PHANTOM
370
-3
390
F
  0
LAYER
  5
1FD
100
AcDbSymbolTableRecord
100
AcDbLayerTableRecord
  2
ASSI
 70
0
 62
7
  6
CONTINUOUS
370
-3
390
F
  0
LAYER
  5
1FE
100
AcDbSymbolTableRecord
100
AcDbLayerTableRecord
  2
COORDINATE
 70
0
 62
7
  6
CONTINUOUS
370
-3
390
F
  0
LAYER
  5
1FF
100
AcDbSymbolTableRecord
100
AcDbLayerTableRecord
  2
COPY_PUBLISH
 70
0
 62
7
  6
CONTINUOUS
370
-3
390
F
  0
LAYER
  5
200
100
AcDbSymbolTableRecord
100
AcDbLayerTableRecord
  2
COSMETIC
 70
0
 62
7
  6
CONTINUOUS
370
-3
390
F
  0
LAYER
  5
201
100
AcDbSymbolTableRecord
100
AcDbLayerTableRecord
  2
CURVE
 70
0
 62
7
  6
CONTINUOUS
370
-3
390
F
  0
LAYER
  5
202
100
AcDbSymbolTableRecord
100
AcDbLayerTableRecord
  2
DRAFT
 70
0
 62
7
  6
CONTINUOUS
370
-3
390
F
  0
LAYER
  5
203
100
AcDbSymbolTableRecord
100
AcDbLayerTableRecord
  2
IMPORT_IGES
 70
0
 62
7
  6
CONTINUOUS
370
-3
390
F
  0
LAYER
  5
204
100
AcDbSymbolTableRecord
100
AcDbLayerTableRecord
  2
INTF_1
 70
0
 62
7
  6
CONTINUOUS
370
-3
390
F
  0
LAYER
  5
205
100
AcDbSymbolTableRecord
100
AcDbLayerTableRecord
  2
PIANI
 70
0
 62
7
  6
CONTINUOUS
370
-3
390
F
  0
LAYER
  5
206
100
AcDbSymbolTableRecord
100
AcDbLayerTableRecord
  2
PUNTI
 70
0
 62
7
  6
CONTINUOUS
370
-3
390
F
  0
LAYER
  5
207
100
AcDbSymbolTableRecord
100
AcDbLayerTableRecord
  2
RACCORDO
 70
0
 62
7
  6
CONTINUOUS
370
-3
390
F
  0
LAYER
  5
208
100
AcDbSymbolTableRecord
100
AcDbLayerTableRecord
  2
SNAPLINE
 70
0
 62
7
  6
CONTINUOUS
370
-3
390
F
  0
LAYER
  5
209
100
AcDbSymbolTableRecord
100
AcDbLayerTableRecord
  2
SUPERFICI
 70
0
 62
7
  6
CONTINUOUS
370
-3
390
F
  0
LAYER
  5
20A
100
AcDbSymbolTableRecord
100
AcDbLayerTableRecord
  2
TRASH
 70
0
 62
7
  6
CONTINUOUS
370
-3
390
F
  0
ENDTAB
  0
TABLE
  2
STYLE
  5
3
100
AcDbSymbolTable
 70
1
  0
STYLE
  5
11
100
AcDbSymbolTableRecord
100
AcDbTextStyleTableRecord
  2
STANDARD
 70
0
 40
0.0
 41
0.8
 50
0.0
 71
0
 42
0.2
  3
txt
  4

  0
STYLE
  5
20B
100
AcDbSymbolTableRecord
100
AcDbTextStyleTableRecord
  2
TEXTSTYLE_1
 70
0
 40
0.0
 41
0.8
 50
0.0
 71
0
 42
0.2
  3
gdt
  4

  0
ENDTAB
  0
TABLE
  2
VIEW
  5
6
100
AcDbSymbolTable
 70
0
  0
ENDTAB
  0
TABLE
  2
UCS
  5
7
100
AcDbSymbolTable
 70
0
  0
ENDTAB
  0
TABLE
  2
APPID
  5
9
100
AcDbSymbolTable
 70
1
  0
APPID
  5
20C
100
AcDbSymbolTableRecord
100
AcDbRegAppTableRecord
  2
ACAD
 70
0
  0
ENDTAB
  0
TABLE
  2
BLOCK_RECORD
  5
1
100
AcDbSymbolTable
 70
0
  0
BLOCK_RECORD
  5
20D
100
AcDbSymbolTableRecord
100
AcDbBlockTableRecord
  2
*Model_Space
  0
BLOCK_RECORD
  5
20E
100
AcDbSymbolTableRecord
100
AcDbBlockTableRecord
  2
*Paper_Space
  0
ENDTAB
  0
TABLE
  2
DIMSTYLE
  5
A
100
AcDbSymbolTable
 70
1
100
AcDbDimStyleTable
 71
0
  0
DIMSTYLE
105
20F
100
AcDbSymbolTableRecord
100
AcDbDimStyleTableRecord
  2
STANDARD
 70
0
  3

  4

 40
1.0
 41
3.0
 42
0.0625
 43
0.38
 44
0.18
 45
0.0
 46
0.0
 47
0.01
 48
0.01
140
3.0
141
0.09
142
0.0
143
25.4
144
1.0
145
0.0
146
1.0
147
0.09
 71
1.0
 72
0.0
 73
0
 74
0
 75
0
 76
0
 77
1
 78
8
170
0
171
2
172
0
173
0
174
0
175
0
176
0
177
0
178
0
270
2
271
2
272
2
273
2
274
2
275
0
280
0
281
0
282
0
283
1
284
8
285
0
286
0
287
3
288
0
340
11
  0
ENDTAB
  0
ENDSEC
  0
SECTION
  2
BLOCKS
  0
BLOCK
  5
20
100
AcDbEntity
  8
0
100
AcDbBlockBegin
  2
*Model_Space
 70
0
 10
0.0
 20
0.0
 30
0.0
  3
*Model_Space
  1

  0
ENDBLK
  5
21
100
AcDbEntity
  8
0
100
AcDbBlockEnd
  0
BLOCK
  5
1C
100
AcDbEntity
  8
0
100
AcDbBlockBegin
  2
*Paper_Space
 70
0
 10
0.0
 20
0.0
 30
0.0
  3
*Paper_Space
  1

  0
ENDBLK
  5
1D
100
AcDbEntity
  8
0
100
AcDbBlockEnd
  0
ENDSEC
  0
SECTION
  2
ENTITIES
  0
LINE
  5
210
100
AcDbEntity
  8
0
100
AcDbLine
 62
253
  6
CONTINUOUS
 10
14.1408533656
 20
-35.3019654369
 11
13.7246754987
 21
-35.0983762897
  0
LINE
  5
211
100
AcDbEntity
  8
0
100
AcDbLine
 62
253
  6
CONTINUOUS
 10
13.0645162964
 20
-34.7730461899
 11
12.6362676585
 21
-34.5609010853
  0
LINE
  5
212
100
AcDbEntity
  8
0
100
AcDbLine
 62
253
  6
CONTINUOUS
 10
13.2457161667
 20
-33.9291903889
 11
13.0152058131
 21
-33.8149669802
  0
LINE
  5
213
100
AcDbEntity
  8
0
100
AcDbLine
 62
253
  6
CONTINUOUS
 10
13.5403999469
 20
-33.2572617197
 11
13.3961586424
 21
-33.185730704
  0
LINE
  5
214
100
AcDbEntity
  8
0
100
AcDbLine
 62
253
  6
CONTINUOUS
 10
12.9826943004
 20
-33.4057617014
 11
13.2282526979
 21
-33.5275701003
  0
LINE
  5
215
100
AcDbEntity
  8
0
100
AcDbLine
 62
253
  6
CONTINUOUS
 10
12.4249677144
 20
-34.4560192056
 11
11.9725239179
 21
-34.2311557678
  0
LINE
  5
216
100
AcDbEntity
  8
0
100
AcDbLine
 62
253
  6
CONTINUOUS
 10
11.8361051525
 20
-33.6871726319
 11
11.2521211241
 21
-33.3963113756
  0
LINE
  5
217
100
AcDbEntity
  8
0
100
AcDbLine
 62
253
  6
CONTINUOUS
 10
11.1588987115
 20
-33.8261433182
 11
10.7348328946
 21
-33.6148285683
  0
LINE
  5
218
100
AcDbEntity
  8
0
100
AcDbLine
 62
253
  6
CONTINUOUS
 10
11.3219309416
 20
-33.0610360125
 11
11.7323645621
 21
-33.2655904104
  0
LINE
  5
219
100
AcDbEntity
  8
0
100
AcDbLine
 62
253
  6
CONTINUOUS
 10
10.5258881554
 20
-33.5106733248
 11
10.1066210058
 21
-33.3016176608
  0
LINE
  5
21A
100
AcDbEntity
  8
0
100
AcDbLine
 62
253
  6
CONTINUOUS
 10
8.52601847
 20
-30.1051468522
 11
8.9542698925
 21
-30.3186588161
  0
LINE
  5
21B
100
AcDbEntity
  8
0
100
AcDbLine
 62
253
  6
CONTINUOUS
 10
9.3493000102
 20
-30.0885843414
 11
8.8205504997
 21
-29.8249659887
  0
LINE
  5
21C
100
AcDbEntity
  8
0
100
AcDbLine
 62
253
  6
CONTINUOUS
 10
9.8070768974
 20
-30.7437179443
 11
10.2310971489
 21
-30.9551636642
  0
LINE
  5
21D
100
AcDbEntity
  8
0
100
AcDbLine
 62
253
  6
CONTINUOUS
 10
10.6395640829
 20
-30.7318422625
 11
10.1154207294
 21
-30.4704425666
  0
LINE
  5
21E
100
AcDbEntity
  8
0
100
AcDbLine
 62
253
  6
CONTINUOUS
 10
9.5090929232
 20
-33.0035673153
 11
9.449001451
 21
-32.9735874638
  0
LINE
  5
21F
100
AcDbEntity
  8
0
100
AcDbLine
 62
253
  6
CONTINUOUS
 10
8.213544376
 20
-32.3570193955
 11
7.7852411928
 21
-32.1431797585
  0
LINE
  5
220
100
AcDbEntity
  8
0
100
AcDbLine
 62
253
  6
CONTINUOUS
 10
8.8539497704
 20
-32.676667018
 11
8.4441337618
 21
-32.4721262548
  0
LINE
  5
221
100
AcDbEntity
  8
0
100
AcDbLine
 62
253
  6
CONTINUOUS
 10
7.681754728
 20
-29.6835991423
 11
8.1100328151
 21
-29.8974513273
  0
LINE
  5
222
100
AcDbEntity
  8
0
100
AcDbLine
 62
253
  6
CONTINUOUS
 10
8.5240643122
 20
-29.676896814
 11
7.970936992
 21
-29.4007086888
  0
LINE
  5
223
100
AcDbEntity
  8
0
100
AcDbLine
 62
253
  6
CONTINUOUS
 10
6.9102886425
 20
-31.7061898053
 11
6.5329729045
 21
-31.5176797456
  0
LINE
  5
224
100
AcDbEntity
  8
0
100
AcDbLine
 62
253
  6
CONTINUOUS
 10
7.0385078653
 20
-29.3622773223
 11
7.466276859
 21
-29.5760920189
  0
LINE
  5
225
100
AcDbEntity
  8
0
100
AcDbLine
 62
253
  6
CONTINUOUS
 10
7.9034645418
 20
-29.367146545
 11
7.343023385
 21
-29.0870266202
  0
LINE
  5
226
100
AcDbEntity
  8
0
100
AcDbLine
 62
253
  6
CONTINUOUS
 10
5.7802367222
 20
-28.7328688893
 11
6.2450214657
 21
-28.9654077115
  0
LINE
  5
227
100
AcDbEntity
  8
0
100
AcDbLine
 62
253
  6
CONTINUOUS
 10
6.6440417439
 20
-28.7374195063
 11
6.0466363654
 21
-28.4385261197
  0
LINE
  5
228
100
AcDbEntity
  8
0
100
AcDbLine
 62
253
  6
CONTINUOUS
 10
11.2751952206
 20
-31.4765991764
 11
11.6890124674
 21
-31.6837206652
  0
LINE
  5
229
100
AcDbEntity
  8
0
100
AcDbLine
 62
253
  6
CONTINUOUS
 10
12.0865301857
 20
-31.4551692087
 11
11.5808867262
 21
-31.2020280585
  0
LINE
  5
22A
100
AcDbEntity
  8
0
100
AcDbLine
 62
253
  6
CONTINUOUS
 10
14.5793532079
 20
-35.2359079791
 11
14.3690280013
 21
-34.4012700152
  0
LINE
  5
22B
100
AcDbEntity
  8
0
100
AcDbLine
 62
253
  6
CONTINUOUS
 10
11.9725239179
 20
-34.2311557678
 11
11.8361051525
 21
-33.6871726319
  0
LINE
  5
22C
100
AcDbEntity
  8
0
100
AcDbLine
 62
253
  6
CONTINUOUS
 10
13.9571404895
 20
-34.567840964
 11
14.1408533656
 21
-35.3019654369
  0
LINE
  5
22D
100
AcDbEntity
  8
0
100
AcDbLine
 62
253
  6
CONTINUOUS
 10
11.7323645621
 20
-33.2655904104
 11
11.4974695569
 21
-32.254442099
  0
LINE
  5
22E
100
AcDbEntity
  8
0
100
AcDbLine
 62
253
  6
CONTINUOUS
 10
13.4832569612
 20
-34.697914308
 11
13.4550505842
 21
-34.1606954121
  0
LINE
  5
22F
100
AcDbEntity
  8
0
100
AcDbLine
 62
253
  6
CONTINUOUS
 10
13.0152058131
 20
-33.8149669802
 11
13.0645162964
 21
-34.7730461899
  0
LINE
  5
230
100
AcDbEntity
  8
0
100
AcDbLine
 62
253
  6
CONTINUOUS
 10
13.3961586424
 20
-33.185730704
 11
13.3870349051
 21
-32.9611601057
  0
LINE
  5
231
100
AcDbEntity
  8
0
100
AcDbLine
 62
253
  6
CONTINUOUS
 10
12.9554293187
 20
-32.7300279621
 11
12.9826943004
 21
-33.4057617014
  0
LINE
  5
232
100
AcDbEntity
  8
0
100
AcDbLine
 62
253
  6
CONTINUOUS
 10
9.2708284199
 20
-32.6039740344
 11
9.2714144439
 21
-32.413185079
  0
LINE
  5
233
100
AcDbEntity
  8
0
100
AcDbLine
 62
253
  6
CONTINUOUS
 10
8.4441337618
 20
-32.4721262548
 11
8.4476200138
 21
-32.3177632448
  0
LINE
  5
234
100
AcDbEntity
  8
0
100
AcDbLine
 62
253
  6
CONTINUOUS
 10
13.4832569612
 20
-34.697914308
 11
13.0645162964
 21
-34.7730461899
  0
LINE
  5
235
100
AcDbEntity
  8
0
100
AcDbLine
 62
253
  6
CONTINUOUS
 10
10.7693704236
 20
-33.4721648891
 11
10.5258881554
 21
-33.5106733248
  0
LINE
  5
236
100
AcDbEntity
  8
0
100
AcDbLine
 62
253
  6
CONTINUOUS
 10
14.5793532079
 20
-35.2359079791
 11
14.1408533656
 21
-35.3019654369
  0
LINE
  5
237
100
AcDbEntity
  8
0
100
AcDbLine
 62
253
  6
CONTINUOUS
 10
12.6290728674
 20
-34.4285391336
 11
12.4249677144
 21
-34.4560192056
  0
LINE
  5
238
100
AcDbEntity
  8
0
100
AcDbLine
 62
253
  6
CONTINUOUS
 10
11.5643845766
 20
-33.7478115024
 11
11.6025716223
 21
-33.5708580536
  0
LINE
  5
239
100
AcDbEntity
  8
0
100
AcDbLine
 62
253
  6
CONTINUOUS
 10
11.2521211241
 20
-33.3963113756
 11
11.1588987115
 21
-33.8261433182
  0
LINE
  5
23A
100
AcDbEntity
  8
0
100
AcDbLine
 62
253
  6
CONTINUOUS
 10
11.4974695569
 20
-32.254442099
 11
11.3219309416
 21
-33.0610360125
  0
LINE
  5
23B
100
AcDbEntity
  8
0
100
AcDbLine
 62
253
  6
CONTINUOUS
 10
9.9106461101
 20
-32.9232419892
 11
9.5090929232
 21
-33.0035673153
  0
LINE
  5
23C
100
AcDbEntity
  8
0
100
AcDbLine
 62
253
  6
CONTINUOUS
 10
7.3143154787
 20
-31.6271347234
 11
6.9102886425
 21
-31.7061898053
  0
LINE
  5
23D
100
AcDbEntity
  8
0
100
AcDbLine
 62
253
  6
CONTINUOUS
 10
11.5643845766
 20
-33.7478115024
 11
11.1588987115
 21
-33.8261433182
  0
LINE
  5
23E
100
AcDbEntity
  8
0
100
AcDbLine
 62
253
  6
CONTINUOUS
 10
9.2708284199
 20
-32.6039740344
 11
8.8539497704
 21
-32.676667018
  0
LINE
  5
23F
100
AcDbEntity
  8
0
100
AcDbLine
 62
253
  6
CONTINUOUS
 10
8.4476200138
 20
-32.3177632448
 11
8.213544376
 21
-32.3570193955
  0
LINE
  5
240
100
AcDbEntity
  8
0
100
AcDbLine
 62
253
  6
CONTINUOUS
 10
10.7348328946
 20
-33.6148285683
 11
10.7693704236
 21
-33.4721648891
  0
LINE
  5
241
100
AcDbEntity
  8
0
100
AcDbLine
 62
253
  6
CONTINUOUS
 10
7.866372135
 20
-29.5029985023
 11
7.9034645418
 21
-29.367146545
  0
LINE
  5
242
100
AcDbEntity
  8
0
100
AcDbLine
 62
253
  6
CONTINUOUS
 10
6.0466363654
 20
-28.4385261197
 11
5.7802367222
 21
-28.7328688893
  0
LINE
  5
243
100
AcDbEntity
  8
0
100
AcDbLine
 62
253
  6
CONTINUOUS
 10
7.970936992
 20
-29.4007086888
 11
7.681754728
 21
-29.6835991423
  0
LINE
  5
244
100
AcDbEntity
  8
0
100
AcDbLine
 62
253
  6
CONTINUOUS
 10
8.8205504997
 20
-29.8249659887
 11
8.52601847
 21
-30.1051468522
  0
LINE
  5
245
100
AcDbEntity
  8
0
100
AcDbLine
 62
253
  6
CONTINUOUS
 10
12.8210352027
 20
-31.8642270858
 11
12.529093239
 21
-32.1326537792
  0
LINE
  5
246
100
AcDbEntity
  8
0
100
AcDbLine
 62
253
  6
CONTINUOUS
 10
7.343023385
 20
-29.0870266202
 11
7.0385078653
 21
-29.3622773223
  0
LINE
  5
247
100
AcDbEntity
  8
0
100
AcDbLine
 62
253
  6
CONTINUOUS
 10
11.5808867262
 20
-31.2020280585
 11
11.2751952206
 21
-31.4765991764
  0
LINE
  5
248
100
AcDbEntity
  8
0
100
AcDbLine
 62
253
  6
CONTINUOUS
 10
10.1154207294
 20
-30.4704425666
 11
9.8070768974
 21
-30.7437179443
  0
LINE
  5
249
100
AcDbEntity
  8
0
100
AcDbLine
 62
253
  6
CONTINUOUS
 10
9.3493000102
 20
-30.0885843414
 11
8.9542698925
 21
-30.3186588161
  0
LINE
  5
24A
100
AcDbEntity
  8
0
100
AcDbLine
 62
253
  6
CONTINUOUS
 10
12.0865301857
 20
-31.4551692087
 11
11.6890124674
 21
-31.6837206652
  0
LINE
  5
24B
100
AcDbEntity
  8
0
100
AcDbLine
 62
253
  6
CONTINUOUS
 10
6.6440417439
 20
-28.7374195063
 11
6.2450214657
 21
-28.9654077115
  0
LINE
  5
24C
100
AcDbEntity
  8
0
100
AcDbLine
 62
253
  6
CONTINUOUS
 10
10.6395640829
 20
-30.7318422625
 11
10.2310971489
 21
-30.9551636642
  0
LINE
  5
24D
100
AcDbEntity
  8
0
100
AcDbLine
 62
253
  6
CONTINUOUS
 10
8.5240643122
 20
-29.676896814
 11
8.1100328151
 21
-29.8974513273
  0
LINE
  5
24E
100
AcDbEntity
  8
0
100
AcDbLine
 62
253
  6
CONTINUOUS
 10
13.3961586424
 20
-33.185730704
 11
12.9826943004
 21
-33.4057617014
  0
LINE
  5
24F
100
AcDbEntity
  8
0
100
AcDbLine
 62
253
  6
CONTINUOUS
 10
7.9034645418
 20
-29.367146545
 11
7.466276859
 21
-29.5760920189
  0
LINE
  5
250
100
AcDbEntity
  8
0
100
AcDbLine
 62
253
  6
CONTINUOUS
 10
11.6481124413
 20
-32.9029118189
 11
11.3219309416
 21
-33.0610360125
  0
LWPOLYLINE
  5
251
100
AcDbEntity
  8
RACCORDO
100
AcDbPolyline
 62
7
  6
CONTINUOUS
 90
5
 70
0
 10
-34.0644159797
 20
56.1952233635
 10
-34.1550943402
 20
56.138843136
 10
-34.4734221692
 20
55.8637462983
 10
-34.7245668998
 20
55.5100318925
 10
-34.8959797449
 20
55.0985642531
  0
LINE
  5
252
100
AcDbEntity
  8
SUPERFICI
100
AcDbLine
 62
7
  6
CONTINUOUS
 10
-34.072503754
 20
56.190535427
 11
-31.0809052357
 21
57.9429475442
  0
LINE
  5
253
100
AcDbEntity
  8
RACCORDO
100
AcDbLine
 62
253
  6
CONTINUOUS
 10
-34.0644429972
 20
56.1952103083
 11
-34.0714470595
 21
56.1911537634
  0
LINE
  5
254
100
AcDbEntity
  8
RACCORDO
100
AcDbLine
 62
253
  6
CONTINUOUS
 10
-29.6736661673
 20
57.8933061512
 11
-32.7875477851
 21
56.1364700221
  0
LWPOLYLINE
  5
255
100
AcDbEntity
  8
RACCORDO
100
AcDbPolyline
 62
7
  6
CONTINUOUS
 90
4
 70
0
 10
30.7517655589
 20
-57.4348069909
 10
30.9763862052
 20
-57.4094064496
 10
31.1888827881
 20
-57.3573056205
 10
31.3419658157
 20
-57.3009138167
  0
LWPOLYLINE
  5
256
100
AcDbEntity
  8
RACCORDO
100
AcDbPolyline
 62
7
  6
CONTINUOUS
 90
3
 70
0
 10
-34.8959797449
 20
55.0985642531
 10
-34.9870756445
 20
54.6425577942
 10
-35.0026536981
 20
54.4126347368
  0
LWPOLYLINE
  5
257
100
AcDbEntity
  8
RACCORDO
100
AcDbPolyline
 62
7
  6
CONTINUOUS
 90
4
 70
0
 10
30.042973836
 20
-57.3370338042
 10
30.2815295923
 20
-57.3989772569
 10
30.5186080737
 20
-57.4315851031
 10
30.7517655589
 20
-57.4348069909
  0
LWPOLYLINE
  5
258
100
AcDbEntity
  8
RACCORDO
100
AcDbPolyline
 62
7
  6
CONTINUOUS
 90
6
 70
0
 10
-34.6814527863
 20
-24.074260447
 10
-34.4890860003
 20
-24.4517025868
 10
-34.2619913014
 20
-24.8004250253
 10
-34.0049660684
 20
-25.1146543435
 10
-33.7216738911
 20
-25.3896183348
 10
-33.421367898
 20
-25.6162224988
  0
LWPOLYLINE
  5
259
100
AcDbEntity
  8
RACCORDO
100
AcDbPolyline
 62
7
  6
CONTINUOUS
 90
3
 70
0
 10
-35.0027447187
 20
-22.7208819758
 10
-34.9925480156
 20
-22.8983278666
 10
-34.9348843341
 20
-23.2913172076
  0
LINE
  5
25A
100
AcDbEntity
  8
RACCORDO
100
AcDbLine
 62
7
  6
CONTINUOUS
 10
-35.0025871216
 20
-22.7259116727
 11
-35.0027447187
 21
-22.7208819758
  0
LWPOLYLINE
  5
25B
100
AcDbEntity
  8
RACCORDO
100
AcDbPolyline
 62
7
  6
CONTINUOUS
 90
4
 70
0
 10
-35.0026358526
 20
54.4129197218
 10
-35.0260757514
 20
52.2828931437
 10
-35.0428615459
 20
49.263509855
 10
-35.0477834309
 20
46.1456582172
  0
LWPOLYLINE
  5
25C
100
AcDbEntity
  8
RACCORDO
100
AcDbPolyline
 62
7
  6
CONTINUOUS
 90
3
 70
0
 10
29.7597553502
 20
-57.2256087286
 10
29.8040503416
 20
-57.2457728421
 10
30.042973836
 20
-57.3370338042
  0
LINE
  5
25D
100
AcDbEntity
  8
RACCORDO
100
AcDbLine
 62
7
  6
CONTINUOUS
 10
27.950940081
 20
-56.3462552971
 11
29.7614572736
 21
-57.2263897843
  0
LINE
  5
25E
100
AcDbEntity
  8
RACCORDO
100
AcDbLine
 62
7
  6
CONTINUOUS
 10
8.9217717966
 20
-46.8625767679
 11
17.5785470093
 21
-51.1829792724
  0
LINE
  5
25F
100
AcDbEntity
  8
RACCORDO
100
AcDbLine
 62
253
  6
CONTINUOUS
 10
-10.3400288633
 20
-37.0051137463
 11
6.2769804946
 21
-45.3136184252
  0
LINE
  5
260
100
AcDbEntity
  8
RACCORDO
100
AcDbLine
 62
7
  6
CONTINUOUS
 10
-26.5404245777
 20
-29.1230045477
 11
-21.1970281888
 21
-31.7951520838
  0
LWPOLYLINE
  5
261
100
AcDbEntity
  8
RACCORDO
100
AcDbPolyline
 62
7
  6
CONTINUOUS
 90
4
 70
0
 10
17.5785470093
 20
-51.1829792724
 10
22.9224075808
 20
-53.8544264213
 10
25.4729347566
 20
-55.1246620033
 10
27.950940081
 20
-56.3462552971
  0
LWPOLYLINE
  5
262
100
AcDbEntity
  8
RACCORDO
100
AcDbPolyline
 62
7
  6
CONTINUOUS
 90
3
 70
0
 10
-21.1970281888
 20
-31.7951520838
 10
-15.5219310324
 20
-34.6386035899
 10
8.9217717966
 20
-46.8625767679
  0
LWPOLYLINE
  5
263
100
AcDbEntity
  8
RACCORDO
100
AcDbPolyline
 62
7
  6
CONTINUOUS
 90
4
 70
0
 10
-33.2265771361
 20
-25.7322664168
 10
-31.5217749768
 20
-26.6095379592
 10
-29.0804212883
 20
-27.8477136727
 10
-26.5404245777
 20
-29.1230045477
  0
LINE
  5
264
100
AcDbEntity
  8
RACCORDO
100
AcDbLine
 62
253
  6
CONTINUOUS
 10
-33.2265771361
 20
-25.7322664168
 11
-33.2203112303
 21
-25.7356464558
  0
LINE
  5
265
100
AcDbEntity
  8
RACCORDO
100
AcDbLine
 62
7
  6
CONTINUOUS
 10
-33.421367898
 20
-25.6162224988
 11
-33.2203112472
 21
-25.7356465126
  0
LWPOLYLINE
  5
266
100
AcDbEntity
  8
RACCORDO
100
AcDbPolyline
 62
7
  6
CONTINUOUS
 90
3
 70
0
 10
-34.9348843341
 20
-23.2913172076
 10
-34.8308876935
 20
-23.684267738
 10
-34.6814527863
 20
-24.074260447
  0
LWPOLYLINE
  5
267
100
AcDbEntity
  8
RACCORDO
100
AcDbPolyline
 62
7
  6
CONTINUOUS
 90
4
 70
0
 10
-35.0478290087
 20
-14.4420815647
 10
-35.0430554446
 20
-17.5547039509
 10
-35.026484679
 20
-20.5558766744
 10
-35.0025807713
 20
-22.7259115188
  0
LINE
  5
268
100
AcDbEntity
  8
RACCORDO
100
AcDbLine
 62
7
  6
CONTINUOUS
 10
-35.0593433851
 20
5.6373258445
 11
-35.0478290087
 21
-14.4420815647
  0
LINE
  5
269
100
AcDbEntity
  8
RACCORDO
100
AcDbLine
 62
253
  6
CONTINUOUS
 10
-34.9128905212
 20
25.7284003628
 11
-34.9128905212
 21
5.3768033739
  0
LINE
  5
26A
100
AcDbEntity
  8
RACCORDO
100
AcDbLine
 62
7
  6
CONTINUOUS
 10
-35.0586810512
 20
28.9997583939
 11
-35.0593434897
 21
5.6373112757
  0
LINE
  5
26B
100
AcDbEntity
  8
RACCORDO
100
AcDbLine
 62
7
  6
CONTINUOUS
 10
-35.0477834309
 20
46.1456582172
 11
-35.0586810512
 21
28.9997583939
  0
LINE
  5
26C
100
AcDbEntity
  8
RACCORDO
100
AcDbLine
 62
253
  6
CONTINUOUS
 10
-16.7521379878
 20
22.22197415
 11
-18.0417596167
 21
21.6493152661
  0
LINE
  5
26D
100
AcDbEntity
  8
RACCORDO
100
AcDbLine
 62
7
  6
CONTINUOUS
 10
-17.1086465184
 20
22.3482365257
 11
-18.0417596167
 21
21.9565535488
  0
LINE
  5
26E
100
AcDbEntity
  8
RACCORDO
100
AcDbLine
 62
253
  6
CONTINUOUS
 10
-16.9814312216
 20
22.3366207669
 11
-18.0417596167
 21
21.8915379757
  0
LINE
  5
26F
100
AcDbEntity
  8
0
100
AcDbLine
 62
253
  6
CONTINUOUS
 10
-19.7748703398
 20
25.5143562303
 11
-19.9443571621
 21
25.4432480652
  0
LINE
  5
270
100
AcDbEntity
  8
RACCORDO
100
AcDbLine
 62
253
  6
CONTINUOUS
 10
-22.3531623043
 20
17.4657547486
 11
-22.3531623039
 21
-2.8858422405
  0
LINE
  5
271
100
AcDbEntity
  8
RACCORDO
100
AcDbLine
 62
253
  6
CONTINUOUS
 10
-18.0417596167
 20
16.3226768534
 11
-16.5492649859
 21
17.1787084346
  0
LINE
  5
272
100
AcDbEntity
  8
RACCORDO
100
AcDbLine
 62
7
  6
CONTINUOUS
 10
-18.0417596167
 20
16.2047013966
 11
-16.6139814881
 21
17.0236105824
  0
LINE
  5
273
100
AcDbEntity
  8
RACCORDO
100
AcDbLine
 62
253
  6
CONTINUOUS
 10
-16.5492649859
 20
21.8518351301
 11
-18.0417596167
 21
21.1890931389
  0
LINE
  5
274
100
AcDbEntity
  8
RACCORDO
100
AcDbLine
 62
253
  6
CONTINUOUS
 10
-12.3228103743
 20
-20.1856401143
 11
4.2941989836
 21
-28.4941447932
  0
LINE
  5
275
100
AcDbEntity
  8
RACCORDO
100
AcDbLine
 62
253
  6
CONTINUOUS
 10
-12.7403123269
 20
-18.9320957049
 11
3.8766969803
 21
-27.2406003581
  0
LINE
  5
276
100
AcDbEntity
  8
RACCORDO
100
AcDbLine
 62
253
  6
CONTINUOUS
 10
-21.576704923
 20
16.6600240973
 11
-21.5767049224
 21
-3.691682607
  0
LINE
  5
277
100
AcDbEntity
  8
0
100
AcDbLine
 62
253
  6
CONTINUOUS
 10
-19.9445969699
 20
-4.0016866599
 11
-19.9445969688
 21
16.3498807146
  0
LINE
  5
278
100
AcDbEntity
  8
0
100
AcDbLine
 62
7
  6
CONTINUOUS
 10
-19.0317091104
 20
25.1427735791
 11
-19.0317091104
 21
-12.7119810814
  0
LINE
  5
279
100
AcDbEntity
  8
RACCORDO
100
AcDbLine
 62
253
  6
CONTINUOUS
 10
-18.8236151353
 20
-12.5372234157
 11
-18.8236151353
 21
25.0387275453
  0
LINE
  5
27A
100
AcDbEntity
  8
RACCORDO
100
AcDbLine
 62
7
  6
CONTINUOUS
 10
-18.8089704743
 20
-12.5195457462
 11
-18.8089704743
 21
25.0314052819
  0
LINE
  5
27B
100
AcDbEntity
  8
RACCORDO
100
AcDbLine
 62
253
  6
CONTINUOUS
 10
-18.7943258134
 20
-12.4730812801
 11
-18.7943258134
 21
25.0240830185
  0
LINE
  5
27C
100
AcDbEntity
  8
RACCORDO
100
AcDbLine
 62
253
  6
CONTINUOUS
 10
-18.7175491181
 20
-12.4346929325
 11
-18.7175491181
 21
24.9856953388
  0
LINE
  5
27D
100
AcDbEntity
  8
RACCORDO
100
AcDbLine
 62
253
  6
CONTINUOUS
 10
-18.682193779
 20
-12.427370602
 11
-18.682193779
 21
24.9680182688
  0
LINE
  5
27E
100
AcDbEntity
  8
RACCORDO
100
AcDbLine
 62
253
  6
CONTINUOUS
 10
-18.6246201859
 20
24.9392324484
 11
-18.6246201859
 21
-12.427370602
  0
LINE
  5
27F
100
AcDbEntity
  8
RACCORDO
100
AcDbLine
 62
253
  6
CONTINUOUS
 10
-18.5892648469
 20
24.9215553783
 11
-18.5892648468
 21
-12.4200482715
  0
LINE
  5
280
100
AcDbEntity
  8
RACCORDO
100
AcDbLine
 62
253
  6
CONTINUOUS
 10
-18.5124881516
 20
-12.3816599239
 11
-18.5124881516
 21
24.8831683324
  0
LINE
  5
281
100
AcDbEntity
  8
RACCORDO
100
AcDbLine
 62
7
  6
CONTINUOUS
 10
-18.4978434906
 20
-12.3639822543
 11
-18.4978434906
 21
24.8758462502
  0
LINE
  5
282
100
AcDbEntity
  8
RACCORDO
100
AcDbLine
 62
253
  6
CONTINUOUS
 10
-18.4831988297
 20
-12.3175177882
 11
-18.4831988297
 21
24.868524168
  0
LINE
  5
283
100
AcDbEntity
  8
RACCORDO
100
AcDbLine
 62
253
  6
CONTINUOUS
 10
-18.4064221344
 20
-12.2791294406
 11
-18.4064221344
 21
24.8301371221
  0
LINE
  5
284
100
AcDbEntity
  8
RACCORDO
100
AcDbLine
 62
253
  6
CONTINUOUS
 10
-18.3710667953
 20
-12.2718071101
 11
-18.3710667953
 21
24.812460052
  0
LINE
  5
285
100
AcDbEntity
  8
RACCORDO
100
AcDbLine
 62
253
  6
CONTINUOUS
 10
-18.3134932022
 20
24.7836742316
 11
-18.3134932022
 21
-12.2718071101
  0
LINE
  5
286
100
AcDbEntity
  8
RACCORDO
100
AcDbLine
 62
253
  6
CONTINUOUS
 10
-18.2781378631
 20
24.7659971615
 11
-18.2781378631
 21
-12.2644847797
  0
LINE
  5
287
100
AcDbEntity
  8
0
100
AcDbLine
 62
7
  6
CONTINUOUS
 10
-18.0417596167
 20
24.6478120461
 11
-18.0417596167
 21
-12.1462956565
  0
LINE
  5
288
100
AcDbEntity
  8
0
100
AcDbLine
 62
253
  6
CONTINUOUS
 10
4.3826076042
 20
-25.6083406505
 11
-12.2344017528
 21
-17.2998359711
  0
LINE
  5
289
100
AcDbEntity
  8
0
100
AcDbLine
 62
7
  6
CONTINUOUS
 10
-18.8195770761
 20
-13.0778547197
 11
11.8589364369
 21
-28.4171114762
  0
LINE
  5
28A
100
AcDbEntity
  8
RACCORDO
100
AcDbLine
 62
253
  6
CONTINUOUS
 10
11.8589189768
 20
-28.2249006333
 11
-18.5407724228
 21
-13.0250549335
  0
LINE
  5
28B
100
AcDbEntity
  8
RACCORDO
100
AcDbLine
 62
7
  6
CONTINUOUS
 10
11.8589178322
 20
-28.2122996317
 11
-18.5184117434
 21
-13.0236348439
  0
LINE
  5
28C
100
AcDbEntity
  8
RACCORDO
100
AcDbLine
 62
253
  6
CONTINUOUS
 10
11.8589173267
 20
-28.2067347899
 11
-18.4619856262
 21
-13.0462833135
  0
LINE
  5
28D
100
AcDbEntity
  8
RACCORDO
100
AcDbLine
 62
253
  6
CONTINUOUS
 10
11.8589103521
 20
-28.1299546073
 11
-18.3852089309
 21
-13.0078949658
  0
LINE
  5
28E
100
AcDbEntity
  8
RACCORDO
100
AcDbLine
 62
253
  6
CONTINUOUS
 10
11.8589069289
 20
-28.0922702473
 11
-18.3602089309
 21
-12.9827123174
  0
LINE
  5
28F
100
AcDbEntity
  8
RACCORDO
100
AcDbLine
 62
253
  6
CONTINUOUS
 10
-18.3314221344
 20
-12.9330624377
 11
11.858901111
 21
-28.0282240604
  0
LINE
  5
290
100
AcDbEntity
  8
RACCORDO
100
AcDbLine
 62
253
  6
CONTINUOUS
 10
-18.3064221344
 20
-12.9078797893
 11
11.8588976879
 21
-27.9905397004
  0
LINE
  5
291
100
AcDbEntity
  8
RACCORDO
100
AcDbLine
 62
253
  6
CONTINUOUS
 10
11.8588907133
 20
-27.9137595178
 11
-18.2296454391
 21
-12.8694914416
  0
LINE
  5
292
100
AcDbEntity
  8
RACCORDO
100
AcDbLine
 62
7
  6
CONTINUOUS
 10
11.8588895686
 20
-27.9011585162
 11
-18.2072847597
 21
-12.868071352
  0
LINE
  5
293
100
AcDbEntity
  8
RACCORDO
100
AcDbLine
 62
253
  6
CONTINUOUS
 10
11.8588890631
 20
-27.8955936744
 11
-18.1508586425
 21
-12.8907198216
  0
LINE
  5
294
100
AcDbEntity
  8
RACCORDO
100
AcDbLine
 62
253
  6
CONTINUOUS
 10
11.85888583
 20
-27.8188153626
 11
-18.0740819472
 21
-12.852331474
  0
LINE
  5
295
100
AcDbEntity
  8
RACCORDO
100
AcDbLine
 62
253
  6
CONTINUOUS
 10
11.8588847257
 20
-27.781132162
 11
-18.0490819472
 21
-12.8271488255
  0
LINE
  5
296
100
AcDbEntity
  8
RACCORDO
100
AcDbLine
 62
253
  6
CONTINUOUS
 10
-18.0202951507
 20
-12.7774989458
 11
11.8588828491
 21
-27.7170879457
  0
LINE
  5
297
100
AcDbEntity
  8
RACCORDO
100
AcDbLine
 62
253
  6
CONTINUOUS
 10
-17.9952951507
 20
-12.7523162974
 11
11.8588817448
 21
-27.6794047451
  0
LINE
  5
298
100
AcDbEntity
  8
0
100
AcDbLine
 62
7
  6
CONTINUOUS
 10
-17.7589169043
 20
-12.6341271742
 11
11.8588748181
 21
-27.4430230354
  0
LINE
  5
299
100
AcDbEntity
  8
DRAFT
100
AcDbLine
 62
7
  6
CONTINUOUS
 10
-10.0091370843
 20
-16.4308023707
 11
-5.6389961729
 21
-18.6158728264
  0
LINE
  5
29A
100
AcDbEntity
  8
DRAFT
100
AcDbLine
 62
7
  6
CONTINUOUS
 10
5.9007654924
 20
-24.385753659
 11
10.2709064038
 21
-26.5708241147
  0
LINE
  5
29B
100
AcDbEntity
  8
DRAFT
100
AcDbLine
 62
7
  6
CONTINUOUS
 10
-9.8603041488
 20
-16.3637974822
 11
-5.5049863959
 21
-18.5414563586
  0
LINE
  5
29C
100
AcDbEntity
  8
DRAFT
100
AcDbLine
 62
7
  6
CONTINUOUS
 10
6.0495984279
 20
-24.3187487705
 11
10.4049161808
 21
-26.496407647
  0
LINE
  5
29D
100
AcDbEntity
  8
DRAFT
100
AcDbLine
 62
7
  6
CONTINUOUS
 10
-9.6370547456
 20
-16.2632901494
 11
-5.3039717304
 21
-18.429831657
  0
LINE
  5
29E
100
AcDbEntity
  8
DRAFT
100
AcDbLine
 62
7
  6
CONTINUOUS
 10
6.2728478311
 20
-24.2182414377
 11
10.6059308463
 21
-26.3847829454
  0
LINE
  5
29F
100
AcDbEntity
  8
DRAFT
100
AcDbLine
 62
7
  6
CONTINUOUS
 10
-9.4882218102
 20
-16.1962852609
 11
-5.1699619534
 21
-18.3554151893
  0
LINE
  5
2A0
100
AcDbEntity
  8
DRAFT
100
AcDbLine
 62
7
  6
CONTINUOUS
 10
6.4216807665
 20
-24.1512365492
 11
10.7399406233
 21
-26.3103664777
  0
LINE
  5
2A1
100
AcDbEntity
  8
DRAFT
100
AcDbLine
 62
7
  6
CONTINUOUS
 10
-9.264972407
 20
-16.0957779281
 11
-4.9689472878
 21
-18.2437904877
  0
LINE
  5
2A2
100
AcDbEntity
  8
DRAFT
100
AcDbLine
 62
7
  6
CONTINUOUS
 10
6.6449301697
 20
-24.0507292165
 11
10.9409552889
 21
-26.1987417761
  0
LINE
  5
2A3
100
AcDbEntity
  8
DRAFT
100
AcDbLine
 62
7
  6
CONTINUOUS
 10
-9.1161394715
 20
-16.0287730396
 11
-4.8349375108
 21
-18.16937402
  0
LINE
  5
2A4
100
AcDbEntity
  8
DRAFT
100
AcDbLine
 62
7
  6
CONTINUOUS
 10
6.7937631052
 20
-23.983724328
 11
11.0749650659
 21
-26.1243253083
  0
LINE
  5
2A5
100
AcDbEntity
  8
DRAFT
100
AcDbLine
 62
7
  6
CONTINUOUS
 10
-8.8928900683
 20
-15.9282657069
 11
-4.6339228453
 21
-18.0577493184
  0
LINE
  5
2A6
100
AcDbEntity
  8
DRAFT
100
AcDbLine
 62
7
  6
CONTINUOUS
 10
7.0170125084
 20
-23.8832169952
 11
11.2759797314
 21
-26.0127006067
  0
LINE
  5
2A7
100
AcDbEntity
  8
RACCORDO
100
AcDbLine
 62
253
  6
CONTINUOUS
 10
-8.706848899
 20
-15.8445095962
 11
-4.466410624
 21
-17.9647287337
  0
LINE
  5
2A8
100
AcDbEntity
  8
RACCORDO
100
AcDbLine
 62
253
  6
CONTINUOUS
 10
7.2030536777
 20
-23.7994608846
 11
11.4434919527
 21
-25.9196800221
  0
LINE
  5
2A9
100
AcDbEntity
  8
RACCORDO
100
AcDbLine
 62
7
  6
CONTINUOUS
 10
-8.5235553874
 20
-15.8605537766
 11
-4.3813759784
 21
-17.9316434811
  0
LINE
  5
2AA
100
AcDbEntity
  8
RACCORDO
100
AcDbLine
 62
7
  6
CONTINUOUS
 10
7.3863471893
 20
-23.8155050649
 11
11.5285265983
 21
-25.8865947694
  0
LINE
  5
2AB
100
AcDbEntity
  8
DRAFT
100
AcDbLine
 62
7
  6
CONTINUOUS
 10
-5.4044790631
 20
-18.6155478184
 11
-5.5049863959
 21
-18.5414563586
  0
LINE
  5
2AC
100
AcDbEntity
  8
DRAFT
100
AcDbLine
 62
7
  6
CONTINUOUS
 10
-5.0694546206
 20
-18.4295066491
 11
-5.1699619534
 21
-18.3554151893
  0
LINE
  5
2AD
100
AcDbEntity
  8
DRAFT
100
AcDbLine
 62
7
  6
CONTINUOUS
 10
-4.7344301781
 20
-18.2434654798
 11
-4.8349375108
 21
-18.16937402
  0
LINE
  5
2AE
100
AcDbEntity
  8
RACCORDO
100
AcDbLine
 62
253
  6
CONTINUOUS
 10
-18.574408256
 20
-12.9886654615
 11
-18.57485775
 21
-12.9883278997
  0
LINE
  5
2AF
100
AcDbEntity
  8
RACCORDO
100
AcDbLine
 62
253
  6
CONTINUOUS
 10
-18.2632812722
 20
-12.8331019696
 11
-18.2637307663
 21
-12.8327644079
  0
LINE
  5
2B0
100
AcDbEntity
  8
RACCORDO
100
AcDbLine
 62
253
  6
CONTINUOUS
 10
-16.5492649859
 20
21.8518351301
 11
-16.5492649859
 21
17.1787084346
  0
LINE
  5
2B1
100
AcDbEntity
  8
RACCORDO
100
AcDbLine
 62
253
  6
CONTINUOUS
 10
-16.5492649859
 20
2.366263545
 11
-16.5492649859
 21
-2.3068631506
  0
LINE
  5
2B2
100
AcDbEntity
  8
RACCORDO
100
AcDbLine
 62
7
  6
CONTINUOUS
 10
-16.4632401207
 20
21.9569715198
 11
-16.4632401207
 21
17.2838448242
  0
LINE
  5
2B3
100
AcDbEntity
  8
RACCORDO
100
AcDbLine
 62
7
  6
CONTINUOUS
 10
-16.4632401207
 20
2.4713999346
 11
-16.4632401207
 21
-2.201726761
  0
LINE
  5
2B4
100
AcDbEntity
  8
DRAFT
100
AcDbLine
 62
7
  6
CONTINUOUS
 10
10.5054235136
 20
-26.5704991068
 11
10.4049161808
 21
-26.496407647
  0
LINE
  5
2B5
100
AcDbEntity
  8
DRAFT
100
AcDbLine
 62
7
  6
CONTINUOUS
 10
10.8404479561
 20
-26.3844579374
 11
10.7399406233
 21
-26.3103664777
  0
LINE
  5
2B6
100
AcDbEntity
  8
DRAFT
100
AcDbLine
 62
7
  6
CONTINUOUS
 10
11.1754723986
 20
-26.1984167681
 11
11.0749650659
 21
-26.1243253083
  0
LINE
  5
2B7
100
AcDbEntity
  8
RACCORDO
100
AcDbLine
 62
253
  6
CONTINUOUS
 10
-18.3602089309
 20
-12.9827123174
 11
-18.3314221344
 21
-12.9330624377
  0
LINE
  5
2B8
100
AcDbEntity
  8
RACCORDO
100
AcDbLine
 62
253
  6
CONTINUOUS
 10
-18.0490819472
 20
-12.8271488255
 11
-18.0202951507
 21
-12.7774989458
  0
LINE
  5
2B9
100
AcDbEntity
  8
RACCORDO
100
AcDbLine
 62
253
  6
CONTINUOUS
 10
-16.7521379878
 20
2.7364025649
 11
-18.0417596167
 21
2.1637436809
  0
LINE
  5
2BA
100
AcDbEntity
  8
RACCORDO
100
AcDbLine
 62
253
  6
CONTINUOUS
 10
-16.5492649859
 20
2.366263545
 11
-18.0417596167
 21
1.7035215538
  0
LINE
  5
2BB
100
AcDbEntity
  8
RACCORDO
100
AcDbLine
 62
7
  6
CONTINUOUS
 10
-17.1086465184
 20
2.8626649406
 11
-18.0417596167
 21
2.4709819637
  0
LINE
  5
2BC
100
AcDbEntity
  8
RACCORDO
100
AcDbLine
 62
253
  6
CONTINUOUS
 10
-16.9814312216
 20
2.8510491818
 11
-18.0417596167
 21
2.4059663906
  0
LINE
  5
2BD
100
AcDbEntity
  8
RACCORDO
100
AcDbLine
 62
253
  6
CONTINUOUS
 10
-18.682193779
 20
-12.427370602
 11
-18.6246201859
 21
-12.427370602
  0
LINE
  5
2BE
100
AcDbEntity
  8
RACCORDO
100
AcDbLine
 62
253
  6
CONTINUOUS
 10
-18.3710667953
 20
-12.2718071101
 11
-18.3134932022
 21
-12.2718071101
  0
LINE
  5
2BF
100
AcDbEntity
  8
RACCORDO
100
AcDbLine
 62
253
  6
CONTINUOUS
 10
-4.4558903293
 20
-17.9592428055
 11
-4.4558903293
 21
-18.7523132337
  0
LINE
  5
2C0
100
AcDbEntity
  8
RACCORDO
100
AcDbLine
 62
7
  6
CONTINUOUS
 10
-4.3788337769
 20
-17.9347282745
 11
-4.3788337769
 21
-18.6519436427
  0
LINE
  5
2C1
100
AcDbEntity
  8
RACCORDO
100
AcDbLine
 62
253
  6
CONTINUOUS
 10
-18.0417596167
 20
-3.1628947318
 11
-16.5492649859
 21
-2.3068631506
  0
LINE
  5
2C2
100
AcDbEntity
  8
RACCORDO
100
AcDbLine
 62
7
  6
CONTINUOUS
 10
-18.0417596167
 20
-3.2808701886
 11
-16.6139814881
 21
-2.4619610028
  0
LINE
  5
2C3
100
AcDbEntity
  8
RACCORDO
100
AcDbLine
 62
253
  6
CONTINUOUS
 10
33.2588373583
 20
26.4270543884
 11
30.1450066169
 21
24.6702741829
  0
LINE
  5
2C4
100
AcDbEntity
  8
RACCORDO
100
AcDbLine
 62
253
  6
CONTINUOUS
 10
35.3801577019
 20
22.7683180052
 11
32.1025073353
 21
21.2930039648
  0
LINE
  5
2C5
100
AcDbEntity
  8
RACCORDO
100
AcDbLine
 62
253
  6
CONTINUOUS
 10
-16.6290756657
 20
2.7397279037
 11
-16.6291134554
 21
2.7397467899
  0
LINE
  5
2C6
100
AcDbEntity
  8
RACCORDO
100
AcDbLine
 62
253
  6
CONTINUOUS
 10
-16.9814312216
 20
2.8510491818
 11
-16.7521379878
 21
2.7364025649
  0
LINE
  5
2C7
100
AcDbEntity
  8
RACCORDO
100
AcDbLine
 62
7
  6
CONTINUOUS
 10
-16.8583692758
 20
2.8543747088
 11
-16.629076042
 21
2.7397280919
  0
LINE
  5
2C8
100
AcDbEntity
  8
DRAFT
100
AcDbLine
 62
7
  6
CONTINUOUS
 10
-10.0091370843
 20
-16.4308023707
 11
-10.0461362809
 21
-16.4905174859
  0
LINE
  5
2C9
100
AcDbEntity
  8
DRAFT
100
AcDbLine
 62
7
  6
CONTINUOUS
 10
-9.6370547456
 20
-16.2632901494
 11
-9.7374030625
 21
-16.4252480253
  0
LINE
  5
2CA
100
AcDbEntity
  8
RACCORDO
100
AcDbLine
 62
253
  6
CONTINUOUS
 10
34.2153441951
 20
-19.3748690431
 11
33.9574678276
 21
-19.2459308593
  0
LINE
  5
2CB
100
AcDbEntity
  8
0
100
AcDbLine
 62
253
  6
CONTINUOUS
 10
33.8918283473
 20
-18.5426046562
 11
34.0801201091
 21
-18.6367505371
  0
LINE
  5
2CC
100
AcDbEntity
  8
RACCORDO
100
AcDbLine
 62
253
  6
CONTINUOUS
 10
34.0801201091
 20
-18.6367505371
 11
35.0566418541
 21
-19.1250114096
  0
LINE
  5
2CD
100
AcDbEntity
  8
SUPERFICI
100
AcDbLine
 62
7
  6
CONTINUOUS
 10
34.2591275887
 20
-18.6426934785
 11
33.8918283473
 21
-18.4590438578
  0
LINE
  5
2CE
100
AcDbEntity
  8
RACCORDO
100
AcDbLine
 62
7
  6
CONTINUOUS
 10
34.2590947321
 20
-18.6426770503
 11
35.2432041476
 21
-19.134731758
  0
LINE
  5
2CF
100
AcDbEntity
  8
DRAFT
100
AcDbLine
 62
7
  6
CONTINUOUS
 10
-5.6389961729
 20
-18.6158728264
 11
-5.6723103992
 21
-18.6774304268
  0
LINE
  5
2D0
100
AcDbEntity
  8
DRAFT
100
AcDbLine
 62
7
  6
CONTINUOUS
 10
-5.3039717304
 20
-18.429831657
 11
-5.4044790631
 21
-18.6155478184
  0
LINE
  5
2D1
100
AcDbEntity
  8
DRAFT
100
AcDbLine
 62
7
  6
CONTINUOUS
 10
-4.9689472878
 20
-18.2437904877
 11
-5.0694546206
 21
-18.4295066491
  0
LINE
  5
2D2
100
AcDbEntity
  8
DRAFT
100
AcDbLine
 62
7
  6
CONTINUOUS
 10
-4.6339228453
 20
-18.0577493184
 11
-4.7344301781
 21
-18.2434654798
  0
LINE
  5
2D3
100
AcDbEntity
  8
DRAFT
100
AcDbLine
 62
7
  6
CONTINUOUS
 10
-9.264972407
 20
-16.0957779281
 11
-9.3653207238
 21
-16.2577358041
  0
LINE
  5
2D4
100
AcDbEntity
  8
DRAFT
100
AcDbLine
 62
7
  6
CONTINUOUS
 10
-8.8928900683
 20
-15.9282657069
 11
-8.9932383852
 21
-16.0902235828
  0
LINE
  5
2D5
100
AcDbEntity
  8
0
100
AcDbLine
 62
253
  6
CONTINUOUS
 10
-18.8195770761
 20
-13.0778547197
 11
-19.6590214331
 21
-13.5875244456
  0
LINE
  5
2D6
100
AcDbEntity
  8
RACCORDO
100
AcDbLine
 62
253
  6
CONTINUOUS
 10
-18.7943258134
 20
-12.4730812801
 11
-18.7175491181
 21
-12.4346929325
  0
LINE
  5
2D7
100
AcDbEntity
  8
RACCORDO
100
AcDbLine
 62
253
  6
CONTINUOUS
 10
-18.4831988297
 20
-12.3175177882
 11
-18.4064221344
 21
-12.2791294406
  0
LINE
  5
2D8
100
AcDbEntity
  8
RACCORDO
100
AcDbLine
 62
253
  6
CONTINUOUS
 10
-18.0417596167
 20
-12.1462956565
 11
-18.2781378631
 21
-12.2644847797
  0
LINE
  5
2D9
100
AcDbEntity
  8
RACCORDO
100
AcDbLine
 62
253
  6
CONTINUOUS
 10
-18.5124881516
 20
-12.3816599239
 11
-18.5892648468
 21
-12.4200482715
  0
LINE
  5
2DA
100
AcDbEntity
  8
RACCORDO
100
AcDbLine
 62
253
  6
CONTINUOUS
 10
-18.8236151353
 20
-12.5372234157
 11
-19.0317091104
 21
-12.6412704033
  0
LINE
  5
2DB
100
AcDbEntity
  8
RACCORDO
100
AcDbLine
 62
253
  6
CONTINUOUS
 10
-17.7589169043
 20
-12.6341271742
 11
-17.9952951507
 21
-12.7523162974
  0
LINE
  5
2DC
100
AcDbEntity
  8
RACCORDO
100
AcDbLine
 62
253
  6
CONTINUOUS
 10
-18.2296454391
 20
-12.8694914416
 11
-18.3064221344
 21
-12.9078797893
  0
LINE
  5
2DD
100
AcDbEntity
  8
RACCORDO
100
AcDbLine
 62
253
  6
CONTINUOUS
 10
-18.5407724228
 20
-13.0250549335
 11
-18.7329745357
 21
-13.1211559899
  0
LINE
  5
2DE
100
AcDbEntity
  8
RACCORDO
100
AcDbLine
 62
253
  6
CONTINUOUS
 10
-18.4619856262
 20
-13.0462833135
 11
-18.3852089309
 21
-13.0078949658
  0
LINE
  5
2DF
100
AcDbEntity
  8
RACCORDO
100
AcDbLine
 62
253
  6
CONTINUOUS
 10
-18.1508586425
 20
-12.8907198216
 11
-18.0740819472
 21
-12.852331474
  0
LINE
  5
2E0
100
AcDbEntity
  8
0
100
AcDbLine
 62
253
  6
CONTINUOUS
 10
-19.0317091104
 20
-12.7119810814
 11
-19.9443571597
 21
-13.0948824022
  0
LINE
  5
2E1
100
AcDbEntity
  8
RACCORDO
100
AcDbLine
 62
253
  6
CONTINUOUS
 10
11.4540122474
 20
-25.9141940939
 11
11.4540122474
 21
-26.707264522
  0
LINE
  5
2E2
100
AcDbEntity
  8
RACCORDO
100
AcDbLine
 62
7
  6
CONTINUOUS
 10
11.5310687998
 20
-25.8896795629
 11
11.5310687998
 21
-26.6068949311
  0
LINE
  5
2E3
100
AcDbEntity
  8
RACCORDO
100
AcDbLine
 62
253
  6
CONTINUOUS
 10
12.7130896211
 20
-20.8364701637
 11
12.7130896195
 21
-0.4847518953
  0
LINE
  5
2E4
100
AcDbEntity
  8
0
100
AcDbLine
 62
7
  6
CONTINUOUS
 10
11.8590536473
 20
9.1031021494
 11
11.859048508
 21
-29.4348816458
  0
LINE
  5
2E5
100
AcDbEntity
  8
RACCORDO
100
AcDbLine
 62
7
  6
CONTINUOUS
 10
11.858907105
 20
-29.4348726199
 11
11.8589071117
 21
-29.4348198154
  0
LINE
  5
2E6
100
AcDbEntity
  8
RACCORDO
100
AcDbLine
 62
7
  6
CONTINUOUS
 10
11.8589039332
 20
9.1029766124
 11
11.8589039558
 21
9.1030340179
  0
LINE
  5
2E7
100
AcDbEntity
  8
DRAFT
100
AcDbLine
 62
7
  6
CONTINUOUS
 10
-5.6389961729
 20
-18.6158728264
 11
-5.5049863959
 21
-18.5414563586
  0
LINE
  5
2E8
100
AcDbEntity
  8
DRAFT
100
AcDbLine
 62
7
  6
CONTINUOUS
 10
-5.3039717304
 20
-18.429831657
 11
-5.1699619534
 21
-18.3554151893
  0
LINE
  5
2E9
100
AcDbEntity
  8
DRAFT
100
AcDbLine
 62
7
  6
CONTINUOUS
 10
-4.9689472878
 20
-18.2437904877
 11
-4.8349375108
 21
-18.16937402
  0
LINE
  5
2EA
100
AcDbEntity
  8
RACCORDO
100
AcDbLine
 62
7
  6
CONTINUOUS
 10
-4.6339228453
 20
-18.0577493184
 11
-4.466410624
 21
-17.9647287337
  0
LINE
  5
2EB
100
AcDbEntity
  8
DRAFT
100
AcDbLine
 62
7
  6
CONTINUOUS
 10
-10.0091370843
 20
-16.4308023707
 11
-9.8603041488
 21
-16.3637974822
  0
LINE
  5
2EC
100
AcDbEntity
  8
DRAFT
100
AcDbLine
 62
7
  6
CONTINUOUS
 10
-9.6370547456
 20
-16.2632901494
 11
-9.4882218102
 21
-16.1962852609
  0
LINE
  5
2ED
100
AcDbEntity
  8
DRAFT
100
AcDbLine
 62
7
  6
CONTINUOUS
 10
-9.264972407
 20
-16.0957779281
 11
-9.1161394715
 21
-16.0287730396
  0
LINE
  5
2EE
100
AcDbEntity
  8
RACCORDO
100
AcDbLine
 62
7
  6
CONTINUOUS
 10
-8.8928900683
 20
-15.9282657069
 11
-8.706848899
 21
-15.8445095962
  0
LINE
  5
2EF
100
AcDbEntity
  8
RACCORDO
100
AcDbLine
 62
253
  6
CONTINUOUS
 10
-16.6290756657
 20
22.2252994889
 11
-16.6291134554
 21
22.2253183751
  0
LINE
  5
2F0
100
AcDbEntity
  8
RACCORDO
100
AcDbLine
 62
253
  6
CONTINUOUS
 10
-16.9814312216
 20
22.3366207669
 11
-16.7521379878
 21
22.22197415
  0
LINE
  5
2F1
100
AcDbEntity
  8
RACCORDO
100
AcDbLine
 62
7
  6
CONTINUOUS
 10
-16.8583692758
 20
22.339946294
 11
-16.629076042
 21
22.2252996771
  0
LINE
  5
2F2
100
AcDbEntity
  8
0
100
AcDbLine
 62
7
  6
CONTINUOUS
 10
-20.0447040246
 20
25.6492820302
 11
11.4216761137
 21
9.9160880903
  0
LINE
  5
2F3
100
AcDbEntity
  8
RACCORDO
100
AcDbLine
 62
7
  6
CONTINUOUS
 10
-20.0447364432
 20
25.6493554679
 11
-20.0444954083
 21
25.6492348874
  0
LINE
  5
2F4
100
AcDbEntity
  8
RACCORDO
100
AcDbLine
 62
253
  6
CONTINUOUS
 10
14.3245509239
 20
-21.2246988544
 11
14.3245509234
 21
-0.8731018652
  0
LINE
  5
2F5
100
AcDbEntity
  8
DRAFT
100
AcDbLine
 62
7
  6
CONTINUOUS
 10
5.9007654924
 20
-24.385753659
 11
5.8637662958
 21
-24.4454687742
  0
LINE
  5
2F6
100
AcDbEntity
  8
DRAFT
100
AcDbLine
 62
7
  6
CONTINUOUS
 10
6.2728478311
 20
-24.2182414377
 11
6.1724995142
 21
-24.3801993137
  0
LINE
  5
2F7
100
AcDbEntity
  8
DRAFT
100
AcDbLine
 62
7
  6
CONTINUOUS
 10
6.6449301697
 20
-24.0507292165
 11
6.5445818529
 21
-24.2126870924
  0
LINE
  5
2F8
100
AcDbEntity
  8
DRAFT
100
AcDbLine
 62
7
  6
CONTINUOUS
 10
7.0170125084
 20
-23.8832169952
 11
6.9166641915
 21
-24.0451748712
  0
LINE
  5
2F9
100
AcDbEntity
  8
RACCORDO
100
AcDbLine
 62
253
  6
CONTINUOUS
 10
-4.9506892497
 20
-19.0382410015
 11
-4.4558903293
 21
-18.7523132337
  0
LINE
  5
2FA
100
AcDbEntity
  8
RACCORDO
100
AcDbLine
 62
7
  6
CONTINUOUS
 10
-4.8418757149
 20
-19.0926477689
 11
-4.5287332015
 21
-18.9116931706
  0
LINE
  5
2FB
100
AcDbEntity
  8
RACCORDO
100
AcDbLine
 62
253
  6
CONTINUOUS
 10
3.876697031
 20
14.7556496414
 11
-12.7403901344
 21
23.0641932229
  0
LINE
  5
2FC
100
AcDbEntity
  8
RACCORDO
100
AcDbLine
 62
253
  6
CONTINUOUS
 10
4.2941989836
 20
16.4266960034
 11
-12.3228103743
 21
24.7352006823
  0
LINE
  5
2FD
100
AcDbEntity
  8
DRAFT
100
AcDbLine
 62
7
  6
CONTINUOUS
 10
10.2709064038
 20
-26.5708241147
 11
10.2375921775
 21
-26.6323817151
  0
LINE
  5
2FE
100
AcDbEntity
  8
DRAFT
100
AcDbLine
 62
7
  6
CONTINUOUS
 10
10.6059308463
 20
-26.3847829454
 11
10.5054235136
 21
-26.5704991068
  0
LINE
  5
2FF
100
AcDbEntity
  8
DRAFT
100
AcDbLine
 62
7
  6
CONTINUOUS
 10
10.9409552889
 20
-26.1987417761
 11
10.8404479561
 21
-26.3844579374
  0
LINE
  5
300
100
AcDbEntity
  8
DRAFT
100
AcDbLine
 62
7
  6
CONTINUOUS
 10
11.2759797314
 20
-26.0127006067
 11
11.1754723986
 21
-26.1984167681
  0
LINE
  5
301
100
AcDbEntity
  8
DRAFT
100
AcDbLine
 62
7
  6
CONTINUOUS
 10
5.9007654924
 20
-24.385753659
 11
6.0495984279
 21
-24.3187487705
  0
LINE
  5
302
100
AcDbEntity
  8
DRAFT
100
AcDbLine
 62
7
  6
CONTINUOUS
 10
6.2728478311
 20
-24.2182414377
 11
6.4216807665
 21
-24.1512365492
  0
LINE
  5
303
100
AcDbEntity
  8
DRAFT
100
AcDbLine
 62
7
  6
CONTINUOUS
 10
6.6449301697
 20
-24.0507292165
 11
6.7937631052
 21
-23.983724328
  0
LINE
  5
304
100
AcDbEntity
  8
RACCORDO
100
AcDbLine
 62
7
  6
CONTINUOUS
 10
7.0170125084
 20
-23.8832169952
 11
7.2030536777
 21
-23.7994608846
  0
LINE
  5
305
100
AcDbEntity
  8
RACCORDO
100
AcDbLine
 62
253
  6
CONTINUOUS
 10
30.8498421522
 20
-27.5045629628
 11
30.8498421522
 21
-7.1529659739
  0
LINE
  5
306
100
AcDbEntity
  8
RACCORDO
100
AcDbLine
 62
253
  6
CONTINUOUS
 10
32.0399886729
 20
-27.4493618084
 11
32.0399886729
 21
-7.0977648203
  0
LINE
  5
307
100
AcDbEntity
  8
0
100
AcDbLine
 62
253
  6
CONTINUOUS
 10
11.8590292553
 20
-29.2892005424
 11
11.8072303314
 21
-29.320650326
  0
LINE
  5
308
100
AcDbEntity
  8
RACCORDO
100
AcDbLine
 62
7
  6
CONTINUOUS
 10
35.0566418541
 20
-12.7059084945
 11
34.2153441951
 21
-13.2135586757
  0
LINE
  5
309
100
AcDbEntity
  8
RACCORDO
100
AcDbLine
 62
253
  6
CONTINUOUS
 10
10.959213327
 20
-26.9931922898
 11
11.4540122474
 21
-26.707264522
  0
LINE
  5
30A
100
AcDbEntity
  8
RACCORDO
100
AcDbLine
 62
7
  6
CONTINUOUS
 10
11.0680268618
 20
-27.0475990573
 11
11.3811693752
 21
-26.866644459
  0
LINE
  5
30B
100
AcDbEntity
  8
DRAFT
100
AcDbLine
 62
7
  6
CONTINUOUS
 10
10.2709064038
 20
-26.5708241147
 11
10.4049161808
 21
-26.496407647
  0
LINE
  5
30C
100
AcDbEntity
  8
DRAFT
100
AcDbLine
 62
7
  6
CONTINUOUS
 10
10.6059308463
 20
-26.3847829454
 11
10.7399406233
 21
-26.3103664777
  0
LINE
  5
30D
100
AcDbEntity
  8
DRAFT
100
AcDbLine
 62
7
  6
CONTINUOUS
 10
10.9409552889
 20
-26.1987417761
 11
11.0749650659
 21
-26.1243253083
  0
LINE
  5
30E
100
AcDbEntity
  8
RACCORDO
100
AcDbLine
 62
7
  6
CONTINUOUS
 10
11.2759797314
 20
-26.0127006067
 11
11.4434919527
 21
-25.9196800221
  0
LINE
  5
30F
100
AcDbEntity
  8
0
100
AcDbLine
 62
7
  6
CONTINUOUS
 10
33.8918283473
 20
-18.6991697952
 11
34.0801201091
 21
-18.6367505371
  0
LINE
  5
310
100
AcDbEntity
  8
RACCORDO
100
AcDbLine
 62
7
  6
CONTINUOUS
 10
33.8918283473
 20
-18.6991697952
 11
34.0801201091
 21
-18.6367505371
  0
LINE
  5
311
100
AcDbEntity
  8
RACCORDO
100
AcDbLine
 62
7
  6
CONTINUOUS
 10
34.2153441951
 20
-19.3748690431
 11
35.0566418541
 21
-19.1250114096
  0
LINE
  5
312
100
AcDbEntity
  8
RACCORDO
100
AcDbLine
 62
7
  6
CONTINUOUS
 10
33.8918283473
 20
-13.7885143827
 11
33.8918283473
 21
-19.0912083138
  0
LINE
  5
313
100
AcDbEntity
  8
RACCORDO
100
AcDbLine
 62
7
  6
CONTINUOUS
 10
35.3801577019
 20
-54.3079429316
 11
35.3801577019
 21
-19.4086721389
  0
LINE
  5
314
100
AcDbEntity
  8
RACCORDO
100
AcDbLine
 62
7
  6
CONTINUOUS
 10
35.3801577019
 20
-12.1309527874
 11
35.3801577019
 21
22.7683180052
  0
LINE
  5
315
100
AcDbEntity
  8
RACCORDO
100
AcDbLine
 62
253
  6
CONTINUOUS
 10
6.2769804946
 20
35.2289511464
 11
-10.3400288633
 21
43.5374558253
  0
LINE
  5
316
100
AcDbEntity
  8
RACCORDO
100
AcDbLine
 62
253
  6
CONTINUOUS
 10
6.927254907
 20
36.2152939445
 11
-9.6897544525
 21
44.5237986243
  0
LINE
  5
317
100
AcDbEntity
  8
SUPERFICI
100
AcDbLine
 62
7
  6
CONTINUOUS
 10
33.2588373583
 20
26.4270543884
 11
-29.6736661673
 21
57.8933061512
  0
LINE
  5
318
100
AcDbEntity
  8
RACCORDO
100
AcDbLine
 62
253
  6
CONTINUOUS
 10
35.3801577019
 20
-54.3079429316
 11
32.102443455
 21
-55.7835959602
  0
LINE
  5
319
100
AcDbEntity
  8
RACCORDO
100
AcDbLine
 62
253
  6
CONTINUOUS
 10
31.3354899948
 20
-57.303657503
 11
31.3419203097
 21
-57.3009340445
  0
LINE
  5
31A
100
AcDbEntity
  8
SUPERFICI
100
AcDbLine
 62
7
  6
CONTINUOUS
 10
31.3355568734
 20
-57.3036294371
 11
34.5326680008
 21
-55.9617045772
  0
ARC
  5
31B
100
AcDbEntity
  8
0
100
AcDbCircle
 62
253
  6
CONTINUOUS
 10
138.5264463086
 20
7.6640924301
 40
135.0245834271
100
AcDbArc
 50
196.3379565644
 51
197.0382185556
  0
ARC
  5
31C
100
AcDbEntity
  8
0
100
AcDbCircle
 62
253
  6
CONTINUOUS
 10
138.8284633275
 20
7.7941923029
 40
134.907221816
100
AcDbArc
 50
196.3083237332
 51
196.7839232392
  0
ARC
  5
31D
100
AcDbEntity
  8
0
100
AcDbCircle
 62
253
  6
CONTINUOUS
 10
136.1317713564
 20
7.4766711716
 40
132.9840247338
100
AcDbArc
 50
196.872147131
 51
197.4551863053
  0
ARC
  5
31E
100
AcDbEntity
  8
0
100
AcDbCircle
 62
253
  6
CONTINUOUS
 10
135.2912312082
 20
7.213141841
 40
132.1031415315
100
AcDbArc
 50
197.4555046248
 51
197.7104746684
  0
ARC
  5
31F
100
AcDbEntity
  8
0
100
AcDbCircle
 62
253
  6
CONTINUOUS
 10
138.1886022257
 20
0.4139085305
 40
130.5082507157
100
AcDbArc
 50
194.2375861545
 51
195.4968631167
  0
ARC
  5
320
100
AcDbEntity
  8
0
100
AcDbCircle
 62
253
  6
CONTINUOUS
 10
137.6728644891
 20
0.3518490041
 40
129.5515872976
100
AcDbArc
 50
194.2123437747
 51
195.0673285641
  0
ARC
  5
321
100
AcDbEntity
  8
0
100
AcDbCircle
 62
253
  6
CONTINUOUS
 10
124.4762001661
 20
-1.4488200904
 40
120.9507552908
100
AcDbArc
 50
193.0391883226
 51
193.5995398812
  0
ARC
  5
322
100
AcDbEntity
  8
0
100
AcDbCircle
 62
253
  6
CONTINUOUS
 10
123.9991135725
 20
-1.6296913543
 40
120.8853448682
100
AcDbArc
 50
193.0692924918
 51
193.9915220495
  0
ARC
  5
323
100
AcDbEntity
  8
0
100
AcDbCircle
 62
253
  6
CONTINUOUS
 10
114.0868529607
 20
-65.5915182193
 40
109.9483555121
100
AcDbArc
 50
161.5216081442
 51
161.7513014787
  0
ARC
  5
324
100
AcDbEntity
  8
0
100
AcDbCircle
 62
253
  6
CONTINUOUS
 10
114.9969296791
 20
-22.1530215047
 40
105.4812409293
100
AcDbArc
 50
185.1718887229
 51
185.6565409795
  0
ARC
  5
325
100
AcDbEntity
  8
0
100
AcDbCircle
 62
253
  6
CONTINUOUS
 10
111.0589784201
 20
-22.5418664306
 40
101.5241385782
100
AcDbArc
 50
185.657214003
 51
186.0837580578
  0
ARC
  5
326
100
AcDbEntity
  8
0
100
AcDbCircle
 62
253
  6
CONTINUOUS
 10
106.0231058824
 20
-62.9396798684
 40
101.4597622297
100
AcDbArc
 50
161.7475560982
 51
162.1854628429
  0
ARC
  5
327
100
AcDbEntity
  8
0
100
AcDbCircle
 62
253
  6
CONTINUOUS
 10
107.7066804239
 20
-26.8087205559
 40
99.2240785989
100
AcDbArc
 50
181.6564254425
 51
181.897782971
  0
ARC
  5
328
100
AcDbEntity
  8
0
100
AcDbCircle
 62
253
  6
CONTINUOUS
 10
106.7105888925
 20
-26.7634059655
 40
99.0718805927
100
AcDbArc
 50
181.6890663646
 51
181.9512793358
  0
ARC
  5
329
100
AcDbEntity
  8
0
100
AcDbCircle
 62
253
  6
CONTINUOUS
 10
100.2969997645
 20
-51.2526634699
 40
95.7931903478
100
AcDbArc
 50
166.7902145497
 51
167.1001517063
  0
ARC
  5
32A
100
AcDbEntity
  8
0
100
AcDbCircle
 62
253
  6
CONTINUOUS
 10
99.6952010193
 20
-54.7869231156
 40
95.6125521639
100
AcDbArc
 50
164.7116454282
 51
166.0309003017
  0
ARC
  5
32B
100
AcDbEntity
  8
0
100
AcDbCircle
 62
253
  6
CONTINUOUS
 10
99.7115355578
 20
-51.1182167308
 40
95.1924874934
100
AcDbArc
 50
167.1003624308
 51
167.7109792193
  0
ARC
  5
32C
100
AcDbEntity
  8
0
100
AcDbCircle
 62
253
  6
CONTINUOUS
 10
99.2702918788
 20
-54.3927209675
 40
94.7321144741
100
AcDbArc
 50
165.1643182627
 51
166.0948435704
  0
ARC
  5
32D
100
AcDbEntity
  8
0
100
AcDbCircle
 62
253
  6
CONTINUOUS
 10
94.6903855855
 20
-59.6569842774
 40
88.8948660061
100
AcDbArc
 50
162.2457116801
 51
162.4982830664
  0
ARC
  5
32E
100
AcDbEntity
  8
RACCORDO
100
AcDbCircle
 62
253
  6
CONTINUOUS
 10
-12.7287913651
 20
11.3922827542
 40
42.1506873338
100
AcDbArc
 50
240.5124387544
 51
241.6594829542
  0
ARC
  5
32F
100
AcDbEntity
  8
RACCORDO
100
AcDbCircle
 62
253
  6
CONTINUOUS
 10
-31.5617190347
 20
-22.7109463085
 40
3.2580831959
100
AcDbArc
 50
204.7173919858
 51
212.0222579329
  0
ARC
  5
330
100
AcDbEntity
  8
RACCORDO
100
AcDbCircle
 62
253
  6
CONTINUOUS
 10
-18.1932778485
 20
-12.5403972288
 40
0.5876242564
100
AcDbArc
 50
222.9967533182
 51
226.5895325455
  0
ARC
  5
331
100
AcDbEntity
  8
RACCORDO
100
AcDbCircle
 62
253
  6
CONTINUOUS
 10
-17.8821508648
 20
-12.384833737
 40
0.5876242564
100
AcDbArc
 50
222.9967533182
 51
226.5895325455
  0
ARC
  5
332
100
AcDbEntity
  8
RACCORDO
100
AcDbCircle
 62
253
  6
CONTINUOUS
 10
-18.2203136768
 20
-12.4694958541
 40
0.5741275029
100
AcDbArc
 50
183.9643876941
 51
187.6864440227
  0
ARC
  5
333
100
AcDbEntity
  8
RACCORDO
100
AcDbCircle
 62
253
  6
CONTINUOUS
 10
-18.1891413095
 20
-12.556333355
 40
0.5624345879
100
AcDbArc
 50
226.5891915453
 51
230.353601041
  0
ARC
  5
334
100
AcDbEntity
  8
RACCORDO
100
AcDbCircle
 62
253
  6
CONTINUOUS
 10
-17.8780143258
 20
-12.4007698632
 40
0.5624345879
100
AcDbArc
 50
226.5891915453
 51
230.353601041
  0
ARC
  5
335
100
AcDbEntity
  8
RACCORDO
100
AcDbCircle
 62
253
  6
CONTINUOUS
 10
-18.1123651188
 20
-12.5179455801
 40
0.5624338249
100
AcDbArc
 50
226.5892525032
 51
230.3536493223
  0
ARC
  5
336
100
AcDbEntity
  8
RACCORDO
100
AcDbCircle
 62
253
  6
CONTINUOUS
 10
-17.801238135
 20
-12.3623820883
 40
0.5624338249
100
AcDbArc
 50
226.5892525032
 51
230.3536493223
  0
ARC
  5
337
100
AcDbEntity
  8
RACCORDO
100
AcDbCircle
 62
253
  6
CONTINUOUS
 10
-18.2575038866
 20
-12.4722656402
 40
0.5368348226
100
AcDbArc
 50
181.918253056
 51
183.9438999555
  0
ARC
  5
338
100
AcDbEntity
  8
RACCORDO
100
AcDbCircle
 62
253
  6
CONTINUOUS
 10
-17.9463769028
 20
-12.3167021483
 40
0.5368348226
100
AcDbArc
 50
181.918253056
 51
183.9438999555
  0
ARC
  5
339
100
AcDbEntity
  8
RACCORDO
100
AcDbCircle
 62
253
  6
CONTINUOUS
 10
-18.2293042499
 20
-12.5789391041
 40
0.5348675654
100
AcDbArc
 50
226.555745523
 51
231.3567441461
  0
ARC
  5
33A
100
AcDbEntity
  8
RACCORDO
100
AcDbCircle
 62
253
  6
CONTINUOUS
 10
-17.9181772662
 20
-12.4233756122
 40
0.5348675654
100
AcDbArc
 50
226.555745523
 51
231.3567441461
  0
ARC
  5
33B
100
AcDbEntity
  8
RACCORDO
100
AcDbCircle
 62
253
  6
CONTINUOUS
 10
-18.2798061223
 20
-12.4730241736
 40
0.5145196943
100
AcDbArc
 50
180.0063592525
 51
181.916964343
  0
ARC
  5
33C
100
AcDbEntity
  8
RACCORDO
100
AcDbCircle
 62
253
  6
CONTINUOUS
 10
-17.9686791386
 20
-12.3174606818
 40
0.5145196943
100
AcDbArc
 50
180.0063592525
 51
181.916964343
  0
ARC
  5
33D
100
AcDbEntity
  8
RACCORDO
100
AcDbCircle
 62
253
  6
CONTINUOUS
 10
-18.1450424217
 20
-12.5576312822
 40
0.5110263066
100
AcDbArc
 50
230.3357202314
 51
234.3448946876
  0
ARC
  5
33E
100
AcDbEntity
  8
RACCORDO
100
AcDbCircle
 62
253
  6
CONTINUOUS
 10
-17.833915438
 20
-12.4020677903
 40
0.5110263066
100
AcDbArc
 50
230.3357202314
 51
234.3448946876
  0
ARC
  5
33F
100
AcDbEntity
  8
RACCORDO
100
AcDbCircle
 62
253
  6
CONTINUOUS
 10
-18.0648011609
 20
-12.3814411228
 40
0.4476870441
100
AcDbArc
 50
180.0280025475
 51
183.9640346411
  0
ARC
  5
340
100
AcDbEntity
  8
RACCORDO
100
AcDbCircle
 62
253
  6
CONTINUOUS
 10
-18.3759281447
 20
-12.5370046147
 40
0.4476870441
100
AcDbArc
 50
180.0280025475
 51
183.9640346411
  0
ARC
  5
341
100
AcDbEntity
  8
RACCORDO
100
AcDbCircle
 62
7
  6
CONTINUOUS
 10
-18.0120429533
 20
-12.4984383651
 40
0.4184799335
100
AcDbArc
 50
233.0267822324
 51
234.3820089767
  0
ARC
  5
342
100
AcDbEntity
  8
RACCORDO
100
AcDbCircle
 62
253
  6
CONTINUOUS
 10
-18.280738863
 20
-12.6844568412
 40
0.4046835619
100
AcDbArc
 50
238.704184273
 51
243.3927127753
  0
ARC
  5
343
100
AcDbEntity
  8
RACCORDO
100
AcDbCircle
 62
253
  6
CONTINUOUS
 10
-17.9696118792
 20
-12.5288933493
 40
0.4046835619
100
AcDbArc
 50
238.704184273
 51
243.3927127753
  0
ARC
  5
344
100
AcDbEntity
  8
RACCORDO
100
AcDbCircle
 62
7
  6
CONTINUOUS
 10
-18.032676429
 20
-12.5277235486
 40
0.3826570987
100
AcDbArc
 50
234.3398248972
 51
238.7079389411
  0
ARC
  5
345
100
AcDbEntity
  8
RACCORDO
100
AcDbCircle
 62
7
  6
CONTINUOUS
 10
-18.359988649
 20
-12.7093965445
 40
0.351939203
100
AcDbArc
 50
238.7518116491
 51
240.1708750723
  0
ARC
  5
346
100
AcDbEntity
  8
RACCORDO
100
AcDbCircle
 62
7
  6
CONTINUOUS
 10
-18.0488616653
 20
-12.5538330527
 40
0.351939203
100
AcDbArc
 50
238.7518116491
 51
240.1708750723
  0
ARC
  5
347
100
AcDbEntity
  8
RACCORDO
100
AcDbCircle
 62
253
  6
CONTINUOUS
 10
-18.0753928228
 20
-12.5615539207
 40
0.3444116526
100
AcDbArc
 50
238.7041633467
 51
243.3927123556
  0
ARC
  5
348
100
AcDbEntity
  8
RACCORDO
100
AcDbCircle
 62
253
  6
CONTINUOUS
 10
-18.3865198065
 20
-12.7171174125
 40
0.3444116526
100
AcDbArc
 50
238.7041633467
 51
243.3927123556
  0
ARC
  5
349
100
AcDbEntity
  8
RACCORDO
100
AcDbCircle
 62
7
  6
CONTINUOUS
 10
-18.3698638352
 20
-12.726814495
 40
0.3319168579
100
AcDbArc
 50
240.1541135402
 51
243.4136832567
  0
ARC
  5
34A
100
AcDbEntity
  8
RACCORDO
100
AcDbCircle
 62
7
  6
CONTINUOUS
 10
-18.0587368515
 20
-12.5712510031
 40
0.3319168579
100
AcDbArc
 50
240.1541135401
 51
243.4136832567
  0
ARC
  5
34B
100
AcDbEntity
  8
RACCORDO
100
AcDbCircle
 62
7
  6
CONTINUOUS
 10
-16.7632376193
 20
2.4714009471
 40
0.2999974986
100
AcDbArc
 50
359.9998066236
 51
63.4432777795
  0
ARC
  5
34C
100
AcDbEntity
  8
RACCORDO
100
AcDbCircle
 62
7
  6
CONTINUOUS
 10
-16.9925133138
 20
2.5861286587
 40
0.2999168098
100
AcDbArc
 50
63.4341385521
 51
112.7470519051
  0
ARC
  5
34D
100
AcDbEntity
  8
RACCORDO
100
AcDbCircle
 62
7
  6
CONTINUOUS
 10
-16.7631402192
 20
-2.2016847304
 40
0.2999001305
100
AcDbArc
 50
299.8370796521
 51
359.9922609192
  0
ARC
  5
34E
100
AcDbEntity
  8
RACCORDO
100
AcDbCircle
 62
7
  6
CONTINUOUS
 10
-4.6786734518
 20
-18.6521522556
 40
0.2997390266
100
AcDbArc
 50
300.0151657664
 51
0.0004294262
  0
ARC
  5
34F
100
AcDbEntity
  8
RACCORDO
100
AcDbCircle
 62
253
  6
CONTINUOUS
 10
-17.0616544507
 20
2.7508987191
 40
0.1211943373
100
AcDbArc
 50
109.0958943552
 51
112.8043024357
  0
ARC
  5
350
100
AcDbEntity
  8
RACCORDO
100
AcDbCircle
 62
253
  6
CONTINUOUS
 10
-32.8551821323
 20
54.0131581196
 40
1.938534428
100
AcDbArc
 50
173.7843489648
 51
177.2299903613
  0
ARC
  5
351
100
AcDbEntity
  8
RACCORDO
100
AcDbCircle
 62
7
  6
CONTINUOUS
 10
-16.7632376193
 20
21.9569725323
 40
0.2999974986
100
AcDbArc
 50
359.9998066236
 51
63.4432777795
  0
ARC
  5
352
100
AcDbEntity
  8
RACCORDO
100
AcDbCircle
 62
7
  6
CONTINUOUS
 10
-16.9925133138
 20
22.0717002438
 40
0.2999168098
100
AcDbArc
 50
63.4341385521
 51
112.7470519051
  0
ARC
  5
353
100
AcDbEntity
  8
RACCORDO
100
AcDbCircle
 62
7
  6
CONTINUOUS
 10
-16.7631402192
 20
17.2838868548
 40
0.2999001305
100
AcDbArc
 50
299.8370796521
 51
359.9922609192
  0
ARC
  5
354
100
AcDbEntity
  8
RACCORDO
100
AcDbCircle
 62
253
  6
CONTINUOUS
 10
-17.0616544507
 20
22.2364703042
 40
0.1211943373
100
AcDbArc
 50
109.0958943554
 51
112.8043024355
  0
ARC
  5
355
100
AcDbEntity
  8
RACCORDO
100
AcDbCircle
 62
253
  6
CONTINUOUS
 10
9.1324672976
 20
-20.8734338361
 40
43.9769426374
100
AcDbArc
 50
182.6883037126
 51
182.8138715617
  0
ARC
  5
356
100
AcDbEntity
  8
RACCORDO
100
AcDbCircle
 62
253
  6
CONTINUOUS
 10
46.8663791567
 20
-17.1479918324
 40
43.2763771992
100
AcDbArc
 50
244.8044567215
 51
246.3494104426
  0
ARC
  5
357
100
AcDbEntity
  8
RACCORDO
100
AcDbCircle
 62
253
  6
CONTINUOUS
 10
29.1832525606
 20
-55.8473169035
 40
1.635924518
100
AcDbArc
 50
356.3664797557
 51
0.3392164156
  0
ARC
  5
358
100
AcDbEntity
  8
RACCORDO
100
AcDbCircle
 62
253
  6
CONTINUOUS
 10
12.7238263268
 20
-31.0093324152
 40
1.458797476
100
AcDbArc
 50
304.1594834202
 51
309.9670576243
  0
ARC
  5
359
100
AcDbEntity
  8
RACCORDO
100
AcDbCircle
 62
253
  6
CONTINUOUS
 10
12.8027946097
 20
-31.124225416
 40
1.3193857638
100
AcDbArc
 50
300.8750642807
 51
304.123341096
  0
ARC
  5
35A
100
AcDbEntity
  8
RACCORDO
100
AcDbCircle
 62
253
  6
CONTINUOUS
 10
12.3216758325
 20
-30.1673687893
 40
0.9907503628
100
AcDbArc
 50
121.2775119091
 51
124.9094328333
  0
ARC
  5
35B
100
AcDbEntity
  8
RACCORDO
100
AcDbCircle
 62
7
  6
CONTINUOUS
 10
11.2312291249
 20
-26.6071035439
 40
0.2997390266
100
AcDbArc
 50
300.0151657664
 51
0.0004294262
  0
ARC
  5
35C
100
AcDbEntity
  8
RACCORDO
100
AcDbCircle
 62
253
  6
CONTINUOUS
 10
8.3732202671
 20
78.7204163252
 40
68.4239805422
100
AcDbArc
 50
230.756602687
 51
235.8595591804
  0
ARC
  5
35D
100
AcDbEntity
  8
RACCORDO
100
AcDbCircle
 62
253
  6
CONTINUOUS
 10
12.2145961184
 20
51.8088371769
 40
47.0621858685
100
AcDbArc
 50
177.2011854223
 51
177.4478142587
  0
ARC
  5
35E
100
AcDbEntity
  8
RACCORDO
100
AcDbCircle
 62
253
  6
CONTINUOUS
 10
9.4091052403
 20
51.917501868
 40
44.2546286536
100
AcDbArc
 50
177.4266206899
 51
178.4696265535
  0
SPLINE
  5
35F
100
AcDbEntity
  8
0
100
AcDbSpline
 62
253
  6
CONTINUOUS
 70
0
 71
3
 72
10
 73
6
 74
4
 42
0.0000001
 43
0.0000001
 44
0.0000000001
 12
-0.7848284672
 22
2.7759956598
 32
0.0
 13
-0.7209899131
 23
2.7932563741
 33
0.0
 40
0.0
 40
0.0
 40
0.0
 40
0.0
 40
0.3381746658
 40
0.6716148248
 40
1.0
 40
1.0
 40
1.0
 40
1.0
 10
6.5329729045
 20
-31.5176797456
 30
0.0
 10
6.444503203
 20
-31.2047559441
 30
0.0
 10
6.271250767
 20
-30.5825940481
 30
0.0
 10
6.0204828946
 20
-29.6542566172
 30
0.0
 10
5.8591575218
 20
-29.0386235506
 30
0.0
 10
5.7802367222
 20
-28.7328688893
 30
0.0
 11
6.5329729045
 21
-31.5176797456
 31
0.0
 11
6.2712547837
 21
-30.5778726547
 31
0.0
 11
6.0203928411
 21
-29.6492501898
 31
0.0
 11
5.7802367222
 21
-28.7328688893
 31
0.0
  0
SPLINE
  5
360
100
AcDbEntity
  8
0
100
AcDbSpline
 62
253
  6
CONTINUOUS
 70
0
 71
3
 72
10
 73
6
 74
4
 42
0.0000001
 43
0.0000001
 44
0.0000000001
 12
-0.1099085356
 22
2.0054061119
 32
0.0
 13
-0.0683945434
 23
2.0072582017
 33
0.0
 40
0.0
 40
0.0
 40
0.0
 40
0.0
 40
0.4038421927
 40
0.8123152594
 40
1.0
 40
1.0
 40
1.0
 40
1.0
 10
7.7852411928
 20
-32.1431797585
 30
0.0
 10
7.7704459582
 20
-31.8732238913
 30
0.0
 10
7.7429689137
 20
-31.3300885657
 30
0.0
 10
7.7147891179
 20
-30.6612028023
 30
0.0
 10
7.7004347932
 20
-30.2623476729
 30
0.0
 10
7.6961559225
 20
-30.136770428
 30
0.0
 11
7.7852411928
 21
-32.1431797585
 31
0.0
 11
7.7442590621
 21
-31.3331327921
 31
0.0
 11
7.7097153247
 21
-30.5134766643
 31
0.0
 11
7.6961559225
 21
-30.136770428
 31
0.0
  0
SPLINE
  5
361
100
AcDbEntity
  8
0
100
AcDbSpline
 62
253
  6
CONTINUOUS
 70
0
 71
3
 72
10
 73
6
 74
4
 42
0.0000001
 43
0.0000001
 44
0.0000000001
 12
0.072583284
 22
-2.4607337852
 32
0.0
 13
0.1349170848
 23
-2.4581042441
 33
0.0
 40
0.0
 40
0.0
 40
0.0
 40
0.0
 40
0.3373812569
 40
0.6706995621
 40
1.0
 40
1.0
 40
1.0
 40
1.0
 10
8.1100328151
 20
-29.8974513273
 30
0.0
 10
8.1181955616
 20
-30.1741864798
 30
0.0
 10
8.1367034463
 20
-30.7242599417
 30
0.0
 10
8.1712376012
 20
-31.5441432181
 30
0.0
 10
8.1987349576
 20
-32.0872011275
 30
0.0
 10
8.213544376
 20
-32.3570193955
 30
0.0
 11
8.1100328151
 21
-29.8974513273
 31
0.0
 11
8.1379932422
 21
-30.7275470989
 31
0.0
 11
8.1725439817
 21
-31.547383726
 31
0.0
 11
8.213544376
 21
-32.3570193955
 31
0.0
  0
SPLINE
  5
362
100
AcDbEntity
  8
0
100
AcDbSpline
 62
253
  6
CONTINUOUS
 70
0
 71
3
 72
10
 73
6
 74
4
 42
0.0000001
 43
0.0000001
 44
0.0000000001
 12
-0.0311146016
 22
-1.556260805
 32
0.0
 13
-0.0049232229
 23
-1.556564028
 33
0.0
 40
0.0
 40
0.0
 40
0.0
 40
0.0
 40
0.3322699152
 40
0.6656094785
 40
1.0
 40
1.0
 40
1.0
 40
1.0
 10
8.8720720825
 20
-31.1202170744
 30
0.0
 10
8.8686259338
 20
-31.2925832896
 30
0.0
 10
8.862659433
 20
-31.6378901466
 30
0.0
 10
8.8565866693
 20
-32.1567143546
 30
0.0
 10
8.8544985301
 20
-32.5031669323
 30
0.0
 10
8.8539497704
 20
-32.676667018
 30
0.0
 11
8.8720720825
 21
-31.1202170744
 31
0.0
 11
8.8631485792
 21
-31.6373420728
 31
0.0
 11
8.8570832119
 21
-32.1561735892
 31
0.0
 11
8.8539497704
 21
-32.676667018
 31
0.0
  0
SPLINE
  5
363
100
AcDbEntity
  8
0
100
AcDbSpline
 62
253
  6
CONTINUOUS
 70
0
 71
3
 72
10
 73
6
 74
4
 42
0.0000001
 43
0.0000001
 44
0.0000000001
 12
0.2653324861
 22
-2.5587884841
 32
0.0
 13
0.3252866763
 23
-2.5518597948
 33
0.0
 40
0.0
 40
0.0
 40
0.0
 40
0.0
 40
0.3284546109
 40
0.6617996983
 40
1.0
 40
1.0
 40
1.0
 40
1.0
 10
10.2310971489
 20
-30.9551636642
 30
0.0
 10
10.2601470417
 20
-31.2353122895
 30
0.0
 10
10.3207611673
 20
-31.7995673195
 30
0.0
 10
10.418810233
 20
-32.6514538526
 30
0.0
 10
10.4892174714
 20
-33.2229934073
 30
0.0
 10
10.5258881554
 20
-33.5106733248
 30
0.0
 11
10.2310971489
 21
-30.9551636642
 31
0.0
 11
10.3213661925
 21
-31.7952802255
 31
0.0
 11
10.419458459
 21
-32.6471844796
 31
0.0
 11
10.5258881554
 21
-33.5106733248
 31
0.0
  0
SPLINE
  5
364
100
AcDbEntity
  8
0
100
AcDbSpline
 62
253
  6
CONTINUOUS
 70
0
 71
3
 72
10
 73
6
 74
4
 42
0.0000001
 43
0.0000001
 44
0.0000000001
 12
-0.4456066292
 22
-1.3389145636
 32
0.0
 13
-0.4258408812
 23
-1.3453315652
 33
0.0
 40
0.0
 40
0.0
 40
0.0
 40
0.0
 40
0.3320491157
 40
0.665419049
 40
1.0
 40
1.0
 40
1.0
 40
1.0
 10
9.9451296523
 20
-31.6615176582
 30
0.0
 10
9.8958085566
 20
-31.8097127905
 30
0.0
 10
9.7976235741
 20
-32.1069105695
 30
0.0
 10
9.6521958271
 20
-32.5542395652
 30
0.0
 10
9.5565856722
 20
-32.8535265438
 30
0.0
 10
9.5090929232
 20
-33.0035673153
 30
0.0
 11
9.9451296523
 21
-31.6615176582
 31
0.0
 11
9.7981707103
 21
-32.1064360539
 31
0.0
 11
9.6527526677
 21
-32.5538206903
 31
0.0
 11
9.5090929232
 21
-33.0035673153
 31
0.0
  0
SPLINE
  5
365
100
AcDbEntity
  8
0
100
AcDbSpline
 62
253
  6
CONTINUOUS
 70
0
 71
3
 72
14
 73
10
 74
8
 42
0.0000001
 43
0.0000001
 44
0.0000000001
 12
1.1462809354
 22
-0.3718409813
 32
0.0
 13
0.8921369739
 23
-0.8101341358
 33
0.0
 40
0.0
 40
0.0
 40
0.0
 40
0.0
 40
0.2319917956
 40
0.3492563236
 40
0.4679398498
 40
0.586979516
 40
0.7117703404
 40
0.8488109591
 40
1.0
 40
1.0
 40
1.0
 40
1.0
 10
12.529093239
 20
-32.1326537792
 30
0.0
 10
12.6177358298
 20
-32.1614084648
 30
0.0
 10
12.7504455458
 20
-32.2071956454
 30
0.0
 10
12.9247533526
 20
-32.27765765
 30
0.0
 10
13.0546897258
 20
-32.3365131223
 30
0.0
 10
13.1844256798
 20
-32.4027695303
 30
0.0
 10
13.3170789946
 20
-32.4791384768
 30
0.0
 10
13.4556083403
 20
-32.5706925794
 30
0.0
 10
13.5459256854
 20
-32.6435856975
 30
0.0
 10
13.5908861299
 20
-32.6844134985
 30
0.0
 11
12.529093239
 21
-32.1326537792
 31
0.0
 11
12.7928870985
 21
-32.2252381586
 31
0.0
 11
12.9238477151
 21
-32.2783307968
 31
0.0
 11
13.0540763286
 21
-32.3374598003
 31
0.0
 11
13.181810179
 21
-32.4027494906
 31
0.0
 11
13.3120462462
 21
-32.477940676
 31
0.0
 11
13.4494259459
 21
-32.5695911381
 31
0.0
 11
13.5908861299
 21
-32.6844134985
 31
0.0
  0
SPLINE
  5
366
100
AcDbEntity
  8
0
100
AcDbSpline
 62
253
  6
CONTINUOUS
 70
0
 71
3
 72
10
 73
6
 74
4
 42
0.0000001
 43
0.0000001
 44
0.0000000001
 12
-0.9568499806
 22
0.868554332
 32
0.0
 13
-1.2317346741
 23
0.390868527
 33
0.0
 40
0.0
 40
0.0
 40
0.0
 40
0.0
 40
0.3302925957
 40
0.6612977496
 40
1.0
 40
1.0
 40
1.0
 40
1.0
 10
13.9632315562
 20
-32.4502278435
 30
0.0
 10
13.8578847349
 20
-32.3546021552
 30
0.0
 10
13.6215951493
 20
-32.1911400552
 30
0.0
 10
13.2333251517
 20
-32.0025241218
 30
0.0
 10
12.9600989714
 20
-31.9083564357
 30
0.0
 10
12.8210352027
 20
-31.8642270858
 30
0.0
 11
13.9632315562
 21
-32.4502278435
 31
0.0
 11
13.6167426561
 21
-32.2009780348
 31
0.0
 11
13.2330893943
 21
-32.0118296764
 31
0.0
 11
12.8210352027
 21
-31.8642270858
 31
0.0
  0
SPLINE
  5
367
100
AcDbEntity
  8
0
100
AcDbSpline
 62
253
  6
CONTINUOUS
 70
0
 71
3
 72
15
 73
11
 74
9
 42
0.0000001
 43
0.0000001
 44
0.0000000001
 12
1.4381032055
 22
0.6154925842
 32
0.0
 13
-1.1582619971
 23
1.0513805671
 33
0.0
 40
0.0
 40
0.0
 40
0.0
 40
0.0
 40
0.0997817534
 40
0.2056158926
 40
0.321325989
 40
0.446970223
 40
0.5803967569
 40
0.7213059321
 40
0.8624779632
 40
1.0
 40
1.0
 40
1.0
 40
1.0
 10
14.1513826262
 20
-33.8301659979
 30
0.0
 10
14.1992147793
 20
-33.8096943548
 30
0.0
 10
14.285842986
 20
-33.7366847535
 30
0.0
 10
14.3525985559
 20
-33.5790220281
 30
0.0
 10
14.3730201023
 20
-33.3977081455
 30
0.0
 10
14.3589764153
 20
-33.2018561257
 30
0.0
 10
14.3092063605
 20
-32.9984155466
 30
0.0
 10
14.225555713
 20
-32.7974847623
 30
0.0
 10
14.1101806704
 20
-32.6109444252
 30
0.0
 10
14.0163270725
 20
-32.4984238425
 30
0.0
 10
13.9632315562
 20
-32.4502278435
 30
0.0
 11
14.1513826262
 21
-33.8301659979
 31
0.0
 11
14.272951953
 21
-33.7322684689
 31
0.0
 11
14.3430171721
 21
-33.5822715769
 31
0.0
 11
14.3670941293
 21
-33.4028770876
 31
0.0
 11
14.3539691467
 21
-33.206773052
 31
0.0
 11
14.3051477557
 21
-33.0038468773
 31
0.0
 11
14.2204251401
 21
-32.8003581192
 31
0.0
 11
14.1047577226
 21
-32.6122409224
 31
0.0
 11
13.9632315562
 21
-32.4502278435
 31
0.0
  0
SPLINE
  5
368
100
AcDbEntity
  8
0
100
AcDbSpline
 62
253
  6
CONTINUOUS
 70
0
 71
3
 72
28
 73
24
 74
22
 42
0.0000001
 43
0.0000001
 44
0.0000000001
 12
1.104246875
 22
-1.0027474637
 32
0.0
 13
-1.4843162426
 23
-0.1472036982
 33
0.0
 40
0.0
 40
0.0
 40
0.0
 40
0.0
 40
0.0470494238
 40
0.0961803298
 40
0.147018905
 40
0.1994855364
 40
0.2540796031
 40
0.3106051704
 40
0.3680009738
 40
0.4252229319
 40
0.4826350267
 40
0.5401849058
 40
0.6500975148
 40
0.7020818065
 40
0.7524533665
 40
0.7996313687
 40
0.8427657216
 40
0.8827090554
 40
0.9212768597
 40
0.9404899861
 40
0.9598813089
 40
0.9796488146
 40
1.0
 40
1.0
 40
1.0
 40
1.0
 10
13.5908861299
 20
-32.6844134985
 30
0.0
 10
13.6082041896
 20
-32.7001397287
 30
0.0
 10
13.6418146157
 20
-32.7342845063
 30
0.0
 10
13.6886222027
 20
-32.7904982557
 30
0.0
 10
13.7334600694
 20
-32.8516566617
 30
0.0
 10
13.7762132875
 20
-32.9175542184
 30
0.0
 10
13.8162529981
 20
-32.9884152871
 30
0.0
 10
13.8525713515
 20
-33.0639919082
 30
0.0
 10
13.8841550873
 20
-33.1430767303
 30
0.0
 10
13.9104657886
 20
-33.2245294468
 30
0.0
 10
13.9310342255
 20
-33.3077177662
 30
0.0
 10
13.9496668408
 20
-33.4180317744
 30
0.0
 10
13.9553504547
 20
-33.5275938659
 30
0.0
 10
13.9466649468
 20
-33.6329114836
 30
0.0
 10
13.9325791845
 20
-33.7061040067
 30
0.0
 10
13.9099825335
 20
-33.772594347
 30
0.0
 10
13.8790383361
 20
-33.8298735389
 30
0.0
 10
13.8407666132
 20
-33.8771822422
 30
0.0
 10
13.8027384952
 20
-33.908104363
 30
0.0
 10
13.7692175073
 20
-33.9269260459
 30
0.0
 10
13.7423674887
 20
-33.9381265287
 30
0.0
 10
13.7138379053
 20
-33.9462178441
 30
0.0
 10
13.694080911
 20
-33.9493431957
 30
0.0
 10
13.6840117127
 20
-33.9503417856
 30
0.0
 11
13.5908861299
 21
-32.6844134985
 31
0.0
 11
13.6403720465
 21
-32.7341750261
 31
0.0
 11
13.6874933203
 21
-32.7903004533
 31
0.0
 11
13.7323962672
 21
-32.8514070858
 31
0.0
 11
13.7749687309
 21
-32.917073462
 31
0.0
 11
13.8149958785
 21
-32.987989331
 31
0.0
 11
13.8515150767
 21
-33.0639833994
 31
0.0
 11
13.8832788577
 21
-33.1434842302
 31
0.0
 11
13.9094802175
 21
-33.2247152374
 31
0.0
 11
13.9299684306
 21
-33.3078639858
 31
0.0
 11
13.9442016917
 21
-33.3925170261
 31
0.0
 11
13.9518648616
 21
-33.5562832239
 31
0.0
 11
13.9451922695
 21
-33.6335352379
 31
0.0
 11
13.9305506968
 21
-33.7072289121
 31
0.0
 11
13.9074367187
 21
-33.7736951831
 31
0.0
 11
13.8765546417
 21
-33.8301382269
 31
0.0
 11
13.8388194839
 21
-33.8762442012
 31
0.0
 11
13.7940425317
 21
-33.9123614377
 31
0.0
 11
13.769049967
 21
-33.9263852484
 31
0.0
 11
13.7423539813
 21
-33.9375174154
 31
0.0
 11
13.7139905663
 21
-33.9455729528
 31
0.0
 11
13.6840117127
 21
-33.9503417856
 31
0.0
  0
SPLINE
  5
369
100
AcDbEntity
  8
0
100
AcDbSpline
 62
253
  6
CONTINUOUS
 70
0
 71
3
 72
10
 73
6
 74
4
 42
0.0000001
 43
0.0000001
 44
0.0000000001
 12
-0.4648087271
 22
-0.1299081068
 32
0.0
 13
-0.4709912605
 23
-0.1053114504
 33
0.0
 40
0.0
 40
0.0
 40
0.0
 40
0.0
 40
0.336092079
 40
0.6694144809
 40
1.0
 40
1.0
 40
1.0
 40
1.0
 10
14.1513826262
 20
-33.8301659979
 30
0.0
 10
14.0993097823
 20
-33.8447196932
 30
0.0
 10
13.9954666904
 20
-33.8732604629
 30
0.0
 10
13.8397898812
 20
-33.9138403445
 30
0.0
 10
13.7359126761
 20
-33.9387369721
 30
0.0
 10
13.6840117127
 20
-33.9503417856
 30
0.0
 11
14.1513826262
 21
-33.8301659979
 31
0.0
 11
13.9949439735
 21
-33.8730316945
 31
0.0
 11
13.839232199
 21
-33.9134360144
 31
0.0
 11
13.6840117127
 21
-33.9503417856
 31
0.0
  0
SPLINE
  5
36A
100
AcDbEntity
  8
0
100
AcDbSpline
 62
253
  6
CONTINUOUS
 70
0
 71
3
 72
10
 73
6
 74
4
 42
0.0000001
 43
0.0000001
 44
0.0000000001
 12
-0.1508205288
 22
0.595770632
 32
0.0
 13
-0.3568369685
 23
0.5003567284
 33
0.0
 40
0.0
 40
0.0
 40
0.0
 40
0.0
 40
0.3416469755
 40
0.6785083828
 40
1.0
 40
1.0
 40
1.0
 40
1.0
 10
14.3690280013
 20
-34.4012700152
 30
0.0
 10
14.3518522088
 20
-34.3334222704
 30
0.0
 10
14.3193796866
 20
-34.198243395
 30
0.0
 10
14.2543203762
 20
-34.0035054053
 30
0.0
 10
14.1896226575
 20
-33.8837861625
 30
0.0
 10
14.1513826262
 20
-33.8301659979
 30
0.0
 11
14.3690280013
 21
-34.4012700152
 31
0.0
 11
14.3161916618
 21
-34.198062633
 31
0.0
 11
14.2475957811
 21
-34.0027343243
 31
0.0
 11
14.1513826262
 21
-33.8301659979
 31
0.0
  0
SPLINE
  5
36B
100
AcDbEntity
  8
0
100
AcDbSpline
 62
253
  6
CONTINUOUS
 70
0
 71
3
 72
13
 73
9
 74
7
 42
0.0000001
 43
0.0000001
 44
0.0000000001
 12
-0.224176645
 22
0.8358631969
 32
0.0
 13
-0.2615363909
 23
0.8249370693
 33
0.0
 40
0.0
 40
0.0
 40
0.0
 40
0.0
 40
0.1640486886
 40
0.3290103656
 40
0.4945662823
 40
0.6609375513
 40
0.8291047695
 40
1.0
 40
1.0
 40
1.0
 40
1.0
 10
13.7246754987
 20
-35.0983762897
 30
0.0
 10
13.7124168705
 20
-35.0526688692
 30
0.0
 10
13.6876106107
 20
-34.961059059
 30
0.0
 10
13.6502624381
 20
-34.8233678212
 30
0.0
 10
13.6135414221
 20
-34.6848140375
 30
0.0
 10
13.5773008189
 20
-34.5451788672
 30
0.0
 10
13.5391673001
 20
-34.4044477406
 30
0.0
 10
13.5113295394
 20
-34.3106644715
 30
0.0
 10
13.4964310988
 20
-34.263671868
 30
0.0
 11
13.7246754987
 21
-35.0983762897
 31
0.0
 11
13.6876695961
 21
-34.9613159255
 31
0.0
 11
13.6504402929
 21
-34.8234974851
 31
0.0
 11
13.6137201187
 21
-34.6850104253
 31
0.0
 11
13.5771844378
 21
-34.5457449684
 31
0.0
 11
13.538818043
 21
-34.4053608296
 31
0.0
 11
13.4964310988
 21
-34.263671868
 31
0.0
  0
SPLINE
  5
36C
100
AcDbEntity
  8
0
100
AcDbSpline
 62
253
  6
CONTINUOUS
 70
0
 71
3
 72
11
 73
7
 74
5
 42
0.0000001
 43
0.0000001
 44
0.0000000001
 12
-0.0335666398
 22
0.1058757651
 32
0.0
 13
-0.0488329427
 23
0.0997710779
 33
0.0
 40
0.0
 40
0.0
 40
0.0
 40
0.0
 40
0.3165634671
 40
0.6389895287
 40
0.9667961336
 40
1.0
 40
1.0
 40
1.0
 40
1.0
 10
13.4964311209
 20
-34.2636718688
 30
0.0
 10
13.4928891302
 20
-34.2524997357
 30
0.0
 10
13.4851706337
 20
-34.2301252481
 30
0.0
 10
13.471906447
 20
-34.1968665982
 30
0.0
 10
13.4614381918
 20
-34.1738201314
 30
0.0
 10
13.455591065
 20
-34.161799674
 30
0.0
 10
13.4550505842
 20
-34.1606954121
 30
0.0
 11
13.4964311209
 21
-34.2636718688
 31
0.0
 11
13.4849841684
 21
-34.2304269056
 31
0.0
 11
13.4717248839
 21
-34.1971603233
 31
0.0
 11
13.4566639559
 21
-34.1640121295
 31
0.0
 11
13.4550505842
 21
-34.1606954121
 31
0.0
  0
SPLINE
  5
36D
100
AcDbEntity
  8
0
100
AcDbSpline
 62
253
  6
CONTINUOUS
 70
0
 71
3
 72
17
 73
13
 74
11
 42
0.0000001
 43
0.0000001
 44
0.0000000001
 12
0.4680261463
 22
-0.4992447552
 32
0.0
 13
0.1677814552
 23
-0.6634328772
 33
0.0
 40
0.0
 40
0.0
 40
0.0
 40
0.0
 40
0.0539531966
 40
0.1111983133
 40
0.1719832018
 40
0.2359510558
 40
0.3031747153
 40
0.3733641128
 40
0.5215571975
 40
0.6763194047
 40
0.8355573162
 40
1.0
 40
1.0
 40
1.0
 40
1.0
 10
13.6840117127
 20
-33.9503417856
 30
0.0
 10
13.6924288816
 20
-33.9593204024
 30
0.0
 10
13.7095445423
 20
-33.9780462193
 30
0.0
 10
13.7349740577
 20
-34.0079325191
 30
0.0
 10
13.7603149344
 20
-34.0408465024
 30
0.0
 10
13.7847232831
 20
-34.0772425463
 30
0.0
 10
13.807897738
 20
-34.1169369174
 30
0.0
 10
13.8374395325
 20
-34.175038191
 30
0.0
 10
13.8698693867
 20
-34.2538867329
 30
0.0
 10
13.9022069035
 20
-34.35430225
 30
0.0
 10
13.9303904899
 20
-34.4597595129
 30
0.0
 10
13.9479436785
 20
-34.5314754031
 30
0.0
 10
13.9571404895
 20
-34.567840964
 30
0.0
 11
13.6840117127
 21
-33.9503417856
 31
0.0
 11
13.7088792191
 21
-33.9776325487
 31
0.0
 11
13.7342112486
 21
-34.0075137911
 31
0.0
 11
13.7595135359
 21
-34.0405296575
 31
0.0
 11
13.783933031
 21
-34.0768599928
 31
0.0
 11
13.8071735749
 21
-34.1165601987
 31
0.0
 11
13.8289983765
 21
-34.1593474814
 31
0.0
 11
13.8680701819
 21
-34.252929976
 31
0.0
 11
13.9010502407
 21
-34.353570823
 31
0.0
 11
13.9297175075
 21
-34.4587020698
 31
0.0
 11
13.9571404895
 21
-34.567840964
 31
0.0
  0
SPLINE
  5
36E
100
AcDbEntity
  8
0
100
AcDbSpline
 62
253
  6
CONTINUOUS
 70
0
 71
3
 72
23
 73
19
 74
17
 42
0.0000001
 43
0.0000001
 44
0.0000000001
 12
0.4691474381
 22
-0.2200903226
 32
0.0
 13
-0.0270500452
 23
0.5175010761
 33
0.0
 40
0.0
 40
0.0
 40
0.0
 40
0.0
 40
0.1006230002
 40
0.1934402203
 40
0.2780592803
 40
0.3547995122
 40
0.3906273046
 40
0.4250938118
 40
0.4586191923
 40
0.4917283883
 40
0.5586516769
 40
0.6297904867
 40
0.6679715914
 40
0.7082370317
 40
0.7508107098
 40
0.7958112878
 40
0.8931623555
 40
1.0
 40
1.0
 40
1.0
 40
1.0
 10
13.2282526979
 20
-33.5275701003
 30
0.0
 10
13.2439883722
 20
-33.5349521499
 30
0.0
 10
13.2747603326
 20
-33.5480796448
 30
0.0
 10
13.3205267743
 20
-33.5629193801
 30
0.0
 10
13.3636745131
 20
-33.5716272745
 30
0.0
 10
13.3979033024
 20
-33.573247129
 30
0.0
 10
13.4231981562
 20
-33.5704631255
 30
0.0
 10
13.4407136714
 20
-33.5664020641
 30
0.0
 10
13.4571079124
 20
-33.5602126589
 30
0.0
 10
13.47733108
 20
-33.5489542544
 30
0.0
 10
13.4997662609
 20
-33.5290996901
 30
0.0
 10
13.5169537005
 20
-33.5036319759
 30
0.0
 10
13.5278535306
 20
-33.4801659511
 30
0.0
 10
13.5346832028
 20
-33.4603712314
 30
0.0
 10
13.5400180517
 20
-33.4389186111
 30
0.0
 10
13.5453830748
 20
-33.407404021
 30
0.0
 10
13.5484587927
 20
-33.3643734158
 30
0.0
 10
13.5477553987
 20
-33.3290740762
 30
0.0
 10
13.5467920777
 20
-33.3106445442
 30
0.0
 11
13.2282526979
 21
-33.5275701003
 31
0.0
 11
13.2762907213
 21
-33.5478507119
 31
0.0
 11
13.3221267894
 21
-33.5624290761
 31
0.0
 11
13.3651819563
 21
-33.5707414648
 31
0.0
 11
13.4049239126
 21
-33.5721628924
 31
0.0
 11
13.4233716714
 21
-33.5700688083
 31
0.0
 11
13.4407579395
 21
-33.5659790631
 31
0.0
 11
13.4569942749
 21
-33.5597979464
 31
0.0
 11
13.4719879817
 21
-33.551457302
 31
0.0
 11
13.4981254612
 21
-33.5286637674
 31
0.0
 11
13.5190264611
 21
-33.4982968117
 31
0.0
 11
13.5273962751
 21
-33.4803685771
 31
0.0
 11
13.5342651688
 21
-33.4606657291
 31
0.0
 11
13.5396535324
 21
-33.4392718643
 31
0.0
 11
13.5436271636
 21
-33.4162932691
 31
0.0
 11
13.5476089284
 21
-33.3660025923
 31
0.0
 11
13.5467920777
 21
-33.3106445442
 31
0.0
  0
SPLINE
  5
36F
100
AcDbEntity
  8
0
100
AcDbSpline
 62
253
  6
CONTINUOUS
 70
0
 71
3
 72
10
 73
6
 74
4
 42
0.0000001
 43
0.0000001
 44
0.0000000001
 12
-0.0028080477
 22
0.0537214529
 32
0.0
 13
-0.0096334658
 23
0.0529300476
 33
0.0
 40
0.0
 40
0.0
 40
0.0
 40
0.0
 40
0.3922544843
 40
0.7904364588
 40
1.0
 40
1.0
 40
1.0
 40
1.0
 10
13.5467920871
 20
-33.3106445486
 30
0.0
 10
13.5464249307
 20
-33.3036203883
 30
0.0
 10
13.5452734382
 20
-33.2894849842
 30
0.0
 10
13.5428987628
 20
-33.2717046625
 30
0.0
 10
13.541072888
 20
-33.2609591224
 30
0.0
 10
13.5403999469
 20
-33.2572617197
 30
0.0
 11
13.5467920871
 21
-33.3106445486
 31
0.0
 11
13.5451033991
 21
-33.2896109798
 31
0.0
 11
13.5422865878
 21
-33.2683768808
 31
0.0
 11
13.5403999469
 21
-33.2572617197
 31
0.0
  0
SPLINE
  5
370
100
AcDbEntity
  8
0
100
AcDbSpline
 62
253
  6
CONTINUOUS
 70
0
 71
3
 72
11
 73
7
 74
5
 42
0.0000001
 43
0.0000001
 44
0.0000000001
 12
-0.3133196107
 22
0.1973436376
 32
0.0
 13
-0.3551690035
 23
0.1047314119
 33
0.0
 40
0.0
 40
0.0
 40
0.0
 40
0.0
 40
0.2712464755
 40
0.527066713
 40
0.7689905397
 40
1.0
 40
1.0
 40
1.0
 40
1.0
 10
13.29156827
 20
-32.8824563679
 30
0.0
 10
13.2632393233
 20
-32.8646134459
 30
0.0
 10
13.2070405771
 20
-32.8317239547
 30
0.0
 10
13.1219185335
 20
-32.7895613248
 30
0.0
 10
13.038476099
 20
-32.7557101337
 30
0.0
 10
12.982778452
 20
-32.7380926111
 30
0.0
 10
12.9554293187
 20
-32.7300279621
 30
0.0
 11
13.29156827
 21
-32.8824563679
 31
0.0
 11
13.2048279207
 21
-32.831818402
 31
0.0
 11
13.1198797476
 21
-32.7899009193
 31
0.0
 11
13.0368216775
 21
-32.7563415864
 31
0.0
 11
12.9554293187
 21
-32.7300279621
 31
0.0
  0
SPLINE
  5
371
100
AcDbEntity
  8
0
100
AcDbSpline
 62
253
  6
CONTINUOUS
 70
0
 71
3
 72
10
 73
6
 74
4
 42
0.0000001
 43
0.0000001
 44
0.0000000001
 12
0.0518667207
 22
2.2134466523
 32
0.0
 13
0.104314608
 23
2.2115912576
 33
0.0
 40
0.0
 40
0.0
 40
0.0
 40
0.0
 40
0.2890628464
 40
0.6456582006
 40
1.0
 40
1.0
 40
1.0
 40
1.0
 10
8.4476200138
 20
-32.3177632448
 30
0.0
 10
8.4526175945
 20
-32.1044881816
 30
0.0
 10
8.4654527341
 20
-31.6281490904
 30
0.0
 10
8.4910826794
 20
-30.8905694993
 30
0.0
 10
8.5136974614
 20
-30.3663665941
 30
0.0
 10
8.52601847
 20
-30.1051468522
 30
0.0
 11
8.4476200138
 21
-32.3177632448
 31
0.0
 11
8.4648544787
 21
-31.6779947014
 31
0.0
 11
8.4922457877
 21
-30.8889500503
 31
0.0
 11
8.52601847
 21
-30.1051468522
 31
0.0
  0
SPLINE
  5
372
100
AcDbEntity
  8
0
100
AcDbSpline
 62
253
  6
CONTINUOUS
 70
0
 71
3
 72
10
 73
6
 74
4
 42
0.0000001
 43
0.0000001
 44
0.0000000001
 12
-0.2766602891
 22
2.2341134693
 32
0.0
 13
-0.2311012922
 23
2.2392757365
 33
0.0
 40
0.0
 40
0.0
 40
0.0
 40
0.0
 40
0.1981962197
 40
0.6023651999
 40
1.0
 40
1.0
 40
1.0
 40
1.0
 10
10.8931312031
 20
-32.968653285
 30
0.0
 10
10.8748535286
 20
-32.8210556703
 30
0.0
 10
10.8202561299
 20
-32.3723531704
 30
0.0
 10
10.7343033391
 20
-31.6268946775
 30
0.0
 10
10.6701953883
 20
-31.0286469158
 30
0.0
 10
10.6395640829
 20
-30.7318422625
 30
0.0
 11
10.8931312031
 21
-32.968653285
 31
0.0
 11
10.839230723
 21
-32.5257461572
 31
0.0
 11
10.7349637148
 21
-31.6218874422
 31
0.0
 11
10.6395640829
 21
-30.7318422625
 31
0.0
  0
SPLINE
  5
373
100
AcDbEntity
  8
0
100
AcDbSpline
 62
253
  6
CONTINUOUS
 70
0
 71
3
 72
10
 73
6
 74
4
 42
0.0000001
 43
0.0000001
 44
0.0000000001
 12
0.5172225934
 22
2.143979393
 32
0.0
 13
0.5611969158
 23
2.1328911998
 33
0.0
 40
0.0
 40
0.0
 40
0.0
 40
0.0
 40
0.3396601318
 40
0.6734166277
 40
1.0
 40
1.0
 40
1.0
 40
1.0
 10
10.7348328946
 20
-33.6148285683
 30
0.0
 10
10.7933928594
 20
-33.3720871272
 30
0.0
 10
10.9114746937
 20
-32.8912990743
 30
0.0
 10
11.0919508267
 20
-32.178629085
 30
0.0
 10
11.2141026935
 20
-31.70878811
 30
0.0
 10
11.2751952206
 20
-31.4765991764
 30
0.0
 11
10.7348328946
 21
-33.6148285683
 31
0.0
 11
10.9133885349
 21
-32.8873040165
 31
0.0
 11
11.0940057276
 21
-32.1737120421
 31
0.0
 11
11.2751952206
 21
-31.4765991764
 31
0.0
  0
SPLINE
  5
374
100
AcDbEntity
  8
0
100
AcDbSpline
 62
253
  6
CONTINUOUS
 70
0
 71
3
 72
10
 73
6
 74
4
 42
0.0000001
 43
0.0000001
 44
0.0000000001
 12
-0.1333534147
 22
2.426993197
 32
0.0
 13
-0.0797990835
 23
2.4293437833
 33
0.0
 40
0.0
 40
0.0
 40
0.0
 40
0.0
 40
0.3456948971
 40
0.6794728351
 40
1.0
 40
1.0
 40
1.0
 40
1.0
 10
12.6362676585
 20
-34.5609010853
 30
0.0
 10
12.6209011268
 20
-34.2812346975
 30
0.0
 10
12.5927459434
 20
-33.7314279764
 30
0.0
 10
12.5571223318
 20
-32.9219874907
 30
0.0
 10
12.5376191636
 20
-32.392210671
 30
0.0
 10
12.529093239
 20
-32.1326537792
 30
0.0
 11
12.6362676585
 21
-34.5609010853
 31
0.0
 11
12.593274561
 21
-33.7217369997
 31
0.0
 11
12.5576406016
 21
-32.9112212403
 31
0.0
 11
12.529093239
 21
-32.1326537792
 31
0.0
  0
SPLINE
  5
375
100
AcDbEntity
  8
0
100
AcDbSpline
 62
253
  6
CONTINUOUS
 70
0
 71
3
 72
11
 73
7
 74
5
 42
0.0000001
 43
0.0000001
 44
0.0000000001
 12
-0.0860954615
 22
0.0892629498
 32
0.0
 13
-0.1049148439
 23
0.0660803736
 33
0.0
 40
0.0
 40
0.0
 40
0.0
 40
0.0
 40
0.0492005514
 40
0.3762424971
 40
0.6931791932
 40
1.0
 40
1.0
 40
1.0
 40
1.0
 10
13.3870349051
 20
-32.9611601057
 30
0.0
 10
13.3856229237
 20
-32.9596961769
 30
0.0
 10
13.3747668427
 20
-32.9485576861
 30
0.0
 10
13.3539472065
 20
-32.9288410965
 30
0.0
 10
13.3234996876
 20
-32.9039441457
 30
0.0
 10
13.302298289
 20
-32.8892146456
 30
0.0
 10
13.29156827
 20
-32.8824563677
 30
0.0
 11
13.3870349051
 21
-32.9611601057
 31
0.0
 11
13.3827760648
 21
-32.956790525
 31
0.0
 11
13.3533135024
 21
-32.9289287616
 31
0.0
 11
13.3228590256
 21
-32.9040933098
 31
0.0
 11
13.29156827
 21
-32.8824563677
 31
0.0
  0
SPLINE
  5
376
100
AcDbEntity
  8
0
100
AcDbSpline
 62
253
  6
CONTINUOUS
 70
0
 71
3
 72
16
 73
12
 74
10
 42
0.0000001
 43
0.0000001
 44
0.0000000001
 12
-0.060549084
 22
0.3326804676
 32
0.0
 13
-0.2347771031
 23
0.2434146515
 33
0.0
 40
0.0
 40
0.0
 40
0.0
 40
0.0
 40
0.0307703667
 40
0.0954995375
 40
0.2263621407
 40
0.3586570124
 40
0.4934629149
 40
0.6300522626
 40
0.7647840788
 40
0.894229883
 40
1.0
 40
1.0
 40
1.0
 40
1.0
 10
13.5403999469
 20
-33.2572617197
 30
0.0
 10
13.5397789078
 20
-33.2538494864
 30
0.0
 10
13.5377368738
 20
-33.2432800584
 30
0.0
 10
13.5320926248
 20
-33.2183934904
 30
0.0
 10
13.5217172322
 20
-33.1828821288
 30
0.0
 10
13.5059209895
 20
-33.1408611501
 30
0.0
 10
13.4867782782
 20
-33.0995385226
 30
0.0
 10
13.4643473677
 20
-33.0595806969
 30
0.0
 10
13.4390450593
 20
-33.0221054832
 30
0.0
 10
13.4131355845
 20
-32.9893902471
 30
0.0
 10
13.3953123723
 20
-32.9697421044
 30
0.0
 10
13.3870349051
 20
-32.9611601057
 30
0.0
 11
13.5403999469
 21
-33.2572617197
 31
0.0
 11
13.5384277882
 21
-33.24704573
 31
0.0
 11
13.5335979265
 21
-33.2256993718
 31
0.0
 11
13.5212387328
 21
-33.1832138441
 31
0.0
 11
13.5055143681
 21
-33.1413377947
 31
0.0
 11
13.4863397602
 21
-33.0999872293
 31
0.0
 11
13.4637013147
 21
-33.0597334134
 31
0.0
 11
13.4382371489
 21
-33.0219600339
 31
0.0
 11
13.4110686608
 21
-32.9876455991
 31
0.0
 11
13.3870349051
 21
-32.9611601057
 31
0.0
  0
SPLINE
  5
377
100
AcDbEntity
  8
0
100
AcDbSpline
 62
253
  6
CONTINUOUS
 70
0
 71
3
 72
16
 73
12
 74
10
 42
0.0000001
 43
0.0000001
 44
0.0000000001
 12
-0.1396802136
 22
0.2853820537
 32
0.0
 13
-0.2847445189
 23
0.1409019508
 33
0.0
 40
0.0
 40
0.0
 40
0.0
 40
0.0
 40
0.1047164422
 40
0.2240849136
 40
0.3454649808
 40
0.4652144129
 40
0.580174508
 40
0.6901374177
 40
0.7966688526
 40
0.8999506166
 40
1.0
 40
1.0
 40
1.0
 40
1.0
 10
13.4550505842
 20
-34.1606954121
 30
0.0
 10
13.4501749792
 20
-34.1507340143
 30
0.0
 10
13.4392727003
 20
-34.1296468085
 30
0.0
 10
13.4208835731
 20
-34.0979987854
 30
0.0
 10
13.3998203697
 20
-34.0661299041
 30
0.0
 10
13.3770079124
 20
-34.0360648992
 30
0.0
 10
13.3528206322
 20
-34.008676481
 30
0.0
 10
13.3274578599
 20
-33.9843538651
 30
0.0
 10
13.3011637021
 20
-33.9629527167
 30
0.0
 10
13.2740374392
 20
-33.9444210425
 30
0.0
 10
13.2552123406
 20
-33.9338894191
 30
0.0
 10
13.2457161694
 20
-33.929190368
 30
0.0
 11
13.4550505842
 21
-34.1606954121
 31
0.0
 11
13.4397615522
 21
-34.1311476467
 31
0.0
 11
13.420683004
 21
-34.0983729077
 31
0.0
 11
13.3993807488
 21
-34.0662284049
 31
0.0
 11
13.3763277364
 21
-34.0359641097
 31
0.0
 11
13.3520971456
 21
-34.0086366775
 31
0.0
 11
13.3268765242
 21
-33.9844626484
 31
0.0
 11
13.3006089401
 21
-33.9631203196
 31
0.0
 11
13.2734900299
 21
-33.9446479812
 31
0.0
 11
13.2457161694
 21
-33.929190368
 31
0.0
  0
SPLINE
  5
378
100
AcDbEntity
  8
RACCORDO
100
AcDbSpline
 62
7
  6
CONTINUOUS
 70
0
 71
3
 72
8
 73
4
 74
2
 42
0.0000001
 43
0.0000001
 44
0.0000000001
 12
0.0312414691
 22
-0.0235148582
 32
0.0
 13
0.0333653216
 23
-0.0202415785
 33
0.0
 40
0.0
 40
0.0
 40
0.0
 40
0.0
 40
1.0
 40
1.0
 40
1.0
 40
1.0
 10
-18.5748611965
 20
-12.9883324787
 30
0.0
 10
-18.5644473734
 20
-12.9961707647
 30
0.0
 10
-18.5536775563
 20
-13.0035321269
 30
0.0
 10
-18.5425557825
 20
-13.0102793197
 30
0.0
 11
-18.5748611965
 21
-12.9883324787
 31
0.0
 11
-18.5425557825
 21
-13.0102793197
 31
0.0
  0
SPLINE
  5
379
100
AcDbEntity
  8
0
100
AcDbSpline
 62
7
  6
CONTINUOUS
 70
0
 71
3
 72
13
 73
9
 74
7
 42
0.0000001
 43
0.0000001
 44
0.0000000001
 12
0.0
 22
-0.5883132625
 32
0.0
 13
0.5262033788
 23
-0.2631016894
 33
0.0
 40
0.0
 40
0.0
 40
0.0
 40
0.0
 40
0.1614219316
 40
0.3342559043
 40
0.511697351
 40
0.6862432064
 40
0.8508246292
 40
1.0
 40
1.0
 40
1.0
 40
1.0
 10
-18.0417596167
 20
-12.1462956565
 30
0.0
 10
-18.0417596167
 20
-12.1779512109
 30
0.0
 10
-18.0345095723
 20
-12.2435927537
 30
0.0
 10
-18.0061139618
 20
-12.3402757975
 30
0.0
 10
-17.9615817008
 20
-12.4335452323
 30
0.0
 10
-17.9037796156
 20
-12.5172987571
 30
0.0
 10
-17.8364955953
 20
-12.5860986133
 30
0.0
 10
-17.7850824323
 20
-12.6210444102
 30
0.0
 10
-17.7589169043
 20
-12.6341271742
 30
0.0
 11
-18.0417596167
 21
-12.1462956565
 31
0.0
 11
-18.032121985
 21
-12.2407720195
 31
0.0
 11
-18.0038658786
 21
-12.3384476063
 31
0.0
 11
-17.9589169043
 21
-12.432665987
 31
0.0
 11
-17.9003382605
 21
-12.5170063346
 31
0.0
 11
-17.832121985
 21
-12.5857209938
 31
0.0
 11
-17.7589169043
 21
-12.6341271742
 31
0.0
  0
SPLINE
  5
37A
100
AcDbEntity
  8
RACCORDO
100
AcDbSpline
 62
7
  6
CONTINUOUS
 70
0
 71
3
 72
8
 73
4
 74
2
 42
0.0000001
 43
0.0000001
 44
0.0000000001
 12
0.0025010325
 22
-0.0012765646
 32
0.0
 13
0.0011715507
 23
-0.0017520104
 33
0.0
 40
0.0
 40
0.0
 40
0.0
 40
0.0
 40
1.0
 40
1.0
 40
1.0
 40
1.0
 10
11.5290988319
 20
-25.8881213119
 30
0.0
 10
11.5299325094
 20
-25.8885468334
 30
0.0
 10
11.5306016551
 20
-25.889050644
 30
0.0
 10
11.530992172
 20
-25.8896346475
 30
0.0
 11
11.5290988319
 21
-25.8881213119
 31
0.0
 11
11.530992172
 21
-25.8896346475
 31
0.0
  0
SPLINE
  5
37B
100
AcDbEntity
  8
RACCORDO
100
AcDbSpline
 62
7
  6
CONTINUOUS
 70
0
 71
3
 72
8
 73
4
 74
2
 42
0.0000001
 43
0.0000001
 44
0.0000000001
 12
0.0025010325
 22
-0.0012765646
 32
0.0
 13
0.0011715507
 23
-0.0017520104
 33
0.0
 40
0.0
 40
0.0
 40
0.0
 40
0.0
 40
1.0
 40
1.0
 40
1.0
 40
1.0
 10
-4.3808037448
 20
-17.9331700235
 30
0.0
 10
-4.3799700673
 20
-17.933595545
 30
0.0
 10
-4.3793009216
 20
-17.9340993557
 30
0.0
 10
-4.3789104047
 20
-17.9346833591
 30
0.0
 11
-4.3808037448
 21
-17.9331700235
 31
0.0
 11
-4.3789104047
 21
-17.9346833591
 31
0.0
  0
SPLINE
  5
37C
100
AcDbEntity
  8
RACCORDO
100
AcDbSpline
 62
7
  6
CONTINUOUS
 70
0
 71
3
 72
8
 73
4
 74
2
 42
0.0000001
 43
0.0000001
 44
0.0000000001
 12
0.0213006563
 22
0.0082904754
 32
0.0
 13
0.022501701
 23
0.004742201
 33
0.0
 40
0.0
 40
0.0
 40
0.0
 40
0.0
 40
1.0
 40
1.0
 40
1.0
 40
1.0
 10
7.2147376487
 20
-23.7945567945
 30
0.0
 10
7.2218378674
 20
-23.7917933027
 30
0.0
 10
7.229191083
 20
-23.7896484782
 30
0.0
 10
7.23669165
 20
-23.7880677446
 30
0.0
 11
7.2147376487
 21
-23.7945567945
 31
0.0
 11
7.23669165
 21
-23.7880677446
 31
0.0
  0
SPLINE
  5
37D
100
AcDbEntity
  8
RACCORDO
100
AcDbSpline
 62
7
  6
CONTINUOUS
 70
0
 71
3
 72
8
 73
4
 74
2
 42
0.0000001
 43
0.0000001
 44
0.0000000001
 12
0.0441807121
 22
0.0093110212
 32
0.0
 13
0.0451900647
 23
-0.002497404
 33
0.0
 40
0.0
 40
0.0
 40
0.0
 40
0.0
 40
1.0
 40
1.0
 40
1.0
 40
1.0
 10
7.23669165
 20
-23.7880677446
 30
0.0
 10
7.2514185541
 20
-23.7849640708
 30
0.0
 10
7.2667135113
 20
-23.7840350191
 30
0.0
 10
7.2817768662
 20
-23.7848674871
 30
0.0
 11
7.23669165
 21
-23.7880677446
 31
0.0
 11
7.2817768662
 21
-23.7848674871
 31
0.0
  0
SPLINE
  5
37E
100
AcDbEntity
  8
RACCORDO
100
AcDbSpline
 62
7
  6
CONTINUOUS
 70
0
 71
3
 72
9
 73
5
 74
3
 42
0.0000001
 43
0.0000001
 44
0.0000000001
 12
0.1097157936
 22
-0.0060633829
 32
0.0
 13
0.0975287266
 23
-0.0489750787
 33
0.0
 40
0.0
 40
0.0
 40
0.0
 40
0.0
 40
0.6470038448
 40
1.0
 40
1.0
 40
1.0
 40
1.0
 10
7.2817768662
 20
-23.7848674871
 30
0.0
 10
7.3054390462
 20
-23.7861751644
 30
0.0
 10
7.3411276899
 20
-23.7949143966
 30
0.0
 10
7.3744780094
 20
-23.8095486019
 30
0.0
 10
7.3859537646
 20
-23.8153112734
 30
0.0
 11
7.2817768662
 21
-23.7848674871
 31
0.0
 11
7.3506415704
 21
-23.7999515162
 31
0.0
 11
7.3859537646
 21
-23.8153112734
 31
0.0
  0
SPLINE
  5
37F
100
AcDbEntity
  8
RACCORDO
100
AcDbSpline
 62
7
  6
CONTINUOUS
 70
0
 71
3
 72
8
 73
4
 74
2
 42
0.0000001
 43
0.0000001
 44
0.0000000001
 12
0.0213006563
 22
0.0082904754
 32
0.0
 13
0.022501701
 23
0.004742201
 33
0.0
 40
0.0
 40
0.0
 40
0.0
 40
0.0
 40
1.0
 40
1.0
 40
1.0
 40
1.0
 10
-8.695164928
 20
-15.8396055062
 30
0.0
 10
-8.6880647093
 20
-15.8368420144
 30
0.0
 10
-8.6807114937
 20
-15.8346971899
 30
0.0
 10
-8.6732109267
 20
-15.8331164562
 30
0.0
 11
-8.695164928
 21
-15.8396055062
 31
0.0
 11
-8.6732109267
 21
-15.8331164562
 31
0.0
  0
SPLINE
  5
380
100
AcDbEntity
  8
RACCORDO
100
AcDbSpline
 62
7
  6
CONTINUOUS
 70
0
 71
3
 72
8
 73
4
 74
2
 42
0.0000001
 43
0.0000001
 44
0.0000000001
 12
0.0441807121
 22
0.0093110212
 32
0.0
 13
0.0451900647
 23
-0.002497404
 33
0.0
 40
0.0
 40
0.0
 40
0.0
 40
0.0
 40
1.0
 40
1.0
 40
1.0
 40
1.0
 10
-8.6732109267
 20
-15.8331164562
 30
0.0
 10
-8.6584840226
 20
-15.8300127825
 30
0.0
 10
-8.6431890654
 20
-15.8290837307
 30
0.0
 10
-8.6281257105
 20
-15.8299161987
 30
0.0
 11
-8.6732109267
 21
-15.8331164562
 31
0.0
 11
-8.6281257105
 21
-15.8299161987
 31
0.0
  0
SPLINE
  5
381
100
AcDbEntity
  8
RACCORDO
100
AcDbSpline
 62
7
  6
CONTINUOUS
 70
0
 71
3
 72
9
 73
5
 74
3
 42
0.0000001
 43
0.0000001
 44
0.0000000001
 12
0.1097157936
 22
-0.0060633829
 32
0.0
 13
0.0975287266
 23
-0.0489750787
 33
0.0
 40
0.0
 40
0.0
 40
0.0
 40
0.0
 40
0.6470038448
 40
1.0
 40
1.0
 40
1.0
 40
1.0
 10
-8.6281257105
 20
-15.8299161987
 30
0.0
 10
-8.6044635304
 20
-15.8312238761
 30
0.0
 10
-8.5687748868
 20
-15.8399631083
 30
0.0
 10
-8.5354245673
 20
-15.8545973135
 30
0.0
 10
-8.5239488121
 20
-15.860359985
 30
0.0
 11
-8.6281257105
 21
-15.8299161987
 31
0.0
 11
-8.5592610063
 21
-15.8450002278
 31
0.0
 11
-8.5239488121
 21
-15.860359985
 31
0.0
  0
SPLINE
  5
382
100
AcDbEntity
  8
RACCORDO
100
AcDbSpline
 62
253
  6
CONTINUOUS
 70
0
 71
3
 72
13
 73
9
 74
7
 42
0.0000001
 43
0.0000001
 44
0.0000000001
 12
-0.4331451169
 22
0.3258795057
 32
0.0
 13
0.0
 23
0.5402187974
 33
0.0
 40
0.0
 40
0.0
 40
0.0
 40
0.0
 40
0.0394455941
 40
0.2252807851
 40
0.4223411293
 40
0.6226471015
 40
0.8177589619
 40
1.0
 40
1.0
 40
1.0
 40
1.0
 10
-18.2637322423
 20
-12.8327663698
 30
0.0
 10
-18.2694274645
 20
-12.8284815329
 30
0.0
 10
-18.301363009
 20
-12.8032204716
 30
0.0
 10
-18.3548028874
 20
-12.748580641
 30
0.0
 10
-18.4147269541
 20
-12.661754234
 30
0.0
 10
-18.4608908468
 20
-12.5650690564
 30
0.0
 10
-18.4903272913
 20
-12.4648458578
 30
0.0
 10
-18.4978434906
 20
-12.3967989325
 30
0.0
 10
-18.4978434906
 20
-12.3639822543
 30
0.0
 11
-18.2637322423
 21
-12.8327663698
 31
0.0
 11
-18.280505824
 21
-12.8195162619
 31
0.0
 11
-18.3512375294
 21
-12.7482736346
 31
0.0
 11
-18.4119665939
 21
-12.6608391035
 31
0.0
 11
-18.4585601207
 21
-12.5631751793
 31
0.0
 11
-18.4878517491
 21
-12.461923943
 31
0.0
 11
-18.4978434906
 21
-12.3639822543
 31
0.0
  0
SPLINE
  5
383
100
AcDbEntity
  8
RACCORDO
100
AcDbSpline
 62
253
  6
CONTINUOUS
 70
0
 71
3
 72
10
 73
6
 74
4
 42
0.0000001
 43
0.0000001
 44
0.0000000001
 12
-0.1140347837
 22
0.0569791278
 32
0.0
 13
-0.1159646449
 23
-0.0505389973
 33
0.0
 40
0.0
 40
0.0
 40
0.0
 40
0.0
 40
0.1801942518
 40
0.5664854418
 40
1.0
 40
1.0
 40
1.0
 40
1.0
 10
-16.629134348
 20
22.2252765619
 30
0.0
 10
-16.6359838189
 20
22.228698999
 30
0.0
 10
-16.658579332
 20
22.2373258188
 30
0.0
 10
-16.7017192522
 20
22.2393796548
 30
0.0
 10
-16.7353805339
 20
22.2292772804
 30
0.0
 10
-16.7521379878
 20
22.22197415
 30
0.0
 11
-16.629134348
 21
22.2252765619
 31
0.0
 11
-16.6505451448
 21
22.2334320778
 31
0.0
 11
-16.699303466
 21
22.2366658172
 31
0.0
 11
-16.7521379878
 21
22.22197415
 31
0.0
  0
SPLINE
  5
384
100
AcDbEntity
  8
RACCORDO
100
AcDbSpline
 62
253
  6
CONTINUOUS
 70
0
 71
3
 72
10
 73
6
 74
4
 42
0.0000001
 43
0.0000001
 44
0.0000000001
 12
-0.1140347837
 22
0.0569791278
 32
0.0
 13
-0.1159646449
 23
-0.0505389973
 33
0.0
 40
0.0
 40
0.0
 40
0.0
 40
0.0
 40
0.1801942518
 40
0.5664854418
 40
1.0
 40
1.0
 40
1.0
 40
1.0
 10
-16.629134348
 20
2.7397049767
 30
0.0
 10
-16.6359838189
 20
2.7431274138
 30
0.0
 10
-16.658579332
 20
2.7517542336
 30
0.0
 10
-16.7017192522
 20
2.7538080697
 30
0.0
 10
-16.7353805339
 20
2.7437056952
 30
0.0
 10
-16.7521379878
 20
2.7364025649
 30
0.0
 11
-16.629134348
 21
2.7397049767
 31
0.0
 11
-16.6505451448
 21
2.7478604926
 31
0.0
 11
-16.699303466
 21
2.7510942321
 31
0.0
 11
-16.7521379878
 21
2.7364025649
 31
0.0
  0
SPLINE
  5
385
100
AcDbEntity
  8
RACCORDO
100
AcDbSpline
 62
253
  6
CONTINUOUS
 70
0
 71
3
 72
10
 73
6
 74
4
 42
0.0000001
 43
0.0000001
 44
0.0000000001
 12
-0.0000694472
 22
-0.1426209479
 32
0.0
 13
-0.1265383996
 23
-0.0643832055
 33
0.0
 40
0.0
 40
0.0
 40
0.0
 40
0.0
 40
0.2795830908
 40
0.6074939836
 40
1.0
 40
1.0
 40
1.0
 40
1.0
 10
-16.4632402241
 20
17.283845044
 30
0.0
 10
-16.4632466962
 20
17.2705535756
 30
0.0
 10
-16.4715417597
 20
17.2416581807
 30
0.0
 10
-16.5035869029
 20
17.2054942239
 30
0.0
 10
-16.5327092916
 20
17.187132033
 30
0.0
 10
-16.5492649859
 20
17.1787084346
 30
0.0
 11
-16.4632402241
 21
17.283845044
 31
0.0
 11
-16.4732481948
 21
17.2454238569
 31
0.0
 11
-16.5027675789
 21
17.2094236327
 31
0.0
 11
-16.5492649859
 21
17.1787084346
 31
0.0
  0
SPLINE
  5
386
100
AcDbEntity
  8
RACCORDO
100
AcDbSpline
 62
253
  6
CONTINUOUS
 70
0
 71
3
 72
10
 73
6
 74
4
 42
0.0000001
 43
0.0000001
 44
0.0000000001
 12
0.1175636014
 22
0.0406950223
 32
0.0
 13
0.1097281398
 23
-0.0566832019
 33
0.0
 40
0.0
 40
0.0
 40
0.0
 40
0.0
 40
0.1189793039
 40
0.5347541129
 40
1.0
 40
1.0
 40
1.0
 40
1.0
 10
-17.1013032007
 20
22.3509956028
 30
0.0
 10
-17.0966406556
 20
22.352609558
 30
0.0
 10
-17.07525459
 20
22.3585733524
 30
0.0
 10
-17.033060452
 20
22.3582118323
 30
0.0
 10
-16.9984480769
 20
22.3454113091
 30
0.0
 10
-16.9814312216
 20
22.3366207669
 30
0.0
 11
-17.1013032007
 21
22.3509956028
 31
0.0
 11
-17.0870658488
 21
22.3549585707
 31
0.0
 11
-17.0357183265
 21
22.355449819
 31
0.0
 11
-16.9814312216
 21
22.3366207669
 31
0.0
  0
SPLINE
  5
387
100
AcDbEntity
  8
RACCORDO
100
AcDbSpline
 62
253
  6
CONTINUOUS
 70
0
 71
3
 72
10
 73
6
 74
4
 42
0.0000001
 43
0.0000001
 44
0.0000000001
 12
-0.0000694472
 22
-0.1426209479
 32
0.0
 13
-0.1265383996
 23
-0.0643832055
 33
0.0
 40
0.0
 40
0.0
 40
0.0
 40
0.0
 40
0.2795830908
 40
0.6074939836
 40
1.0
 40
1.0
 40
1.0
 40
1.0
 10
-16.4632402241
 20
-2.2017265411
 30
0.0
 10
-16.4632466962
 20
-2.2150180096
 30
0.0
 10
-16.4715417597
 20
-2.2439134044
 30
0.0
 10
-16.5035869029
 20
-2.2800773612
 30
0.0
 10
-16.5327092916
 20
-2.2984395521
 30
0.0
 10
-16.5492649859
 20
-2.3068631506
 30
0.0
 11
-16.4632402241
 21
-2.2017265411
 31
0.0
 11
-16.4732481948
 21
-2.2401477282
 31
0.0
 11
-16.5027675789
 21
-2.2761479525
 31
0.0
 11
-16.5492649859
 21
-2.3068631506
 31
0.0
  0
SPLINE
  5
388
100
AcDbEntity
  8
RACCORDO
100
AcDbSpline
 62
253
  6
CONTINUOUS
 70
0
 71
3
 72
10
 73
6
 74
4
 42
0.0000001
 43
0.0000001
 44
0.0000000001
 12
0.1175636014
 22
0.0406950223
 32
0.0
 13
0.1097281398
 23
-0.0566832019
 33
0.0
 40
0.0
 40
0.0
 40
0.0
 40
0.0
 40
0.1189793039
 40
0.5347541129
 40
1.0
 40
1.0
 40
1.0
 40
1.0
 10
-17.1013032007
 20
2.8654240177
 30
0.0
 10
-17.0966406556
 20
2.8670379728
 30
0.0
 10
-17.07525459
 20
2.8730017673
 30
0.0
 10
-17.033060452
 20
2.8726402471
 30
0.0
 10
-16.9984480769
 20
2.859839724
 30
0.0
 10
-16.9814312216
 20
2.8510491818
 30
0.0
 11
-17.1013032007
 21
2.8654240177
 31
0.0
 11
-17.0870658488
 21
2.8693869856
 31
0.0
 11
-17.0357183265
 21
2.8698782338
 31
0.0
 11
-16.9814312216
 21
2.8510491818
 31
0.0
  0
SPLINE
  5
389
100
AcDbEntity
  8
RACCORDO
100
AcDbSpline
 62
253
  6
CONTINUOUS
 70
0
 71
3
 72
13
 73
9
 74
7
 42
0.0000001
 43
0.0000001
 44
0.0000000001
 12
-0.4331451169
 22
0.3258795057
 32
0.0
 13
0.0
 23
0.5402187974
 33
0.0
 40
0.0
 40
0.0
 40
0.0
 40
0.0
 40
0.0394455941
 40
0.2252807851
 40
0.4223411293
 40
0.6226471015
 40
0.8177589619
 40
1.0
 40
1.0
 40
1.0
 40
1.0
 10
-18.574859226
 20
-12.9883298616
 30
0.0
 10
-18.5805544482
 20
-12.9840450248
 30
0.0
 10
-18.6124899928
 20
-12.9587839634
 30
0.0
 10
-18.6659298711
 20
-12.9041441329
 30
0.0
 10
-18.7258539378
 20
-12.8173177259
 30
0.0
 10
-18.7720178305
 20
-12.7206325483
 30
0.0
 10
-18.8014542751
 20
-12.6204093496
 30
0.0
 10
-18.8089704743
 20
-12.5523624243
 30
0.0
 10
-18.8089704743
 20
-12.5195457462
 30
0.0
 11
-18.574859226
 21
-12.9883298616
 31
0.0
 11
-18.5916328078
 21
-12.9750797538
 31
0.0
 11
-18.6623645131
 21
-12.9038371265
 31
0.0
 11
-18.7230935777
 21
-12.8164025953
 31
0.0
 11
-18.7696871044
 21
-12.7187386712
 31
0.0
 11
-18.7989787328
 21
-12.6174874349
 31
0.0
 11
-18.8089704743
 21
-12.5195457462
 31
0.0
  0
SPLINE
  5
38A
100
AcDbEntity
  8
RACCORDO
100
AcDbSpline
 62
253
  6
CONTINUOUS
 70
0
 71
3
 72
10
 73
6
 74
4
 42
0.0000001
 43
0.0000001
 44
0.0000000001
 12
-0.0006093691
 22
-0.1326054005
 32
0.0
 13
-0.1152714676
 23
-0.0640109672
 33
0.0
 40
0.0
 40
0.0
 40
0.0
 40
0.0
 40
0.2598803137
 40
0.5954756705
 40
1.0
 40
1.0
 40
1.0
 40
1.0
 10
11.5310551638
 20
-26.6068986991
 30
0.0
 10
11.5310023761
 20
-26.6183858768
 30
0.0
 10
11.5246330228
 20
-26.6448144165
 30
0.0
 10
11.4966575654
 20
-26.6800189636
 30
0.0
 10
11.4695556184
 20
-26.6986331908
 30
0.0
 10
11.4540122474
 20
-26.707264522
 30
0.0
 11
11.5310551638
 21
-26.6068986991
 31
0.0
 11
11.5234831122
 21
-26.6404130973
 31
0.0
 11
11.4972706963
 21
-26.6760623914
 31
0.0
 11
11.4540122474
 21
-26.707264522
 31
0.0
  0
SPLINE
  5
38B
100
AcDbEntity
  8
RACCORDO
100
AcDbSpline
 62
253
  6
CONTINUOUS
 70
0
 71
3
 72
10
 73
6
 74
4
 42
0.0000001
 43
0.0000001
 44
0.0000000001
 12
-0.0006093691
 22
-0.1326054005
 32
0.0
 13
-0.1152714676
 23
-0.0640109672
 33
0.0
 40
0.0
 40
0.0
 40
0.0
 40
0.0
 40
0.2598803137
 40
0.5954756705
 40
1.0
 40
1.0
 40
1.0
 40
1.0
 10
-4.3788474129
 20
-18.6519474108
 30
0.0
 10
-4.3789002006
 20
-18.6634345885
 30
0.0
 10
-4.3852695539
 20
-18.6898631282
 30
0.0
 10
-4.4132450113
 20
-18.7250676753
 30
0.0
 10
-4.4403469583
 20
-18.7436819025
 30
0.0
 10
-4.4558903293
 20
-18.7523132337
 30
0.0
 11
-4.3788474129
 21
-18.6519474108
 31
0.0
 11
-4.3864194645
 21
-18.685461809
 31
0.0
 11
-4.4126318804
 21
-18.7211111031
 31
0.0
 11
-4.4558903293
 21
-18.7523132337
 31
0.0
  0
SPLINE
  5
38C
100
AcDbEntity
  8
RACCORDO
100
AcDbSpline
 62
253
  6
CONTINUOUS
 70
0
 71
3
 72
10
 73
6
 74
4
 42
0.0000001
 43
0.0000001
 44
0.0000000001
 12
0.0206707405
 22
0.0103353703
 32
0.0
 13
0.020858113
 23
-0.010373773
 33
0.0
 40
0.0
 40
0.0
 40
0.0
 40
0.0
 40
0.4180521387
 40
0.7870287503
 40
1.0
 40
1.0
 40
1.0
 40
1.0
 10
-18.5407724228
 20
-13.0250549335
 30
0.0
 10
-18.5378919404
 20
-13.0236146923
 30
0.0
 10
-18.5320981461
 20
-13.0215200371
 30
0.0
 10
-18.5242182878
 20
-13.0214058362
 30
0.0
 10
-18.5198957051
 20
-13.0229049112
 30
0.0
 10
-18.518414979
 20
-13.0236413497
 30
0.0
 11
-18.5407724228
 21
-13.0250549335
 31
0.0
 11
-18.531621788
 21
-13.021955071
 31
0.0
 11
-18.5230947483
 21
-13.0220173699
 31
0.0
 11
-18.518414979
 21
-13.0236413497
 31
0.0
  0
SPLINE
  5
38D
100
AcDbEntity
  8
RACCORDO
100
AcDbSpline
 62
253
  6
CONTINUOUS
 70
0
 71
3
 72
10
 73
6
 74
4
 42
0.0000001
 43
0.0000001
 44
0.0000000001
 12
0.0214705299
 22
0.010735265
 32
0.0
 13
-0.0
 23
0.0240047822
 33
0.0
 40
0.0
 40
0.0
 40
0.0
 40
0.0
 40
0.3950875622
 40
0.7212632404
 40
1.0
 40
1.0
 40
1.0
 40
1.0
 10
-18.8236151353
 20
-12.5372234157
 30
0.0
 10
-18.8207875555
 20
-12.5358096258
 30
0.0
 10
-18.81583624
 20
-12.5327316115
 30
0.0
 10
-18.8103855243
 20
-12.5266537768
 30
0.0
 10
-18.8089704743
 20
-12.5217760846
 30
0.0
 10
-18.8089704743
 20
-12.5195457462
 30
0.0
 11
-18.8236151353
 21
-12.5372234157
 31
0.0
 11
-18.8156692041
 21
-12.5320457462
 31
0.0
 11
-18.810674183
 21
-12.5260162223
 31
0.0
 11
-18.8089704743
 21
-12.5195457462
 31
0.0
  0
SPLINE
  5
38E
100
AcDbEntity
  8
RACCORDO
100
AcDbSpline
 62
253
  6
CONTINUOUS
 70
0
 71
3
 72
10
 73
6
 74
4
 42
0.0000001
 43
0.0000001
 44
0.0000000001
 12
-0.0325350076
 22
-0.0162675038
 32
0.0
 13
-0.0363752443
 23
-0.0000000001
 33
0.0
 40
0.0
 40
0.0
 40
0.0
 40
0.0
 40
0.3049141062
 40
0.6434676439
 40
1.0
 40
1.0
 40
1.0
 40
1.0
 10
-18.5892648468
 20
-12.4200482715
 30
0.0
 10
-18.5925716411
 20
-12.4217016686
 30
0.0
 10
-18.5999367016
 20
-12.4244297754
 30
0.0
 10
-18.611856803
 20
-12.4268290437
 30
0.0
 10
-18.6202972036
 20
-12.4273706028
 30
0.0
 10
-18.6246201875
 20
-12.4273706028
 30
0.0
 11
-18.5892648468
 21
-12.4200482715
 31
0.0
 11
-18.5996201855
 21
-12.424021237
 31
0.0
 11
-18.6116792428
 21
-12.4265187489
 31
0.0
 11
-18.6246201875
 21
-12.4273706028
 31
0.0
  0
SPLINE
  5
38F
100
AcDbEntity
  8
RACCORDO
100
AcDbSpline
 62
253
  6
CONTINUOUS
 70
0
 71
3
 72
10
 73
6
 74
4
 42
0.0000001
 43
0.0000001
 44
0.0000000001
 12
-0.032118313
 22
-0.0160591565
 32
0.0
 13
-0.0180116336
 23
-0.0310654726
 33
0.0
 40
0.0
 40
0.0
 40
0.0
 40
0.0
 40
0.3054977709
 40
0.6425457537
 40
1.0
 40
1.0
 40
1.0
 40
1.0
 10
-18.3064221344
 20
-12.9078797893
 30
0.0
 10
-18.3096928254
 20
-12.9095151348
 30
0.0
 10
-18.3161197653
 20
-12.9138838652
 30
0.0
 10
-18.3245287978
 20
-12.9224813231
 30
0.0
 10
-18.3292760227
 20
-12.9293609426
 30
0.0
 10
-18.3314221344
 20
-12.9330624377
 30
0.0
 11
-18.3064221344
 21
-12.9078797893
 31
0.0
 11
-18.3155727695
 21
-12.9139305618
 31
0.0
 11
-18.3240998039
 21
-12.9225198942
 31
0.0
 11
-18.3314221344
 21
-12.9330624377
 31
0.0
  0
SPLINE
  5
390
100
AcDbEntity
  8
RACCORDO
100
AcDbSpline
 62
253
  6
CONTINUOUS
 70
0
 71
3
 72
10
 73
6
 74
4
 42
0.0000001
 43
0.0000001
 44
0.0000000001
 12
0.0206707405
 22
0.0103353703
 32
0.0
 13
0.020858113
 23
-0.010373773
 33
0.0
 40
0.0
 40
0.0
 40
0.0
 40
0.0
 40
0.4180521387
 40
0.7870287503
 40
1.0
 40
1.0
 40
1.0
 40
1.0
 10
-18.2296454391
 20
-12.8694914416
 30
0.0
 10
-18.2267649567
 20
-12.8680512004
 30
0.0
 10
-18.2209711624
 20
-12.8659565453
 30
0.0
 10
-18.213091304
 20
-12.8658423444
 30
0.0
 10
-18.2087687214
 20
-12.8673414193
 30
0.0
 10
-18.2072879953
 20
-12.8680778578
 30
0.0
 11
-18.2296454391
 21
-12.8694914416
 31
0.0
 11
-18.2204948043
 21
-12.8663915791
 31
0.0
 11
-18.2119677645
 21
-12.8664538781
 31
0.0
 11
-18.2072879953
 21
-12.8680778578
 31
0.0
  0
SPLINE
  5
391
100
AcDbEntity
  8
RACCORDO
100
AcDbSpline
 62
253
  6
CONTINUOUS
 70
0
 71
3
 72
10
 73
6
 74
4
 42
0.0000001
 43
0.0000001
 44
0.0000000001
 12
0.0214705299
 22
0.010735265
 32
0.0
 13
-0.0
 23
0.0240047822
 33
0.0
 40
0.0
 40
0.0
 40
0.0
 40
0.0
 40
0.3950875622
 40
0.7212632404
 40
1.0
 40
1.0
 40
1.0
 40
1.0
 10
-18.5124881516
 20
-12.3816599239
 30
0.0
 10
-18.5096605718
 20
-12.380246134
 30
0.0
 10
-18.5047092563
 20
-12.3771681196
 30
0.0
 10
-18.4992585406
 20
-12.3710902849
 30
0.0
 10
-18.4978434906
 20
-12.3662125927
 30
0.0
 10
-18.4978434906
 20
-12.3639822543
 30
0.0
 11
-18.5124881516
 21
-12.3816599239
 31
0.0
 11
-18.5045422204
 21
-12.3764822543
 31
0.0
 11
-18.4995471993
 21
-12.3704527305
 31
0.0
 11
-18.4978434906
 21
-12.3639822543
 31
0.0
  0
SPLINE
  5
392
100
AcDbEntity
  8
RACCORDO
100
AcDbSpline
 62
253
  6
CONTINUOUS
 70
0
 71
3
 72
10
 73
6
 74
4
 42
0.0000001
 43
0.0000001
 44
0.0000000001
 12
-0.0325350076
 22
-0.0162675038
 32
0.0
 13
-0.0363752443
 23
-0.0000000001
 33
0.0
 40
0.0
 40
0.0
 40
0.0
 40
0.0
 40
0.3049141062
 40
0.6434676439
 40
1.0
 40
1.0
 40
1.0
 40
1.0
 10
-18.2781378631
 20
-12.2644847797
 30
0.0
 10
-18.2814446574
 20
-12.2661381768
 30
0.0
 10
-18.2888097178
 20
-12.2688662835
 30
0.0
 10
-18.3007298193
 20
-12.2712655519
 30
0.0
 10
-18.3091702199
 20
-12.2718071109
 30
0.0
 10
-18.3134932037
 20
-12.2718071109
 30
0.0
 11
-18.2781378631
 21
-12.2644847797
 31
0.0
 11
-18.2884932018
 21
-12.2684577451
 31
0.0
 11
-18.300552259
 21
-12.270955257
 31
0.0
 11
-18.3134932037
 21
-12.2718071109
 31
0.0
  0
SPLINE
  5
393
100
AcDbEntity
  8
RACCORDO
100
AcDbSpline
 62
253
  6
CONTINUOUS
 70
0
 71
3
 72
10
 73
6
 74
4
 42
0.0000001
 43
0.0000001
 44
0.0000000001
 12
-0.032118313
 22
-0.0160591565
 32
0.0
 13
-0.0180116336
 23
-0.0310654726
 33
0.0
 40
0.0
 40
0.0
 40
0.0
 40
0.0
 40
0.3054977709
 40
0.6425457537
 40
1.0
 40
1.0
 40
1.0
 40
1.0
 10
-17.9952951507
 20
-12.7523162974
 30
0.0
 10
-17.9985658417
 20
-12.7539516429
 30
0.0
 10
-18.0049927816
 20
-12.7583203733
 30
0.0
 10
-18.0134018141
 20
-12.7669178312
 30
0.0
 10
-18.018149039
 20
-12.7737974508
 30
0.0
 10
-18.0202951507
 20
-12.7774989458
 30
0.0
 11
-17.9952951507
 21
-12.7523162974
 31
0.0
 11
-18.0044457857
 21
-12.75836707
 31
0.0
 11
-18.0129728202
 21
-12.7669564024
 31
0.0
 11
-18.0202951507
 21
-12.7774989458
 31
0.0
  0
SPLINE
  5
394
100
AcDbEntity
  8
RACCORDO
100
AcDbSpline
 62
253
  6
CONTINUOUS
 70
0
 71
3
 72
10
 73
6
 74
4
 42
0.0000001
 43
0.0000001
 44
0.0000000001
 12
-0.0214705299
 22
-0.010735265
 32
0.0
 13
0.0
 23
-0.0240047822
 33
0.0
 40
0.0
 40
0.0
 40
0.0
 40
0.0
 40
0.3950875622
 40
0.7212632404
 40
1.0
 40
1.0
 40
1.0
 40
1.0
 10
-18.7943258134
 20
-12.4730812801
 30
0.0
 10
-18.7971533932
 20
-12.47449507
 30
0.0
 10
-18.8021047087
 20
-12.4775730844
 30
0.0
 10
-18.8075554243
 20
-12.4836509191
 30
0.0
 10
-18.8089704743
 20
-12.4885286112
 30
0.0
 10
-18.8089704743
 20
-12.4907589496
 30
0.0
 11
-18.7943258134
 21
-12.4730812801
 31
0.0
 11
-18.8022717445
 21
-12.4782589496
 31
0.0
 11
-18.8072667656
 21
-12.4842884735
 31
0.0
 11
-18.8089704743
 21
-12.4907589496
 31
0.0
  0
SPLINE
  5
395
100
AcDbEntity
  8
RACCORDO
100
AcDbSpline
 62
253
  6
CONTINUOUS
 70
0
 71
3
 72
10
 73
6
 74
4
 42
0.0000001
 43
0.0000001
 44
0.0000000001
 12
-0.0180116331
 22
-0.0310654729
 32
0.0
 13
-0.032118313
 23
-0.0160591565
 33
0.0
 40
0.0
 40
0.0
 40
0.0
 40
0.0
 40
0.3574542298
 40
0.6945023573
 40
1.0
 40
1.0
 40
1.0
 40
1.0
 10
-18.3602089309
 20
-12.9827123174
 30
0.0
 10
-18.3623550424
 20
-12.9864138123
 30
0.0
 10
-18.3671022683
 20
-12.9932934331
 30
0.0
 10
-18.375511301
 20
-13.0018908909
 30
0.0
 10
-18.3819382413
 20
-13.006259621
 30
0.0
 10
-18.3852089309
 20
-13.0078949658
 30
0.0
 11
-18.3602089309
 21
-12.9827123174
 31
0.0
 11
-18.367531261
 21
-12.9932548604
 31
0.0
 11
-18.3760582994
 21
-13.0018441962
 31
0.0
 11
-18.3852089309
 21
-13.0078949658
 31
0.0
  0
SPLINE
  5
396
100
AcDbEntity
  8
RACCORDO
100
AcDbSpline
 62
253
  6
CONTINUOUS
 70
0
 71
3
 72
10
 73
6
 74
4
 42
0.0000001
 43
0.0000001
 44
0.0000000001
 12
-0.0363752427
 22
0.0
 32
0.0
 13
-0.0325350062
 23
-0.0162675031
 33
0.0
 40
0.0
 40
0.0
 40
0.0
 40
0.0
 40
0.35653258
 40
0.6950858684
 40
1.0
 40
1.0
 40
1.0
 40
1.0
 10
-18.682193779
 20
-12.427370602
 30
0.0
 10
-18.6865167654
 20
-12.427370602
 30
0.0
 10
-18.6949571654
 20
-12.4279121604
 30
0.0
 10
-18.7068772661
 20
-12.4303114297
 30
0.0
 10
-18.7142423237
 20
-12.4330395353
 30
0.0
 10
-18.7175491181
 20
-12.4346929325
 30
0.0
 11
-18.682193779
 21
-12.427370602
 31
0.0
 11
-18.6951347313
 21
-12.4282224563
 31
0.0
 11
-18.707193779
 21
-12.4307199669
 31
0.0
 11
-18.7175491181
 21
-12.4346929325
 31
0.0
  0
SPLINE
  5
397
100
AcDbEntity
  8
RACCORDO
100
AcDbSpline
 62
253
  6
CONTINUOUS
 70
0
 71
3
 72
10
 73
6
 74
4
 42
0.0000001
 43
0.0000001
 44
0.0000000001
 12
-0.0214705299
 22
-0.010735265
 32
0.0
 13
0.0
 23
-0.0240047822
 33
0.0
 40
0.0
 40
0.0
 40
0.0
 40
0.0
 40
0.3950875622
 40
0.7212632404
 40
1.0
 40
1.0
 40
1.0
 40
1.0
 10
-18.4831988297
 20
-12.3175177882
 30
0.0
 10
-18.4860264095
 20
-12.3189315781
 30
0.0
 10
-18.4909777249
 20
-12.3220095925
 30
0.0
 10
-18.4964284406
 20
-12.3280874272
 30
0.0
 10
-18.4978434906
 20
-12.3329651194
 30
0.0
 10
-18.4978434906
 20
-12.3351954578
 30
0.0
 11
-18.4831988297
 21
-12.3175177882
 31
0.0
 11
-18.4911447608
 21
-12.3226954578
 31
0.0
 11
-18.4961397819
 21
-12.3287249816
 31
0.0
 11
-18.4978434906
 21
-12.3351954578
 31
0.0
  0
SPLINE
  5
398
100
AcDbEntity
  8
RACCORDO
100
AcDbSpline
 62
253
  6
CONTINUOUS
 70
0
 71
3
 72
10
 73
6
 74
4
 42
0.0000001
 43
0.0000001
 44
0.0000000001
 12
-0.0180116331
 22
-0.0310654729
 32
0.0
 13
-0.032118313
 23
-0.0160591565
 33
0.0
 40
0.0
 40
0.0
 40
0.0
 40
0.0
 40
0.3574542298
 40
0.6945023573
 40
1.0
 40
1.0
 40
1.0
 40
1.0
 10
-18.0490819472
 20
-12.8271488255
 30
0.0
 10
-18.0512280587
 20
-12.8308503205
 30
0.0
 10
-18.0559752845
 20
-12.8377299412
 30
0.0
 10
-18.0643843173
 20
-12.846327399
 30
0.0
 10
-18.0708112576
 20
-12.8506961291
 30
0.0
 10
-18.0740819472
 20
-12.852331474
 30
0.0
 11
-18.0490819472
 21
-12.8271488255
 31
0.0
 11
-18.0564042773
 21
-12.8376913685
 31
0.0
 11
-18.0649313157
 21
-12.8462807044
 31
0.0
 11
-18.0740819472
 21
-12.852331474
 31
0.0
  0
SPLINE
  5
399
100
AcDbEntity
  8
RACCORDO
100
AcDbSpline
 62
253
  6
CONTINUOUS
 70
0
 71
3
 72
10
 73
6
 74
4
 42
0.0000001
 43
0.0000001
 44
0.0000000001
 12
-0.0363752427
 22
0.0
 32
0.0
 13
-0.0325350062
 23
-0.0162675031
 33
0.0
 40
0.0
 40
0.0
 40
0.0
 40
0.0
 40
0.35653258
 40
0.6950858684
 40
1.0
 40
1.0
 40
1.0
 40
1.0
 10
-18.3710667953
 20
-12.2718071101
 30
0.0
 10
-18.3753897817
 20
-12.2718071101
 30
0.0
 10
-18.3838301817
 20
-12.2723486685
 30
0.0
 10
-18.3957502824
 20
-12.2747479378
 30
0.0
 10
-18.40311534
 20
-12.2774760434
 30
0.0
 10
-18.4064221344
 20
-12.2791294406
 30
0.0
 11
-18.3710667953
 21
-12.2718071101
 31
0.0
 11
-18.3840077476
 21
-12.2726589645
 31
0.0
 11
-18.3960667953
 21
-12.275156475
 31
0.0
 11
-18.4064221344
 21
-12.2791294406
 31
0.0
  0
SPLINE
  5
39A
100
AcDbEntity
  8
RACCORDO
100
AcDbSpline
 62
253
  6
CONTINUOUS
 70
0
 71
3
 72
13
 73
9
 74
7
 42
0.0000001
 43
0.0000001
 44
0.0000000001
 12
0.0000000015
 22
-0.5883132649
 32
0.0
 13
0.526203381
 23
-0.2631016905
 33
0.0
 40
0.0
 40
0.0
 40
0.0
 40
0.0
 40
0.1614208514
 40
0.3342536584
 40
0.511696283
 40
0.6862461197
 40
0.8508265196
 40
1.0
 40
1.0
 40
1.0
 40
1.0
 10
-18.2781378631
 20
-12.2644847797
 30
0.0
 10
-18.278137863
 20
-12.2961401224
 30
0.0
 10
-18.2708879148
 20
-12.3617812238
 30
0.0
 10
-18.2424925228
 20
-12.4584641084
 30
0.0
 10
-18.1979600574
 20
-12.5517343224
 30
0.0
 10
-18.1401574319
 20
-12.6354884952
 30
0.0
 10
-18.0728730784
 20
-12.7042883178
 30
0.0
 10
-18.0214603472
 20
-12.7392336991
 30
0.0
 10
-17.9952951507
 20
-12.7523162974
 30
0.0
 11
-18.2781378631
 21
-12.2644847797
 31
0.0
 11
-18.2685003548
 21
-12.3589605169
 31
0.0
 11
-18.2402445973
 21
-12.4566354912
 31
0.0
 11
-18.1952954665
 21
-12.5508545654
 31
0.0
 11
-18.1367154088
 21
-12.6351967833
 31
0.0
 11
-18.0684993702
 21
-12.7039108302
 31
0.0
 11
-17.9952951507
 21
-12.7523162974
 31
0.0
  0
SPLINE
  5
39B
100
AcDbEntity
  8
RACCORDO
100
AcDbSpline
 62
253
  6
CONTINUOUS
 70
0
 71
3
 72
8
 73
4
 74
2
 42
0.0000001
 43
0.0000001
 44
0.0000000001
 12
-0.0510289931
 22
0.0309699365
 32
0.0
 13
-0.0460326675
 23
0.0381143508
 33
0.0
 40
0.0
 40
0.0
 40
0.0
 40
0.0
 40
1.0
 40
1.0
 40
1.0
 40
1.0
 10
-18.2542998742
 20
-12.8558524993
 30
0.0
 10
-18.2713095386
 20
-12.8455291871
 30
0.0
 10
-18.2875065154
 20
-12.8337898642
 30
0.0
 10
-18.3028507379
 20
-12.8210850806
 30
0.0
 11
-18.2542998742
 21
-12.8558524993
 31
0.0
 11
-18.3028507379
 21
-12.8210850806
 31
0.0
  0
SPLINE
  5
39C
100
AcDbEntity
  8
RACCORDO
100
AcDbSpline
 62
253
  6
CONTINUOUS
 70
0
 71
3
 72
12
 73
8
 74
6
 42
0.0000001
 43
0.0000001
 44
0.0000000001
 12
-0.3628755744
 22
0.3004554744
 32
0.0
 13
-0.0322906906
 23
0.4692725458
 33
0.0
 40
0.0
 40
0.0
 40
0.0
 40
0.0
 40
0.2060943595
 40
0.424668736
 40
0.6468638444
 40
0.8632888135
 40
1.0
 40
1.0
 40
1.0
 40
1.0
 10
-18.3028507379
 20
-12.8210850806
 30
0.0
 10
-18.3277796076
 20
-12.8004443544
 30
0.0
 10
-18.3745089885
 20
-12.7526621003
 30
0.0
 10
-18.4323111352
 20
-12.6689079859
 30
0.0
 10
-18.4768430698
 20
-12.5756384466
 30
0.0
 10
-18.5023389612
 20
-12.4888278483
 30
0.0
 10
-18.5099456773
 20
-12.4337747869
 30
0.0
 10
-18.5114171768
 20
-12.4123898514
 30
0.0
 11
-18.3028507379
 21
-12.8210850806
 31
0.0
 11
-18.371067358
 21
-12.7523699227
 31
0.0
 11
-18.4296467251
 21
-12.6680280363
 31
0.0
 11
-18.4745950528
 21
-12.5738101975
 31
0.0
 11
-18.5028506686
 21
-12.4761355327
 31
0.0
 11
-18.5114171768
 21
-12.4123898514
 31
0.0
  0
SPLINE
  5
39D
100
AcDbEntity
  8
RACCORDO
100
AcDbSpline
 62
253
  6
CONTINUOUS
 70
0
 71
3
 72
13
 73
9
 74
7
 42
0.0000001
 43
0.0000001
 44
0.0000000001
 12
0.0000000015
 22
-0.5883132649
 32
0.0
 13
0.526203381
 23
-0.2631016905
 33
0.0
 40
0.0
 40
0.0
 40
0.0
 40
0.0
 40
0.1614208514
 40
0.3342536584
 40
0.511696283
 40
0.6862461197
 40
0.8508265196
 40
1.0
 40
1.0
 40
1.0
 40
1.0
 10
-18.5892648468
 20
-12.4200482715
 30
0.0
 10
-18.5892648468
 20
-12.4517036142
 30
0.0
 10
-18.5820148986
 20
-12.5173447157
 30
0.0
 10
-18.5536195065
 20
-12.6140276002
 30
0.0
 10
-18.5090870411
 20
-12.7072978143
 30
0.0
 10
-18.4512844156
 20
-12.791051987
 30
0.0
 10
-18.3840000621
 20
-12.8598518097
 30
0.0
 10
-18.332587331
 20
-12.894797191
 30
0.0
 10
-18.3064221344
 20
-12.9078797893
 30
0.0
 11
-18.5892648468
 21
-12.4200482715
 31
0.0
 11
-18.5796273386
 21
-12.5145240088
 31
0.0
 11
-18.5513715811
 21
-12.612198983
 31
0.0
 11
-18.5064224502
 21
-12.7064180573
 31
0.0
 11
-18.4478423925
 21
-12.7907602752
 31
0.0
 11
-18.3796263539
 21
-12.8594743221
 31
0.0
 11
-18.3064221344
 21
-12.9078797893
 31
0.0
  0
SPLINE
  5
39E
100
AcDbEntity
  8
RACCORDO
100
AcDbSpline
 62
253
  6
CONTINUOUS
 70
0
 71
3
 72
8
 73
4
 74
2
 42
0.0000001
 43
0.0000001
 44
0.0000000001
 12
-0.0510289931
 22
0.0309699365
 32
0.0
 13
-0.0460326675
 23
0.0381143508
 33
0.0
 40
0.0
 40
0.0
 40
0.0
 40
0.0
 40
1.0
 40
1.0
 40
1.0
 40
1.0
 10
-18.5654268579
 20
-13.0114159912
 30
0.0
 10
-18.5824365223
 20
-13.001092679
 30
0.0
 10
-18.5986334991
 20
-12.9893533561
 30
0.0
 10
-18.6139777216
 20
-12.9766485725
 30
0.0
 11
-18.5654268579
 21
-13.0114159912
 31
0.0
 11
-18.6139777216
 21
-12.9766485725
 31
0.0
  0
SPLINE
  5
39F
100
AcDbEntity
  8
RACCORDO
100
AcDbSpline
 62
253
  6
CONTINUOUS
 70
0
 71
3
 72
12
 73
8
 74
6
 42
0.0000001
 43
0.0000001
 44
0.0000000001
 12
-0.3628755744
 22
0.3004554744
 32
0.0
 13
-0.0322906906
 23
0.4692725458
 33
0.0
 40
0.0
 40
0.0
 40
0.0
 40
0.0
 40
0.2060943595
 40
0.424668736
 40
0.6468638444
 40
0.8632888135
 40
1.0
 40
1.0
 40
1.0
 40
1.0
 10
-18.6139777216
 20
-12.9766485725
 30
0.0
 10
-18.6389065913
 20
-12.9560078463
 30
0.0
 10
-18.6856359723
 20
-12.9082255922
 30
0.0
 10
-18.7434381189
 20
-12.8244714778
 30
0.0
 10
-18.7879700535
 20
-12.7312019385
 30
0.0
 10
-18.813465945
 20
-12.6443913401
 30
0.0
 10
-18.821072661
 20
-12.5893382787
 30
0.0
 10
-18.8225441605
 20
-12.5679533432
 30
0.0
 11
-18.6139777216
 21
-12.9766485725
 31
0.0
 11
-18.6821943417
 21
-12.9079334146
 31
0.0
 11
-18.7407737088
 21
-12.8235915281
 31
0.0
 11
-18.7857220365
 21
-12.7293736894
 31
0.0
 11
-18.8139776523
 21
-12.6316990246
 31
0.0
 11
-18.8225441605
 21
-12.5679533432
 31
0.0
  0
SPLINE
  5
3A0
100
AcDbEntity
  8
RACCORDO
100
AcDbSpline
 62
253
  6
CONTINUOUS
 70
0
 71
3
 72
10
 73
6
 74
4
 42
0.0000001
 43
0.0000001
 44
0.0000000001
 12
0.1265355138
 22
0.0643817372
 32
0.0
 13
0.0001341643
 23
0.1426231094
 33
0.0
 40
0.0
 40
0.0
 40
0.0
 40
0.0
 40
0.3964061254
 40
0.723896985
 40
1.0
 40
1.0
 40
1.0
 40
1.0
 10
-16.5492649859
 20
21.8518351301
 30
0.0
 10
-16.5325451683
 20
21.8603422351
 30
0.0
 10
-16.5032873617
 20
21.8788199279
 30
0.0
 10
-16.4713768553
 20
21.915121244
 30
0.0
 10
-16.4632528639
 20
21.9438452966
 30
0.0
 10
-16.4632405162
 20
21.9569715201
 30
0.0
 11
-16.5492649859
 21
21.8518351301
 31
0.0
 11
-16.5023485483
 21
21.8829181818
 31
0.0
 11
-16.4730155548
 21
21.9189922445
 31
0.0
 11
-16.4632405162
 21
21.9569715201
 31
0.0
  0
SPLINE
  5
3A1
100
AcDbEntity
  8
RACCORDO
100
AcDbSpline
 62
253
  6
CONTINUOUS
 70
0
 71
3
 72
13
 73
9
 74
7
 42
0.0000001
 43
0.0000001
 44
0.0000000001
 12
0.3968750625
 22
-0.1952331278
 32
0.0
 13
-0.0183474993
 23
-0.4419153298
 33
0.0
 40
0.0
 40
0.0
 40
0.0
 40
0.0
 40
0.1493795265
 40
0.3135970167
 40
0.4875219132
 40
0.6651197607
 40
0.8383611308
 40
1.0
 40
1.0
 40
1.0
 40
1.0
 10
-16.7521379878
 20
22.22197415
 30
0.0
 10
-16.7323763182
 20
22.2122528726
 30
0.0
 10
-16.6936749821
 20
22.186007484
 30
0.0
 10
-16.6437022916
 20
22.1337848702
 30
0.0
 10
-16.6016343492
 20
22.0699811577
 30
0.0
 10
-16.5702762446
 20
21.9988574245
 30
0.0
 10
-16.5516435433
 20
21.9252784471
 30
0.0
 10
-16.5482764296
 20
21.8756453615
 30
0.0
 10
-16.5492649859
 20
21.8518351301
 30
0.0
 11
-16.7521379878
 21
22.22197415
 31
0.0
 11
-16.6969938454
 21
22.1855823247
 31
0.0
 11
-16.6463669648
 21
22.1335012844
 31
0.0
 11
-16.6038109083
 21
22.0694182392
 31
0.0
 11
-16.5721194807
 21
21.9975441441
 31
0.0
 11
-16.5535790542
 21
21.9231970813
 31
0.0
 11
-16.5492649859
 21
21.8518351301
 31
0.0
  0
SPLINE
  5
3A2
100
AcDbEntity
  8
RACCORDO
100
AcDbSpline
 62
253
  6
CONTINUOUS
 70
0
 71
3
 72
13
 73
9
 74
7
 42
0.0000001
 43
0.0000001
 44
0.0000000001
 12
0.3968750625
 22
-0.1952331278
 32
0.0
 13
-0.0183474993
 23
-0.4419153298
 33
0.0
 40
0.0
 40
0.0
 40
0.0
 40
0.0
 40
0.1493795265
 40
0.3135970167
 40
0.4875219132
 40
0.6651197607
 40
0.8383611308
 40
1.0
 40
1.0
 40
1.0
 40
1.0
 10
-16.7521379878
 20
2.7364025649
 30
0.0
 10
-16.7323763182
 20
2.7266812875
 30
0.0
 10
-16.6936749821
 20
2.7004358988
 30
0.0
 10
-16.6437022916
 20
2.648213285
 30
0.0
 10
-16.6016343492
 20
2.5844095726
 30
0.0
 10
-16.5702762446
 20
2.5132858393
 30
0.0
 10
-16.5516435433
 20
2.4397068619
 30
0.0
 10
-16.5482764296
 20
2.3900737764
 30
0.0
 10
-16.5492649859
 20
2.366263545
 30
0.0
 11
-16.7521379878
 21
2.7364025649
 31
0.0
 11
-16.6969938454
 21
2.7000107395
 31
0.0
 11
-16.6463669648
 21
2.6479296992
 31
0.0
 11
-16.6038109083
 21
2.583846654
 31
0.0
 11
-16.5721194807
 21
2.5119725589
 31
0.0
 11
-16.5535790542
 21
2.4376254962
 31
0.0
 11
-16.5492649859
 21
2.366263545
 31
0.0
  0
SPLINE
  5
3A3
100
AcDbEntity
  8
RACCORDO
100
AcDbSpline
 62
253
  6
CONTINUOUS
 70
0
 71
3
 72
10
 73
6
 74
4
 42
0.0000001
 43
0.0000001
 44
0.0000000001
 12
0.1265355138
 22
0.0643817372
 32
0.0
 13
0.0001341643
 23
0.1426231094
 33
0.0
 40
0.0
 40
0.0
 40
0.0
 40
0.0
 40
0.3964061254
 40
0.723896985
 40
1.0
 40
1.0
 40
1.0
 40
1.0
 10
-16.5492649859
 20
2.366263545
 30
0.0
 10
-16.5325451683
 20
2.37477065
 30
0.0
 10
-16.5032873617
 20
2.3932483427
 30
0.0
 10
-16.4713768553
 20
2.4295496588
 30
0.0
 10
-16.4632528639
 20
2.4582737115
 30
0.0
 10
-16.4632405162
 20
2.471399935
 30
0.0
 11
-16.5492649859
 21
2.366263545
 31
0.0
 11
-16.5023485483
 21
2.3973465966
 31
0.0
 11
-16.4730155548
 21
2.4334206594
 31
0.0
 11
-16.4632405162
 21
2.471399935
 31
0.0
  0
SPLINE
  5
3A4
100
AcDbEntity
  8
RACCORDO
100
AcDbSpline
 62
253
  6
CONTINUOUS
 70
0
 71
3
 72
11
 73
7
 74
5
 42
0.0000001
 43
0.0000001
 44
0.0000000001
 12
0.0076172018
 22
-0.175715547
 32
0.0
 13
-0.1539789995
 23
-0.0876412162
 33
0.0
 40
0.0
 40
0.0
 40
0.0
 40
0.0
 40
0.3539976648
 40
0.6613311245
 40
0.9335247259
 40
1.0
 40
1.0
 40
1.0
 40
1.0
 10
-16.5492649859
 20
17.1787084346
 30
0.0
 10
-16.5483661621
 20
17.1579741368
 30
0.0
 10
-16.5505189455
 20
17.1188416997
 30
0.0
 10
-16.5685030369
 20
17.0661900252
 30
0.0
 10
-16.5937710108
 20
17.0364341202
 30
0.0
 10
-16.6105865315
 20
17.0255823982
 30
0.0
 10
-16.6139984636
 20
17.023640407
 30
0.0
 11
-16.5492649859
 21
17.1787084346
 31
0.0
 11
-16.5537044554
 21
17.1166056004
 31
0.0
 11
-16.5724151792
 21
17.0658932544
 31
0.0
 11
-16.6041227897
 21
17.0300253612
 31
0.0
 11
-16.6139984636
 21
17.023640407
 31
0.0
  0
SPLINE
  5
3A5
100
AcDbEntity
  8
RACCORDO
100
AcDbSpline
 62
253
  6
CONTINUOUS
 70
0
 71
3
 72
10
 73
6
 74
4
 42
0.0000001
 43
0.0000001
 44
0.0000000001
 12
0.1159946078
 22
0.0505520556
 32
0.0
 13
0.1140671485
 23
-0.0569950746
 33
0.0
 40
0.0
 40
0.0
 40
0.0
 40
0.0
 40
0.4280024362
 40
0.8131603189
 40
1.0
 40
1.0
 40
1.0
 40
1.0
 10
-16.9814312216
 20
22.3366207669
 30
0.0
 10
-16.9648825634
 20
22.3438329012
 30
0.0
 10
-16.9315188551
 20
22.3538971292
 30
0.0
 10
-16.8883720514
 20
22.3520952068
 30
0.0
 10
-16.8655074543
 20
22.3434602776
 30
0.0
 10
-16.8584033644
 20
22.3399106304
 30
0.0
 11
-16.9814312216
 21
22.3366207669
 31
0.0
 11
-16.9292840183
 21
22.3512332929
 31
0.0
 11
-16.8806383127
 21
22.3482900319
 31
0.0
 11
-16.8584033644
 21
22.3399106304
 31
0.0
  0
SPLINE
  5
3A6
100
AcDbEntity
  8
RACCORDO
100
AcDbSpline
 62
253
  6
CONTINUOUS
 70
0
 71
3
 72
11
 73
7
 74
5
 42
0.0000001
 43
0.0000001
 44
0.0000000001
 12
0.0076172018
 22
-0.175715547
 32
0.0
 13
-0.1539789995
 23
-0.0876412162
 33
0.0
 40
0.0
 40
0.0
 40
0.0
 40
0.0
 40
0.3539976648
 40
0.6613311245
 40
0.9335247259
 40
1.0
 40
1.0
 40
1.0
 40
1.0
 10
-16.5492649859
 20
-2.3068631506
 30
0.0
 10
-16.5483661621
 20
-2.3275974484
 30
0.0
 10
-16.5505189455
 20
-2.3667298854
 30
0.0
 10
-16.5685030369
 20
-2.4193815599
 30
0.0
 10
-16.5937710108
 20
-2.4491374649
 30
0.0
 10
-16.6105865315
 20
-2.4599891869
 30
0.0
 10
-16.6139984636
 20
-2.4619311782
 30
0.0
 11
-16.5492649859
 21
-2.3068631506
 31
0.0
 11
-16.5537044554
 21
-2.3689659847
 31
0.0
 11
-16.5724151792
 21
-2.4196783307
 31
0.0
 11
-16.6041227897
 21
-2.4555462239
 31
0.0
 11
-16.6139984636
 21
-2.4619311782
 31
0.0
  0
SPLINE
  5
3A7
100
AcDbEntity
  8
RACCORDO
100
AcDbSpline
 62
253
  6
CONTINUOUS
 70
0
 71
3
 72
10
 73
6
 74
4
 42
0.0000001
 43
0.0000001
 44
0.0000000001
 12
0.1159946078
 22
0.0505520556
 32
0.0
 13
0.1140671485
 23
-0.0569950746
 33
0.0
 40
0.0
 40
0.0
 40
0.0
 40
0.0
 40
0.4280024362
 40
0.8131603189
 40
1.0
 40
1.0
 40
1.0
 40
1.0
 10
-16.9814312216
 20
2.8510491818
 30
0.0
 10
-16.9648825634
 20
2.8582613161
 30
0.0
 10
-16.9315188551
 20
2.8683255441
 30
0.0
 10
-16.8883720514
 20
2.8665236216
 30
0.0
 10
-16.8655074543
 20
2.8578886925
 30
0.0
 10
-16.8584033644
 20
2.8543390453
 30
0.0
 11
-16.9814312216
 21
2.8510491818
 31
0.0
 11
-16.9292840183
 21
2.8656617078
 31
0.0
 11
-16.8806383127
 21
2.8627184468
 31
0.0
 11
-16.8584033644
 21
2.8543390453
 31
0.0
  0
SPLINE
  5
3A8
100
AcDbEntity
  8
RACCORDO
100
AcDbSpline
 62
253
  6
CONTINUOUS
 70
0
 71
3
 72
11
 73
7
 74
5
 42
0.0000001
 43
0.0000001
 44
0.0000000001
 12
0.0024824567
 22
-0.1829427869
 32
0.0
 13
-0.1596608517
 23
-0.0917465047
 33
0.0
 40
0.0
 40
0.0
 40
0.0
 40
0.0
 40
0.3487181368
 40
0.657619904
 40
0.9369265255
 40
1.0
 40
1.0
 40
1.0
 40
1.0
 10
11.4540122474
 20
-26.707264522
 30
0.0
 10
11.4543008066
 20
-26.728529678
 30
0.0
 10
11.4506337515
 20
-26.7689409942
 30
0.0
 10
11.4295819572
 20
-26.8230846344
 30
0.0
 10
11.4022246203
 20
-26.8533596695
 30
0.0
 10
11.3845150767
 20
-26.8646953151
 30
0.0
 10
11.3811582884
 20
-26.8666242387
 30
0.0
 11
11.4540122474
 21
-26.707264522
 31
0.0
 11
11.4472879904
 21
-26.7707105265
 31
0.0
 11
11.4257477547
 21
-26.8229612584
 31
0.0
 11
11.3909270687
 21
-26.8603633633
 31
0.0
 11
11.3811582884
 21
-26.8666242387
 31
0.0
  0
SPLINE
  5
3A9
100
AcDbEntity
  8
RACCORDO
100
AcDbSpline
 62
7
  6
CONTINUOUS
 70
0
 71
3
 72
10
 73
6
 74
4
 42
0.0000001
 43
0.0000001
 44
0.0000000001
 12
0.0720148787
 22
0.035112309
 32
0.0
 13
0.0715413699
 23
-0.0365157905
 33
0.0
 40
0.0
 40
0.0
 40
0.0
 40
0.0
 40
0.6237033946
 40
0.9405458361
 40
1.0
 40
1.0
 40
1.0
 40
1.0
 10
11.4540122474
 20
-25.9141940939
 30
0.0
 10
11.4689842222
 20
-25.9068942051
 30
0.0
 10
11.4929304001
 20
-25.8989953108
 30
0.0
 10
11.5156955462
 20
-25.8842505276
 30
0.0
 10
11.5276810211
 20
-25.8873976399
 30
0.0
 10
11.5290988319
 20
-25.8881213119
 30
0.0
 11
11.4540122474
 21
-25.9141940939
 31
0.0
 11
11.4996285129
 21
-25.8937933104
 31
0.0
 11
11.5239790062
 21
-25.8866202341
 31
0.0
 11
11.5290988319
 21
-25.8881213119
 31
0.0
  0
SPLINE
  5
3AA
100
AcDbEntity
  8
RACCORDO
100
AcDbSpline
 62
253
  6
CONTINUOUS
 70
0
 71
3
 72
11
 73
7
 74
5
 42
0.0000001
 43
0.0000001
 44
0.0000000001
 12
0.0024824567
 22
-0.1829427869
 32
0.0
 13
-0.1596608517
 23
-0.0917465047
 33
0.0
 40
0.0
 40
0.0
 40
0.0
 40
0.0
 40
0.3487181368
 40
0.657619904
 40
0.9369265255
 40
1.0
 40
1.0
 40
1.0
 40
1.0
 10
-4.4558903293
 20
-18.7523132337
 30
0.0
 10
-4.4556017701
 20
-18.7735783896
 30
0.0
 10
-4.4592688252
 20
-18.8139897058
 30
0.0
 10
-4.4803206195
 20
-18.8681333461
 30
0.0
 10
-4.5076779563
 20
-18.8984083811
 30
0.0
 10
-4.5253875
 20
-18.9097440268
 30
0.0
 10
-4.5287442883
 20
-18.9116729504
 30
0.0
 11
-4.4558903293
 21
-18.7523132337
 31
0.0
 11
-4.4626145863
 21
-18.8157592381
 31
0.0
 11
-4.484154822
 21
-18.86800997
 31
0.0
 11
-4.518975508
 21
-18.9054120749
 31
0.0
 11
-4.5287442883
 21
-18.9116729504
 31
0.0
  0
SPLINE
  5
3AB
100
AcDbEntity
  8
RACCORDO
100
AcDbSpline
 62
7
  6
CONTINUOUS
 70
0
 71
3
 72
10
 73
6
 74
4
 42
0.0000001
 43
0.0000001
 44
0.0000000001
 12
0.0720148787
 22
0.035112309
 32
0.0
 13
0.0715413699
 23
-0.0365157905
 33
0.0
 40
0.0
 40
0.0
 40
0.0
 40
0.0
 40
0.6237033946
 40
0.9405458361
 40
1.0
 40
1.0
 40
1.0
 40
1.0
 10
-4.4558903293
 20
-17.9592428055
 30
0.0
 10
-4.4409183545
 20
-17.9519429168
 30
0.0
 10
-4.4169721766
 20
-17.9440440224
 30
0.0
 10
-4.3942070305
 20
-17.9292992392
 30
0.0
 10
-4.3822215556
 20
-17.9324463516
 30
0.0
 10
-4.3808037448
 20
-17.9331700235
 30
0.0
 11
-4.4558903293
 21
-17.9592428055
 31
0.0
 11
-4.4102740638
 21
-17.9388420221
 31
0.0
 11
-4.3859235705
 21
-17.9316689457
 31
0.0
 11
-4.3808037448
 21
-17.9331700235
 31
0.0
  0
SPLINE
  5
3AC
100
AcDbEntity
  8
RACCORDO
100
AcDbSpline
 62
253
  6
CONTINUOUS
 70
0
 71
3
 72
12
 73
8
 74
6
 42
0.0000001
 43
0.0000001
 44
0.0000000001
 12
-0.3200497961
 22
0.3429649831
 32
0.0
 13
-0.0266694425
 23
0.4682419128
 33
0.0
 40
0.0
 40
0.0
 40
0.0
 40
0.0
 40
0.0804709326
 40
0.3299783988
 40
0.5836045863
 40
0.8306491734
 40
1.0
 40
1.0
 40
1.0
 40
1.0
 10
-18.623061732
 20
-12.9411316549
 30
0.0
 10
-18.6316466339
 20
-12.9319320842
 30
0.0
 10
-18.6656859801
 20
-12.8931226328
 30
0.0
 10
-18.717695103
 20
-12.8177637959
 30
0.0
 10
-18.7683908985
 20
-12.7115859816
 30
0.0
 10
-18.7980034596
 20
-12.6107612107
 30
0.0
 10
-18.8066370617
 20
-12.545953061
 30
0.0
 10
-18.8081425591
 20
-12.5195206761
 30
0.0
 11
-18.623061732
 21
-12.9411316549
 31
0.0
 11
-18.64797329
 21
-12.9127774121
 31
0.0
 11
-18.7146630151
 21
-12.8167600812
 31
0.0
 11
-18.7658315619
 21
-12.7095054326
 31
0.0
 11
-18.7979983819
 21
-12.5983134155
 31
0.0
 11
-18.8081425591
 21
-12.5195206761
 31
0.0
  0
SPLINE
  5
3AD
100
AcDbEntity
  8
RACCORDO
100
AcDbSpline
 62
253
  6
CONTINUOUS
 70
0
 71
3
 72
12
 73
8
 74
6
 42
0.0000001
 43
0.0000001
 44
0.0000000001
 12
-0.3200497961
 22
0.3429649831
 32
0.0
 13
-0.0266694425
 23
0.4682419128
 33
0.0
 40
0.0
 40
0.0
 40
0.0
 40
0.0
 40
0.0804709326
 40
0.3299783988
 40
0.5836045863
 40
0.8306491734
 40
1.0
 40
1.0
 40
1.0
 40
1.0
 10
-18.3119347483
 20
-12.785568163
 30
0.0
 10
-18.3205196502
 20
-12.7763685923
 30
0.0
 10
-18.3545589964
 20
-12.7375591409
 30
0.0
 10
-18.4065681193
 20
-12.662200304
 30
0.0
 10
-18.4572639147
 20
-12.5560224898
 30
0.0
 10
-18.4868764759
 20
-12.4551977188
 30
0.0
 10
-18.495510078
 20
-12.3903895692
 30
0.0
 10
-18.4970155753
 20
-12.3639571842
 30
0.0
 11
-18.3119347483
 21
-12.785568163
 31
0.0
 11
-18.3368463063
 21
-12.7572139202
 31
0.0
 11
-18.4035360313
 21
-12.6611965893
 31
0.0
 11
-18.4547045781
 21
-12.5539419408
 31
0.0
 11
-18.4868713982
 21
-12.4427499236
 31
0.0
 11
-18.4970155753
 21
-12.3639571842
 31
0.0
  0
SPLINE
  5
3AE
100
AcDbEntity
  8
RACCORDO
100
AcDbSpline
 62
253
  6
CONTINUOUS
 70
0
 71
3
 72
13
 73
9
 74
7
 42
0.0000001
 43
0.0000001
 44
0.0000000001
 12
0.0000000011
 22
-0.6098524005
 32
0.0
 13
0.5454685695
 23
-0.2727342848
 33
0.0
 40
0.0
 40
0.0
 40
0.0
 40
0.0
 40
0.1613810444
 40
0.3342363409
 40
0.5116982139
 40
0.6862448941
 40
0.8508261189
 40
1.0
 40
1.0
 40
1.0
 40
1.0
 10
-18.3134932022
 20
-12.2718071101
 30
0.0
 10
-18.3134932021
 20
-12.3046133159
 30
0.0
 10
-18.3059800187
 20
-12.3726540702
 30
0.0
 10
-18.276547516
 20
-12.4728780498
 30
0.0
 10
-18.2303818721
 20
-12.5695705401
 30
0.0
 10
-18.1704610145
 20
-12.6563938945
 30
0.0
 10
-18.1007136067
 20
-12.7277123834
 30
0.0
 10
-18.0474183718
 20
-12.7639373352
 30
0.0
 10
-18.0202951507
 20
-12.7774989458
 30
0.0
 11
-18.3134932022
 21
-12.2718071101
 31
0.0
 11
-18.3035075652
 21
-12.3697178414
 31
0.0
 11
-18.2742163815
 21
-12.4709828673
 31
0.0
 11
-18.2276172199
 21
-12.5686623822
 31
0.0
 11
-18.16689352
 21
-12.6560909111
 31
0.0
 11
-18.0961796887
 21
-12.7273211163
 31
0.0
 11
-18.0202951507
 21
-12.7774989458
 31
0.0
  0
SPLINE
  5
3AF
100
AcDbEntity
  8
RACCORDO
100
AcDbSpline
 62
253
  6
CONTINUOUS
 70
0
 71
3
 72
13
 73
9
 74
7
 42
0.0000001
 43
0.0000001
 44
0.0000000001
 12
-0.5990238101
 22
0.2995119063
 32
0.0
 13
0.0
 23
0.6697289803
 33
0.0
 40
0.0
 40
0.0
 40
0.0
 40
0.0
 40
0.1491537168
 40
0.3137471808
 40
0.4883025461
 40
0.6657456679
 40
0.8385764769
 40
1.0
 40
1.0
 40
1.0
 40
1.0
 10
-18.0490819472
 20
-12.8271488255
 30
0.0
 10
-18.0788641565
 20
-12.8122577209
 30
0.0
 10
-18.1373910838
 20
-12.7724782477
 30
0.0
 10
-18.2139878323
 20
-12.6941584362
 30
0.0
 10
-18.2797924424
 20
-12.5988103642
 30
0.0
 10
-18.3304881673
 20
-12.4926318555
 30
0.0
 10
-18.3628133881
 20
-12.3825690026
 30
0.0
 10
-18.3710667953
 20
-12.3078437806
 30
0.0
 10
-18.3710667953
 20
-12.2718071101
 30
0.0
 11
-18.0490819472
 21
-12.8271488255
 31
0.0
 11
-18.132406526
 21
-12.7720530957
 31
0.0
 11
-18.2100702413
 21
-12.6938248117
 31
0.0
 11
-18.2767595774
 21
-12.5978078254
 31
0.0
 11
-18.3279293796
 21
-12.4905496697
 31
0.0
 11
-18.36009522
 21
-12.379358954
 31
0.0
 11
-18.3710667953
 21
-12.2718071101
 31
0.0
  0
SPLINE
  5
3B0
100
AcDbEntity
  8
RACCORDO
100
AcDbSpline
 62
253
  6
CONTINUOUS
 70
0
 71
3
 72
8
 73
4
 74
2
 42
0.0000001
 43
0.0000001
 44
0.0000000001
 12
-0.0603530736
 22
0.0301765369
 32
0.0
 13
-0.0550310775
 23
0.039418053
 33
0.0
 40
0.0
 40
0.0
 40
0.0
 40
0.0
 40
1.0
 40
1.0
 40
1.0
 40
1.0
 10
-18.3852089309
 20
-13.0078949658
 30
0.0
 10
-18.4053266221
 20
-12.9978361202
 30
0.0
 10
-18.4245783733
 20
-12.9860002126
 30
0.0
 10
-18.4429220658
 20
-12.9728608616
 30
0.0
 11
-18.3852089309
 21
-13.0078949658
 31
0.0
 11
-18.4429220658
 21
-12.9728608616
 31
0.0
  0
SPLINE
  5
3B1
100
AcDbEntity
  8
RACCORDO
100
AcDbSpline
 62
253
  6
CONTINUOUS
 70
0
 71
3
 72
12
 73
8
 74
6
 42
0.0000001
 43
0.0000001
 44
0.0000000001
 12
-0.4011940899
 22
0.3792360216
 32
0.0
 13
-0.0
 23
0.5512691373
 33
0.0
 40
0.0
 40
0.0
 40
0.0
 40
0.0
 40
0.1394778674
 40
0.358353909
 40
0.5808605453
 40
0.7975846091
 40
1.0
 40
1.0
 40
1.0
 40
1.0
 10
-18.4988830229
 20
-12.9265232558
 30
0.0
 10
-18.5175355883
 20
-12.9088915786
 30
0.0
 10
-18.5624367201
 20
-12.8604583414
 30
0.0
 10
-18.6233402857
 20
-12.7722109656
 30
0.0
 10
-18.6756657984
 20
-12.66261877
 30
0.0
 10
-18.7090304172
 20
-12.5490162667
 30
0.0
 10
-18.7175491181
 20
-12.4718880518
 30
0.0
 10
-18.7175491181
 20
-12.4346929325
 30
0.0
 11
-18.4988830229
 21
-12.9265232558
 31
0.0
 11
-18.5513782133
 21
-12.8702789585
 31
0.0
 11
-18.6202091124
 21
-12.7711777578
 31
0.0
 11
-18.673024617
 21
-12.6604697926
 31
0.0
 11
-18.7062249924
 21
-12.5457021946
 31
0.0
 11
-18.7175491181
 21
-12.4346929325
 31
0.0
  0
SPLINE
  5
3B2
100
AcDbEntity
  8
RACCORDO
100
AcDbSpline
 62
253
  6
CONTINUOUS
 70
0
 71
3
 72
8
 73
4
 74
2
 42
0.0000001
 43
0.0000001
 44
0.0000000001
 12
-0.0599587508
 22
0.0363894541
 32
0.0
 13
-0.0540881316
 23
0.0447840609
 33
0.0
 40
0.0
 40
0.0
 40
0.0
 40
0.0
 40
1.0
 40
1.0
 40
1.0
 40
1.0
 10
-18.4909544546
 20
-13.0302576369
 30
0.0
 10
-18.5109407048
 20
-13.0181278188
 30
0.0
 10
-18.5299720576
 20
-13.0043342054
 30
0.0
 10
-18.5480014348
 20
-12.9894061851
 30
0.0
 11
-18.4909544546
 21
-13.0302576369
 31
0.0
 11
-18.5480014348
 21
-12.9894061851
 31
0.0
  0
SPLINE
  5
3B3
100
AcDbEntity
  8
RACCORDO
100
AcDbSpline
 62
253
  6
CONTINUOUS
 70
0
 71
3
 72
12
 73
8
 74
6
 42
0.0000001
 43
0.0000001
 44
0.0000000001
 12
-0.3478151084
 22
0.3287792666
 32
0.0
 13
-0.0638409071
 23
0.4747374071
 33
0.0
 40
0.0
 40
0.0
 40
0.0
 40
0.0
 40
0.1608840833
 40
0.4133519348
 40
0.6700032755
 40
0.9199879551
 40
1.0
 40
1.0
 40
1.0
 40
1.0
 10
-18.5756601728
 20
-12.9649111738
 30
0.0
 10
-18.5943128111
 20
-12.9472793902
 30
0.0
 10
-18.6392141061
 20
-12.8988458511
 30
0.0
 10
-18.7001174329
 20
-12.8105984846
 30
0.0
 10
-18.7524427174
 20
-12.7010064402
 30
0.0
 10
-18.7788888454
 20
-12.6109604449
 30
0.0
 10
-18.7875798905
 20
-12.5589479645
 30
0.0
 10
-18.789282571
 20
-12.5462863943
 30
0.0
 11
-18.5756601728
 21
-12.9649111738
 31
0.0
 11
-18.628155549
 21
-12.9086665331
 31
0.0
 11
-18.6969866198
 21
-12.8095647049
 31
0.0
 11
-18.7498013761
 21
-12.698857973
 31
0.0
 11
-18.7830017548
 21
-12.5840902022
 31
0.0
 11
-18.789282571
 21
-12.5462863943
 31
0.0
  0
SPLINE
  5
3B4
100
AcDbEntity
  8
RACCORDO
100
AcDbSpline
 62
253
  6
CONTINUOUS
 70
0
 71
3
 72
13
 73
9
 74
7
 42
0.0000001
 43
0.0000001
 44
0.0000000001
 12
0.0000000011
 22
-0.6098524005
 32
0.0
 13
0.5454685695
 23
-0.2727342848
 33
0.0
 40
0.0
 40
0.0
 40
0.0
 40
0.0
 40
0.1613810444
 40
0.3342363409
 40
0.5116982139
 40
0.6862448941
 40
0.8508261189
 40
1.0
 40
1.0
 40
1.0
 40
1.0
 10
-18.6246201859
 20
-12.427370602
 30
0.0
 10
-18.6246201858
 20
-12.4601768078
 30
0.0
 10
-18.6171070024
 20
-12.528217562
 30
0.0
 10
-18.5876744997
 20
-12.6284415417
 30
0.0
 10
-18.5415088558
 20
-12.725134032
 30
0.0
 10
-18.4815879982
 20
-12.8119573864
 30
0.0
 10
-18.4118405904
 20
-12.8832758753
 30
0.0
 10
-18.3585453556
 20
-12.9195008271
 30
0.0
 10
-18.3314221344
 20
-12.9330624377
 30
0.0
 11
-18.6246201859
 21
-12.427370602
 31
0.0
 11
-18.6146345489
 21
-12.5252813332
 31
0.0
 11
-18.5853433652
 21
-12.6265463592
 31
0.0
 11
-18.5387442036
 21
-12.7242258741
 31
0.0
 11
-18.4780205037
 21
-12.8116544029
 31
0.0
 11
-18.4073066724
 21
-12.8828846082
 31
0.0
 11
-18.3314221344
 21
-12.9330624377
 31
0.0
  0
SPLINE
  5
3B5
100
AcDbEntity
  8
RACCORDO
100
AcDbSpline
 62
253
  6
CONTINUOUS
 70
0
 71
3
 72
13
 73
9
 74
7
 42
0.0000001
 43
0.0000001
 44
0.0000000001
 12
-0.5990238101
 22
0.2995119063
 32
0.0
 13
-0.0
 23
0.6697289803
 33
0.0
 40
0.0
 40
0.0
 40
0.0
 40
0.0
 40
0.1491537168
 40
0.3137471808
 40
0.4883025461
 40
0.6657456679
 40
0.8385764769
 40
1.0
 40
1.0
 40
1.0
 40
1.0
 10
-18.3602089309
 20
-12.9827123174
 30
0.0
 10
-18.3899911402
 20
-12.9678212127
 30
0.0
 10
-18.4485180675
 20
-12.9280417396
 30
0.0
 10
-18.525114816
 20
-12.8497219281
 30
0.0
 10
-18.5909194262
 20
-12.7543738561
 30
0.0
 10
-18.641615151
 20
-12.6481953473
 30
0.0
 10
-18.6739403718
 20
-12.5381324944
 30
0.0
 10
-18.682193779
 20
-12.4634072725
 30
0.0
 10
-18.682193779
 20
-12.427370602
 30
0.0
 11
-18.3602089309
 21
-12.9827123174
 31
0.0
 11
-18.4435335097
 21
-12.9276165876
 31
0.0
 11
-18.5211972251
 21
-12.8493883035
 31
0.0
 11
-18.5878865611
 21
-12.7533713173
 31
0.0
 11
-18.6390563633
 21
-12.6461131616
 31
0.0
 11
-18.6712222037
 21
-12.5349224459
 31
0.0
 11
-18.682193779
 21
-12.427370602
 31
0.0
  0
SPLINE
  5
3B6
100
AcDbEntity
  8
RACCORDO
100
AcDbSpline
 62
253
  6
CONTINUOUS
 70
0
 71
3
 72
8
 73
4
 74
2
 42
0.0000001
 43
0.0000001
 44
0.0000000001
 12
-0.0603530736
 22
0.0301765369
 32
0.0
 13
-0.0550310775
 23
0.039418053
 33
0.0
 40
0.0
 40
0.0
 40
0.0
 40
0.0
 40
1.0
 40
1.0
 40
1.0
 40
1.0
 10
-18.0740819472
 20
-12.852331474
 30
0.0
 10
-18.0941996384
 20
-12.8422726283
 30
0.0
 10
-18.1134513896
 20
-12.8304367208
 30
0.0
 10
-18.1317950821
 20
-12.8172973698
 30
0.0
 11
-18.0740819472
 21
-12.852331474
 31
0.0
 11
-18.1317950821
 21
-12.8172973698
 31
0.0
  0
SPLINE
  5
3B7
100
AcDbEntity
  8
RACCORDO
100
AcDbSpline
 62
253
  6
CONTINUOUS
 70
0
 71
3
 72
12
 73
8
 74
6
 42
0.0000001
 43
0.0000001
 44
0.0000000001
 12
-0.4011940899
 22
0.3792360216
 32
0.0
 13
-0.0
 23
0.5512691373
 33
0.0
 40
0.0
 40
0.0
 40
0.0
 40
0.0
 40
0.1394778674
 40
0.358353909
 40
0.5808605453
 40
0.7975846091
 40
1.0
 40
1.0
 40
1.0
 40
1.0
 10
-18.1877560392
 20
-12.770959764
 30
0.0
 10
-18.2064086046
 20
-12.7533280868
 30
0.0
 10
-18.2513097364
 20
-12.7048948496
 30
0.0
 10
-18.312213302
 20
-12.6166474737
 30
0.0
 10
-18.3645388146
 20
-12.5070552782
 30
0.0
 10
-18.3979034335
 20
-12.3934527748
 30
0.0
 10
-18.4064221344
 20
-12.3163245599
 30
0.0
 10
-18.4064221344
 20
-12.2791294406
 30
0.0
 11
-18.1877560392
 21
-12.770959764
 31
0.0
 11
-18.2402512296
 21
-12.7147154666
 31
0.0
 11
-18.3090821287
 21
-12.6156142659
 31
0.0
 11
-18.3618976333
 21
-12.5049063007
 31
0.0
 11
-18.3950980087
 21
-12.3901387027
 31
0.0
 11
-18.4064221344
 21
-12.2791294406
 31
0.0
  0
SPLINE
  5
3B8
100
AcDbEntity
  8
RACCORDO
100
AcDbSpline
 62
253
  6
CONTINUOUS
 70
0
 71
3
 72
8
 73
4
 74
2
 42
0.0000001
 43
0.0000001
 44
0.0000000001
 12
-0.0599587508
 22
0.0363894541
 32
0.0
 13
-0.0540881316
 23
0.0447840609
 33
0.0
 40
0.0
 40
0.0
 40
0.0
 40
0.0
 40
1.0
 40
1.0
 40
1.0
 40
1.0
 10
-18.1798274708
 20
-12.874694145
 30
0.0
 10
-18.1998137211
 20
-12.862564327
 30
0.0
 10
-18.2188450739
 20
-12.8487707135
 30
0.0
 10
-18.2368744511
 20
-12.8338426932
 30
0.0
 11
-18.1798274708
 21
-12.874694145
 31
0.0
 11
-18.2368744511
 21
-12.8338426932
 31
0.0
  0
SPLINE
  5
3B9
100
AcDbEntity
  8
RACCORDO
100
AcDbSpline
 62
253
  6
CONTINUOUS
 70
0
 71
3
 72
12
 73
8
 74
6
 42
0.0000001
 43
0.0000001
 44
0.0000000001
 12
-0.3749092674
 22
0.3543905684
 32
0.0
 13
-0.0354068608
 23
0.5145586529
 33
0.0
 40
0.0
 40
0.0
 40
0.0
 40
0.0
 40
0.1492572197
 40
0.383479579
 40
0.6215830928
 40
0.8535017354
 40
1.0
 40
1.0
 40
1.0
 40
1.0
 10
-18.264533189
 20
-12.809347682
 30
0.0
 10
-18.2831858273
 20
-12.7917158983
 30
0.0
 10
-18.3280871223
 20
-12.7432823593
 30
0.0
 10
-18.3889904492
 20
-12.6550349927
 30
0.0
 10
-18.4413157336
 20
-12.5454429483
 30
0.0
 10
-18.4712735154
 20
-12.4434401798
 30
0.0
 10
-18.4802114177
 20
-12.3787528003
 30
0.0
 10
-18.4819404323
 20
-12.3536254837
 30
0.0
 11
-18.264533189
 21
-12.809347682
 31
0.0
 11
-18.3170285652
 21
-12.7531030413
 31
0.0
 11
-18.385859636
 21
-12.654001213
 31
0.0
 11
-18.4386743923
 21
-12.5432944811
 31
0.0
 11
-18.4718747711
 21
-12.4285267103
 31
0.0
 11
-18.4819404323
 21
-12.3536254837
 31
0.0
  0
SPLINE
  5
3BA
100
AcDbEntity
  8
SUPERFICI
100
AcDbSpline
 62
7
  6
CONTINUOUS
 70
0
 71
3
 72
10
 73
6
 74
4
 42
0.0000001
 43
0.0000001
 44
0.0000000001
 12
0.0
 22
4.3940700466
 32
0.0
 13
-3.9301757288
 23
1.9650878644
 33
0.0
 40
0.0
 40
0.0
 40
0.0
 40
0.0
 40
0.3342904765
 40
0.6865843886
 40
1.0
 40
1.0
 40
1.0
 40
1.0
 10
35.3801577019
 20
22.7683180052
 30
0.0
 10
35.3801577019
 20
23.2579499284
 30
0.0
 10
35.1567881279
 20
24.2657708668
 30
0.0
 10
34.4217115899
 20
25.5500272106
 30
0.0
 10
33.669430168
 20
26.2217579835
 30
0.0
 10
33.2588373583
 20
26.4270543884
 30
0.0
 11
35.3801577019
 21
22.7683180052
 31
0.0
 11
35.0959546654
 21
24.2094576291
 31
0.0
 11
34.3194975301
 21
25.5486480911
 31
0.0
 11
33.2588373583
 21
26.4270543884
 31
0.0
  0
SPLINE
  5
3BB
100
AcDbEntity
  8
SUPERFICI
100
AcDbSpline
 62
7
  6
CONTINUOUS
 70
0
 71
3
 72
9
 73
5
 74
3
 42
0.0000001
 43
0.0000001
 44
0.0000000001
 12
-1.2877596021
 22
0.6438798011
 32
0.0
 13
-1.2619714153
 23
-0.7644736371
 33
0.0
 40
0.0
 40
0.0
 40
0.0
 40
0.0
 40
0.747489447
 40
1.0
 40
1.0
 40
1.0
 40
1.0
 10
-29.6736661673
 20
57.8933061512
 30
0.0
 10
-29.9945284049
 20
58.05373727
 30
0.0
 10
-30.5140257739
 20
58.1913682422
 30
0.0
 10
-30.967589727
 20
57.9998076636
 30
0.0
 10
-31.0738100936
 20
57.9354617767
 30
0.0
 11
-29.6736661673
 21
57.8933061512
 31
0.0
 11
-30.734326339
 21
58.0755600257
 31
0.0
 11
-31.0738100936
 21
57.9354617767
 31
0.0
  0
SPLINE
  5
3BC
100
AcDbEntity
  8
0
100
AcDbSpline
 62
7
  6
CONTINUOUS
 70
0
 71
3
 72
10
 73
6
 74
4
 42
0.0000001
 43
0.0000001
 44
0.0000000001
 12
0.0
 22
-0.4394070047
 32
0.0
 13
0.3930175729
 23
-0.1965087864
 33
0.0
 40
0.0
 40
0.0
 40
0.0
 40
0.0
 40
0.3342904765
 40
0.6865843886
 40
1.0
 40
1.0
 40
1.0
 40
1.0
 10
-19.0317091104
 20
-12.7119810814
 30
0.0
 10
-19.0317091104
 20
-12.7609442737
 30
0.0
 10
-19.009372153
 20
-12.8617263676
 30
0.0
 10
-18.9358644992
 20
-12.990152002
 30
0.0
 10
-18.860636357
 20
-13.0573250792
 30
0.0
 10
-18.8195770761
 20
-13.0778547197
 30
0.0
 11
-19.0317091104
 21
-12.7119810814
 31
0.0
 11
-19.0032888068
 21
-12.8560950438
 31
0.0
 11
-18.9256430932
 21
-12.99001409
 31
0.0
 11
-18.8195770761
 21
-13.0778547197
 31
0.0
  0
SPLINE
  5
3BD
100
AcDbEntity
  8
0
100
AcDbSpline
 62
7
  6
CONTINUOUS
 70
0
 71
3
 72
10
 73
6
 74
4
 42
0.0000001
 43
0.0000001
 44
0.0000000001
 12
0.8501291673
 22
-0.4245258954
 32
0.0
 13
-0.0002943557
 23
-0.9502647822
 33
0.0
 40
0.0
 40
0.0
 40
0.0
 40
0.0
 40
0.2262773781
 40
0.6622201185
 40
1.0
 40
1.0
 40
1.0
 40
1.0
 10
11.4217301465
 20
9.9161190562
 30
0.0
 10
11.4858518128
 20
9.8840988541
 30
0.0
 10
11.6367557506
 20
9.728465123
 30
0.0
 10
11.7965083292
 20
9.4541089475
 30
0.0
 10
11.858937074
 20
9.2099541111
 30
0.0
 10
11.8589039315
 20
9.1029606692
 30
0.0
 11
11.4217301465
 21
9.9161190562
 31
0.0
 11
11.5837109464
 21
9.7746987491
 31
0.0
 11
11.7927693755
 21
9.4170569884
 31
0.0
 11
11.8589039315
 21
9.1029606692
 31
0.0
  0
SPLINE
  5
3BE
100
AcDbEntity
  8
0
100
AcDbSpline
 62
7
  6
CONTINUOUS
 70
0
 71
3
 72
9
 73
5
 74
3
 42
0.0000001
 43
0.0000001
 44
0.0000000001
 12
0.0000068687
 22
-0.0550466169
 32
0.0
 13
0.0133426358
 23
-0.020499373
 33
0.0
 40
0.0
 40
0.0
 40
0.0
 40
0.0
 40
0.7686243484
 40
1.0
 40
1.0
 40
1.0
 40
1.0
 10
11.8589071316
 20
-29.4350256917
 30
0.0
 10
11.8589088915
 20
-29.4491290818
 30
0.0
 10
11.8583123444
 20
-29.4727006424
 30
0.0
 10
11.8618645786
 20
-29.4824494727
 30
0.0
 10
11.8628936322
 20
-29.4840304913
 30
0.0
 11
11.8589071316
 21
-29.4350256917
 31
0.0
 11
11.8604428813
 21
-29.4771981932
 31
0.0
 11
11.8628936322
 21
-29.4840304913
 31
0.0
  0
SPLINE
  5
3BF
100
AcDbEntity
  8
SUPERFICI
100
AcDbSpline
 62
7
  6
CONTINUOUS
 70
0
 71
3
 72
9
 73
5
 74
3
 42
0.0000001
 43
0.0000001
 44
0.0000000001
 12
1.7918844005
 22
0.8071883358
 32
0.0
 13
0.0
 23
1.9340051951
 33
0.0
 40
0.0
 40
0.0
 40
0.0
 40
0.0
 40
0.3840074907
 40
1.0
 40
1.0
 40
1.0
 40
1.0
 10
34.5260580805
 20
-55.9575231356
 30
0.0
 10
34.7554237579
 20
-55.8542010132
 30
0.0
 10
35.2804946117
 20
-55.38945741
 30
0.0
 10
35.3801577019
 20
-54.7050538359
 30
0.0
 10
35.3801577019
 20
-54.3079429316
 30
0.0
 11
34.5260580805
 21
-55.9575231356
 31
0.0
 11
35.0959546654
 21
-55.464879519
 31
0.0
 11
35.3801577019
 21
-54.3079429316
 31
0.0
  0
SPLINE
  5
3C0
100
AcDbEntity
  8
RACCORDO
100
AcDbSpline
 62
253
  6
CONTINUOUS
 70
0
 71
3
 72
12
 73
8
 74
6
 42
0.0000001
 43
0.0000001
 44
0.0000000001
 12
-13.2767124126
 22
7.1009853702
 32
0.0
 13
-11.6476664763
 23
9.5408045418
 33
0.0
 40
0.0
 40
0.0
 40
0.0
 40
0.0
 40
0.1683865317
 40
0.3548977555
 40
0.5128836648
 40
0.8070491702
 40
1.0
 40
1.0
 40
1.0
 40
1.0
 10
-22.3531603845
 20
-2.8858386519
 30
0.0
 10
-23.098366903
 20
-2.4872685525
 30
0.0
 10
-24.65784727
 20
-1.6262047526
 30
0.0
 10
-26.8733867069
 20
-0.3148265861
 30
0.0
 10
-29.579640998
 20
1.4034293592
 30
0.0
 10
-32.2362759681
 20
3.2579052242
 30
0.0
 10
-34.1637480798
 20
4.7631681573
 30
0.0
 10
-34.9128903837
 20
5.3768035417
 30
0.0
 11
-22.3531603845
 21
-2.8858386519
 31
0.0
 11
-24.5722604045
 21
-1.6597419936
 31
0.0
 11
-26.9882896627
 21
-0.2284080522
 31
0.0
 11
-28.9960158085
 21
1.0472260977
 31
0.0
 11
-32.624447766
 21
3.5871405641
 31
0.0
 11
-34.9128903837
 21
5.3768035417
 31
0.0
  0
SPLINE
  5
3C1
100
AcDbEntity
  8
RACCORDO
100
AcDbSpline
 62
253
  6
CONTINUOUS
 70
0
 71
3
 72
34
 73
30
 74
28
 42
0.0000001
 43
0.0000001
 44
0.0000000001
 12
-23.1182936047
 22
11.5591437681
 32
0.0
 13
-23.1206013459
 23
11.5545271322
 33
0.0
 40
0.0
 40
0.0
 40
0.0
 40
0.0
 40
0.0962950271
 40
0.1839381382
 40
0.2633502855
 40
0.3350541691
 40
0.3998141105
 40
0.4585198834
 40
0.5119829032
 40
0.5607412929
 40
0.6052738031
 40
0.6460505921
 40
0.6835348811
 40
0.7181269277
 40
0.7499812984
 40
0.7792155708
 40
0.8061032607
 40
0.8309095027
 40
0.8537343628
 40
0.8746804731
 40
0.893914583
 40
0.9115537495
 40
0.9276582909
 40
0.9423166138
 40
0.9556700205
 40
0.9679188178
 40
0.9792676239
 40
0.989906845
 40
1.0
 40
1.0
 40
1.0
 40
1.0
 10
-10.3400287185
 20
43.5374555814
 30
0.0
 10
-11.0820876219
 20
43.9084849357
 30
0.0
 10
-12.4996333439
 20
44.6170065502
 30
0.0
 10
-14.5293844726
 20
45.6310114363
 30
0.0
 10
-16.3697614492
 20
46.5500099344
 30
0.0
 10
-18.0338599549
 20
47.3807152614
 30
0.0
 10
-19.5383124064
 20
48.1317995268
 30
0.0
 10
-20.9020664202
 20
48.8128663013
 30
0.0
 10
-22.1423839505
 20
49.4325324768
 30
0.0
 10
-23.273390617
 20
49.9977691193
 30
0.0
 10
-24.3065750113
 20
50.5142470154
 30
0.0
 10
-25.2527826055
 20
50.9874802486
 30
0.0
 10
-26.1222882664
 20
51.4226116948
 30
0.0
 10
-26.9232340967
 20
51.8229707135
 30
0.0
 10
-27.6610687975
 20
52.1906118382
 30
0.0
 10
-28.3398386808
 20
52.5279528022
 30
0.0
 10
-28.9644198083
 20
52.8378850425
 30
0.0
 10
-29.5395917503
 20
53.1231563093
 30
0.0
 10
-30.0689605101
 20
53.3855679376
 30
0.0
 10
-30.5549440859
 20
53.6274071054
 30
0.0
 10
-31.0009802353
 20
53.8492366234
 30
0.0
 10
-31.4098420399
 20
54.0521399288
 30
0.0
 10
-31.7840685681
 20
54.2361459618
 30
0.0
 10
-32.1258346414
 20
54.4024771905
 30
0.0
 10
-32.4381109548
 20
54.5534865975
 30
0.0
 10
-32.7251446243
 20
54.6911954969
 30
0.0
 10
-32.9906012072
 20
54.8198134537
 30
0.0
 10
-33.2389314336
 20
54.9411809112
 30
0.0
 10
-33.3989957953
 20
55.0204668028
 30
0.0
 10
-33.4767823995
 20
55.0593406805
 30
0.0
 11
-10.3400287185
 21
43.5374555814
 31
0.0
 11
-12.5663496824
 21
44.6502550901
 31
0.0
 11
-14.5928547971
 21
45.6626422346
 31
0.0
 11
-16.429198137
 21
46.5796380547
 31
0.0
 11
-18.0873822966
 21
47.4074473066
 31
0.0
 11
-19.5849633205
 21
48.1551327566
 31
0.0
 11
-20.9424585382
 21
48.8330850066
 31
0.0
 11
-22.1786301438
 21
49.4506759484
 31
0.0
 11
-23.3059488973
 21
50.014065164
 31
0.0
 11
-24.335500518
 21
50.5287508899
 31
0.0
 11
-25.2781339746
 21
51.0002082879
 31
0.0
 11
-26.1446070259
 21
51.4336940124
 31
0.0
 11
-26.9444201688
 21
51.8333402787
 31
0.0
 11
-27.6813389681
 21
52.2005476186
 31
0.0
 11
-28.357979212
 21
52.5368785853
 31
0.0
 11
-28.9804945096
 21
52.8458348712
 31
0.0
 11
-29.5548957087
 21
53.1307198779
 31
0.0
 11
-30.0833928554
 21
53.3928985637
 31
0.0
 11
-30.5681592405
 21
53.6339586607
 31
0.0
 11
-31.0133172457
 21
53.8552892861
 31
0.0
 11
-31.421814987
 21
54.0577560933
 31
0.0
 11
-31.7953792743
 21
54.2413798291
 31
0.0
 11
-32.1360162336
 21
54.4072476321
 31
0.0
 11
-32.4467592673
 21
54.557462556
 31
0.0
 11
-32.7320440814
 21
54.694739795
 31
0.0
 11
-32.9960276868
 21
54.8226339259
 31
0.0
 11
-33.2430481839
 21
54.9434712544
 31
0.0
 11
-33.4767823995
 21
55.0593406805
 31
0.0
  0
SPLINE
  5
3C2
100
AcDbEntity
  8
RACCORDO
100
AcDbSpline
 62
253
  6
CONTINUOUS
 70
0
 71
3
 72
12
 73
8
 74
6
 42
0.0000001
 43
0.0000001
 44
0.0000000001
 12
0.5130195287
 22
18.91654239
 32
0.0
 13
3.3482071084
 23
18.6249368916
 33
0.0
 40
0.0
 40
0.0
 40
0.0
 40
0.0
 40
0.1543676717
 40
0.3314827319
 40
0.4868596621
 40
0.7902705106
 40
1.0
 40
1.0
 40
1.0
 40
1.0
 10
-12.3228061495
 20
24.7352005677
 30
0.0
 10
-12.2964082728
 20
25.7085681027
 30
0.0
 10
-12.2126499515
 20
27.7980832788
 30
0.0
 10
-12.0074225158
 20
30.8626672726
 30
0.0
 10
-11.6361160151
 20
34.8569202417
 30
0.0
 10
-11.1011284483
 20
39.0413254241
 30
0.0
 10
-10.5741012696
 20
42.2353896241
 30
0.0
 10
-10.3400286805
 20
43.5374557925
 30
0.0
 11
-12.3228061495
 21
24.7352005677
 31
0.0
 11
-12.2062591726
 21
27.6540509677
 31
0.0
 11
-11.9829398603
 21
30.9982392494
 31
0.0
 11
-11.7111687833
 21
33.9259273209
 31
0.0
 11
-10.9854702956
 21
39.6214754969
 31
0.0
 11
-10.3400286805
 21
43.5374557925
 31
0.0
  0
SPLINE
  5
3C3
100
AcDbEntity
  8
0
100
AcDbSpline
 62
253
  6
CONTINUOUS
 70
0
 71
3
 72
8
 73
4
 74
2
 42
0.0000001
 43
0.0000001
 44
0.0000000001
 12
-0.0000000017
 22
0.1437663761
 32
0.0
 13
0.0689489178
 23
0.1282839177
 33
0.0
 40
0.0
 40
0.0
 40
0.0
 40
0.0
 40
1.0
 40
1.0
 40
1.0
 40
1.0
 10
-19.944525673
 20
25.4431773665
 30
0.0
 10
-19.9445256736
 20
25.4910994918
 30
0.0
 10
-19.9378843509
 20
25.5416694792
 30
0.0
 10
-19.9149013783
 20
25.5844307851
 30
0.0
 11
-19.944525673
 21
25.4431773665
 31
0.0
 11
-19.9149013783
 21
25.5844307851
 31
0.0
  0
SPLINE
  5
3C4
100
AcDbEntity
  8
RACCORDO
100
AcDbSpline
 62
253
  6
CONTINUOUS
 70
0
 71
3
 72
26
 73
22
 74
20
 42
0.0000001
 43
0.0000001
 44
0.0000000001
 12
-7.4226608606
 22
3.7113280873
 32
0.0
 13
-7.4299330442
 23
3.6967479468
 33
0.0
 40
0.0
 40
0.0
 40
0.0
 40
0.0
 40
0.0934594226
 40
0.1795110766
 40
0.2588404085
 40
0.3320655111
 40
0.3997177951
 40
0.4621904939
 40
0.5195851059
 40
0.571812515
 40
0.6192301812
 40
0.6631561322
 40
0.7049626307
 40
0.7459495165
 40
0.7863151583
 40
0.8249577508
 40
0.8615316127
 40
0.8966242848
 40
0.9309091475
 40
0.9653065328
 40
1.0
 40
1.0
 40
1.0
 40
1.0
 10
-12.3228061041
 20
24.7352022415
 30
0.0
 10
-12.5540453036
 20
24.8508217682
 30
0.0
 10
-12.9983053244
 20
25.0726764163
 30
0.0
 10
-13.6389793404
 20
25.392398155
 30
0.0
 10
-14.2294849932
 20
25.6872966104
 30
0.0
 10
-14.7742927436
 20
25.9597808613
 30
0.0
 10
-15.2772033904
 20
26.2117913299
 30
0.0
 10
-15.7407576873
 20
26.4445929108
 30
0.0
 10
-16.166006901
 20
26.6585914581
 30
0.0
 10
-16.5540518712
 20
26.8538750619
 30
0.0
 10
-16.9088565619
 20
27.0323289638
 30
0.0
 10
-17.2379921653
 20
27.1976630704
 30
0.0
 10
-17.5513371084
 20
27.354801473
 30
0.0
 10
-17.8560058134
 20
27.5072704516
 30
0.0
 10
-18.1530131127
 20
27.6554915921
 30
0.0
 10
-18.4392889773
 20
27.7978775104
 30
0.0
 10
-18.7127688652
 20
27.9332349784
 30
0.0
 10
-18.9755182338
 20
28.0630968682
 30
0.0
 10
-19.2328888341
 20
28.1902533887
 30
0.0
 10
-19.4891993548
 20
28.3170622349
 30
0.0
 10
-19.6604537459
 20
28.4019159202
 30
0.0
 10
-19.7463771253
 20
28.4446669214
 30
0.0
 11
-12.3228061041
 21
24.7352022415
 31
0.0
 11
-13.0166546935
 21
25.0817987158
 31
0.0
 11
-13.6556022836
 21
25.4007335798
 31
0.0
 11
-14.2445613103
 21
25.694902026
 31
0.0
 11
-14.7880442721
 21
25.9667486735
 31
0.0
 11
-15.2899746128
 21
26.2182872106
 31
0.0
 11
-15.7532778976
 21
26.4509628264
 31
0.0
 11
-16.178774584
 21
26.6650179633
 31
0.0
 11
-16.5659445169
 21
26.8598406759
 31
0.0
 11
-16.9175010967
 21
27.036638182
 31
0.0
 11
-17.2432500373
 21
27.2002574297
 31
0.0
 11
-17.5533856594
 21
27.3557742183
 31
0.0
 11
-17.8575711018
 21
27.5079825854
 31
0.0
 11
-18.1573121092
 21
27.6575514075
 31
0.0
 11
-18.4444603982
 21
27.8003301202
 31
0.0
 11
-18.7164539508
 21
27.9350263792
 31
0.0
 11
-18.9775247203
 21
28.0640805276
 31
0.0
 11
-19.2325981765
 21
28.1901389354
 31
0.0
 11
-19.4884528579
 21
28.316724163
 31
0.0
 11
-19.7463771253
 21
28.4446669214
 31
0.0
  0
SPLINE
  5
3C5
100
AcDbEntity
  8
RACCORDO
100
AcDbSpline
 62
253
  6
CONTINUOUS
 70
0
 71
3
 72
22
 73
18
 74
16
 42
0.0000001
 43
0.0000001
 44
0.0000000001
 12
-3.6279901366
 22
1.8052463209
 32
0.0
 13
0.0027025915
 23
-4.0523103788
 33
0.0
 40
0.0
 40
0.0
 40
0.0
 40
0.0
 40
0.0723642529
 40
0.1400299281
 40
0.2046724266
 40
0.2639413194
 40
0.3193880651
 40
0.3741330506
 40
0.4274209349
 40
0.4818229433
 40
0.5366999846
 40
0.5917587308
 40
0.6512957399
 40
0.7194190027
 40
0.7989117938
 40
0.8917707105
 40
1.0
 40
1.0
 40
1.0
 40
1.0
 10
-19.7463771253
 20
28.4446669214
 30
0.0
 10
-19.8338893905
 20
28.4882120219
 30
0.0
 10
-20.0076177642
 20
28.5640670199
 30
0.0
 10
-20.2720410764
 20
28.6466500292
 30
0.0
 10
-20.5272031358
 20
28.693916145
 30
0.0
 10
-20.769827141
 20
28.706394376
 30
0.0
 10
-20.9988425427
 20
28.686211975
 30
0.0
 10
-21.2132215102
 20
28.6308208373
 30
0.0
 10
-21.4195603893
 20
28.55394295
 30
0.0
 10
-21.6080879731
 20
28.4388271157
 30
0.0
 10
-21.7773847957
 20
28.2939245062
 30
0.0
 10
-21.9265448182
 20
28.1191678836
 30
0.0
 10
-22.0595588197
 20
27.9103862978
 30
0.0
 10
-22.1768900881
 20
27.6554347235
 30
0.0
 10
-22.2732011279
 20
27.3442728176
 30
0.0
 10
-22.3389676663
 20
26.9700748551
 30
0.0
 10
-22.3532376461
 20
26.698074246
 30
0.0
 10
-22.3531401462
 20
26.551881355
 30
0.0
 11
-19.7463771253
 21
28.4446669214
 31
0.0
 11
-20.0153648319
 21
28.5614434801
 31
0.0
 11
-20.2773299756
 21
28.6424447651
 31
0.0
 11
-20.5350627698
 21
28.6892679284
 31
0.0
 11
-20.7749577578
 21
28.7008828862
 31
0.0
 11
-20.9986724912
 21
28.6799979987
 31
0.0
 11
-21.2139931216
 21
28.6265970315
 31
0.0
 11
-21.4152289382
 21
28.5482782051
 31
0.0
 11
-21.6040294234
 21
28.4344613052
 31
0.0
 11
-21.7730876893
 21
28.2899910412
 31
0.0
 11
-21.9185778444
 21
28.1208372723
 31
0.0
 11
-22.048822043
 21
27.9177509863
 31
0.0
 11
-22.1652349477
 21
27.6674405419
 31
0.0
 11
-22.2617577187
 21
27.3601120672
 31
0.0
 11
-22.3283569536
 21
26.9897593418
 31
0.0
 11
-22.3531401462
 21
26.551881355
 31
0.0
  0
SPLINE
  5
3C6
100
AcDbEntity
  8
0
100
AcDbSpline
 62
253
  6
CONTINUOUS
 70
0
 71
3
 72
10
 73
6
 74
4
 42
0.0000001
 43
0.0000001
 44
0.0000000001
 12
-0.5290730271
 22
0.2645365179
 32
0.0
 13
0.0000000089
 23
0.5915216287
 33
0.0
 40
0.0
 40
0.0
 40
0.0
 40
0.0
 40
0.3134156115
 40
0.6657095236
 40
1.0
 40
1.0
 40
1.0
 40
1.0
 10
-19.6589567867
 20
-13.5874851955
 30
0.0
 10
-19.7142300355
 20
-13.5598485707
 30
0.0
 10
-19.8155007774
 20
-13.4694214099
 30
0.0
 10
-19.9144554284
 20
-13.2965371825
 30
0.0
 10
-19.9445250312
 20
-13.1608661812
 30
0.0
 10
-19.9445250302
 20
-13.0949528322
 30
0.0
 11
-19.6589567867
 21
-13.5874851955
 31
0.0
 11
-19.8017409085
 21
-13.4692357552
 31
0.0
 11
-19.9062661401
 21
-13.288956398
 31
0.0
 11
-19.9445250302
 21
-13.0949528322
 31
0.0
  0
SPLINE
  5
3C7
100
AcDbEntity
  8
RACCORDO
100
AcDbSpline
 62
253
  6
CONTINUOUS
 70
0
 71
3
 72
18
 73
14
 74
12
 42
0.0000001
 43
0.0000001
 44
0.0000000001
 12
0.0058468052
 22
-9.0861229701
 32
0.0
 13
-0.0000001175
 23
-9.0861248513
 33
0.0
 40
0.0
 40
0.0
 40
0.0
 40
0.0
 40
0.1173567965
 40
0.2310914828
 40
0.3471081451
 40
0.4617525903
 40
0.5642478039
 40
0.6557550348
 40
0.7383663147
 40
0.8131586053
 40
0.8811255094
 40
0.9431192344
 40
1.0
 40
1.0
 40
1.0
 40
1.0
 10
-22.3531401462
 20
26.551881355
 30
0.0
 10
-22.3529114255
 20
26.1964419269
 30
0.0
 10
-22.352544906
 20
25.4965333005
 30
0.0
 10
-22.3525989023
 20
24.4452439598
 30
0.0
 10
-22.3522639288
 20
23.4021696151
 30
0.0
 10
-22.3522002226
 20
22.393136283
 30
0.0
 10
-22.3525030343
 20
21.458334932
 30
0.0
 10
-22.3527463309
 20
20.6205526902
 30
0.0
 10
-22.3529055502
 20
19.8666744999
 30
0.0
 10
-22.3530245463
 20
19.1840930867
 30
0.0
 10
-22.3531034189
 20
18.5639562275
 30
0.0
 10
-22.353151509
 20
17.9980681494
 30
0.0
 10
-22.353157413
 20
17.6380319949
 30
0.0
 10
-22.3531574152
 20
17.4657567489
 30
0.0
 11
-22.3531401462
 21
26.551881355
 31
0.0
 11
-22.3526429571
 21
25.4855629657
 31
0.0
 11
-22.3525350268
 21
24.452155412
 31
0.0
 11
-22.3523081927
 21
23.3980135576
 31
0.0
 11
-22.352268859
 21
22.356339816
 31
0.0
 11
-22.3525083161
 21
21.4250555392
 31
0.0
 11
-22.3527426188
 21
20.5936094477
 31
0.0
 11
-22.3529057104
 21
19.8429930621
 31
0.0
 11
-22.3530225549
 21
19.1634209813
 31
0.0
 11
-22.3531011763
 21
18.54586521
 31
0.0
 11
-22.3531461094
 21
17.9825824869
 31
0.0
 11
-22.3531574152
 21
17.4657567489
 31
0.0
  0
SPLINE
  5
3C8
100
AcDbEntity
  8
RACCORDO
100
AcDbSpline
 62
253
  6
CONTINUOUS
 70
0
 71
3
 72
11
 73
7
 74
5
 42
0.0000001
 43
0.0000001
 44
0.0000000001
 12
7.4127546178
 22
-5.0412173617
 32
0.0
 13
7.9036380664
 23
-4.2272225637
 33
0.0
 40
0.0
 40
0.0
 40
0.0
 40
0.0
 40
0.1384462623
 40
0.4038346144
 40
0.7171404439
 40
1.0
 40
1.0
 40
1.0
 40
1.0
 10
-30.0279133237
 20
22.0883224898
 30
0.0
 10
-29.6858239337
 20
21.8556765894
 30
0.0
 10
-28.6823835265
 20
21.1853393125
 30
0.0
 10
-26.8733867069
 20
20.0367704028
 30
0.0
 10
-24.6578472701
 20
18.7253922364
 30
0.0
 10
-23.0983669033
 20
17.8643284366
 30
0.0
 10
-22.3531603849
 20
17.4657583372
 30
0.0
 11
-30.0279133237
 21
22.0883224898
 31
0.0
 11
-28.9960158085
 21
21.3988230866
 31
0.0
 11
-26.9882896627
 21
20.1231889367
 31
0.0
 11
-24.5722604045
 21
18.6918549953
 31
0.0
 11
-22.3531603849
 21
17.4657583372
 31
0.0
  0
SPLINE
  5
3C9
100
AcDbEntity
  8
RACCORDO
100
AcDbSpline
 62
253
  6
CONTINUOUS
 70
0
 71
3
 72
37
 73
33
 74
31
 42
0.0000001
 43
0.0000001
 44
0.0000000001
 12
-0.6614045368
 22
-25.7750432575
 32
0.0
 13
-0.0123832221
 23
-25.7834375177
 33
0.0
 40
0.0
 40
0.0
 40
0.0
 40
0.0
 40
0.0077874642
 40
0.0195506613
 40
0.0313341992
 40
0.0430668521
 40
0.0547280593
 40
0.0666091135
 40
0.0791411726
 40
0.0927632878
 40
0.1079155152
 40
0.1249829997
 40
0.1439723183
 40
0.1647430693
 40
0.1871663673
 40
0.2113287551
 40
0.2375347032
 40
0.26609281
 40
0.2973093415
 40
0.331482677
 40
0.3688406834
 40
0.4095846859
 40
0.453931648
 40
0.5020677997
 40
0.554128509
 40
0.6102760345
 40
0.6709827823
 40
0.736836293
 40
0.8083706365
 40
0.8860457231
 40
0.9702969225
 40
1.0
 40
1.0
 40
1.0
 40
1.0
 10
-34.8297079265
 20
53.0994041001
 30
0.0
 10
-34.8314248146
 20
53.0324966913
 30
0.0
 10
-34.8352386598
 20
52.8645108028
 30
0.0
 10
-34.8393060095
 20
52.5952369916
 30
0.0
 10
-34.841715559
 20
52.2920379163
 30
0.0
 10
-34.8451640362
 20
51.9897258544
 30
0.0
 10
-34.8489324586
 20
51.6865797278
 30
0.0
 10
-34.8531389964
 20
51.3765682
 30
0.0
 10
-34.8573525523
 20
51.0497023351
 30
0.0
 10
-34.8617371985
 20
50.6947223498
 30
0.0
 10
-34.8663024562
 20
50.3007620882
 30
0.0
 10
-34.870989339
 20
49.8606719923
 30
0.0
 10
-34.875610239
 20
49.3722903835
 30
0.0
 10
-34.8796981636
 20
48.8378720201
 30
0.0
 10
-34.8831566325
 20
48.2589885412
 30
0.0
 10
-34.8858816177
 20
47.6333880414
 30
0.0
 10
-34.888098126
 20
46.9550598354
 30
0.0
 10
-34.8897977794
 20
46.2161032638
 30
0.0
 10
-34.8910097459
 20
45.4086701375
 30
0.0
 10
-34.891855087
 20
44.5256059928
 30
0.0
 10
-34.8926582529
 20
43.5606581338
 30
0.0
 10
-34.8938005729
 20
42.5082735202
 30
0.0
 10
-34.8952326492
 20
41.3632566367
 30
0.0
 10
-34.8969722524
 20
40.1209788653
 30
0.0
 10
-34.8989984449
 20
38.7772817013
 30
0.0
 10
-34.9012394051
 20
37.3255470052
 30
0.0
 10
-34.9035235785
 20
35.7552702808
 30
0.0
 10
-34.9057370751
 20
34.0527516362
 30
0.0
 10
-34.9080058881
 20
32.2043989033
 30
0.0
 10
-34.9103232378
 20
30.1979275399
 30
0.0
 10
-34.9118004359
 20
28.5509734633
 30
0.0
 10
-34.912367785
 20
27.5715958477
 30
0.0
 10
-34.9124903916
 20
27.3163133664
 30
0.0
 11
-34.8297079265
 21
53.0994041001
 31
0.0
 11
-34.8342606327
 21
52.898667705
 31
0.0
 11
-34.8389419259
 21
52.5954081513
 31
0.0
 11
-34.8418945874
 21
52.2916023599
 31
0.0
 11
-34.8452228158
 21
51.9891125194
 31
0.0
 11
-34.8489654484
 21
51.6884697808
 31
0.0
 11
-34.8530293908
 21
51.3821622941
 31
0.0
 11
-34.8572039867
 21
51.0590696692
 31
0.0
 11
-34.8615324597
 21
50.7078713564
 31
0.0
 11
-34.8660542688
 21
50.3172209836
 31
0.0
 11
-34.8707309577
 21
49.8771873759
 31
0.0
 11
-34.8753241329
 21
49.3875989696
 31
0.0
 11
-34.8794457569
 21
48.8520734227
 31
0.0
 11
-34.8829172015
 21
48.2739340917
 31
0.0
 11
-34.8856967145
 21
47.650950821
 31
0.0
 11
-34.8879277938
 21
46.9752750224
 31
0.0
 11
-34.8896515281
 21
46.2389508142
 31
0.0
 11
-34.8909019616
 21
45.4340822253
 31
0.0
 11
-34.8918113549
 21
44.5529765571
 31
0.0
 11
-34.8926729039
 21
43.5897590357
 31
0.0
 11
-34.8937946681
 21
42.5392390988
 31
0.0
 11
-34.8952192653
 21
41.395822762
 31
0.0
 11
-34.8969464033
 21
40.1547083956
 31
0.0
 11
-34.8989531698
 21
38.8124057328
 31
0.0
 11
-34.9011582801
 21
37.3647310709
 31
0.0
 11
-34.9034205692
 21
35.799503932
 31
0.0
 11
-34.9056538883
 21
34.1015753737
 31
0.0
 11
-34.9079197249
 21
32.2571753308
 31
0.0
 11
-34.9101753395
 21
30.2544456831
 31
0.0
 11
-34.9120508814
 21
28.0821607705
 31
0.0
 11
-34.9124903916
 21
27.3163133664
 31
0.0
  0
LINE
  5
3CA
100
AcDbEntity
  8
RACCORDO
100
AcDbLine
 62
253
  6
CONTINUOUS
 10
-34.9124903916
 20
27.3163133664
 11
-34.9128785385
 21
25.9889001201
  0
LINE
  5
3CB
100
AcDbEntity
  8
RACCORDO
100
AcDbLine
 62
253
  6
CONTINUOUS
 10
-34.9128785385
 20
25.9889001201
 11
-34.91289011
 21
25.7284003065
  0
SPLINE
  5
3CC
100
AcDbEntity
  8
RACCORDO
100
AcDbSpline
 62
253
  6
CONTINUOUS
 70
0
 71
3
 72
8
 73
4
 74
2
 42
0.0000001
 43
0.0000001
 44
0.0000000001
 12
-0.2125763979
 22
0.1062255279
 32
0.0
 13
-0.2303050618
 23
0.060692842
 33
0.0
 40
0.0
 40
0.0
 40
0.0
 40
0.0
 40
1.0
 40
1.0
 40
1.0
 40
1.0
 10
-33.4767823995
 20
55.0593406805
 30
0.0
 10
-33.5476411988
 20
55.0947491899
 30
0.0
 10
-33.6221032512
 20
55.1236613298
 30
0.0
 10
-33.6988716051
 20
55.1438922771
 30
0.0
 11
-33.4767823995
 21
55.0593406805
 31
0.0
 11
-33.6988716051
 21
55.1438922771
 31
0.0
  0
SPLINE
  5
3CD
100
AcDbEntity
  8
RACCORDO
100
AcDbSpline
 62
253
  6
CONTINUOUS
 70
0
 71
3
 72
15
 73
11
 74
9
 42
0.0000001
 43
0.0000001
 44
0.0000000001
 12
-1.5932947653
 22
0.4198847683
 32
0.0
 13
-0.1790873961
 23
-1.6366939709
 33
0.0
 40
0.0
 40
0.0
 40
0.0
 40
0.0
 40
0.1230868464
 40
0.2344023221
 40
0.3409728404
 40
0.449472004
 40
0.5674568394
 40
0.7046823305
 40
0.8703629729
 40
1.0
 40
1.0
 40
1.0
 40
1.0
 10
-33.6988716051
 20
55.1438922771
 30
0.0
 10
-33.7642428145
 20
55.1611197078
 30
0.0
 10
-33.8919182257
 20
55.1819392639
 30
0.0
 10
-34.0800942281
 20
55.1711364089
 30
0.0
 10
-34.2528834149
 20
55.1184704206
 30
0.0
 10
-34.4106174805
 20
55.0229655893
 30
0.0
 10
-34.5519709967
 20
54.8796911373
 30
0.0
 10
-34.6717777768
 20
54.6802418538
 30
0.0
 10
-34.7476233482
 20
54.4539668305
 30
0.0
 10
-34.7745819555
 20
54.2937703981
 30
0.0
 10
-34.7823207413
 20
54.2230450179
 30
0.0
 11
-33.6988716051
 21
55.1438922771
 31
0.0
 11
-33.8987949439
 21
55.1751962486
 31
0.0
 11
-34.0814346096
 21
55.1636112559
 31
0.0
 11
-34.2489154998
 21
55.1121599549
 31
0.0
 11
-34.4017093701
 21
55.0201151588
 31
0.0
 11
-34.5388209095
 21
54.8829097417
 31
0.0
 11
-34.6568829787
 21
54.6906640843
 31
0.0
 11
-34.7461299523
 21
54.4333149232
 31
0.0
 11
-34.7823207413
 21
54.2230450179
 31
0.0
  0
LINE
  5
3CE
100
AcDbEntity
  8
RACCORDO
100
AcDbLine
 62
253
  6
CONTINUOUS
 10
3.876698139
 20
-27.2406016517
 11
6.5442050348
 21
-28.5743032923
  0
LINE
  5
3CF
100
AcDbEntity
  8
RACCORDO
100
AcDbLine
 62
253
  6
CONTINUOUS
 10
6.5442050348
 20
-28.5743032923
 11
7.675497916
 21
-29.1401466412
  0
LINE
  5
3D0
100
AcDbEntity
  8
RACCORDO
100
AcDbLine
 62
253
  6
CONTINUOUS
 10
7.675497916
 20
-29.1401466412
 11
8.2245287574
 21
-29.4147921011
  0
LINE
  5
3D1
100
AcDbEntity
  8
RACCORDO
100
AcDbLine
 62
253
  6
CONTINUOUS
 10
8.2245287574
 20
-29.4147921011
 11
9.825845623
 21
-30.2157327226
  0
LINE
  5
3D2
100
AcDbEntity
  8
RACCORDO
100
AcDbLine
 62
253
  6
CONTINUOUS
 10
9.825845623
 20
-30.2157327226
 11
10.5829002059
 21
-30.5942521454
  0
LINE
  5
3D3
100
AcDbEntity
  8
RACCORDO
100
AcDbLine
 62
253
  6
CONTINUOUS
 10
10.5829002059
 20
-30.5942521454
 11
11.3024560988
 21
-30.9538884606
  0
SPLINE
  5
3D4
100
AcDbEntity
  8
RACCORDO
100
AcDbSpline
 62
253
  6
CONTINUOUS
 70
0
 71
3
 72
11
 73
7
 74
5
 42
0.0000001
 43
0.0000001
 44
0.0000000001
 12
-1.2255352426
 22
1.4068996746
 32
0.0
 13
1.5948780382
 23
0.9683322614
 33
0.0
 40
0.0
 40
0.0
 40
0.0
 40
0.0
 40
0.2034339757
 40
0.461330465
 40
0.7425232496
 40
1.0
 40
1.0
 40
1.0
 40
1.0
 10
3.8766969803
 20
-27.2406003581
 30
0.0
 10
3.7935918113
 20
-27.1451966267
 30
0.0
 10
3.704423501
 20
-26.8495345273
 30
0.0
 10
3.7792647434
 20
-26.3864636975
 30
0.0
 10
4.0027914909
 20
-25.9367208819
 30
0.0
 10
4.2457262636
 20
-25.6914483326
 30
0.0
 10
4.3826076018
 20
-25.6083406513
 30
0.0
 11
3.8766969803
 21
-27.2406003581
 31
0.0
 11
3.7413316874
 21
-26.8859860506
 31
0.0
 11
3.7991020615
 21
-26.4082767729
 31
0.0
 11
4.0344556108
 21
-25.9393703754
 31
0.0
 11
4.3826076018
 21
-25.6083406513
 31
0.0
  0
SPLINE
  5
3D5
100
AcDbEntity
  8
RACCORDO
100
AcDbSpline
 62
253
  6
CONTINUOUS
 70
0
 71
3
 72
10
 73
6
 74
4
 42
0.0000001
 43
0.0000001
 44
0.0000000001
 12
-1.1811628418
 22
1.3511593764
 32
0.0
 13
1.4718391886
 23
1.0264869157
 33
0.0
 40
0.0
 40
0.0
 40
0.0
 40
0.0
 40
0.2938311848
 40
0.6716833861
 40
1.0
 40
1.0
 40
1.0
 40
1.0
 10
11.3025133902
 20
-30.9538417395
 30
0.0
 10
11.1868258977
 20
-30.8215041527
 30
0.0
 10
11.1108721375
 20
-30.3788289168
 30
0.0
 10
11.3155424763
 20
-29.8099946256
 30
0.0
 10
11.593611913
 20
-29.4672339246
 30
0.0
 10
11.7546883325
 20
-29.3548963551
 30
0.0
 11
11.3025133902
 21
-30.9538417395
 31
0.0
 11
11.1612161297
 21
-30.4457998325
 31
0.0
 11
11.3639132478
 21
-29.7986896263
 31
0.0
 11
11.7546883325
 21
-29.3548963551
 31
0.0
  0
SPLINE
  5
3D6
100
AcDbEntity
  8
RACCORDO
100
AcDbSpline
 62
253
  6
CONTINUOUS
 70
0
 71
3
 72
22
 73
18
 74
16
 42
0.0000001
 43
0.0000001
 44
0.0000000001
 12
1.9576601032
 22
-0.9779056595
 32
0.0
 13
-0.0115682923
 23
2.1882867118
 33
0.0
 40
0.0
 40
0.0
 40
0.0
 40
0.0
 40
0.0831346561
 40
0.1551096624
 40
0.2176550795
 40
0.2738837975
 40
0.3283896782
 40
0.3834964928
 40
0.4394636212
 40
0.4951002333
 40
0.5491894955
 40
0.6035969817
 40
0.6623914518
 40
0.7292310918
 40
0.8065416696
 40
0.8961522661
 40
1.0
 40
1.0
 40
1.0
 40
1.0
 10
11.3025133902
 20
-30.9538417395
 30
0.0
 10
11.35676319
 20
-30.9809410231
 30
0.0
 10
11.4610073655
 20
-31.0258118848
 30
0.0
 10
11.6140222168
 20
-31.06970923
 30
0.0
 10
11.7520181054
 20
-31.0904334718
 30
0.0
 10
11.8787652863
 20
-31.09250016
 30
0.0
 10
11.9992631327
 20
-31.0777695379
 30
0.0
 10
12.1160122947
 20
-31.0450251695
 30
0.0
 10
12.2272024433
 20
-30.9946167962
 30
0.0
 10
12.3286543517
 20
-30.9279976521
 30
0.0
 10
12.417652107
 20
-30.847253705
 30
0.0
 10
12.4957766854
 20
-30.7530280689
 30
0.0
 10
12.5654912509
 20
-30.6412819759
 30
0.0
 10
12.6269247822
 20
-30.5061377967
 30
0.0
 10
12.6770056181
 20
-30.34265278
 30
0.0
 10
12.7107518987
 20
-30.1475545473
 30
0.0
 10
12.7176915087
 20
-30.0062086275
 30
0.0
 10
12.7172910617
 20
-29.9304590888
 30
0.0
 11
11.3025133902
 21
-30.9538417395
 31
0.0
 11
11.4698863718
 21
-31.0251368484
 31
0.0
 11
11.621437987
 21
-31.0680281693
 31
0.0
 11
11.7568519161
 21
-31.087934212
 31
0.0
 11
11.8798863106
 21
-31.0896441055
 31
0.0
 11
11.9982439982
 21
-31.0748704666
 31
0.0
 11
12.1143632834
 21
-31.0423351326
 31
0.0
 11
12.2258883023
 21
-30.9917188276
 31
0.0
 11
12.3276253383
 21
-30.9248400238
 31
0.0
 11
12.4154509345
 21
-30.8454875703
 31
0.0
 11
12.4916416678
 21
-30.7539973718
 31
0.0
 11
12.5600509747
 21
-30.6450303668
 31
0.0
 11
12.6210132012
 21
-30.5120737983
 31
0.0
 11
12.6711618713
 21
-30.3504971653
 31
0.0
 11
12.7052932618
 21
-30.1573939462
 31
0.0
 11
12.7172910617
 21
-29.9304590888
 31
0.0
  0
SPLINE
  5
3D7
100
AcDbEntity
  8
RACCORDO
100
AcDbSpline
 62
253
  6
CONTINUOUS
 70
0
 71
3
 72
10
 73
6
 74
4
 42
0.0000001
 43
0.0000001
 44
0.0000000001
 12
-1.0509070067
 22
0.0744257284
 32
0.0
 13
-0.0578490537
 23
1.0733909986
 33
0.0
 40
0.0
 40
0.0
 40
0.0
 40
0.0
 40
0.4681155233
 40
0.8260948152
 40
1.0
 40
1.0
 40
1.0
 40
1.0
 10
12.7172910617
 20
-29.9304590888
 30
0.0
 10
12.5533091006
 20
-29.9188458092
 30
0.0
 10
12.2699074746
 20
-29.8627035482
 30
0.0
 10
11.9372606413
 20
-29.6918992782
 30
0.0
 10
11.8680546625
 20
-29.4967831054
 30
0.0
 10
11.8647012457
 20
-29.434560352
 30
0.0
 11
12.7172910617
 21
-29.9304590888
 31
0.0
 11
12.2348866527
 21
-29.8279381019
 31
0.0
 11
11.9248258995
 21
-29.6132270672
 31
0.0
 11
11.8647012457
 21
-29.434560352
 31
0.0
  0
SPLINE
  5
3D8
100
AcDbEntity
  8
RACCORDO
100
AcDbSpline
 62
253
  6
CONTINUOUS
 70
0
 71
3
 72
18
 73
14
 74
12
 42
0.0000001
 43
0.0000001
 44
0.0000000001
 12
-0.026705129
 22
9.0938657243
 32
0.0
 13
0.0000000869
 23
9.0939049355
 33
0.0
 40
0.0
 40
0.0
 40
0.0
 40
0.0
 40
0.1175467413
 40
0.2314191343
 40
0.3475694268
 40
0.4622391818
 40
0.5646249609
 40
0.6560176376
 40
0.7385445917
 40
0.8132746763
 40
0.881194211
 40
0.9431505086
 40
1.0
 40
1.0
 40
1.0
 40
1.0
 10
12.7173942134
 20
-29.9303717504
 30
0.0
 10
12.7163478465
 20
-29.5740536566
 30
0.0
 10
12.714798938
 20
-28.8725539136
 30
0.0
 10
12.7136650294
 20
-27.8189666358
 30
0.0
 10
12.7132396086
 20
-26.7740999044
 30
0.0
 10
12.7132992269
 20
-25.7640525257
 30
0.0
 10
12.7133755324
 20
-24.8290529607
 30
0.0
 10
12.7133197615
 20
-23.9914879165
 30
0.0
 10
12.7132443646
 20
-23.2377556295
 30
0.0
 10
12.7131757152
 20
-22.5551775155
 30
0.0
 10
12.7131262773
 20
-21.934955265
 30
0.0
 10
12.7130984031
 20
-21.3689344846
 30
0.0
 10
12.7130923901
 20
-21.0087983008
 30
0.0
 10
12.7130923917
 20
-20.8364703439
 30
0.0
 11
12.7173942134
 21
-29.9303717504
 31
0.0
 11
12.7149791801
 21
-28.8614155879
 31
0.0
 11
12.7137867947
 21
-27.825871557
 31
0.0
 11
12.7133203752
 21
-26.7696119422
 31
0.0
 11
12.7133055721
 21
-25.7268160915
 31
0.0
 11
12.7133539499
 21
-24.7957295503
 31
0.0
 11
12.7133131031
 21
-23.9646132382
 31
0.0
 11
12.7132419292
 21
-23.214120966
 31
0.0
 11
12.7131761148
 21
-22.5345326843
 31
0.0
 11
12.7131281164
 21
-21.9168788946
 31
0.0
 11
12.7131008287
 21
-21.3534542145
 31
0.0
 11
12.7130923917
 21
-20.8364703439
 31
0.0
  0
SPLINE
  5
3D9
100
AcDbEntity
  8
RACCORDO
100
AcDbSpline
 62
253
  6
CONTINUOUS
 70
0
 71
3
 72
10
 73
6
 74
4
 42
0.0000001
 43
0.0000001
 44
0.0000000001
 12
-1.0458423253
 22
0.0770425519
 32
0.0
 13
-0.0556771057
 23
1.0701432465
 33
0.0
 40
0.0
 40
0.0
 40
0.0
 40
0.0
 40
0.4691341082
 40
0.8260300772
 40
1.0
 40
1.0
 40
1.0
 40
1.0
 10
12.7130896211
 20
-20.8364701637
 30
0.0
 10
12.5495428523
 20
-20.8244224008
 30
0.0
 10
12.2686697569
 20
-20.7651344465
 30
0.0
 10
11.9358889556
 20
-20.5975705945
 30
0.0
 10
11.867785327
 20
-20.4035705359
 30
0.0
 10
11.8645566131
 20
-20.3415129565
 30
0.0
 11
12.7130896211
 21
-20.8364701637
 31
0.0
 11
12.2324365364
 21
-20.7315565806
 31
0.0
 11
11.9240802515
 21
-20.5194406638
 31
0.0
 11
11.8645566131
 21
-20.3415129565
 31
0.0
  0
SPLINE
  5
3DA
100
AcDbEntity
  8
RACCORDO
100
AcDbSpline
 62
253
  6
CONTINUOUS
 70
0
 71
3
 72
10
 73
6
 74
4
 42
0.0000001
 43
0.0000001
 44
0.0000000001
 12
-1.0457908103
 22
0.0771237998
 32
0.0
 13
-0.0557059705
 23
1.0700816122
 33
0.0
 40
0.0
 40
0.0
 40
0.0
 40
0.0
 40
0.4691588338
 40
0.8260591594
 40
1.0
 40
1.0
 40
1.0
 40
1.0
 10
12.7130896195
 20
-0.4847518953
 30
0.0
 10
12.5495422872
 20
-0.4726907913
 30
0.0
 10
12.2686783621
 20
-0.4133839852
 30
0.0
 10
11.9359040329
 20
-0.2458602731
 30
0.0
 10
11.8677879146
 20
-0.0518741619
 30
0.0
 10
11.8645580668
 20
0.0101694698
 30
0.0
 11
12.7130896195
 21
-0.4847518953
 31
0.0
 11
12.2324365179
 21
-0.3798166907
 31
0.0
 11
11.9240802359
 21
-0.1677213011
 31
0.0
 11
11.8645580668
 21
0.0101694698
 31
0.0
  0
SPLINE
  5
3DB
100
AcDbEntity
  8
RACCORDO
100
AcDbSpline
 62
253
  6
CONTINUOUS
 70
0
 71
3
 72
18
 73
14
 74
12
 42
0.0000001
 43
0.0000001
 44
0.0000000001
 12
0.0000005694
 22
9.0934792197
 32
0.0
 13
0.0272098431
 23
9.0934385105
 33
0.0
 40
0.0
 40
0.0
 40
0.0
 40
0.0
 40
0.1176419487
 40
0.244040273
 40
0.3667302066
 40
0.4760738784
 40
0.5745298651
 40
0.6636102468
 40
0.7446529047
 40
0.8183850005
 40
0.8851241643
 40
0.9453646346
 40
1.0
 40
1.0
 40
1.0
 40
1.0
 10
12.7130924034
 20
-0.4847520707
 30
0.0
 10
12.7130924258
 20
-0.128160532
 30
0.0
 10
12.7131181031
 20
0.6115645186
 30
0.0
 10
12.7132207324
 20
1.7231823518
 30
0.0
 10
12.7133413657
 20
2.8096467793
 30
0.0
 10
12.7133703322
 20
3.8114135288
 30
0.0
 10
12.7132606891
 20
4.7113043472
 30
0.0
 10
12.713294667
 20
5.52541029
 30
0.0
 10
12.7135983469
 20
6.2645741118
 30
0.0
 10
12.7141079001
 20
6.936018007
 30
0.0
 10
12.714879096
 20
7.5444068624
 30
0.0
 10
12.7159330964
 20
8.0949099898
 30
0.0
 10
12.7169041685
 20
8.4431156763
 30
0.0
 10
12.7173997084
 20
8.608723455
 30
0.0
 11
12.7130924034
 21
-0.4847520707
 31
0.0
 11
12.7131270852
 21
0.585022545
 31
0.0
 11
12.7132254075
 21
1.7344230758
 31
0.0
 11
12.7133297098
 21
2.8501014323
 31
0.0
 11
12.7133449944
 21
3.8444158396
 31
0.0
 11
12.7132828554
 21
4.7397233067
 31
0.0
 11
12.7133478707
 21
5.5497739043
 31
0.0
 11
12.7136522199
 21
6.286733567
 31
0.0
 11
12.7141836629
 21
6.957214637
 31
0.0
 11
12.7149728591
 21
7.5641053232
 31
0.0
 11
12.7160493307
 21
8.1118997299
 31
0.0
 11
12.7173997084
 21
8.608723455
 31
0.0
  0
SPLINE
  5
3DC
100
AcDbEntity
  8
RACCORDO
100
AcDbSpline
 62
253
  6
CONTINUOUS
 70
0
 71
3
 72
10
 73
6
 74
4
 42
0.0000001
 43
0.0000001
 44
0.0000000001
 12
-1.049168565
 22
0.0758884938
 32
0.0
 13
-0.0548453179
 23
1.0742883872
 33
0.0
 40
0.0
 40
0.0
 40
0.0
 40
0.0
 40
0.4695844741
 40
0.8251958629
 40
1.0
 40
1.0
 40
1.0
 40
1.0
 10
12.7172904854
 20
8.6086316022
 30
0.0
 10
12.5530660624
 20
8.6205102884
 30
0.0
 10
12.272689326
 20
8.6827043409
 30
0.0
 10
11.9363346298
 20
8.846083871
 30
0.0
 10
11.867686902
 20
9.0406651712
 30
0.0
 10
11.8644911725
 20
9.103261856
 30
0.0
 11
12.7172904854
 21
8.6086316022
 31
0.0
 11
12.2348773198
 21
8.7148126561
 31
0.0
 11
11.9248551627
 21
8.9241339214
 31
0.0
 11
11.8644911725
 21
9.103261856
 31
0.0
  0
SPLINE
  5
3DD
100
AcDbEntity
  8
RACCORDO
100
AcDbSpline
 62
253
  6
CONTINUOUS
 70
0
 71
3
 72
18
 73
14
 74
12
 42
0.0000001
 43
0.0000001
 44
0.0000000001
 12
0.0108320596
 22
2.0267700169
 32
0.0
 13
-1.2936343514
 23
1.560723687
 33
0.0
 40
0.0
 40
0.0
 40
0.0
 40
0.0
 40
0.0973117519
 40
0.1901640002
 40
0.2842623993
 40
0.3824113278
 40
0.4836809989
 40
0.5827295438
 40
0.6769131767
 40
0.7733024454
 40
0.8725727045
 40
0.9691576768
 40
1.0
 40
1.0
 40
1.0
 40
1.0
 10
12.7172904854
 20
8.6086316022
 30
0.0
 10
12.7176418476
 20
8.6743744492
 30
0.0
 10
12.7122138508
 20
8.802944184
 30
0.0
 10
12.6882457566
 20
8.9936618915
 30
0.0
 10
12.6502816966
 20
9.1826635977
 30
0.0
 10
12.5977620291
 20
9.3740428627
 30
0.0
 10
12.5313103339
 20
9.564584333
 30
0.0
 10
12.4536567813
 20
9.7479152502
 30
0.0
 10
12.3664115426
 20
9.9231835647
 30
0.0
 10
12.2686525275
 20
10.0929965931
 30
0.0
 10
12.1598500596
 20
10.2578855075
 30
0.0
 10
12.0684795416
 20
10.380910696
 30
0.0
 10
12.0142374338
 20
10.4477883667
 30
0.0
 10
12.0009378709
 20
10.4638338148
 30
0.0
 11
12.7172904854
 21
8.6086316022
 31
0.0
 11
12.7093092361
 21
8.8057014075
 31
0.0
 11
12.68609831
 21
8.9924573931
 31
0.0
 11
12.6487129248
 21
9.1794758242
 31
0.0
 11
12.5962089075
 21
9.3713500945
 31
0.0
 11
12.5287150072
 21
9.5651888831
 31
0.0
 11
12.4504669868
 21
9.7500629139
 31
0.0
 11
12.3653982526
 21
9.9209511663
 31
0.0
 11
12.2679614535
 21
10.0902799951
 31
0.0
 11
12.1573030797
 21
10.258317222
 31
0.0
 11
12.0403259362
 21
10.4152811299
 31
0.0
 11
12.0009378709
 21
10.4638338148
 31
0.0
  0
SPLINE
  5
3DE
100
AcDbEntity
  8
RACCORDO
100
AcDbSpline
 62
253
  6
CONTINUOUS
 70
0
 71
3
 72
12
 73
8
 74
6
 42
0.0000001
 43
0.0000001
 44
0.0000000001
 12
-0.5838134666
 22
0.7043501165
 32
0.0
 13
-0.8179518748
 23
0.4094018482
 33
0.0
 40
0.0
 40
0.0
 40
0.0
 40
0.0
 40
0.1342203637
 40
0.3372778655
 40
0.5506899051
 40
0.7743487779
 40
1.0
 40
1.0
 40
1.0
 40
1.0
 10
12.0009378709
 20
10.4638338148
 30
0.0
 10
11.9748179856
 20
10.4953465245
 30
0.0
 10
11.9075259438
 20
10.5731619834
 30
0.0
 10
11.7907021731
 20
10.6939427249
 30
0.0
 10
11.6447713951
 20
10.8238756637
 30
0.0
 10
11.4822205557
 20
10.9444008887
 30
0.0
 10
11.3636757554
 20
11.0138498657
 30
0.0
 10
11.3021518087
 20
11.0446438748
 30
0.0
 11
12.0009378709
 21
10.4638338148
 31
0.0
 11
11.9205856205
 21
10.5566717684
 31
0.0
 11
11.7913315173
 21
10.6900533025
 31
0.0
 11
11.6453039726
 21
10.8195954289
 31
0.0
 11
11.480642898
 21
10.9409996074
 31
0.0
 11
11.3021518087
 21
11.0446438748
 31
0.0
  0
SPLINE
  5
3DF
100
AcDbEntity
  8
RACCORDO
100
AcDbSpline
 62
253
  6
CONTINUOUS
 70
0
 71
3
 72
10
 73
6
 74
4
 42
0.0000001
 43
0.0000001
 44
0.0000000001
 12
-0.5150749176
 22
-1.1044322428
 32
0.0
 13
1.1319246135
 23
-0.4910753068
 33
0.0
 40
0.0
 40
0.0
 40
0.0
 40
0.0
 40
0.5412959663
 40
0.944454254
 40
1.0
 40
1.0
 40
1.0
 40
1.0
 10
11.3021518087
 20
11.0446438748
 30
0.0
 10
11.2092158169
 20
10.8453689687
 30
0.0
 10
11.0994356654
 20
10.473720984
 30
0.0
 10
11.2380768074
 20
10.0176856879
 30
0.0
 10
11.4021852795
 20
9.928510394
 30
0.0
 10
11.4231431452
 20
9.9194180126
 30
0.0
 11
11.3021518087
 21
11.0446438748
 31
0.0
 11
11.1624506184
 21
10.3999642194
 31
0.0
 11
11.3639144494
 21
9.9518671233
 31
0.0
 11
11.4231431452
 21
9.9194180126
 31
0.0
  0
SPLINE
  5
3E0
100
AcDbEntity
  8
RACCORDO
100
AcDbSpline
 62
253
  6
CONTINUOUS
 70
0
 71
3
 72
21
 73
17
 74
15
 42
0.0000001
 43
0.0000001
 44
0.0000000001
 12
-6.1335093836
 22
3.0679611104
 32
0.0
 13
-6.1334940971
 23
3.0679916609
 33
0.0
 40
0.0
 40
0.0
 40
0.0
 40
0.0
 40
0.0431630359
 40
0.0905643434
 40
0.1424832657
 40
0.1990314625
 40
0.2603204294
 40
0.326560325
 40
0.3980513743
 40
0.4751685236
 40
0.5583261493
 40
0.6480162275
 40
0.7447559274
 40
0.8489536833
 40
0.960888322
 40
1.0
 40
1.0
 40
1.0
 40
1.0
 10
11.3020936963
 20
11.0446330356
 30
0.0
 10
11.2138467343
 20
11.0887738742
 30
0.0
 10
11.0287161703
 20
11.1814468413
 30
0.0
 10
10.7374632242
 20
11.3272668544
 30
0.0
 10
10.4188505216
 20
11.4867877416
 30
0.0
 10
10.0718036317
 20
11.6604293459
 30
0.0
 10
9.6954070038
 20
11.8485754502
 30
0.0
 10
9.2883922605
 20
12.0518680112
 30
0.0
 10
8.8489575334
 20
12.2712287466
 30
0.0
 10
8.3748812777
 20
12.5077839432
 30
0.0
 10
7.8635638435
 20
12.7628839317
 30
0.0
 10
7.312136763
 20
13.038068531
 30
0.0
 10
6.7177666575
 20
13.3349173414
 30
0.0
 10
6.0779963708
 20
13.6546725422
 30
0.0
 10
5.5561258275
 20
13.9156523821
 30
0.0
 10
5.2473101112
 20
14.0701183591
 30
0.0
 10
5.1673463626
 20
14.1101164597
 30
0.0
 11
11.3020936963
 21
11.0446330356
 31
0.0
 11
11.0373813908
 21
11.1771126741
 31
0.0
 11
10.746697936
 21
11.3226437705
 31
0.0
 11
10.4283065129
 21
11.4820364668
 31
0.0
 11
10.081484958
 21
11.6555587977
 31
0.0
 11
9.7055211817
 21
11.8434963279
 31
0.0
 11
9.2991239822
 21
12.0464893229
 31
0.0
 11
8.8604589295
 21
12.2654728121
 31
0.0
 11
8.387234808
 21
12.5016141422
 31
0.0
 11
7.8769307135
 21
12.7562260279
 31
0.0
 11
7.326570277
 21
13.0309003445
 31
0.0
 11
6.7330331349
 21
13.3273272725
 31
0.0
 11
6.0938288353
 21
13.6467891578
 31
0.0
 11
5.4072394023
 21
13.9901257436
 31
0.0
 11
5.1673463626
 21
14.1101164597
 31
0.0
  0
LINE
  5
3E1
100
AcDbEntity
  8
RACCORDO
100
AcDbLine
 62
253
  6
CONTINUOUS
 10
5.1673463626
 20
14.1101164597
 11
4.1473307276
 21
14.6203206914
  0
LINE
  5
3E2
100
AcDbEntity
  8
RACCORDO
100
AcDbLine
 62
253
  6
CONTINUOUS
 10
4.1473307276
 20
14.6203206914
 11
3.8766981592
 21
14.755652054
  0
SPLINE
  5
3E3
100
AcDbEntity
  8
RACCORDO
100
AcDbSpline
 62
253
  6
CONTINUOUS
 70
0
 71
3
 72
10
 73
6
 74
4
 42
0.0000001
 43
0.0000001
 44
0.0000000001
 12
-0.5162145109
 22
-1.1088224272
 32
0.0
 13
1.0854432637
 23
-0.5734109014
 33
0.0
 40
0.0
 40
0.0
 40
0.0
 40
0.0
 40
0.4160419499
 40
0.7624094372
 40
1.0
 40
1.0
 40
1.0
 40
1.0
 10
3.876697031
 20
14.7556496414
 30
0.0
 10
3.8051080671
 20
14.6018774265
 30
0.0
 10
3.717777778
 20
14.2987534107
 30
0.0
 10
3.7419330798
 20
13.8751177813
 30
0.0
 10
3.9113934501
 20
13.6744633616
 30
0.0
 10
3.9973571421
 20
13.629051022
 30
0.0
 11
3.876697031
 21
14.7556496414
 31
0.0
 11
3.7412862651
 21
14.2651378791
 31
0.0
 11
3.799216299
 21
13.8454765438
 31
0.0
 11
3.9973571421
 21
13.629051022
 31
0.0
  0
SPLINE
  5
3E4
100
AcDbEntity
  8
RACCORDO
100
AcDbSpline
 62
253
  6
CONTINUOUS
 70
0
 71
3
 72
10
 73
6
 74
4
 42
0.0000001
 43
0.0000001
 44
0.0000000001
 12
-0.5162944038
 22
-1.1088267452
 32
0.0
 13
1.0854875724
 23
-0.5734447305
 33
0.0
 40
0.0
 40
0.0
 40
0.0
 40
0.0
 40
0.4160330249
 40
0.7623936175
 40
1.0
 40
1.0
 40
1.0
 40
1.0
 10
-12.7403901344
 20
23.0641932229
 30
0.0
 10
-12.8119886419
 20
22.9104237079
 30
0.0
 10
-12.8993316991
 20
22.6072978891
 30
0.0
 10
-12.8751533482
 20
22.1836428266
 30
0.0
 10
-12.7056731976
 20
21.9829982232
 30
0.0
 10
-12.6197002725
 20
21.9375801806
 30
0.0
 11
-12.7403901344
 21
23.0641932229
 31
0.0
 11
-12.8758154351
 21
22.5736805543
 31
0.0
 11
-12.8178698698
 21
22.1540167167
 31
0.0
 11
-12.6197002725
 21
21.9375801806
 31
0.0
  0
SPLINE
  5
3E5
100
AcDbEntity
  8
RACCORDO
100
AcDbSpline
 62
253
  6
CONTINUOUS
 70
0
 71
3
 72
19
 73
15
 74
13
 42
0.0000001
 43
0.0000001
 44
0.0000000001
 12
-5.4389696791
 22
2.7194841385
 32
0.0
 13
-5.437553288
 23
2.7223150931
 33
0.0
 40
0.0
 40
0.0
 40
0.0
 40
0.0
 40
0.1274324034
 40
0.2448712523
 40
0.353213634
 40
0.4532723639
 40
0.5457534213
 40
0.6311776267
 40
0.7096446849
 40
0.7809853454
 40
0.8457135279
 40
0.9056400688
 40
0.9626487259
 40
1.0
 40
1.0
 40
1.0
 40
1.0
 10
-12.7403889995
 20
23.0641956407
 30
0.0
 10
-12.971422659
 20
23.1797124407
 30
0.0
 10
-13.415399668
 20
23.4016311266
 30
0.0
 10
-14.0558346702
 20
23.7216928788
 30
0.0
 10
-14.646615706
 20
24.0169921112
 30
0.0
 10
-15.1921023572
 20
24.2897595741
 30
0.0
 10
-15.6959869256
 20
24.5418551187
 30
0.0
 10
-16.1606757223
 20
24.7744784114
 30
0.0
 10
-16.5869942126
 20
24.988023855
 30
0.0
 10
-16.9757806741
 20
25.182829084
 30
0.0
 10
-17.3309655842
 20
25.3608030157
 30
0.0
 10
-17.66018679
 20
25.5257449778
 30
0.0
 10
-17.9398090456
 20
25.665799799
 30
0.0
 10
-18.1108331853
 20
25.7514354313
 30
0.0
 10
-18.178533033
 20
25.7853294104
 30
0.0
 11
-12.7403889995
 21
23.0641956407
 31
0.0
 11
-13.4335231515
 21
23.4106796852
 31
0.0
 11
-14.0723241493
 21
23.7299434294
 31
0.0
 11
-14.6616266925
 21
24.0245155817
 31
0.0
 11
-15.2058305548
 21
24.2966487796
 31
0.0
 11
-15.7087690461
 21
24.548275861
 31
0.0
 11
-16.1732760528
 21
24.7808108088
 31
0.0
 11
-16.5999050271
 21
24.9945024143
 31
0.0
 11
-16.9877635569
 21
25.1888341943
 31
0.0
 11
-17.3396688172
 21
25.3651598664
 31
0.0
 11
-17.6654777617
 21
25.5283882759
 31
0.0
 11
-17.975438977
 21
25.6836365136
 31
0.0
 11
-18.178533033
 21
25.7853294104
 31
0.0
  0
LINE
  5
3E6
100
AcDbEntity
  8
RACCORDO
100
AcDbLine
 62
253
  6
CONTINUOUS
 10
-18.178533033
 20
25.7853294104
 11
-18.7707320175
 21
26.0816677343
  0
SPLINE
  5
3E7
100
AcDbEntity
  8
RACCORDO
100
AcDbSpline
 62
253
  6
CONTINUOUS
 70
0
 71
3
 72
13
 73
9
 74
7
 42
0.0000001
 43
0.0000001
 44
0.0000000001
 12
-1.3935810967
 22
0.6969440224
 32
0.0
 13
-1.3937409572
 23
0.6966242717
 33
0.0
 40
0.0
 40
0.0
 40
0.0
 40
0.0
 40
0.0672777786
 40
0.2615670622
 40
0.4482034576
 40
0.6308784977
 40
0.8144736388
 40
1.0
 40
1.0
 40
1.0
 40
1.0
 10
-18.7707320175
 20
26.0816677343
 30
0.0
 10
-18.8019843643
 20
26.0972973495
 30
0.0
 10
-18.9234920532
 20
26.1580577819
 30
0.0
 10
-19.1317191365
 20
26.2621331023
 30
0.0
 10
-19.3935919388
 20
26.3929357044
 30
0.0
 10
-19.6505139535
 20
26.5212199935
 30
0.0
 10
-19.9069168279
 20
26.6492534074
 30
0.0
 10
-20.0784308588
 20
26.7349114861
 30
0.0
 10
-20.1646227549
 20
26.7779922082
 30
0.0
 11
-18.7707320175
 21
26.0816677343
 31
0.0
 11
-18.8644912206
 21
26.1285522551
 31
0.0
 11
-19.1352805538
 21
26.2638980835
 31
0.0
 11
-19.3954356512
 21
26.3938488656
 31
0.0
 11
-19.6500858547
 21
26.5210076153
 31
0.0
 11
-19.9060181201
 21
26.6488079718
 31
0.0
 11
-20.1646227549
 21
26.7779922082
 31
0.0
  0
SPLINE
  5
3E8
100
AcDbEntity
  8
RACCORDO
100
AcDbSpline
 62
253
  6
CONTINUOUS
 70
0
 71
3
 72
10
 73
6
 74
4
 42
0.0000001
 43
0.0000001
 44
0.0000000001
 12
-0.5152013411
 22
-1.1023573069
 32
0.0
 13
1.1276862402
 23
-0.4915371338
 33
0.0
 40
0.0
 40
0.0
 40
0.0
 40
0.0
 40
0.5429762657
 40
0.9445616951
 40
1.0
 40
1.0
 40
1.0
 40
1.0
 10
-20.1645656329
 20
26.7780030002
 30
0.0
 10
-20.2578129996
 20
26.5784850489
 30
0.0
 10
-20.3612360408
 20
26.206607435
 30
0.0
 10
-20.2269270769
 20
25.7505045123
 30
0.0
 10
-20.0642052092
 20
25.6615824026
 30
0.0
 10
-20.0433662046
 20
25.6524990741
 30
0.0
 11
-20.1645656329
 21
26.7780030002
 31
0.0
 11
-20.300620141
 21
26.1314648888
 31
0.0
 11
-20.1021913294
 21
25.6849142008
 31
0.0
 11
-20.0433662046
 21
25.6524990741
 31
0.0
  0
SPLINE
  5
3E9
100
AcDbEntity
  8
RACCORDO
100
AcDbSpline
 62
253
  6
CONTINUOUS
 70
0
 71
3
 72
22
 73
18
 74
16
 42
0.0000001
 43
0.0000001
 44
0.0000000001
 12
-1.9552633325
 22
0.9763002932
 32
0.0
 13
0.0012544683
 23
-2.185455419
 33
0.0
 40
0.0
 40
0.0
 40
0.0
 40
0.0
 40
0.0713327646
 40
0.1384048346
 40
0.2029602084
 40
0.2626179611
 40
0.3185822867
 40
0.3747896024
 40
0.4317193021
 40
0.4880724012
 40
0.5429051486
 40
0.5978020028
 40
0.6569200759
 40
0.7242788561
 40
0.8025760839
 40
0.8937993357
 40
1.0
 40
1.0
 40
1.0
 40
1.0
 10
-20.1645656329
 20
26.7780030002
 30
0.0
 10
-20.2110570792
 20
26.8012170666
 30
0.0
 10
-20.3036073759
 20
26.8417894641
 30
0.0
 10
-20.4450854339
 20
26.8858142057
 30
0.0
 10
-20.5825848038
 20
26.910750307
 30
0.0
 10
-20.7140950239
 20
26.9168900802
 30
0.0
 10
-20.8391705192
 20
26.9053635818
 30
0.0
 10
-20.9592032976
 20
26.8755723473
 30
0.0
 10
-21.0735157732
 20
26.8275834331
 30
0.0
 10
-21.1779289349
 20
26.7625310497
 30
0.0
 10
-21.2692898835
 20
26.6824691444
 30
0.0
 10
-21.3491545895
 20
26.5883959816
 30
0.0
 10
-21.4202173952
 20
26.4765339986
 30
0.0
 10
-21.4829335731
 20
26.3407091659
 30
0.0
 10
-21.5343956529
 20
26.1754938719
 30
0.0
 10
-21.5695426446
 20
25.9772324785
 30
0.0
 10
-21.577279308
 20
25.8332143596
 30
0.0
 10
-21.5772348996
 20
25.7558487539
 30
0.0
 11
-20.1645656329
 21
26.7780030002
 31
0.0
 11
-20.3074998516
 21
26.8402359195
 31
0.0
 11
-20.4475829653
 21
26.8834019911
 31
0.0
 11
-20.5864768456
 21
26.9081583813
 31
0.0
 11
-20.7167296461
 21
26.9139021412
 31
0.0
 11
-20.8384888898
 21
26.9023338424
 31
0.0
 11
-20.9577026195
 21
26.8727127519
 31
0.0
 11
-21.0723777747
 21
26.8244501001
 31
0.0
 11
-21.1768456857
 21
26.7592262317
 31
0.0
 11
-21.2671422006
 21
26.6804426198
 31
0.0
 11
-21.3450117888
 21
26.5891724537
 31
0.0
 11
-21.4146251143
 21
26.4803303296
 31
0.0
 11
-21.476810473
 21
26.3468999809
 31
0.0
 11
-21.5283408087
 21
26.1837282558
 31
0.0
 11
-21.5639121035
 21
25.9875629171
 31
0.0
 11
-21.5772348996
 21
25.7558487539
 31
0.0
  0
SPLINE
  5
3EA
100
AcDbEntity
  8
RACCORDO
100
AcDbSpline
 62
253
  6
CONTINUOUS
 70
0
 71
3
 72
11
 73
7
 74
5
 42
0.0000001
 43
0.0000001
 44
0.0000000001
 12
0.4912368226
 22
-1.7142119283
 32
0.0
 13
1.644301292
 23
0.6900068206
 33
0.0
 40
0.0
 40
0.0
 40
0.0
 40
0.0
 40
0.1780637849
 40
0.4319075579
 40
0.7255014703
 40
1.0
 40
1.0
 40
1.0
 40
1.0
 10
-21.5772348996
 20
25.7558487539
 30
0.0
 10
-21.548077737
 20
25.6541023992
 30
0.0
 10
-21.3377767476
 20
25.4637776959
 30
0.0
 10
-20.9256796038
 20
25.333940668
 30
0.0
 10
-20.4316811842
 20
25.3108642711
 30
0.0
 10
-20.0949784354
 20
25.3800420712
 30
0.0
 10
-19.944525673
 20
25.4431773571
 30
0.0
 11
-21.5772348996
 21
25.7558487539
 31
0.0
 11
-21.3687209525
 21
25.5163825114
 31
0.0
 11
-20.9443739458
 21
25.3588146138
 31
0.0
 11
-20.4214681164
 21
25.3330647426
 31
0.0
 11
-19.944525673
 21
25.4431773571
 31
0.0
  0
SPLINE
  5
3EB
100
AcDbEntity
  8
RACCORDO
100
AcDbSpline
 62
253
  6
CONTINUOUS
 70
0
 71
3
 72
18
 73
14
 74
12
 42
0.0000001
 43
0.0000001
 44
0.0000000001
 12
0.002130213
 22
-9.095874293
 32
0.0
 13
-0.0000000129
 23
-9.0958745425
 33
0.0
 40
0.0
 40
0.0
 40
0.0
 40
0.0
 40
0.1176439772
 40
0.2315518496
 40
0.3477001791
 40
0.4623460537
 40
0.5647072452
 40
0.656081914
 40
0.7385942793
 40
0.8133112419
 40
0.8812183021
 40
0.9431624449
 40
1.0
 40
1.0
 40
1.0
 40
1.0
 10
-21.5770608744
 20
25.755900004
 30
0.0
 10
-21.5769773388
 20
25.3992083946
 30
0.0
 10
-21.5768740424
 20
24.6971528756
 30
0.0
 10
-21.576772879
 20
23.6429404783
 30
0.0
 10
-21.5767257586
 20
22.5978181978
 30
0.0
 10
-21.5767382601
 20
21.5877049707
 30
0.0
 10
-21.5767471655
 20
20.6527044467
 30
0.0
 10
-21.5767375793
 20
19.8151313791
 30
0.0
 10
-21.576726491
 20
19.0613744575
 30
0.0
 10
-21.5767167508
 20
18.3787703437
 30
0.0
 10
-21.5767098923
 20
17.7585282206
 30
0.0
 10
-21.5767060892
 20
17.1924957133
 30
0.0
 10
-21.5767052832
 20
16.8323545727
 30
0.0
 10
-21.5767052835
 20
16.6600254825
 30
0.0
 11
-21.5770608744
 21
25.755900004
 31
0.0
 11
-21.5768816495
 21
24.6858251615
 31
0.0
 11
-21.5767822305
 21
23.6497334496
 31
0.0
 11
-21.576735737
 21
22.5932628177
 31
0.0
 11
-21.5767381974
 21
21.5504583249
 31
0.0
 11
-21.5767440443
 21
20.6193937695
 31
0.0
 11
-21.5767367964
 21
19.7882612457
 31
0.0
 11
-21.5767262013
 21
19.0377391223
 31
0.0
 11
-21.5767168373
 21
18.3581230046
 31
0.0
 11
-21.5767101595
 21
17.7404489042
 31
0.0
 11
-21.576706424
 21
17.177012753
 31
0.0
 11
-21.5767052835
 21
16.6600254825
 31
0.0
  0
SPLINE
  5
3EC
100
AcDbEntity
  8
RACCORDO
100
AcDbSpline
 62
253
  6
CONTINUOUS
 70
0
 71
3
 72
11
 73
7
 74
5
 42
0.0000001
 43
0.0000001
 44
0.0000000001
 12
0.5035729849
 22
-1.7089839596
 32
0.0
 13
1.6428965875
 23
0.6892769603
 33
0.0
 40
0.0
 40
0.0
 40
0.0
 40
0.0
 40
0.179069825
 40
0.4324216127
 40
0.7257353826
 40
1.0
 40
1.0
 40
1.0
 40
1.0
 10
-21.576704923
 20
16.6600240973
 30
0.0
 10
-21.5466466809
 20
16.5580149444
 30
0.0
 10
-21.3373409426
 20
16.3668284315
 30
0.0
 10
-20.9232503041
 20
16.241957972
 30
0.0
 10
-20.4310303416
 20
16.2173679047
 30
0.0
 10
-20.0947931227
 20
16.2868659427
 30
0.0
 10
-19.9445969881
 20
16.3498807033
 30
0.0
 11
-21.576704923
 21
16.6600240973
 31
0.0
 11
-21.3668777568
 21
16.4196975549
 31
0.0
 11
-20.9426459232
 21
16.2655194124
 31
0.0
 11
-20.4206972512
 21
16.2398980241
 31
0.0
 11
-19.9445969881
 21
16.3498807033
 31
0.0
  0
SPLINE
  5
3ED
100
AcDbEntity
  8
RACCORDO
100
AcDbSpline
 62
253
  6
CONTINUOUS
 70
0
 71
3
 72
11
 73
7
 74
5
 42
0.0000001
 43
0.0000001
 44
0.0000000001
 12
0.5035119619
 22
-1.7090282548
 32
0.0
 13
1.6427713462
 23
0.6896406135
 33
0.0
 40
0.0
 40
0.0
 40
0.0
 40
0.0
 40
0.1790755603
 40
0.4324202102
 40
0.7257283495
 40
1.0
 40
1.0
 40
1.0
 40
1.0
 10
-21.5767049224
 20
-3.691682607
 30
0.0
 10
-21.5466493602
 20
-3.7936976711
 30
0.0
 10
-21.337352297
 20
-3.9849015172
 30
0.0
 10
-20.9232465316
 20
-4.1097524867
 30
0.0
 10
-20.4310203214
 20
-4.1342932107
 30
0.0
 10
-20.0947855239
 20
-4.0647362938
 30
0.0
 10
-19.9445969877
 20
-4.0016866707
 30
0.0
 11
-21.5767049224
 21
-3.691682607
 31
0.0
 11
-21.3668777476
 21
-3.9320287071
 31
0.0
 11
-20.9426458881
 21
-4.0861882687
 31
0.0
 11
-20.4206972119
 21
-4.1117559167
 31
0.0
 11
-19.9445969877
 21
-4.0016866707
 31
0.0
  0
SPLINE
  5
3EE
100
AcDbEntity
  8
RACCORDO
100
AcDbSpline
 62
253
  6
CONTINUOUS
 70
0
 71
3
 72
19
 73
15
 74
13
 42
0.0000001
 43
0.0000001
 44
0.0000000001
 12
0.0000000003
 22
-9.0914628611
 32
0.0
 13
-0.0021529966
 23
-9.0914626061
 33
0.0
 40
0.0
 40
0.0
 40
0.0
 40
0.0
 40
0.0595407644
 40
0.1247007292
 40
0.1956486559
 40
0.2726247264
 40
0.3560827355
 40
0.4466605585
 40
0.5451898684
 40
0.6490086214
 40
0.7497441588
 40
0.842021577
 40
0.9255983397
 40
1.0
 40
1.0
 40
1.0
 40
1.0
 10
-21.5767052749
 20
-3.6916812161
 30
0.0
 10
-21.5767052749
 20
-3.8721187655
 30
0.0
 10
-21.5767061601
 20
-4.2500227818
 30
0.0
 10
-21.5767103237
 20
-4.8429336115
 30
0.0
 10
-21.5767177724
 20
-5.4886819204
 30
0.0
 10
-21.576727896
 20
-6.1898822257
 30
0.0
 10
-21.5767392958
 20
-6.9505706888
 30
0.0
 10
-21.5767465346
 20
-7.7765759775
 30
0.0
 10
-21.5767377593
 20
-8.6642842484
 30
0.0
 10
-21.5767283863
 20
-9.5827753473
 30
0.0
 10
-21.5767594181
 20
-10.4823201655
 30
0.0
 10
-21.5768374308
 20
-11.3205218792
 30
0.0
 10
-21.5769191032
 20
-12.0789191035
 30
0.0
 10
-21.5770074719
 20
-12.5576707513
 30
0.0
 10
-21.5770608674
 20
-12.7831440555
 30
0.0
 11
-21.5767052749
 21
-3.6916812161
 31
0.0
 11
-21.5767065234
 21
-4.2329938645
 31
0.0
 11
-21.5767106272
 21
-4.8253932647
 31
0.0
 11
-21.576717861
 21
-5.4704137052
 31
0.0
 11
-21.5767276738
 21
-6.1702387912
 31
0.0
 11
-21.5767382178
 21
-6.9289941807
 31
0.0
 11
-21.5767438715
 21
-7.7524790947
 31
0.0
 11
-21.5767378713
 21
-8.648254657
 31
0.0
 11
-21.576735429
 21
-9.5921189936
 31
0.0
 11
-21.5767696348
 21
-10.5079523905
 31
0.0
 11
-21.5768420301
 21
-11.3468891079
 31
0.0
 11
-21.5769324004
 21
-12.106724136
 31
0.0
 11
-21.5770608674
 21
-12.7831440555
 31
0.0
  0
SPLINE
  5
3EF
100
AcDbEntity
  8
RACCORDO
100
AcDbSpline
 62
253
  6
CONTINUOUS
 70
0
 71
3
 72
11
 73
7
 74
5
 42
0.0000001
 43
0.0000001
 44
0.0000000001
 12
0.4901784197
 22
-1.7154374341
 32
0.0
 13
1.6452195412
 23
0.6901109584
 33
0.0
 40
0.0
 40
0.0
 40
0.0
 40
0.0
 40
0.1794476903
 40
0.4321396321
 40
0.7255886986
 40
1.0
 40
1.0
 40
1.0
 40
1.0
 10
-21.5772342203
 20
-12.7831956691
 30
0.0
 10
-21.5479137586
 20
-12.8858060976
 30
0.0
 10
-21.3406275859
 20
-13.0801891501
 30
0.0
 10
-20.9240212496
 20
-13.2010292125
 30
0.0
 10
-20.4321037328
 20
-13.2279793502
 30
0.0
 10
-20.0950139753
 20
-13.1580775691
 30
0.0
 10
-19.9445250302
 20
-13.0949528204
 30
0.0
 11
-21.5772342203
 21
-12.7831956691
 31
0.0
 11
-21.3687199659
 21
-13.0261341619
 31
0.0
 11
-20.9444606993
 21
-13.1786100489
 31
0.0
 11
-20.4215826143
 21
-13.2049572289
 31
0.0
 11
-19.9445250302
 21
-13.0949528204
 31
0.0
  0
SPLINE
  5
3F0
100
AcDbEntity
  8
RACCORDO
100
AcDbSpline
 62
253
  6
CONTINUOUS
 70
0
 71
3
 72
23
 73
19
 74
17
 42
0.0000001
 43
0.0000001
 44
0.0000000001
 12
-0.0016786163
 22
-2.9423194152
 32
0.0
 13
2.6312803654
 23
-1.3166662437
 33
0.0
 40
0.0
 40
0.0
 40
0.0
 40
0.0
 40
0.0648035825
 40
0.1264505935
 40
0.1882777516
 40
0.2524372476
 40
0.318054297
 40
0.3816115232
 40
0.4438230936
 40
0.5082714402
 40
0.5750703887
 40
0.6398462336
 40
0.7008948722
 40
0.7613983851
 40
0.8237551085
 40
0.887325533
 40
0.9453918936
 40
1.0
 40
1.0
 40
1.0
 40
1.0
 10
-21.5772342203
 20
-12.7831956691
 30
0.0
 10
-21.5772704804
 20
-12.8467532822
 30
0.0
 10
-21.5717307825
 20
-12.9708296715
 30
0.0
 10
-21.5491659282
 20
-13.1542490303
 30
0.0
 10
-21.5141728871
 20
-13.3350568711
 30
0.0
 10
-21.4665423999
 20
-13.516971724
 30
0.0
 10
-21.407045132
 20
-13.6971412788
 30
0.0
 10
-21.3375708885
 20
-13.8716306273
 30
0.0
 10
-21.2587496761
 20
-14.0408289954
 30
0.0
 10
-21.16889736
 20
-14.2080660793
 30
0.0
 10
-21.0678857016
 20
-14.3717891614
 30
0.0
 10
-20.9589411997
 20
-14.5262787442
 30
0.0
 10
-20.8446192656
 20
-14.6689941468
 30
0.0
 10
-20.7231474839
 20
-14.802501973
 30
0.0
 10
-20.5910401508
 20
-14.9291430416
 30
0.0
 10
-20.4513779778
 20
-15.0437526565
 30
0.0
 10
-20.3088551887
 20
-15.1419078648
 30
0.0
 10
-20.2124606192
 20
-15.1963355051
 30
0.0
 10
-20.1645642065
 20
-15.2203023886
 30
0.0
 11
-21.5772342203
 21
-12.7831956691
 31
0.0
 11
-21.5690671735
 21
-12.9736935504
 31
0.0
 11
-21.5471361956
 21
-13.1537480772
 31
0.0
 11
-21.5127239104
 21
-13.3323788774
 31
0.0
 11
-21.4650283592
 21
-13.5150320396
 31
0.0
 11
-21.4045692455
 21
-13.6983877349
 31
0.0
 11
-21.3354325137
 21
-13.8721440033
 31
0.0
 11
-21.2581463677
 21
-14.0380741533
 31
0.0
 11
-21.1683797546
 21
-14.2051088854
 31
0.0
 11
-21.065138106
 21
-14.3723531881
 31
0.0
 11
-20.9552335082
 21
-14.5280644807
 31
0.0
 11
-20.8428453281
 21
-14.6681855087
 31
0.0
 11
-20.7229379533
 21
-14.7997666144
 31
0.0
 11
-20.5903425143
 21
-14.9265772931
 31
0.0
 11
-20.4455520747
 21
-15.0449892134
 31
0.0
 11
-20.3046566579
 21
-15.141623257
 31
0.0
 11
-20.1645642065
 21
-15.2203023886
 31
0.0
  0
SPLINE
  5
3F1
100
AcDbEntity
  8
RACCORDO
100
AcDbSpline
 62
253
  6
CONTINUOUS
 70
0
 71
3
 72
10
 73
6
 74
4
 42
0.0000001
 43
0.0000001
 44
0.0000000001
 12
-1.2215334223
 22
1.3950770786
 32
0.0
 13
1.5849649848
 23
0.9624291943
 33
0.0
 40
0.0
 40
0.0
 40
0.0
 40
0.0
 40
0.2822523649
 40
0.6483552183
 40
1.0
 40
1.0
 40
1.0
 40
1.0
 10
-20.1645642065
 20
-15.2203023886
 30
0.0
 10
-20.2794911055
 20
-15.0890477871
 30
0.0
 10
-20.3467069247
 20
-14.646042297
 30
0.0
 10
-20.1460435513
 20
-14.0570357704
 30
0.0
 10
-19.8447383457
 20
-13.7002962617
 30
0.0
 10
-19.6589567903
 20
-13.5874851937
 30
0.0
 11
-20.1645642065
 21
-15.2203023886
 31
0.0
 11
-20.3006190328
 21
-14.7149186263
 31
0.0
 11
-20.1022224115
 21
-14.0656961298
 31
0.0
 11
-19.6589567903
 21
-13.5874851937
 31
0.0
  0
SPLINE
  5
3F2
100
AcDbEntity
  8
RACCORDO
100
AcDbSpline
 62
253
  6
CONTINUOUS
 70
0
 71
3
 72
17
 73
13
 74
11
 42
0.0000001
 43
0.0000001
 44
0.0000000001
 12
7.423365802
 22
-3.7136369107
 32
0.0
 13
7.4241475363
 23
-3.7120738538
 33
0.0
 40
0.0
 40
0.0
 40
0.0
 40
0.0
 40
0.0689720712
 40
0.143723306
 40
0.2243689537
 40
0.3112177364
 40
0.4049310011
 40
0.5064741898
 40
0.6166014145
 40
0.7354749386
 40
0.8628509896
 40
1.0
 40
1.0
 40
1.0
 40
1.0
 10
-20.1646218494
 20
-15.2203494861
 30
0.0
 10
-19.9939535445
 20
-15.3057285626
 30
0.0
 10
-19.6382955626
 20
-15.4835984582
 30
0.0
 10
-19.083084293
 20
-15.7612994263
 30
0.0
 10
-18.4835837
 20
-16.0610212191
 30
0.0
 10
-17.8371177078
 20
-16.3841262783
 30
0.0
 10
-17.1389144883
 20
-16.7330455535
 30
0.0
 10
-16.3831002923
 20
-17.1107617
 30
0.0
 10
-15.565050824
 20
-17.5196685623
 30
0.0
 10
-14.6831112419
 20
-17.9606176944
 30
0.0
 10
-13.7343266549
 20
-18.4350549161
 30
0.0
 10
-13.0797160278
 20
-18.7623945708
 30
0.0
 10
-12.7403111987
 20
-18.9320969893
 30
0.0
 11
-20.1646218494
 21
-15.2203494861
 31
0.0
 11
-19.6525985502
 21
-15.4764499631
 31
0.0
 11
-19.0976624835
 21
-15.7539883173
 31
0.0
 11
-18.4989292103
 21
-16.0533347444
 31
0.0
 11
-17.8541040802
 21
-16.3756299148
 31
0.0
 11
-17.1582937276
 21
-16.7233619414
 31
0.0
 11
-16.4043507226
 21
-17.1001549406
 31
0.0
 11
-15.5867030027
 21
-17.5088614075
 31
0.0
 11
-14.7041567978
 21
-17.9501054604
 31
0.0
 11
-13.7585118043
 21
-18.4229619713
 31
0.0
 11
-12.7403111987
 21
-18.9320969893
 31
0.0
  0
SPLINE
  5
3F3
100
AcDbEntity
  8
RACCORDO
100
AcDbSpline
 62
253
  6
CONTINUOUS
 70
0
 71
3
 72
11
 73
7
 74
5
 42
0.0000001
 43
0.0000001
 44
0.0000000001
 12
-1.2255306407
 22
1.4068941188
 32
0.0
 13
1.5948718735
 23
0.9683285185
 33
0.0
 40
0.0
 40
0.0
 40
0.0
 40
0.0
 40
0.2036865199
 40
0.4615316921
 40
0.7426236814
 40
1.0
 40
1.0
 40
1.0
 40
1.0
 10
-12.7403123269
 20
-18.9320957049
 30
0.0
 10
-12.8235203507
 20
-18.8365739159
 30
0.0
 10
-12.9126043787
 20
-18.5407045799
 30
0.0
 10
-12.8376176823
 20
-18.077628802
 30
0.0
 10
-12.6140887639
 20
-17.6280639765
 30
0.0
 10
-12.3712291733
 20
-17.3829109155
 30
0.0
 10
-12.2344017561
 20
-17.2998359724
 30
0.0
 11
-12.7403123269
 21
-18.9320957049
 31
0.0
 11
-12.8757229781
 21
-18.5769959413
 31
0.0
 11
-12.8177933484
 21
-18.0994042733
 31
0.0
 11
-12.5824403736
 21
-17.6307102916
 31
0.0
 11
-12.2344017561
 21
-17.2998359724
 31
0.0
  0
SPLINE
  5
3F4
100
AcDbEntity
  8
RACCORDO
100
AcDbSpline
 62
253
  6
CONTINUOUS
 70
0
 71
3
 72
10
 73
6
 74
4
 42
0.0000001
 43
0.0000001
 44
0.0000000001
 12
-0.0374580377
 22
1.3437278429
 32
0.0
 13
-0.8829466391
 23
1.0136137592
 33
0.0
 40
0.0
 40
0.0
 40
0.0
 40
0.0
 40
0.3670411202
 40
0.6991628815
 40
1.0
 40
1.0
 40
1.0
 40
1.0
 10
4.2941989488
 20
-28.4941447758
 30
0.0
 10
4.2896160688
 20
-28.3297436515
 30
0.0
 10
4.2556760161
 20
-28.0161954783
 30
0.0
 10
4.1182679937
 20
-27.5861967705
 30
0.0
 10
3.9652380713
 20
-27.3422445974
 30
0.0
 10
3.8766970304
 20
-27.2406003832
 30
0.0
 11
4.2941989488
 21
-28.4941447758
 31
0.0
 11
4.2368579766
 21
-28.0040931409
 31
0.0
 11
4.0957823663
 21
-27.5805138655
 31
0.0
 11
3.8766970304
 21
-27.2406003832
 31
0.0
  0
SPLINE
  5
3F5
100
AcDbEntity
  8
RACCORDO
100
AcDbSpline
 62
253
  6
CONTINUOUS
 70
0
 71
3
 72
10
 73
6
 74
4
 42
0.0000001
 43
0.0000001
 44
0.0000000001
 12
-0.0419160317
 22
1.3385857694
 32
0.0
 13
-0.8822363711
 23
1.0075851335
 33
0.0
 40
0.0
 40
0.0
 40
0.0
 40
0.0
 40
0.3668791373
 40
0.6989845945
 40
1.0
 40
1.0
 40
1.0
 40
1.0
 10
11.7224522342
 20
-32.2012830881
 30
0.0
 10
11.717326195
 20
-32.0375833573
 30
0.0
 10
11.6824435955
 20
-31.7254018151
 30
0.0
 10
11.5440917489
 20
-31.2974763031
 30
0.0
 10
11.3908612587
 20
-31.0548542083
 30
0.0
 10
11.3023390124
 20
-30.9537546591
 30
0.0
 11
11.7224522342
 21
-32.2012830881
 31
0.0
 11
11.6636763547
 21
-31.7134713425
 31
0.0
 11
11.5217299636
 21
-31.2919607693
 31
0.0
 11
11.3023390124
 21
-30.9537546591
 31
0.0
  0
SPLINE
  5
3F6
100
AcDbEntity
  8
RACCORDO
100
AcDbSpline
 62
253
  6
CONTINUOUS
 70
0
 71
3
 72
10
 73
6
 74
4
 42
0.0000001
 43
0.0000001
 44
0.0000000001
 12
-1.5204354732
 22
0.6947357523
 32
0.0
 13
-1.6683449502
 23
0.1049138734
 33
0.0
 40
0.0
 40
0.0
 40
0.0
 40
0.0
 40
0.3086437676
 40
0.6449966662
 40
1.0
 40
1.0
 40
1.0
 40
1.0
 10
14.3386849228
 20
-30.3037470026
 30
0.0
 10
14.1822606119
 20
-30.2322717159
 30
0.0
 10
13.8430006884
 20
-30.1093868103
 30
0.0
 10
13.2984540795
 20
-29.9863097677
 30
0.0
 10
12.9148167894
 20
-29.9427877359
 30
0.0
 10
12.7173941163
 20
-29.9303728109
 30
0.0
 11
14.3386849228
 21
-30.3037470026
 31
0.0
 11
13.8548342385
 21
-30.1246267909
 31
0.0
 11
13.306915006
 21
-29.9984441008
 31
0.0
 11
12.7173941163
 21
-29.9303728109
 31
0.0
  0
SPLINE
  5
3F7
100
AcDbEntity
  8
RACCORDO
100
AcDbSpline
 62
253
  6
CONTINUOUS
 70
0
 71
3
 72
10
 73
6
 74
4
 42
0.0000001
 43
0.0000001
 44
0.0000000001
 12
-1.5086869234
 22
0.7052004291
 32
0.0
 13
-1.660865649
 23
0.1223485762
 33
0.0
 40
0.0
 40
0.0
 40
0.0
 40
0.0
 40
0.3089744389
 40
0.6452976445
 40
1.0
 40
1.0
 40
1.0
 40
1.0
 10
14.3245509239
 20
-21.2246988551
 30
0.0
 10
14.1691690253
 20
-21.1520692194
 30
0.0
 10
13.8322111621
 20
-21.0264228159
 30
0.0
 10
13.2909884682
 20
-20.8983155022
 30
0.0
 10
12.9094606071
 20
-20.8509359398
 30
0.0
 10
12.7130896211
 20
-20.8364701637
 30
0.0
 11
14.3245509239
 21
-21.2246988551
 31
0.0
 11
13.8436739744
 21
-21.0416012179
 31
0.0
 11
13.2991521894
 21
-20.9104165722
 31
0.0
 11
12.7130896211
 21
-20.8364701637
 31
0.0
  0
SPLINE
  5
3F8
100
AcDbEntity
  8
RACCORDO
100
AcDbSpline
 62
253
  6
CONTINUOUS
 70
0
 71
3
 72
10
 73
6
 74
4
 42
0.0000001
 43
0.0000001
 44
0.0000000001
 12
-1.508661085
 22
0.7053240328
 32
0.0
 13
-1.660886432
 23
0.1224602824
 33
0.0
 40
0.0
 40
0.0
 40
0.0
 40
0.0
 40
0.3089770921
 40
0.6452995573
 40
1.0
 40
1.0
 40
1.0
 40
1.0
 10
14.3245509234
 20
-0.8731018645
 30
0.0
 10
14.1691703517
 20
-0.800458875
 30
0.0
 10
13.8322148054
 20
-0.6747852697
 30
0.0
 10
13.2909919184
 20
-0.5466365782
 30
0.0
 10
12.9094620037
 20
-0.4992307282
 30
0.0
 10
12.7130896195
 20
-0.4847518228
 30
0.0
 11
14.3245509234
 21
-0.8731018645
 31
0.0
 11
13.8436748763
 21
-0.6899643173
 31
0.0
 11
13.2991542078
 21
-0.558738756
 31
0.0
 11
12.7130896195
 21
-0.4847518228
 31
0.0
  0
SPLINE
  5
3F9
100
AcDbEntity
  8
RACCORDO
100
AcDbSpline
 62
253
  6
CONTINUOUS
 70
0
 71
3
 72
10
 73
6
 74
4
 42
0.0000001
 43
0.0000001
 44
0.0000000001
 12
-1.515686246
 22
0.7215476806
 32
0.0
 13
-1.6732855731
 23
0.1343549125
 33
0.0
 40
0.0
 40
0.0
 40
0.0
 40
0.0
 40
0.3093119179
 40
0.6456783709
 40
1.0
 40
1.0
 40
1.0
 40
1.0
 10
14.3387889935
 20
8.2057959698
 30
0.0
 10
14.1825157203
 20
8.2801904021
 30
0.0
 10
13.8435872892
 20
8.409355392
 30
0.0
 10
13.2989745997
 20
8.5423847308
 30
0.0
 10
12.9149175784
 20
8.5927640667
 30
0.0
 10
12.7172904884
 20
8.6086323505
 30
0.0
 11
14.3387889935
 21
8.2057959698
 31
0.0
 11
13.8548704897
 21
8.3940131025
 31
0.0
 11
13.3068796783
 21
8.5301529933
 31
0.0
 11
12.7172904884
 21
8.6086323505
 31
0.0
  0
SPLINE
  5
3FA
100
AcDbEntity
  8
RACCORDO
100
AcDbSpline
 62
253
  6
CONTINUOUS
 70
0
 71
3
 72
10
 73
6
 74
4
 42
0.0000001
 43
0.0000001
 44
0.0000000001
 12
-0.0522817287
 22
-1.7274355599
 32
0.0
 13
-0.7316332524
 23
-1.5657202103
 33
0.0
 40
0.0
 40
0.0
 40
0.0
 40
0.0
 40
0.3177587395
 40
0.653627192
 40
1.0
 40
1.0
 40
1.0
 40
1.0
 10
11.7220339604
 20
12.710470216
 30
0.0
 10
11.7164963017
 20
12.5275009673
 30
0.0
 10
11.6742149918
 20
12.1516667213
 30
0.0
 10
11.5314396249
 20
11.5920673995
 30
0.0
 10
11.3865662993
 20
11.2254073459
 30
0.0
 10
11.3020936779
 20
11.044633044
 30
0.0
 11
11.7220339604
 21
12.710470216
 31
0.0
 11
11.6633236022
 21
12.1644584958
 31
0.0
 11
11.5214354689
 21
11.6016105361
 31
0.0
 11
11.3020936779
 21
11.044633044
 31
0.0
  0
SPLINE
  5
3FB
100
AcDbEntity
  8
RACCORDO
100
AcDbSpline
 62
253
  6
CONTINUOUS
 70
0
 71
3
 72
10
 73
6
 74
4
 42
0.0000001
 43
0.0000001
 44
0.0000000001
 12
-0.0469741493
 22
-1.7321608815
 32
0.0
 13
-0.7313367478
 23
-1.5709024321
 33
0.0
 40
0.0
 40
0.0
 40
0.0
 40
0.0
 40
0.3176303533
 40
0.6535107138
 40
1.0
 40
1.0
 40
1.0
 40
1.0
 10
4.2941989488
 20
16.4266960208
 30
0.0
 10
4.2892254769
 20
16.2433003965
 30
0.0
 10
4.2478486779
 20
15.8664102934
 30
0.0
 10
4.1058576512
 20
15.3050240277
 30
0.0
 10
3.9611638132
 20
14.9370832624
 30
0.0
 10
3.8766970307
 20
14.7556496416
 30
0.0
 11
4.2941989488
 21
16.4266960208
 31
0.0
 11
4.236858104
 21
15.8793019751
 31
0.0
 11
4.0957818716
 21
15.3146460615
 31
0.0
 11
3.8766970307
 21
14.7556496416
 31
0.0
  0
SPLINE
  5
3FC
100
AcDbEntity
  8
RACCORDO
100
AcDbSpline
 62
253
  6
CONTINUOUS
 70
0
 71
3
 72
10
 73
6
 74
4
 42
0.0000001
 43
0.0000001
 44
0.0000000001
 12
-0.0470583296
 22
-1.732139449
 32
0.0
 13
-0.7314025667
 23
-1.5708506748
 33
0.0
 40
0.0
 40
0.0
 40
0.0
 40
0.0
 40
0.3176274603
 40
0.6535072279
 40
1.0
 40
1.0
 40
1.0
 40
1.0
 10
-12.3228103395
 20
24.7352006649
 30
0.0
 10
-12.3277926788
 20
24.5518089802
 30
0.0
 10
-12.3691873312
 20
24.174927071
 30
0.0
 10
-12.5112046624
 20
23.6135540871
 30
0.0
 10
-12.6559149472
 20
23.2456227147
 30
0.0
 10
-12.7403901815
 20
23.0641932464
 30
0.0
 11
-12.3228103395
 21
24.7352006649
 31
0.0
 11
-12.3801768894
 21
24.1878204657
 31
0.0
 11
-12.521278981
 21
23.6231786991
 31
0.0
 11
-12.7403901815
 21
23.0641932464
 31
0.0
  0
SPLINE
  5
3FD
100
AcDbEntity
  8
RACCORDO
100
AcDbSpline
 62
253
  6
CONTINUOUS
 70
0
 71
3
 72
10
 73
6
 74
4
 42
0.0000001
 43
0.0000001
 44
0.0000000001
 12
-0.0505137555
 22
-1.7278619549
 32
0.0
 13
-0.7300777313
 23
-1.5668583475
 33
0.0
 40
0.0
 40
0.0
 40
0.0
 40
0.0
 40
0.3178046566
 40
0.6536735874
 40
1.0
 40
1.0
 40
1.0
 40
1.0
 10
-19.746377647
 20
28.4446666842
 30
0.0
 10
-19.751728816
 20
28.2616258258
 30
0.0
 10
-19.7936159185
 20
27.8856395879
 30
0.0
 10
-19.9357971536
 20
27.3257604532
 30
0.0
 10
-20.0802834197
 20
26.9588842461
 30
0.0
 10
-20.1645651536
 20
26.7780027693
 30
0.0
 11
-19.746377647
 21
28.4446666842
 31
0.0
 11
-19.804525944
 21
27.8983956038
 31
0.0
 11
-19.9458218105
 21
27.3352684365
 31
0.0
 11
-20.1645651536
 21
26.7780027693
 31
0.0
  0
SPLINE
  5
3FE
100
AcDbEntity
  8
RACCORDO
100
AcDbSpline
 62
253
  6
CONTINUOUS
 70
0
 71
3
 72
10
 73
6
 74
4
 42
0.0000001
 43
0.0000001
 44
0.0000000001
 12
1.0068932843
 22
-0.5293519978
 32
0.0
 13
0.3181654094
 23
-1.0921622571
 33
0.0
 40
0.0
 40
0.0
 40
0.0
 40
0.0
 40
0.384445276
 40
0.714714286
 40
1.0
 40
1.0
 40
1.0
 40
1.0
 10
-22.3531307527
 20
26.5518856717
 30
0.0
 10
-22.2240989638
 20
26.4840500467
 30
0.0
 10
-21.9929698627
 20
26.3389657359
 30
0.0
 10
-21.7198604044
 20
26.0707538964
 30
0.0
 10
-21.60731758
 20
25.8597601007
 30
0.0
 10
-21.5770615647
 20
25.755900671
 30
0.0
 11
-22.3531307527
 21
26.5518856717
 31
0.0
 11
-21.9858469801
 21
26.3144820041
 31
0.0
 11
-21.72357248
 21
26.045476948
 31
0.0
 11
-21.5770615647
 21
25.755900671
 31
0.0
  0
SPLINE
  5
3FF
100
AcDbEntity
  8
RACCORDO
100
AcDbSpline
 62
253
  6
CONTINUOUS
 70
0
 71
3
 72
10
 73
6
 74
4
 42
0.0000001
 43
0.0000001
 44
0.0000000001
 12
1.0091466377
 22
-0.5397353279
 32
0.0
 13
0.3234661826
 23
-1.0977526084
 33
0.0
 40
0.0
 40
0.0
 40
0.0
 40
0.0
 40
0.3827929635
 40
0.7131840697
 40
1.0
 40
1.0
 40
1.0
 40
1.0
 10
-22.3531623043
 20
17.4657547493
 30
0.0
 10
-22.2243975603
 20
17.3968857874
 30
0.0
 10
-21.9934719747
 20
17.2494990842
 30
0.0
 10
-21.7205993324
 20
16.9778459398
 30
0.0
 10
-21.6076300077
 20
16.7649750758
 30
0.0
 10
-21.576704923
 20
16.6600240973
 30
0.0
 11
-22.3531623043
 21
17.4657547493
 31
0.0
 11
-21.9869670304
 21
17.2253162744
 31
0.0
 11
-21.7245977395
 21
16.9530553817
 31
0.0
 11
-21.576704923
 21
16.6600240973
 31
0.0
  0
SPLINE
  5
400
100
AcDbEntity
  8
RACCORDO
100
AcDbSpline
 62
253
  6
CONTINUOUS
 70
0
 71
3
 72
10
 73
6
 74
4
 42
0.0000001
 43
0.0000001
 44
0.0000000001
 12
1.0091798963
 22
-0.539840861
 32
0.0
 13
0.3234527869
 23
-1.0978390195
 33
0.0
 40
0.0
 40
0.0
 40
0.0
 40
0.0
 40
0.3827833069
 40
0.713174459
 40
1.0
 40
1.0
 40
1.0
 40
1.0
 10
-22.3531623039
 20
-2.8858422412
 30
0.0
 10
-22.2243965645
 20
-2.9547229312
 30
0.0
 10
-21.9934683697
 20
-3.1021340556
 30
0.0
 10
-21.7205965955
 20
-3.373825629
 30
0.0
 10
-21.6076297626
 20
-3.5867199156
 30
0.0
 10
-21.5767049224
 20
-3.6916826725
 30
0.0
 11
-22.3531623039
 21
-2.8858422412
 31
0.0
 11
-21.9869675863
 21
-3.1263165944
 31
0.0
 11
-21.7245984732
 21
-3.3986140247
 31
0.0
 11
-21.5767049224
 21
-3.6916826725
 31
0.0
  0
SPLINE
  5
401
100
AcDbEntity
  8
RACCORDO
100
AcDbSpline
 62
253
  6
CONTINUOUS
 70
0
 71
3
 72
10
 73
6
 74
4
 42
0.0000001
 43
0.0000001
 44
0.0000000001
 12
1.0170467523
 22
-0.5555900451
 32
0.0
 13
0.3136774901
 23
-1.1156481644
 33
0.0
 40
0.0
 40
0.0
 40
0.0
 40
0.0
 40
0.3816336368
 40
0.7119731866
 40
1.0
 40
1.0
 40
1.0
 40
1.0
 10
-22.3531397578
 20
-11.9578438229
 30
0.0
 10
-22.2237600075
 20
-12.028521106
 30
0.0
 10
-21.9917833223
 20
-12.1799007472
 30
0.0
 10
-21.7189146535
 20
-12.4585411607
 30
0.0
 10
-21.6073500427
 20
-12.6760841042
 30
0.0
 10
-21.5772342001
 20
-12.7831962995
 30
0.0
 11
-22.3531397578
 21
-11.9578438229
 31
0.0
 11
-21.9859029706
 21
-12.2043123308
 31
0.0
 11
-21.7236837146
 21
-12.483242275
 31
0.0
 11
-21.5772342001
 21
-12.7831962995
 31
0.0
  0
SPLINE
  5
402
100
AcDbEntity
  8
RACCORDO
100
AcDbSpline
 62
253
  6
CONTINUOUS
 70
0
 71
3
 72
10
 73
6
 74
4
 42
0.0000001
 43
0.0000001
 44
0.0000000001
 12
-0.0403312249
 22
1.3370235429
 32
0.0
 13
-0.8805090313
 23
1.0069570039
 33
0.0
 40
0.0
 40
0.0
 40
0.0
 40
0.0
 40
0.367017636
 40
0.6991162371
 40
1.0
 40
1.0
 40
1.0
 40
1.0
 10
-19.7464495217
 20
-16.4668308067
 30
0.0
 10
-19.751383612
 20
-16.3032604
 30
0.0
 10
-19.7858527868
 20
-15.9913547069
 30
0.0
 10
-19.9235250645
 20
-15.5637754591
 30
0.0
 10
-20.0763120323
 20
-15.3213412112
 30
0.0
 10
-20.1646223225
 20
-15.2203488737
 30
0.0
 11
-19.7464495217
 21
-16.4668308067
 31
0.0
 11
-19.8046007697
 21
-15.97935256
 31
0.0
 11
-19.9458916548
 21
-15.5581954827
 31
0.0
 11
-20.1646223225
 21
-15.2203488737
 31
0.0
  0
SPLINE
  5
403
100
AcDbEntity
  8
RACCORDO
100
AcDbSpline
 62
253
  6
CONTINUOUS
 70
0
 71
3
 72
10
 73
6
 74
4
 42
0.0000001
 43
0.0000001
 44
0.0000000001
 12
-0.0374561389
 22
1.3437281406
 32
0.0
 13
-0.8829477389
 23
1.0136131257
 33
0.0
 40
0.0
 40
0.0
 40
0.0
 40
0.0
 40
0.367042193
 40
0.6991643237
 40
1.0
 40
1.0
 40
1.0
 40
1.0
 10
-12.3228103395
 20
-20.1856401317
 30
0.0
 10
-12.3273930006
 20
-20.0212384905
 30
0.0
 10
-12.3613329276
 20
-19.7076895551
 30
0.0
 10
-12.4987414544
 20
-19.2776908501
 30
0.0
 10
-12.6517715999
 20
-19.0337393684
 30
0.0
 10
-12.7403123266
 20
-18.932095705
 30
0.0
 11
-12.3228103395
 21
-20.1856401317
 31
0.0
 11
-12.3801512073
 21
-19.6955869423
 31
0.0
 11
-12.5212274627
 21
-19.2720072726
 31
0.0
 11
-12.7403123266
 21
-18.932095705
 31
0.0
  0
SPLINE
  5
404
100
AcDbEntity
  8
RACCORDO
100
AcDbSpline
 62
253
  6
CONTINUOUS
 70
0
 71
3
 72
12
 73
8
 74
6
 42
0.0000001
 43
0.0000001
 44
0.0000000001
 12
16.0276751581
 22
-7.4917372093
 32
0.0
 13
16.9215735281
 23
-5.1645761452
 33
0.0
 40
0.0
 40
0.0
 40
0.0
 40
0.0
 40
0.152131783
 40
0.3277528289
 40
0.4827176388
 40
0.7876026792
 40
1.0
 40
1.0
 40
1.0
 40
1.0
 10
14.3245525785
 20
-0.8730983244
 30
0.0
 10
15.1373255118
 20
-1.253008771
 30
0.0
 10
16.8987086938
 20
-2.0495155831
 30
0.0
 10
19.5221278262
 20
-3.1557567209
 30
0.0
 10
23.0099825172
 20
-4.5274049097
 30
0.0
 10
26.7455082385
 20
-5.8590087858
 30
0.0
 10
29.6518099066
 20
-6.7873184386
 30
0.0
 10
30.8498422
 20
-7.1529658173
 30
0.0
 11
14.3245525785
 21
-0.8730983244
 31
0.0
 11
16.7767514172
 21
-1.9826509155
 31
0.0
 11
19.6394193
 21
-3.1906655446
 31
0.0
 11
22.1906875998
 21
-4.1945286176
 31
0.0
 11
27.2705165327
 21
-6.0087445963
 31
0.0
 11
30.8498422
 21
-7.1529658173
 31
0.0
  0
SPLINE
  5
405
100
AcDbEntity
  8
RACCORDO
100
AcDbSpline
 62
253
  6
CONTINUOUS
 70
0
 71
3
 72
34
 73
30
 74
28
 42
0.0000001
 43
0.0000001
 44
0.0000000001
 12
-0.0000052019
 22
28.4545270008
 32
0.0
 13
0.1607155925
 23
28.4540731239
 33
0.0
 40
0.0
 40
0.0
 40
0.0
 40
0.0
 40
0.0888101157
 40
0.1699689534
 40
0.2443011101
 40
0.312479453
 40
0.3751089011
 40
0.4327081545
 40
0.4857227924
 40
0.5345672785
 40
0.5796230522
 40
0.6211876039
 40
0.6594905295
 40
0.6947850952
 40
0.7273596317
 40
0.7574963965
 40
0.7853775643
 40
0.8110892096
 40
0.8347664182
 40
0.8565827394
 40
0.8766870688
 40
0.8951559154
 40
0.9118006563
 40
0.9265793723
 40
0.940067041
 40
0.9532457124
 40
0.9672088155
 40
0.9828569056
 40
1.0
 40
1.0
 40
1.0
 40
1.0
 10
30.8498420395
 20
-7.1529657683
 30
0.0
 10
30.8498418855
 20
-6.3106158231
 30
0.0
 10
30.8496493809
 20
-4.6984870996
 30
0.0
 10
30.8491195678
 20
-2.3813296493
 30
0.0
 10
30.8485481407
 20
-0.2598613268
 30
0.0
 10
30.8480125535
 20
1.6858586604
 30
0.0
 10
30.8474705209
 20
3.4728696891
 30
0.0
 10
30.8469509964
 20
5.1160553662
 30
0.0
 10
30.84651136
 20
6.6284928701
 30
0.0
 10
30.8461268317
 20
8.0219574588
 30
0.0
 10
30.8457996716
 20
9.3068197961
 30
0.0
 10
30.8455407154
 20
10.4916971085
 30
0.0
 10
30.8454291837
 20
11.5839909258
 30
0.0
 10
30.8451046867
 20
12.5910158273
 30
0.0
 10
30.8445402767
 20
13.5205858719
 30
0.0
 10
30.8437208582
 20
14.3798407731
 30
0.0
 10
30.8425027931
 20
15.1740018235
 30
0.0
 10
30.8405028581
 20
15.9068931808
 30
0.0
 10
30.838409043
 20
16.582259747
 30
0.0
 10
30.8367426378
 20
17.2044430091
 30
0.0
 10
30.8359884016
 20
17.7772274371
 30
0.0
 10
30.8352451476
 20
18.3009601718
 30
0.0
 10
30.8342128308
 20
18.7741796607
 30
0.0
 10
30.8338509291
 20
19.2001548291
 30
0.0
 10
30.8341371665
 20
19.5932540252
 30
0.0
 10
30.8319328041
 20
19.9786197218
 30
0.0
 10
30.8246127975
 20
20.3844119958
 30
0.0
 10
30.818487233
 20
20.8278314957
 30
0.0
 10
30.8183649496
 20
21.1388632256
 30
0.0
 10
30.8192833371
 20
21.3014601797
 30
0.0
 11
30.8498420395
 21
-7.1529657683
 31
0.0
 11
30.8495926359
 21
-4.6259159449
 31
0.0
 11
30.8490884074
 21
-2.3165796621
 31
0.0
 11
30.8485302458
 21
-0.2014933767
 31
0.0
 11
30.8479886108
 21
1.7384890482
 31
0.0
 11
30.8474520728
 21
3.5205802903
 31
0.0
 11
30.846944499
 21
5.1595397207
 31
0.0
 11
30.8465037175
 21
6.6680461018
 31
0.0
 11
30.8461220543
 21
8.057892798
 31
0.0
 11
30.845799259
 21
9.339933488
 31
0.0
 11
30.8455578446
 21
10.5226331214
 31
0.0
 11
30.8453846502
 21
11.6125247373
 31
0.0
 11
30.8450467683
 21
12.616814853
 31
0.0
 11
30.8444706345
 21
13.5437077029
 31
0.0
 11
30.8436143188
 21
14.4012346627
 31
0.0
 11
30.8423068212
 21
15.1945790291
 31
0.0
 11
30.8404030458
 21
15.9261892572
 31
0.0
 11
30.8384036393
 21
16.5999100625
 31
0.0
 11
30.8368457664
 21
17.2206812072
 31
0.0
 11
30.8359578023
 21
17.7927397016
 31
0.0
 11
30.8351503561
 21
18.3182613753
 31
0.0
 11
30.8342855985
 21
18.7918788164
 31
0.0
 11
30.833956155
 21
19.2124000599
 31
0.0
 11
30.8337220566
 21
19.5961852224
 31
0.0
 11
30.8312278869
 21
19.9711697889
 31
0.0
 11
30.8251647634
 21
20.3684370172
 31
0.0
 11
30.8196335968
 21
20.8136616624
 31
0.0
 11
30.8192833371
 21
21.3014601797
 31
0.0
  0
SPLINE
  5
406
100
AcDbEntity
  8
0
100
AcDbSpline
 62
253
  6
CONTINUOUS
 70
0
 71
3
 72
8
 73
4
 74
2
 42
0.0000001
 43
0.0000001
 44
0.0000000001
 12
-0.0517969378
 22
0.0149226536
 32
0.0
 13
-0.0466931108
 23
0.023346555
 33
0.0
 40
0.0
 40
0.0
 40
0.0
 40
0.0
 40
1.0
 40
1.0
 40
1.0
 40
1.0
 10
11.8568678598
 20
-29.3401440346
 30
0.0
 10
11.8396022138
 20
-29.3351698167
 30
0.0
 10
11.8228587552
 20
-29.3283936208
 30
0.0
 10
11.8072943849
 20
-29.3206114358
 30
0.0
 11
11.8568678598
 21
-29.3401440346
 31
0.0
 11
11.8072943849
 21
-29.3206114358
 31
0.0
  0
SPLINE
  5
407
100
AcDbEntity
  8
RACCORDO
100
AcDbSpline
 62
253
  6
CONTINUOUS
 70
0
 71
3
 72
12
 73
8
 74
6
 42
0.0000001
 43
0.0000001
 44
0.0000000001
 12
0.4725836363
 22
-16.9529434679
 32
0.0
 13
3.6308447503
 23
-16.5663089992
 33
0.0
 40
0.0
 40
0.0
 40
0.0
 40
0.0
 40
0.1653773354
 40
0.3498664656
 40
0.5072874341
 40
0.8034367861
 40
1.0
 40
1.0
 40
1.0
 40
1.0
 10
4.294203326
 20
-28.4941446721
 30
0.0
 10
4.3202548668
 20
-29.4286888782
 30
0.0
 10
4.4020676823
 20
-31.4051296906
 30
0.0
 10
4.6060378557
 20
-34.266184186
 30
0.0
 10
4.9725012894
 20
-37.8549530892
 30
0.0
 10
5.5007883096
 20
-41.4944419285
 30
0.0
 10
6.0390838763
 20
-44.2281760641
 30
0.0
 10
6.2769807141
 20
-45.3136183771
 30
0.0
 11
4.294203326
 21
-28.4941446721
 31
0.0
 11
4.4107501853
 21
-31.2964438769
 31
0.0
 11
4.6340694976
 21
-34.4173128463
 31
0.0
 11
4.9058405746
 21
-37.0732298408
 31
0.0
 11
5.6315390623
 21
-42.0430795291
 31
0.0
 11
6.2769807141
 21
-45.3136183771
 31
0.0
  0
LINE
  5
408
100
AcDbEntity
  8
RACCORDO
100
AcDbLine
 62
253
  6
CONTINUOUS
 10
-34.91289011
 20
5.3768033175
 11
-34.9127796224
 21
4.5598158345
  0
SPLINE
  5
409
100
AcDbEntity
  8
RACCORDO
100
AcDbSpline
 62
253
  6
CONTINUOUS
 70
0
 71
3
 72
36
 73
32
 74
30
 42
0.0000001
 43
0.0000001
 44
0.0000000001
 12
0.0068564262
 22
-25.9304894078
 32
0.0
 13
0.2407809705
 23
-25.9294010888
 33
0.0
 40
0.0
 40
0.0
 40
0.0
 40
0.0
 40
0.0607127783
 40
0.1453088877
 40
0.2229052489
 40
0.2940630644
 40
0.3593117286
 40
0.4191935121
 40
0.4742365538
 40
0.5249133065
 40
0.5715376163
 40
0.6144076384
 40
0.6537869656
 40
0.689908116
 40
0.7229966126
 40
0.753283476
 40
0.781042376
 40
0.8065534247
 40
0.8300975907
 40
0.8519684891
 40
0.8723580806
 40
0.8912549975
 40
0.9086068571
 40
0.9243753313
 40
0.9386957285
 40
0.9517941883
 40
0.9639034435
 40
0.9752394538
 40
0.9860181421
 40
0.9965084146
 40
1.0
 40
1.0
 40
1.0
 40
1.0
 10
-34.9127796224
 20
4.5598158345
 30
0.0
 10
-34.9126408649
 20
4.0350451494
 30
0.0
 10
-34.9120109936
 20
2.7790683469
 30
0.0
 10
-34.9102670886
 20
0.8523883402
 30
0.0
 10
-34.9079279143
 20
-1.1645727283
 30
0.0
 10
-34.9056558588
 20
-3.014304169
 30
0.0
 10
-34.9034429121
 20
-4.7109196751
 30
0.0
 10
-34.9011698401
 20
-6.2682469722
 30
0.0
 10
-34.898961084
 20
-7.699621951
 30
0.0
 10
-34.8969775012
 20
-9.0164062118
 30
0.0
 10
-34.895279723
 20
-10.2279733253
 30
0.0
 10
-34.8938789195
 20
-11.341891487
 30
0.0
 10
-34.8927550335
 20
-12.3650258962
 30
0.0
 10
-34.8919493446
 20
-13.303613985
 30
0.0
 10
-34.8911691967
 20
-14.1636113941
 30
0.0
 10
-34.8900824583
 20
-14.9513293605
 30
0.0
 10
-34.8885719804
 20
-15.6735508922
 30
0.0
 10
-34.8865809101
 20
-16.3374905328
 30
0.0
 10
-34.8841655574
 20
-16.9505355339
 30
0.0
 10
-34.8811248495
 20
-17.5193099474
 30
0.0
 10
-34.8774676953
 20
-18.0479113766
 30
0.0
 10
-34.8732550653
 20
-18.5374470216
 30
0.0
 10
-34.8687109633
 20
-18.9870351004
 30
0.0
 10
-34.8641684411
 20
-19.3970637908
 30
0.0
 10
-34.8597101095
 20
-19.7703267525
 30
0.0
 10
-34.8554101037
 20
-20.1119608246
 30
0.0
 10
-34.8512331987
 20
-20.427798775
 30
0.0
 10
-34.8473072136
 20
-20.7235873747
 30
0.0
 10
-34.8439438599
 20
-21.0053883842
 30
0.0
 10
-34.8416695402
 20
-21.2193939841
 30
0.0
 10
-34.8405680308
 20
-21.3402412884
 30
0.0
 10
-34.840287795
 20
-21.3704195278
 30
0.0
 11
-34.9127796224
 21
4.5598158345
 31
0.0
 11
-34.9120260201
 21
2.9855038985
 31
0.0
 11
-34.9101152198
 21
0.7918861673
 31
0.0
 11
-34.9078393839
 21
-1.2202242083
 31
0.0
 11
-34.9055687329
 21
-3.0653798306
 31
0.0
 11
-34.9033367446
 21
-4.7573081881
 31
0.0
 11
-34.9010862746
 21
-6.3100705405
 31
0.0
 11
-34.8989119424
 21
-7.7373619253
 31
0.0
 11
-34.8969487082
 21
-9.0514334842
 31
0.0
 11
-34.8952644332
 21
-10.2604235062
 31
0.0
 11
-34.8938716998
 21
-11.372063311
 31
0.0
 11
-34.892766718
 21
-12.3931879596
 31
0.0
 11
-34.8919189004
 21
-13.3298267023
 31
0.0
 11
-34.891076682
 21
-14.187827218
 31
0.0
 11
-34.8899550831
 21
-14.9731796243
 31
0.0
 11
-34.88841789
 21
-15.6929798596
 31
0.0
 11
-34.8864220157
 21
-16.3544908389
 31
0.0
 11
-34.8839602305
 21
-16.9649976359
 31
0.0
 11
-34.8809025686
 21
-17.5321125045
 31
0.0
 11
-34.8772241616
 21
-18.0608118048
 31
0.0
 11
-34.8730122799
 21
-18.550800016
 31
0.0
 11
-34.8684963359
 21
-19.0007195732
 31
0.0
 11
-34.863967966
 21
-19.4095787589
 31
0.0
 11
-34.8595424477
 21
-19.7808873022
 31
0.0
 11
-34.8552649558
 21
-20.1205098455
 31
0.0
 11
-34.8511422178
 21
-20.4344816994
 31
0.0
 11
-34.8473104535
 21
-20.7284050266
 31
0.0
 11
-34.8439758452
 21
-21.0078818024
 31
0.0
 11
-34.8411295715
 21
-21.2798848154
 31
0.0
 11
-34.840287795
 21
-21.3704195278
 31
0.0
  0
SPLINE
  5
40A
100
AcDbEntity
  8
RACCORDO
100
AcDbSpline
 62
253
  6
CONTINUOUS
 70
0
 71
3
 72
13
 73
9
 74
7
 42
0.0000001
 43
0.0000001
 44
0.0000000001
 12
0.0145447152
 22
-1.5663021548
 32
0.0
 13
0.073468995
 23
-1.5646467081
 33
0.0
 40
0.0
 40
0.0
 40
0.0
 40
0.0
 40
0.116538406
 40
0.29885971
 40
0.4902920453
 40
0.6841515048
 40
0.8752219084
 40
1.0
 40
1.0
 40
1.0
 40
1.0
 10
-34.840287795
 20
-21.3704195278
 30
0.0
 10
-34.8397227891
 20
-21.4312643132
 30
0.0
 10
-34.8382200133
 20
-21.5872985641
 30
0.0
 10
-34.8340637493
 20
-21.8432605359
 30
0.0
 10
-34.8268404816
 20
-22.1395397395
 30
0.0
 10
-34.816931664
 20
-22.4403111993
 30
0.0
 10
-34.8065035928
 20
-22.706238403
 30
0.0
 10
-34.7991331864
 20
-22.870986166
 30
0.0
 10
-34.7960774127
 20
-22.9360640427
 30
0.0
 11
-34.840287795
 21
-21.3704195278
 31
0.0
 11
-34.8383940706
 21
-21.5529516554
 31
0.0
 11
-34.8337631235
 21
-21.838496349
 31
0.0
 11
-34.8264465634
 21
-22.1382605424
 31
0.0
 11
-34.8165647588
 21
-22.4417549488
 31
0.0
 11
-34.8048148567
 21
-22.7408107631
 31
0.0
 11
-34.7960774127
 21
-22.9360640427
 31
0.0
  0
SPLINE
  5
40B
100
AcDbEntity
  8
RACCORDO
100
AcDbSpline
 62
253
  6
CONTINUOUS
 70
0
 71
3
 72
19
 73
15
 74
13
 42
0.0000001
 43
0.0000001
 44
0.0000000001
 12
0.0000000866
 22
-9.0720038295
 32
0.0
 13
-0.0059962181
 23
-9.0720018479
 33
0.0
 40
0.0
 40
0.0
 40
0.0
 40
0.0
 40
0.0596487594
 40
0.124928982
 40
0.1960127943
 40
0.2731481331
 40
0.3567987654
 40
0.4476354312
 40
0.546425477
 40
0.6503407386
 40
0.7509694797
 40
0.8429995892
 40
0.9261843315
 40
1.0
 40
1.0
 40
1.0
 40
1.0
 10
-22.3531574037
 20
-2.8858402462
 30
0.0
 10
-22.3531574019
 20
-3.0662181707
 30
0.0
 10
-22.3531504955
 20
-3.444003572
 30
0.0
 10
-22.3530979978
 20
-4.0367465101
 30
0.0
 10
-22.3530131458
 20
-4.6823688837
 30
0.0
 10
-22.3528850809
 20
-5.3835433928
 30
0.0
 10
-22.3527263794
 20
-6.1444505527
 30
0.0
 10
-22.3524538179
 20
-6.970841544
 30
0.0
 10
-22.3522202788
 20
-7.858512822
 30
0.0
 10
-22.3522669627
 20
-8.7757953856
 30
0.0
 10
-22.3525180053
 20
-9.672635849
 30
0.0
 10
-22.3526167359
 20
-10.506787212
 30
0.0
 10
-22.3526260886
 20
-11.2598558598
 30
0.0
 10
-22.3529921998
 20
-11.7346251867
 30
0.0
 10
-22.3531397381
 20
-11.9578438138
 30
0.0
 11
-22.3531574037
 21
-2.8858402462
 31
0.0
 11
-22.3531447535
 21
-3.4269740195
 31
0.0
 11
-22.3530955018
 21
-4.0191964473
 31
0.0
 11
-22.3530102709
 21
-4.6640690588
 31
0.0
 11
-22.3528857783
 21
-5.3638411372
 31
0.0
 11
-22.3527162073
 21
-6.1227199745
 31
0.0
 11
-22.352470531
 21
-6.9467905174
 31
0.0
 11
-22.3522700707
 21
-7.8430141695
 31
0.0
 11
-22.3523040311
 21
-8.7857338202
 31
0.0
 11
-22.3524996055
 21
-9.6986381238
 31
0.0
 11
-22.352604416
 21
-10.5335356231
 31
0.0
 11
-22.3527275628
 21
-11.2881879129
 31
0.0
 11
-22.3531397381
 21
-11.9578438138
 31
0.0
  0
SPLINE
  5
40C
100
AcDbEntity
  8
RACCORDO
100
AcDbSpline
 62
253
  6
CONTINUOUS
 70
0
 71
3
 72
23
 73
19
 74
17
 42
0.0000001
 43
0.0000001
 44
0.0000000001
 12
-0.0036014568
 22
-5.445465526
 32
0.0
 13
4.8676591627
 23
-2.4411067248
 33
0.0
 40
0.0
 40
0.0
 40
0.0
 40
0.0
 40
0.0658652145
 40
0.1286000741
 40
0.191547942
 40
0.2568270699
 40
0.3234901644
 40
0.3879350601
 40
0.4508599915
 40
0.5160063959
 40
0.5805511652
 40
0.6413894817
 40
0.7008017475
 40
0.7607148008
 40
0.8224699521
 40
0.8859542306
 40
0.9445001813
 40
1.0
 40
1.0
 40
1.0
 40
1.0
 10
-22.3531397381
 20
-11.9578438138
 30
0.0
 10
-22.3532188083
 20
-12.0773993989
 30
0.0
 10
-22.3430145589
 20
-12.3109412282
 30
0.0
 10
-22.3007539427
 20
-12.6563280024
 30
0.0
 10
-22.2352439179
 20
-12.9969649267
 30
0.0
 10
-22.1460688296
 20
-13.3395419437
 30
0.0
 10
-22.0347598869
 20
-13.6784374915
 30
0.0
 10
-21.9047781371
 20
-14.0059830223
 30
0.0
 10
-21.7575765694
 20
-14.3231335501
 30
0.0
 10
-21.5916345906
 20
-14.6310737007
 30
0.0
 10
-21.4102028999
 20
-14.9258559992
 30
0.0
 10
-21.2129813843
 20
-15.1974422074
 30
0.0
 10
-21.0089325933
 20
-15.4531861517
 30
0.0
 10
-20.7867920564
 20
-15.6958310717
 30
0.0
 10
-20.5427718809
 20
-15.9273449659
 30
0.0
 10
-20.2834570769
 20
-16.1378274154
 30
0.0
 10
-20.0171035174
 20
-16.3198113777
 30
0.0
 10
-19.8365008062
 20
-16.4216704167
 30
0.0
 10
-19.7464494058
 20
-16.4668307436
 30
0.0
 11
-22.3531397381
 21
-11.9578438138
 31
0.0
 11
-22.3380002582
 21
-12.3161909829
 31
0.0
 11
-22.2969672543
 21
-12.6553383257
 31
0.0
 11
-22.2325050119
 21
-12.9920030013
 31
0.0
 11
-22.1431746735
 21
-13.3360710067
 31
0.0
 11
-22.0300076174
 21
-13.6809922799
 31
0.0
 11
-21.9006712683
 21
-14.007221881
 31
0.0
 11
-21.7562793916
 21
-14.317969141
 31
0.0
 11
-21.5881470881
 21
-14.6303485886
 31
0.0
 11
-21.402852631
 21
-14.9290149891
 31
0.0
 11
-21.2094485311
 21
-15.197994402
 31
0.0
 11
-21.0067139206
 21
-15.4501228045
 31
0.0
 11
-20.7863614364
 21
-15.6907195747
 31
0.0
 11
-20.5422180815
 21
-15.9219814206
 31
0.0
 11
-20.2735378678
 21
-16.1395141479
 31
0.0
 11
-20.0100306767
 21
-16.3189683006
 31
0.0
 11
-19.7464494058
 21
-16.4668307436
 31
0.0
  0
SPLINE
  5
40D
100
AcDbEntity
  8
RACCORDO
100
AcDbSpline
 62
253
  6
CONTINUOUS
 70
0
 71
3
 72
17
 73
13
 74
11
 42
0.0000001
 43
0.0000001
 44
0.0000000001
 12
7.4219492057
 22
-3.7221987552
 32
0.0
 13
7.4264450289
 23
-3.7132206799
 33
0.0
 40
0.0
 40
0.0
 40
0.0
 40
0.0
 40
0.068922643
 40
0.1439962804
 40
0.2249992229
 40
0.3120125128
 40
0.4057167552
 40
0.5070493496
 40
0.6168394154
 40
0.7354839734
 40
0.8627737736
 40
1.0
 40
1.0
 40
1.0
 40
1.0
 10
-19.7464494058
 20
-16.4668307436
 30
0.0
 10
-19.5759359541
 20
-16.5523453356
 30
0.0
 10
-19.2199633953
 20
-16.731547829
 30
0.0
 10
-18.6639027329
 20
-17.0118721175
 30
0.0
 10
-18.0630145463
 20
-17.3145010936
 30
0.0
 10
-17.4154797235
 20
-17.6391414844
 30
0.0
 10
-16.7174652368
 20
-17.9886368472
 30
0.0
 10
-15.9628187503
 20
-18.3658273425
 30
0.0
 10
-15.1462922079
 20
-18.7736055904
 30
0.0
 10
-14.2656957582
 20
-19.213885772
 30
0.0
 10
-13.317252278
 20
-19.6882660555
 30
0.0
 10
-12.6625071127
 20
-20.0157869936
 30
0.0
 10
-12.3228061038
 20
-20.1856374141
 30
0.0
 11
-19.7464494058
 21
-16.4668307436
 31
0.0
 11
-19.2351925399
 21
-16.723939011
 31
0.0
 11
-18.6785387515
 21
-17.004450055
 31
0.0
 11
-18.0777827389
 21
-17.3068422345
 31
0.0
 11
-17.4320072164
 21
-17.6307881802
 31
0.0
 11
-16.7363047638
 21
-17.979106365
 31
0.0
 11
-15.9837364183
 21
-18.3553218372
 31
0.0
 11
-15.1682465008
 21
-18.762716401
 31
0.0
 11
-14.2871077119
 21
-19.2032068202
 31
0.0
 11
-13.3418516737
 21
-19.6759712553
 31
0.0
 11
-12.3228061038
 21
-20.1856374141
 31
0.0
  0
SPLINE
  5
40E
100
AcDbEntity
  8
RACCORDO
100
AcDbSpline
 62
253
  6
CONTINUOUS
 70
0
 71
3
 72
12
 73
8
 74
6
 42
0.0000001
 43
0.0000001
 44
0.0000000001
 12
0.4725836363
 22
-16.9529434678
 32
0.0
 13
3.6308447502
 23
-16.5663089992
 33
0.0
 40
0.0
 40
0.0
 40
0.0
 40
0.0
 40
0.1653773354
 40
0.3498664656
 40
0.5072874341
 40
0.8034367861
 40
1.0
 40
1.0
 40
1.0
 40
1.0
 10
-12.3228060319
 20
-20.1856399933
 30
0.0
 10
-12.296754491
 20
-21.1201841993
 30
0.0
 10
-12.2149416756
 20
-23.0966250117
 30
0.0
 10
-12.0109715022
 20
-25.9576795071
 30
0.0
 10
-11.6445080685
 20
-29.5464484103
 30
0.0
 10
-11.1162210482
 20
-33.1859372495
 30
0.0
 10
-10.5779254815
 20
-35.9196713852
 30
0.0
 10
-10.3400286438
 20
-37.0051136982
 30
0.0
 11
-12.3228060319
 21
-20.1856399933
 31
0.0
 11
-12.2062591726
 21
-22.987939198
 31
0.0
 11
-11.9829398603
 21
-26.1088081673
 31
0.0
 11
-11.7111687833
 21
-28.7647251618
 31
0.0
 11
-10.9854702956
 21
-33.7345748502
 31
0.0
 11
-10.3400286438
 21
-37.0051136982
 31
0.0
  0
SPLINE
  5
40F
100
AcDbEntity
  8
RACCORDO
100
AcDbSpline
 62
253
  6
CONTINUOUS
 70
0
 71
3
 72
10
 73
6
 74
4
 42
0.0000001
 43
0.0000001
 44
0.0000000001
 12
0.7784896862
 22
-0.4201675188
 32
0.0
 13
0.7846266415
 23
-0.4085853245
 33
0.0
 40
0.0
 40
0.0
 40
0.0
 40
0.0
 40
0.3143064714
 40
0.8207840752
 40
1.0
 40
1.0
 40
1.0
 40
1.0
 10
-32.7381631085
 20
-25.7062808821
 30
0.0
 10
-32.6566016597
 20
-25.7503013388
 30
0.0
 10
-32.4432796713
 20
-25.8646420304
 30
0.0
 10
-32.1822035995
 20
-26.0017348943
 30
0.0
 10
-32.0029255069
 20
-26.095238054
 30
0.0
 10
-31.9560529772
 20
-26.1196463862
 30
0.0
 11
-32.7381631085
 21
-25.7062808821
 31
0.0
 11
-32.493083477
 21
-25.8376048607
 31
0.0
 11
-32.0966215982
 21
-26.0463270548
 31
0.0
 11
-31.9560529772
 21
-26.1196463862
 31
0.0
  0
SPLINE
  5
410
100
AcDbEntity
  8
RACCORDO
100
AcDbSpline
 62
253
  6
CONTINUOUS
 70
0
 71
3
 72
26
 73
22
 74
20
 42
0.0000001
 43
0.0000001
 44
0.0000000001
 12
20.7008345034
 22
-10.7797221453
 32
0.0
 13
20.872450202
 23
-10.4435086025
 33
0.0
 40
0.0
 40
0.0
 40
0.0
 40
0.0
 40
0.0142406304
 40
0.0374170505
 40
0.0633500011
 40
0.092635352
 40
0.1254378636
 40
0.1614377431
 40
0.2005703391
 40
0.243011618
 40
0.288933293
 40
0.3385564181
 40
0.3922115715
 40
0.4502379844
 40
0.5130463116
 40
0.5811276352
 40
0.6556591336
 40
0.7381086672
 40
0.8290375094
 40
0.9285885791
 40
1.0
 40
1.0
 40
1.0
 40
1.0
 10
-31.9560529772
 20
-26.1196463862
 30
0.0
 10
-31.8577886663
 20
-26.1708163991
 30
0.0
 10
-31.5994203928
 20
-26.3049176133
 30
0.0
 10
-31.1614123943
 20
-26.5308604609
 30
0.0
 10
-30.6197003549
 20
-26.8110731302
 30
0.0
 10
-30.0113962612
 20
-27.1255479238
 30
0.0
 10
-29.3328256506
 20
-27.4746444906
 30
0.0
 10
-28.5846471532
 20
-27.8558892815
 30
0.0
 10
-27.7683402951
 20
-28.2685870507
 30
0.0
 10
-26.8819923078
 20
-28.7138192255
 30
0.0
 10
-25.9218199927
 20
-29.1938998411
 30
0.0
 10
-24.8832920046
 20
-29.71234608
 30
0.0
 10
-23.7607955898
 20
-30.2734318273
 30
0.0
 10
-22.5468250101
 20
-30.8809406795
 30
0.0
 10
-21.2329593789
 20
-31.5396175136
 30
0.0
 10
-19.8047451869
 20
-32.2567186295
 30
0.0
 10
-18.2402503975
 20
-33.0429365014
 30
0.0
 10
-16.5169851096
 20
-33.9090705943
 30
0.0
 10
-14.6194043319
 20
-34.8618205868
 30
0.0
 10
-12.7980429509
 20
-35.7749927664
 30
0.0
 10
-11.6087299547
 20
-36.3704534094
 30
0.0
 10
-11.1118861792
 20
-36.6190486722
 30
0.0
 11
-31.9560529772
 21
-26.1196463862
 31
0.0
 11
-31.6610740792
 21
-26.2727979023
 31
0.0
 11
-31.1805154839
 21
-26.5211144091
 31
0.0
 11
-30.6428552279
 21
-26.7990702799
 31
0.0
 11
-30.0356051957
 21
-27.112792688
 31
0.0
 11
-29.3547299087
 21
-27.4628450315
 31
0.0
 11
-28.606169465
 21
-27.8444436004
 31
0.0
 11
-27.7911422358
 21
-28.2566356646
 31
0.0
 11
-26.906055882
 21
-28.7014013598
 31
0.0
 11
-25.947528466
 21
-29.1809256681
 31
0.0
 11
-24.9114001485
 21
-29.698420775
 31
0.0
 11
-23.7912558955
 21
-30.2583093855
 31
0.0
 11
-22.5801635483
 21
-30.8644306942
 31
0.0
 11
-21.2696964002
 21
-31.5213613666
 31
0.0
 11
-19.8496307933
 21
-32.234281484
 31
0.0
 11
-18.29529903
 21
-33.0152907544
 31
0.0
 11
-16.5758688123
 21
-33.879331675
 31
0.0
 11
-14.679264638
 21
-34.8315485575
 31
0.0
 11
-12.6022299518
 21
-35.872888154
 31
0.0
 11
-11.1118861792
 21
-36.6190486722
 31
0.0
  0
LINE
  5
411
100
AcDbEntity
  8
RACCORDO
100
AcDbLine
 62
253
  6
CONTINUOUS
 10
-11.1118861792
 20
-36.6190486722
 11
-10.3400287185
 21
-37.0051133575
  0
SPLINE
  5
412
100
AcDbEntity
  8
RACCORDO
100
AcDbSpline
 62
253
  6
CONTINUOUS
 70
0
 71
3
 72
8
 73
4
 74
2
 42
0.0000001
 43
0.0000001
 44
0.0000000001
 12
0.0124001058
 22
-0.2524462798
 32
0.0
 13
0.0395408094
 23
-0.2500072013
 33
0.0
 40
0.0
 40
0.0
 40
0.0
 40
0.0
 40
1.0
 40
1.0
 40
1.0
 40
1.0
 10
-34.7914515188
 20
-23.0323315985
 30
0.0
 10
-34.7873181501
 20
-23.1164803584
 30
0.0
 10
-34.778250161
 20
-23.2004398248
 30
0.0
 10
-34.7650698912
 20
-23.2837755586
 30
0.0
 11
-34.7914515188
 21
-23.0323315985
 31
0.0
 11
-34.7650698912
 21
-23.2837755586
 31
0.0
  0
SPLINE
  5
413
100
AcDbEntity
  8
RACCORDO
100
AcDbSpline
 62
253
  6
CONTINUOUS
 70
0
 71
3
 72
10
 73
6
 74
4
 42
0.0000001
 43
0.0000001
 44
0.0000000001
 12
0.1295796115
 22
-0.8193012866
 32
0.0
 13
0.3466900822
 23
-0.7526577688
 33
0.0
 40
0.0
 40
0.0
 40
0.0
 40
0.0
 40
0.1499915322
 40
0.5897698638
 40
1.0
 40
1.0
 40
1.0
 40
1.0
 10
-34.7650698912
 20
-23.2837755586
 30
0.0
 10
-34.7585912764
 20
-23.3247383103
 30
0.0
 10
-34.7292104883
 20
-23.4852121562
 30
0.0
 10
-34.6559069197
 20
-23.7520047127
 30
0.0
 10
-34.5687084348
 20
-23.9703694696
 30
0.0
 10
-34.5213008616
 20
-24.0732904359
 30
0.0
 11
-34.7650698912
 21
-23.2837755586
 31
0.0
 11
-34.7427509986
 21
-23.4061601185
 31
0.0
 11
-34.6470783414
 21
-23.7576364208
 31
0.0
 11
-34.5213008616
 21
-24.0732904359
 31
0.0
  0
SPLINE
  5
414
100
AcDbEntity
  8
RACCORDO
100
AcDbSpline
 62
253
  6
CONTINUOUS
 70
0
 71
3
 72
13
 73
9
 74
7
 42
0.0000001
 43
0.0000001
 44
0.0000000001
 12
0.6465248583
 22
-1.0333136953
 32
0.0
 13
1.0599038797
 23
-0.6010443895
 33
0.0
 40
0.0
 40
0.0
 40
0.0
 40
0.0
 40
0.158389219
 40
0.377529229
 40
0.5698153374
 40
0.7337943785
 40
0.8749220912
 40
1.0
 40
1.0
 40
1.0
 40
1.0
 10
-34.3240593687
 20
-24.4385405868
 30
0.0
 10
-34.2899251796
 20
-24.4930958365
 30
0.0
 10
-34.2046423288
 20
-24.6206738481
 30
0.0
 10
-34.0618882169
 20
-24.8032316555
 30
0.0
 10
-33.9020298176
 20
-24.9741130321
 30
0.0
 10
-33.7517790347
 20
-25.1095123099
 30
0.0
 10
-33.6125105982
 20
-25.2153388689
 30
0.0
 10
-33.5209724827
 20
-25.2731910903
 30
0.0
 10
-33.4767822958
 20
-25.2982502154
 30
0.0
 11
-34.3240593687
 21
-24.4385405868
 31
0.0
 11
-34.2167291111
 21
-24.5989783122
 31
0.0
 11
-34.0519750369
 21
-24.8091032666
 31
0.0
 11
-33.8916480523
 21
-24.9799501309
 31
0.0
 11
-33.7429668949
 21
-25.1134224882
 31
0.0
 11
-33.6058091712
 21
-25.2171412962
 31
0.0
 11
-33.4767822958
 21
-25.2982502154
 31
0.0
  0
SPLINE
  5
415
100
AcDbEntity
  8
RACCORDO
100
AcDbSpline
 62
253
  6
CONTINUOUS
 70
0
 71
3
 72
18
 73
14
 74
12
 42
0.0000001
 43
0.0000001
 44
0.0000000001
 12
0.0000015307
 22
9.0789413196
 32
0.0
 13
0.0929790342
 23
9.0784651998
 33
0.0
 40
0.0
 40
0.0
 40
0.0
 40
0.0
 40
0.1177982565
 40
0.2443881662
 40
0.3673063818
 40
0.4769214782
 40
0.5755247156
 40
0.6645990237
 40
0.7455683729
 40
0.8192017237
 40
0.8857112107
 40
0.9456501576
 40
1.0
 40
1.0
 40
1.0
 40
1.0
 10
14.3245549093
 20
-0.8730994139
 30
0.0
 10
14.3245549694
 20
-0.5166049277
 30
0.0
 10
14.3246002544
 20
0.222990347
 30
0.0
 10
14.3247584847
 20
1.3345746926
 30
0.0
 10
14.3249422112
 20
2.4213942495
 30
0.0
 10
14.3246284004
 20
3.4235173289
 30
0.0
 10
14.3241151586
 20
4.3232180091
 30
0.0
 10
14.3244010649
 20
5.136227977
 30
0.0
 10
14.3255517773
 20
5.8736702071
 30
0.0
 10
14.3270574594
 20
6.5428236527
 30
0.0
 10
14.3298529681
 20
7.1483281221
 30
0.0
 10
14.3337573655
 20
7.6954671355
 30
0.0
 10
14.3371045318
 20
8.0413249209
 30
0.0
 10
14.3387889971
 20
8.2057959717
 30
0.0
 11
14.3245549093
 21
-0.8730994139
 31
0.0
 11
14.3246125641
 21
0.1963840429
 31
0.0
 11
14.3247652567
 21
1.3456863944
 31
0.0
 11
14.3248542004
 21
2.4616536579
 31
0.0
 11
14.3245730285
 21
3.4568426456
 31
0.0
 11
14.3242432761
 21
4.3520555915
 31
0.0
 11
14.3245803746
 21
5.1607559374
 31
0.0
 11
14.3256749334
 21
5.8958710926
 31
0.0
 11
14.3273830642
 21
6.5643817814
 31
0.0
 11
14.3302114612
 21
7.168210887
 31
0.0
 11
14.3341198498
 21
7.7123790335
 31
0.0
 11
14.3387889971
 21
8.2057959717
 31
0.0
  0
LINE
  5
416
100
AcDbEntity
  8
RACCORDO
100
AcDbLine
 62
253
  6
CONTINUOUS
 10
6.2769806394
 20
-45.3136180364
 11
7.0405658736
 21
-45.695277712
  0
LINE
  5
417
100
AcDbEntity
  8
RACCORDO
100
AcDbLine
 62
253
  6
CONTINUOUS
 10
7.0405658736
 20
-45.695277712
 11
7.7852210874
 21
-46.0672290608
  0
SPLINE
  5
418
100
AcDbEntity
  8
RACCORDO
100
AcDbSpline
 62
253
  6
CONTINUOUS
 70
0
 71
3
 72
30
 73
26
 74
24
 42
0.0000001
 43
0.0000001
 44
0.0000000001
 12
20.6281800701
 22
-10.3004250615
 32
0.0
 13
20.8691388565
 23
-9.8030209268
 33
0.0
 40
0.0
 40
0.0
 40
0.0
 40
0.0
 40
0.0350884949
 40
0.1335594257
 40
0.2227732648
 40
0.3033262437
 40
0.3760755877
 40
0.442014131
 40
0.5020489837
 40
0.5567899193
 40
0.6067840171
 40
0.6525551076
 40
0.6946144379
 40
0.7334132014
 40
0.7691181894
 40
0.8018650678
 40
0.8319842539
 40
0.859794861
 40
0.8854217396
 40
0.9089798712
 40
0.9306244708
 40
0.9504601012
 40
0.9685409079
 40
0.9849917503
 40
1.0
 40
1.0
 40
1.0
 40
1.0
 10
7.7852210874
 20
-46.0672290608
 30
0.0
 10
8.0264916845
 20
-46.1877045315
 30
0.0
 10
8.9449092699
 20
-46.6461674277
 30
0.0
 10
10.477131427
 20
-47.4102126119
 30
0.0
 10
12.3225653041
 20
-48.329164746
 30
0.0
 10
13.9913982081
 20
-49.1592750694
 30
0.0
 10
15.5000563937
 20
-49.9097359086
 30
0.0
 10
16.867324185
 20
-50.5903640247
 30
0.0
 10
18.1103706591
 20
-51.2099525295
 30
0.0
 10
19.2433636838
 20
-51.7756350328
 30
0.0
 10
20.278013229
 20
-52.2928735928
 30
0.0
 10
21.2252967269
 20
-52.7669031316
 30
0.0
 10
22.0955179074
 20
-53.2026585174
 30
0.0
 10
22.8969068787
 20
-53.6030871505
 30
0.0
 10
23.634856575
 20
-53.9703517149
 30
0.0
 10
24.3137871455
 20
-54.3064813365
 30
0.0
 10
24.9391083676
 20
-54.6141411773
 30
0.0
 10
25.5160996642
 20
-54.896072154
 30
0.0
 10
26.0485718505
 20
-55.1542463168
 30
0.0
 10
26.5386779553
 20
-55.3911746755
 30
0.0
 10
26.9887803285
 20
-55.6085887576
 30
0.0
 10
27.4008619018
 20
-55.807929619
 30
0.0
 10
27.7770864636
 20
-55.9897302763
 30
0.0
 10
28.1204124011
 20
-56.1543346522
 30
0.0
 10
28.3388131925
 20
-56.2580698395
 30
0.0
 10
28.4432162751
 20
-56.3071119016
 30
0.0
 11
7.7852210874
 21
-46.0672290608
 31
0.0
 11
8.5090753342
 21
-46.4285704306
 31
0.0
 11
10.5408993264
 21
-47.4417647027
 31
0.0
 11
12.3822201749
 21
-48.3586961863
 31
0.0
 11
14.0450956753
 21
-49.1859899902
 31
0.0
 11
15.546885144
 21
-49.9331262181
 31
0.0
 11
16.9078824001
 21
-50.6107063711
 31
0.0
 11
18.1467126623
 21
-51.22824791
 31
0.0
 11
19.2759540004
 21
-51.7920316977
 31
0.0
 11
20.3070087923
 21
-52.30745734
 31
0.0
 11
21.2507863148
 21
-52.7797127139
 31
0.0
 11
22.117989755
 21
-53.2137497451
 31
0.0
 11
22.9182873129
 21
-53.6134941938
 31
0.0
 11
23.6553427428
 21
-53.9802143772
 31
0.0
 11
24.332029883
 21
-54.3151502939
 31
0.0
 11
24.9551731605
 21
-54.621679568
 31
0.0
 11
25.5313271952
 21
-54.9031360029
 31
0.0
 11
26.0629304787
 21
-55.1610754797
 31
0.0
 11
26.5519316558
 21
-55.3975486703
 31
0.0
 11
27.0012776904
 21
-55.614680772
 31
0.0
 11
27.4130175491
 21
-55.813772648
 31
0.0
 11
27.7884628163
 21
-55.9949793824
 31
0.0
 11
28.1305139321
 21
-56.1589111161
 31
0.0
 11
28.4432162751
 21
-56.3071119016
 31
0.0
  0
LINE
  5
419
100
AcDbEntity
  8
RACCORDO
100
AcDbLine
 62
253
  6
CONTINUOUS
 10
4.2942032538
 20
-28.4941420821
 11
6.0903430059
 21
-29.3918488739
  0
SPLINE
  5
41A
100
AcDbEntity
  8
RACCORDO
100
AcDbSpline
 62
253
  6
CONTINUOUS
 70
0
 71
3
 72
9
 73
5
 74
3
 42
0.0000001
 43
0.0000001
 44
0.0000000001
 12
1.0810874647
 22
-0.5404018685
 32
0.0
 13
1.0807356858
 23
-0.5411074499
 33
0.0
 40
0.0
 40
0.0
 40
0.0
 40
0.0
 40
0.8050800002
 40
1.0
 40
1.0
 40
1.0
 40
1.0
 10
6.0903430059
 20
-29.3918488739
 30
0.0
 10
6.380463638
 20
-29.5368711193
 30
0.0
 10
6.7407974136
 20
-29.7170626818
 30
0.0
 10
7.1010525795
 20
-29.8974119046
 30
0.0
 10
7.1712715794
 20
-29.9325694593
 30
0.0
 11
6.0903430059
 21
-29.3918488739
 31
0.0
 11
6.9606077191
 21
-29.8271105538
 31
0.0
 11
7.1712715794
 21
-29.9325694593
 31
0.0
  0
LINE
  5
41B
100
AcDbEntity
  8
RACCORDO
100
AcDbLine
 62
253
  6
CONTINUOUS
 10
7.1712715794
 20
-29.9325694593
 11
7.2606275572
 21
-29.9773110187
  0
LINE
  5
41C
100
AcDbEntity
  8
RACCORDO
100
AcDbLine
 62
253
  6
CONTINUOUS
 10
7.2606275572
 20
-29.9773110187
 11
7.5046211595
 21
-30.0994984174
  0
LINE
  5
41D
100
AcDbEntity
  8
RACCORDO
100
AcDbLine
 62
253
  6
CONTINUOUS
 10
7.5046211595
 20
-30.0994984174
 11
7.8027170669
 21
-30.2487843059
  0
LINE
  5
41E
100
AcDbEntity
  8
RACCORDO
100
AcDbLine
 62
253
  6
CONTINUOUS
 10
7.8027170669
 20
-30.2487843059
 11
8.6237804677
 21
-30.6596476782
  0
LINE
  5
41F
100
AcDbEntity
  8
RACCORDO
100
AcDbLine
 62
253
  6
CONTINUOUS
 10
8.6237804677
 20
-30.6596476782
 11
8.7165157014
 21
-30.7059940312
  0
SPLINE
  5
420
100
AcDbEntity
  8
RACCORDO
100
AcDbSpline
 62
253
  6
CONTINUOUS
 70
0
 71
3
 72
8
 73
4
 74
2
 42
0.0000001
 43
0.0000001
 44
0.0000000001
 12
0.6528140543
 22
-0.326199855
 32
0.0
 13
0.6532394298
 23
-0.3253463623
 33
0.0
 40
0.0
 40
0.0
 40
0.0
 40
0.0
 40
1.0
 40
1.0
 40
1.0
 40
1.0
 10
8.7165157014
 20
-30.7059940312
 30
0.0
 10
8.9341203862
 20
-30.8147273162
 30
0.0
 10
9.1517803658
 20
-30.9233496513
 30
0.0
 10
9.3695268424
 20
-31.0317984387
 30
0.0
 11
8.7165157014
 21
-30.7059940312
 31
0.0
 11
9.3695268424
 21
-31.0317984387
 31
0.0
  0
LINE
  5
421
100
AcDbEntity
  8
RACCORDO
100
AcDbLine
 62
253
  6
CONTINUOUS
 10
9.3695268424
 20
-31.0317984387
 11
9.4525503092
 21
-31.0731376784
  0
SPLINE
  5
422
100
AcDbEntity
  8
RACCORDO
100
AcDbSpline
 62
253
  6
CONTINUOUS
 70
0
 71
3
 72
8
 73
4
 74
2
 42
0.0000001
 43
0.0000001
 44
0.0000000001
 12
0.8274777048
 22
-0.41191184
 32
0.0
 13
0.8279765143
 23
-0.4109112422
 33
0.0
 40
0.0
 40
0.0
 40
0.0
 40
0.0
 40
1.0
 40
1.0
 40
1.0
 40
1.0
 10
9.4525503092
 20
-31.0731376784
 30
0.0
 10
9.7283762108
 20
-31.2104416251
 30
0.0
 10
10.0043472388
 20
-31.3474543913
 30
0.0
 10
10.2803394102
 20
-31.4844248053
 30
0.0
 11
9.4525503092
 21
-31.0731376784
 31
0.0
 11
10.2803394102
 21
-31.4844248053
 31
0.0
  0
LINE
  5
423
100
AcDbEntity
  8
RACCORDO
100
AcDbLine
 62
253
  6
CONTINUOUS
 10
10.2803394102
 20
-31.4844248053
 11
10.4039112374
 21
-31.5457489886
  0
LINE
  5
424
100
AcDbEntity
  8
RACCORDO
100
AcDbLine
 62
253
  6
CONTINUOUS
 10
10.4039112374
 20
-31.5457489886
 11
11.0540686936
 21
-31.8685288841
  0
LINE
  5
425
100
AcDbEntity
  8
RACCORDO
100
AcDbLine
 62
253
  6
CONTINUOUS
 10
11.0540686936
 20
-31.8685288841
 11
11.2081715188
 21
-31.9451304987
  0
LINE
  5
426
100
AcDbEntity
  8
RACCORDO
100
AcDbLine
 62
253
  6
CONTINUOUS
 10
11.2081715188
 20
-31.9451304987
 11
11.5638156245
 21
-32.1221688683
  0
LINE
  5
427
100
AcDbEntity
  8
RACCORDO
100
AcDbLine
 62
253
  6
CONTINUOUS
 10
11.5638156245
 20
-32.1221688683
 11
11.7224531975
 21
-32.201282563
  0
SPLINE
  5
428
100
AcDbEntity
  8
RACCORDO
100
AcDbSpline
 62
253
  6
CONTINUOUS
 70
0
 71
3
 72
15
 73
11
 74
9
 42
0.0000001
 43
0.0000001
 44
0.0000000001
 12
1.6420944526
 22
-0.8186580538
 32
0.0
 13
1.5766793834
 23
0.941923659
 33
0.0
 40
0.0
 40
0.0
 40
0.0
 40
0.0
 40
0.1863461897
 40
0.3461495111
 40
0.4837667256
 40
0.6065351225
 40
0.7254907831
 40
0.8426232861
 40
0.9595597074
 40
1.0
 40
1.0
 40
1.0
 40
1.0
 10
11.7224531975
 20
-32.201282563
 30
0.0
 10
11.8244525456
 20
-32.2521338326
 30
0.0
 10
12.0194166757
 20
-32.336217432
 30
0.0
 10
12.3041262635
 20
-32.4194306673
 30
0.0
 10
12.5587056447
 20
-32.4595644304
 30
0.0
 10
12.7913242857
 20
-32.4652043415
 30
0.0
 10
13.0101610988
 20
-32.4388846033
 30
0.0
 10
13.2184543745
 20
-32.379944329
 30
0.0
 10
13.3744861991
 20
-32.3163111379
 30
0.0
 10
13.458607061
 20
-32.2693360334
 30
0.0
 10
13.4798608529
 20
-32.2566388106
 30
0.0
 11
11.7224531975
 21
-32.201282563
 31
0.0
 11
12.036903612
 21
-32.3355524575
 31
0.0
 11
12.3186724156
 21
-32.4166787035
 31
0.0
 11
12.5682365545
 21
-32.4551171113
 31
0.0
 11
12.7934502999
 21
-32.4597608599
 31
0.0
 11
13.010086609
 21
-32.4331398926
 31
0.0
 11
13.2173026883
 21
-32.3761104394
 31
0.0
 11
13.4150227312
 21
-32.2927850071
 31
0.0
 11
13.4798608529
 21
-32.2566388106
 31
0.0
  0
SPLINE
  5
429
100
AcDbEntity
  8
RACCORDO
100
AcDbSpline
 62
253
  6
CONTINUOUS
 70
0
 71
3
 72
14
 73
10
 74
8
 42
0.0000001
 43
0.0000001
 44
0.0000000001
 12
1.5407777634
 22
1.2903246236
 32
0.0
 13
-0.0211686537
 23
2.0075281734
 33
0.0
 40
0.0
 40
0.0
 40
0.0
 40
0.0
 40
0.0741619974
 40
0.1855780551
 40
0.3061385039
 40
0.4433717037
 40
0.6022805936
 40
0.7865370924
 40
1.0
 40
1.0
 40
1.0
 40
1.0
 10
13.6608806024
 20
-32.1273750621
 30
0.0
 10
13.6989696546
 20
-32.0954773784
 30
0.0
 10
13.7902364683
 20
-32.0109074545
 30
0.0
 10
13.922528111
 20
-31.8535611054
 30
0.0
 10
14.0548346699
 20
-31.6440381361
 30
0.0
 10
14.1711395461
 20
-31.3896758162
 30
0.0
 10
14.265557164
 20
-31.0814115493
 30
0.0
 10
14.3283641567
 20
-30.7132716228
 30
0.0
 10
14.3401824009
 20
-30.4465960307
 30
0.0
 10
14.3386761601
 20
-30.3037517637
 30
0.0
 11
13.6608806024
 21
-32.1273750621
 31
0.0
 11
13.7701466455
 21
-32.0261578632
 31
0.0
 11
13.914628462
 21
-31.8553971311
 31
0.0
 11
14.0443921278
 21
-31.6510794915
 31
0.0
 11
14.1598388711
 21
-31.4009186004
 31
0.0
 11
14.2544158236
 21
-31.0962277818
 31
0.0
 11
14.3179733282
 21
-30.731808037
 31
0.0
 11
14.3386761601
 21
-30.3037517637
 31
0.0
  0
SPLINE
  5
42A
100
AcDbEntity
  8
RACCORDO
100
AcDbSpline
 62
253
  6
CONTINUOUS
 70
0
 71
3
 72
18
 73
14
 74
12
 42
0.0000001
 43
0.0000001
 44
0.0000000001
 12
-0.0953008496
 22
9.0785980543
 32
0.0
 13
0.0000002641
 23
9.0790982418
 33
0.0
 40
0.0
 40
0.0
 40
0.0
 40
0.0
 40
0.1170162134
 40
0.2306206032
 40
0.3466416289
 40
0.461371996
 40
0.5639563346
 40
0.6555277088
 40
0.7381904317
 40
0.8130288757
 40
0.8810398436
 40
0.9430767024
 40
1.0
 40
1.0
 40
1.0
 40
1.0
 10
14.3386761601
 20
-30.3037517637
 30
0.0
 10
14.3349589119
 20
-29.9496373747
 30
0.0
 10
14.3296444088
 20
-29.2517117025
 30
0.0
 10
14.3258306945
 20
-28.2026531611
 30
0.0
 10
14.3241099753
 20
-27.1605073109
 30
0.0
 10
14.3242294489
 20
-26.151711109
 30
0.0
 10
14.3248087081
 20
-25.2169089588
 30
0.0
 10
14.3248793098
 20
-24.3791550001
 30
0.0
 10
14.3247973642
 20
-23.6253703196
 30
0.0
 10
14.3246924206
 20
-22.9428880509
 30
0.0
 10
14.3246111507
 20
-22.3228271962
 30
0.0
 10
14.3245687557
 20
-21.756984129
 30
0.0
 10
14.3245549194
 20
-21.3969671469
 30
0.0
 10
14.3245549244
 20
-21.2246964098
 30
0.0
 11
14.3386761601
 21
-30.3037517637
 31
0.0
 11
14.3302807908
 21
-29.2413832383
 31
0.0
 11
14.3261947878
 21
-28.2099659162
 31
0.0
 11
14.3244159297
 21
-27.1566011274
 31
0.0
 11
14.3243256829
 21
-26.1149528568
 31
0.0
 11
14.3247415397
 21
-25.1835796617
 31
0.0
 11
14.3248534735
 21
-24.3521941664
 31
0.0
 11
14.3247888743
 21
-23.6016911877
 31
0.0
 11
14.3246919369
 21
-22.9222256086
 31
0.0
 11
14.3246148244
 21
-22.3047473546
 31
0.0
 11
14.324571169
 21
-21.7415086208
 31
0.0
 11
14.3245549244
 21
-21.2246964098
 31
0.0
  0
SPLINE
  5
42B
100
AcDbEntity
  8
RACCORDO
100
AcDbSpline
 62
253
  6
CONTINUOUS
 70
0
 71
3
 72
12
 73
8
 74
6
 42
0.0000001
 43
0.0000001
 44
0.0000000001
 12
-16.9215735276
 22
5.1645761451
 32
0.0
 13
-16.0276751577
 23
7.4917372091
 33
0.0
 40
0.0
 40
0.0
 40
0.0
 40
0.0
 40
0.2123973208
 40
0.5172823612
 40
0.6722471711
 40
0.847868217
 40
1.0
 40
1.0
 40
1.0
 40
1.0
 10
30.8498422
 20
-27.5045628062
 30
0.0
 10
29.6518099066
 20
-27.1389154275
 30
0.0
 10
26.7455082385
 20
-26.2106057747
 30
0.0
 10
23.0099825172
 20
-24.8790018986
 30
0.0
 10
19.5221278262
 20
-23.5073537099
 30
0.0
 10
16.898708694
 20
-22.4011125721
 30
0.0
 10
15.1373255121
 20
-21.60460576
 30
0.0
 10
14.324552579
 20
-21.2246953135
 30
0.0
 11
30.8498422
 21
-27.5045628062
 31
0.0
 11
27.2705165327
 21
-26.3603415852
 31
0.0
 11
22.1906875998
 21
-24.5461256065
 31
0.0
 11
19.6394193
 21
-23.5422625336
 31
0.0
 11
16.7767514172
 21
-22.3342479045
 31
0.0
 11
14.324552579
 21
-21.2246953135
 31
0.0
  0
SPLINE
  5
42C
100
AcDbEntity
  8
RACCORDO
100
AcDbSpline
 62
253
  6
CONTINUOUS
 70
0
 71
3
 72
41
 73
37
 74
35
 42
0.0000001
 43
0.0000001
 44
0.0000000001
 12
-0.155860491
 22
28.332747075
 32
0.0
 13
0.0000037386
 23
28.3331757716
 33
0.0
 40
0.0
 40
0.0
 40
0.0
 40
0.0
 40
0.0101162835
 40
0.0204892726
 40
0.0310145365
 40
0.0414365886
 40
0.0514164745
 40
0.0610347187
 40
0.0706352437
 40
0.0805039833
 40
0.0908854534
 40
0.1019839454
 40
0.1140058094
 40
0.1271666225
 40
0.1416743206
 40
0.1576421614
 40
0.1750347228
 40
0.1938114001
 40
0.2139744738
 40
0.2357248607
 40
0.2593338205
 40
0.2850644407
 40
0.3131783687
 40
0.3439236886
 40
0.3774925165
 40
0.4140752324
 40
0.4538731382
 40
0.4970532215
 40
0.5437447742
 40
0.5941197318
 40
0.64862994
 40
0.7077987868
 40
0.7721033729
 40
0.8419639133
 40
0.9177851192
 40
1.0
 40
1.0
 40
1.0
 40
1.0
 10
30.8191484077
 20
-55.8376315617
 30
0.0
 10
30.8186228314
 20
-55.7420908616
 30
0.0
 10
30.8183728821
 20
-55.5485798481
 30
0.0
 10
30.8203630062
 20
-55.2556696766
 30
0.0
 10
30.824805925
 20
-54.9598999627
 30
0.0
 10
30.8297841656
 20
-54.6678549385
 30
0.0
 10
30.8334857368
 20
-54.3843520876
 30
0.0
 10
30.83382885
 20
-54.1085856193
 30
0.0
 10
30.8339769281
 20
-53.8338726453
 30
0.0
 10
30.8340520058
 20
-53.5519503693
 30
0.0
 10
30.834437028
 20
-53.2558812217
 30
0.0
 10
30.8349681677
 20
-52.9394772784
 30
0.0
 10
30.8354831177
 20
-52.5968240873
 30
0.0
 10
30.8361017449
 20
-52.221973138
 30
0.0
 10
30.8368845745
 20
-51.8098550534
 30
0.0
 10
30.8380505019
 20
-51.3577714271
 30
0.0
 10
30.8395170108
 20
-50.8653705983
 30
0.0
 10
30.8410540937
 20
-50.3333483836
 30
0.0
 10
30.8425037604
 20
-49.7601687265
 30
0.0
 10
30.8435669598
 20
-49.1413501712
 30
0.0
 10
30.8444177174
 20
-48.4699491848
 30
0.0
 10
30.8449941452
 20
-47.7384480991
 30
0.0
 10
30.8453158221
 20
-46.939548283
 30
0.0
 10
30.8454181972
 20
-46.0666213116
 30
0.0
 10
30.8454786638
 20
-45.1137117885
 30
0.0
 10
30.8457108571
 20
-44.0753061165
 30
0.0
 10
30.8460369943
 20
-42.9461280081
 30
0.0
 10
30.8464054132
 20
-41.7214780906
 30
0.0
 10
30.8467814344
 20
-40.3969343479
 30
0.0
 10
30.8471985151
 20
-38.9653844727
 30
0.0
 10
30.8476835238
 20
-37.4159941569
 30
0.0
 10
30.8481796439
 20
-35.7350469679
 30
0.0
 10
30.8486814731
 20
-33.9091252205
 30
0.0
 10
30.8492092161
 20
-31.9259320684
 30
0.0
 10
30.8496778838
 20
-29.7735870542
 30
0.0
 10
30.849841937
 20
-28.2810323137
 30
0.0
 10
30.8498420395
 20
-27.5045627573
 30
0.0
 11
30.8191484077
 21
-55.8376315617
 31
0.0
 11
30.8187574467
 21
-55.5510053912
 31
0.0
 11
30.8207532214
 21
-55.2571124421
 31
0.0
 11
30.8249216418
 21
-54.9589274258
 31
0.0
 11
30.8296548196
 21
-54.6636755277
 31
0.0
 11
30.8329634197
 21
-54.380933024
 31
0.0
 11
30.8337969989
 21
-54.1084188948
 31
0.0
 11
30.8339633691
 21
-53.8364055832
 31
0.0
 11
30.8340976891
 21
-53.5567928827
 31
0.0
 11
30.8344461446
 21
-53.2626530712
 31
0.0
 11
30.8349446807
 21
-52.9481979422
 31
0.0
 11
30.8354749469
 21
-52.6075807684
 31
0.0
 11
30.8360954851
 21
-52.2346936547
 31
0.0
 11
30.8369026991
 21
-51.8236452862
 31
0.0
 11
30.8380446204
 21
-51.3712270884
 31
0.0
 11
30.8394710368
 21
-50.8784426529
 31
0.0
 11
30.840985484
 21
-50.3464419094
 31
0.0
 11
30.8423915466
 21
-49.7751597296
 31
0.0
 11
30.8434923803
 21
-49.1589031774
 31
0.0
 11
30.8443412073
 21
-48.4899869067
 31
0.0
 11
30.8449316577
 21
-47.7609569624
 31
0.0
 11
30.8452696234
 21
-46.9644001689
 31
0.0
 11
30.8454075985
 21
-46.093287629
 31
0.0
 11
30.8455011538
 21
-45.1421761302
 31
0.0
 11
30.84571486
 21
-44.1056716326
 31
0.0
 11
30.8460299334
 21
-42.978070617
 31
0.0
 11
30.8463921155
 21
-41.7546417818
 31
0.0
 11
30.8467731414
 21
-40.4317218668
 31
0.0
 11
30.8471920911
 21
-39.0044393989
 31
0.0
 11
30.847665335
 21
-37.4599921631
 31
0.0
 11
30.8481598904
 21
-35.7835508988
 31
0.0
 11
30.8486645111
 21
-33.9615978279
 31
0.0
 11
30.8491789346
 21
-31.9822269236
 31
0.0
 11
30.8496276884
 21
-29.8339714167
 31
0.0
 11
30.8498420395
 21
-27.5045627573
 31
0.0
  0
SPLINE
  5
42D
100
AcDbEntity
  8
RACCORDO
100
AcDbSpline
 62
253
  6
CONTINUOUS
 70
0
 71
3
 72
10
 73
6
 74
4
 42
0.0000001
 43
0.0000001
 44
0.0000000001
 12
0.476672434
 22
-0.2083471354
 32
0.0
 13
0.5209066379
 23
0.0201171656
 33
0.0
 40
0.0
 40
0.0
 40
0.0
 40
0.0
 40
0.4745710966
 40
0.8762383007
 40
1.0
 40
1.0
 40
1.0
 40
1.0
 10
29.5057289496
 20
-56.7895058381
 30
0.0
 10
29.5811339362
 20
-56.8224643476
 30
0.0
 10
29.7257525367
 20
-56.8722915799
 30
0.0
 10
29.8985220746
 20
-56.8966482934
 30
0.0
 10
29.9898869641
 20
-56.8964001184
 30
0.0
 10
30.0113763943
 20
-56.8955702069
 30
0.0
 11
29.5057289496
 21
-56.7895058381
 31
0.0
 11
29.7397704132
 21
-56.8680817341
 31
0.0
 11
29.9468785906
 21
-56.8957932308
 31
0.0
 11
30.0113763943
 21
-56.8955702069
 31
0.0
  0
SPLINE
  5
42E
100
AcDbEntity
  8
RACCORDO
100
AcDbSpline
 62
253
  6
CONTINUOUS
 70
0
 71
3
 72
9
 73
5
 74
3
 42
0.0000001
 43
0.0000001
 44
0.0000000001
 12
0.3013428465
 22
0.0116377168
 32
0.0
 13
0.2754679149
 23
0.1228495091
 33
0.0
 40
0.0
 40
0.0
 40
0.0
 40
0.0
 40
0.4093028731
 40
1.0
 40
1.0
 40
1.0
 40
1.0
 10
30.0113763943
 20
-56.8955702069
 30
0.0
 10
30.0524898919
 20
-56.8939824233
 30
0.0
 10
30.1526599751
 20
-56.8832042015
 30
0.0
 10
30.249493886
 20
-56.853578477
 30
0.0
 10
30.3037332546
 20
-56.8293895263
 30
0.0
 11
30.0113763943
 21
-56.8955702069
 31
0.0
 11
30.1339307925
 21
-56.8820018087
 31
0.0
 11
30.3037332546
 21
-56.8293895263
 31
0.0
  0
SPLINE
  5
42F
100
AcDbEntity
  8
RACCORDO
100
AcDbSpline
 62
253
  6
CONTINUOUS
 70
0
 71
3
 72
9
 73
5
 74
3
 42
0.0000001
 43
0.0000001
 44
0.0000000001
 12
0.2206574072
 22
0.0984058495
 32
0.0
 13
0.1775386468
 23
0.1639165032
 33
0.0
 40
0.0
 40
0.0
 40
0.0
 40
0.0
 40
0.7425416343
 40
1.0
 40
1.0
 40
1.0
 40
1.0
 10
30.3037332546
 20
-56.8293895263
 30
0.0
 10
30.3583490252
 20
-56.8050327129
 30
0.0
 10
30.4278594696
 20
-56.7630968877
 30
0.0
 10
30.48922407
 20
-56.7108419168
 30
0.0
 10
30.50446034
 20
-56.6967746918
 30
0.0
 11
30.3037332546
 21
-56.8293895263
 31
0.0
 11
30.4570864648
 21
-56.737064873
 31
0.0
 11
30.50446034
 21
-56.6967746918
 31
0.0
  0
SPLINE
  5
430
100
AcDbEntity
  8
RACCORDO
100
AcDbSpline
 62
253
  6
CONTINUOUS
 70
0
 71
3
 72
11
 73
7
 74
5
 42
0.0000001
 43
0.0000001
 44
0.0000000001
 12
0.6083024749
 22
0.5616287857
 32
0.0
 13
0.0527695171
 23
0.8257921843
 33
0.0
 40
0.0
 40
0.0
 40
0.0
 40
0.0
 40
0.1581044219
 40
0.426825442
 40
0.7489885632
 40
1.0
 40
1.0
 40
1.0
 40
1.0
 10
30.50446034
 20
-56.6967746918
 30
0.0
 10
30.536518777
 20
-56.6671760269
 30
0.0
 10
30.616341494
 20
-56.5799348384
 30
0.0
 10
30.7218676899
 20
-56.4004649547
 30
0.0
 10
30.7910168788
 20
-56.1773379059
 30
0.0
 10
30.8114733295
 20
-56.0200870543
 30
0.0
 10
30.8158885803
 20
-55.9509926267
 30
0.0
 11
30.50446034
 21
-56.6967746918
 31
0.0
 11
30.5929533335
 21
-56.6004816635
 31
0.0
 11
30.7071576127
 21
-56.4101648679
 31
0.0
 11
30.7884507134
 21
-56.1567927316
 31
0.0
 11
30.8158885803
 21
-55.9509926267
 31
0.0
  0
SPLINE
  5
431
100
AcDbEntity
  8
RACCORDO
100
AcDbSpline
 62
253
  6
CONTINUOUS
 70
0
 71
3
 72
13
 73
9
 74
7
 42
0.0000001
 43
0.0000001
 44
0.0000000001
 12
1.6572188212
 22
0.708404709
 32
0.0
 13
-0.0367518052
 23
1.7975464562
 33
0.0
 40
0.0
 40
0.0
 40
0.0
 40
0.0
 40
0.0034163431
 40
0.1522211595
 40
0.312975849
 40
0.4996399617
 40
0.7252682231
 40
1.0
 40
1.0
 40
1.0
 40
1.0
 10
31.3419204247
 20
-57.3009343136
 30
0.0
 10
31.3438076341
 20
-57.3001275958
 30
0.0
 10
31.4277893266
 20
-57.2639324078
 30
0.0
 10
31.5905810007
 20
-57.1665537261
 30
0.0
 10
31.7997569863
 20
-56.9505504556
 30
0.0
 10
31.9707186306
 20
-56.6487104193
 30
0.0
 10
32.0854137033
 20
-56.2498204121
 30
0.0
 10
32.1058088528
 20
-55.9482104418
 30
0.0
 10
32.1024432233
 20
-55.7835960645
 30
0.0
 11
31.3419204247
 21
-57.3009343136
 31
0.0
 11
31.3475748641
 21
-57.2984972932
 31
0.0
 11
31.5773120932
 21
-57.1613908594
 31
0.0
 11
31.7796714066
 21
-56.9550275405
 31
0.0
 11
31.9479899047
 21
-56.6646806746
 31
0.0
 11
32.064377816
 21
-56.2760734863
 31
0.0
 11
32.1024432233
 21
-55.7835960645
 31
0.0
  0
SPLINE
  5
432
100
AcDbEntity
  8
RACCORDO
100
AcDbSpline
 62
253
  6
CONTINUOUS
 70
0
 71
3
 72
22
 73
18
 74
16
 42
0.0000001
 43
0.0000001
 44
0.0000000001
 12
0.055777312
 22
5.4425457472
 32
0.0
 13
-4.8638180257
 23
2.442885493
 33
0.0
 40
0.0
 40
0.0
 40
0.0
 40
0.0
 40
0.0683393608
 40
0.1335183133
 40
0.1995158031
 40
0.2682742972
 40
0.3391151979
 40
0.4082686161
 40
0.4738603084
 40
0.5406722972
 40
0.6052746679
 40
0.6686734979
 40
0.7307055667
 40
0.7931136935
 40
0.8590250566
 40
0.9287995429
 40
1.0
 40
1.0
 40
1.0
 40
1.0
 10
14.3387889971
 20
8.2057959717
 30
0.0
 10
14.3400595923
 20
8.3297760043
 30
0.0
 10
14.3309027888
 20
8.572252699
 30
0.0
 10
14.2865225734
 20
8.9318404115
 30
0.0
 10
14.2152392273
 20
9.2878335272
 30
0.0
 10
14.115993106
 20
9.6477167616
 30
0.0
 10
13.99007971
 20
10.0052305224
 30
0.0
 10
13.8427245484
 20
10.3481695007
 30
0.0
 10
13.6774586661
 20
10.6746193384
 30
0.0
 10
13.4962326843
 20
10.9830077476
 30
0.0
 10
13.2973022728
 20
11.2753964797
 30
0.0
 10
13.089634733
 20
11.5507470832
 30
0.0
 10
12.8706049877
 20
11.8121313436
 30
0.0
 10
12.6298839098
 20
12.0601928621
 30
0.0
 10
12.3608508212
 20
12.2990874512
 30
0.0
 10
12.0586529635
 20
12.5226246235
 30
0.0
 10
11.8374694265
 20
12.6524920783
 30
0.0
 10
11.722034071
 20
12.7104702662
 30
0.0
 11
14.3387889971
 21
8.2057959717
 31
0.0
 11
14.3253043004
 21
8.5775110897
 31
0.0
 11
14.2823618929
 21
8.9296605324
 31
0.0
 11
14.2121448482
 21
9.2819440889
 31
0.0
 11
14.1129191911
 21
9.6427910385
 31
0.0
 11
13.9849900745
 21
10.0065248572
 31
0.0
 11
13.8365094108
 21
10.3523907713
 31
0.0
 11
13.6752113516
 21
10.6708796603
 31
0.0
 11
13.4907613833
 21
10.9842754389
 31
0.0
 11
13.2937367803
 21
11.2755104041
 31
0.0
 11
13.0857937124
 21
11.5508872373
 31
0.0
 11
12.8679956997
 21
11.8088758245
 31
0.0
 11
12.6314763649
 21
12.0526770044
 31
0.0
 11
12.3628127945
 21
12.2904110243
 31
0.0
 11
12.0569971459
 21
12.5155834719
 31
0.0
 11
11.722034071
 21
12.7104702662
 31
0.0
  0
SPLINE
  5
433
100
AcDbEntity
  8
RACCORDO
100
AcDbSpline
 62
253
  6
CONTINUOUS
 70
0
 71
3
 72
22
 73
18
 74
16
 42
0.0000001
 43
0.0000001
 44
0.0000000001
 12
-7.4219715951
 22
3.7279574395
 32
0.0
 13
-7.4287721724
 23
3.7143873034
 33
0.0
 40
0.0
 40
0.0
 40
0.0
 40
0.0
 40
0.0355327243
 40
0.0746747353
 40
0.1176670951
 40
0.1645995853
 40
0.2154586381
 40
0.2703443898
 40
0.3295217419
 40
0.3932887845
 40
0.4619623986
 40
0.5359254029
 40
0.6156493447
 40
0.7015553544
 40
0.7938895413
 40
0.8931448204
 40
1.0
 40
1.0
 40
1.0
 40
1.0
 10
11.722034071
 20
12.7104702662
 30
0.0
 10
11.6341264475
 20
12.7546250942
 30
0.0
 10
11.449545642
 20
12.8477456296
 30
0.0
 10
11.1588071674
 20
12.9946967821
 30
0.0
 10
10.839971751
 20
13.1560237933
 30
0.0
 10
10.492143425
 20
13.3319015493
 30
0.0
 10
10.1145233764
 20
13.5218303852
 30
0.0
 10
9.7062214233
 20
13.7262011467
 30
0.0
 10
9.2656682571
 20
13.9459777067
 30
0.0
 10
8.7907181587
 20
14.1823143161
 30
0.0
 10
8.2789638167
 20
14.4365731022
 30
0.0
 10
7.7276071341
 20
14.7104099066
 30
0.0
 10
7.1338139147
 20
15.0060563592
 30
0.0
 10
6.4948432792
 20
15.3250791989
 30
0.0
 10
5.8077841118
 20
15.6688366117
 30
0.0
 10
5.0690414371
 20
16.0389152076
 30
0.0
 10
4.5588041823
 20
16.2943970663
 30
0.0
 10
4.2942032541
 20
16.4266975737
 30
0.0
 11
11.722034071
 21
12.7104702662
 31
0.0
 11
11.4584829775
 21
12.8432761886
 31
0.0
 11
11.1683309773
 21
12.9899082794
 31
0.0
 11
10.849698071
 21
13.1510849664
 31
0.0
 11
10.5017845202
 21
13.3268771353
 31
0.0
 11
10.1244239005
 21
13.5167039637
 31
0.0
 11
9.7168024982
 21
13.7207954334
 31
0.0
 11
9.2770031254
 21
13.94023404
 31
0.0
 11
8.8028565153
 21
14.1762159642
 31
0.0
 11
8.2920724533
 21
14.4300456801
 31
0.0
 11
7.7419351508
 21
14.7034026701
 31
0.0
 11
7.149187651
 21
14.998533181
 31
0.0
 11
6.5108089955
 21
15.3172160875
 31
0.0
 11
5.8249478538
 21
15.6603179787
 31
0.0
 11
5.0878418941
 21
16.0294679316
 31
0.0
 11
4.2942032541
 21
16.4266975737
 31
0.0
  0
SPLINE
  5
434
100
AcDbEntity
  8
RACCORDO
100
AcDbSpline
 62
253
  6
CONTINUOUS
 70
0
 71
3
 72
10
 73
6
 74
4
 42
0.0000001
 43
0.0000001
 44
0.0000000001
 12
1.2254800135
 22
-0.4689000555
 32
0.0
 13
1.1767737827
 23
0.580406745
 33
0.0
 40
0.0
 40
0.0
 40
0.0
 40
0.0
 40
0.3265462559
 40
0.677701613
 40
1.0
 40
1.0
 40
1.0
 40
1.0
 10
30.8191479529
 20
-55.8376318769
 30
0.0
 10
30.9525399229
 20
-55.8886710627
 30
0.0
 10
31.2482658367
 20
-55.9460245691
 30
0.0
 10
31.6878249177
 20
-55.9278369205
 30
0.0
 10
31.976018813
 20
-55.845931478
 30
0.0
 10
32.1024429104
 20
-55.7835767588
 30
0.0
 11
30.8191479529
 21
-55.8376318769
 31
0.0
 11
31.2380296821
 21
-55.9277642366
 31
0.0
 11
31.6983807348
 21
-55.9083735088
 31
0.0
 11
32.1024429104
 21
-55.7835767588
 31
0.0
  0
SPLINE
  5
435
100
AcDbEntity
  8
RACCORDO
100
AcDbSpline
 62
253
  6
CONTINUOUS
 70
0
 71
3
 72
9
 73
5
 74
3
 42
0.0000001
 43
0.0000001
 44
0.0000000001
 12
0.0526947827
 22
-0.5161189735
 32
0.0
 13
0.476030025
 23
-0.2309132827
 33
0.0
 40
0.0
 40
0.0
 40
0.0
 40
0.0
 40
0.6418327291
 40
1.0
 40
1.0
 40
1.0
 40
1.0
 10
29.5057289492
 20
-56.7895058383
 30
0.0
 10
29.5170026946
 20
-56.8999265214
 30
0.0
 10
29.562049329
 20
-57.0786937103
 30
0.0
 10
29.7038193304
 20
-57.1961914978
 30
0.0
 10
29.760652122
 20
-57.2237600246
 30
0.0
 11
29.5057289492
 21
-56.7895058383
 31
0.0
 11
29.6146726219
 21
-57.1041639028
 31
0.0
 11
29.760652122
 21
-57.2237600246
 31
0.0
  0
SPLINE
  5
436
100
AcDbEntity
  8
RACCORDO
100
AcDbSpline
 62
253
  6
CONTINUOUS
 70
0
 71
3
 72
9
 73
5
 74
3
 42
0.0000001
 43
0.0000001
 44
0.0000000001
 12
0.0921148665
 22
-0.4202878458
 32
0.0
 13
0.3925972726
 23
-0.197050225
 33
0.0
 40
0.0
 40
0.0
 40
0.0
 40
0.0
 40
0.6867098825
 40
1.0
 40
1.0
 40
1.0
 40
1.0
 10
6.276980495
 20
-45.3136184254
 30
0.0
 10
6.2980658914
 20
-45.4098236978
 30
0.0
 10
6.356657962
 20
-45.5513681184
 30
0.0
 10
6.4767923052
 20
-45.6387137315
 30
0.0
 10
6.5177912538
 20
-45.6592916942
 30
0.0
 11
6.276980495
 21
-45.3136184254
 31
0.0
 11
6.4075589172
 21
-45.5786650459
 31
0.0
 11
6.5177912538
 21
-45.6592916942
 31
0.0
  0
SPLINE
  5
437
100
AcDbEntity
  8
RACCORDO
100
AcDbSpline
 62
253
  6
CONTINUOUS
 70
0
 71
3
 72
12
 73
8
 74
6
 42
0.0000001
 43
0.0000001
 44
0.0000000001
 12
0.5130195287
 22
18.9165423899
 32
0.0
 13
3.3482071084
 23
18.6249368915
 33
0.0
 40
0.0
 40
0.0
 40
0.0
 40
0.0
 40
0.1543676717
 40
0.3314827318
 40
0.486859662
 40
0.7902705106
 40
1.0
 40
1.0
 40
1.0
 40
1.0
 10
4.2942032084
 20
16.4266958889
 30
0.0
 10
4.3206010851
 20
17.4000634239
 30
0.0
 10
4.4043594064
 20
19.4895785999
 30
0.0
 10
4.6095868421
 20
22.5541625937
 30
0.0
 10
4.9808933428
 20
26.5484155628
 30
0.0
 10
5.5158809095
 20
30.7328207451
 30
0.0
 10
6.0429080882
 20
33.9268849452
 30
0.0
 10
6.2769806774
 20
35.2289511135
 30
0.0
 11
4.2942032084
 21
16.4266958889
 31
0.0
 11
4.4107501853
 21
19.3455462888
 31
0.0
 11
4.6340694976
 21
22.6897345705
 31
0.0
 11
4.9058405746
 21
25.617422642
 31
0.0
 11
5.6315390623
 21
31.312970818
 31
0.0
 11
6.2769806774
 21
35.2289511135
 31
0.0
  0
SPLINE
  5
438
100
AcDbEntity
  8
RACCORDO
100
AcDbSpline
 62
253
  6
CONTINUOUS
 70
0
 71
3
 72
36
 73
32
 74
30
 42
0.0000001
 43
0.0000001
 44
0.0000000001
 12
-23.2529058631
 22
11.6127932499
 32
0.0
 13
-23.2474438186
 23
11.6237237599
 33
0.0
 40
0.0
 40
0.0
 40
0.0
 40
0.0
 40
0.0099690595
 40
0.02015249
 40
0.0307865299
 40
0.0421133196
 40
0.0543769408
 40
0.0678182656
 40
0.082561015
 40
0.0986041941
 40
0.1160253975
 40
0.1349088451
 40
0.1553216911
 40
0.1773297945
 40
0.2010849053
 40
0.2267652331
 40
0.2544930682
 40
0.2844204035
 40
0.31683356
 40
0.3520369787
 40
0.3903045246
 40
0.4318396625
 40
0.4768370376
 40
0.5255196605
 40
0.5781362971
 40
0.6350708531
 40
0.6967888736
 40
0.7638015357
 40
0.8362682265
 40
0.9145118235
 40
1.0
 40
1.0
 40
1.0
 40
1.0
 10
29.505761675
 20
23.5682332316
 30
0.0
 10
29.4284918077
 20
23.6068227738
 30
0.0
 10
29.2725248778
 20
23.6853017567
 30
0.0
 10
29.0348807281
 20
23.8064208636
 30
0.0
 10
28.7872373801
 20
23.9338213607
 30
0.0
 10
28.5240909034
 20
24.0704766422
 30
0.0
 10
28.2393105168
 20
24.2182472692
 30
0.0
 10
27.9275514593
 20
24.3782744862
 30
0.0
 10
27.58642401
 20
24.5527937343
 30
0.0
 10
27.2136079387
 20
24.7410674097
 30
0.0
 10
26.8085183684
 20
24.9450116239
 30
0.0
 10
26.3693943435
 20
25.1655428408
 30
0.0
 10
25.8949074941
 20
25.404207986
 30
0.0
 10
25.3829705799
 20
25.6623471539
 30
0.0
 10
24.8302250114
 20
25.9409155144
 30
0.0
 10
24.2331565728
 20
26.2416463301
 30
0.0
 10
23.5881376689
 20
26.5660520304
 30
0.0
 10
22.8906644858
 20
26.9159864648
 30
0.0
 10
22.134844676
 20
27.2940526402
 30
0.0
 10
21.3141977653
 20
27.7040380364
 30
0.0
 10
20.4229294153
 20
28.1494996652
 30
0.0
 10
19.4558627632
 20
28.6331017414
 30
0.0
 10
18.4081528479
 20
29.1571871876
 30
0.0
 10
17.274628787
 20
29.7243247252
 30
0.0
 10
16.0487101686
 20
30.3379304398
 30
0.0
 10
14.7218879578
 20
31.0022617939
 30
0.0
 10
13.2835978929
 20
31.7225495542
 30
0.0
 10
11.7249687174
 20
32.5030611272
 30
0.0
 10
10.038192441
 20
33.3474266464
 30
0.0
 10
8.2081427828
 20
34.2631693736
 30
0.0
 10
6.9394411661
 20
34.8977205864
 30
0.0
 10
6.2769806394
 20
35.2289509024
 30
0.0
 11
29.505761675
 21
23.5682332316
 31
0.0
 11
29.2742837955
 21
23.6846637164
 31
0.0
 11
29.0384336059
 21
23.8047937482
 31
0.0
 11
28.7926530857
 21
23.9312277033
 31
0.0
 11
28.5312868406
 21
24.0667221638
 31
0.0
 11
28.248264648
 21
24.2133489788
 31
0.0
 11
27.9375481592
 21
24.3730586548
 31
0.0
 11
27.5963090843
 21
24.5473766964
 31
0.0
 11
27.2242282065
 21
24.7356119025
 31
0.0
 11
26.8198013848
 21
24.9392503953
 31
0.0
 11
26.3812576631
 21
25.1596404254
 31
0.0
 11
25.9072925274
 21
25.3980728774
 31
0.0
 11
25.3964765849
 21
25.6555149326
 31
0.0
 11
24.8451096552
 21
25.9333881752
 31
0.0
 11
24.2489712569
 21
26.2336101648
 31
0.0
 11
23.6051112207
 21
26.557389122
 31
0.0
 11
22.9098469302
 21
26.9061941292
 31
0.0
 11
22.1564352707
 21
27.2831783724
 31
0.0
 11
21.3379574622
 21
27.6921965178
 31
0.0
 11
20.4482674875
 21
28.1368731718
 31
0.0
 11
19.4827005913
 21
28.6197039215
 31
0.0
 11
18.4367153239
 21
29.1429183018
 31
0.0
 11
17.3051242206
 21
29.7091024346
 31
0.0
 11
16.0821763397
 21
30.3212122642
 31
0.0
 11
14.7589539997
 21
30.9837244257
 31
0.0
 11
13.3246113766
 21
31.7020041453
 31
0.0
 11
11.7672009807
 21
32.4818655349
 31
0.0
 11
10.0829279441
 21
33.324982447
 31
0.0
 11
8.2642461269
 21
34.2350278031
 31
0.0
 11
6.2769806394
 21
35.2289509024
 31
0.0
  0
SPLINE
  5
439
100
AcDbEntity
  8
RACCORDO
100
AcDbSpline
 62
253
  6
CONTINUOUS
 70
0
 71
3
 72
9
 73
5
 74
3
 42
0.0000001
 43
0.0000001
 44
0.0000000001
 12
0.0921132128
 22
-0.420280224
 32
0.0
 13
0.3925864272
 23
-0.1970541715
 33
0.0
 40
0.0
 40
0.0
 40
0.0
 40
0.0
 40
0.6867225905
 40
1.0
 40
1.0
 40
1.0
 40
1.0
 10
-10.3400288637
 20
-37.0051137461
 30
0.0
 10
-10.3189434557
 20
-37.1013190541
 30
0.0
 10
-10.2603524287
 20
-37.2428609117
 30
0.0
 10
-10.1402213725
 20
-37.3302059054
 30
0.0
 10
-10.0992252196
 20
-37.3507834455
 30
0.0
 11
-10.3400288637
 21
-37.0051137461
 31
0.0
 11
-10.2094503579
 21
-37.2701604502
 31
0.0
 11
-10.0992252196
 21
-37.3507834455
 31
0.0
  0
SPLINE
  5
43A
100
AcDbEntity
  8
RACCORDO
100
AcDbSpline
 62
253
  6
CONTINUOUS
 70
0
 71
3
 72
9
 73
5
 74
3
 42
0.0000001
 43
0.0000001
 44
0.0000000001
 12
0.0572657098
 22
-0.5092237804
 32
0.0
 13
0.4566586384
 23
-0.2560789581
 33
0.0
 40
0.0
 40
0.0
 40
0.0
 40
0.0
 40
0.6644803793
 40
1.0
 40
1.0
 40
1.0
 40
1.0
 10
-33.4767822181
 20
-25.2982501677
 30
0.0
 10
-33.4640982379
 20
-25.4110399047
 30
0.0
 10
-33.4129326038
 20
-25.5861804969
 30
0.0
 10
-33.2766841481
 20
-25.7019045927
 30
0.0
 10
-33.2256115038
 20
-25.7305444309
 30
0.0
 11
-33.4767822181
 21
-25.2982501677
 31
0.0
 11
-33.3585341446
 21
-25.6175604653
 31
0.0
 11
-33.2256115038
 21
-25.7305444309
 31
0.0
  0
SPLINE
  5
43B
100
AcDbEntity
  8
RACCORDO
100
AcDbSpline
 62
253
  6
CONTINUOUS
 70
0
 71
3
 72
16
 73
12
 74
10
 42
0.0000001
 43
0.0000001
 44
0.0000000001
 12
0.0161760016
 22
2.7345374233
 32
0.0
 13
-2.4464443393
 23
1.221829234
 33
0.0
 40
0.0
 40
0.0
 40
0.0
 40
0.0
 40
0.1515078787
 40
0.2971998412
 40
0.433182047
 40
0.5573664732
 40
0.6693467272
 40
0.7691035737
 40
0.8561667565
 40
0.9322029621
 40
1.0
 40
1.0
 40
1.0
 40
1.0
 10
30.8192833371
 20
21.3014601797
 30
0.0
 10
30.8201002677
 20
21.4395615011
 30
0.0
 10
30.7917203771
 20
21.7109802108
 30
0.0
 10
30.688439483
 20
22.0932657181
 30
0.0
 10
30.5458930235
 20
22.4357002708
 30
0.0
 10
30.3795643128
 20
22.7321584646
 30
0.0
 10
30.2012143257
 20
22.9817599009
 30
0.0
 10
30.0205644245
 20
23.1862342009
 30
0.0
 10
29.8439170708
 20
23.348755695
 30
0.0
 10
29.6746798661
 20
23.4745122729
 30
0.0
 10
29.5610489015
 20
23.5406210973
 30
0.0
 10
29.505761675
 20
23.5682332316
 30
0.0
 11
30.8192833371
 21
21.3014601797
 31
0.0
 11
30.7801253967
 21
21.7139167677
 31
0.0
 11
30.6776243
 21
22.098912531
 31
0.0
 11
30.5349460292
 21
22.4423058987
 31
0.0
 11
30.3686255138
 21
22.7383816073
 31
0.0
 11
30.1903624639
 21
22.9873649393
 31
0.0
 11
30.0092973498
 21
23.1914035977
 31
0.0
 11
29.8336750461
 21
23.3521509179
 31
0.0
 11
29.6663472688
 21
23.4755820929
 31
0.0
 11
29.505761675
 21
23.5682332316
 31
0.0
  0
SPLINE
  5
43C
100
AcDbEntity
  8
RACCORDO
100
AcDbSpline
 62
253
  6
CONTINUOUS
 70
0
 71
3
 72
9
 73
5
 74
3
 42
0.0000001
 43
0.0000001
 44
0.0000000001
 12
-0.3184251396
 22
0.207156639
 32
0.0
 13
-0.0073531304
 23
0.3901412685
 33
0.0
 40
0.0
 40
0.0
 40
0.0
 40
0.0
 40
0.7593031681
 40
1.0
 40
1.0
 40
1.0
 40
1.0
 10
-34.7914491808
 20
-23.0323305944
 30
0.0
 10
-34.8720429199
 20
-22.9798990303
 30
0.0
 10
-34.9773564967
 20
-22.8857044765
 30
0.0
 10
-34.9984477492
 20
-22.7571466981
 30
0.0
 10
-34.9990377076
 20
-22.7258447756
 30
0.0
 11
-34.7914491808
 21
-23.0323305944
 31
0.0
 11
-34.9834151365
 21
-22.8170427658
 31
0.0
 11
-34.9990377076
 21
-22.7258447756
 31
0.0
  0
SPLINE
  5
43D
100
AcDbEntity
  8
RACCORDO
100
AcDbSpline
 62
253
  6
CONTINUOUS
 70
0
 71
3
 72
9
 73
5
 74
3
 42
0.0000001
 43
0.0000001
 44
0.0000000001
 12
-0.2351593147
 22
0.1926232719
 32
0.0
 13
0.0089658318
 23
0.3088198201
 33
0.0
 40
0.0
 40
0.0
 40
0.0
 40
0.0
 40
0.8018973199
 40
1.0
 40
1.0
 40
1.0
 40
1.0
 10
-34.9128905212
 20
5.3768033741
 30
0.0
 10
-34.9757483959
 20
5.4282914026
 30
0.0
 10
-35.0494713722
 20
5.514540118
 30
0.0
 10
-35.0579499123
 20
5.6168609397
 30
0.0
 10
-35.0573578605
 20
5.6372536177
 30
0.0
 11
-34.9128905212
 21
5.3768033741
 31
0.0
 11
-35.0520301728
 21
5.5769516262
 31
0.0
 11
-35.0573578605
 21
5.6372536177
 31
0.0
  0
SPLINE
  5
43E
100
AcDbEntity
  8
RACCORDO
100
AcDbSpline
 62
253
  6
CONTINUOUS
 70
0
 71
3
 72
41
 73
37
 74
35
 42
0.0000001
 43
0.0000001
 44
0.0000000001
 12
-0.9100658757
 22
28.3199145554
 32
0.0
 13
0.0000058732
 23
28.3345333528
 33
0.0
 40
0.0
 40
0.0
 40
0.0
 40
0.0
 40
0.0099732062
 40
0.0202051716
 40
0.0306082138
 40
0.0409581495
 40
0.0509452517
 40
0.0606292244
 40
0.070298978
 40
0.080218112
 40
0.0906353926
 40
0.1017596513
 40
0.1138049402
 40
0.1269847183
 40
0.1415056774
 40
0.1574798799
 40
0.1748752155
 40
0.193655973
 40
0.2138253196
 40
0.2355840243
 40
0.2591979953
 40
0.2849307806
 40
0.3130456689
 40
0.3437937682
 40
0.3773702641
 40
0.4139636945
 40
0.4537750435
 40
0.4969707982
 40
0.5436785224
 40
0.5940686944
 40
0.6485925649
 40
0.7077754189
 40
0.7720949759
 40
0.8419680388
 40
0.9177944358
 40
1.0
 40
1.0
 40
1.0
 40
1.0
 10
32.102443455
 20
-55.7835959602
 30
0.0
 10
32.0994180302
 20
-55.6894491782
 30
0.0
 10
32.0940158484
 20
-55.4986888487
 30
0.0
 10
32.0879825697
 20
-55.2096594665
 30
0.0
 10
32.0839991913
 20
-54.9170362302
 30
0.0
 10
32.0818122401
 20
-54.6267081052
 30
0.0
 10
32.0805895245
 20
-54.3431669534
 30
0.0
 10
32.0793267744
 20
-54.0660501878
 30
0.0
 10
32.0775274021
 20
-53.7895783
 30
0.0
 10
32.0754363634
 20
-53.5061824251
 30
0.0
 10
32.0731129998
 20
-53.2090503366
 30
0.0
 10
32.0707026865
 20
-52.8918371246
 30
0.0
 10
32.0681953364
 20
-52.5485325467
 30
0.0
 10
32.065623268
 20
-52.1731463065
 30
0.0
 10
32.0630605639
 20
-51.7606512171
 30
0.0
 10
32.06065321
 20
-51.3083392422
 30
0.0
 10
32.0585936698
 20
-50.8157920142
 30
0.0
 10
32.0569127526
 20
-50.2836206774
 30
0.0
 10
32.0555884694
 20
-49.7102369046
 30
0.0
 10
32.0544950396
 20
-49.0912036456
 30
0.0
 10
32.0535814471
 20
-48.41962423
 30
0.0
 10
32.0528675927
 20
-47.6880113798
 30
0.0
 10
32.0523175144
 20
-46.8890176464
 30
0.0
 10
32.0518643846
 20
-46.0159412206
 30
0.0
 10
32.0513395003
 20
-45.0627863101
 30
0.0
 10
32.0506779616
 20
-44.0240304817
 30
0.0
 10
32.0498711951
 20
-42.8944223286
 30
0.0
 10
32.0488888084
 20
-41.6692863491
 30
0.0
 10
32.0477303976
 20
-40.3442351451
 30
0.0
 10
32.0464548909
 20
-38.9121917104
 30
0.0
 10
32.0451881957
 20
-37.3623225634
 30
0.0
 10
32.0439610808
 20
-35.6808924729
 30
0.0
 10
32.0426877751
 20
-33.8544916461
 30
0.0
 10
32.0413998501
 20
-31.8708951147
 30
0.0
 10
32.0403207605
 20
-29.7183678726
 30
0.0
 10
32.039988512
 20
-28.2257805756
 30
0.0
 10
32.0399886729
 20
-27.4493618084
 30
0.0
 11
32.102443455
 21
-55.7835959602
 31
0.0
 11
32.0944308704
 21
-55.501123437
 31
0.0
 11
32.0883641073
 21
-55.2112689546
 31
0.0
 11
32.0842917746
 21
-54.9165317405
 31
0.0
 11
32.0819466299
 21
-54.6232805182
 31
0.0
 11
32.0805654725
 21
-54.3403040091
 31
0.0
 11
32.0792368511
 21
-54.0659163785
 31
0.0
 11
32.077503504
 21
-53.7919339039
 31
0.0
 11
32.0754509377
 21
-53.5108873657
 31
0.0
 11
32.0731757192
 21
-53.21572735
 31
0.0
 11
32.0707836544
 21
-52.9005357493
 31
0.0
 11
32.0682981336
 21
-52.5592471599
 31
0.0
 11
32.0657479089
 21
-52.1858130063
 31
0.0
 11
32.0632039785
 21
-51.7743762702
 31
0.0
 11
32.0608070469
 21
-51.3217610416
 31
0.0
 11
32.0587291856
 21
-50.8288767047
 31
0.0
 11
32.0570267914
 21
-50.2967354302
 31
0.0
 11
32.0556729203
 21
-49.725248009
 31
0.0
 11
32.0545660015
 21
-49.1087262579
 31
0.0
 11
32.0536497216
 21
-48.4396360365
 31
0.0
 11
32.0529229094
 21
-47.7105099347
 31
0.0
 11
32.0523561294
 21
-46.9138878975
 31
0.0
 11
32.0518738516
 21
-46.0426549858
 31
0.0
 11
32.0513421149
 21
-45.0912807902
 31
0.0
 11
32.0506845146
 21
-44.0544232244
 31
0.0
 11
32.0498782162
 21
-42.9263875179
 31
0.0
 11
32.0489012183
 21
-41.7024563568
 31
0.0
 11
32.0477573126
 21
-40.3790152815
 31
0.0
 11
32.0465064432
 21
-38.9512338202
 31
0.0
 11
32.045245763
 21
-37.4063259056
 31
0.0
 11
32.0440052299
 21
-35.7294078153
 31
0.0
 11
32.0427382839
 21
-33.9069436228
 31
0.0
 11
32.0414831906
 21
-31.9271233895
 31
0.0
 11
32.040446739
 21
-29.778618065
 31
0.0
 11
32.0399886729
 21
-27.4493618084
 31
0.0
  0
SPLINE
  5
43F
100
AcDbEntity
  8
RACCORDO
100
AcDbSpline
 62
253
  6
CONTINUOUS
 70
0
 71
3
 72
9
 73
5
 74
3
 42
0.0000001
 43
0.0000001
 44
0.0000000001
 12
-0.2351491405
 22
0.1926149364
 32
0.0
 13
0.0089504218
 23
0.3088056334
 33
0.0
 40
0.0
 40
0.0
 40
0.0
 40
0.0
 40
0.8019323072
 40
1.0
 40
1.0
 40
1.0
 40
1.0
 10
-34.9128905212
 20
25.7284003626
 30
0.0
 10
-34.9757484188
 20
25.7798884094
 30
0.0
 10
-35.0494682024
 20
25.8661334117
 30
0.0
 10
-35.0579491829
 20
25.9684491072
 30
0.0
 10
-35.0573582531
 20
25.988837247
 30
0.0
 11
-34.9128905212
 21
25.7284003626
 31
0.0
 11
-35.0520301953
 21
25.928548706
 31
0.0
 11
-35.0573582531
 21
25.988837247
 31
0.0
  0
SPLINE
  5
440
100
AcDbEntity
  8
RACCORDO
100
AcDbSpline
 62
253
  6
CONTINUOUS
 70
0
 71
3
 72
9
 73
5
 74
3
 42
0.0000001
 43
0.0000001
 44
0.0000000001
 12
-0.3221200383
 22
0.2037076525
 32
0.0
 13
0.0186577264
 23
0.3942438744
 33
0.0
 40
0.0
 40
0.0
 40
0.0
 40
0.0
 40
0.7341887074
 40
1.0
 40
1.0
 40
1.0
 40
1.0
 10
-34.7914515651
 20
54.1068415742
 30
0.0
 10
-34.8702838632
 20
54.1566948603
 30
0.0
 10
-34.9820775074
 20
54.2457018393
 30
0.0
 10
-34.9992042086
 20
54.3774618772
 30
0.0
 10
-34.9975510638
 20
54.4123933685
 30
0.0
 11
-34.7914515651
 21
54.1068415742
 31
0.0
 11
-34.9834105137
 21
54.3104360101
 31
0.0
 11
-34.9975510638
 21
54.4123933685
 31
0.0
  0
SPLINE
  5
441
100
AcDbEntity
  8
RACCORDO
100
AcDbSpline
 62
253
  6
CONTINUOUS
 70
0
 71
3
 72
10
 73
6
 74
4
 42
0.0000001
 43
0.0000001
 44
0.0000000001
 12
0.1340314411
 22
1.3129528094
 32
0.0
 13
1.1674611754
 23
0.6155029738
 33
0.0
 40
0.0
 40
0.0
 40
0.0
 40
0.0
 40
0.3366312837
 40
0.6841829808
 40
1.0
 40
1.0
 40
1.0
 40
1.0
 10
-33.4767823999
 20
55.0593406804
 30
0.0
 10
-33.4617426746
 20
55.206667677
 30
0.0
 10
-33.3756882361
 20
55.5014730985
 30
0.0
 10
-33.1380605027
 20
55.8769720497
 30
0.0
 10
-32.9104739205
 20
56.0716878659
 30
0.0
 10
-32.787572551
 20
56.136483304
 30
0.0
 11
-33.4767823999
 21
55.0593406804
 31
0.0
 11
-33.3585360236
 21
55.4875937946
 31
0.0
 11
-33.1113182968
 21
55.8739619697
 31
0.0
 11
-32.787572551
 21
56.136483304
 31
0.0
  0
SPLINE
  5
442
100
AcDbEntity
  8
RACCORDO
100
AcDbSpline
 62
253
  6
CONTINUOUS
 70
0
 71
3
 72
10
 73
6
 74
4
 42
0.0000001
 43
0.0000001
 44
0.0000000001
 12
0.2144268826
 22
1.192781151
 32
0.0
 13
1.0555025982
 23
0.5954998132
 33
0.0
 40
0.0
 40
0.0
 40
0.0
 40
0.0
 40
0.3437714618
 40
0.6894099753
 40
1.0
 40
1.0
 40
1.0
 40
1.0
 10
-10.3400288637
 20
43.5374558255
 30
0.0
 10
-10.3154575828
 20
43.6741371988
 30
0.0
 10
-10.2246556359
 20
43.9417898736
 30
0.0
 10
-10.0028100591
 20
44.2834478537
 30
0.0
 10
-9.7990306452
 20
44.4621465237
 30
0.0
 10
-9.6897544525
 20
44.5237986243
 30
0.0
 11
-10.3400288637
 21
43.5374558255
 31
0.0
 11
-10.2094504232
 21
43.9330808775
 31
0.0
 11
-9.9788895524
 21
44.2827979933
 31
0.0
 11
-9.6897544525
 21
44.5237986243
 31
0.0
  0
SPLINE
  5
443
100
AcDbEntity
  8
RACCORDO
100
AcDbSpline
 62
253
  6
CONTINUOUS
 70
0
 71
3
 72
16
 73
12
 74
10
 42
0.0000001
 43
0.0000001
 44
0.0000000001
 12
0.0822603205
 22
4.0867540641
 32
0.0
 13
-3.6905307084
 23
1.7573584242
 33
0.0
 40
0.0
 40
0.0
 40
0.0
 40
0.0
 40
0.1518112807
 40
0.2975275523
 40
0.4336902914
 40
0.5582300319
 40
0.670221851
 40
0.7696388522
 40
0.8563446478
 40
0.9321569619
 40
1.0
 40
1.0
 40
1.0
 40
1.0
 10
32.102504323
 20
21.2930026224
 30
0.0
 10
32.1066670045
 20
21.4998077452
 30
0.0
 10
32.0704004981
 20
21.9066245471
 30
0.0
 10
31.9214174013
 20
22.4803960362
 30
0.0
 10
31.7103106531
 20
22.9940110823
 30
0.0
 10
31.4615124568
 20
23.4379834311
 30
0.0
 10
31.1937647726
 20
23.8103890137
 30
0.0
 10
30.9218083306
 20
24.1131581718
 30
0.0
 10
30.655576656
 20
24.351904869
 30
0.0
 10
30.3999546446
 20
24.5350740777
 30
0.0
 10
30.2284655553
 20
24.6305326714
 30
0.0
 10
30.1450066169
 20
24.6702741829
 30
0.0
 11
32.102504323
 21
21.2930026224
 31
0.0
 11
32.0524898695
 21
21.9115248411
 31
0.0
 11
31.9048848696
 21
22.4885729444
 31
0.0
 11
31.693738447
 21
23.0035432486
 31
0.0
 11
31.4446491506
 21
23.4475062058
 31
0.0
 11
31.1769045143
 21
23.8188166258
 31
0.0
 11
30.9046818413
 21
24.1205376289
 31
0.0
 11
30.6401906447
 21
24.356452537
 31
0.0
 11
30.3877468831
 21
24.5361839056
 31
0.0
 11
30.1450066169
 21
24.6702741829
 31
0.0
  0
SPLINE
  5
444
100
AcDbEntity
  8
RACCORDO
100
AcDbSpline
 62
253
  6
CONTINUOUS
 70
0
 71
3
 72
10
 73
6
 74
4
 42
0.0000001
 43
0.0000001
 44
0.0000000001
 12
0.2144268403
 22
1.1927811645
 32
0.0
 13
1.0555026245
 23
0.5954997782
 33
0.0
 40
0.0
 40
0.0
 40
0.0
 40
0.0
 40
0.3437716011
 40
0.6894100235
 40
1.0
 40
1.0
 40
1.0
 40
1.0
 10
6.276980495
 20
35.2289511462
 30
0.0
 10
6.3015517811
 20
35.3656325764
 30
0.0
 10
6.392353745
 20
35.6332852724
 30
0.0
 10
6.6141993473
 20
35.9749432358
 30
0.0
 10
6.8179787286
 20
36.1536418571
 30
0.0
 10
6.927254907
 20
36.2152939445
 30
0.0
 11
6.276980495
 21
35.2289511462
 31
0.0
 11
6.4075590011
 21
35.6245763563
 31
0.0
 11
6.6381198386
 21
35.9742933642
 31
0.0
 11
6.927254907
 21
36.2152939445
 31
0.0
  0
SPLINE
  5
445
100
AcDbEntity
  8
RACCORDO
100
AcDbSpline
 62
253
  6
CONTINUOUS
 70
0
 71
3
 72
10
 73
6
 74
4
 42
0.0000001
 43
0.0000001
 44
0.0000000001
 12
0.1197823927
 22
1.3048116545
 32
0.0
 13
1.121668805
 23
0.6773037481
 33
0.0
 40
0.0
 40
0.0
 40
0.0
 40
0.0
 40
0.3406696049
 40
0.6894324828
 40
1.0
 40
1.0
 40
1.0
 40
1.0
 10
29.5057615576
 20
23.5682331872
 30
0.0
 10
29.5193636311
 20
23.7164030775
 30
0.0
 10
29.5981014808
 20
24.01250946
 30
0.0
 10
29.8165777098
 20
24.3949168995
 30
0.0
 10
30.0288886516
 20
24.6001580017
 30
0.0
 10
30.1450066169
 20
24.6702741829
 30
0.0
 11
29.5057615576
 21
23.5682331872
 31
0.0
 11
29.6147294001
 21
24.0011073079
 31
0.0
 11
29.8440227445
 21
24.3964025797
 31
0.0
 11
30.1450066169
 21
24.6702741829
 31
0.0
  0
SPLINE
  5
446
100
AcDbEntity
  8
RACCORDO
100
AcDbSpline
 62
253
  6
CONTINUOUS
 70
0
 71
3
 72
34
 73
30
 74
28
 42
0.0000001
 43
0.0000001
 44
0.0000000001
 12
-0.0000075647
 22
28.3910615758
 32
0.0
 13
0.8842002882
 23
28.3772896389
 33
0.0
 40
0.0
 40
0.0
 40
0.0
 40
0.0
 40
0.0889870957
 40
0.1703022998
 40
0.2447767491
 40
0.3130854174
 40
0.3758314319
 40
0.4335363295
 40
0.4866505572
 40
0.5355897405
 40
0.5807354795
 40
0.6223857712
 40
0.6607692005
 40
0.6961269291
 40
0.7287452195
 40
0.758910946
 40
0.7868049842
 40
0.8124972474
 40
0.8361252435
 40
0.8578852269
 40
0.8779514332
 40
0.8963893703
 40
0.9130058326
 40
0.9277951822
 40
0.9413528306
 40
0.9545109918
 40
0.9682055242
 40
0.983388186
 40
1.0
 40
1.0
 40
1.0
 40
1.0
 10
32.0399886729
 20
-7.0977648203
 30
0.0
 10
32.0399884486
 20
-6.2556187827
 30
0.0
 10
32.0403768721
 20
-4.6439310844
 30
0.0
 10
32.0416011026
 20
-2.3274408128
 30
0.0
 10
32.0430215303
 20
-0.2066448688
 30
0.0
 10
32.0443865242
 20
1.7384180668
 30
0.0
 10
32.0457393588
 20
3.5247791801
 30
0.0
 10
32.0471540359
 20
5.1673447635
 30
0.0
 10
32.0484964797
 20
6.6792468259
 30
0.0
 10
32.0496638075
 20
8.0722930491
 30
0.0
 10
32.0506177073
 20
9.3568483029
 30
0.0
 10
32.0513833316
 20
10.5415073115
 30
0.0
 10
32.0519246343
 20
11.6335357621
 30
0.0
 10
32.0524139874
 20
12.6400881933
 30
0.0
 10
32.0531629008
 20
13.5688707024
 30
0.0
 10
32.0542750156
 20
14.4270187585
 30
0.0
 10
32.0556334159
 20
15.2196206203
 30
0.0
 10
32.0573947303
 20
15.9503505507
 30
0.0
 10
32.0598323712
 20
16.6230275821
 30
0.0
 10
32.0631038272
 20
17.2424571238
 30
0.0
 10
32.0667880847
 20
17.8127661215
 30
0.0
 10
32.070432892
 20
18.3343975784
 30
0.0
 10
32.073987407
 20
18.8060898582
 30
0.0
 10
32.0772795438
 20
19.2315972154
 30
0.0
 10
32.0797395413
 20
19.6243817886
 30
0.0
 10
32.0812302618
 20
20.0068094993
 30
0.0
 10
32.0836489413
 20
20.404613487
 30
0.0
 10
32.0899333705
 20
20.8350683724
 30
0.0
 10
32.0976112784
 20
21.1358712121
 30
0.0
 10
32.1025073353
 20
21.2930039648
 30
0.0
 11
32.0399886729
 21
-7.0977648203
 31
0.0
 11
32.0405208736
 21
-4.5713267638
 31
0.0
 11
32.0416920621
 21
-2.2627020924
 31
0.0
 11
32.0430723798
 21
-0.1482938673
 31
0.0
 11
32.0444421816
 21
1.7910612551
 31
0.0
 11
32.0458076424
 21
3.572486695
 31
0.0
 11
32.0471990331
 21
5.2107894032
 31
0.0
 11
32.0485184952
 21
6.7187581367
 31
0.0
 11
32.0496709135
 21
8.1081930253
 31
0.0
 11
32.0506208698
 21
9.3899281279
 31
0.0
 11
32.0513724209
 21
10.5724238875
 31
0.0
 11
32.0519370283
 21
11.662170044
 31
0.0
 11
32.0524823171
 21
12.6660133458
 31
0.0
 11
32.0532601365
 21
13.5920809109
 31
0.0
 11
32.0543648614
 21
14.4485171964
 31
0.0
 11
32.055764835
 21
15.2404573147
 31
0.0
 11
32.0575955104
 21
15.9698856457
 31
0.0
 11
32.0600893824
 21
16.6407049004
 31
0.0
 11
32.063314757
 21
17.2584855093
 31
0.0
 11
32.0669398017
 21
17.828174877
 31
0.0
 11
32.0706036578
 21
18.3516346601
 31
0.0
 11
32.0741344512
 21
18.8233804538
 31
0.0
 11
32.0772621012
 21
19.2432541403
 31
0.0
 11
32.0796092394
 21
19.6281630136
 31
0.0
 11
32.0813436169
 21
20.0017331515
 31
0.0
 11
32.0840868525
 21
20.3905257857
 31
0.0
 11
32.0904851034
 21
20.8215301839
 31
0.0
 11
32.1025073353
 21
21.2930039648
 31
0.0
  0
SPLINE
  5
447
100
AcDbEntity
  8
0
100
AcDbSpline
 62
253
  6
CONTINUOUS
 70
0
 71
3
 72
10
 73
6
 74
4
 42
0.0000001
 43
0.0000001
 44
0.0000000001
 12
-0.001499853
 22
9.0931956281
 32
0.0
 13
-0.0
 23
9.0931957517
 33
0.0
 40
0.0
 40
0.0
 40
0.0
 40
0.0
 40
0.3157157844
 40
0.645744783
 40
1.0
 40
1.0
 40
1.0
 40
1.0
 10
-19.9443571597
 20
-13.0948824022
 30
0.0
 10
-19.9445150021
 20
-12.1379272719
 30
0.0
 10
-19.944626107
 20
-10.1806326942
 30
0.0
 10
-19.9445864233
 20
-7.1495674458
 30
0.0
 10
-19.9445969699
 20
-5.075457338
 30
0.0
 10
-19.9445969699
 20
-4.0016866599
 30
0.0
 11
-19.9443571597
 21
-13.0948824022
 31
0.0
 11
-19.9445909603
 21
-10.2240169819
 31
0.0
 11
-19.9445961545
 21
-7.222998694
 31
0.0
 11
-19.9445969699
 21
-4.0016866599
 31
0.0
  0
SPLINE
  5
448
100
AcDbEntity
  8
RACCORDO
100
AcDbSpline
 62
253
  6
CONTINUOUS
 70
0
 71
3
 72
10
 73
6
 74
4
 42
0.0000001
 43
0.0000001
 44
0.0000000001
 12
1.2146247449
 22
-0.4818568358
 32
0.0
 13
1.2101909343
 23
0.492886583
 33
0.0
 40
0.0
 40
0.0
 40
0.0
 40
0.0
 40
0.3298811861
 40
0.6821628522
 40
1.0
 40
1.0
 40
1.0
 40
1.0
 10
30.8192843742
 20
21.3014607923
 30
0.0
 10
30.9528449914
 20
21.2484756241
 30
0.0
 10
31.2467259244
 20
21.1827477908
 30
0.0
 10
31.684292959
 20
21.1789532309
 30
0.0
 10
31.9742928203
 20
21.2404863991
 30
0.0
 10
32.1025073653
 20
21.292705621
 30
0.0
 11
30.8192843742
 21
21.3014607923
 31
0.0
 11
31.2381539241
 21
21.1996713097
 31
0.0
 11
31.6984742988
 21
21.1965306174
 31
0.0
 11
32.1025073653
 21
21.292705621
 31
0.0
  0
LINE
  5
449
100
AcDbEntity
  8
0
100
AcDbLine
 62
253
  6
CONTINUOUS
 10
-19.9445969688
 20
16.3498807146
 11
-19.9444817257
 21
24.4998194538
  0
LINE
  5
44A
100
AcDbEntity
  8
0
100
AcDbLine
 62
253
  6
CONTINUOUS
 10
-19.9444817257
 20
24.4998194538
 11
-19.9443571621
 21
25.4432480652
  0
SPLINE
  5
44B
100
AcDbEntity
  8
RACCORDO
100
AcDbSpline
 62
253
  6
CONTINUOUS
 70
0
 71
3
 72
10
 73
6
 74
4
 42
0.0000001
 43
0.0000001
 44
0.0000000001
 12
1.1585864198
 22
-0.3536078164
 32
0.0
 13
1.1045695906
 23
0.4972795989
 33
0.0
 40
0.0
 40
0.0
 40
0.0
 40
0.0
 40
0.3354093259
 40
0.6841379336
 40
1.0
 40
1.0
 40
1.0
 40
1.0
 10
30.8498421522
 20
-7.1529659741
 30
0.0
 10
30.9793757156
 20
-7.1925004272
 30
0.0
 10
31.2551254717
 20
-7.2369872869
 30
0.0
 10
31.6605081941
 20
-7.2193971954
 30
0.0
 10
31.9236914618
 20
-7.1501220741
 30
0.0
 10
32.0399886729
 20
-7.0977648203
 30
0.0
 11
30.8498421522
 21
-7.1529659741
 31
0.0
 11
31.2501386585
 21
-7.2225357968
 31
0.0
 11
31.6721162793
 21
-7.2029637371
 31
0.0
 11
32.0399886729
 21
-7.0977648203
 31
0.0
  0
SPLINE
  5
44C
100
AcDbEntity
  8
RACCORDO
100
AcDbSpline
 62
253
  6
CONTINUOUS
 70
0
 71
3
 72
10
 73
6
 74
4
 42
0.0000001
 43
0.0000001
 44
0.0000000001
 12
1.1585864168
 22
-0.3536078314
 32
0.0
 13
1.1045695856
 23
0.4972796137
 33
0.0
 40
0.0
 40
0.0
 40
0.0
 40
0.0
 40
0.3354094745
 40
0.6841379932
 40
1.0
 40
1.0
 40
1.0
 40
1.0
 10
30.8498421522
 20
-27.5045629626
 30
0.0
 10
30.9793757726
 20
-27.5440974349
 30
0.0
 10
31.2551255581
 20
-27.588584286
 30
0.0
 10
31.6605082783
 20
-27.5709941693
 30
0.0
 10
31.9236914843
 20
-27.501719054
 30
0.0
 10
32.0399886729
 20
-27.4493618084
 30
0.0
 11
30.8498421522
 21
-27.5045629626
 31
0.0
 11
31.2501388392
 21
-27.5741327996
 31
0.0
 11
31.6721163515
 21
-27.5545607172
 31
0.0
 11
32.0399886729
 21
-27.4493618084
 31
0.0
  0
LINE
  5
44D
100
AcDbEntity
  8
0
100
AcDbLine
 62
253
  6
CONTINUOUS
 10
11.8072303314
 20
-29.320650326
 11
4.3826076042
 21
-25.6083406505
  0
LINE
  5
44E
100
AcDbEntity
  8
0
100
AcDbLine
 62
253
  6
CONTINUOUS
 10
-12.2344017528
 20
-17.2998359711
 11
-19.1913518697
 21
-13.8214152123
  0
LINE
  5
44F
100
AcDbEntity
  8
0
100
AcDbLine
 62
253
  6
CONTINUOUS
 10
-19.1913518697
 20
-13.8214152123
 11
-19.6590214331
 21
-13.5875244456
  0
SPLINE
  5
450
100
AcDbEntity
  8
RACCORDO
100
AcDbSpline
 62
253
  6
CONTINUOUS
 70
0
 71
3
 72
36
 73
32
 74
30
 42
0.0000001
 43
0.0000001
 44
0.0000000001
 12
-23.5284899055
 22
10.8983054237
 32
0.0
 13
-23.1924613047
 23
11.5962337409
 33
0.0
 40
0.0
 40
0.0
 40
0.0
 40
0.0
 40
0.0096611792
 40
0.0195576075
 40
0.0299291785
 40
0.0410225164
 40
0.0531207697
 40
0.0664833826
 40
0.0811959505
 40
0.0972583488
 40
0.1146915194
 40
0.1335616914
 40
0.1539273967
 40
0.1758701752
 40
0.1995746472
 40
0.2252245679
 40
0.252949244
 40
0.2829073925
 40
0.315383698
 40
0.3506710202
 40
0.3890346982
 40
0.4306732189
 40
0.4757814009
 40
0.524578598
 40
0.577308361
 40
0.6343553028
 40
0.6961884339
 40
0.7633232039
 40
0.8359275237
 40
0.914328461
 40
1.0
 40
1.0
 40
1.0
 40
1.0
 10
30.1450066169
 20
24.6702741829
 30
0.0
 10
30.0692356308
 20
24.7053710103
 30
0.0
 10
29.9160694842
 20
24.776897011
 30
0.0
 10
29.6823227371
 20
24.8877226406
 30
0.0
 10
29.4380102818
 20
25.0051487194
 30
0.0
 10
29.1771508401
 20
25.1320709921
 30
0.0
 10
28.8935727211
 20
25.2713832684
 30
0.0
 10
28.582168293
 20
25.4249972216
 30
0.0
 10
28.2400762987
 20
25.5938512662
 30
0.0
 10
27.8662940752
 20
25.777991969
 30
0.0
 10
27.4600169252
 20
25.9774870087
 30
0.0
 10
27.0202750949
 20
26.1932176149
 30
0.0
 10
26.5456365831
 20
26.4263137219
 30
0.0
 10
26.0338833262
 20
26.6786237004
 30
0.0
 10
25.4815943483
 20
26.951999281
 30
0.0
 10
24.8849477761
 20
27.2484128835
 30
0.0
 10
24.2402895994
 20
27.5696717329
 30
0.0
 10
23.543134368
 20
27.9178714237
 30
0.0
 10
22.7876486243
 20
28.2955738081
 30
0.0
 10
21.9672593545
 20
28.7059232171
 30
0.0
 10
21.0760312551
 20
29.1516735809
 30
0.0
 10
20.1088316697
 20
29.6352892651
 30
0.0
 10
19.0608642769
 20
30.1590184834
 30
0.0
 10
17.9269457243
 20
30.7252060487
 30
0.0
 10
16.7005280177
 20
31.3371356601
 30
0.0
 10
15.3731745199
 20
31.9991392246
 30
0.0
 10
13.9343619874
 20
32.7166306809
 30
0.0
 10
12.3752861074
 20
33.4942739151
 30
0.0
 10
10.6882545284
 20
34.3362132947
 30
0.0
 10
8.8580979738
 20
35.2501644545
 30
0.0
 10
7.5895661918
 20
35.8841382139
 30
0.0
 10
6.927254907
 20
36.2152939445
 30
0.0
 11
30.1450066169
 21
24.6702741829
 31
0.0
 11
29.9180146573
 21
24.7762549212
 31
0.0
 11
29.6861290457
 21
24.8861631056
 31
0.0
 11
29.4437234702
 21
25.0026331384
 31
0.0
 11
29.1850379249
 21
25.1284274549
 31
0.0
 11
28.90341718
 21
25.2666373955
 31
0.0
 11
28.5926383089
 21
25.4198471368
 31
0.0
 11
28.2505176943
 21
25.5886456181
 31
0.0
 11
27.8768842877
 21
25.7726785887
 31
0.0
 11
27.4711543597
 21
25.9719891213
 31
0.0
 11
27.0318945704
 21
26.1875537296
 31
0.0
 11
26.5579299419
 21
26.420422959
 31
0.0
 11
26.0476040249
 21
26.6720187938
 31
0.0
 11
25.4967279857
 21
26.9446680956
 31
0.0
 11
24.9010664687
 21
27.240552028
 31
0.0
 11
24.2576136822
 21
27.5611536583
 31
0.0
 11
23.5626277257
 21
27.9081896008
 31
0.0
 11
22.8093922176
 21
28.2847323237
 31
0.0
 11
21.9910384485
 21
28.694024517
 31
0.0
 11
21.1013391612
 21
29.138996341
 31
0.0
 11
20.135638799
 21
29.6218451971
 31
0.0
 11
19.0893568417
 21
30.1447057732
 31
0.0
 11
17.9573296907
 21
30.7099689894
 31
0.0
 11
16.733900257
 21
31.3204417466
 31
0.0
 11
15.4101883964
 21
31.9806640614
 31
0.0
 11
13.9753803958
 21
32.6962025607
 31
0.0
 11
12.4176187472
 21
33.4732290952
 31
0.0
 11
10.7331182509
 21
34.3139093497
 31
0.0
 11
8.914364186
 21
35.2221776797
 31
0.0
 11
6.927254907
 21
36.2152939445
 31
0.0
  0
SPLINE
  5
451
100
AcDbEntity
  8
RACCORDO
100
AcDbSpline
 62
253
  6
CONTINUOUS
 70
0
 71
3
 72
12
 73
8
 74
6
 42
0.0000001
 43
0.0000001
 44
0.0000000001
 12
-1.1795083757
 22
0.6192056158
 32
0.0
 13
-1.1584877753
 23
-0.6652097099
 33
0.0
 40
0.0
 40
0.0
 40
0.0
 40
0.0
 40
0.2758935358
 40
0.5079173441
 40
0.7159438203
 40
0.9136367323
 40
1.0
 40
1.0
 40
1.0
 40
1.0
 10
-32.7875474536
 20
56.136470209
 30
0.0
 10
-32.8960203657
 20
56.1934151512
 30
0.0
 10
-33.1056405378
 20
56.2812691706
 30
0.0
 10
-33.4200427439
 20
56.3420392449
 30
0.0
 10
-33.7056926771
 20
56.3323542621
 30
0.0
 10
-33.9179258106
 20
56.2712605343
 30
0.0
 10
-34.031073119
 20
56.214326043
 30
0.0
 10
-34.0644233823
 20
56.1951761483
 30
0.0
 11
-32.7875474536
 21
56.136470209
 31
0.0
 11
-33.1277079036
 21
56.2756562722
 31
0.0
 11
-33.4316531668
 21
56.3318340782
 31
0.0
 11
-33.7085493073
 21
56.3205746432
 31
0.0
 11
-33.9614057675
 21
56.2469433599
 31
0.0
 11
-34.0644233823
 21
56.1951761483
 31
0.0
  0
SPLINE
  5
452
100
AcDbEntity
  8
RACCORDO
100
AcDbSpline
 62
253
  6
CONTINUOUS
 70
0
 71
3
 72
34
 73
30
 74
28
 42
0.0000001
 43
0.0000001
 44
0.0000000001
 12
-23.1235627026
 22
11.5617764139
 32
0.0
 13
-22.7518057891
 23
12.2771804273
 33
0.0
 40
0.0
 40
0.0
 40
0.0
 40
0.0
 40
0.0962690695
 40
0.1839044324
 40
0.2633214766
 40
0.3350401769
 40
0.3998192628
 40
0.4585431027
 40
0.5120205251
 40
0.560786124
 40
0.6053163984
 40
0.6460839794
 40
0.6835534323
 40
0.7181303884
 40
0.7499720253
 40
0.7791939555
 40
0.8060731567
 40
0.8308762451
 40
0.8537070172
 40
0.8746897786
 40
0.893994049
 40
0.9117278881
 40
0.927923234
 40
0.9426387896
 40
0.9560060832
 40
0.9682108002
 40
0.9794853154
 40
0.9900247436
 40
1.0
 40
1.0
 40
1.0
 40
1.0
 10
-9.6897544525
 20
44.5237986243
 30
0.0
 10
-10.4317824071
 20
44.8948124431
 30
0.0
 10
-11.8491443886
 20
45.6038596015
 30
0.0
 10
-13.8782340677
 20
46.6197880212
 30
0.0
 10
-15.7178865739
 20
47.5415133299
 30
0.0
 10
-17.3812587455
 20
48.3753664832
 30
0.0
 10
-18.8852052882
 20
49.1293205825
 30
0.0
 10
-20.2487142842
 20
49.8126476855
 30
0.0
 10
-21.4890204236
 20
50.4338073081
 30
0.0
 10
-22.6201718137
 20
50.9997721567
 30
0.0
 10
-23.6535053302
 20
51.516458826
 30
0.0
 10
-24.5998304755
 20
51.9894896113
 30
0.0
 10
-25.4694527382
 20
52.4241293539
 30
0.0
 10
-26.2701967353
 20
52.8245259854
 30
0.0
 10
-27.0072199277
 20
53.1934374336
 30
0.0
 10
-27.6845945555
 20
53.5333118588
 30
0.0
 10
-28.3073345882
 20
53.8468211786
 30
0.0
 10
-28.8804228113
 20
54.1364714112
 30
0.0
 10
-29.4076916801
 20
54.4041270584
 30
0.0
 10
-29.8923501659
 20
54.6510327513
 30
0.0
 10
-30.337859378
 20
54.8780231237
 30
0.0
 10
-30.746768206
 20
55.0859711939
 30
0.0
 10
-31.120717896
 20
55.2754252259
 30
0.0
 10
-31.4611047657
 20
55.4478641584
 30
0.0
 10
-31.7706695868
 20
55.6050468727
 30
0.0
 10
-32.0532938212
 20
55.7497866739
 30
0.0
 10
-32.3135436485
 20
55.8847461602
 30
0.0
 10
-32.5559992335
 20
56.0122754124
 30
0.0
 10
-32.711896086
 20
56.0956473477
 30
0.0
 10
-32.7875477851
 20
56.1364700221
 30
0.0
 11
-9.6897544525
 21
44.5237986243
 31
0.0
 11
-11.9156190234
 21
45.6372785591
 31
0.0
 11
-13.9415126795
 21
46.6515945964
 31
0.0
 11
-15.7771649289
 21
47.571300671
 31
0.0
 11
-17.4347187271
 21
48.4021702653
 31
0.0
 11
-18.9318708076
 21
49.1526719432
 31
0.0
 11
-20.2891666563
 21
49.8328395776
 31
0.0
 11
-21.525367012
 21
50.451909321
 31
0.0
 11
-22.6528381058
 21
51.0160527348
 31
0.0
 11
-23.6825187584
 21
51.5309376909
 31
0.0
 11
-24.6252571668
 21
52.0021899476
 31
0.0
 11
-25.4917357488
 21
52.4353006902
 31
0.0
 11
-26.2912515176
 21
52.835125013
 31
0.0
 11
-27.0273458837
 21
53.203666077
 31
0.0
 11
-27.7025601859
 21
53.5425233158
 31
0.0
 11
-28.3232291214
 21
53.8550364342
 31
0.0
 11
-28.8955038062
 21
54.1443126286
 31
0.0
 11
-29.4218252038
 21
54.4114675166
 31
0.0
 11
-29.9052364626
 21
54.6576030403
 31
0.0
 11
-30.3499479624
 21
54.8841078589
 31
0.0
 11
-30.7586410439
 21
55.091872664
 31
0.0
 11
-31.1320944201
 21
55.2811867694
 31
0.0
 11
-31.4714418668
 21
55.4531694489
 31
0.0
 11
-31.7795078588
 21
55.6097689832
 31
0.0
 11
-32.0603012331
 21
55.7536883416
 31
0.0
 11
-32.319031862
 21
55.887921706
 31
0.0
 11
-32.5601521806
 21
56.014821874
 31
0.0
 11
-32.7875477851
 21
56.1364700221
 31
0.0
  0
ELLIPSE
  5
453
100
AcDbEntity
  8
RACCORDO
100
AcDbEllipse
 62
7
  6
CONTINUOUS
 10
7.2030536777
 20
-24.0592685057
 30
0.0
 11
0.1461194965
 21
0.2622111801
 31
0.0
 40
0.6437101552
 41
0.6611775963
 42
0.7135374739
  0
ELLIPSE
  5
454
100
AcDbEntity
  8
RACCORDO
100
AcDbEllipse
 62
7
  6
CONTINUOUS
 10
-8.706848899
 20
-16.1043172174
 30
0.0
 11
0.1461194965
 21
0.2622111801
 31
0.0
 40
0.6437101552
 41
0.6611775963
 42
0.7135374739
  0
ELLIPSE
  5
455
100
AcDbEntity
  8
0
100
AcDbEllipse
 62
7
  6
CONTINUOUS
 10
34.0335694039
 20
-19.0889313805
 30
0.0
 11
0.2267599918
 21
0.4456316896
 31
0.0
 40
0.6176975122
 41
0.0043581653
 42
0.5581776906
  0
ELLIPSE
  5
456
100
AcDbEntity
  8
RACCORDO
100
AcDbEllipse
 62
7
  6
CONTINUOUS
 10
-4.466410624
 20
-18.2245363549
 30
0.0
 11
0.1235365013
 21
0.2735541167
 31
0.0
 40
0.5796795686
 41
0.6094740628
 42
0.6618339404
  0
ELLIPSE
  5
457
100
AcDbEntity
  8
RACCORDO
100
AcDbEllipse
 62
7
  6
CONTINUOUS
 10
11.4434919527
 20
-26.1794876432
 30
0.0
 11
0.1235365013
 21
0.2735541167
 31
0.0
 40
0.5796795686
 41
0.6094740628
 42
0.6618339404
  0
ELLIPSE
  5
458
100
AcDbEntity
  8
RACCORDO
100
AcDbEllipse
 62
7
  6
CONTINUOUS
 10
35.0080753632
 20
-12.2984650087
 30
0.0
 11
0.2435324942
 21
0.4370186336
 31
0.0
 40
0.6437101552
 41
-2.2971554858
 42
-0.8572588529
  0
ELLIPSE
  5
459
100
AcDbEntity
  8
RACCORDO
100
AcDbEllipse
 62
7
  6
CONTINUOUS
 10
34.0335694039
 20
-19.0889313805
 30
0.0
 11
0.2267599918
 21
0.4456316896
 31
0.0
 40
0.6176975122
 41
0.0060292765
 42
0.5581776906
  0
ELLIPSE
  5
45A
100
AcDbEntity
  8
RACCORDO
100
AcDbEllipse
 62
7
  6
CONTINUOUS
 10
34.2639106859
 20
-13.6210021615
 30
0.0
 11
0.2435324942
 21
0.4370186336
 31
0.0
 40
0.6437101552
 41
0.8444371678
 42
2.2843338007
  0
ELLIPSE
  5
45B
100
AcDbEntity
  8
RACCORDO
100
AcDbEllipse
 62
7
  6
CONTINUOUS
 10
34.2639106859
 20
-18.9236960925
 30
0.0
 11
0.2435324942
 21
0.4370186336
 31
0.0
 40
0.6437101552
 41
2.2843338007
 42
3.7242304336
  0
ELLIPSE
  5
45C
100
AcDbEntity
  8
RACCORDO
100
AcDbEllipse
 62
7
  6
CONTINUOUS
 10
35.0080753632
 20
-19.5761843602
 30
0.0
 11
0.2435324942
 21
0.4370186336
 31
0.0
 40
0.6437101552
 41
5.4259264543
 42
6.8658230871
  0
ENDSEC
  0
SECTION
  2
OBJECTS
  0
DICTIONARY
  5
C
100
AcDbDictionary
280
0
281
1
  3
ACAD_GROUP
350
D
  3
ACAD_MLINESTYLE
350
17
  3
ACAD_LAYOUT
350
1A
  3
ACAD_PLOTSETTINGS
350
19
  3
ACAD_PLOTSTYLENAME
350
E
  0
DICTIONARY
  5
D
102
{ACAD_REACTORS
330
C
102
}
100
AcDbDictionary
280
0
281
1
  0
ACDBDICTIONARYWDFLT
  5
E
102
{ACAD_REACTORS
330
C
102
}
100
AcDbDictionary
281
1
  3
Normal
350
F
100
AcDbDictionaryWithDefault
340
F
  0
DICTIONARY
  5
17
102
{ACAD_REACTORS
330
C
102
}
100
AcDbDictionary
280
0
281
1
  3
Standard
350
18
  0
DICTIONARY
  5
19
102
{ACAD_REACTORS
330
C
102
}
100
AcDbDictionary
281
1
  0
DICTIONARY
  5
1A
102
{ACAD_REACTORS
330
C
102
}
100
AcDbDictionary
281
1
  3
Model
350
45D
  3
Layout1
350
45E
  0
ACDBPLACEHOLDER
  5
F
102
{ACAD_REACTORS
330
E
102
}
  0
MLINESTYLE
  5
18
102
{ACAD_REACTORS
330
17
102
}
100
AcDbMlineStyle
  2
STANDARD
 70
0
  3

 62
256
 51
90.0
 52
90.0
 71
2
 49
0.5
 62
256
  6
BYLAYER
 49
-0.5
 62
256
  6
BYLAYER
  0
LAYOUT
  5
45D
102
{ACAD_REACTORS
330
1A
102
}
100
AcDbPlotSettings
  1

  2
none_device
  4
ISO_A4_(297.00_x_210.00_MM)
  6

 40
0.0
 41
0.0
 42
0.0
 43
0.0
 44
297.0
 45
210.0
 46
0.0
 47
0.0
 48
0.0
 49
0.0
140
0.0
141
0.0
142
1.0
143
1.0
 70
1024
 72
1
 73
0
 74
0
  7

 75
0
147
1.0
148
0.0
149
0.0
100
AcDbLayout
  1
Model
 70
0
 71
0
 10
0.0
 20
0.0
 11
297.0
 21
210.0
 12
0.0
 22
0.0
 32
0.0
 14
0.0
 24
0.0
 34
0.0
 15
0.0
 25
0.0
 35
0.0
146
0.0
 13
0.0
 23
0.0
 33
0.0
 16
1.0
 26
0.0
 36
0.0
 17
0.0
 27
1.0
 37
0.0
 76
0
330
20D
345
0
346
0
  0
LAYOUT
  5
45E
102
{ACAD_REACTORS
330
1A
102
}
100
AcDbPlotSettings
  1

  2
none_device
  4
ISO_A4_(297.00_x_210.00_MM)
  6

 40
0.0
 41
0.0
 42
0.0
 43
0.0
 44
297.0
 45
210.0
 46
0.0
 47
0.0
 48
0.0
 49
0.0
140
0.0
141
0.0
142
1.0
143
1.0
 70
0
 72
1
 73
0
 74
0
  7

 75
0
147
1.0
148
0.0
149
0.0
100
AcDbLayout
  1
Layout1
 70
0
 71
1
 10
0.0
 20
0.0
 11
297.0
 21
210.0
 12
0.0
 22
0.0
 32
0.0
 14
0.0
 24
0.0
 34
0.0
 15
0.0
 25
0.0
 35
0.0
146
0.0
 13
0.0
 23
0.0
 33
0.0
 16
1.0
 26
0.0
 36
0.0
 17
0.0
 27
1.0
 37
0.0
 76
0
330
20E
345
0
346
0
  0
ENDSEC
  0
EOF
