  0
SECTION
  2
HEADER
  9
$ACADVER
  1
AC1015
  9
$DWGCODEPAGE
  3
ANSI_1252
  9
$EXTMAX
 10
297.0
 20
210.0
 30
0.0
  9
$EXTMIN
 10
0.0
 20
0.0
 30
0.0
  9
$LIMMIN
 10
0.0
 20
0.0
  9
$LIMMAX
 10
297.0
 20
210.0
  9
$VIEWCTR
 10
148.5
 20
105.0
  9
$VIEWSIZE
 40
210.0
  9
$CLAYER
  8
0
  9
$LTSCALE
 40
16.335
  9
$CELTYPE
  6
BYLAYER
  9
$DIMSCALE
 40
1.0
  9
$DIMASZ
 40
3.0
  9
$DIMEXO
 40
1.85625
  9
$DIMDLI
 40
11.286
  9
$DIMEXE
 40
5.346
  9
$DIMCEN
 40
2.673
  9
$DIMLFAC
 40
1.0
  9
$DIMBLK
  1
_FILLED
  9
$DIMTXT
 40
3.0
  9
$DIMTOL
 70
1
  9
$DIMLIM
 70
0
  9
$DIMTFAC
 40
1.0
  9
$DIMTP
 40
0.01
  9
$DIMTM
 40
0.01
  9
$PDMODE
 70
3
  9
$PDSIZE
 40
3.0
  9
$HANDSEED
  5
49F
  9
$TILEMODE
 70
1
  9
$MEASUREMENT
 70
1
  9
$INSUNITS
 70
4
  0
ENDSEC
  0
SECTION
  2
CLASSES
  0
CLASS
  1
ACDBDICTIONARYWDFLT
  2
AcDbDictionaryWithDefault
  3
AutoCAD 2000
 90
0
280
0
281
0
  0
CLASS
  1
ACDBPLACEHOLDER
  2
AcDbPlaceHolder
  3
AutoCAD 2000
 90
0
280
0
281
0
  0
CLASS
  1
LAYOUT
  2
AcDbLayout
  3
AutoCAD 2000
 90
0
280
0
281
0
  0
ENDSEC
  0
SECTION
  2
TABLES
  0
TABLE
  2
VPORT
  5
8
100
AcDbSymbolTable
 70
2
  0
VPORT
  5
1F4
100
AcDbSymbolTableRecord
100
AcDbViewportTableRecord
  2
*ACTIVE
 70
0
 10
0.0
 20
0.0
 11
1.0
 21
1.0
 12
148.5
 22
105.0
 13
0.0
 23
0.0
 14
1.0
 24
1.0
 15
0.0
 25
0.0
 16
0.0
 26
0.0
 36
1.0
 17
0.0
 27
0.0
 37
0.0
 40
210.0
 41
1.4142857143
 42
50.0
 43
0.0
 44
0.0
 50
0.0
 51
0.0
 71
0
 72
100
 73
1
 74
1
 75
0
 76
0
 77
0
 78
0
  0
ENDTAB
  0
TABLE
  2
LTYPE
  5
5
100
AcDbSymbolTable
 70
6
  0
LTYPE
  5
14
100
AcDbSymbolTableRecord
100
AcDbLinetypeTableRecord
  2
BYBLOCK
 70
0
  3

 72
65
 73
0
 40
0.0
  0
LTYPE
  5
15
100
AcDbSymbolTableRecord
100
AcDbLinetypeTableRecord
  2
BYLAYER
 70
0
  3

 72
65
 73
0
 40
0.0
  0
LTYPE
  5
16
100
AcDbSymbolTableRecord
100
AcDbLinetypeTableRecord
  2
CONTINUOUS
 70
64
  3
Solid line
 72
65
 73
0
 40
0.0
  0
LTYPE
  5
1F5
100
AcDbSymbolTableRecord
100
AcDbLinetypeTableRecord
  2
CENTER
 70
64
  3
____ _ ____ _ ____ _ ____ _ ____ _ ____ _ ____
 72
65
 73
4
 40
0.6
 49
0.375
 74
0
 49
-0.075
 74
0
 49
0.075
 74
0
 49
-0.075
 74
0
  0
LTYPE
  5
1F6
100
AcDbSymbolTableRecord
100
AcDbLinetypeTableRecord
  2
HIDDEN
 70
64
  3
- - - - - - - - - - - - - - - - - - - -
 72
65
 73
2
 40
0.2
 49
0.1
 74
0
 49
-0.1
 74
0
  0
LTYPE
  5
1F7
100
AcDbSymbolTableRecord
100
AcDbLinetypeTableRecord
  2
PHANTOM
 70
64
  3
_____ _ _ _____ _ _ _____ _ _ _____
 72
65
 73
6
 40
0.8
 49
0.45
 74
0
 49
-0.05
 74
0
 49
0.1
 74
0
 49
-0.05
 74
0
 49
0.1
 74
0
 49
-0.05
 74
0
  0
LTYPE
  5
1F8
100
AcDbSymbolTableRecord
100
AcDbLinetypeTableRecord
  2
DOT
 70
64
  3
. . . . . . . . . . . . . . . . . . . .
 72
65
 73
2
 40
0.2
 49
0.1
 74
0
 49
-0.1
 74
0
  0
LTYPE
  5
1F9
100
AcDbSymbolTableRecord
100
AcDbLinetypeTableRecord
  2
DASHED
 70
64
  3
- - - - - - - - - - - - - - - - - - - -
 72
65
 73
2
 40
0.2
 49
0.1
 74
0
 49
-0.1
 74
0
  0
ENDTAB
  0
TABLE
  2
LAYER
  5
2
100
AcDbSymbolTable
 70
36
  0
LAYER
  5
10
100
AcDbSymbolTableRecord
100
AcDbLayerTableRecord
  2
0
 70
0
 62
7
  6
CONTINUOUS
370
-3
390
F
  0
LAYER
  5
1FA
100
AcDbSymbolTableRecord
100
AcDbLayerTableRecord
  2
DEFAULT_1
 70
0
 62
7
  6
CENTER
370
-3
390
F
  0
LAYER
  5
1FB
100
AcDbSymbolTableRecord
100
AcDbLayerTableRecord
  2
DEFAULT_2
 70
0
 62
7
  6
HIDDEN
370
-3
390
F
  0
LAYER
  5
1FC
100
AcDbSymbolTableRecord
100
AcDbLayerTableRecord
  2
DEFAULT_3
 70
0
 62
7
  6
PHANTOM
370
-3
390
F
  0
LAYER
  5
1FD
100
AcDbSymbolTableRecord
100
AcDbLayerTableRecord
  2
ASSI
 70
0
 62
7
  6
CONTINUOUS
370
-3
390
F
  0
LAYER
  5
1FE
100
AcDbSymbolTableRecord
100
AcDbLayerTableRecord
  2
COORDINATE
 70
0
 62
7
  6
CONTINUOUS
370
-3
390
F
  0
LAYER
  5
1FF
100
AcDbSymbolTableRecord
100
AcDbLayerTableRecord
  2
COPY_PUBLISH
 70
0
 62
7
  6
CONTINUOUS
370
-3
390
F
  0
LAYER
  5
200
100
AcDbSymbolTableRecord
100
AcDbLayerTableRecord
  2
COSMETIC
 70
0
 62
7
  6
CONTINUOUS
370
-3
390
F
  0
LAYER
  5
201
100
AcDbSymbolTableRecord
100
AcDbLayerTableRecord
  2
CURVE
 70
0
 62
7
  6
CONTINUOUS
370
-3
390
F
  0
LAYER
  5
202
100
AcDbSymbolTableRecord
100
AcDbLayerTableRecord
  2
DRAFT
 70
0
 62
7
  6
CONTINUOUS
370
-3
390
F
  0
LAYER
  5
203
100
AcDbSymbolTableRecord
100
AcDbLayerTableRecord
  2
IMPORT_IGES
 70
0
 62
7
  6
CONTINUOUS
370
-3
390
F
  0
LAYER
  5
204
100
AcDbSymbolTableRecord
100
AcDbLayerTableRecord
  2
INTFCLR_1
 70
0
 62
7
  6
CONTINUOUS
370
-3
390
F
  0
LAYER
  5
205
100
AcDbSymbolTableRecord
100
AcDbLayerTableRecord
  2
PIANI
 70
0
 62
7
  6
CONTINUOUS
370
-3
390
F
  0
LAYER
  5
206
100
AcDbSymbolTableRecord
100
AcDbLayerTableRecord
  2
PUNTI
 70
0
 62
7
  6
CONTINUOUS
370
-3
390
F
  0
LAYER
  5
207
100
AcDbSymbolTableRecord
100
AcDbLayerTableRecord
  2
RACCORDO
 70
0
 62
7
  6
CONTINUOUS
370
-3
390
F
  0
LAYER
  5
208
100
AcDbSymbolTableRecord
100
AcDbLayerTableRecord
  2
SNAPLINE
 70
0
 62
7
  6
CONTINUOUS
370
-3
390
F
  0
LAYER
  5
209
100
AcDbSymbolTableRecord
100
AcDbLayerTableRecord
  2
SUPERFICI
 70
0
 62
7
  6
CONTINUOUS
370
-3
390
F
  0
LAYER
  5
20A
100
AcDbSymbolTableRecord
100
AcDbLayerTableRecord
  2
TRASH
 70
0
 62
7
  6
CONTINUOUS
370
-3
390
F
  0
ENDTAB
  0
TABLE
  2
STYLE
  5
3
100
AcDbSymbolTable
 70
1
  0
STYLE
  5
11
100
AcDbSymbolTableRecord
100
AcDbTextStyleTableRecord
  2
STANDARD
 70
0
 40
0.0
 41
0.8
 50
0.0
 71
0
 42
0.2
  3
txt
  4

  0
STYLE
  5
20B
100
AcDbSymbolTableRecord
100
AcDbTextStyleTableRecord
  2
TEXTSTYLE_1
 70
0
 40
0.0
 41
0.8
 50
0.0
 71
0
 42
0.2
  3
gdt
  4

  0
ENDTAB
  0
TABLE
  2
VIEW
  5
6
100
AcDbSymbolTable
 70
0
  0
ENDTAB
  0
TABLE
  2
UCS
  5
7
100
AcDbSymbolTable
 70
0
  0
ENDTAB
  0
TABLE
  2
APPID
  5
9
100
AcDbSymbolTable
 70
1
  0
APPID
  5
20C
100
AcDbSymbolTableRecord
100
AcDbRegAppTableRecord
  2
ACAD
 70
0
  0
ENDTAB
  0
TABLE
  2
BLOCK_RECORD
  5
1
100
AcDbSymbolTable
 70
0
  0
BLOCK_RECORD
  5
20D
100
AcDbSymbolTableRecord
100
AcDbBlockTableRecord
  2
*Model_Space
  0
BLOCK_RECORD
  5
20E
100
AcDbSymbolTableRecord
100
AcDbBlockTableRecord
  2
*Paper_Space
  0
ENDTAB
  0
TABLE
  2
DIMSTYLE
  5
A
100
AcDbSymbolTable
 70
1
100
AcDbDimStyleTable
 71
0
  0
DIMSTYLE
105
20F
100
AcDbSymbolTableRecord
100
AcDbDimStyleTableRecord
  2
STANDARD
 70
0
  3

  4

 40
1.0
 41
3.0
 42
0.0625
 43
0.38
 44
0.18
 45
0.0
 46
0.0
 47
0.01
 48
0.01
140
3.0
141
0.09
142
0.0
143
25.4
144
1.0
145
0.0
146
1.0
147
0.09
 71
1.0
 72
0.0
 73
0
 74
0
 75
0
 76
0
 77
1
 78
8
170
0
171
2
172
0
173
0
174
0
175
0
176
0
177
0
178
0
270
2
271
2
272
2
273
2
274
2
275
0
280
0
281
0
282
0
283
1
284
8
285
0
286
0
287
3
288
0
340
11
  0
ENDTAB
  0
ENDSEC
  0
SECTION
  2
BLOCKS
  0
BLOCK
  5
20
100
AcDbEntity
  8
0
100
AcDbBlockBegin
  2
*Model_Space
 70
0
 10
0.0
 20
0.0
 30
0.0
  3
*Model_Space
  1

  0
ENDBLK
  5
21
100
AcDbEntity
  8
0
100
AcDbBlockEnd
  0
BLOCK
  5
1C
100
AcDbEntity
  8
0
100
AcDbBlockBegin
  2
*Paper_Space
 70
0
 10
0.0
 20
0.0
 30
0.0
  3
*Paper_Space
  1

  0
ENDBLK
  5
1D
100
AcDbEntity
  8
0
100
AcDbBlockEnd
  0
ENDSEC
  0
SECTION
  2
ENTITIES
  0
LWPOLYLINE
  5
210
100
AcDbEntity
  8
RACCORDO
100
AcDbPolyline
 62
7
  6
CONTINUOUS
 90
5
 70
0
 10
-33.740995024
 20
56.8834065825
 10
-33.8270495189
 20
56.8300916109
 10
-34.1453448737
 20
56.5580977839
 10
-34.399048305
 20
56.2082681911
 10
-34.5760959029
 20
55.8004471358
  0
LINE
  5
211
100
AcDbEntity
  8
SUPERFICI
100
AcDbLine
 62
7
  6
CONTINUOUS
 10
-30.7211490052
 20
58.6524154533
 11
-33.7487806083
 21
56.8788959536
  0
LINE
  5
212
100
AcDbEntity
  8
RACCORDO
100
AcDbLine
 62
7
  6
CONTINUOUS
 10
-33.7410181337
 20
56.8834016189
 11
-33.7517417155
 21
56.8771537659
  0
LINE
  5
213
100
AcDbEntity
  8
RACCORDO
100
AcDbLine
 62
253
  6
CONTINUOUS
 10
-29.3139099368
 20
58.6027740602
 11
-32.4615145411
 21
56.8271418026
  0
LWPOLYLINE
  5
214
100
AcDbEntity
  8
RACCORDO
100
AcDbPolyline
 62
7
  6
CONTINUOUS
 90
4
 70
0
 10
31.0769247258
 20
-56.7400829141
 10
31.3010352522
 20
-56.7147756221
 10
31.5129924173
 20
-56.6628662619
 10
31.6642986403
 20
-56.6071572441
  0
LWPOLYLINE
  5
215
100
AcDbEntity
  8
RACCORDO
100
AcDbPolyline
 62
7
  6
CONTINUOUS
 90
3
 70
0
 10
-34.5760959029
 20
55.8004471358
 10
-34.6761121734
 20
55.3468005479
 10
-34.6972032878
 20
55.1160769167
  0
LWPOLYLINE
  5
216
100
AcDbEntity
  8
RACCORDO
100
AcDbPolyline
 62
7
  6
CONTINUOUS
 90
4
 70
0
 10
30.3690163972
 20
-56.642063664
 10
30.607434232
 20
-56.7041680806
 10
30.8442254464
 20
-56.7368526588
 10
31.0769247258
 20
-56.7400829141
  0
LWPOLYLINE
  5
217
100
AcDbEntity
  8
RACCORDO
100
AcDbPolyline
 62
7
  6
CONTINUOUS
 90
5
 70
0
 10
-34.2126185972
 20
-23.6784000014
 10
-33.9786319962
 20
-24.0502173498
 10
-33.7121782339
 20
-24.3847968754
 10
-33.4171973104
 20
-24.6766746095
 10
-33.1060785304
 20
-24.9143500787
  0
LINE
  5
218
100
AcDbEntity
  8
RACCORDO
100
AcDbLine
 62
7
  6
CONTINUOUS
 10
-34.4082939545
 20
-23.2761572346
 11
-34.2126185972
 21
-23.6784000014
  0
LINE
  5
219
100
AcDbEntity
  8
RACCORDO
100
AcDbLine
 62
7
  6
CONTINUOUS
 10
-34.5556007062
 20
-22.8644873897
 11
-34.4082939545
 21
-23.2761572346
  0
LWPOLYLINE
  5
21A
100
AcDbEntity
  8
RACCORDO
100
AcDbPolyline
 62
7
  6
CONTINUOUS
 90
5
 70
0
 10
-34.697296477
 20
55.1145667408
 10
-34.7626277519
 20
52.9564830355
 10
-34.7918546577
 20
49.9236453045
 10
-34.7978951771
 20
46.8023144686
 10
-34.7977125959
 20
43.5816911113
  0
LINE
  5
21B
100
AcDbEntity
  8
0
100
AcDbLine
 62
253
  6
CONTINUOUS
 10
-27.4141120842
 20
30.2160029547
 11
-27.5290410964
 21
30.1624164358
  0
LWPOLYLINE
  5
21C
100
AcDbEntity
  8
RACCORDO
100
AcDbPolyline
 62
7
  6
CONTINUOUS
 90
3
 70
0
 10
30.0854939589
 20
-56.5302357824
 10
30.1301138934
 20
-56.5505973684
 10
30.3690163972
 20
-56.642063664
  0
LINE
  5
21D
100
AcDbEntity
  8
RACCORDO
100
AcDbLine
 62
7
  6
CONTINUOUS
 10
28.8852899919
 20
-55.9511516668
 11
30.0881909278
 21
-56.5314735887
  0
LWPOLYLINE
  5
21E
100
AcDbEntity
  8
RACCORDO
100
AcDbPolyline
 62
7
  6
CONTINUOUS
 90
7
 70
0
 10
16.8995999791
 20
-49.9725323204
 10
19.0541630873
 20
-51.0474193008
 10
21.1440268887
 20
-52.0923443405
 10
23.1741976732
 20
-53.1043393522
 10
25.1372968749
 20
-54.0855520874
 10
27.034850428
 20
-55.0371433285
 10
28.8852899919
 20
-55.9511516668
  0
LINE
  5
21F
100
AcDbEntity
  8
RACCORDO
100
AcDbLine
 62
7
  6
CONTINUOUS
 10
12.7121349359
 20
-47.8876152901
 11
16.8995999791
 21
-49.9725323204
  0
LINE
  5
220
100
AcDbEntity
  8
RACCORDO
100
AcDbLine
 62
253
  6
CONTINUOUS
 10
-16.1877664664
 20
-33.2089727995
 11
12.803611596
 21
-47.7046619699
  0
LINE
  5
221
100
AcDbEntity
  8
RACCORDO
100
AcDbLine
 62
7
  6
CONTINUOUS
 10
-16.2792560665
 20
-33.3915845388
 11
12.7121349359
 21
-47.8876152901
  0
LINE
  5
222
100
AcDbEntity
  8
RACCORDO
100
AcDbLine
 62
7
  6
CONTINUOUS
 10
-19.8411181874
 20
-31.6053428076
 11
-16.2792560665
 21
-33.3915845388
  0
LWPOLYLINE
  5
223
100
AcDbEntity
  8
RACCORDO
100
AcDbPolyline
 62
7
  6
CONTINUOUS
 90
3
 70
0
 10
-31.7926232952
 20
-25.6091031012
 10
-29.9694751023
 20
-26.5345764676
 10
-19.8411181874
 20
-31.6053428076
  0
LINE
  5
224
100
AcDbEntity
  8
RACCORDO
100
AcDbLine
 62
7
  6
CONTINUOUS
 10
-32.9012840329
 20
-25.0368712404
 11
-31.7926232952
 21
-25.6091031012
  0
LINE
  5
225
100
AcDbEntity
  8
RACCORDO
100
AcDbLine
 62
253
  6
CONTINUOUS
 10
-32.9012840329
 20
-25.0368712404
 11
-32.8934401631
 21
-25.0411201571
  0
LINE
  5
226
100
AcDbEntity
  8
RACCORDO
100
AcDbLine
 62
7
  6
CONTINUOUS
 10
-33.1060785304
 20
-24.9143500787
 11
-32.8933381631
 21
-25.0409263947
  0
LWPOLYLINE
  5
227
100
AcDbEntity
  8
RACCORDO
100
AcDbPolyline
 62
7
  6
CONTINUOUS
 90
3
 70
0
 10
-34.6973484159
 20
-22.0670774214
 10
-34.6522502038
 20
-22.4554140377
 10
-34.5556007062
 20
-22.8644873897
  0
LWPOLYLINE
  5
228
100
AcDbEntity
  8
RACCORDO
100
AcDbPolyline
 62
7
  6
CONTINUOUS
 90
6
 70
0
 10
-34.8067436175
 20
-3.8310100999
 10
-34.7977594327
 20
-10.5813269517
 10
-34.7978927736
 20
-13.8025286953
 10
-34.792112111
 20
-16.9177352648
 10
-34.7637409496
 20
-19.9195539893
 10
-34.6970600637
 20
-22.0726379057
  0
LINE
  5
229
100
AcDbEntity
  8
RACCORDO
100
AcDbLine
 62
7
  6
CONTINUOUS
 10
-34.8112347319
 20
3.3371304364
 11
-34.8067436175
 21
-3.8310100999
  0
LINE
  5
22A
100
AcDbEntity
  8
RACCORDO
100
AcDbLine
 62
253
  6
CONTINUOUS
 10
-34.7455946536
 20
26.4575965664
 11
-34.7455946536
 21
6.1059995774
  0
LWPOLYLINE
  5
22B
100
AcDbEntity
  8
RACCORDO
100
AcDbPolyline
 62
7
  6
CONTINUOUS
 90
4
 70
0
 10
-34.7977125959
 20
43.5816911113
 10
-34.8066687554
 20
36.8222266479
 10
-34.8097072837
 20
33.287333709
 10
-34.8112347319
 20
3.3371304364
  0
LINE
  5
22C
100
AcDbEntity
  8
RACCORDO
100
AcDbLine
 62
253
  6
CONTINUOUS
 10
-29.8570444025
 20
22.1982952954
 11
-29.8570444025
 21
1.8466983065
  0
LINE
  5
22D
100
AcDbEntity
  8
RACCORDO
100
AcDbLine
 62
253
  6
CONTINUOUS
 10
-29.2075670985
 20
21.3907215821
 11
-29.2075670977
 21
1.0388565863
  0
LINE
  5
22E
100
AcDbEntity
  8
0
100
AcDbLine
 62
253
  6
CONTINUOUS
 10
-27.5294344309
 20
0.7174814719
 11
-27.5294344179
 21
21.068966307
  0
LINE
  5
22F
100
AcDbEntity
  8
0
100
AcDbLine
 62
7
  6
CONTINUOUS
 10
-25.6015993356
 20
29.3096007189
 11
-25.6015993356
 21
-7.4770297728
  0
LINE
  5
230
100
AcDbEntity
  8
RACCORDO
100
AcDbLine
 62
253
  6
CONTINUOUS
 10
-18.1508284733
 20
-16.3754019336
 11
10.8405495582
 21
-30.871091045
  0
LINE
  5
231
100
AcDbEntity
  8
RACCORDO
100
AcDbLine
 62
253
  6
CONTINUOUS
 10
-18.5678950357
 20
-15.1213636049
 11
10.4234740764
 21
-29.6170481531
  0
LINE
  5
232
100
AcDbEntity
  8
0
100
AcDbLine
 62
253
  6
CONTINUOUS
 10
10.966498886
 20
-27.9637271933
 11
-18.0248791082
 21
-13.4680381602
  0
LINE
  5
233
100
AcDbEntity
  8
0
100
AcDbLine
 62
7
  6
CONTINUOUS
 10
-25.3894673012
 20
-7.8429034111
 11
20.2033159417
 21
-30.6392950325
  0
LINE
  5
234
100
AcDbEntity
  8
DRAFT
100
AcDbLine
 62
7
  6
CONTINUOUS
 10
-17.411315456
 20
-11.6989458043
 11
-13.1443652045
 21
-13.83242093
  0
LINE
  5
235
100
AcDbEntity
  8
DRAFT
100
AcDbLine
 62
7
  6
CONTINUOUS
 10
14.4084896974
 20
-27.608848381
 11
18.6754399489
 21
-29.7423235067
  0
LINE
  5
236
100
AcDbEntity
  8
DRAFT
100
AcDbLine
 62
7
  6
CONTINUOUS
 10
-17.1880660528
 20
-11.5984384715
 11
-12.943350539
 21
-13.7207962284
  0
LINE
  5
237
100
AcDbEntity
  8
DRAFT
100
AcDbLine
 62
7
  6
CONTINUOUS
 10
14.6317391006
 20
-27.5083410482
 11
18.8764546144
 21
-29.6306988051
  0
LINE
  5
238
100
AcDbEntity
  8
DRAFT
100
AcDbLine
 62
7
  6
CONTINUOUS
 10
-17.0392331174
 20
-11.531433583
 11
-12.8093407619
 21
-13.6463797607
  0
LINE
  5
239
100
AcDbEntity
  8
DRAFT
100
AcDbLine
 62
7
  6
CONTINUOUS
 10
14.780572036
 20
-27.4413361597
 11
19.0104643915
 21
-29.5562823374
  0
LINE
  5
23A
100
AcDbEntity
  8
DRAFT
100
AcDbLine
 62
7
  6
CONTINUOUS
 10
-16.8159837142
 20
-11.4309262502
 11
-12.6083260964
 21
-13.5347550591
  0
LINE
  5
23B
100
AcDbEntity
  8
DRAFT
100
AcDbLine
 62
7
  6
CONTINUOUS
 10
15.0038214392
 20
-27.3408288269
 11
19.211479057
 21
-29.4446576358
  0
LINE
  5
23C
100
AcDbEntity
  8
DRAFT
100
AcDbLine
 62
7
  6
CONTINUOUS
 10
-16.6671507787
 20
-11.3639213617
 11
-12.4743163194
 21
-13.4603385914
  0
LINE
  5
23D
100
AcDbEntity
  8
DRAFT
100
AcDbLine
 62
7
  6
CONTINUOUS
 10
15.1526543747
 20
-27.2738239384
 11
19.345488834
 21
-29.3702411681
  0
LINE
  5
23E
100
AcDbEntity
  8
DRAFT
100
AcDbLine
 62
7
  6
CONTINUOUS
 10
-16.4439013755
 20
-11.263414029
 11
-12.2733016539
 21
-13.3487138898
  0
LINE
  5
23F
100
AcDbEntity
  8
DRAFT
100
AcDbLine
 62
7
  6
CONTINUOUS
 10
15.3759037779
 20
-27.1733166057
 11
19.5465034995
 21
-29.2586164665
  0
LINE
  5
240
100
AcDbEntity
  8
RACCORDO
100
AcDbLine
 62
253
  6
CONTINUOUS
 10
-16.2578602062
 20
-11.1796579183
 11
-12.1057894326
 21
-13.2556933051
  0
LINE
  5
241
100
AcDbEntity
  8
RACCORDO
100
AcDbLine
 62
253
  6
CONTINUOUS
 10
15.5619449472
 20
-27.089560495
 11
19.7140157208
 21
-29.1655958818
  0
LINE
  5
242
100
AcDbEntity
  8
RACCORDO
100
AcDbLine
 62
7
  6
CONTINUOUS
 10
-16.0739482144
 20
-11.1960113388
 11
-12.0216208257
 21
-13.2221750331
  0
LINE
  5
243
100
AcDbEntity
  8
RACCORDO
100
AcDbLine
 62
7
  6
CONTINUOUS
 10
15.745856939
 20
-27.1059139155
 11
19.7981843277
 21
-29.1320776098
  0
LINE
  5
244
100
AcDbEntity
  8
DRAFT
100
AcDbLine
 62
7
  6
CONTINUOUS
 10
-13.0438578717
 20
-13.9065123898
 11
-13.1443652045
 21
-13.83242093
  0
LINE
  5
245
100
AcDbEntity
  8
DRAFT
100
AcDbLine
 62
7
  6
CONTINUOUS
 10
-12.7088334292
 20
-13.7204712205
 11
-12.8093407619
 21
-13.6463797607
  0
LINE
  5
246
100
AcDbEntity
  8
DRAFT
100
AcDbLine
 62
7
  6
CONTINUOUS
 10
-12.3738089866
 20
-13.5344300512
 11
-12.4743163194
 21
-13.4603385914
  0
LINE
  5
247
100
AcDbEntity
  8
RACCORDO
100
AcDbLine
 62
7
  6
CONTINUOUS
 10
-12.0187363566
 20
-13.2236232009
 11
-12.0170404005
 21
-13.2265619712
  0
LINE
  5
248
100
AcDbEntity
  8
DRAFT
100
AcDbLine
 62
7
  6
CONTINUOUS
 10
18.7759472817
 20
-29.8164149665
 11
18.6754399489
 21
-29.7423235067
  0
LINE
  5
249
100
AcDbEntity
  8
DRAFT
100
AcDbLine
 62
7
  6
CONTINUOUS
 10
19.1109717242
 20
-29.6303737972
 11
19.0104643915
 21
-29.5562823374
  0
LINE
  5
24A
100
AcDbEntity
  8
DRAFT
100
AcDbLine
 62
7
  6
CONTINUOUS
 10
19.4459961667
 20
-29.4443326278
 11
19.345488834
 21
-29.3702411681
  0
LINE
  5
24B
100
AcDbEntity
  8
RACCORDO
100
AcDbLine
 62
253
  6
CONTINUOUS
 10
-12.0952691379
 20
-13.2498513196
 11
-12.0952691379
 21
-14.0252545212
  0
LINE
  5
24C
100
AcDbEntity
  8
RACCORDO
100
AcDbLine
 62
7
  6
CONTINUOUS
 10
-12.0182125855
 20
-13.2302685756
 11
-12.0182125855
 21
-13.9248849302
  0
LINE
  5
24D
100
AcDbEntity
  8
DRAFT
100
AcDbLine
 62
7
  6
CONTINUOUS
 10
-12.943350539
 20
-13.7207962284
 11
-13.0438578717
 21
-13.9065123898
  0
LINE
  5
24E
100
AcDbEntity
  8
DRAFT
100
AcDbLine
 62
7
  6
CONTINUOUS
 10
-12.6083260964
 20
-13.5347550591
 11
-12.7088334292
 21
-13.7204712205
  0
LINE
  5
24F
100
AcDbEntity
  8
DRAFT
100
AcDbLine
 62
7
  6
CONTINUOUS
 10
-12.2733016539
 20
-13.3487138898
 11
-12.3738089866
 21
-13.5344300512
  0
LINE
  5
250
100
AcDbEntity
  8
DRAFT
100
AcDbLine
 62
7
  6
CONTINUOUS
 10
-17.1880660528
 20
-11.5984384715
 11
-17.2996907544
 21
-11.7785959485
  0
LINE
  5
251
100
AcDbEntity
  8
DRAFT
100
AcDbLine
 62
7
  6
CONTINUOUS
 10
-16.8159837142
 20
-11.4309262502
 11
-16.9276084158
 21
-11.6110837272
  0
LINE
  5
252
100
AcDbEntity
  8
DRAFT
100
AcDbLine
 62
7
  6
CONTINUOUS
 10
-16.4439013755
 20
-11.263414029
 11
-16.5555260771
 21
-11.4435715059
  0
LINE
  5
253
100
AcDbEntity
  8
RACCORDO
100
AcDbLine
 62
253
  6
CONTINUOUS
 10
33.6185935888
 20
27.1365222974
 11
30.4718120079
 21
25.3611516844
  0
LINE
  5
254
100
AcDbEntity
  8
0
100
AcDbLine
 62
253
  6
CONTINUOUS
 10
-25.3894673012
 20
-7.8429034111
 11
-27.2524030245
 21
-8.8540472328
  0
LINE
  5
255
100
AcDbEntity
  8
RACCORDO
100
AcDbLine
 62
253
  6
CONTINUOUS
 10
35.7399139324
 20
23.4777859143
 11
32.4007568011
 21
21.9747426354
  0
LINE
  5
256
100
AcDbEntity
  8
0
100
AcDbLine
 62
253
  6
CONTINUOUS
 10
-25.6015993356
 20
-7.4770297728
 11
-27.5290411139
 21
-8.3757140407
  0
LINE
  5
257
100
AcDbEntity
  8
RACCORDO
100
AcDbLine
 62
253
  6
CONTINUOUS
 10
34.5751004256
 20
-18.665401134
 11
34.2726158829
 21
-18.5141588627
  0
LINE
  5
258
100
AcDbEntity
  8
RACCORDO
100
AcDbLine
 62
253
  6
CONTINUOUS
 10
34.2850272347
 20
-17.8498580756
 11
35.4163980846
 21
-18.4155435005
  0
LINE
  5
259
100
AcDbEntity
  8
RACCORDO
100
AcDbLine
 62
7
  6
CONTINUOUS
 10
34.4715895282
 20
-17.859578424
 11
35.6029603781
 21
-18.4252638489
  0
LINE
  5
25A
100
AcDbEntity
  8
RACCORDO
100
AcDbLine
 62
7
  6
CONTINUOUS
 10
-16.2578602062
 20
-11.1796579183
 11
-16.4439013755
 21
-11.263414029
  0
LINE
  5
25B
100
AcDbEntity
  8
DRAFT
100
AcDbLine
 62
7
  6
CONTINUOUS
 10
-16.6671507787
 20
-11.3639213617
 11
-16.8159837142
 21
-11.4309262502
  0
LINE
  5
25C
100
AcDbEntity
  8
DRAFT
100
AcDbLine
 62
7
  6
CONTINUOUS
 10
-17.0392331174
 20
-11.531433583
 11
-17.1880660528
 21
-11.5984384715
  0
LINE
  5
25D
100
AcDbEntity
  8
DRAFT
100
AcDbLine
 62
7
  6
CONTINUOUS
 10
-17.411315456
 20
-11.6989458043
 11
-17.5601483915
 21
-11.7659506928
  0
LINE
  5
25E
100
AcDbEntity
  8
RACCORDO
100
AcDbLine
 62
7
  6
CONTINUOUS
 10
19.8010687967
 20
-29.1335257776
 11
19.8027647529
 21
-29.1364645479
  0
LINE
  5
25F
100
AcDbEntity
  8
RACCORDO
100
AcDbLine
 62
253
  6
CONTINUOUS
 10
-12.0952691379
 20
-14.0252545212
 11
-12.4664525052
 21
-14.2397489901
  0
LINE
  5
260
100
AcDbEntity
  8
RACCORDO
100
AcDbLine
 62
7
  6
CONTINUOUS
 10
-12.1681120101
 20
-14.1846344581
 11
-12.4176295288
 21
-14.3288222973
  0
LINE
  5
261
100
AcDbEntity
  8
RACCORDO
100
AcDbLine
 62
7
  6
CONTINUOUS
 10
-12.0952691379
 20
-13.2498513196
 11
-12.2733016539
 21
-13.3487138898
  0
LINE
  5
262
100
AcDbEntity
  8
DRAFT
100
AcDbLine
 62
7
  6
CONTINUOUS
 10
-12.4743163194
 20
-13.4603385914
 11
-12.6083260964
 21
-13.5347550591
  0
LINE
  5
263
100
AcDbEntity
  8
DRAFT
100
AcDbLine
 62
7
  6
CONTINUOUS
 10
-12.8093407619
 20
-13.6463797607
 11
-12.943350539
 21
-13.7207962284
  0
LINE
  5
264
100
AcDbEntity
  8
DRAFT
100
AcDbLine
 62
7
  6
CONTINUOUS
 10
-13.1443652045
 20
-13.83242093
 11
-13.2783749815
 21
-13.9068373978
  0
LINE
  5
265
100
AcDbEntity
  8
0
100
AcDbLine
 62
7
  6
CONTINUOUS
 10
-27.6764752431
 20
30.3472351136
 11
19.7733405719
 21
6.6223359236
  0
LINE
  5
266
100
AcDbEntity
  8
RACCORDO
100
AcDbLine
 62
7
  6
CONTINUOUS
 10
-27.6771824109
 20
30.347589287
 11
-27.6746176999
 21
30.34629992
  0
LINE
  5
267
100
AcDbEntity
  8
RACCORDO
100
AcDbLine
 62
253
  6
CONTINUOUS
 10
10.423482993
 20
12.3636987557
 11
-18.5682673756
 21
26.8595739102
  0
LINE
  5
268
100
AcDbEntity
  8
RACCORDO
100
AcDbLine
 62
253
  6
CONTINUOUS
 10
10.8405495554
 20
14.0348036468
 11
-18.1508284733
 21
28.5304926611
  0
LWPOLYLINE
  5
269
100
AcDbEntity
  8
0
100
AcDbPolyline
 62
7
  6
CONTINUOUS
 90
21
 70
0
 10
19.7734125122
 20
6.6223004095
 10
19.779589804
 20
6.6189227725
 10
19.7913086579
 20
6.6118771703
 10
19.8085756665
 20
6.6002049355
 10
19.8302295119
 20
6.5836729426
 10
19.8552910425
 20
6.5622916058
 10
19.8835662035
 20
6.535505985
 10
19.9144905971
 20
6.502967172
 10
19.9471453158
 20
6.4648151492
 10
19.9808840846
 20
6.4210672358
 10
20.0151539018
 20
6.3715502891
 10
20.0487589695
 20
6.3172005972
 10
20.080689359
 20
6.2589631629
 10
20.1104832784
 20
6.19706238
 10
20.137340776
 20
6.1323755645
 10
20.1604472706
 20
6.0661814746
 10
20.1790681475
 20
6.0000469968
 10
20.1925180657
 20
5.9365201521
 10
20.2006013798
 20
5.8778439851
 10
20.203518405
 20
5.8269065331
 10
20.2035538432
 20
5.8209876926
  0
LINE
  5
26A
100
AcDbEntity
  8
RACCORDO
100
AcDbLine
 62
7
  6
CONTINUOUS
 10
20.2036460965
 20
-32.717979364
 11
20.2036453913
 21
-32.7175112347
  0
LINE
  5
26B
100
AcDbEntity
  8
RACCORDO
100
AcDbLine
 62
253
  6
CONTINUOUS
 10
19.7245360155
 20
-29.1597538963
 11
19.7245360155
 21
-29.9351570979
  0
LINE
  5
26C
100
AcDbEntity
  8
RACCORDO
100
AcDbLine
 62
7
  6
CONTINUOUS
 10
19.8015925679
 20
-29.1401711523
 11
19.8015925679
 21
-29.8347875069
  0
LINE
  5
26D
100
AcDbEntity
  8
RACCORDO
100
AcDbLine
 62
253
  6
CONTINUOUS
 10
21.1153050036
 20
-24.122311426
 11
21.1153049895
 21
-3.7703946989
  0
LINE
  5
26E
100
AcDbEntity
  8
RACCORDO
100
AcDbLine
 62
253
  6
CONTINUOUS
 10
22.7304522742
 20
-24.4470500486
 11
22.7304524298
 21
-4.0954531207
  0
LINE
  5
26F
100
AcDbEntity
  8
RACCORDO
100
AcDbLine
 62
7
  6
CONTINUOUS
 10
20.2035538432
 20
5.8209876859
 11
20.2035538882
 21
5.8212735758
  0
LINE
  5
270
100
AcDbEntity
  8
0
100
AcDbLine
 62
7
  6
CONTINUOUS
 10
20.2035538882
 20
5.8212735758
 11
20.2036453912
 21
-32.7175114886
  0
LWPOLYLINE
  5
271
100
AcDbEntity
  8
0
100
AcDbPolyline
 62
7
  6
CONTINUOUS
 90
4
 70
0
 10
20.2036458191
 20
-32.7174234029
 10
20.2032875193
 20
-32.735192391
 10
20.2016860076
 20
-32.7567124904
 10
20.1997845704
 20
-32.7698353353
  0
LINE
  5
272
100
AcDbEntity
  8
0
100
AcDbLine
 62
7
  6
CONTINUOUS
 10
20.1997845704
 20
-32.7698353353
 11
20.1990203132
 21
-32.7734640387
  0
LINE
  5
273
100
AcDbEntity
  8
DRAFT
100
AcDbLine
 62
7
  6
CONTINUOUS
 10
14.6317391006
 20
-27.5083410482
 11
14.520114399
 21
-27.6884985252
  0
LINE
  5
274
100
AcDbEntity
  8
DRAFT
100
AcDbLine
 62
7
  6
CONTINUOUS
 10
15.0038214392
 20
-27.3408288269
 11
14.8921967376
 21
-27.5209863039
  0
LINE
  5
275
100
AcDbEntity
  8
DRAFT
100
AcDbLine
 62
7
  6
CONTINUOUS
 10
15.3759037779
 20
-27.1733166057
 11
15.2642790763
 21
-27.3534740826
  0
LINE
  5
276
100
AcDbEntity
  8
RACCORDO
100
AcDbLine
 62
253
  6
CONTINUOUS
 10
31.2490551999
 20
-26.8913252817
 11
31.2490549717
 21
-6.5397282463
  0
LINE
  5
277
100
AcDbEntity
  8
RACCORDO
100
AcDbLine
 62
253
  6
CONTINUOUS
 10
32.275380952
 20
-26.7969587211
 11
32.2753805731
 21
-6.4442856992
  0
LINE
  5
278
100
AcDbEntity
  8
DRAFT
100
AcDbLine
 62
7
  6
CONTINUOUS
 10
18.8764546144
 20
-29.6306988051
 11
18.7759472817
 21
-29.8164149665
  0
LINE
  5
279
100
AcDbEntity
  8
DRAFT
100
AcDbLine
 62
7
  6
CONTINUOUS
 10
19.211479057
 20
-29.4446576358
 11
19.1109717242
 21
-29.6303737972
  0
LINE
  5
27A
100
AcDbEntity
  8
DRAFT
100
AcDbLine
 62
7
  6
CONTINUOUS
 10
19.5465034995
 20
-29.2586164665
 11
19.4459961667
 21
-29.4443326278
  0
LINE
  5
27B
100
AcDbEntity
  8
RACCORDO
100
AcDbLine
 62
7
  6
CONTINUOUS
 10
35.4163980846
 20
-11.9964405854
 11
34.5751004256
 21
-12.5040907666
  0
LINE
  5
27C
100
AcDbEntity
  8
RACCORDO
100
AcDbLine
 62
7
  6
CONTINUOUS
 10
15.5619449472
 20
-27.089560495
 11
15.3759037779
 21
-27.1733166057
  0
LINE
  5
27D
100
AcDbEntity
  8
DRAFT
100
AcDbLine
 62
7
  6
CONTINUOUS
 10
15.1526543747
 20
-27.2738239384
 11
15.0038214392
 21
-27.3408288269
  0
LINE
  5
27E
100
AcDbEntity
  8
DRAFT
100
AcDbLine
 62
7
  6
CONTINUOUS
 10
14.780572036
 20
-27.4413361597
 11
14.6317391006
 21
-27.5083410482
  0
LINE
  5
27F
100
AcDbEntity
  8
DRAFT
100
AcDbLine
 62
7
  6
CONTINUOUS
 10
14.4084896974
 20
-27.608848381
 11
14.2596567619
 21
-27.6758532695
  0
LINE
  5
280
100
AcDbEntity
  8
RACCORDO
100
AcDbLine
 62
7
  6
CONTINUOUS
 10
34.5751004256
 20
-18.665401134
 11
35.4163980846
 21
-18.4155435005
  0
LINE
  5
281
100
AcDbEntity
  8
RACCORDO
100
AcDbLine
 62
7
  6
CONTINUOUS
 10
34.2515845778
 20
-13.0790464737
 11
34.2515845778
 21
-18.3817404047
  0
LINE
  5
282
100
AcDbEntity
  8
RACCORDO
100
AcDbLine
 62
7
  6
CONTINUOUS
 10
35.7399139324
 20
-53.5984750225
 11
35.7399139324
 21
-18.6992042299
  0
LINE
  5
283
100
AcDbEntity
  8
RACCORDO
100
AcDbLine
 62
7
  6
CONTINUOUS
 10
35.7399139324
 20
-11.4214848784
 11
35.7399139324
 21
23.4777859143
  0
LINE
  5
284
100
AcDbEntity
  8
RACCORDO
100
AcDbLine
 62
253
  6
CONTINUOUS
 10
19.7245360155
 20
-29.9351570979
 11
19.3533526482
 21
-30.1496515668
  0
LINE
  5
285
100
AcDbEntity
  8
RACCORDO
100
AcDbLine
 62
7
  6
CONTINUOUS
 10
19.6516931433
 20
-30.0945370348
 11
19.4021756246
 21
-30.238724874
  0
LINE
  5
286
100
AcDbEntity
  8
RACCORDO
100
AcDbLine
 62
7
  6
CONTINUOUS
 10
19.7245360155
 20
-29.1597538963
 11
19.5465034995
 21
-29.2586164665
  0
LINE
  5
287
100
AcDbEntity
  8
DRAFT
100
AcDbLine
 62
7
  6
CONTINUOUS
 10
19.345488834
 20
-29.3702411681
 11
19.211479057
 21
-29.4446576358
  0
LINE
  5
288
100
AcDbEntity
  8
DRAFT
100
AcDbLine
 62
7
  6
CONTINUOUS
 10
19.0104643915
 20
-29.5562823374
 11
18.8764546144
 21
-29.6306988051
  0
LINE
  5
289
100
AcDbEntity
  8
DRAFT
100
AcDbLine
 62
7
  6
CONTINUOUS
 10
18.6754399489
 20
-29.7423235067
 11
18.5414301719
 21
-29.8167399745
  0
LINE
  5
28A
100
AcDbEntity
  8
0
100
AcDbLine
 62
7
  6
CONTINUOUS
 10
13.8425232592
 20
-32.5054789161
 11
13.884976403
 21
-32.4842523442
  0
LINE
  5
28B
100
AcDbEntity
  8
0
100
AcDbLine
 62
7
  6
CONTINUOUS
 10
14.3077480777
 20
-32.7377969937
 11
14.3502014192
 21
-32.7165703229
  0
LINE
  5
28C
100
AcDbEntity
  8
RACCORDO
100
AcDbLine
 62
253
  6
CONTINUOUS
 10
12.8036115623
 20
32.8314365196
 11
-16.1877664664
 21
47.3271255339
  0
LINE
  5
28D
100
AcDbEntity
  8
RACCORDO
100
AcDbLine
 62
253
  6
CONTINUOUS
 10
13.4542707657
 20
33.8199282167
 11
-15.5371076878
 21
48.3156174434
  0
LINE
  5
28E
100
AcDbEntity
  8
0
100
AcDbLine
 62
7
  6
CONTINUOUS
 10
15.1015780007
 20
-33.1344948427
 11
15.1440315096
 21
-33.1132680883
  0
LINE
  5
28F
100
AcDbEntity
  8
0
100
AcDbLine
 62
7
  6
CONTINUOUS
 10
15.5293149953
 20
-33.3483255389
 11
15.5717685524
 21
-33.3270987603
  0
LINE
  5
290
100
AcDbEntity
  8
0
100
AcDbLine
 62
7
  6
CONTINUOUS
 10
15.6881516438
 20
-33.4275847301
 11
15.7306052231
 21
-33.4063579405
  0
LINE
  5
291
100
AcDbEntity
  8
0
100
AcDbLine
 62
7
  6
CONTINUOUS
 10
16.116194817
 20
-33.6415550792
 11
16.1586485101
 21
-33.6203282326
  0
LINE
  5
292
100
AcDbEntity
  8
0
100
AcDbLine
 62
7
  6
CONTINUOUS
 10
16.5318289771
 20
-33.8494256443
 11
16.5742828673
 21
-33.8281986992
  0
LINE
  5
293
100
AcDbEntity
  8
0
100
AcDbLine
 62
7
  6
CONTINUOUS
 10
16.9596349016
 20
-34.0631603573
 11
17.0020890869
 21
-34.0419332646
  0
LINE
  5
294
100
AcDbEntity
  8
0
100
AcDbLine
 62
7
  6
CONTINUOUS
 10
14.970555912
 20
-35.4798096247
 11
15.0130648921
 21
-35.4585551347
  0
LINE
  5
295
100
AcDbEntity
  8
0
100
AcDbLine
 62
7
  6
CONTINUOUS
 10
17.8119168197
 20
-34.4884820288
 11
17.8543717659
 21
-34.4672545557
  0
LINE
  5
296
100
AcDbEntity
  8
0
100
AcDbLine
 62
7
  6
CONTINUOUS
 10
18.2362534674
 20
-34.6997695506
 11
18.2787089923
 21
-34.6785417882
  0
LINE
  5
297
100
AcDbEntity
  8
0
100
AcDbLine
 62
7
  6
CONTINUOUS
 10
16.2166778913
 20
-36.1026382566
 11
16.2591867048
 21
-36.0813838498
  0
LINE
  5
298
100
AcDbEntity
  8
0
100
AcDbLine
 62
7
  6
CONTINUOUS
 10
19.142086568
 20
-35.1489161921
 11
19.1845443175
 21
-35.1276873174
  0
LINE
  5
299
100
AcDbEntity
  8
0
100
AcDbLine
 62
7
  6
CONTINUOUS
 10
16.8571029074
 20
-36.4222753611
 11
16.8996121691
 21
-36.4010207303
  0
LINE
  5
29A
100
AcDbEntity
  8
0
100
AcDbLine
 62
7
  6
CONTINUOUS
 10
19.5591713397
 20
-35.3544046256
 11
19.6016309065
 21
-35.3331748422
  0
LINE
  5
29B
100
AcDbEntity
  8
SUPERFICI
100
AcDbLine
 62
7
  6
CONTINUOUS
 10
33.6185935888
 20
27.1365222974
 11
-29.3139099368
 21
58.6027740602
  0
LINE
  5
29C
100
AcDbEntity
  8
0
100
AcDbLine
 62
7
  6
CONTINUOUS
 10
17.5127022823
 20
-36.7489475474
 11
17.5552123588
 21
-36.7276925092
  0
LINE
  5
29D
100
AcDbEntity
  8
0
100
AcDbLine
 62
7
  6
CONTINUOUS
 10
20.3240873894
 20
-35.7560669576
 11
20.3665533061
 21
-35.7348339993
  0
LINE
  5
29E
100
AcDbEntity
  8
0
100
AcDbLine
 62
7
  6
CONTINUOUS
 10
19.1891315589
 20
-36.7331983933
 11
19.2316222911
 21
-36.7119530272
  0
LINE
  5
29F
100
AcDbEntity
  8
0
100
AcDbLine
 62
7
  6
CONTINUOUS
 10
18.5315899603
 20
-37.2550073341
 11
18.5741020119
 21
-37.2337513082
  0
LINE
  5
2A0
100
AcDbEntity
  8
0
100
AcDbLine
 62
253
  6
CONTINUOUS
 10
21.4093953118
 20
-36.2967183766
 11
21.4518872781
 21
-36.2754723928
  0
LINE
  5
2A1
100
AcDbEntity
  8
0
100
AcDbLine
 62
7
  6
CONTINUOUS
 10
19.0249893639
 20
-37.4988622546
 11
19.0675026919
 21
-37.4776055906
  0
LINE
  5
2A2
100
AcDbEntity
  8
0
100
AcDbLine
 62
7
  6
CONTINUOUS
 10
20.7844352593
 20
-37.0258013489
 11
20.8269267873
 21
-37.004555585
  0
LINE
  5
2A3
100
AcDbEntity
  8
0
100
AcDbLine
 62
253
  6
CONTINUOUS
 10
21.0351119353
 20
-37.1450559107
 11
21.0776076473
 21
-37.1238080547
  0
LINE
  5
2A4
100
AcDbEntity
  8
0
100
AcDbLine
 62
7
  6
CONTINUOUS
 10
21.4552568835
 20
-37.5393510784
 11
21.497765687
 21
-37.5180960434
  0
LINE
  5
2A5
100
AcDbEntity
  8
0
100
AcDbLine
 62
7
  6
CONTINUOUS
 10
20.3017398355
 20
-38.1233967005
 11
20.3442593292
 21
-38.1021369537
  0
LINE
  5
2A6
100
AcDbEntity
  8
0
100
AcDbLine
 62
7
  6
CONTINUOUS
 10
21.585166215
 20
-37.5563274597
 11
21.6276789658
 21
-37.5350710842
  0
LINE
  5
2A7
100
AcDbEntity
  8
0
100
AcDbLine
 62
7
  6
CONTINUOUS
 10
20.8642151744
 20
-38.3941070186
 11
20.9067397648
 21
-38.3728447234
  0
LINE
  5
2A8
100
AcDbEntity
  8
0
100
AcDbLine
 62
253
  6
CONTINUOUS
 10
21.7796649736
 20
-38.1772883571
 11
21.8221928708
 21
-38.1560244085
  0
LINE
  5
2A9
100
AcDbEntity
  8
0
100
AcDbLine
 62
7
  6
CONTINUOUS
 10
21.9647253158
 20
-38.9109399808
 11
22.0072713347
 21
-38.8896669714
  0
LINE
  5
2AA
100
AcDbEntity
  8
RACCORDO
100
AcDbLine
 62
253
  6
CONTINUOUS
 10
35.7399139324
 20
-53.5984750225
 11
32.4050512292
 21
-55.0998369551
  0
LINE
  5
2AB
100
AcDbEntity
  8
RACCORDO
100
AcDbLine
 62
253
  6
CONTINUOUS
 10
31.6633353266
 20
-56.6075699362
 11
31.6644523591
 21
-56.6070938367
  0
LINE
  5
2AC
100
AcDbEntity
  8
SUPERFICI
100
AcDbLine
 62
7
  6
CONTINUOUS
 10
34.8924242312
 20
-55.2522366681
 11
31.6581683216
 21
-56.6097523239
  0
ARC
  5
2AD
100
AcDbEntity
  8
0
100
AcDbCircle
 62
7
  6
CONTINUOUS
 10
57.0269614357
 20
38.8339866285
 40
84.0727550139
100
AcDbArc
 50
244.4635462541
 51
244.652729778
  0
ARC
  5
2AE
100
AcDbEntity
  8
0
100
AcDbCircle
 62
7
  6
CONTINUOUS
 10
56.4044700664
 20
37.4571504615
 40
82.5245816807
100
AcDbArc
 50
244.5262812756
 51
244.6544264363
  0
ARC
  5
2AF
100
AcDbEntity
  8
0
100
AcDbCircle
 62
7
  6
CONTINUOUS
 10
50.3077528471
 20
22.7497909829
 40
67.8628982038
100
AcDbArc
 50
244.9160955442
 51
245.3136073171
  0
ARC
  5
2B0
100
AcDbEntity
  8
0
100
AcDbCircle
 62
7
  6
CONTINUOUS
 10
-21.592068431
 20
-49.2282778618
 40
44.7574756602
100
AcDbArc
 50
13.9703227019
 51
14.2946328224
  0
ARC
  5
2B1
100
AcDbEntity
  8
RACCORDO
100
AcDbCircle
 62
253
  6
CONTINUOUS
 10
-15.4345279448
 20
6.809630062
 40
36.0791107212
100
AcDbArc
 50
240.5969265383
 51
241.9778899267
  0
ARC
  5
2B2
100
AcDbEntity
  8
0
100
AcDbCircle
 62
7
  6
CONTINUOUS
 10
-10.7467999797
 20
-46.4715392833
 40
33.6137930452
100
AcDbArc
 50
14.1113803286
 51
14.3227653498
  0
ARC
  5
2B3
100
AcDbEntity
  8
0
100
AcDbCircle
 62
7
  6
CONTINUOUS
 10
44.6612418696
 20
-32.9978700178
 40
23.4541309808
100
AcDbArc
 50
194.2955849669
 51
194.6025300167
  0
ARC
  5
2B4
100
AcDbEntity
  8
RACCORDO
100
AcDbCircle
 62
253
  6
CONTINUOUS
 10
-24.0129782859
 20
-7.1088236164
 40
5.8549091014
100
AcDbArc
 50
208.3159975427
 51
209.5058334795
  0
ARC
  5
2B5
100
AcDbEntity
  8
0
100
AcDbCircle
 62
7
  6
CONTINUOUS
 10
15.8464662269
 20
-39.6310050809
 40
5.7349286213
100
AcDbArc
 50
16.3010105659
 51
17.7857085292
  0
ARC
  5
2B6
100
AcDbEntity
  8
RACCORDO
100
AcDbCircle
 62
253
  6
CONTINUOUS
 10
-24.165321127
 20
-7.1957209891
 40
5.6795262979
100
AcDbArc
 50
209.4998152783
 51
211.9137177179
  0
ARC
  5
2B7
100
AcDbEntity
  8
0
100
AcDbCircle
 62
7
  6
CONTINUOUS
 10
16.409367018
 20
-39.5445308566
 40
5.5416109737
100
AcDbArc
 50
14.2836764584
 51
15.1062279992
  0
ARC
  5
2B8
100
AcDbEntity
  8
RACCORDO
100
AcDbCircle
 62
253
  6
CONTINUOUS
 10
-31.1454978208
 20
-21.9265256474
 40
3.4000435182
100
AcDbArc
 50
204.9225651306
 51
213.0592853773
  0
ARC
  5
2B9
100
AcDbEntity
  8
RACCORDO
100
AcDbCircle
 62
253
  6
CONTINUOUS
 10
17.1498093847
 20
-35.5302219056
 40
2.9122409011
100
AcDbArc
 50
0.9986794765
 51
4.3343619144
  0
ARC
  5
2BA
100
AcDbEntity
  8
RACCORDO
100
AcDbCircle
 62
253
  6
CONTINUOUS
 10
-28.6428208374
 20
30.6933582373
 40
2.787050983
100
AcDbArc
 50
62.0665305275
 51
64.1632570311
  0
ARC
  5
2BB
100
AcDbEntity
  8
RACCORDO
100
AcDbCircle
 62
253
  6
CONTINUOUS
 10
-32.0366831131
 20
-22.1505091882
 40
2.4787853627
100
AcDbArc
 50
185.0226070062
 51
190.1076103023
  0
ARC
  5
2BC
100
AcDbEntity
  8
RACCORDO
100
AcDbCircle
 62
253
  6
CONTINUOUS
 10
-31.0482435168
 20
20.2812143991
 40
2.257023405
100
AcDbArc
 50
54.5511162559
 51
58.1447987921
  0
ARC
  5
2BD
100
AcDbEntity
  8
RACCORDO
100
AcDbCircle
 62
253
  6
CONTINUOUS
 10
-32.4691145228
 20
54.6540881512
 40
2.0441954731
100
AcDbArc
 50
173.0574759629
 51
175.1367073313
  0
ARC
  5
2BE
100
AcDbEntity
  8
0
100
AcDbCircle
 62
7
  6
CONTINUOUS
 10
20.1821468384
 20
-37.7096498809
 40
1.8715005347
100
AcDbArc
 50
49.0229700621
 51
53.2778194197
  0
ARC
  5
2BF
100
AcDbEntity
  8
RACCORDO
100
AcDbCircle
 62
253
  6
CONTINUOUS
 10
21.0784037018
 20
-33.9163656969
 40
1.8285128191
100
AcDbArc
 50
264.4984940661
 51
266.9919918712
  0
ARC
  5
2C0
100
AcDbEntity
  8
RACCORDO
100
AcDbCircle
 62
253
  6
CONTINUOUS
 10
29.5787091278
 20
-55.2111083736
 40
1.5702791404
100
AcDbArc
 50
357.8914774542
 51
0.8325550551
  0
ARC
  5
2C1
100
AcDbEntity
  8
RACCORDO
100
AcDbCircle
 62
253
  6
CONTINUOUS
 10
-28.0284624716
 20
31.2347493324
 40
1.1829283659
100
AcDbArc
 50
291.2756286142
 51
294.9729747686
  0
ARC
  5
2C2
100
AcDbEntity
  8
RACCORDO
100
AcDbCircle
 62
253
  6
CONTINUOUS
 10
20.6419902121
 20
-33.3998981069
 40
0.9364371116
100
AcDbArc
 50
118.5580089371
 51
122.9801328672
  0
ARC
  5
2C3
100
AcDbEntity
  8
0
100
AcDbCircle
 62
7
  6
CONTINUOUS
 10
20.6818599736
 20
-37.0225014257
 40
0.6705646631
100
AcDbArc
 50
52.6485146892
 51
59.1460343889
  0
ARC
  5
2C4
100
AcDbEntity
  8
0
100
AcDbCircle
 62
7
  6
CONTINUOUS
 10
21.179185095
 20
-36.8964236253
 40
0.2490414757
100
AcDbArc
 50
245.9286713929
 51
258.2066961849
  0
ARC
  5
2C5
100
AcDbEntity
  8
RACCORDO
100
AcDbCircle
 62
253
  6
CONTINUOUS
 10
106.4169770826
 20
-28.5150813184
 40
95.5995421135
100
AcDbArc
 50
184.9110895256
 51
185.1712866811
  0
ARC
  5
2C6
100
AcDbEntity
  8
RACCORDO
100
AcDbCircle
 62
253
  6
CONTINUOUS
 10
105.7088531526
 20
-28.5793515525
 40
94.8885072814
100
AcDbArc
 50
185.2345094962
 51
185.405784369
  0
ARC
  5
2C7
100
AcDbEntity
  8
RACCORDO
100
AcDbCircle
 62
253
  6
CONTINUOUS
 10
105.2195119514
 20
-28.62578166
 40
94.3969682167
100
AcDbArc
 50
185.4465992928
 51
185.5860925548
  0
ARC
  5
2C8
100
AcDbEntity
  8
RACCORDO
100
AcDbCircle
 62
253
  6
CONTINUOUS
 10
104.7178666237
 20
-28.6751307118
 40
93.8929012474
100
AcDbArc
 50
185.6521361324
 51
185.7888236347
  0
ARC
  5
2C9
100
AcDbEntity
  8
RACCORDO
100
AcDbCircle
 62
253
  6
CONTINUOUS
 10
104.150848577
 20
-28.7330256076
 40
93.3229351355
100
AcDbArc
 50
185.8238194214
 51
186.0671054986
  0
ARC
  5
2CA
100
AcDbEntity
  8
RACCORDO
100
AcDbCircle
 62
253
  6
CONTINUOUS
 10
103.6449057269
 20
-28.7867459911
 40
92.8141482999
100
AcDbArc
 50
186.0671395918
 51
186.2428117833
  0
ARC
  5
2CB
100
AcDbEntity
  8
RACCORDO
100
AcDbCircle
 62
253
  6
CONTINUOUS
 10
74.6047561727
 20
-14.2960798785
 40
92.7651313504
100
AcDbArc
 50
186.06716699
 51
186.2354809746
  0
ARC
  5
2CC
100
AcDbEntity
  8
RACCORDO
100
AcDbCircle
 62
253
  6
CONTINUOUS
 10
71.5904426775
 20
-14.6463310061
 40
89.7306107437
100
AcDbArc
 50
186.2222126657
 51
188.4437972202
  0
ARC
  5
2CD
100
AcDbEntity
  8
RACCORDO
100
AcDbCircle
 62
253
  6
CONTINUOUS
 10
68.8958632141
 20
-15.034239087
 40
87.0082800436
100
AcDbArc
 50
188.5126309157
 51
188.6425096768
  0
ARC
  5
2CE
100
AcDbEntity
  8
RACCORDO
100
AcDbCircle
 62
253
  6
CONTINUOUS
 10
68.1789833402
 20
-15.143964661
 40
86.283051886
100
AcDbArc
 50
188.6420083815
 51
189.1331808904
  0
ARC
  5
2CF
100
AcDbEntity
  8
RACCORDO
100
AcDbCircle
 62
253
  6
CONTINUOUS
 10
64.110856805
 20
-15.8332220819
 40
82.157099302
100
AcDbArc
 50
189.1089214761
 51
192.2099341611
  0
ARC
  5
2D0
100
AcDbEntity
  8
0
100
AcDbCircle
 62
7
  6
CONTINUOUS
 10
65.5301080633
 20
-26.8641961783
 40
45.5601712789
100
AcDbArc
 50
194.7183137017
 51
195.0739381391
  0
ARC
  5
2D1
100
AcDbEntity
  8
0
100
AcDbCircle
 62
7
  6
CONTINUOUS
 10
90.1838581851
 20
106.1757352522
 40
160.3301280089
100
AcDbArc
 50
244.0085253647
 51
244.1597207002
  0
ARC
  5
2D2
100
AcDbEntity
  8
RACCORDO
100
AcDbCircle
 62
253
  6
CONTINUOUS
 10
108.6675153117
 20
24.6265501275
 40
126.8902988784
100
AcDbArc
 50
173.6544287866
 51
174.473371188
  0
ARC
  5
2D3
100
AcDbEntity
  8
0
100
AcDbCircle
 62
7
  6
CONTINUOUS
 10
73.0178992148
 20
70.6739500898
 40
120.8960259102
100
AcDbArc
 50
244.2538825326
 51
244.4062652731
  0
ARC
  5
2D4
100
AcDbEntity
  8
RACCORDO
100
AcDbCircle
 62
253
  6
CONTINUOUS
 10
101.9928086688
 20
25.2189114106
 40
120.1895436093
100
AcDbArc
 50
174.486869297
 51
178.4211265433
  0
ARC
  5
2D5
100
AcDbEntity
  8
0
100
AcDbCircle
 62
7
  6
CONTINUOUS
 10
118.8694539837
 20
-61.5881433177
 40
107.1292167785
100
AcDbArc
 50
164.9109509918
 51
165.3026786584
  0
ARC
  5
2D6
100
AcDbEntity
  8
0
100
AcDbCircle
 62
7
  6
CONTINUOUS
 10
118.8541738065
 20
-61.5494751278
 40
107.0689274237
100
AcDbArc
 50
164.9114642494
 51
165.3030434763
  0
ARC
  5
2D7
100
AcDbEntity
  8
0
100
AcDbCircle
 62
7
  6
CONTINUOUS
 10
118.4127442823
 20
-57.3874122032
 40
106.1197475502
100
AcDbArc
 50
166.84859935
 51
167.2011640329
  0
ARC
  5
2D8
100
AcDbEntity
  8
0
100
AcDbCircle
 62
7
  6
CONTINUOUS
 10
116.7133780016
 20
-61.0221552848
 40
104.9000900678
100
AcDbArc
 50
165.3029215934
 51
165.5037951091
  0
ARC
  5
2D9
100
AcDbEntity
  8
0
100
AcDbCircle
 62
7
  6
CONTINUOUS
 10
116.6942567693
 20
-60.9824934954
 40
104.8358332527
100
AcDbArc
 50
165.3032869879
 51
165.5043722644
  0
ARC
  5
2DA
100
AcDbEntity
  8
0
100
AcDbCircle
 62
7
  6
CONTINUOUS
 10
119.3720224437
 20
-61.7508545649
 40
103.6994996551
100
AcDbArc
 50
166.1487584579
 51
166.2897825014
  0
ARC
  5
2DB
100
AcDbEntity
  8
0
100
AcDbCircle
 62
7
  6
CONTINUOUS
 10
115.8201654964
 20
-56.800120918
 40
103.4614824984
100
AcDbArc
 50
167.2002606867
 51
167.6265209864
  0
ARC
  5
2DC
100
AcDbEntity
  8
0
100
AcDbCircle
 62
7
  6
CONTINUOUS
 10
114.4399189258
 20
-60.4343639665
 40
102.55187483
100
AcDbArc
 50
165.5037926644
 51
165.7098470473
  0
ARC
  5
2DD
100
AcDbEntity
  8
0
100
AcDbCircle
 62
7
  6
CONTINUOUS
 10
114.4171505232
 20
-60.3937850011
 40
102.4838573712
100
AcDbArc
 50
165.5043691049
 51
165.7108398769
  0
ARC
  5
2DE
100
AcDbEntity
  8
0
100
AcDbCircle
 62
7
  6
CONTINUOUS
 10
112.5181101188
 20
-59.9445561315
 40
100.5686298322
100
AcDbArc
 50
165.7100108224
 51
165.8692638612
  0
ARC
  5
2DF
100
AcDbEntity
  8
0
100
AcDbCircle
 62
7
  6
CONTINUOUS
 10
112.2280246016
 20
-59.8362305503
 40
100.2248444748
100
AcDbArc
 50
165.7108367206
 51
165.9227516323
  0
ARC
  5
2E0
100
AcDbEntity
  8
0
100
AcDbCircle
 62
7
  6
CONTINUOUS
 10
118.5533593425
 20
-38.704496076
 40
102.1364022182
100
AcDbArc
 50
178.3812210463
 51
178.6048705181
  0
ARC
  5
2E1
100
AcDbEntity
  8
0
100
AcDbCircle
 62
7
  6
CONTINUOUS
 10
124.5066876662
 20
-70.1033579424
 40
112.481972702
100
AcDbArc
 50
161.7462678757
 51
161.952759755
  0
ARC
  5
2E2
100
AcDbEntity
  8
0
100
AcDbCircle
 62
7
  6
CONTINUOUS
 10
124.3913799292
 20
-70.8352593473
 40
112.1826001673
100
AcDbArc
 50
161.5898863396
 51
161.9490698495
  0
ARC
  5
2E3
100
AcDbEntity
  8
0
100
AcDbCircle
 62
7
  6
CONTINUOUS
 10
124.3713604901
 20
-70.7910949873
 40
112.1160664188
100
AcDbArc
 50
161.7103131669
 51
161.8300645664
  0
ARC
  5
2E4
100
AcDbEntity
  8
0
100
AcDbCircle
 62
7
  6
CONTINUOUS
 10
124.1145674868
 20
-70.7071199825
 40
111.8458917275
100
AcDbArc
 50
161.8299161366
 51
162.0710722593
  0
ARC
  5
2E5
100
AcDbEntity
  8
0
100
AcDbCircle
 62
7
  6
CONTINUOUS
 10
127.1168862024
 20
-63.7123060544
 40
111.6889633874
100
AcDbArc
 50
165.2139823697
 51
165.3680547196
  0
ARC
  5
2E6
100
AcDbEntity
  8
0
100
AcDbCircle
 62
7
  6
CONTINUOUS
 10
125.8899000103
 20
-63.392094509
 40
110.4208819489
100
AcDbArc
 50
165.3679919385
 51
165.5569388829
  0
ARC
  5
2E7
100
AcDbEntity
  8
0
100
AcDbCircle
 62
7
  6
CONTINUOUS
 10
122.0751153928
 20
-70.0831129824
 40
109.7472770538
100
AcDbArc
 50
161.9477144716
 51
162.3178835641
  0
ARC
  5
2E8
100
AcDbEntity
  8
0
100
AcDbCircle
 62
7
  6
CONTINUOUS
 10
122.0443735333
 20
-70.0367124179
 40
109.6698519814
100
AcDbArc
 50
162.0713698544
 51
162.1948895511
  0
ARC
  5
2E9
100
AcDbEntity
  8
0
100
AcDbCircle
 62
7
  6
CONTINUOUS
 10
124.5696973416
 20
-63.0520718987
 40
109.0575953092
100
AcDbArc
 50
165.5569360106
 51
165.7495583379
  0
ARC
  5
2EA
100
AcDbEntity
  8
0
100
AcDbCircle
 62
7
  6
CONTINUOUS
 10
120.3731992242
 20
-61.9926525746
 40
108.6864183398
100
AcDbArc
 50
164.7191769075
 51
164.9114213131
  0
ARC
  5
2EB
100
AcDbEntity
  8
0
100
AcDbCircle
 62
7
  6
CONTINUOUS
 10
120.2685252895
 20
-61.9297661223
 40
108.5335128218
100
AcDbArc
 50
164.7550146378
 51
164.9119875884
  0
ARC
  5
2EC
100
AcDbEntity
  8
0
100
AcDbCircle
 62
7
  6
CONTINUOUS
 10
120.535949399
 20
-69.552263876
 40
108.0855433755
100
AcDbArc
 50
162.1948886018
 51
162.3205910299
  0
ARC
  5
2ED
100
AcDbEntity
  8
0
100
AcDbCircle
 62
7
  6
CONTINUOUS
 10
124.8458842608
 20
-59.4466643603
 40
108.0705830823
100
AcDbArc
 50
167.4294414676
 51
167.8675378974
  0
ARC
  5
2EE
100
AcDbEntity
  8
0
100
AcDbCircle
 62
7
  6
CONTINUOUS
 10
124.8395585598
 20
-59.4131717746
 40
108.0202856937
100
AcDbArc
 50
167.5026702672
 51
167.7948653223
  0
ARC
  5
2EF
100
AcDbEntity
  8
0
100
AcDbCircle
 62
7
  6
CONTINUOUS
 10
122.9200116924
 20
-62.6333102283
 40
107.3555894243
100
AcDbArc
 50
165.749445236
 51
165.9464579865
  0
ARC
  5
2F0
100
AcDbEntity
  8
0
100
AcDbCircle
 62
7
  6
CONTINUOUS
 10
120.9693778292
 20
-62.1450345449
 40
105.3447722742
100
AcDbArc
 50
165.9464534668
 51
166.1485911766
  0
ARC
  5
2F1
100
AcDbEntity
  8
0
100
AcDbCircle
 62
7
  6
CONTINUOUS
 10
119.7442868143
 20
-59.2561563576
 40
103.0425004146
100
AcDbArc
 50
167.5655012272
 51
167.7693988509
  0
ARC
  5
2F2
100
AcDbEntity
  8
0
100
AcDbCircle
 62
7
  6
CONTINUOUS
 10
126.0369959053
 20
-30.1684715524
 40
110.3969621346
100
AcDbArc
 50
181.6917183333
 51
181.8096599168
  0
ARC
  5
2F3
100
AcDbEntity
  8
0
100
AcDbCircle
 62
7
  6
CONTINUOUS
 10
126.4121669172
 20
-30.3770996632
 40
110.3442709464
100
AcDbArc
 50
181.695301538
 51
181.9066734269
  0
ARC
  5
2F4
100
AcDbEntity
  8
0
100
AcDbCircle
 62
7
  6
CONTINUOUS
 10
126.4209529953
 20
-30.3550221574
 40
110.3106432496
100
AcDbArc
 50
181.6962605232
 51
181.8212720058
  0
ARC
  5
2F5
100
AcDbEntity
  8
0
100
AcDbCircle
 62
7
  6
CONTINUOUS
 10
126.3112777188
 20
-30.3804589703
 40
110.2433258361
100
AcDbArc
 50
181.9066730613
 51
182.1189528658
  0
ARC
  5
2F6
100
AcDbEntity
  8
0
100
AcDbCircle
 62
7
  6
CONTINUOUS
 10
126.3154697399
 20
-30.3584300616
 40
110.2051049718
100
AcDbArc
 50
181.8212440712
 51
182.1199804267
  0
ARC
  5
2F7
100
AcDbEntity
  8
0
100
AcDbCircle
 62
7
  6
CONTINUOUS
 10
126.2081096697
 20
-30.384276856
 40
110.1400871679
100
AcDbArc
 50
182.1189524957
 51
182.3321494463
  0
ARC
  5
2F8
100
AcDbEntity
  8
0
100
AcDbCircle
 62
7
  6
CONTINUOUS
 10
126.1856926303
 20
-30.3632025623
 40
110.0752401423
100
AcDbArc
 50
182.1199968261
 51
182.3333021234
  0
ARC
  5
2F9
100
AcDbEntity
  8
0
100
AcDbCircle
 62
7
  6
CONTINUOUS
 10
125.6964337109
 20
-30.1796300258
 40
110.0562174197
100
AcDbArc
 50
181.8094526112
 51
182.3291187135
  0
ARC
  5
2FA
100
AcDbEntity
  8
0
100
AcDbCircle
 62
7
  6
CONTINUOUS
 10
125.3041447338
 20
-30.3996046307
 40
109.1929411168
100
AcDbArc
 50
182.3330492997
 51
182.5488359905
  0
ARC
  5
2FB
100
AcDbEntity
  8
0
100
AcDbCircle
 62
7
  6
CONTINUOUS
 10
124.6093177113
 20
-30.2239337405
 40
108.9681990339
100
AcDbArc
 50
182.3290728847
 51
182.5452924214
  0
ARC
  5
2FC
100
AcDbEntity
  8
0
100
AcDbCircle
 62
7
  6
CONTINUOUS
 10
123.7066136731
 20
-30.4907210215
 40
107.6363317352
100
AcDbArc
 50
182.3297199861
 51
182.9886286688
  0
ARC
  5
2FD
100
AcDbEntity
  8
0
100
AcDbCircle
 62
7
  6
CONTINUOUS
 10
123.6830185274
 20
-30.4717731785
 40
107.5702093225
100
AcDbArc
 50
182.5488337567
 51
182.7686479964
  0
ARC
  5
2FE
100
AcDbEntity
  8
0
100
AcDbCircle
 62
7
  6
CONTINUOUS
 10
123.8072511022
 20
-37.0486541352
 40
106.9520467949
100
AcDbArc
 50
178.8299350463
 51
179.2431826364
  0
ARC
  5
2FF
100
AcDbEntity
  8
0
100
AcDbCircle
 62
7
  6
CONTINUOUS
 10
123.1025830113
 20
-38.8474793211
 40
106.6878911752
100
AcDbArc
 50
177.4067413275
 51
177.7359344792
  0
ARC
  5
300
100
AcDbEntity
  8
0
100
AcDbCircle
 62
7
  6
CONTINUOUS
 10
123.5112837787
 20
-37.0197315225
 40
106.61352009
100
AcDbArc
 50
178.9690606788
 51
179.2474536281
  0
ARC
  5
301
100
AcDbEntity
  8
0
100
AcDbCircle
 62
7
  6
CONTINUOUS
 10
123.0183526707
 20
-38.8441213413
 40
106.60359393
100
AcDbArc
 50
177.7359494364
 51
177.947838439
  0
ARC
  5
302
100
AcDbEntity
  8
0
100
AcDbCircle
 62
7
  6
CONTINUOUS
 10
122.2433646494
 20
-30.3306154513
 40
106.5998425239
100
AcDbArc
 50
182.5444826681
 51
182.9887538359
  0
ARC
  5
303
100
AcDbEntity
  8
0
100
AcDbCircle
 62
7
  6
CONTINUOUS
 10
122.1018193037
 20
-30.5482435825
 40
105.9871620371
100
AcDbArc
 50
182.7686457652
 51
182.9925300513
  0
ARC
  5
304
100
AcDbEntity
  8
0
100
AcDbCircle
 62
7
  6
CONTINUOUS
 10
122.0718299466
 20
-38.8107502324
 40
105.6564832718
100
AcDbArc
 50
177.9475430963
 51
178.1621318712
  0
ARC
  5
305
100
AcDbEntity
  8
0
100
AcDbCircle
 62
7
  6
CONTINUOUS
 10
122.3280409967
 20
-37.0040254167
 40
105.4301730843
100
AcDbArc
 50
179.2475427533
 51
179.3887962172
  0
ARC
  5
306
100
AcDbEntity
  8
0
100
AcDbCircle
 62
7
  6
CONTINUOUS
 10
121.5807528579
 20
-37.0196340901
 40
104.7253594711
100
AcDbArc
 50
179.242968529
 51
179.5628602098
  0
ARC
  5
307
100
AcDbEntity
  8
0
100
AcDbCircle
 62
7
  6
CONTINUOUS
 10
120.2873481852
 20
-38.7534947924
 40
103.8710832208
100
AcDbArc
 50
178.1621292502
 51
178.3812236648
  0
ARC
  5
308
100
AcDbEntity
  8
0
100
AcDbCircle
 62
7
  6
CONTINUOUS
 10
120.4198817647
 20
-36.9844594939
 40
103.5219137089
100
AcDbArc
 50
179.3883589088
 51
179.6770852225
  0
ARC
  5
309
100
AcDbEntity
  8
RACCORDO
100
AcDbCircle
 62
253
  6
CONTINUOUS
 10
130.9841867556
 20
10.7232223957
 40
120.1895436678
100
AcDbArc
 50
174.4868692385
 51
178.4211265438
  0
ARC
  5
30A
100
AcDbEntity
  8
0
100
AcDbCircle
 62
7
  6
CONTINUOUS
 10
131.6516184762
 20
-22.8820714187
 40
114.0293953733
100
AcDbArc
 50
185.948660999
 51
186.3759638891
  0
ARC
  5
30B
100
AcDbEntity
  8
0
100
AcDbCircle
 62
7
  6
CONTINUOUS
 10
131.6395513733
 20
-22.8645451704
 40
113.9747827435
100
AcDbArc
 50
185.9496508244
 51
186.3772067041
  0
ARC
  5
30C
100
AcDbEntity
  8
0
100
AcDbCircle
 62
7
  6
CONTINUOUS
 10
131.4522877811
 20
-22.89504621
 40
113.7852581795
100
AcDbArc
 50
186.8041602459
 51
187.0213428593
  0
ARC
  5
30D
100
AcDbEntity
  8
0
100
AcDbCircle
 62
7
  6
CONTINUOUS
 10
130.9772073202
 20
-22.9717208869
 40
113.3491470422
100
AcDbArc
 50
186.8021940699
 51
187.2391674821
  0
ARC
  5
30E
100
AcDbEntity
  8
0
100
AcDbCircle
 62
7
  6
CONTINUOUS
 10
130.5899246978
 20
-25.1855920789
 40
113.1024091988
100
AcDbArc
 50
185.3230216149
 51
185.4617207703
  0
ARC
  5
30F
100
AcDbEntity
  8
0
100
AcDbCircle
 62
7
  6
CONTINUOUS
 10
130.46103013
 20
-25.19791657
 40
112.9729267573
100
AcDbArc
 50
185.4617206376
 51
185.6008881144
  0
ARC
  5
310
100
AcDbEntity
  8
0
100
AcDbCircle
 62
7
  6
CONTINUOUS
 10
130.5523559923
 20
-23.0057582378
 40
112.8785419274
100
AcDbArc
 50
187.0214063351
 51
187.1923868819
  0
ARC
  5
311
100
AcDbEntity
  8
0
100
AcDbCircle
 62
7
  6
CONTINUOUS
 10
129.9373385596
 20
-25.2494349768
 40
112.4467072393
100
AcDbArc
 50
185.6008060629
 51
185.7409364493
  0
ARC
  5
312
100
AcDbEntity
  8
0
100
AcDbCircle
 62
7
  6
CONTINUOUS
 10
129.0290060542
 20
-25.340755106
 40
111.5337957943
100
AcDbArc
 50
185.7409359392
 51
185.8825283325
  0
ARC
  5
313
100
AcDbEntity
  8
0
100
AcDbCircle
 62
7
  6
CONTINUOUS
 10
128.1325344057
 20
-25.4331211496
 40
110.6325783386
100
AcDbArc
 50
185.8825278227
 51
186.0255920534
  0
ARC
  5
314
100
AcDbEntity
  8
RACCORDO
100
AcDbCircle
 62
253
  6
CONTINUOUS
 10
110.1622002969
 20
-28.2111920625
 40
99.3570074041
100
AcDbArc
 50
181.5340519009
 51
184.9007936979
  0
ARC
  5
315
100
AcDbEntity
  8
0
100
AcDbCircle
 62
7
  6
CONTINUOUS
 10
142.0230059084
 20
-31.7231999662
 40
121.7657208942
100
AcDbArc
 50
181.8979768766
 51
182.0850037361
  0
ARC
  5
316
100
AcDbEntity
  8
0
100
AcDbCircle
 62
7
  6
CONTINUOUS
 10
141.6119206594
 20
-31.9427603184
 40
120.9343563022
100
AcDbArc
 50
182.0883683957
 51
182.4089318124
  0
ARC
  5
317
100
AcDbEntity
  8
0
100
AcDbCircle
 62
7
  6
CONTINUOUS
 10
141.5811759566
 20
-31.9225689088
 40
120.8611420181
100
AcDbArc
 50
182.1422792127
 51
182.356115563
  0
ARC
  5
318
100
AcDbEntity
  8
0
100
AcDbCircle
 62
7
  6
CONTINUOUS
 10
139.993041177
 20
-31.7971123974
 40
119.7344110068
100
AcDbArc
 50
182.0849994208
 51
182.2766832371
  0
ARC
  5
319
100
AcDbEntity
  8
0
100
AcDbCircle
 62
7
  6
CONTINUOUS
 10
138.0131521948
 20
-31.8758348786
 40
117.7529575981
100
AcDbArc
 50
182.2766788925
 51
182.4730997914
  0
ARC
  5
31A
100
AcDbEntity
  8
0
100
AcDbCircle
 62
7
  6
CONTINUOUS
 10
136.0973204864
 20
-31.9585805381
 40
115.8353398107
100
AcDbArc
 50
182.4730998831
 51
182.6743115701
  0
ARC
  5
31B
100
AcDbEntity
  8
0
100
AcDbCircle
 62
7
  6
CONTINUOUS
 10
135.1132412002
 20
-32.2383473132
 40
114.4147470093
100
AcDbArc
 50
182.6828753671
 51
183.0034026633
  0
ARC
  5
31C
100
AcDbEntity
  8
0
100
AcDbCircle
 62
7
  6
CONTINUOUS
 10
134.2419300267
 20
-32.045253727
 40
113.9779260174
100
AcDbArc
 50
182.6743071068
 51
182.8803643607
  0
ARC
  5
31D
100
AcDbEntity
  8
0
100
AcDbCircle
 62
7
  6
CONTINUOUS
 10
133.7643494065
 20
-32.2850189281
 40
113.021686755
100
AcDbArc
 50
182.8431872646
 51
183.0876871845
  0
ARC
  5
31E
100
AcDbEntity
  8
0
100
AcDbCircle
 62
7
  6
CONTINUOUS
 10
132.4295972756
 20
-32.1364486689
 40
112.1633002933
100
AcDbArc
 50
182.8803598676
 51
183.0913449645
  0
ARC
  5
31F
100
AcDbEntity
  8
0
100
AcDbCircle
 62
7
  6
CONTINUOUS
 10
142.9739592236
 20
-6.4898657456
 40
127.0730427565
100
AcDbArc
 50
194.1426470064
 51
194.3112701873
  0
ARC
  5
320
100
AcDbEntity
  8
0
100
AcDbCircle
 62
7
  6
CONTINUOUS
 10
143.0616138547
 20
-7.4900326542
 40
126.9221667471
100
AcDbArc
 50
193.1022158667
 51
193.2583531353
  0
ARC
  5
321
100
AcDbEntity
  8
0
100
AcDbCircle
 62
7
  6
CONTINUOUS
 10
132.6703912669
 20
-22.7688693614
 40
115.0544379604
100
AcDbArc
 50
186.3756477026
 51
186.588702315
  0
ARC
  5
322
100
AcDbEntity
  8
0
100
AcDbCircle
 62
7
  6
CONTINUOUS
 10
132.6519830848
 20
-22.7520259237
 40
114.9934476326
100
AcDbArc
 50
186.376892097
 51
186.5900643409
  0
ARC
  5
323
100
AcDbEntity
  8
0
100
AcDbCircle
 62
7
  6
CONTINUOUS
 10
132.5003915017
 20
-22.7890430941
 40
114.8832462155
100
AcDbArc
 50
186.5884357415
 51
186.8026842968
  0
ARC
  5
324
100
AcDbEntity
  8
0
100
AcDbCircle
 62
7
  6
CONTINUOUS
 10
132.4763155104
 20
-22.7728596383
 40
114.8165497719
100
AcDbArc
 50
186.5897970706
 51
186.8041618539
  0
ARC
  5
325
100
AcDbEntity
  8
RACCORDO
100
AcDbCircle
 62
253
  6
CONTINUOUS
 10
141.6365842984
 20
9.67091079
 40
130.8945614263
100
AcDbArc
 50
172.6572788444
 51
172.85063971
  0
ARC
  5
326
100
AcDbEntity
  8
RACCORDO
100
AcDbCircle
 62
253
  6
CONTINUOUS
 10
140.3791454051
 20
9.8264320007
 40
129.627542058
100
AcDbArc
 50
172.8886841486
 51
173.4423964889
  0
ARC
  5
327
100
AcDbEntity
  8
RACCORDO
100
AcDbCircle
 62
253
  6
CONTINUOUS
 10
139.4284278482
 20
9.9365554277
 40
128.6704682104
100
AcDbArc
 50
173.4427656534
 51
173.5629462315
  0
ARC
  5
328
100
AcDbEntity
  8
RACCORDO
100
AcDbCircle
 62
253
  6
CONTINUOUS
 10
138.0119974485
 20
10.0930310835
 40
127.2454206621
100
AcDbArc
 50
173.6604962921
 51
174.2402656016
  0
ARC
  5
329
100
AcDbEntity
  8
RACCORDO
100
AcDbCircle
 62
253
  6
CONTINUOUS
 10
136.8614167044
 20
10.2105010329
 40
126.0888597094
100
AcDbArc
 50
174.2409053855
 51
174.4028588103
  0
ARC
  5
32A
100
AcDbEntity
  8
0
100
AcDbCircle
 62
7
  6
CONTINUOUS
 10
153.8198876568
 20
6.5781713841
 40
143.0759469998
100
AcDbArc
 50
196.8373837511
 51
196.9660358854
  0
ARC
  5
32B
100
AcDbEntity
  8
0
100
AcDbCircle
 62
7
  6
CONTINUOUS
 10
153.2459661341
 20
6.4030770813
 40
142.4759103934
100
AcDbArc
 50
196.9660355663
 51
197.0956003452
  0
ARC
  5
32C
100
AcDbEntity
  8
0
100
AcDbCircle
 62
7
  6
CONTINUOUS
 10
152.6746137804
 20
6.2273533418
 40
141.8781459374
100
AcDbArc
 50
197.0956000252
 51
197.2260837882
  0
ARC
  5
32D
100
AcDbEntity
  8
0
100
AcDbCircle
 62
7
  6
CONTINUOUS
 10
152.5460268862
 20
5.680011866
 40
141.291152045
100
AcDbArc
 50
196.4477029034
 51
196.6701507762
  0
ARC
  5
32E
100
AcDbEntity
  8
0
100
AcDbCircle
 62
7
  6
CONTINUOUS
 10
152.4879418554
 20
5.6623006645
 40
141.2304275465
100
AcDbArc
 50
196.6700272525
 51
196.8938324945
  0
ARC
  5
32F
100
AcDbEntity
  8
0
100
AcDbCircle
 62
7
  6
CONTINUOUS
 10
152.5212004513
 20
5.68377709
 40
141.2216761783
100
AcDbArc
 50
196.4486035694
 51
196.6711336434
  0
ARC
  5
330
100
AcDbEntity
  8
0
100
AcDbCircle
 62
7
  6
CONTINUOUS
 10
152.4579784904
 20
5.6645252078
 40
141.1555886771
100
AcDbArc
 50
196.6710095639
 51
196.8949592902
  0
ARC
  5
331
100
AcDbEntity
  8
0
100
AcDbCircle
 62
7
  6
CONTINUOUS
 10
151.7413930347
 20
5.9378540863
 40
140.9010529237
100
AcDbArc
 50
197.2260241473
 51
197.35778915
  0
ARC
  5
332
100
AcDbEntity
  8
0
100
AcDbCircle
 62
7
  6
CONTINUOUS
 10
150.4605199716
 20
5.5374871527
 40
139.5590657832
100
AcDbArc
 50
197.3577884746
 51
197.4912012137
  0
ARC
  5
333
100
AcDbEntity
  8
0
100
AcDbCircle
 62
7
  6
CONTINUOUS
 10
148.1450374826
 20
2.1989746051
 40
138.713995045
100
AcDbArc
 50
195.0802057342
 51
195.2792986101
  0
ARC
  5
334
100
AcDbEntity
  8
0
100
AcDbCircle
 62
7
  6
CONTINUOUS
 10
148.0269425807
 20
2.1676304747
 40
138.5918121966
100
AcDbArc
 50
194.882073479
 51
195.0803959638
  0
ARC
  5
335
100
AcDbEntity
  8
0
100
AcDbCircle
 62
7
  6
CONTINUOUS
 10
149.200082736
 20
5.1402839037
 40
138.2375240904
100
AcDbArc
 50
197.4912005376
 51
197.6262737069
  0
ARC
  5
336
100
AcDbEntity
  8
0
100
AcDbCircle
 62
7
  6
CONTINUOUS
 10
147.4938405914
 20
2.0210776499
 40
138.0389359974
100
AcDbArc
 50
195.2792976048
 51
195.4803162034
  0
ARC
  5
337
100
AcDbEntity
  8
0
100
AcDbCircle
 62
7
  6
CONTINUOUS
 10
147.0151125037
 20
1.8989265092
 40
137.5449111058
100
AcDbArc
 50
194.6236701519
 51
194.882147651
  0
ARC
  5
338
100
AcDbEntity
  8
0
100
AcDbCircle
 62
7
  6
CONTINUOUS
 10
146.844090831
 20
1.8411239426
 40
137.3647267658
100
AcDbArc
 50
195.4803151922
 51
195.6832795027
  0
ARC
  5
339
100
AcDbEntity
  8
RACCORDO
100
AcDbCircle
 62
253
  6
CONTINUOUS
 10
147.3537960987
 20
8.8650622349
 40
136.6680356235
100
AcDbArc
 50
169.9002740367
 51
172.5444268926
  0
ARC
  5
33A
100
AcDbEntity
  8
0
100
AcDbCircle
 62
7
  6
CONTINUOUS
 10
146.1480228786
 20
1.6723608524
 40
136.648710059
100
AcDbArc
 50
194.4842947258
 51
194.62353904
  0
ARC
  5
33B
100
AcDbEntity
  8
0
100
AcDbCircle
 62
7
  6
CONTINUOUS
 10
144.9741166796
 20
-2.3616595823
 40
134.1045472585
100
AcDbArc
 50
193.3577464201
 51
193.4960886513
  0
ARC
  5
33C
100
AcDbEntity
  8
0
100
AcDbCircle
 62
7
  6
CONTINUOUS
 10
144.9163376909
 20
-2.3758583235
 40
134.0450500998
100
AcDbArc
 50
193.4959509083
 51
193.7741292772
  0
ARC
  5
33D
100
AcDbEntity
  8
0
100
AcDbCircle
 62
7
  6
CONTINUOUS
 10
144.8115719331
 20
-2.4150131863
 40
133.9802913187
100
AcDbArc
 50
193.4947519215
 51
193.9128750963
  0
ARC
  5
33E
100
AcDbEntity
  8
0
100
AcDbCircle
 62
7
  6
CONTINUOUS
 10
144.7825991084
 20
-2.4210597225
 40
133.9507074017
100
AcDbArc
 50
193.2185659597
 51
193.4951289261
  0
ARC
  5
33F
100
AcDbEntity
  8
0
100
AcDbCircle
 62
7
  6
CONTINUOUS
 10
144.3173921575
 20
-2.5173247287
 40
133.4296260314
100
AcDbArc
 50
193.0811514406
 51
193.3578621462
  0
ARC
  5
340
100
AcDbEntity
  8
0
100
AcDbCircle
 62
7
  6
CONTINUOUS
 10
144.1228568908
 20
-2.5763072366
 40
133.2729452684
100
AcDbArc
 50
193.0801388861
 51
193.2184484323
  0
ARC
  5
341
100
AcDbEntity
  8
0
100
AcDbCircle
 62
7
  6
CONTINUOUS
 10
146.5308649738
 20
-2.7847502238
 40
131.0824677641
100
AcDbArc
 50
195.0085145675
 51
195.2179022649
  0
ARC
  5
342
100
AcDbEntity
  8
0
100
AcDbCircle
 62
7
  6
CONTINUOUS
 10
146.5089822572
 20
-2.7776805821
 40
131.0166247813
100
AcDbArc
 50
195.0102675185
 51
195.2197094253
  0
ARC
  5
343
100
AcDbEntity
  8
0
100
AcDbCircle
 62
7
  6
CONTINUOUS
 10
146.3809521765
 20
-2.8255320597
 40
130.9271068779
100
AcDbArc
 50
195.2179017888
 51
195.4286217363
  0
ARC
  5
344
100
AcDbEntity
  8
0
100
AcDbCircle
 62
7
  6
CONTINUOUS
 10
146.3531545684
 20
-2.8200766924
 40
130.8551326801
100
AcDbArc
 50
195.2197089613
 51
195.430393528
  0
ARC
  5
345
100
AcDbEntity
  8
0
100
AcDbCircle
 62
7
  6
CONTINUOUS
 10
146.2048164026
 20
-2.8742107627
 40
130.7443681324
100
AcDbArc
 50
195.4931282215
 51
195.6406954056
  0
ARC
  5
346
100
AcDbEntity
  8
0
100
AcDbCircle
 62
7
  6
CONTINUOUS
 10
146.1946233485
 20
-2.8638350686
 40
130.6906731313
100
AcDbArc
 50
195.4303930573
 51
195.6423308743
  0
ARC
  5
347
100
AcDbEntity
  8
0
100
AcDbCircle
 62
7
  6
CONTINUOUS
 10
145.9382144756
 20
-2.9431638893
 40
130.4690109313
100
AcDbArc
 50
194.7994311545
 51
195.0087185755
  0
ARC
  5
348
100
AcDbEntity
  8
0
100
AcDbCircle
 62
7
  6
CONTINUOUS
 10
145.4299144698
 20
-3.0656639965
 40
129.8997899688
100
AcDbArc
 50
194.6443066712
 51
195.0108465711
  0
ARC
  5
349
100
AcDbEntity
  8
0
100
AcDbCircle
 62
7
  6
CONTINUOUS
 10
144.6260628187
 20
-3.2898391576
 40
129.1118352934
100
AcDbArc
 50
194.5890354746
 51
194.7994295314
  0
ARC
  5
34A
100
AcDbEntity
  8
0
100
AcDbCircle
 62
7
  6
CONTINUOUS
 10
143.3438388665
 20
-3.6235752257
 40
127.7868907561
100
AcDbArc
 50
194.3775600093
 51
194.5890338445
  0
ARC
  5
34B
100
AcDbEntity
  8
0
100
AcDbCircle
 62
7
  6
CONTINUOUS
 10
143.3300759632
 20
-3.6144383058
 40
127.7294263811
100
AcDbArc
 50
194.3785677296
 51
194.5903923396
  0
ARC
  5
34C
100
AcDbEntity
  8
RACCORDO
100
AcDbCircle
 62
253
  6
CONTINUOUS
 10
118.3049794168
 20
23.3709591037
 40
136.6096989599
100
AcDbArc
 50
169.9002644387
 51
172.6021058582
  0
ARC
  5
34D
100
AcDbEntity
  8
RACCORDO
100
AcDbCircle
 62
253
  6
CONTINUOUS
 10
111.329587568
 20
24.3295727976
 40
129.5688897606
100
AcDbArc
 50
172.8212475932
 51
173.5620793287
  0
ARC
  5
34E
100
AcDbEntity
  8
RACCORDO
100
AcDbCircle
 62
253
  6
CONTINUOUS
 10
116.2311434059
 20
314.8076351819
 40
317.8293238791
100
AcDbArc
 50
243.0544419047
 51
243.3479683618
  0
ARC
  5
34F
100
AcDbEntity
  8
RACCORDO
100
AcDbCircle
 62
253
  6
CONTINUOUS
 10
134.7682588013
 20
196.2151634488
 40
272.7127727593
100
AcDbArc
 50
243.4340591599
 51
243.5771310331
  0
ARC
  5
350
100
AcDbEntity
  8
0
100
AcDbCircle
 62
7
  6
CONTINUOUS
 10
119.0912477183
 20
167.1942510332
 40
225.6825029492
100
AcDbArc
 50
243.7125317536
 51
243.8305740914
  0
ARC
  5
351
100
AcDbEntity
  8
0
100
AcDbCircle
 62
7
  6
CONTINUOUS
 10
119.0725722729
 20
167.0931711917
 40
225.5457686257
100
AcDbArc
 50
243.7126952275
 51
243.8308094392
  0
ARC
  5
352
100
AcDbEntity
  8
0
100
AcDbCircle
 62
7
  6
CONTINUOUS
 10
116.1650473525
 20
159.8055841463
 40
219.4935976676
100
AcDbArc
 50
243.7873429764
 51
243.9307397518
  0
SPLINE
  5
353
100
AcDbEntity
  8
0
100
AcDbSpline
 62
7
  6
CONTINUOUS
 70
0
 71
3
 72
9
 73
5
 74
3
 42
0.0000001
 43
0.0000001
 44
0.0000000001
 12
0.1269887289
 22
0.0632535467
 32
0.0
 13
0.0626867929
 23
0.1285900438
 33
0.0
 40
0.0
 40
0.0
 40
0.0
 40
0.0
 40
0.6227638706
 40
1.0
 40
1.0
 40
1.0
 40
1.0
 10
21.2397848631
 20
-37.1428629956
 30
0.0
 10
21.2661461939
 20
-37.1297323211
 30
0.0
 10
21.3042775674
 20
-37.1004307101
 30
0.0
 10
21.330014025
 20
-37.060136937
 30
0.0
 10
21.3378965994
 20
-37.0439673336
 30
0.0
 11
21.2397848631
 21
-37.1428629956
 31
0.0
 11
21.3088326972
 21
-37.0889732083
 31
0.0
 11
21.3378965994
 21
-37.0439673336
 31
0.0
  0
SPLINE
  5
354
100
AcDbEntity
  8
0
100
AcDbSpline
 62
7
  6
CONTINUOUS
 70
0
 71
3
 72
8
 73
4
 74
2
 42
0.0000001
 43
0.0000001
 44
0.0000000001
 12
0.02547
 22
0.0522468651
 32
0.0
 13
0.0125260105
 23
0.0567637851
 33
0.0
 40
0.0
 40
0.0
 40
0.0
 40
0.0
 40
1.0
 40
1.0
 40
1.0
 40
1.0
 10
21.3378965994
 20
-37.0439673336
 30
0.0
 10
21.3463865994
 20
-37.0265517119
 30
0.0
 10
21.3527581649
 20
-37.0080116049
 30
0.0
 10
21.3569335018
 20
-36.9890903432
 30
0.0
 11
21.3378965994
 21
-37.0439673336
 31
0.0
 11
21.3569335018
 21
-36.9890903432
 31
0.0
  0
SPLINE
  5
355
100
AcDbEntity
  8
0
100
AcDbSpline
 62
7
  6
CONTINUOUS
 70
0
 71
3
 72
8
 73
4
 74
2
 42
0.0000001
 43
0.0000001
 44
0.0000000001
 12
0.0142714336
 22
0.0646734717
 32
0.0
 13
-0.0031793426
 23
0.0643440144
 33
0.0
 40
0.0
 40
0.0
 40
0.0
 40
0.0
 40
1.0
 40
1.0
 40
1.0
 40
1.0
 10
21.3569335018
 20
-36.9890903432
 30
0.0
 10
21.3616906463
 20
-36.9675325193
 30
0.0
 10
21.3635968565
 20
-36.9454799167
 30
0.0
 10
21.3625370756
 20
-36.9240319119
 30
0.0
 11
21.3569335018
 21
-36.9890903432
 31
0.0
 11
21.3625370756
 21
-36.9240319119
 31
0.0
  0
SPLINE
  5
356
100
AcDbEntity
  8
0
100
AcDbSpline
 62
7
  6
CONTINUOUS
 70
0
 71
3
 72
9
 73
5
 74
3
 42
0.0000001
 43
0.0000001
 44
0.0000000001
 12
-0.1188738848
 22
-0.0547129527
 32
0.0
 13
-0.1107421979
 23
0.0751526624
 33
0.0
 40
0.0
 40
0.0
 40
0.0
 40
0.0
 40
0.1185989776
 40
1.0
 40
1.0
 40
1.0
 40
1.0
 10
21.5855022632
 20
-37.5569491344
 30
0.0
 10
21.5808028228
 20
-37.5591121011
 30
0.0
 10
21.5399561983
 20
-37.5744520982
 30
0.0
 10
21.487792979
 20
-37.5614309562
 30
0.0
 10
21.4552568835
 20
-37.5393510784
 30
0.0
 11
21.5855022632
 21
-37.5569491344
 31
0.0
 11
21.570954911
 21
-37.5623517973
 31
0.0
 11
21.4552568835
 21
-37.5393510784
 31
0.0
  0
SPLINE
  5
357
100
AcDbEntity
  8
SUPERFICI
100
AcDbSpline
 62
7
  6
CONTINUOUS
 70
0
 71
3
 72
10
 73
6
 74
4
 42
0.0000001
 43
0.0000001
 44
0.0000000001
 12
0.0
 22
4.3940700466
 32
0.0
 13
-3.9301757288
 23
1.9650878644
 33
0.0
 40
0.0
 40
0.0
 40
0.0
 40
0.0
 40
0.3342904765
 40
0.6865843886
 40
1.0
 40
1.0
 40
1.0
 40
1.0
 10
35.7399139324
 20
23.4777859143
 30
0.0
 10
35.7399139324
 20
23.9674178375
 30
0.0
 10
35.5165443584
 20
24.9752387758
 30
0.0
 10
34.7814678204
 20
26.2594951197
 30
0.0
 10
34.0291863985
 20
26.9312258926
 30
0.0
 10
33.6185935888
 20
27.1365222974
 30
0.0
 11
35.7399139324
 21
23.4777859143
 31
0.0
 11
35.4557108959
 21
24.9189255382
 31
0.0
 11
34.6792537606
 21
26.2581160002
 31
0.0
 11
33.6185935888
 21
27.1365222974
 31
0.0
  0
SPLINE
  5
358
100
AcDbEntity
  8
SUPERFICI
100
AcDbSpline
 62
7
  6
CONTINUOUS
 70
0
 71
3
 72
9
 73
5
 74
3
 42
0.0000001
 43
0.0000001
 44
0.0000000001
 12
-1.2877596021
 22
0.6438798011
 32
0.0
 13
-1.2619714153
 23
-0.7644736371
 33
0.0
 40
0.0
 40
0.0
 40
0.0
 40
0.0
 40
0.747489447
 40
1.0
 40
1.0
 40
1.0
 40
1.0
 10
-29.3139099368
 20
58.6027740602
 30
0.0
 10
-29.6347721744
 20
58.763205179
 30
0.0
 10
-30.1542695434
 20
58.9008361513
 30
0.0
 10
-30.6078334965
 20
58.7092755727
 30
0.0
 10
-30.7140538632
 20
58.6449296858
 30
0.0
 11
-29.3139099368
 21
58.6027740602
 31
0.0
 11
-30.3745701086
 21
58.7850279348
 31
0.0
 11
-30.7140538632
 21
58.6449296858
 31
0.0
  0
SPLINE
  5
359
100
AcDbEntity
  8
0
100
AcDbSpline
 62
7
  6
CONTINUOUS
 70
0
 71
3
 72
10
 73
6
 74
4
 42
0.0000001
 43
0.0000001
 44
0.0000000001
 12
0.0
 22
-0.4394070047
 32
0.0
 13
0.3930175729
 23
-0.1965087864
 33
0.0
 40
0.0
 40
0.0
 40
0.0
 40
0.0
 40
0.3342904765
 40
0.6865843886
 40
1.0
 40
1.0
 40
1.0
 40
1.0
 10
-25.6015993356
 20
-7.4770297728
 30
0.0
 10
-25.6015993356
 20
-7.5259929651
 30
0.0
 10
-25.5792623782
 20
-7.6267750589
 30
0.0
 10
-25.5057547244
 20
-7.7552006933
 30
0.0
 10
-25.4305265822
 20
-7.8223737706
 30
0.0
 10
-25.3894673012
 20
-7.8429034111
 30
0.0
 11
-25.6015993356
 21
-7.4770297728
 31
0.0
 11
-25.5731790319
 21
-7.6211437351
 31
0.0
 11
-25.4955333184
 21
-7.7550627813
 31
0.0
 11
-25.3894673012
 21
-7.8429034111
 31
0.0
  0
SPLINE
  5
35A
100
AcDbEntity
  8
RACCORDO
100
AcDbSpline
 62
7
  6
CONTINUOUS
 70
0
 71
3
 72
9
 73
5
 74
3
 42
0.0000001
 43
0.0000001
 44
0.0000000001
 12
0.2026903688
 22
0.1168710307
 32
0.0
 13
0.0617045663
 23
0.2257865964
 33
0.0
 40
0.0
 40
0.0
 40
0.0
 40
0.0
 40
0.3329888448
 40
1.0
 40
1.0
 40
1.0
 40
1.0
 10
-12.1685742032
 20
-14.1847483764
 30
0.0
 10
-12.1460763259
 20
-14.1717761266
 30
0.0
 10
-12.083233726
 20
-14.1241177189
 30
0.0
 10
-12.042714694
 20
-14.0547942971
 30
0.0
 10
-12.0289954827
 20
-14.004593571
 30
0.0
 11
-12.1685742032
 21
-14.1847483764
 31
0.0
 11
-12.1066998287
 21
-14.1376344395
 31
0.0
 11
-12.0289954827
 21
-14.004593571
 31
0.0
  0
SPLINE
  5
35B
100
AcDbEntity
  8
RACCORDO
100
AcDbSpline
 62
7
  6
CONTINUOUS
 70
0
 71
3
 72
8
 73
4
 74
2
 42
0.0000001
 43
0.0000001
 44
0.0000000001
 12
0.0211386215
 22
0.0773495008
 32
0.0
 13
0.000143511
 23
0.0802310262
 33
0.0
 40
0.0
 40
0.0
 40
0.0
 40
0.0
 40
1.0
 40
1.0
 40
1.0
 40
1.0
 10
-12.0289954827
 20
-14.004593571
 30
0.0
 10
-12.0219492755
 20
-13.978810404
 30
0.0
 10
-12.0184133897
 20
-13.9519823181
 30
0.0
 10
-12.0183655527
 20
-13.9252386427
 30
0.0
 11
-12.0289954827
 21
-14.004593571
 31
0.0
 11
-12.0183655527
 21
-13.9252386427
 31
0.0
  0
SPLINE
  5
35C
100
AcDbEntity
  8
RACCORDO
100
AcDbSpline
 62
7
  6
CONTINUOUS
 70
0
 71
3
 72
9
 73
5
 74
3
 42
0.0000001
 43
0.0000001
 44
0.0000000001
 12
0.2026903688
 22
0.1168710307
 32
0.0
 13
0.0617045663
 23
0.2257865964
 33
0.0
 40
0.0
 40
0.0
 40
0.0
 40
0.0
 40
0.3329888448
 40
1.0
 40
1.0
 40
1.0
 40
1.0
 10
19.6512309502
 20
-30.0946509531
 30
0.0
 10
19.6737288275
 20
-30.0816787033
 30
0.0
 10
19.7365714274
 20
-30.0340202956
 30
0.0
 10
19.7770904594
 20
-29.9646968738
 30
0.0
 10
19.7908096707
 20
-29.9144961477
 30
0.0
 11
19.6512309502
 21
-30.0946509531
 31
0.0
 11
19.7131053247
 21
-30.0475370162
 31
0.0
 11
19.7908096707
 21
-29.9144961477
 31
0.0
  0
SPLINE
  5
35D
100
AcDbEntity
  8
RACCORDO
100
AcDbSpline
 62
7
  6
CONTINUOUS
 70
0
 71
3
 72
8
 73
4
 74
2
 42
0.0000001
 43
0.0000001
 44
0.0000000001
 12
0.0211386215
 22
0.0773495008
 32
0.0
 13
0.000143511
 23
0.0802310262
 33
0.0
 40
0.0
 40
0.0
 40
0.0
 40
0.0
 40
1.0
 40
1.0
 40
1.0
 40
1.0
 10
19.7908096707
 20
-29.9144961477
 30
0.0
 10
19.7978558779
 20
-29.8887129807
 30
0.0
 10
19.8013917637
 20
-29.8618848948
 30
0.0
 10
19.8014396007
 20
-29.8351412194
 30
0.0
 11
19.7908096707
 21
-29.9144961477
 31
0.0
 11
19.8014396007
 21
-29.8351412194
 31
0.0
  0
SPLINE
  5
35E
100
AcDbEntity
  8
RACCORDO
100
AcDbSpline
 62
7
  6
CONTINUOUS
 70
0
 71
3
 72
10
 73
6
 74
4
 42
0.0000001
 43
0.0000001
 44
0.0000000001
 12
0.0968380337
 22
-0.4404501847
 32
0.0
 13
0.1598659986
 23
-0.421660148
 33
0.0
 40
0.0
 40
0.0
 40
0.0
 40
0.0
 40
0.2746963713
 40
0.7081943014
 40
1.0
 40
1.0
 40
1.0
 40
1.0
 10
-29.1454302191
 20
-8.5956806043
 30
0.0
 10
-29.1365632003
 20
-8.6360106268
 30
0.0
 10
-29.1114711365
 20
-8.7394976611
 30
0.0
 10
-29.0684534853
 20
-8.8836003952
 30
0.0
 10
-29.0318734762
 20
-8.9863285803
 30
0.0
 10
-29.0163235397
 20
-9.0273428584
 30
0.0
 11
-29.1454302191
 21
-8.5956806043
 31
0.0
 11
-29.1162892887
 21
-8.7160765083
 31
0.0
 11
-29.0604366844
 21
-8.9033791933
 31
0.0
 11
-29.0163235397
 21
-9.0273428584
 31
0.0
  0
SPLINE
  5
35F
100
AcDbEntity
  8
RACCORDO
100
AcDbSpline
 62
7
  6
CONTINUOUS
 70
0
 71
3
 72
12
 73
8
 74
6
 42
0.0000001
 43
0.0000001
 44
0.0000000001
 12
0.2435908726
 22
-0.6424916136
 32
0.0
 13
0.3732618367
 23
-0.5769022227
 33
0.0
 40
0.0
 40
0.0
 40
0.0
 40
0.0
 40
0.097620274
 40
0.4005510362
 40
0.7015315848
 40
0.9955410492
 40
1.0
 40
1.0
 40
1.0
 40
1.0
 10
-29.0163235397
 20
-9.0273428584
 30
0.0
 10
-29.0083970705
 20
-9.0482495941
 30
0.0
 10
-28.9749854496
 20
-9.1336967361
 30
0.0
 10
-28.9102328719
 20
-9.2808318666
 30
0.0
 10
-28.8158920351
 20
-9.4636990666
 30
0.0
 10
-28.7449901082
 20
-9.5813566088
 30
0.0
 10
-28.7078814616
 20
-9.638769801
 30
0.0
 10
-28.7073266762
 20
-9.6396272606
 30
0.0
 11
-29.0163235397
 21
-9.0273428584
 31
0.0
 11
-28.9918997985
 21
-9.0898136777
 31
0.0
 11
-28.9081132933
 21
-9.2803173324
 31
0.0
 11
-28.8131479442
 21
-9.463995124
 31
0.0
 11
-28.7089898232
 21
-9.6370540983
 31
0.0
 11
-28.7073266762
 21
-9.6396272606
 31
0.0
  0
SPLINE
  5
360
100
AcDbEntity
  8
RACCORDO
100
AcDbSpline
 62
7
  6
CONTINUOUS
 70
0
 71
3
 72
13
 73
9
 74
7
 42
0.0000001
 43
0.0000001
 44
0.0000000001
 12
0.6953089306
 22
-1.0746484858
 32
0.0
 13
1.146243944
 23
-0.5691017235
 33
0.0
 40
0.0
 40
0.0
 40
0.0
 40
0.0
 40
0.1563309586
 40
0.3203555203
 40
0.4928791108
 40
0.6728124191
 40
0.8483404365
 40
1.0
 40
1.0
 40
1.0
 40
1.0
 10
-28.7073266762
 20
-9.6396272606
 30
0.0
 10
-28.6710939056
 20
-9.6956275366
 30
0.0
 10
-28.5933226778
 20
-9.8080995967
 30
0.0
 10
-28.4627802937
 20
-9.9731333276
 30
0.0
 10
-28.3129448811
 20
-10.1350300869
 30
0.0
 10
-28.1449019522
 20
-10.2855556915
 30
0.0
 10
-27.9699235381
 20
-10.4133649219
 30
0.0
 10
-27.8488926826
 20
-10.4835788022
 30
0.0
 10
-27.7909463972
 20
-10.5123487085
 30
0.0
 11
-28.7073266762
 21
-9.6396272606
 31
0.0
 11
-28.5935051016
 21
-9.8041588783
 31
0.0
 11
-28.4630127071
 21
-9.9685787876
 31
0.0
 11
-28.3127160808
 21
-10.1303119342
 31
0.0
 11
-28.1410615617
 21
-10.2837999655
 31
0.0
 11
-27.9593459866
 21
-10.4158557357
 31
0.0
 11
-27.7909463972
 21
-10.5123487085
 31
0.0
  0
SPLINE
  5
361
100
AcDbEntity
  8
SUPERFICI
100
AcDbSpline
 62
7
  6
CONTINUOUS
 70
0
 71
3
 72
9
 73
5
 74
3
 42
0.0000001
 43
0.0000001
 44
0.0000000001
 12
1.7918844005
 22
0.8071883358
 32
0.0
 13
0.0
 23
1.9340051951
 33
0.0
 40
0.0
 40
0.0
 40
0.0
 40
0.0
 40
0.3840074907
 40
1.0
 40
1.0
 40
1.0
 40
1.0
 10
34.8858143109
 20
-55.2480552265
 30
0.0
 10
35.1151799884
 20
-55.1447331041
 30
0.0
 10
35.6402508422
 20
-54.6799895009
 30
0.0
 10
35.7399139324
 20
-53.9955859269
 30
0.0
 10
35.7399139324
 20
-53.5984750225
 30
0.0
 11
34.8858143109
 21
-55.2480552265
 31
0.0
 11
35.4557108959
 21
-54.75541161
 31
0.0
 11
35.7399139324
 21
-53.5984750225
 31
0.0
  0
SPLINE
  5
362
100
AcDbEntity
  8
RACCORDO
100
AcDbSpline
 62
7
  6
CONTINUOUS
 70
0
 71
3
 72
10
 73
6
 74
4
 42
0.0000001
 43
0.0000001
 44
0.0000000001
 12
0.0001259585
 22
-0.5491155306
 32
0.0
 13
0.1179382729
 23
-0.536420785
 33
0.0
 40
0.0
 40
0.0
 40
0.0
 40
0.0
 40
0.4335078969
 40
0.8451919635
 40
1.0
 40
1.0
 40
1.0
 40
1.0
 10
-29.2077079325
 20
-8.0509733231
 30
0.0
 10
-29.2076897312
 20
-8.1303219627
 30
0.0
 10
-29.1988929619
 20
-8.2850951305
 30
0.0
 10
-29.1722940766
 20
-8.4663810167
 30
0.0
 10
-29.1515161499
 20
-8.5679998549
 30
0.0
 10
-29.1454302191
 20
-8.5956806043
 30
0.0
 11
-29.2077079325
 21
-8.0509733231
 31
0.0
 11
-29.1950657661
 21
-8.2886833104
 31
0.0
 11
-29.1624459109
 21
-8.5123795943
 31
0.0
 11
-29.1454302191
 21
-8.5956806043
 31
0.0
  0
SPLINE
  5
363
100
AcDbEntity
  8
0
100
AcDbSpline
 62
7
  6
CONTINUOUS
 70
0
 71
3
 72
8
 73
4
 74
2
 42
0.0000001
 43
0.0000001
 44
0.0000000001
 12
-0.0031107854
 22
0.062956542
 32
0.0
 13
-0.015506076
 23
0.0612129441
 33
0.0
 40
0.0
 40
0.0
 40
0.0
 40
0.0
 40
1.0
 40
1.0
 40
1.0
 40
1.0
 10
21.362537114
 20
-36.9240319312
 30
0.0
 10
21.3615001856
 20
-36.9030464172
 30
0.0
 10
21.3581323189
 20
-36.8823140172
 30
0.0
 10
21.3529636269
 20
-36.8619097025
 30
0.0
 11
21.362537114
 21
-36.9240319312
 31
0.0
 11
21.3529636269
 21
-36.8619097025
 31
0.0
  0
SPLINE
  5
364
100
AcDbEntity
  8
0
100
AcDbSpline
 62
7
  6
CONTINUOUS
 70
0
 71
3
 72
9
 73
5
 74
3
 42
0.0000001
 43
0.0000001
 44
0.0000000001
 12
-0.0736301563
 22
0.290667907
 32
0.0
 13
-0.1945590473
 23
0.2271299689
 33
0.0
 40
0.0
 40
0.0
 40
0.0
 40
0.0
 40
0.477101628
 40
1.0
 40
1.0
 40
1.0
 40
1.0
 10
21.3529636269
 20
-36.8619097025
 30
0.0
 10
21.3412539377
 20
-36.8156836586
 30
0.0
 10
21.2973378543
 20
-36.722323792
 30
0.0
 10
21.2398963075
 20
-36.640191308
 30
0.0
 10
21.2059847712
 20
-36.6006026777
 30
0.0
 11
21.3529636269
 21
-36.8619097025
 31
0.0
 11
21.2962703213
 21
-36.7291550137
 31
0.0
 11
21.2059847712
 21
-36.6006026777
 31
0.0
  0
SPLINE
  5
365
100
AcDbEntity
  8
0
100
AcDbSpline
 62
7
  6
CONTINUOUS
 70
0
 71
3
 72
9
 73
5
 74
3
 42
0.0000001
 43
0.0000001
 44
0.0000000001
 12
-0.1048805254
 22
0.1224384618
 32
0.0
 13
-0.1293298082
 23
0.0984885874
 33
0.0
 40
0.0
 40
0.0
 40
0.0
 40
0.0
 40
0.5037183638
 40
1.0
 40
1.0
 40
1.0
 40
1.0
 10
21.2059847712
 20
-36.6006026777
 30
0.0
 10
21.188374689
 20
-36.5800445105
 30
0.0
 10
21.1513397836
 20
-36.5410295714
 30
0.0
 10
21.1100882083
 20
-36.5057430721
 30
0.0
 10
21.0886935387
 20
-36.4894503797
 30
0.0
 11
21.2059847712
 21
-36.6006026777
 31
0.0
 11
21.1499944602
 21
-36.5416854531
 31
0.0
 11
21.0886935387
 21
-36.4894503797
 31
0.0
  0
SPLINE
  5
366
100
AcDbEntity
  8
0
100
AcDbSpline
 62
7
  6
CONTINUOUS
 70
0
 71
3
 72
9
 73
5
 74
3
 42
0.0000001
 43
0.0000001
 44
0.0000000001
 12
-0.1235914716
 22
0.0736413207
 32
0.0
 13
-0.1362228821
 23
0.0443522428
 33
0.0
 40
0.0
 40
0.0
 40
0.0
 40
0.0
 40
0.5053327664
 40
1.0
 40
1.0
 40
1.0
 40
1.0
 10
21.0257601828
 20
-36.4468369284
 30
0.0
 10
21.0049419093
 20
-36.4344324709
 30
0.0
 10
20.96243102
 20
-36.4123161344
 30
0.0
 10
20.9176566664
 20
-36.3958806778
 30
0.0
 10
20.895195001
 20
-36.3885674774
 30
0.0
 11
21.0257601828
 21
-36.4468369284
 31
0.0
 11
20.9613996178
 21
-36.4135309282
 31
0.0
 11
20.895195001
 21
-36.3885674774
 31
0.0
  0
SPLINE
  5
367
100
AcDbEntity
  8
0
100
AcDbSpline
 62
7
  6
CONTINUOUS
 70
0
 71
3
 72
8
 73
4
 74
2
 42
0.0000001
 43
0.0000001
 44
0.0000000001
 12
-0.0671696093
 22
0.0218694743
 32
0.0
 13
-0.0683222702
 23
0.0187026476
 33
0.0
 40
0.0
 40
0.0
 40
0.0
 40
0.0
 40
1.0
 40
1.0
 40
1.0
 40
1.0
 10
20.895195001
 20
-36.3885674774
 30
0.0
 10
20.8728051312
 20
-36.3812776526
 30
0.0
 10
20.8501040011
 20
-36.3747994955
 30
0.0
 10
20.827329911
 20
-36.3685652797
 30
0.0
 11
20.895195001
 21
-36.3885674774
 31
0.0
 11
20.827329911
 21
-36.3685652797
 31
0.0
  0
LINE
  5
368
100
AcDbEntity
  8
0
100
AcDbLine
 62
7
  6
CONTINUOUS
 10
20.827329911
 20
-36.3685652797
 11
20.7578874791
 21
-36.3497091821
  0
SPLINE
  5
369
100
AcDbEntity
  8
0
100
AcDbSpline
 62
7
  6
CONTINUOUS
 70
0
 71
3
 72
9
 73
5
 74
3
 42
0.0000001
 43
0.0000001
 44
0.0000000001
 12
-0.1106161048
 22
0.4191064434
 32
0.0
 13
-0.1219747066
 23
0.415950295
 33
0.0
 40
0.0
 40
0.0
 40
0.0
 40
0.0
 40
0.3296593621
 40
1.0
 40
1.0
 40
1.0
 40
1.0
 10
21.4649212003
 20
-38.4395369372
 30
0.0
 10
21.4527659888
 20
-38.3934828163
 30
0.0
 10
21.4158638866
 20
-38.2537793079
 30
0.0
 10
21.3781075437
 20
-38.1142472492
 30
0.0
 10
21.3508526762
 20
-38.0213044539
 30
0.0
 11
21.4649212003
 21
-38.4395369372
 31
0.0
 11
21.428342907
 21
-38.3013923097
 31
0.0
 11
21.3508526762
 21
-38.0213044539
 31
0.0
  0
SPLINE
  5
36A
100
AcDbEntity
  8
0
100
AcDbSpline
 62
7
  6
CONTINUOUS
 70
0
 71
3
 72
8
 73
4
 74
2
 42
0.0000001
 43
0.0000001
 44
0.0000000001
 12
-0.0288518355
 22
0.0897118137
 32
0.0
 13
-0.04314909
 23
0.0841393165
 33
0.0
 40
0.0
 40
0.0
 40
0.0
 40
0.0
 40
1.0
 40
1.0
 40
1.0
 40
1.0
 10
21.3072974682
 20
-37.8792263859
 30
0.0
 10
21.2976801897
 20
-37.849322448
 30
0.0
 10
21.2852589434
 20
-37.820289716
 30
0.0
 10
21.2708759134
 20
-37.7922432772
 30
0.0
 11
21.3072974682
 21
-37.8792263859
 31
0.0
 11
21.2708759134
 21
-37.7922432772
 31
0.0
  0
SPLINE
  5
36B
100
AcDbEntity
  8
0
100
AcDbSpline
 62
7
  6
CONTINUOUS
 70
0
 71
3
 72
9
 73
5
 74
3
 42
0.0000001
 43
0.0000001
 44
0.0000000001
 12
-0.0462771017
 22
0.0902388371
 32
0.0
 13
-0.0577258363
 23
0.0829235425
 33
0.0
 40
0.0
 40
0.0
 40
0.0
 40
0.0
 40
0.4957885558
 40
1.0
 40
1.0
 40
1.0
 40
1.0
 10
21.2708759134
 20
-37.7922432772
 30
0.0
 10
21.2632280276
 20
-37.7773301496
 30
0.0
 10
21.2466835678
 20
-37.747812997
 30
0.0
 10
21.2283976777
 20
-37.7195007091
 30
0.0
 10
21.2186956686
 20
-37.7055637094
 30
0.0
 11
21.2708759134
 21
-37.7922432772
 31
0.0
 11
21.2463948654
 21
-37.74835778
 31
0.0
 11
21.2186956686
 21
-37.7055637094
 31
0.0
  0
SPLINE
  5
36C
100
AcDbEntity
  8
0
100
AcDbSpline
 62
7
  6
CONTINUOUS
 70
0
 71
3
 72
8
 73
4
 74
2
 42
0.0000001
 43
0.0000001
 44
0.0000000001
 12
-0.057113098
 22
0.0820433398
 32
0.0
 13
-0.0691411966
 23
0.073499094
 33
0.0
 40
0.0
 40
0.0
 40
0.0
 40
0.0
 40
1.0
 40
1.0
 40
1.0
 40
1.0
 10
21.2186956686
 20
-37.7055637094
 30
0.0
 10
21.1996579692
 20
-37.6782159295
 30
0.0
 10
21.1787641702
 20
-37.6521710465
 30
0.0
 10
21.1557171047
 20
-37.6276713485
 30
0.0
 11
21.2186956686
 21
-37.7055637094
 31
0.0
 11
21.1557171047
 21
-37.6276713485
 31
0.0
  0
SPLINE
  5
36D
100
AcDbEntity
  8
0
100
AcDbSpline
 62
7
  6
CONTINUOUS
 70
0
 71
3
 72
8
 73
4
 74
2
 42
0.0000001
 43
0.0000001
 44
0.0000000001
 12
-0.0909629634
 22
0.096696264
 32
0.0
 13
-0.1188748887
 23
0.0563531032
 33
0.0
 40
0.0
 40
0.0
 40
0.0
 40
0.0
 40
1.0
 40
1.0
 40
1.0
 40
1.0
 10
21.1557171047
 20
-37.6276713485
 30
0.0
 10
21.1253961169
 20
-37.5954392605
 30
0.0
 10
21.0913481821
 20
-37.5658816312
 30
0.0
 10
21.0517232192
 20
-37.5470972634
 30
0.0
 11
21.1557171047
 21
-37.6276713485
 31
0.0
 11
21.0517232192
 21
-37.5470972634
 31
0.0
  0
LINE
  5
36E
100
AcDbEntity
  8
0
100
AcDbLine
 62
7
  6
CONTINUOUS
 10
21.0517232192
 20
-37.5470972634
 11
20.895295939
 21
-37.4727485417
  0
LINE
  5
36F
100
AcDbEntity
  8
0
100
AcDbLine
 62
7
  6
CONTINUOUS
 10
20.895295939
 20
-37.4727485417
 11
20.8165745324
 21
-37.4351927893
  0
LINE
  5
370
100
AcDbEntity
  8
0
100
AcDbLine
 62
7
  6
CONTINUOUS
 10
20.8642151744
 20
-38.3941070186
 11
20.792371814
 21
-38.3597298839
  0
LINE
  5
371
100
AcDbEntity
  8
0
100
AcDbLine
 62
7
  6
CONTINUOUS
 10
20.502573007
 20
-38.2204464335
 11
20.4295138742
 21
-38.1851882726
  0
LINE
  5
372
100
AcDbEntity
  8
0
100
AcDbLine
 62
7
  6
CONTINUOUS
 10
18.5991263673
 20
-37.2884453875
 11
18.6272461711
 21
-37.1728912136
  0
LINE
  5
373
100
AcDbEntity
  8
0
100
AcDbLine
 62
7
  6
CONTINUOUS
 10
19.1264248357
 20
-35.208187118
 11
19.142086568
 21
-35.1489161921
  0
LINE
  5
374
100
AcDbEntity
  8
0
100
AcDbLine
 62
7
  6
CONTINUOUS
 10
19.9211989012
 20
-37.9384856203
 11
19.8443580021
 21
-37.9010022812
  0
LINE
  5
375
100
AcDbEntity
  8
0
100
AcDbLine
 62
7
  6
CONTINUOUS
 10
19.7524474662
 20
-37.5384926982
 11
19.7296742128
 21
-37.4479737695
  0
LINE
  5
376
100
AcDbEntity
  8
0
100
AcDbLine
 62
7
  6
CONTINUOUS
 10
19.7296742128
 20
-37.4479737695
 11
19.7069822602
 21
-37.3574983406
  0
LINE
  5
377
100
AcDbEntity
  8
0
100
AcDbLine
 62
7
  6
CONTINUOUS
 10
19.2138357794
 20
-37.1154710804
 11
19.1188743769
 21
-37.0686990118
  0
LINE
  5
378
100
AcDbEntity
  8
0
100
AcDbLine
 62
7
  6
CONTINUOUS
 10
19.0249893639
 20
-37.4988622546
 11
18.6704789152
 21
-37.3237539154
  0
LINE
  5
379
100
AcDbEntity
  8
0
100
AcDbLine
 62
7
  6
CONTINUOUS
 10
18.6704789152
 20
-37.3237539154
 11
18.5991263673
 21
-37.2884453875
  0
LINE
  5
37A
100
AcDbEntity
  8
0
100
AcDbLine
 62
7
  6
CONTINUOUS
 10
19.6024926977
 20
-36.9362897391
 11
19.5623248065
 21
-36.7673631482
  0
LINE
  5
37B
100
AcDbEntity
  8
0
100
AcDbLine
 62
7
  6
CONTINUOUS
 10
19.5623248065
 20
-36.7673631482
 11
19.5224517289
 21
-36.5986539377
  0
LINE
  5
37C
100
AcDbEntity
  8
0
100
AcDbLine
 62
7
  6
CONTINUOUS
 10
19.4435863632
 20
-36.2618885363
 11
19.4045926068
 21
-36.093832689
  0
LINE
  5
37D
100
AcDbEntity
  8
0
100
AcDbLine
 62
7
  6
CONTINUOUS
 10
19.4045926068
 20
-36.093832689
 11
19.3658907244
 21
-35.9259949118
  0
LINE
  5
37E
100
AcDbEntity
  8
0
100
AcDbLine
 62
7
  6
CONTINUOUS
 10
17.5127022823
 20
-36.7489475474
 11
17.4525460876
 21
-36.7190000572
  0
LINE
  5
37F
100
AcDbEntity
  8
0
100
AcDbLine
 62
7
  6
CONTINUOUS
 10
16.8571029074
 20
-36.4222753611
 11
16.4472341263
 21
-36.2177609843
  0
LINE
  5
380
100
AcDbEntity
  8
0
100
AcDbLine
 62
7
  6
CONTINUOUS
 10
16.523950883
 20
-34.0203376139
 11
16.5318289771
 21
-33.8494256443
  0
LINE
  5
381
100
AcDbEntity
  8
0
100
AcDbLine
 62
7
  6
CONTINUOUS
 10
17.4330889823
 20
-35.6441164184
 11
17.4957905155
 21
-35.449898619
  0
LINE
  5
382
100
AcDbEntity
  8
0
100
AcDbLine
 62
7
  6
CONTINUOUS
 10
17.4957905155
 20
-35.449898619
 11
17.5586695087
 21
-35.256326575
  0
LINE
  5
383
100
AcDbEntity
  8
0
100
AcDbLine
 62
7
  6
CONTINUOUS
 10
17.6849512037
 20
-34.8711169965
 11
17.7483495936
 21
-34.6794780484
  0
LINE
  5
384
100
AcDbEntity
  8
0
100
AcDbLine
 62
7
  6
CONTINUOUS
 10
17.7483495936
 20
-34.6794780484
 11
17.7908895475
 21
-34.5515343974
  0
LINE
  5
385
100
AcDbEntity
  8
0
100
AcDbLine
 62
7
  6
CONTINUOUS
 10
17.7908895475
 20
-34.5515343974
 11
17.8119168197
 21
-34.4884820288
  0
LINE
  5
386
100
AcDbEntity
  8
0
100
AcDbLine
 62
7
  6
CONTINUOUS
 10
18.5315899603
 20
-37.2550073341
 11
18.4618634393
 21
-37.2204675008
  0
LINE
  5
387
100
AcDbEntity
  8
0
100
AcDbLine
 62
7
  6
CONTINUOUS
 10
18.4618634393
 20
-37.2204675008
 11
18.1815972938
 21
-37.0814728923
  0
LINE
  5
388
100
AcDbEntity
  8
0
100
AcDbLine
 62
7
  6
CONTINUOUS
 10
18.1815972938
 20
-37.0814728923
 11
18.1111892366
 21
-37.046518457
  0
LINE
  5
389
100
AcDbEntity
  8
0
100
AcDbLine
 62
7
  6
CONTINUOUS
 10
17.9752692958
 20
-35.678177808
 11
17.967549573
 21
-35.594991531
  0
LINE
  5
38A
100
AcDbEntity
  8
0
100
AcDbLine
 62
7
  6
CONTINUOUS
 10
17.967549573
 20
-35.594991531
 11
17.9502538784
 21
-35.4061404569
  0
LINE
  5
38B
100
AcDbEntity
  8
0
100
AcDbLine
 62
7
  6
CONTINUOUS
 10
16.2166778913
 20
-36.1026382566
 11
15.9316946386
 21
-35.9602720073
  0
LINE
  5
38C
100
AcDbEntity
  8
0
100
AcDbLine
 62
7
  6
CONTINUOUS
 10
15.9316946386
 20
-35.9602720073
 11
15.788520494
 21
-35.8887250196
  0
LINE
  5
38D
100
AcDbEntity
  8
0
100
AcDbLine
 62
7
  6
CONTINUOUS
 10
14.970555912
 20
-35.4798096247
 11
14.8450882234
 21
-35.4170803049
  0
LINE
  5
38E
100
AcDbEntity
  8
0
100
AcDbLine
 62
7
  6
CONTINUOUS
 10
14.8450882234
 20
-35.4170803049
 11
14.5933602387
 21
-35.2912395327
  0
LINE
  5
38F
100
AcDbEntity
  8
0
100
AcDbLine
 62
7
  6
CONTINUOUS
 10
15.0762795681
 20
-33.2425187367
 11
15.1015780007
 21
-33.1344948427
  0
SPLINE
  5
390
100
AcDbEntity
  8
RACCORDO
100
AcDbSpline
 62
7
  6
CONTINUOUS
 70
0
 71
3
 72
8
 73
4
 74
2
 42
0.0000001
 43
0.0000001
 44
0.0000000001
 12
0.0940047835
 22
0.0423211436
 32
0.0
 13
0.1056366665
 23
-0.0257201977
 33
0.0
 40
0.0
 40
0.0
 40
0.0
 40
0.0
 40
1.0
 40
1.0
 40
1.0
 40
1.0
 10
-16.2461762352
 20
-11.174397771
 30
0.0
 10
-16.2148413073
 20
-11.1602907231
 30
0.0
 10
-16.1788408463
 20
-11.1612216799
 30
0.0
 10
-16.1436286241
 20
-11.1697950791
 30
0.0
 11
-16.2461762352
 21
-11.174397771
 31
0.0
 11
-16.1436286241
 21
-11.1697950791
 31
0.0
  0
SPLINE
  5
391
100
AcDbEntity
  8
RACCORDO
100
AcDbSpline
 62
7
  6
CONTINUOUS
 70
0
 71
3
 72
9
 73
5
 74
3
 42
0.0000001
 43
0.0000001
 44
0.0000000001
 12
0.0717775856
 22
-0.0174762585
 32
0.0
 13
0.0648422708
 23
-0.0320477835
 33
0.0
 40
0.0
 40
0.0
 40
0.0
 40
0.0
 40
0.7524768124
 40
1.0
 40
1.0
 40
1.0
 40
1.0
 10
-16.1436286241
 20
-11.1697950791
 30
0.0
 10
-16.1256249678
 20
-11.1741785722
 30
0.0
 10
-16.1019729475
 20
-11.1826590473
 30
0.0
 10
-16.0799722446
 20
-11.1929221751
 30
0.0
 10
-16.074622256
 20
-11.1955663649
 30
0.0
 11
-16.1436286241
 21
-11.1697950791
 31
0.0
 11
-16.0909647853
 21
-11.18795067
 31
0.0
 11
-16.074622256
 21
-11.1955663649
 31
0.0
  0
SPLINE
  5
392
100
AcDbEntity
  8
RACCORDO
100
AcDbSpline
 62
7
  6
CONTINUOUS
 70
0
 71
3
 72
8
 73
4
 74
2
 42
0.0000001
 43
0.0000001
 44
0.0000000001
 12
0.0940047835
 22
0.0423211436
 32
0.0
 13
0.1056366665
 23
-0.0257201977
 33
0.0
 40
0.0
 40
0.0
 40
0.0
 40
0.0
 40
1.0
 40
1.0
 40
1.0
 40
1.0
 10
15.5736289182
 20
-27.0843003477
 30
0.0
 10
15.604963846
 20
-27.0701932998
 30
0.0
 10
15.6409643071
 20
-27.0711242566
 30
0.0
 10
15.6761765293
 20
-27.0796976558
 30
0.0
 11
15.5736289182
 21
-27.0843003477
 31
0.0
 11
15.6761765293
 21
-27.0796976558
 31
0.0
  0
SPLINE
  5
393
100
AcDbEntity
  8
RACCORDO
100
AcDbSpline
 62
7
  6
CONTINUOUS
 70
0
 71
3
 72
9
 73
5
 74
3
 42
0.0000001
 43
0.0000001
 44
0.0000000001
 12
0.0717775856
 22
-0.0174762585
 32
0.0
 13
0.0648422708
 23
-0.0320477835
 33
0.0
 40
0.0
 40
0.0
 40
0.0
 40
0.0
 40
0.7524768124
 40
1.0
 40
1.0
 40
1.0
 40
1.0
 10
15.6761765293
 20
-27.0796976558
 30
0.0
 10
15.6941801856
 20
-27.0840811489
 30
0.0
 10
15.7178322059
 20
-27.092561624
 30
0.0
 10
15.7398329088
 20
-27.1028247518
 30
0.0
 10
15.7451828973
 20
-27.1054689416
 30
0.0
 11
15.6761765293
 21
-27.0796976558
 31
0.0
 11
15.7288403681
 21
-27.0978532467
 31
0.0
 11
15.7451828973
 21
-27.1054689416
 31
0.0
  0
SPLINE
  5
394
100
AcDbEntity
  8
RACCORDO
100
AcDbSpline
 62
253
  6
CONTINUOUS
 70
0
 71
3
 72
9
 73
5
 74
3
 42
0.0000001
 43
0.0000001
 44
0.0000000001
 12
0.1592000013
 22
0.0945360817
 32
0.0
 13
-0.0024474272
 23
0.1803613097
 33
0.0
 40
0.0
 40
0.0
 40
0.0
 40
0.0
 40
0.3354078055
 40
1.0
 40
1.0
 40
1.0
 40
1.0
 10
19.6509750813
 20
-30.0937729922
 30
0.0
 10
19.6687740557
 20
-30.0832036123
 30
0.0
 10
19.715259737
 20
-30.039473212
 30
0.0
 10
19.7250781958
 20
-29.9751126708
 30
0.0
 10
19.7245360155
 20
-29.9351570979
 30
0.0
 11
19.6509750813
 21
-30.0937729922
 31
0.0
 11
19.6958323727
 21
-30.0515477194
 31
0.0
 11
19.7245360155
 21
-29.9351570979
 31
0.0
  0
SPLINE
  5
395
100
AcDbEntity
  8
RACCORDO
100
AcDbSpline
 62
253
  6
CONTINUOUS
 70
0
 71
3
 72
26
 73
22
 74
20
 42
0.0000001
 43
0.0000001
 44
0.0000000001
 12
9.0462765272
 22
-4.4964168744
 32
0.0
 13
9.035225481
 23
-4.5185821045
 33
0.0
 40
0.0
 40
0.0
 40
0.0
 40
0.0
 40
0.0323699362
 40
0.0654502311
 40
0.0988084032
 40
0.1319320291
 40
0.1649253365
 40
0.1987307737
 40
0.2347673857
 40
0.2743969701
 40
0.3184873889
 40
0.3667769055
 40
0.4189409873
 40
0.475108832
 40
0.5356515476
 40
0.6009397044
 40
0.6713631958
 40
0.7474315729
 40
0.8295868729
 40
0.9186581535
 40
1.0
 40
1.0
 40
1.0
 40
1.0
 10
-27.337251316
 20
-11.7801166536
 30
0.0
 10
-27.2396421845
 20
-11.8286328961
 30
0.0
 10
-27.0422164749
 20
-11.9265986186
 30
0.0
 10
-26.7445205621
 20
-12.0752024521
 30
0.0
 10
-26.4445863206
 20
-12.2250042643
 30
0.0
 10
-26.1449426785
 20
-12.3747324937
 30
0.0
 10
-25.844042273
 20
-12.5253149134
 30
0.0
 10
-25.5344239418
 20
-12.6803951552
 30
0.0
 10
-25.2048108686
 20
-12.8454549756
 30
0.0
 10
-24.8441991075
 20
-13.0259600856
 30
0.0
 10
-24.4466769529
 20
-13.2249048487
 30
0.0
 10
-24.0114448511
 20
-13.442810361
 30
0.0
 10
-23.5398037651
 20
-13.678837112
 30
0.0
 10
-23.0312333413
 20
-13.9332678619
 30
0.0
 10
-22.4831302604
 20
-14.2074533582
 30
0.0
 10
-21.8921168721
 20
-14.5031586395
 30
0.0
 10
-21.2543485336
 20
-14.8222572396
 30
0.0
 10
-20.5657950534
 20
-15.1667897001
 30
0.0
 10
-19.8211663397
 20
-15.539583367
 30
0.0
 10
-19.0606364026
 20
-15.920282146
 30
0.0
 10
-18.5474463908
 20
-16.1770580282
 30
0.0
 10
-18.3024657495
 20
-16.2995746321
 30
0.0
 11
-27.337251316
 21
-11.7801166536
 31
0.0
 11
-27.0444162863
 21
-11.9256500188
 31
0.0
 11
-26.7453631326
 21
-12.0747952
 31
0.0
 11
-26.4438845457
 21
-12.2253668053
 31
0.0
 11
-26.1445651581
 21
-12.374958702
 31
0.0
 11
-25.8464964418
 21
-12.5241081482
 31
0.0
 11
-25.5411394861
 21
-12.6770262275
 31
0.0
 11
-25.2156246433
 21
-12.8400286182
 31
0.0
 11
-24.8576295526
 21
-13.0192323365
 31
0.0
 11
-24.459326904
 21
-13.2185868902
 31
0.0
 11
-24.0231050619
 21
-13.4369565724
 31
0.0
 11
-23.5518559014
 21
-13.672794349
 31
0.0
 11
-23.0444070199
 21
-13.9266738522
 31
0.0
 11
-22.4974247355
 21
-14.2003106636
 31
0.0
 11
-21.9075817672
 21
-14.4954210154
 31
0.0
 11
-21.2713493487
 21
-14.8137547014
 31
0.0
 11
-20.5841373591
 21
-15.1576417208
 31
0.0
 11
-19.8419875364
 21
-15.5291506677
 31
0.0
 11
-19.0373494233
 21
-15.931908362
 31
0.0
 11
-18.3024657495
 21
-16.2995746321
 31
0.0
  0
LINE
  5
396
100
AcDbEntity
  8
RACCORDO
100
AcDbLine
 62
253
  6
CONTINUOUS
 10
-18.3024657495
 20
-16.2995746321
 11
-18.1508281137
 21
-16.3754017457
  0
LINE
  5
397
100
AcDbEntity
  8
RACCORDO
100
AcDbLine
 62
253
  6
CONTINUOUS
 10
-17.1538687594
 20
-27.9138517917
 11
-17.1675220967
 21
-27.8223013149
  0
SPLINE
  5
398
100
AcDbEntity
  8
RACCORDO
100
AcDbSpline
 62
253
  6
CONTINUOUS
 70
0
 71
3
 72
10
 73
6
 74
4
 42
0.0000001
 43
0.0000001
 44
0.0000000001
 12
-0.8185839237
 22
7.7013678206
 32
0.0
 13
-0.2131649142
 23
7.7407407859
 33
0.0
 40
0.0
 40
0.0
 40
0.0
 40
0.0
 40
0.3668400089
 40
0.8277760364
 40
1.0
 40
1.0
 40
1.0
 40
1.0
 10
-17.6407675165
 20
-24.1008212709
 30
0.0
 10
-17.7408639611
 20
-23.1590979908
 30
0.0
 10
-17.9342608276
 20
-21.0306702579
 30
0.0
 10
-18.0832123248
 20
-18.4532112159
 30
0.0
 10
-18.13859074
 20
-16.8197822767
 30
0.0
 10
-18.1508281088
 20
-16.3754019235
 30
0.0
 11
-17.6407675165
 21
-24.1008212709
 31
0.0
 11
-17.8985098852
 21
-21.2716079077
 31
0.0
 11
-18.1055836318
 21
-17.7082806879
 31
0.0
 11
-18.1508281088
 21
-16.3754019235
 31
0.0
  0
SPLINE
  5
399
100
AcDbEntity
  8
RACCORDO
100
AcDbSpline
 62
253
  6
CONTINUOUS
 70
0
 71
3
 72
11
 73
7
 74
5
 42
0.0000001
 43
0.0000001
 44
0.0000000001
 12
0.8011672042
 22
-0.4271132879
 32
0.0
 13
0.8052145193
 23
-0.4194284942
 33
0.0
 40
0.0
 40
0.0
 40
0.0
 40
0.0
 40
0.2046483715
 40
0.5259157279
 40
0.8751918797
 40
1.0
 40
1.0
 40
1.0
 40
1.0
 10
-32.3849430027
 20
-25.0398080216
 30
0.0
 10
-32.3302904815
 20
-25.0689440345
 30
0.0
 10
-32.189677246
 20
-25.1435106128
 30
0.0
 10
-31.9549648784
 20
-25.2662431408
 30
0.0
 10
-31.7415893793
 20
-25.3776335598
 30
0.0
 10
-31.6143564355
 20
-25.4439410588
 30
0.0
 10
-31.5808573319
 20
-25.4613904194
 30
0.0
 11
-32.3849430027
 21
-25.0398080216
 31
0.0
 11
-32.2207925318
 21
-25.1268524993
 31
0.0
 11
-31.9624618714
 21
-25.262287128
 31
0.0
 11
-31.6813442772
 21
-25.4090224821
 31
0.0
 11
-31.5808573319
 21
-25.4613904194
 31
0.0
  0
SPLINE
  5
39A
100
AcDbEntity
  8
RACCORDO
100
AcDbSpline
 62
253
  6
CONTINUOUS
 70
0
 71
3
 72
26
 73
22
 74
20
 42
0.0000001
 43
0.0000001
 44
0.0000000001
 12
14.690055456
 22
-7.6519085198
 32
0.0
 13
14.8040629742
 23
-7.4289425715
 33
0.0
 40
0.0
 40
0.0
 40
0.0
 40
0.0
 40
0.0143894627
 40
0.0378056121
 40
0.0631877732
 40
0.0906184245
 40
0.120588011
 40
0.1535435077
 40
0.1895390776
 40
0.2285111164
 40
0.2707533712
 40
0.3167923626
 40
0.3671656236
 40
0.4227714724
 40
0.4849123618
 40
0.5548476427
 40
0.6334559895
 40
0.7211602157
 40
0.8174461527
 40
0.9230591101
 40
1.0
 40
1.0
 40
1.0
 40
1.0
 10
-31.5808573319
 20
-25.4613904194
 30
0.0
 10
-31.5103966638
 20
-25.4980927034
 30
0.0
 10
-31.3252329619
 20
-25.594441459
 30
0.0
 10
-31.01553286
 20
-25.7550537032
 30
0.0
 10
-30.6415792753
 20
-25.9481674829
 30
0.0
 10
-30.2347845848
 20
-26.1565386029
 30
0.0
 10
-29.7899945153
 20
-26.3824432785
 30
0.0
 10
-29.3023126885
 20
-26.6283187543
 30
0.0
 10
-28.7698086833
 20
-26.8956955047
 30
0.0
 10
-28.1911822998
 20
-27.1854805729
 30
0.0
 10
-27.5627357603
 20
-27.499618555
 30
0.0
 10
-26.8779031834
 20
-27.8417403897
 30
0.0
 10
-26.1273271235
 20
-28.2173584895
 30
0.0
 10
-25.2976772866
 20
-28.6336162871
 30
0.0
 10
-24.3716484955
 20
-29.0986213678
 30
0.0
 10
-23.3317431007
 20
-29.6198577487
 30
0.0
 10
-22.16520929
 20
-30.2034353961
 30
0.0
 10
-20.8691205073
 20
-30.8532198316
 30
0.0
 10
-19.4410176326
 20
-31.5723546717
 30
0.0
 10
-18.0663507483
 20
-32.2654724637
 30
0.0
 10
-17.166027787
 20
-32.7185772597
 30
0.0
 10
-16.7863485272
 20
-32.9091070771
 30
0.0
 11
-31.5808573319
 21
-25.4613904194
 31
0.0
 11
-31.3694246445
 21
-25.5713999456
 31
0.0
 11
-31.025119405
 21
-25.7499610943
 31
0.0
 11
-30.6515264817
 21
-25.9427798031
 31
0.0
 11
-30.2471478372
 21
-26.1499260025
 31
0.0
 11
-29.8045878389
 21
-26.374769786
 31
0.0
 11
-29.3172361518
 21
-26.6206346856
 31
0.0
 11
-28.7844505801
 21
-26.8882329956
 31
0.0
 11
-28.2072911376
 21
-27.1773251643
 31
0.0
 11
-27.5814743864
 21
-27.4902224087
 31
0.0
 11
-26.8993484539
 21
-27.8311213809
 31
0.0
 11
-26.1532235121
 21
-28.2045510132
 31
0.0
 11
-25.3299488117
 21
-28.6174795453
 31
0.0
 11
-24.4100533084
 21
-29.0792043202
 31
0.0
 11
-23.3744890073
 21
-29.5982746441
 31
0.0
 11
-22.2102014688
 21
-30.181124668
 31
0.0
 11
-20.9116600748
 21
-30.832349995
 31
0.0
 11
-19.4870706037
 21
-31.5493110124
 31
0.0
 11
-17.9248846293
 21
-32.3365179406
 31
0.0
 11
-16.7863485272
 21
-32.9091070771
 31
0.0
  0
SPLINE
  5
39B
100
AcDbEntity
  8
RACCORDO
100
AcDbSpline
 62
253
  6
CONTINUOUS
 70
0
 71
3
 72
8
 73
4
 74
2
 42
0.0000001
 43
0.0000001
 44
0.0000000001
 12
0.5983764936
 22
-0.300275986
 32
0.0
 13
0.5988112325
 23
-0.2994079049
 33
0.0
 40
0.0
 40
0.0
 40
0.0
 40
0.0
 40
1.0
 40
1.0
 40
1.0
 40
1.0
 10
-16.7863485272
 20
-32.9091070771
 30
0.0
 10
-16.586889696
 20
-33.0091990725
 30
0.0
 10
-16.3873700018
 20
-33.1091696209
 30
0.0
 10
-16.1877662577
 20
-33.2089722558
 30
0.0
 11
-16.7863485272
 21
-32.9091070771
 31
0.0
 11
-16.1877662577
 21
-33.2089722558
 31
0.0
  0
SPLINE
  5
39C
100
AcDbEntity
  8
RACCORDO
100
AcDbSpline
 62
253
  6
CONTINUOUS
 70
0
 71
3
 72
10
 73
6
 74
4
 42
0.0000001
 43
0.0000001
 44
0.0000000001
 12
0.1421737272
 22
-0.8025281369
 32
0.0
 13
0.3434244153
 23
-0.7389265679
 33
0.0
 40
0.0
 40
0.0
 40
0.0
 40
0.0
 40
0.1468303766
 40
0.6359373771
 40
1.0
 40
1.0
 40
1.0
 40
1.0
 10
-34.4769974251
 20
-22.5855298001
 30
0.0
 10
-34.4700389512
 20
-22.624808303
 30
0.0
 10
-34.4360855376
 20
-22.7942796232
 30
0.0
 10
-34.3590841294
 20
-23.0552360829
 30
0.0
 10
-34.2705989091
 20
-23.2696083617
 30
0.0
 10
-34.2289229113
 20
-23.3592802099
 30
0.0
 11
-34.4769974251
 21
-22.5855298001
 31
0.0
 11
-34.4535596512
 21
-22.702878513
 31
0.0
 11
-34.3419655588
 21
-23.0851499725
 31
0.0
 11
-34.2289229113
 21
-23.3592802099
 31
0.0
  0
SPLINE
  5
39D
100
AcDbEntity
  8
RACCORDO
100
AcDbSpline
 62
253
  6
CONTINUOUS
 70
0
 71
3
 72
10
 73
6
 74
4
 42
0.0000001
 43
0.0000001
 44
0.0000000001
 12
0.6574528869
 22
-1.0082622285
 32
0.0
 13
1.0476046379
 23
-0.5905819107
 33
0.0
 40
0.0
 40
0.0
 40
0.0
 40
0.0
 40
0.1402004338
 40
0.5722577126
 40
1.0
 40
1.0
 40
1.0
 40
1.0
 10
-33.9950966229
 20
-23.7812716117
 30
0.0
 10
-33.9643715629
 20
-23.8283912123
 30
0.0
 10
-33.8340422048
 20
-24.0174927228
 30
0.0
 10
-33.5715606631
 20
-24.3225794743
 30
0.0
 10
-33.2969331012
 20
-24.5377981288
 30
0.0
 10
-33.1475648331
 20
-24.622003748
 30
0.0
 11
-33.9950966229
 21
-23.7812716117
 31
0.0
 11
-33.8993182953
 21
-23.9201780392
 31
0.0
 11
-33.5580684174
 21
-24.3120037489
 31
0.0
 11
-33.1475648331
 21
-24.622003748
 31
0.0
  0
SPLINE
  5
39E
100
AcDbEntity
  8
0
100
AcDbSpline
 62
253
  6
CONTINUOUS
 70
0
 71
3
 72
10
 73
6
 74
4
 42
0.0000001
 43
0.0000001
 44
0.0000000001
 12
-0.5133000083
 22
0.2571532269
 32
0.0
 13
-0.0001969904
 23
0.5741120464
 33
0.0
 40
0.0
 40
0.0
 40
0.0
 40
0.0
 40
0.3090099912
 40
0.6670754419
 40
1.0
 40
1.0
 40
1.0
 40
1.0
 10
-27.2524029572
 20
-8.8540471962
 30
0.0
 10
-27.3052745675
 20
-8.8275595575
 30
0.0
 10
-27.4039279702
 20
-8.7399575578
 30
0.0
 10
-27.4999232562
 20
-8.5719138083
 30
0.0
 10
-27.5290193462
 20
-8.439426084
 30
0.0
 10
-27.5290412072
 20
-8.3757140842
 30
0.0
 11
-27.2524029572
 21
-8.8540471962
 31
0.0
 11
-27.3892449044
 21
-8.7411432495
 31
0.0
 11
-27.4923380276
 21
-8.563293004
 31
0.0
 11
-27.5290412072
 21
-8.3757140842
 31
0.0
  0
LINE
  5
39F
100
AcDbEntity
  8
0
100
AcDbLine
 62
7
  6
CONTINUOUS
 10
17.4755705474
 20
-35.6228756359
 11
17.3947842326
 21
-35.3578317658
  0
LINE
  5
3A0
100
AcDbEntity
  8
0
100
AcDbLine
 62
7
  6
CONTINUOUS
 10
17.0791454592
 20
-34.303865528
 11
17.0020890869
 21
-34.0419332646
  0
LINE
  5
3A1
100
AcDbEntity
  8
RACCORDO
100
AcDbLine
 62
253
  6
CONTINUOUS
 10
10.423474337
 20
-29.6170481621
 11
15.0288213923
 21
-31.9202374376
  0
LINE
  5
3A2
100
AcDbEntity
  8
RACCORDO
100
AcDbLine
 62
253
  6
CONTINUOUS
 10
15.0288213923
 20
-31.9202374376
 11
15.2391624582
 21
-32.0254106779
  0
LINE
  5
3A3
100
AcDbEntity
  8
RACCORDO
100
AcDbLine
 62
253
  6
CONTINUOUS
 10
15.2391624582
 20
-32.0254106779
 11
16.1945515336
 21
-32.5031315116
  0
LINE
  5
3A4
100
AcDbEntity
  8
RACCORDO
100
AcDbLine
 62
253
  6
CONTINUOUS
 10
16.1945515336
 20
-32.5031315116
 11
17.0123111595
 21
-32.9120813483
  0
SPLINE
  5
3A5
100
AcDbEntity
  8
RACCORDO
100
AcDbSpline
 62
253
  6
CONTINUOUS
 70
0
 71
3
 72
15
 73
11
 74
9
 42
0.0000001
 43
0.0000001
 44
0.0000000001
 12
2.6449828597
 22
-1.3228642764
 32
0.0
 13
2.6440985326
 23
-1.3246309548
 33
0.0
 40
0.0
 40
0.0
 40
0.0
 40
0.0
 40
0.1644396899
 40
0.3152105748
 40
0.453853532
 40
0.5814789927
 40
0.6990589809
 40
0.8072745788
 40
0.9074132043
 40
1.0
 40
1.0
 40
1.0
 40
1.0
 10
17.0123111595
 20
-32.9120813483
 30
0.0
 10
17.1572912132
 20
-32.9845918121
 30
0.0
 10
17.435195326
 20
-33.1235948988
 30
0.0
 10
17.8353131876
 20
-33.3237779024
 30
0.0
 10
18.2029536867
 20
-33.5077668561
 30
0.0
 10
18.5413065064
 20
-33.6771691857
 30
0.0
 10
18.8528203655
 20
-33.8331790856
 30
0.0
 10
19.140062952
 20
-33.9771427633
 30
0.0
 10
19.4053118172
 20
-34.1100021758
 30
0.0
 10
19.5750869669
 20
-34.1952714475
 30
0.0
 10
19.6566898371
 20
-34.2361525593
 30
0.0
 11
17.0123111595
 21
-32.9120813483
 31
0.0
 11
17.447242545
 21
-33.1296302848
 31
0.0
 11
17.8460010616
 21
-33.3291354562
 31
0.0
 11
18.2126608282
 21
-33.5126381693
 31
0.0
 11
18.5501579573
 21
-33.6816092738
 31
0.0
 11
18.8610661542
 21
-33.8373291755
 31
0.0
 11
19.1471871834
 21
-33.9806982076
 31
0.0
 11
19.4119429635
 21
-34.1133860677
 31
0.0
 11
19.6566898371
 21
-34.2361525593
 31
0.0
  0
SPLINE
  5
3A6
100
AcDbEntity
  8
RACCORDO
100
AcDbSpline
 62
253
  6
CONTINUOUS
 70
0
 71
3
 72
10
 73
6
 74
4
 42
0.0000001
 43
0.0000001
 44
0.0000000001
 12
-1.24423364
 22
1.4299722703
 32
0.0
 13
1.665932347
 23
0.9042164896
 33
0.0
 40
0.0
 40
0.0
 40
0.0
 40
0.0
 40
0.2812225374
 40
0.6513038945
 40
1.0
 40
1.0
 40
1.0
 40
1.0
 10
10.4234740764
 20
-29.6170481531
 30
0.0
 10
10.3068385626
 20
-29.483001343
 30
0.0
 10
10.2371956887
 20
-29.0276403374
 30
0.0
 10
10.4557087889
 20
-28.4289430041
 30
0.0
 10
10.7728642138
 20
-28.0688260972
 30
0.0
 10
10.9664989209
 20
-27.9637271744
 30
0.0
 11
10.4234740764
 21
-29.6170481531
 31
0.0
 11
10.2862147208
 21
-29.1019642933
 31
0.0
 11
10.5028220243
 21
-28.4347530612
 31
0.0
 11
10.9664989209
 21
-27.9637271744
 31
0.0
  0
SPLINE
  5
3A7
100
AcDbEntity
  8
RACCORDO
100
AcDbSpline
 62
253
  6
CONTINUOUS
 70
0
 71
3
 72
10
 73
6
 74
4
 42
0.0000001
 43
0.0000001
 44
0.0000000001
 12
-1.2214973981
 22
1.3616422285
 32
0.0
 13
1.5348339338
 23
0.9950373284
 33
0.0
 40
0.0
 40
0.0
 40
0.0
 40
0.0
 40
0.2954301968
 40
0.677837634
 40
1.0
 40
1.0
 40
1.0
 40
1.0
 10
19.6566898371
 20
-34.2361525593
 30
0.0
 10
19.5364007648
 20
-34.1020624821
 30
0.0
 10
19.4647974838
 20
-33.6428384479
 30
0.0
 10
19.6758612627
 20
-33.0658882433
 30
0.0
 10
19.9674204493
 20
-32.7212135886
 30
0.0
 10
20.1322423598
 20
-32.6143590619
 30
0.0
 11
19.6566898371
 21
-34.2361525593
 31
0.0
 11
19.5147637215
 21
-33.7147089238
 31
0.0
 11
19.7306577052
 21
-33.0493429025
 31
0.0
 11
20.1322423598
 21
-32.6143590619
 31
0.0
  0
SPLINE
  5
3A8
100
AcDbEntity
  8
RACCORDO
100
AcDbSpline
 62
253
  6
CONTINUOUS
 70
0
 71
3
 72
22
 73
18
 74
16
 42
0.0000001
 43
0.0000001
 44
0.0000000001
 12
1.9898545245
 22
-0.9999115759
 32
0.0
 13
-0.0024893616
 23
2.2269571149
 33
0.0
 40
0.0
 40
0.0
 40
0.0
 40
0.0
 40
0.0683170506
 40
0.1329016304
 40
0.193711608
 40
0.251699791
 40
0.3082014623
 40
0.3663452538
 40
0.4298254454
 40
0.4987814721
 40
0.5718217739
 40
0.6466250023
 40
0.7173108187
 40
0.7821219848
 40
0.848888324
 40
0.9225951361
 40
1.0
 40
1.0
 40
1.0
 40
1.0
 10
19.6566880014
 20
-34.2361508322
 30
0.0
 10
19.7020016655
 20
-34.2589211688
 30
0.0
 10
19.7921665509
 20
-34.2994614778
 30
0.0
 10
19.9293076929
 20
-34.3436162964
 30
0.0
 10
20.0629472371
 20
-34.3711055256
 30
0.0
 10
20.1930731919
 20
-34.381025109
 30
0.0
 10
20.3214092718
 20
-34.3735790257
 30
0.0
 10
20.4514062652
 20
-34.3466790856
 30
0.0
 10
20.583950864
 20
-34.2951553651
 30
0.0
 10
20.7144184306
 20
-34.2143644868
 30
0.0
 10
20.8332776921
 20
-34.1044163853
 30
0.0
 10
20.9309142546
 20
-33.9738563616
 30
0.0
 10
21.004022031
 20
-33.8353305468
 30
0.0
 10
21.056616053
 20
-33.6943458367
 30
0.0
 10
21.0937259302
 20
-33.5462482067
 30
0.0
 10
21.1165339009
 20
-33.3858606741
 30
0.0
 10
21.1215640026
 20
-33.2736045508
 30
0.0
 10
21.121499773
 20
-33.2161454467
 30
0.0
 11
19.6566880014
 21
-34.2361508322
 31
0.0
 11
19.7957358934
 21
-34.2978924808
 31
0.0
 11
19.932671249
 21
-34.3418807284
 31
0.0
 11
20.0654256483
 21
-34.3686238974
 31
0.0
 11
20.1942088343
 21
-34.3781804338
 31
0.0
 11
20.3198099119
 21
-34.3706456859
 31
0.0
 11
20.4465576266
 21
-34.3441678812
 31
0.0
 11
20.5783007735
 21
-34.2928981562
 31
0.0
 11
20.7089216418
 21
-34.2121544802
 31
0.0
 11
20.8286501807
 21
-34.1020517495
 31
0.0
 11
20.9289403993
 21
-33.9690404854
 31
0.0
 11
21.002833707
 21
-33.8300474418
 31
0.0
 11
21.0535775324
 21
-33.6949299883
 31
0.0
 11
21.0900566315
 21
-33.5507885218
 31
0.0
 11
21.1135800224
 21
-33.3883408371
 31
0.0
 11
21.121499773
 21
-33.2161454467
 31
0.0
  0
SPLINE
  5
3A9
100
AcDbEntity
  8
RACCORDO
100
AcDbSpline
 62
253
  6
CONTINUOUS
 70
0
 71
3
 72
9
 73
5
 74
3
 42
0.0000001
 43
0.0000001
 44
0.0000000001
 12
-1.1003407716
 22
0.0451870363
 32
0.0
 13
0.0080409157
 23
1.0114504121
 33
0.0
 40
0.0
 40
0.0
 40
0.0
 40
0.0
 40
0.6122794482
 40
1.0
 40
1.0
 40
1.0
 40
1.0
 10
21.121499773
 20
-33.2161454467
 30
0.0
 10
20.8969277595
 20
-33.2069230821
 30
0.0
 10
20.538961505
 20
-33.1705441558
 30
0.0
 10
20.2025749347
 20
-32.8486991473
 30
0.0
 10
20.2036141441
 20
-32.71797911
 30
0.0
 11
21.121499773
 21
-33.2161454467
 31
0.0
 11
20.4666669221
 21
-33.0553576715
 31
0.0
 11
20.2036141441
 21
-32.71797911
 31
0.0
  0
SPLINE
  5
3AA
100
AcDbEntity
  8
RACCORDO
100
AcDbSpline
 62
253
  6
CONTINUOUS
 70
0
 71
3
 72
17
 73
13
 74
11
 42
0.0000001
 43
0.0000001
 44
0.0000000001
 12
-0.0086086391
 22
9.0938325576
 32
0.0
 13
0.0024365984
 23
9.0938363059
 33
0.0
 40
0.0
 40
0.0
 40
0.0
 40
0.0
 40
0.06923668
 40
0.1444054413
 40
0.2254873614
 40
0.3125173196
 40
0.4059249982
 40
0.5063985215
 40
0.6149114711
 40
0.7321199395
 40
0.8595629179
 40
1.0
 40
1.0
 40
1.0
 40
1.0
 10
21.1214979626
 20
-33.2161453226
 30
0.0
 10
21.1212992847
 20
-33.006269731
 30
0.0
 10
21.1211064415
 20
-32.5685365762
 30
0.0
 10
21.1209337624
 20
-31.8850215338
 30
0.0
 10
21.1207811401
 20
-31.1475700816
 30
0.0
 10
21.1204804874
 20
-30.3548314223
 30
0.0
 10
21.1198951094
 20
-29.503311542
 30
0.0
 10
21.1189849393
 20
-28.5866709789
 30
0.0
 10
21.1177930457
 20
-27.59788386
 30
0.0
 10
21.1164189368
 20
-26.5273449619
 30
0.0
 10
21.1153657139
 20
-25.3600346697
 30
0.0
 10
21.1151915799
 20
-24.5480153991
 30
0.0
 10
21.1153056428
 20
-24.1223114537
 30
0.0
 11
21.1214979626
 21
-33.2161453226
 31
0.0
 11
21.1211332728
 21
-32.5865183713
 31
0.0
 11
21.1209432975
 21
-31.9029459628
 31
0.0
 11
21.1207644468
 21
-31.1656002493
 31
0.0
 11
21.1204486039
 21
-30.3741640897
 31
0.0
 11
21.1198681608
 21
-29.5247301191
 31
0.0
 11
21.1189780266
 21
-28.6110407462
 31
0.0
 11
21.1178124594
 21
-27.6242423982
 31
0.0
 11
21.1165236608
 21
-26.5583685139
 31
0.0
 11
21.1155276658
 21
-25.3994233165
 31
0.0
 11
21.1153056428
 21
-24.1223114537
 31
0.0
  0
SPLINE
  5
3AB
100
AcDbEntity
  8
RACCORDO
100
AcDbSpline
 62
253
  6
CONTINUOUS
 70
0
 71
3
 72
10
 73
6
 74
4
 42
0.0000001
 43
0.0000001
 44
0.0000000001
 12
-1.1036793899
 22
0.0486633592
 32
0.0
 13
-0.0603997405
 23
1.1338765456
 33
0.0
 40
0.0
 40
0.0
 40
0.0
 40
0.0
 40
0.4740627993
 40
0.8342915244
 40
1.0
 40
1.0
 40
1.0
 40
1.0
 10
21.1153050036
 20
-24.122311426
 30
0.0
 10
20.9409005566
 20
-24.1146215965
 30
0.0
 10
20.6419401972
 20
-24.0582597499
 30
0.0
 10
20.2830522308
 20
-23.8899784541
 30
0.0
 10
20.2141551706
 20
-23.6864816861
 30
0.0
 10
20.2108189209
 20
-23.6238507015
 30
0.0
 11
21.1153050036
 21
-24.122311426
 31
0.0
 11
20.6010013501
 21
-24.0234369925
 31
0.0
 11
20.2694684943
 21
-23.8032989657
 31
0.0
 11
20.2108189209
 21
-23.6238507015
 31
0.0
  0
SPLINE
  5
3AC
100
AcDbEntity
  8
RACCORDO
100
AcDbSpline
 62
253
  6
CONTINUOUS
 70
0
 71
3
 72
9
 73
5
 74
3
 42
0.0000001
 43
0.0000001
 44
0.0000000001
 12
-1.0948962685
 22
0.0486226409
 32
0.0
 13
0.0086676208
 23
1.0069526989
 33
0.0
 40
0.0
 40
0.0
 40
0.0
 40
0.0
 40
0.6126823237
 40
1.0
 40
1.0
 40
1.0
 40
1.0
 10
21.1153049895
 20
-3.7703946989
 30
0.0
 10
20.8916971262
 20
-3.7604646214
 30
0.0
 10
20.5351208097
 20
-3.7240301987
 30
0.0
 10
20.2019977731
 20
-3.4023855267
 30
0.0
 10
20.203116814
 20
-3.2723820002
 30
0.0
 11
21.1153049895
 21
-3.7703946989
 31
0.0
 11
20.4635649974
 21
-3.6087570501
 31
0.0
 11
20.203116814
 21
-3.2723820002
 31
0.0
  0
SPLINE
  5
3AD
100
AcDbEntity
  8
RACCORDO
100
AcDbSpline
 62
253
  6
CONTINUOUS
 70
0
 71
3
 72
16
 73
12
 74
10
 42
0.0000001
 43
0.0000001
 44
0.0000000001
 12
-0.0000300377
 22
9.0936542552
 32
0.0
 13
0.0085348276
 23
9.09365025
 33
0.0
 40
0.0
 40
0.0
 40
0.0
 40
0.0
 40
0.1264293543
 40
0.2643600978
 40
0.4026642633
 40
0.5291644518
 40
0.6420023885
 40
0.7442871535
 40
0.8372941711
 40
0.9221225338
 40
1.0
 40
1.0
 40
1.0
 40
1.0
 10
21.1153049919
 20
-3.7703946642
 30
0.0
 10
21.1153037261
 20
-3.387159719
 30
0.0
 10
21.1155551286
 20
-2.5858265973
 30
0.0
 10
21.1165771886
 20
-1.3652637844
 30
0.0
 10
21.1180691769
 20
-0.1444867776
 30
0.0
 10
21.119405022
 20
1.0002285833
 30
0.0
 10
21.1204199834
 20
2.0357615838
 30
0.0
 10
21.1210173209
 20
2.9697697867
 30
0.0
 10
21.1213292777
 20
3.8188749887
 30
0.0
 10
21.1215329234
 20
4.5939963521
 30
0.0
 10
21.1217439601
 20
5.0871931953
 30
0.0
 10
21.121965517
 20
5.3232566753
 30
0.0
 11
21.1153049919
 21
-3.7703946642
 31
0.0
 11
21.1156401636
 21
-2.6206898774
 31
0.0
 11
21.1166565729
 21
-1.3663957962
 31
0.0
 11
21.1181008208
 21
-0.1087063625
 31
0.0
 11
21.1194154847
 21
1.0416418633
 31
0.0
 11
21.120390232
 21
2.0677505838
 31
0.0
 11
21.1209911131
 21
2.9978926785
 31
0.0
 11
21.1213229532
 21
3.8436662744
 31
0.0
 11
21.1215606013
 21
4.615066039
 31
0.0
 11
21.121965517
 21
5.3232566753
 31
0.0
  0
SPLINE
  5
3AE
100
AcDbEntity
  8
RACCORDO
100
AcDbSpline
 62
253
  6
CONTINUOUS
 70
0
 71
3
 72
9
 73
5
 74
3
 42
0.0000001
 43
0.0000001
 44
0.0000000001
 12
-1.1011049094
 22
0.0452909468
 32
0.0
 13
0.0113764859
 23
1.0122267243
 33
0.0
 40
0.0
 40
0.0
 40
0.0
 40
0.0
 40
0.6119239865
 40
1.0
 40
1.0
 40
1.0
 40
1.0
 10
21.121965517
 20
5.3232566753
 30
0.0
 10
20.8973680151
 20
5.3324948809
 30
0.0
 10
20.5390750878
 20
5.3678432645
 30
0.0
 10
20.2020555522
 20
5.6900476813
 30
0.0
 10
20.2035271993
 20
5.8209879853
 30
0.0
 11
21.121965517
 21
5.3232566753
 31
0.0
 11
20.4668377843
 21
5.4831694471
 31
0.0
 11
20.2035271993
 21
5.8209879853
 31
0.0
  0
SPLINE
  5
3AF
100
AcDbEntity
  8
RACCORDO
100
AcDbSpline
 62
253
  6
CONTINUOUS
 70
0
 71
3
 72
16
 73
12
 74
10
 42
0.0000001
 43
0.0000001
 44
0.0000000001
 12
0.0021622098
 22
2.0143649089
 32
0.0
 13
-1.2943283014
 23
1.5438935462
 33
0.0
 40
0.0
 40
0.0
 40
0.0
 40
0.0
 40
0.1493766955
 40
0.2921181531
 40
0.4275242758
 40
0.5543659132
 40
0.670406328
 40
0.7759861758
 40
0.8744505192
 40
0.969030042
 40
1.0
 40
1.0
 40
1.0
 40
1.0
 10
21.1219680852
 20
5.3232564926
 30
0.0
 10
21.1220757465
 20
5.4235562172
 30
0.0
 10
21.1068928321
 20
5.6199045772
 30
0.0
 10
21.0494472251
 20
5.901708225
 30
0.0
 10
20.9679003634
 20
6.1615575045
 30
0.0
 10
20.8713263138
 20
6.3967679675
 30
0.0
 10
20.766592205
 20
6.6062053854
 30
0.0
 10
20.6579895991
 20
6.7918321952
 30
0.0
 10
20.5463607934
 20
6.9585340635
 30
0.0
 10
20.4555856296
 20
7.0785758995
 30
0.0
 10
20.4020722225
 20
7.1437357023
 30
0.0
 10
20.3887104581
 20
7.1596738084
 30
0.0
 11
21.1219680852
 21
5.3232564926
 31
0.0
 11
21.1002544029
 21
5.623371359
 31
0.0
 11
21.0435545544
 21
5.9052590474
 31
0.0
 11
20.962404924
 21
6.1656652509
 31
0.0
 11
20.8655701803
 21
6.402109934
 31
0.0
 11
20.7610948382
 21
6.6112103204
 31
0.0
 11
20.6536896362
 21
6.79477339
 31
0.0
 11
20.5433310862
 21
6.9595794222
 31
0.0
 11
20.4283125715
 21
7.1114601859
 31
0.0
 11
20.3887104581
 21
7.1596738084
 31
0.0
  0
SPLINE
  5
3B0
100
AcDbEntity
  8
RACCORDO
100
AcDbSpline
 62
253
  6
CONTINUOUS
 70
0
 71
3
 72
13
 73
9
 74
7
 42
0.0000001
 43
0.0000001
 44
0.0000000001
 12
-0.6125812341
 22
0.7306957693
 32
0.0
 13
-0.8579671376
 23
0.4156809606
 33
0.0
 40
0.0
 40
0.0
 40
0.0
 40
0.0
 40
0.1292058505
 40
0.3204923895
 40
0.5042427863
 40
0.6824460875
 40
0.8465131009
 40
1.0
 40
1.0
 40
1.0
 40
1.0
 10
20.3887104581
 20
7.1596738084
 30
0.0
 10
20.3623274316
 20
7.1911438645
 30
0.0
 10
20.2953247413
 20
7.2678971127
 30
0.0
 10
20.1837583185
 20
7.3830817992
 30
0.0
 10
20.052943936
 20
7.5007642498
 30
0.0
 10
19.9206767741
 20
7.6032540363
 30
0.0
 10
19.7888112659
 20
7.6897679962
 30
0.0
 10
19.6998949903
 20
7.7378043132
 30
0.0
 10
19.6559994185
 20
7.7590715071
 30
0.0
 11
20.3887104581
 21
7.1596738084
 31
0.0
 11
20.3076682811
 21
7.252453881
 31
0.0
 11
20.1806083113
 21
7.3832699449
 31
0.0
 11
20.0502333247
 21
7.5002767542
 31
0.0
 11
19.9157732257
 21
7.604121994
 31
0.0
 11
19.7848090227
 21
7.6896444323
 31
0.0
 11
19.6559994185
 21
7.7590715071
 31
0.0
  0
SPLINE
  5
3B1
100
AcDbEntity
  8
RACCORDO
100
AcDbSpline
 62
253
  6
CONTINUOUS
 70
0
 71
3
 72
10
 73
6
 74
4
 42
0.0000001
 43
0.0000001
 44
0.0000000001
 12
-0.5241672275
 22
-1.1088641411
 32
0.0
 13
1.1231867445
 23
-0.4852510258
 33
0.0
 40
0.0
 40
0.0
 40
0.0
 40
0.0
 40
0.5525406957
 40
0.958907675
 40
1.0
 40
1.0
 40
1.0
 40
1.0
 10
19.6559994185
 20
7.7590715071
 30
0.0
 10
19.5594581769
 20
7.5548406524
 30
0.0
 10
19.4449588697
 20
7.1747196471
 30
0.0
 10
19.5984964338
 20
6.7140971264
 30
0.0
 10
19.7592409964
 20
6.6308733624
 30
0.0
 10
19.7746257813
 20
6.6242266648
 30
0.0
 11
19.6559994185
 21
7.7590715071
 31
0.0
 11
19.5144058128
 21
7.0963307353
 31
0.0
 11
19.7304933687
 21
6.6471954091
 31
0.0
 11
19.7746257813
 21
6.6242266648
 31
0.0
  0
SPLINE
  5
3B2
100
AcDbEntity
  8
RACCORDO
100
AcDbSpline
 62
253
  6
CONTINUOUS
 70
0
 71
3
 72
23
 73
19
 74
17
 42
0.0000001
 43
0.0000001
 44
0.0000000001
 12
-7.9858397138
 22
3.9199887983
 32
0.0
 13
-7.9592139379
 23
3.9737717022
 33
0.0
 40
0.0
 40
0.0
 40
0.0
 40
0.0
 40
0.0335886757
 40
0.070146087
 40
0.1098038286
 40
0.1527666302
 40
0.1992070653
 40
0.2494297678
 40
0.3038037507
 40
0.3626069222
 40
0.4260684211
 40
0.4944931614
 40
0.568306772
 40
0.6479642103
 40
0.7339758154
 40
0.827056477
 40
0.9279365862
 40
1.0
 40
1.0
 40
1.0
 40
1.0
 10
19.6560026993
 20
7.7590788927
 30
0.0
 10
19.5665914391
 20
7.8029679703
 30
0.0
 10
19.3799732316
 20
7.8948430194
 30
0.0
 10
19.087994367
 20
8.0389557288
 30
0.0
 10
18.7712885741
 20
8.1957757499
 30
0.0
 10
18.4284799523
 20
8.3659239795
 30
0.0
 10
18.0577703369
 20
8.5503253909
 30
0.0
 10
17.6568905853
 20
8.7500519401
 30
0.0
 10
17.2233083701
 20
8.9663481392
 30
0.0
 10
16.7546903298
 20
9.200355906
 30
0.0
 10
16.2488565493
 20
9.453099127
 30
0.0
 10
15.7032443301
 20
9.7258157372
 30
0.0
 10
15.1147064475
 20
10.020072002
 30
0.0
 10
14.4795387427
 20
10.3376824476
 30
0.0
 10
13.7932265566
 20
10.6807586311
 30
0.0
 10
13.0505278648
 20
11.0517836112
 30
0.0
 10
12.3447244832
 20
11.4041121807
 30
0.0
 10
11.8858756149
 20
11.6331567505
 30
0.0
 10
11.6946862391
 20
11.7286112687
 30
0.0
 11
19.6560026993
 21
7.7590788927
 31
0.0
 11
19.3878926599
 21
7.8909979134
 31
0.0
 11
19.0962678343
 21
8.0349461501
 31
0.0
 11
18.780095178
 21
8.1914745321
 31
0.0
 11
18.4377410229
 21
8.3613872506
 31
0.0
 11
18.0678310589
 21
8.5453678301
 31
0.0
 11
17.6679251349
 21
8.7445951224
 31
0.0
 11
17.2350750506
 21
8.9605127839
 31
0.0
 11
16.7670577427
 21
9.1942026204
 31
0.0
 11
16.2620281391
 21
9.446532377
 31
0.0
 11
15.7175431105
 21
9.718681133
 31
0.0
 11
15.130208517
 21
10.0123272715
 31
0.0
 11
14.4963851445
 21
10.3292424594
 31
0.0
 11
13.8119626088
 21
10.6713576871
 31
0.0
 11
13.0712001303
 21
11.0414120319
 31
0.0
 11
12.2682683369
 21
11.4422756958
 31
0.0
 11
11.6946862391
 21
11.7286112687
 31
0.0
  0
LINE
  5
3B3
100
AcDbEntity
  8
RACCORDO
100
AcDbLine
 62
253
  6
CONTINUOUS
 10
11.6946862391
 20
11.7286112687
 11
10.7578397877
 21
12.1965602242
  0
LINE
  5
3B4
100
AcDbEntity
  8
RACCORDO
100
AcDbLine
 62
253
  6
CONTINUOUS
 10
10.7578397877
 20
12.1965602242
 11
10.4234830864
 21
12.3636989579
  0
SPLINE
  5
3B5
100
AcDbEntity
  8
RACCORDO
100
AcDbSpline
 62
253
  6
CONTINUOUS
 70
0
 71
3
 72
10
 73
6
 74
4
 42
0.0000001
 43
0.0000001
 44
0.0000000001
 12
-0.5124117624
 22
-1.1013012162
 32
0.0
 13
1.1071338096
 23
-0.487329391
 33
0.0
 40
0.0
 40
0.0
 40
0.0
 40
0.0
 40
0.5542692308
 40
0.961750146
 40
1.0
 40
1.0
 40
1.0
 40
1.0
 10
10.423482993
 20
12.3636987557
 30
0.0
 10
10.3288116352
 20
12.1602262964
 30
0.0
 10
10.2169635541
 20
11.7817477508
 30
0.0
 10
10.3723935051
 20
11.3271839295
 30
0.0
 10
10.5306505918
 20
11.2448382257
 30
0.0
 10
10.5447664939
 20
11.2386247997
 30
0.0
 11
10.423482993
 21
12.3636987557
 31
0.0
 11
10.2866908651
 21
11.7044861323
 31
0.0
 11
10.5041445345
 21
11.2598566724
 31
0.0
 11
10.5447664939
 21
11.2386247997
 31
0.0
  0
SPLINE
  5
3B6
100
AcDbEntity
  8
RACCORDO
100
AcDbSpline
 62
253
  6
CONTINUOUS
 70
0
 71
3
 72
10
 73
6
 74
4
 42
0.0000001
 43
0.0000001
 44
0.0000000001
 12
-0.5128522019
 22
-1.1012854192
 32
0.0
 13
1.107173614
 23
-0.4876960574
 33
0.0
 40
0.0
 40
0.0
 40
0.0
 40
0.0
 40
0.5541710362
 40
0.9617255733
 40
1.0
 40
1.0
 40
1.0
 40
1.0
 10
-18.5682673756
 20
26.8595739102
 30
0.0
 10
-18.663003321
 20
26.6561404162
 30
0.0
 10
-18.7749609308
 20
26.2775398899
 30
0.0
 10
-18.6192871898
 20
25.8230626332
 30
0.0
 10
-18.4609859764
 20
25.7406479421
 30
0.0
 10
-18.446860498
 20
25.7344258464
 30
0.0
 11
-18.5682673756
 21
26.8595739102
 31
0.0
 11
-18.7051441411
 21
26.2004035806
 31
0.0
 11
-18.4875111083
 21
25.7556844822
 31
0.0
 11
-18.446860498
 21
25.7344258464
 31
0.0
  0
SPLINE
  5
3B7
100
AcDbEntity
  8
RACCORDO
100
AcDbSpline
 62
253
  6
CONTINUOUS
 70
0
 71
3
 72
21
 73
17
 74
15
 42
0.0000001
 43
0.0000001
 44
0.0000000001
 12
-7.7712517735
 22
3.8856315748
 32
0.0
 13
-7.7635179154
 23
3.901061326
 33
0.0
 40
0.0
 40
0.0
 40
0.0
 40
0.0
 40
0.1302844377
 40
0.2463014332
 40
0.3503902623
 40
0.4442462694
 40
0.5292533533
 40
0.6064625275
 40
0.6767391116
 40
0.7410097177
 40
0.8000202655
 40
0.8538089655
 40
0.9021741167
 40
0.9458622359
 40
0.9866838321
 40
1.0
 40
1.0
 40
1.0
 40
1.0
 10
-18.5682670855
 20
26.8595742654
 30
0.0
 10
-18.9057581413
 20
27.0283200403
 30
0.0
 10
-19.5436866204
 20
27.3475222753
 30
0.0
 10
-20.4510347537
 20
27.8019686011
 30
0.0
 10
-21.2640708983
 20
28.2091268869
 30
0.0
 10
-21.9969167684
 20
28.5758444603
 30
0.0
 10
-22.6602254798
 20
28.9075625631
 30
0.0
 10
-23.262488619
 20
29.2086704014
 30
0.0
 10
-23.811021611
 20
29.4829481719
 30
0.0
 10
-24.3123873109
 20
29.7337053956
 30
0.0
 10
-24.7710158956
 20
29.963160544
 30
0.0
 10
-25.188410931
 20
30.1720782974
 30
0.0
 10
-25.5660655939
 20
30.3612479106
 30
0.0
 10
-25.9100791222
 20
30.5337239847
 30
0.0
 10
-26.1632961177
 20
30.6608141099
 30
0.0
 10
-26.3034030294
 20
30.7311982709
 30
0.0
 10
-26.3378631321
 20
30.7485140001
 30
0.0
 11
-18.5682670855
 21
26.8595742654
 31
0.0
 11
-19.5806055825
 21
27.366080841
 31
0.0
 11
-20.481927207
 21
27.8174310363
 31
0.0
 11
-21.2905917019
 21
28.2223535381
 31
0.0
 11
-22.0198511062
 21
28.5872818201
 31
0.0
 11
-22.6804308034
 21
28.9176515296
 31
0.0
 11
-23.2804446972
 21
29.2176540106
 31
0.0
 11
-23.8265746164
 21
29.4907371445
 31
0.0
 11
-24.3260067383
 21
29.7405309096
 31
0.0
 11
-24.7845339465
 21
29.9699413522
 31
0.0
 11
-25.2024461051
 21
30.1791310632
 31
0.0
 11
-25.5781646016
 21
30.3673385043
 31
0.0
 11
-25.9174879591
 21
30.5374699512
 31
0.0
 11
-26.2344777839
 21
30.6965768445
 31
0.0
 11
-26.3378631321
 21
30.7485140001
 31
0.0
  0
SPLINE
  5
3B8
100
AcDbEntity
  8
RACCORDO
100
AcDbSpline
 62
253
  6
CONTINUOUS
 70
0
 71
3
 72
10
 73
6
 74
4
 42
0.0000001
 43
0.0000001
 44
0.0000000001
 12
-0.5236901932
 22
-1.1047418473
 32
0.0
 13
1.1119603257
 23
-0.4958320049
 33
0.0
 40
0.0
 40
0.0
 40
0.0
 40
0.0
 40
0.5542585314
 40
0.9620964648
 40
1.0
 40
1.0
 40
1.0
 40
1.0
 10
-27.7911944853
 20
31.4826733123
 30
0.0
 10
-27.8879477377
 20
31.2785691144
 30
0.0
 10
-28.0026552038
 20
30.898281751
 30
0.0
 10
-27.8493087814
 20
30.4393158692
 30
0.0
 10
-27.6903973016
 20
30.3557246383
 30
0.0
 10
-27.6763482258
 20
30.349460043
 30
0.0
 11
-27.7911944853
 21
31.4826733123
 31
0.0
 11
-27.9330784221
 21
30.8200675563
 31
0.0
 11
-27.7167684906
 21
30.3708158256
 31
0.0
 11
-27.6763482258
 21
30.349460043
 31
0.0
  0
SPLINE
  5
3B9
100
AcDbEntity
  8
RACCORDO
100
AcDbSpline
 62
253
  6
CONTINUOUS
 70
0
 71
3
 72
22
 73
18
 74
16
 42
0.0000001
 43
0.0000001
 44
0.0000000001
 12
-1.9374743267
 22
1.0023113762
 32
0.0
 13
-0.0005543185
 23
-2.181383633
 33
0.0
 40
0.0
 40
0.0
 40
0.0
 40
0.0
 40
0.0743964389
 40
0.1481099812
 40
0.2165205786
 40
0.2762112815
 40
0.3368275371
 40
0.3975670654
 40
0.4567491941
 40
0.5155432977
 40
0.5768313001
 40
0.6399044175
 40
0.7049308921
 40
0.7732289467
 40
0.8460085729
 40
0.9226044381
 40
1.0
 40
1.0
 40
1.0
 40
1.0
 10
-27.7911973323
 20
31.4826663391
 30
0.0
 10
-27.8392443958
 20
31.5075224715
 30
0.0
 10
-27.9375772633
 20
31.5520630587
 30
0.0
 10
-28.0879610118
 20
31.5999608211
 30
0.0
 10
-28.2328100816
 20
31.6262142512
 30
0.0
 10
-28.3703664589
 20
31.6316949509
 30
0.0
 10
-28.5017589515
 20
31.6170389175
 30
0.0
 10
-28.6286748815
 20
31.5811850346
 30
0.0
 10
-28.7467104561
 20
31.5253733677
 30
0.0
 10
-28.8537359594
 20
31.4497977665
 30
0.0
 10
-28.9478846187
 20
31.354717766
 30
0.0
 10
-29.028645163
 20
31.2425447263
 30
0.0
 10
-29.0946391164
 20
31.1153837693
 30
0.0
 10
-29.1457187216
 20
30.9740828479
 30
0.0
 10
-29.181816152
 20
30.8196546328
 30
0.0
 10
-29.2031026466
 20
30.6559081981
 30
0.0
 10
-29.2076934713
 20
30.5438753474
 30
0.0
 10
-29.2077077719
 20
30.4875988767
 30
0.0
 11
-27.7911973323
 21
31.4826663391
 31
0.0
 11
-27.9391752571
 21
31.5492971308
 31
0.0
 11
-28.0925305788
 21
31.5976498732
 31
0.0
 11
-28.2394766523
 21
31.6236570531
 31
0.0
 11
-28.3695981832
 21
31.6284105295
 31
0.0
 11
-28.5009806391
 21
31.6134869798
 31
0.0
 11
-28.628461551
 21
31.5773779135
 31
0.0
 11
-28.7450833355
 21
31.5220074034
 31
0.0
 11
-28.849858071
 21
31.4480414758
 31
0.0
 11
-28.9443208922
 21
31.3534343939
 31
0.0
 11
-29.0250045172
 21
31.2419882431
 31
0.0
 11
-29.0907428687
 21
31.1162932278
 31
0.0
 11
-29.1418967343
 21
30.9763661299
 31
0.0
 11
-29.1786314025
 21
30.8219142149
 31
0.0
 11
-29.2005871248
 21
30.6562780651
 31
0.0
 11
-29.2077077719
 21
30.4875988767
 31
0.0
  0
SPLINE
  5
3BA
100
AcDbEntity
  8
RACCORDO
100
AcDbSpline
 62
253
  6
CONTINUOUS
 70
0
 71
3
 72
10
 73
6
 74
4
 42
0.0000001
 43
0.0000001
 44
0.0000000001
 12
0.2856635909
 22
-1.7427379173
 32
0.0
 13
1.6467327209
 23
0.6419954694
 33
0.0
 40
0.0
 40
0.0
 40
0.0
 40
0.0
 40
0.2594540467
 40
0.6517931925
 40
1.0
 40
1.0
 40
1.0
 40
1.0
 10
-29.2077077719
 20
30.4875988767
 30
0.0
 10
-29.183002247
 20
30.3368787417
 30
0.0
 10
-28.811908708
 20
30.0712065898
 30
0.0
 10
-28.2393811547
 20
30.0000900233
 30
0.0
 10
-27.7903656409
 20
30.0579269421
 30
0.0
 10
-27.5992311264
 20
30.1324426731
 30
0.0
 11
-29.2077077719
 21
30.4875988767
 31
0.0
 11
-28.8872368845
 21
30.1601226047
 31
0.0
 11
-28.2070879126
 21
30.0279677419
 31
0.0
 11
-27.5992311264
 21
30.1324426731
 31
0.0
  0
SPLINE
  5
3BB
100
AcDbEntity
  8
RACCORDO
100
AcDbSpline
 62
253
  6
CONTINUOUS
 70
0
 71
3
 72
13
 73
9
 74
7
 42
0.0000001
 43
0.0000001
 44
0.0000000001
 12
-0.004104015
 22
-9.0968751991
 32
0.0
 13
0.0000267979
 23
-9.0968761248
 33
0.0
 40
0.0
 40
0.0
 40
0.0
 40
0.0
 40
0.2085636717
 40
0.3975853594
 40
0.569032253
 40
0.7254083623
 40
0.8685254509
 40
1.0
 40
1.0
 40
1.0
 40
1.0
 10
-29.2077074855
 20
30.4875976163
 30
0.0
 10
-29.2079928017
 20
29.8551717189
 30
0.0
 10
-29.2079669352
 20
28.6495767221
 30
0.0
 10
-29.20774892
 20
26.9241047881
 30
0.0
 10
-29.2077367896
 20
25.3568807382
 30
0.0
 10
-29.2076433036
 20
23.9288528505
 30
0.0
 10
-29.2077123498
 20
22.6220327779
 30
0.0
 10
-29.2075682575
 20
21.7893907461
 30
0.0
 10
-29.207567083
 20
21.3907215172
 30
0.0
 11
-29.2077074855
 21
30.4875976163
 31
0.0
 11
-29.2079308641
 21
28.5903197442
 31
0.0
 11
-29.2077778359
 21
26.870812873
 31
0.0
 11
-29.2077207411
 21
25.3111817203
 31
0.0
 11
-29.207669961
 21
23.8886476268
 31
0.0
 11
-29.2076631219
 21
22.5867291999
 31
0.0
 11
-29.207567083
 21
21.3907215172
 31
0.0
  0
SPLINE
  5
3BC
100
AcDbEntity
  8
RACCORDO
100
AcDbSpline
 62
253
  6
CONTINUOUS
 70
0
 71
3
 72
11
 73
7
 74
5
 42
0.0000001
 43
0.0000001
 44
0.0000000001
 12
0.3215238776
 22
-1.8230275812
 32
0.0
 13
1.6777563096
 23
0.7822665348
 33
0.0
 40
0.0
 40
0.0
 40
0.0
 40
0.0
 40
0.1752307116
 40
0.4293680316
 40
0.7262530941
 40
1.0
 40
1.0
 40
1.0
 40
1.0
 10
-29.2075670985
 20
21.3907215821
 30
0.0
 10
-29.1887868126
 20
21.2842381087
 30
0.0
 10
-28.9786531135
 20
21.0719007281
 30
0.0
 10
-28.5476667722
 20
20.9428133781
 30
0.0
 10
-28.0337268882
 20
20.9186116432
 30
0.0
 10
-27.6825279525
 20
20.9975852916
 30
0.0
 10
-27.5294344197
 20
21.0689663061
 30
0.0
 11
-29.2075670985
 21
21.3907215821
 31
0.0
 11
-29.009830169
 21
21.1335777118
 31
0.0
 11
-28.56955452
 21
20.9678057068
 31
0.0
 11
-28.0204943515
 21
20.9438421492
 31
0.0
 11
-27.5294344197
 21
21.0689663061
 31
0.0
  0
SPLINE
  5
3BD
100
AcDbEntity
  8
RACCORDO
100
AcDbSpline
 62
253
  6
CONTINUOUS
 70
0
 71
3
 72
10
 73
6
 74
4
 42
0.0000001
 43
0.0000001
 44
0.0000000001
 12
0.3193551151
 22
-1.8116912368
 32
0.0
 13
1.6667903326
 23
0.7784746715
 33
0.0
 40
0.0
 40
0.0
 40
0.0
 40
0.0
 40
0.2494513858
 40
0.6253413803
 40
1.0
 40
1.0
 40
1.0
 40
1.0
 10
-29.2075670977
 20
1.0388565863
 30
0.0
 10
-29.1810125723
 20
0.888213623
 30
0.0
 10
-28.8097882799
 20
0.6251325383
 30
0.0
 10
-28.2130256125
 20
0.5520648292
 30
0.0
 10
-27.7375935415
 20
0.6202607284
 30
0.0
 10
-27.5294344197
 20
0.717481477
 30
0.0
 11
-29.2075670977
 21
1.0388565863
 31
0.0
 11
-28.8845353518
 21
0.712917178
 31
0.0
 11
-28.2053850005
 21
0.5828350591
 31
0.0
 11
-27.5294344197
 21
0.717481477
 31
0.0
  0
SPLINE
  5
3BE
100
AcDbEntity
  8
RACCORDO
100
AcDbSpline
 62
253
  6
CONTINUOUS
 70
0
 71
3
 72
18
 73
14
 74
12
 42
0.0000001
 43
0.0000001
 44
0.0000000001
 12
-0.0000277654
 22
-9.0898322448
 32
0.0
 13
0.0038673726
 23
-9.0898314222
 33
0.0
 40
0.0
 40
0.0
 40
0.0
 40
0.0
 40
0.131808593
 40
0.2624576404
 40
0.3798208396
 40
0.4847011966
 40
0.5797698067
 40
0.6661068409
 40
0.744836408
 40
0.8169136054
 40
0.8830421661
 40
0.9438761313
 40
1.0
 40
1.0
 40
1.0
 40
1.0
 10
-29.2075670239
 20
1.0388565676
 30
0.0
 10
-29.2075682438
 20
0.6394839012
 30
0.0
 10
-29.2077061461
 20
-0.1557480672
 30
0.0
 10
-29.2076535835
 20
-1.3065839745
 30
0.0
 10
-29.2076985638
 20
-2.3758288294
 30
0.0
 10
-29.2077410858
 20
-3.3372669488
 30
0.0
 10
-29.2077616772
 20
-4.204697524
 30
0.0
 10
-29.2078104891
 20
-4.9928926669
 30
0.0
 10
-29.2078945339
 20
-5.7114251115
 30
0.0
 10
-29.207951131
 20
-6.368727014
 30
0.0
 10
-29.207942839
 20
-6.9718062472
 30
0.0
 10
-29.2078726869
 20
-7.5265477809
 30
0.0
 10
-29.2077799506
 20
-7.8809234691
 30
0.0
 10
-29.2077076
 20
-8.0509756375
 30
0.0
 11
-29.2075670239
 21
1.0388565676
 31
0.0
 11
-29.2076628138
 21
-0.1592614277
 31
0.0
 11
-29.2076700417
 21
-1.3468393508
 31
0.0
 11
-29.2077005605
 21
-2.413651143
 31
0.0
 11
-29.2077389854
 21
-3.3669959938
 31
0.0
 11
-29.2077680704
 21
-4.23115371
 31
0.0
 11
-29.2078194473
 21
-5.0159428666
 31
0.0
 11
-29.2078930481
 21
-5.7315814197
 31
0.0
 11
-29.20794131
 21
-6.386751051
 31
0.0
 11
-29.2079308559
 21
-6.9878485746
 31
0.0
 11
-29.2078579172
 21
-7.5408191084
 31
0.0
 11
-29.2077076
 21
-8.0509756375
 31
0.0
  0
SPLINE
  5
3BF
100
AcDbEntity
  8
RACCORDO
100
AcDbSpline
 62
253
  6
CONTINUOUS
 70
0
 71
3
 72
9
 73
5
 74
3
 42
0.0000001
 43
0.0000001
 44
0.0000000001
 12
0.1857295267
 22
-1.1362245976
 32
0.0
 13
1.1552620885
 23
0.0169219728
 33
0.0
 40
0.0
 40
0.0
 40
0.0
 40
0.0
 40
0.3984204979
 40
1.0
 40
1.0
 40
1.0
 40
1.0
 10
-29.2077076
 20
-8.0509756375
 30
0.0
 10
-29.1830414498
 20
-8.2018740274
 30
0.0
 10
-28.8124452416
 20
-8.4686051793
 30
0.0
 10
-28.4387540055
 20
-8.5132981455
 30
0.0
 10
-28.2070933415
 20
-8.5099048415
 30
0.0
 11
-29.2077076
 21
-8.0509756375
 31
0.0
 11
-28.8872438969
 21
-8.3791702483
 31
0.0
 11
-28.2070933415
 21
-8.5099048415
 31
0.0
  0
SPLINE
  5
3C0
100
AcDbEntity
  8
RACCORDO
100
AcDbSpline
 62
253
  6
CONTINUOUS
 70
0
 71
3
 72
8
 73
4
 74
2
 42
0.0000001
 43
0.0000001
 44
0.0000000001
 12
0.6936012103
 22
0.0101596867
 32
0.0
 13
0.6264688513
 23
0.2921110649
 33
0.0
 40
0.0
 40
0.0
 40
0.0
 40
0.0
 40
1.0
 40
1.0
 40
1.0
 40
1.0
 10
-28.2070933415
 20
-8.5099048415
 30
0.0
 10
-27.9758929381
 20
-8.5065182793
 30
0.0
 10
-27.7378640729
 20
-8.4729722398
 30
0.0
 10
-27.5290411225
 20
-8.3756018848
 30
0.0
 11
-28.2070933415
 21
-8.5099048415
 31
0.0
 11
-27.5290411225
 21
-8.3756018848
 31
0.0
  0
SPLINE
  5
3C1
100
AcDbEntity
  8
RACCORDO
100
AcDbSpline
 62
253
  6
CONTINUOUS
 70
0
 71
3
 72
10
 73
6
 74
4
 42
0.0000001
 43
0.0000001
 44
0.0000000001
 12
-1.2707172894
 22
1.4146948965
 32
0.0
 13
1.6717759656
 23
0.9062280071
 33
0.0
 40
0.0
 40
0.0
 40
0.0
 40
0.0
 40
0.2841462108
 40
0.6519797378
 40
1.0
 40
1.0
 40
1.0
 40
1.0
 10
-27.7909463972
 20
-10.5123487085
 30
0.0
 10
-27.9113028981
 20
-10.3783553104
 30
0.0
 10
-27.9826628005
 20
-9.9190069394
 30
0.0
 10
-27.7631163831
 20
-9.3193597991
 30
0.0
 10
-27.446340259
 20
-8.9591758094
 30
0.0
 10
-27.2524029558
 20
-8.8540472399
 30
0.0
 11
-27.7909463972
 21
-10.5123487085
 31
0.0
 11
-27.9327611387
 21
-9.9909584117
 31
0.0
 11
-27.7166237672
 21
-9.3257169144
 31
0.0
 11
-27.2524029558
 21
-8.8540472399
 31
0.0
  0
SPLINE
  5
3C2
100
AcDbEntity
  8
RACCORDO
100
AcDbSpline
 62
253
  6
CONTINUOUS
 70
0
 71
3
 72
23
 73
19
 74
17
 42
0.0000001
 43
0.0000001
 44
0.0000000001
 12
6.5530867185
 22
-3.2695578987
 32
0.0
 13
6.5506653605
 23
-3.2744064718
 33
0.0
 40
0.0
 40
0.0
 40
0.0
 40
0.0
 40
0.0454781438
 40
0.0922444531
 40
0.1390036735
 40
0.1853400842
 40
0.2313396761
 40
0.2783329501
 40
0.3283277258
 40
0.3832301158
 40
0.4442248035
 40
0.5109375201
 40
0.582964359
 40
0.6604894928
 40
0.7440058524
 40
0.8339979557
 40
0.9310256373
 40
1.0
 40
1.0
 40
1.0
 40
1.0
 10
-27.7909429414
 20
-10.5123530831
 30
0.0
 10
-27.6916022013
 20
-10.5619175579
 30
0.0
 10
-27.4899976648
 20
-10.6622313314
 30
0.0
 10
-27.1863904381
 20
-10.8137793237
 30
0.0
 10
-26.880886667
 20
-10.9662189732
 30
0.0
 10
-26.5770821043
 20
-11.1178719707
 30
0.0
 10
-26.2727933447
 20
-11.2698342431
 30
0.0
 10
-25.9605348322
 20
-11.4258265233
 30
0.0
 10
-25.6288490206
 20
-11.5915608521
 30
0.0
 10
-25.2666031578
 20
-11.7726029166
 30
0.0
 10
-24.8678645399
 20
-11.9719156812
 30
0.0
 10
-24.4317442568
 20
-12.189940278
 30
0.0
 10
-23.9595362049
 20
-12.4260220862
 30
0.0
 10
-23.4506446279
 20
-12.6804608592
 30
0.0
 10
-22.9025311708
 20
-12.954520689
 30
0.0
 10
-22.3118332061
 20
-13.2498677034
 30
0.0
 10
-21.7528741277
 20
-13.5293138492
 30
0.0
 10
-21.3904028639
 20
-13.7105066071
 30
0.0
 10
-21.2397935411
 20
-13.7857899737
 30
0.0
 11
-27.7909429414
 21
-10.5123530831
 31
0.0
 11
-27.4928439409
 21
-10.6608925195
 31
0.0
 11
-27.1863712857
 21
-10.8137796847
 31
0.0
 11
-26.8799672417
 21
-10.9666880822
 31
0.0
 11
-26.5763509499
 21
-11.1182482253
 31
0.0
 11
-26.2749666756
 21
-11.2687568192
 31
0.0
 11
-25.9670917687
 21
-11.4225564661
 31
0.0
 11
-25.6395680299
 21
-11.5862102733
 31
0.0
 11
-25.2799083105
 21
-11.7659579349
 31
0.0
 11
-24.8803517075
 21
-11.9656777042
 31
0.0
 11
-24.443348623
 21
-12.1841414538
 31
0.0
 11
-23.9715425897
 21
-12.4200219783
 31
0.0
 11
-23.4637267658
 21
-12.6739215551
 31
0.0
 11
-22.916670167
 21
-12.9474503219
 31
0.0
 11
-22.3271927972
 21
-13.2421826253
 31
0.0
 11
-21.6916172606
 21
-13.5599313739
 31
0.0
 11
-21.2397935411
 21
-13.7857899737
 31
0.0
  0
LINE
  5
3C3
100
AcDbEntity
  8
RACCORDO
100
AcDbLine
 62
253
  6
CONTINUOUS
 10
-21.2397935411
 20
-13.7857899737
 11
-18.5678949423
 21
-15.1213637137
  0
SPLINE
  5
3C4
100
AcDbEntity
  8
RACCORDO
100
AcDbSpline
 62
253
  6
CONTINUOUS
 70
0
 71
3
 72
10
 73
6
 74
4
 42
0.0000001
 43
0.0000001
 44
0.0000000001
 12
-1.2441621034
 22
1.4298538701
 32
0.0
 13
1.6658125735
 23
0.9041514803
 33
0.0
 40
0.0
 40
0.0
 40
0.0
 40
0.0
 40
0.2849222575
 40
0.6525968852
 40
1.0
 40
1.0
 40
1.0
 40
1.0
 10
-18.5678950357
 20
-15.1213636049
 30
0.0
 10
-18.6860581941
 20
-14.9855645408
 30
0.0
 10
-18.7533971871
 20
-14.5280137969
 30
0.0
 10
-18.5336550229
 20
-13.9306695691
 30
0.0
 10
-18.2177819333
 20
-13.5727398402
 30
0.0
 10
-18.0248791077
 20
-13.46803816
 30
0.0
 11
-18.5678950357
 21
-15.1213636049
 31
0.0
 11
-18.7046871636
 21
-14.5989431094
 31
0.0
 11
-18.4872334942
 21
-13.9368599801
 31
0.0
 11
-18.0248791077
 21
-13.46803816
 31
0.0
  0
LINE
  5
3C5
100
AcDbEntity
  8
0
100
AcDbLine
 62
253
  6
CONTINUOUS
 10
20.1944800732
 20
-32.5774699282
 11
19.9505677883
 21
-32.4556618204
  0
LINE
  5
3C6
100
AcDbEntity
  8
0
100
AcDbLine
 62
253
  6
CONTINUOUS
 10
19.9505677883
 20
-32.4556618204
 11
19.7071184504
 21
-32.3339670509
  0
LINE
  5
3C7
100
AcDbEntity
  8
0
100
AcDbLine
 62
253
  6
CONTINUOUS
 10
19.7071184504
 20
-32.3339670509
 11
17.0701490297
 21
-31.0155401665
  0
LINE
  5
3C8
100
AcDbEntity
  8
0
100
AcDbLine
 62
253
  6
CONTINUOUS
 10
17.0701490297
 20
-31.0155401665
 11
16.83286109
 21
-30.896896063
  0
LINE
  5
3C9
100
AcDbEntity
  8
0
100
AcDbLine
 62
253
  6
CONTINUOUS
 10
16.83286109
 20
-30.896896063
 11
16.5953976548
 21
-30.7781638382
  0
LINE
  5
3CA
100
AcDbEntity
  8
0
100
AcDbLine
 62
253
  6
CONTINUOUS
 10
16.5953976548
 20
-30.7781638382
 11
16.3574799899
 21
-30.6592045347
  0
LINE
  5
3CB
100
AcDbEntity
  8
0
100
AcDbLine
 62
253
  6
CONTINUOUS
 10
16.3574799899
 20
-30.6592045347
 11
16.1193866413
 21
-30.5401574864
  0
LINE
  5
3CC
100
AcDbEntity
  8
0
100
AcDbLine
 62
253
  6
CONTINUOUS
 10
16.1193866413
 20
-30.5401574864
 11
15.6454462613
 21
-30.3031867407
  0
LINE
  5
3CD
100
AcDbEntity
  8
0
100
AcDbLine
 62
253
  6
CONTINUOUS
 10
15.6454462613
 20
-30.3031867407
 11
14.2125669106
 21
-29.58674815
  0
LINE
  5
3CE
100
AcDbEntity
  8
0
100
AcDbLine
 62
253
  6
CONTINUOUS
 10
14.2125669106
 20
-29.58674815
 11
13.9638921053
 21
-29.4624117008
  0
LINE
  5
3CF
100
AcDbEntity
  8
0
100
AcDbLine
 62
253
  6
CONTINUOUS
 10
13.9638921053
 20
-29.4624117008
 11
13.7083555635
 21
-29.3346446021
  0
LINE
  5
3D0
100
AcDbEntity
  8
0
100
AcDbLine
 62
253
  6
CONTINUOUS
 10
13.7083555635
 20
-29.3346446021
 11
13.4460170026
 21
-29.203476662
  0
LINE
  5
3D1
100
AcDbEntity
  8
0
100
AcDbLine
 62
253
  6
CONTINUOUS
 10
13.4460170026
 20
-29.203476662
 11
10.966498886
 21
-27.9637271933
  0
LINE
  5
3D2
100
AcDbEntity
  8
0
100
AcDbLine
 62
253
  6
CONTINUOUS
 10
-18.0248791082
 20
-13.4680381602
 11
-18.4197494794
 21
-13.2706026408
  0
LINE
  5
3D3
100
AcDbEntity
  8
0
100
AcDbLine
 62
253
  6
CONTINUOUS
 10
-18.4197494794
 20
-13.2706026408
 11
-18.9336494069
 21
-13.0136513305
  0
LINE
  5
3D4
100
AcDbEntity
  8
0
100
AcDbLine
 62
253
  6
CONTINUOUS
 10
-18.9336494069
 20
-13.0136513305
 11
-19.1643099029
 21
-12.898320183
  0
LINE
  5
3D5
100
AcDbEntity
  8
0
100
AcDbLine
 62
253
  6
CONTINUOUS
 10
-19.1643099029
 20
-12.898320183
 11
-19.5044876219
 21
-12.7282297303
  0
LINE
  5
3D6
100
AcDbEntity
  8
0
100
AcDbLine
 62
253
  6
CONTINUOUS
 10
-19.5044876219
 20
-12.7282297303
 11
-19.8322567545
 21
-12.5643434724
  0
LINE
  5
3D7
100
AcDbEntity
  8
0
100
AcDbLine
 62
253
  6
CONTINUOUS
 10
-19.8322567545
 20
-12.5643434724
 11
-20.4529047352
 21
-12.2540164511
  0
SPLINE
  5
3D8
100
AcDbEntity
  8
0
100
AcDbSpline
 62
253
  6
CONTINUOUS
 70
0
 71
3
 72
16
 73
12
 74
10
 42
0.0000001
 43
0.0000001
 44
0.0000000001
 12
-6.7995746966
 22
3.3998164308
 32
0.0
 13
-6.7971032431
 23
3.4047548107
 33
0.0
 40
0.0
 40
0.0
 40
0.0
 40
0.0
 40
0.0850054684
 40
0.2045393595
 40
0.3187225651
 40
0.4315863269
 40
0.5439415047
 40
0.65616647
 40
0.7697025227
 40
0.8849202497
 40
1.0
 40
1.0
 40
1.0
 40
1.0
 10
-20.4529047352
 20
-12.2540164511
 30
0.0
 10
-20.6455717459
 20
-12.1576821217
 30
0.0
 10
-21.1091654431
 20
-11.9258836552
 30
0.0
 10
-21.8315592619
 20
-11.564686629
 30
0.0
 10
-22.6170951797
 20
-11.1719197418
 30
0.0
 10
-23.3863599967
 20
-10.7872875541
 30
0.0
 10
-24.1511868069
 20
-10.4048753707
 30
0.0
 10
-24.9175340595
 20
-10.0216946631
 30
0.0
 10
-25.6903730826
 20
-9.6352773413
 30
0.0
 10
-26.4696372078
 20
-9.2455342069
 30
0.0
 10
-26.99166671
 20
-8.9846533439
 30
0.0
 10
-27.2524030245
 20
-8.8540472328
 30
0.0
 11
-20.4529047352
 21
-12.2540164511
 31
0.0
 11
-21.0309059954
 21
-11.9650139187
 31
0.0
 11
-21.8436868284
 21
-11.5586230552
 31
0.0
 11
-22.6200856825
 21
-11.1704243542
 31
0.0
 11
-23.3875127844
 21
-10.7867113285
 31
0.0
 11
-24.1514813847
 21
-10.4047267015
 31
0.0
 11
-24.9145630658
 21
-10.023181714
 31
0.0
 11
-25.6865540812
 21
-9.6371682658
 31
0.0
 11
-26.4699707996
 21
-9.2454194996
 31
0.0
 11
-27.2524030245
 21
-8.8540472328
 31
0.0
  0
LINE
  5
3D9
100
AcDbEntity
  8
0
100
AcDbLine
 62
7
  6
CONTINUOUS
 10
17.0020890869
 20
-34.0419332646
 11
16.5742828673
 21
-33.8281986992
  0
SPLINE
  5
3DA
100
AcDbEntity
  8
RACCORDO
100
AcDbSpline
 62
253
  6
CONTINUOUS
 70
0
 71
3
 72
11
 73
7
 74
5
 42
0.0000001
 43
0.0000001
 44
0.0000000001
 12
8.2352617117
 22
-3.3073761152
 32
0.0
 13
8.7166669473
 23
-1.6667302014
 33
0.0
 40
0.0
 40
0.0
 40
0.0
 40
0.0
 40
0.1614831785
 40
0.521845859
 40
0.8858033341
 40
1.0
 40
1.0
 40
1.0
 40
1.0
 10
22.7304523643
 20
-4.0954532839
 30
0.0
 10
23.1737377765
 20
-4.2734818197
 30
0.0
 10
24.6172913084
 20
-4.8214890719
 30
0.0
 10
27.1182620136
 20
-5.6118603395
 30
0.0
 10
29.5304319203
 20
-6.1976969681
 30
0.0
 10
30.9172501143
 20
-6.4762837045
 30
0.0
 10
31.249054882
 20
-6.5397287152
 30
0.0
 11
22.7304523643
 21
-4.0954532839
 31
0.0
 11
24.0699975565
 21
-4.6047505686
 31
0.0
 11
27.1176716319
 21
-5.5739416319
 31
0.0
 11
30.2554726396
 21
-6.3400505061
 31
0.0
 11
31.249054882
 21
-6.5397287152
 31
0.0
  0
LINE
  5
3DB
100
AcDbEntity
  8
0
100
AcDbLine
 62
7
  6
CONTINUOUS
 10
16.9150217304
 20
-35.1015075234
 11
16.9169930205
 21
-34.9948855521
  0
LINE
  5
3DC
100
AcDbEntity
  8
0
100
AcDbLine
 62
7
  6
CONTINUOUS
 10
16.9169930205
 20
-34.9948855521
 11
16.9199748459
 21
-34.8434513114
  0
LINE
  5
3DD
100
AcDbEntity
  8
RACCORDO
100
AcDbLine
 62
253
  6
CONTINUOUS
 10
11.2065544213
 20
-37.1318016326
 11
11.2160660948
 21
-37.2362567804
  0
LINE
  5
3DE
100
AcDbEntity
  8
RACCORDO
100
AcDbLine
 62
253
  6
CONTINUOUS
 10
11.2423664259
 20
-37.518685957
 11
11.2487369834
 21
-37.5857515495
  0
LINE
  5
3DF
100
AcDbEntity
  8
RACCORDO
100
AcDbLine
 62
253
  6
CONTINUOUS
 10
11.2708295533
 20
-37.8145075876
 11
11.2814545704
 21
-37.9224982977
  0
LINE
  5
3E0
100
AcDbEntity
  8
RACCORDO
100
AcDbLine
 62
253
  6
CONTINUOUS
 10
11.3037813916
 20
-38.145378064
 11
11.309589413
 21
-38.2024933404
  0
SPLINE
  5
3E1
100
AcDbEntity
  8
RACCORDO
100
AcDbSpline
 62
253
  6
CONTINUOUS
 70
0
 71
3
 72
12
 73
8
 74
6
 42
0.0000001
 43
0.0000001
 44
0.0000000001
 12
0.972495227
 22
-8.8899955416
 32
0.0
 13
1.8939604673
 23
-8.7399092239
 33
0.0
 40
0.0
 40
0.0
 40
0.0
 40
0.0
 40
0.2467179184
 40
0.5827306613
 40
0.8034772135
 40
0.9782041393
 40
1.0
 40
1.0
 40
1.0
 40
1.0
 10
11.3811463822
 20
-38.8795571067
 30
0.0
 10
11.4611237149
 20
-39.6106641717
 30
0.0
 10
11.6706003066
 20
-41.335247091
 30
0.0
 10
12.0287576096
 20
-43.7039439917
 30
0.0
 10
12.4180126092
 20
-45.8496131938
 30
0.0
 10
12.666487798
 20
-47.0684813622
 30
0.0
 10
12.7898514777
 20
-47.6411640116
 30
0.0
 10
12.8036116439
 20
-47.7046619595
 30
0.0
 11
11.3811463822
 21
-38.8795571067
 31
0.0
 11
11.6475141176
 21
-41.0697866208
 31
0.0
 11
12.0976561745
 21
-44.040762893
 31
0.0
 11
12.4503057473
 21
-45.9830941387
 31
0.0
 11
12.762565517
 21
-47.5141174777
 31
0.0
 11
12.8036116439
 21
-47.7046619595
 31
0.0
  0
LINE
  5
3E2
100
AcDbEntity
  8
0
100
AcDbLine
 62
7
  6
CONTINUOUS
 10
17.9191757008
 20
-35.6066566259
 11
17.95788758
 21
-35.489747541
  0
LINE
  5
3E3
100
AcDbEntity
  8
0
100
AcDbLine
 62
7
  6
CONTINUOUS
 10
17.95788758
 20
-35.489747541
 11
17.9927252233
 21
-35.3849047844
  0
SPLINE
  5
3E4
100
AcDbEntity
  8
RACCORDO
100
AcDbSpline
 62
253
  6
CONTINUOUS
 70
0
 71
3
 72
9
 73
5
 74
3
 42
0.0000001
 43
0.0000001
 44
0.0000000001
 12
0.6507027269
 22
-0.3234042788
 32
0.0
 13
0.6512118953
 23
-0.3223765929
 33
0.0
 40
0.0
 40
0.0
 40
0.0
 40
0.0
 40
0.4905961157
 40
1.0
 40
1.0
 40
1.0
 40
1.0
 10
13.4130774407
 20
-48.0084561767
 30
0.0
 10
13.5194881841
 20
-48.0613431377
 30
0.0
 10
13.7364452174
 20
-48.1690317214
 30
0.0
 10
13.9534855882
 20
-48.2765517805
 30
0.0
 10
14.0640622112
 20
-48.3312917434
 30
0.0
 11
13.4130774407
 21
-48.0084561767
 31
0.0
 11
13.7323847978
 21
-48.1669657782
 31
0.0
 11
14.0640622112
 21
-48.3312917434
 31
0.0
  0
SPLINE
  5
3E5
100
AcDbEntity
  8
RACCORDO
100
AcDbSpline
 62
253
  6
CONTINUOUS
 70
0
 71
3
 72
29
 73
25
 74
23
 42
0.0000001
 43
0.0000001
 44
0.0000000001
 12
14.7628596098
 22
-7.3082208972
 32
0.0
 13
14.9130659919
 23
-6.9966171769
 33
0.0
 40
0.0
 40
0.0
 40
0.0
 40
0.0
 40
0.046455437
 40
0.1168771823
 40
0.1846012956
 40
0.246412433
 40
0.3024216359
 40
0.3548636833
 40
0.4059523624
 40
0.4583455663
 40
0.5146635075
 40
0.5752862012
 40
0.635022947
 40
0.6884167019
 40
0.7354035958
 40
0.7775515042
 40
0.8154204578
 40
0.8496596579
 40
0.8807441407
 40
0.9090271201
 40
0.9348006018
 40
0.9584062998
 40
0.9801649788
 40
1.0
 40
1.0
 40
1.0
 40
1.0
 10
14.0640622112
 20
-48.3312917434
 30
0.0
 10
14.2926672426
 20
-48.4444606085
 30
0.0
 10
14.8679801488
 20
-48.7288468218
 30
0.0
 10
15.7767663653
 20
-49.1777970683
 30
0.0
 10
16.7608612703
 20
-49.6646729676
 30
0.0
 10
17.673434905
 20
-50.1176462741
 30
0.0
 10
18.5100087551
 20
-50.5349934004
 30
0.0
 10
19.2934178597
 20
-50.9270185668
 30
0.0
 10
20.0590397938
 20
-51.3102204368
 30
0.0
 10
20.84411697
 20
-51.702100973
 30
0.0
 10
21.6767903875
 20
-52.1158421063
 30
0.0
 10
22.5458192555
 20
-52.5470324747
 30
0.0
 10
23.4002258138
 20
-52.9715676373
 30
0.0
 10
24.1868845047
 20
-53.3641865622
 30
0.0
 10
24.8858913593
 20
-53.7161444025
 30
0.0
 10
25.5084883349
 20
-54.0303013939
 30
0.0
 10
26.0690089093
 20
-54.31210275
 30
0.0
 10
26.5759967205
 20
-54.5651361919
 30
0.0
 10
27.0367328298
 20
-54.7929656346
 30
0.0
 10
27.4566571731
 20
-54.9984483219
 30
0.0
 10
27.8403821642
 20
-55.1844706438
 30
0.0
 10
28.1924776732
 20
-55.3536084075
 30
0.0
 10
28.5157191243
 20
-55.507500202
 30
0.0
 10
28.7221927926
 20
-55.6051216676
 30
0.0
 10
28.8207931196
 20
-55.6513810178
 30
0.0
 11
14.0640622112
 21
-48.3312917434
 31
0.0
 11
14.7500200863
 21
-48.6705095951
 31
0.0
 11
15.7899952079
 21
-49.184461943
 31
0.0
 11
16.7898496857
 21
-49.6792976858
 31
0.0
 11
17.7018114426
 21
-50.13213104
 31
0.0
 11
18.52744862
 21
-50.5439114344
 31
0.0
 11
19.3000581813
 21
-50.93035466
 31
0.0
 11
20.0527011598
 21
-51.3068807518
 31
0.0
 11
20.8249480621
 21
-51.6922496145
 31
0.0
 11
21.6556599853
 21
-52.1052483358
 31
0.0
 11
22.5501349931
 21
-52.5492792797
 31
0.0
 11
23.4312795018
 21
-52.9873414952
 31
0.0
 11
24.2181148677
 21
-53.3803884045
 31
0.0
 11
24.9095704515
 21
-53.7281982248
 31
0.0
 11
25.5295452872
 21
-54.0407259391
 31
0.0
 11
26.086958952
 21
-54.3207697461
 31
0.0
 11
26.5916578104
 21
-54.5725460345
 31
0.0
 11
27.0506857537
 21
-54.799451211
 31
0.0
 11
27.4691651568
 21
-55.0042360381
 31
0.0
 11
27.851207823
 21
-55.1894253699
 31
0.0
 11
28.2017208624
 21
-55.3577876312
 31
0.0
 11
28.5253280998
 21
-55.5118892717
 31
0.0
 11
28.8207931196
 21
-55.6513810178
 31
0.0
  0
SPLINE
  5
3E6
100
AcDbEntity
  8
RACCORDO
100
AcDbSpline
 62
253
  6
CONTINUOUS
 70
0
 71
3
 72
11
 73
7
 74
5
 42
0.0000001
 43
0.0000001
 44
0.0000000001
 12
1.0073369041
 22
-0.4726023938
 32
0.0
 13
1.0196072448
 23
-0.445512329
 33
0.0
 40
0.0
 40
0.0
 40
0.0
 40
0.0
 40
0.2638906064
 40
0.50827899
 40
0.7492420103
 40
1.0
 40
1.0
 40
1.0
 40
1.0
 10
28.8207931196
 20
-55.6513810178
 30
0.0
 10
28.909402035
 20
-55.6929527952
 30
0.0
 10
29.0802862009
 20
-55.7725668446
 30
0.0
 10
29.3327175749
 20
-55.888767139
 30
0.0
 10
29.5813324968
 20
-56.0016039725
 30
0.0
 10
29.7481085491
 20
-56.0754193404
 30
0.0
 10
29.8333334367
 20
-56.1126579324
 30
0.0
 11
28.8207931196
 21
-55.6513810178
 31
0.0
 11
29.0869407228
 21
-55.7754100154
 31
0.0
 11
29.3339732959
 21
-55.8890765907
 31
0.0
 11
29.5781927373
 21
-55.9997279922
 31
0.0
 11
29.8333334367
 21
-56.1126579324
 31
0.0
  0
SPLINE
  5
3E7
100
AcDbEntity
  8
RACCORDO
100
AcDbSpline
 62
253
  6
CONTINUOUS
 70
0
 71
3
 72
10
 73
6
 74
4
 42
0.0000001
 43
0.0000001
 44
0.0000000001
 12
-0.0884948263
 22
1.1596938687
 32
0.0
 13
-0.7670942842
 23
0.8719532239
 33
0.0
 40
0.0
 40
0.0
 40
0.0
 40
0.0
 40
0.2773774757
 40
0.6577665229
 40
1.0
 40
1.0
 40
1.0
 40
1.0
 10
20.0537212399
 20
-35.3101241923
 30
0.0
 10
20.0455390827
 20
-35.202899873
 30
0.0
 10
20.0112912449
 20
-34.9495979136
 30
0.0
 10
19.8956002843
 20
-34.5770514052
 30
0.0
 10
19.744874299
 20
-34.3359588404
 30
0.0
 10
19.657365851
 20
-34.2364883125
 30
0.0
 11
20.0537212399
 21
-35.3101241923
 31
0.0
 11
20.0092126894
 21
-34.9907347247
 31
0.0
 11
19.8725858172
 21
-34.5706280972
 31
0.0
 11
19.657365851
 21
-34.2364883125
 31
0.0
  0
SPLINE
  5
3E8
100
AcDbEntity
  8
RACCORDO
100
AcDbSpline
 62
253
  6
CONTINUOUS
 70
0
 71
3
 72
10
 73
6
 74
4
 42
0.0000001
 43
0.0000001
 44
0.0000000001
 12
-1.5509704146
 22
0.6204450693
 32
0.0
 13
-1.6691637796
 23
0.065981724
 33
0.0
 40
0.0
 40
0.0
 40
0.0
 40
0.0
 40
0.3128595107
 40
0.6491992714
 40
1.0
 40
1.0
 40
1.0
 40
1.0
 10
22.7534423372
 20
-33.5393651855
 30
0.0
 10
22.5916970556
 20
-33.4746611386
 30
0.0
 10
22.2460943729
 20
-33.3646856992
 30
0.0
 10
21.6985868422
 20
-33.2581720268
 30
0.0
 10
21.3166795815
 20
-33.2243256638
 30
0.0
 10
21.1214982915
 20
-33.2166101848
 30
0.0
 11
22.7534423372
 21
-33.5393651855
 31
0.0
 11
22.2563091421
 21
-33.3781450417
 31
0.0
 11
21.7051404352
 21
-33.2691385527
 31
0.0
 11
21.1214982915
 21
-33.2166101848
 31
0.0
  0
SPLINE
  5
3E9
100
AcDbEntity
  8
RACCORDO
100
AcDbSpline
 62
253
  6
CONTINUOUS
 70
0
 71
3
 72
10
 73
6
 74
4
 42
0.0000001
 43
0.0000001
 44
0.0000000001
 12
-1.535027308
 22
0.6164685857
 32
0.0
 13
-1.652584282
 23
0.0728528953
 33
0.0
 40
0.0
 40
0.0
 40
0.0
 40
0.0
 40
0.3129677051
 40
0.6492497014
 40
1.0
 40
1.0
 40
1.0
 40
1.0
 10
22.7304522742
 20
-24.4470500486
 30
0.0
 10
22.5703142829
 20
-24.3827384624
 30
0.0
 10
22.2283096856
 20
-24.2730988747
 30
0.0
 10
21.6864920293
 20
-24.1658964712
 30
0.0
 10
21.3085198137
 20
-24.1308429009
 30
0.0
 10
21.1153050036
 20
-24.122325176
 30
0.0
 11
22.7304522742
 21
-24.4470500486
 31
0.0
 11
22.2383206172
 21
-24.2863396273
 31
0.0
 11
21.6929593713
 21
-24.1766948536
 31
0.0
 11
21.1153050036
 21
-24.122325176
 31
0.0
  0
SPLINE
  5
3EA
100
AcDbEntity
  8
RACCORDO
100
AcDbSpline
 62
253
  6
CONTINUOUS
 70
0
 71
3
 72
10
 73
6
 74
4
 42
0.0000001
 43
0.0000001
 44
0.0000000001
 12
-1.5349621509
 22
0.6168131616
 32
0.0
 13
-1.6526383971
 23
0.0731683632
 33
0.0
 40
0.0
 40
0.0
 40
0.0
 40
0.0
 40
0.3129756152
 40
0.6492575832
 40
1.0
 40
1.0
 40
1.0
 40
1.0
 10
22.7304524298
 20
-4.0954530795
 30
0.0
 10
22.5703171887
 20
-4.0311039199
 30
0.0
 10
22.2283168514
 20
-3.9213882561
 30
0.0
 10
21.686498618
 20
-3.8140712086
 30
0.0
 10
21.3085217846
 20
-3.7789442715
 30
0.0
 10
21.1153049895
 20
-3.7703898553
 30
0.0
 11
22.7304524298
 21
-4.0954530795
 31
0.0
 11
22.2383211704
 21
-3.934630781
 31
0.0
 11
21.6929596436
 21
-3.824871708
 31
0.0
 11
21.1153049895
 21
-3.7703898553
 31
0.0
  0
SPLINE
  5
3EB
100
AcDbEntity
  8
RACCORDO
100
AcDbSpline
 62
253
  6
CONTINUOUS
 70
0
 71
3
 72
10
 73
6
 74
4
 42
0.0000001
 43
0.0000001
 44
0.0000000001
 12
-1.5499364751
 22
0.6226621457
 32
0.0
 13
-1.6688205576
 23
0.0710575191
 33
0.0
 40
0.0
 40
0.0
 40
0.0
 40
0.0
 40
0.3130238667
 40
0.6493658057
 40
1.0
 40
1.0
 40
1.0
 40
1.0
 10
22.7530471662
 20
4.9968937923
 30
0.0
 10
22.5913247967
 20
5.0618631631
 30
0.0
 10
22.2458857691
 20
5.1725169997
 30
0.0
 10
21.6986980531
 20
5.2803872938
 30
0.0
 10
21.3170184423
 20
5.315332381
 30
0.0
 10
21.1219699251
 20
5.3236374463
 30
0.0
 11
22.7530471662
 21
4.9968937923
 31
0.0
 11
22.2559929563
 21
5.159107873
 31
0.0
 11
21.7051343676
 21
5.269458885
 31
0.0
 11
21.1219699251
 21
5.3236374463
 31
0.0
  0
SPLINE
  5
3EC
100
AcDbEntity
  8
RACCORDO
100
AcDbSpline
 62
253
  6
CONTINUOUS
 70
0
 71
3
 72
10
 73
6
 74
4
 42
0.0000001
 43
0.0000001
 44
0.0000000001
 12
-0.0297654455
 22
-1.7556063856
 32
0.0
 13
-0.7239324236
 23
-1.5996754699
 33
0.0
 40
0.0
 40
0.0
 40
0.0
 40
0.0
 40
0.3184344933
 40
0.6543999311
 40
1.0
 40
1.0
 40
1.0
 40
1.0
 10
20.0613068709
 20
9.4564002438
 30
0.0
 10
20.0581474228
 20
9.2700517005
 30
0.0
 10
20.0203250384
 20
8.8872132273
 30
0.0
 10
19.8829546007
 20
8.3167525871
 30
0.0
 10
19.7407145544
 20
7.9427159319
 30
0.0
 10
19.6573175226
 20
7.758433281
 30
0.0
 11
20.0613068709
 21
9.4564002438
 31
0.0
 11
20.0090082257
 21
8.8997255569
 31
0.0
 11
19.8724660102
 21
8.3258375207
 31
0.0
 11
19.6573175226
 21
7.758433281
 31
0.0
  0
SPLINE
  5
3ED
100
AcDbEntity
  8
RACCORDO
100
AcDbSpline
 62
253
  6
CONTINUOUS
 70
0
 71
3
 72
10
 73
6
 74
4
 42
0.0000001
 43
0.0000001
 44
0.0000000001
 12
-0.0464210418
 22
-1.7321314429
 32
0.0
 13
-0.73096491
 23
-1.5710265908
 33
0.0
 40
0.0
 40
0.0
 40
0.0
 40
0.0
 40
0.3176141822
 40
0.6534941558
 40
1.0
 40
1.0
 40
1.0
 40
1.0
 10
10.840549587
 20
14.0348036309
 30
0.0
 10
10.8356349266
 20
13.8514204604
 30
0.0
 10
10.79436815
 20
13.4745366145
 30
0.0
 10
10.652520657
 20
12.913128715
 30
0.0
 10
10.5079108644
 20
12.5451553872
 30
0.0
 10
10.4234829934
 20
12.3636987555
 30
0.0
 11
10.840549587
 21
14.0348036309
 31
0.0
 11
10.7833728737
 21
13.4874347483
 31
0.0
 11
10.6424435225
 21
12.9227581961
 31
0.0
 11
10.4234829934
 21
12.3636987555
 31
0.0
  0
SPLINE
  5
3EE
100
AcDbEntity
  8
RACCORDO
100
AcDbSpline
 62
253
  6
CONTINUOUS
 70
0
 71
3
 72
10
 73
6
 74
4
 42
0.0000001
 43
0.0000001
 44
0.0000000001
 12
-0.0468200493
 22
-1.7320293373
 32
0.0
 13
-0.731281221
 23
-1.5707786343
 33
0.0
 40
0.0
 40
0.0
 40
0.0
 40
0.0
 40
0.3176030267
 40
0.6534829357
 40
1.0
 40
1.0
 40
1.0
 40
1.0
 10
-18.1508285049
 20
28.5304926769
 30
0.0
 10
-18.1557852347
 20
28.3471267569
 30
0.0
 10
-18.1971374529
 20
27.9702788
 30
0.0
 10
-18.3391118062
 20
27.4089345424
 30
0.0
 10
-18.4838002353
 20
27.0410077774
 30
0.0
 10
-18.568267376
 20
26.8595739104
 30
0.0
 11
-18.1508285049
 21
28.5304926769
 31
0.0
 11
-18.2081282071
 21
27.9831852568
 31
0.0
 11
-18.3491833022
 21
27.4185718371
 31
0.0
 11
-18.568267376
 21
26.8595739104
 31
0.0
  0
SPLINE
  5
3EF
100
AcDbEntity
  8
RACCORDO
100
AcDbSpline
 62
253
  6
CONTINUOUS
 70
0
 71
3
 72
10
 73
6
 74
4
 42
0.0000001
 43
0.0000001
 44
0.0000000001
 12
-0.0778880551
 22
-1.7422317326
 32
0.0
 13
-0.7719803107
 23
-1.5638044504
 33
0.0
 40
0.0
 40
0.0
 40
0.0
 40
0.0
 40
0.3171125794
 40
0.6530212134
 40
1.0
 40
1.0
 40
1.0
 40
1.0
 10
-27.337236762
 20
33.1556964053
 30
0.0
 10
-27.3454698561
 20
32.9715352057
 30
0.0
 10
-27.3943155217
 20
32.5933077129
 30
0.0
 10
-27.5490611066
 20
32.0313924473
 30
0.0
 10
-27.7030551589
 20
31.6641258414
 30
0.0
 10
-27.7923420894
 20
31.4832568511
 30
0.0
 11
-27.337236762
 21
33.1556964053
 31
0.0
 11
-27.4052206846
 21
32.6068554743
 31
0.0
 11
-27.5590396287
 21
32.0415951806
 31
0.0
 11
-27.7923420894
 21
31.4832568511
 31
0.0
  0
SPLINE
  5
3F0
100
AcDbEntity
  8
RACCORDO
100
AcDbSpline
 62
253
  6
CONTINUOUS
 70
0
 71
3
 72
10
 73
6
 74
4
 42
0.0000001
 43
0.0000001
 44
0.0000000001
 12
0.9065994907
 22
-0.5640576792
 32
0.0
 13
0.1731396123
 23
-1.0536158582
 33
0.0
 40
0.0
 40
0.0
 40
0.0
 40
0.0
 40
0.3812828895
 40
0.7101835893
 40
1.0
 40
1.0
 40
1.0
 40
1.0
 10
-29.8564086681
 20
31.3009326538
 30
0.0
 10
-29.7411850437
 20
31.2292441399
 30
0.0
 10
-29.5366832381
 20
31.077219912
 30
0.0
 10
-29.305927738
 20
30.8008261343
 30
0.0
 10
-29.224456519
 20
30.5900149425
 30
0.0
 10
-29.2077302853
 20
30.4882298871
 30
0.0
 11
-29.8564086681
 21
31.3009326538
 31
0.0
 11
-29.5333086192
 21
31.0532475748
 31
0.0
 11
-29.3142314607
 21
30.7787762332
 31
0.0
 11
-29.2077302853
 21
30.4882298871
 31
0.0
  0
SPLINE
  5
3F1
100
AcDbEntity
  8
RACCORDO
100
AcDbSpline
 62
253
  6
CONTINUOUS
 70
0
 71
3
 72
10
 73
6
 74
4
 42
0.0000001
 43
0.0000001
 44
0.0000000001
 12
0.7519413931
 22
-0.5362875395
 32
0.0
 13
0.1601295468
 23
-0.9079282079
 33
0.0
 40
0.0
 40
0.0
 40
0.0
 40
0.0
 40
0.2856965349
 40
0.6652477662
 40
1.0
 40
1.0
 40
1.0
 40
1.0
 10
-29.739223176
 20
22.1198607486
 30
0.0
 10
-29.6676141591
 20
22.068788918
 30
0.0
 10
-29.5082728067
 20
21.9392626813
 30
0.0
 10
-29.3083720143
 20
21.7013047414
 30
0.0
 10
-29.2254350064
 20
21.4920319113
 30
0.0
 10
-29.2075670985
 20
21.3907215794
 30
0.0
 11
-29.739223176
 21
22.1198607486
 31
0.0
 11
-29.5356143515
 21
21.9522294746
 31
0.0
 11
-29.3163156168
 21
21.6795488099
 31
0.0
 11
-29.2075670985
 21
21.3907215794
 31
0.0
  0
SPLINE
  5
3F2
100
AcDbEntity
  8
RACCORDO
100
AcDbSpline
 62
253
  6
CONTINUOUS
 70
0
 71
3
 72
10
 73
6
 74
4
 42
0.0000001
 43
0.0000001
 44
0.0000000001
 12
0.9028150587
 22
-0.5622134427
 32
0.0
 13
0.1846722666
 23
-1.0474040001
 33
0.0
 40
0.0
 40
0.0
 40
0.0
 40
0.0
 40
0.3806627693
 40
0.7097422417
 40
1.0
 40
1.0
 40
1.0
 40
1.0
 10
-29.8570444025
 20
1.8466982653
 30
0.0
 10
-29.7424883756
 20
1.7753603566
 30
0.0
 10
-29.5389237777
 20
1.62407234
 30
0.0
 10
-29.3083659725
 20
1.3495211275
 30
0.0
 10
-29.2254346171
 20
1.1401915602
 30
0.0
 10
-29.2075670977
 20
1.0388525145
 30
0.0
 11
-29.8570444025
 21
1.8466982653
 31
0.0
 11
-29.5356146079
 21
1.600542803
 31
0.0
 11
-29.3163156885
 21
1.3277701462
 31
0.0
 11
-29.2075670977
 21
1.0388525145
 31
0.0
  0
SPLINE
  5
3F3
100
AcDbEntity
  8
RACCORDO
100
AcDbSpline
 62
253
  6
CONTINUOUS
 70
0
 71
3
 72
10
 73
6
 74
4
 42
0.0000001
 43
0.0000001
 44
0.0000000001
 12
0.90865314
 22
-0.5689437598
 32
0.0
 13
0.1725726069
 23
-1.0580955656
 33
0.0
 40
0.0
 40
0.0
 40
0.0
 40
0.0
 40
0.3806556332
 40
0.7095797792
 40
1.0
 40
1.0
 40
1.0
 40
1.0
 10
-29.8563421144
 20
-7.2335244925
 30
0.0
 10
-29.7410474689
 20
-7.3057150415
 30
0.0
 10
-29.5363771667
 20
-7.458900072
 30
0.0
 10
-29.3057029745
 20
-7.7372606425
 30
0.0
 10
-29.2244142964
 20
-7.9493089453
 30
0.0
 10
-29.2077081049
 20
-8.0517397279
 30
0.0
 11
-29.8563421144
 21
-7.2335244925
 31
0.0
 11
-29.5332515286
 21
-7.4828264162
 31
0.0
 11
-29.3141892521
 21
-7.7591611508
 31
0.0
 11
-29.2077081049
 21
-8.0517397279
 31
0.0
  0
SPLINE
  5
3F4
100
AcDbEntity
  8
RACCORDO
100
AcDbSpline
 62
253
  6
CONTINUOUS
 70
0
 71
3
 72
10
 73
6
 74
4
 42
0.0000001
 43
0.0000001
 44
0.0000000001
 12
-0.0623070372
 22
1.3702308956
 32
0.0
 13
-0.9255970876
 23
1.0122672106
 33
0.0
 40
0.0
 40
0.0
 40
0.0
 40
0.0
 40
0.3653858669
 40
0.6974544535
 40
1.0
 40
1.0
 40
1.0
 40
1.0
 10
-27.3372515773
 20
-11.7801167929
 30
0.0
 10
-27.3448402809
 20
-11.613229125
 30
0.0
 10
-27.3856813785
 20
-11.29472359
 30
0.0
 10
-27.536162336
 20
-10.8592605828
 30
0.0
 10
-27.6990000231
 20
-10.6137344477
 30
0.0
 10
-27.7923451154
 20
-10.5116488023
 30
0.0
 11
-27.3372515773
 21
-11.7801167929
 31
0.0
 11
-27.4052283773
 21
-11.2835678088
 31
0.0
 11
-27.5590428909
 21
-10.8548442849
 31
0.0
 11
-27.7923451154
 21
-10.5116488023
 31
0.0
  0
SPLINE
  5
3F5
100
AcDbEntity
  8
RACCORDO
100
AcDbSpline
 62
253
  6
CONTINUOUS
 70
0
 71
3
 72
10
 73
6
 74
4
 42
0.0000001
 43
0.0000001
 44
0.0000000001
 12
-0.0370126914
 22
1.3440622833
 32
0.0
 13
-0.8826069166
 23
1.0143364292
 33
0.0
 40
0.0
 40
0.0
 40
0.0
 40
0.0
 40
0.3670428709
 40
0.6991692535
 40
1.0
 40
1.0
 40
1.0
 40
1.0
 10
-18.1508285049
 20
-16.3754019178
 30
0.0
 10
-18.1553569198
 20
-16.2109590914
 30
0.0
 10
-18.189192797
 20
-15.8973220247
 30
0.0
 10
-18.3264498777
 20
-15.4671642376
 30
0.0
 10
-18.4793899369
 20
-15.2230781331
 30
0.0
 10
-18.5678950361
 20
-15.1213636048
 30
0.0
 11
-18.1508285049
 21
-16.3754019178
 31
0.0
 11
-18.2080051974
 21
-15.885209738
 31
0.0
 11
-18.3489345277
 21
-15.4614625265
 31
0.0
 11
-18.5678950361
 21
-15.1213636048
 31
0.0
  0
SPLINE
  5
3F6
100
AcDbEntity
  8
RACCORDO
100
AcDbSpline
 62
253
  6
CONTINUOUS
 70
0
 71
3
 72
10
 73
6
 74
4
 42
0.0000001
 43
0.0000001
 44
0.0000000001
 12
-0.037987895
 22
1.3440890489
 32
0.0
 13
-0.8825699836
 23
1.0144400799
 33
0.0
 40
0.0
 40
0.0
 40
0.0
 40
0.0
 40
0.3671367969
 40
0.6992230792
 40
1.0
 40
1.0
 40
1.0
 40
1.0
 10
10.8406851525
 20
-30.8711588422
 30
0.0
 10
10.8360362345
 20
-30.7066706594
 30
0.0
 10
10.8020421926
 20
-30.3930314394
 30
0.0
 10
10.6648846829
 20
-29.9628311556
 30
0.0
 10
10.5119698102
 20
-29.7187599608
 30
0.0
 10
10.4234842495
 20
-29.6170532396
 30
0.0
 11
10.8406851525
 21
-30.8711588422
 31
0.0
 11
10.7832701435
 21
-30.3808474218
 31
0.0
 11
10.6423862946
 21
-29.957123025
 31
0.0
 11
10.4234842495
 21
-29.6170532396
 31
0.0
  0
LINE
  5
3F7
100
AcDbEntity
  8
0
100
AcDbLine
 62
7
  6
CONTINUOUS
 10
19.6449851959
 20
-36.91504349
 11
19.576564859
 21
-36.8815031923
  0
LINE
  5
3F8
100
AcDbEntity
  8
0
100
AcDbLine
 62
7
  6
CONTINUOUS
 10
19.576564859
 20
-36.8815031923
 11
19.4391571179
 21
-36.8140505994
  0
LINE
  5
3F9
100
AcDbEntity
  8
0
100
AcDbLine
 62
7
  6
CONTINUOUS
 10
19.4391571179
 20
-36.8140505994
 11
19.3009908058
 21
-36.7461070739
  0
LINE
  5
3FA
100
AcDbEntity
  8
0
100
AcDbLine
 62
7
  6
CONTINUOUS
 10
19.3009908058
 20
-36.7461070739
 11
19.2316222911
 21
-36.7119530272
  0
LINE
  5
3FB
100
AcDbEntity
  8
0
100
AcDbLine
 62
7
  6
CONTINUOUS
 10
19.2316222911
 20
-36.7119530272
 11
19.260860562
 21
-36.5763451462
  0
LINE
  5
3FC
100
AcDbEntity
  8
0
100
AcDbLine
 62
7
  6
CONTINUOUS
 10
19.3786954458
 20
-36.0382178149
 11
19.4083620083
 21
-35.9047592698
  0
SPLINE
  5
3FD
100
AcDbEntity
  8
RACCORDO
100
AcDbSpline
 62
253
  6
CONTINUOUS
 70
0
 71
3
 72
10
 73
6
 74
4
 42
0.0000001
 43
0.0000001
 44
0.0000000001
 12
2.9088654738
 22
-1.4555623319
 32
0.0
 13
2.909492009
 23
-1.4543095876
 33
0.0
 40
0.0
 40
0.0
 40
0.0
 40
0.0
 40
0.3585042997
 40
0.699278792
 40
1.0
 40
1.0
 40
1.0
 40
1.0
 10
10.8405498482
 20
-30.8710921097
 30
0.0
 10
11.1881634415
 20
-31.0450338946
 30
0.0
 10
11.8664099352
 20
-31.3838943827
 30
0.0
 10
12.8364999118
 20
-31.8681450682
 30
0.0
 10
13.4586957883
 20
-32.1790154982
 30
0.0
 10
13.7503444388
 20
-32.3247960769
 30
0.0
 11
10.8405498482
 21
-30.8710921097
 31
0.0
 11
11.8836371944
 21
-31.3924244227
 31
0.0
 11
12.8753234061
 21
-31.8876045889
 31
0.0
 11
13.7503444388
 21
-32.3247960769
 31
0.0
  0
LINE
  5
3FE
100
AcDbEntity
  8
RACCORDO
100
AcDbLine
 62
253
  6
CONTINUOUS
 10
13.7503444388
 20
-32.3247960769
 11
14.2791791335
 21
-32.5891813884
  0
LINE
  5
3FF
100
AcDbEntity
  8
RACCORDO
100
AcDbLine
 62
253
  6
CONTINUOUS
 10
14.2791791335
 20
-32.5891813884
 11
15.0048946134
 21
-32.9519996178
  0
LINE
  5
400
100
AcDbEntity
  8
RACCORDO
100
AcDbLine
 62
253
  6
CONTINUOUS
 10
15.0048946134
 20
-32.9519996178
 11
15.4809206983
 21
-33.1899448167
  0
LINE
  5
401
100
AcDbEntity
  8
RACCORDO
100
AcDbLine
 62
253
  6
CONTINUOUS
 10
15.4809206983
 20
-33.1899448167
 11
15.6584642204
 21
-33.2786800583
  0
LINE
  5
402
100
AcDbEntity
  8
RACCORDO
100
AcDbLine
 62
253
  6
CONTINUOUS
 10
15.6584642204
 20
-33.2786800583
 11
16.2496614005
 21
-33.5740695936
  0
LINE
  5
403
100
AcDbEntity
  8
RACCORDO
100
AcDbLine
 62
253
  6
CONTINUOUS
 10
16.2496614005
 20
-33.5740695936
 11
16.9553444461
 21
-33.9264337976
  0
LINE
  5
404
100
AcDbEntity
  8
RACCORDO
100
AcDbLine
 62
253
  6
CONTINUOUS
 10
16.9553444461
 20
-33.9264337976
 11
17.1187800199
 21
-34.008026685
  0
LINE
  5
405
100
AcDbEntity
  8
RACCORDO
100
AcDbLine
 62
253
  6
CONTINUOUS
 10
17.1187800199
 20
-34.008026685
 11
17.723797064
 21
-34.3101095707
  0
LINE
  5
406
100
AcDbEntity
  8
RACCORDO
100
AcDbLine
 62
253
  6
CONTINUOUS
 10
17.723797064
 20
-34.3101095707
 11
18.0006215457
 21
-34.4483407546
  0
LINE
  5
407
100
AcDbEntity
  8
RACCORDO
100
AcDbLine
 62
253
  6
CONTINUOUS
 10
18.0006215457
 20
-34.4483407546
 11
18.2615915839
 21
-34.578656128
  0
LINE
  5
408
100
AcDbEntity
  8
RACCORDO
100
AcDbLine
 62
253
  6
CONTINUOUS
 10
18.2615915839
 20
-34.578656128
 11
18.3868187
 21
-34.6411907545
  0
SPLINE
  5
409
100
AcDbEntity
  8
RACCORDO
100
AcDbSpline
 62
253
  6
CONTINUOUS
 70
0
 71
3
 72
12
 73
8
 74
6
 42
0.0000001
 43
0.0000001
 44
0.0000000001
 12
1.2586853589
 22
-0.6285669606
 32
0.0
 13
1.257912494
 23
-0.6301128101
 33
0.0
 40
0.0
 40
0.0
 40
0.0
 40
0.0
 40
0.190590108
 40
0.4573747619
 40
0.7028663239
 40
0.9287930072
 40
1.0
 40
1.0
 40
1.0
 40
1.0
 10
18.3868187
 20
-34.6411907545
 30
0.0
 10
18.4667830261
 20
-34.6811236361
 30
0.0
 10
18.6586773871
 20
-34.7769590851
 30
0.0
 10
18.9535478997
 20
-34.9242759833
 30
0.0
 10
19.2632109438
 20
-35.0790634809
 30
0.0
 10
19.4907615794
 20
-35.1929838781
 30
0.0
 10
19.6153602204
 20
-35.2553746744
 30
0.0
 10
19.645217609
 20
-35.2703308205
 30
0.0
 11
18.3868187
 21
-34.6411907545
 31
0.0
 11
18.6267070928
 21
-34.760998579
 31
0.0
 11
18.9624748636
 21
-34.9287509899
 31
0.0
 11
19.2714013266
 21
-35.0831993096
 31
0.0
 11
19.5556407341
 21
-35.2254717786
 31
0.0
 11
19.645217609
 21
-35.2703308205
 31
0.0
  0
LINE
  5
40A
100
AcDbEntity
  8
RACCORDO
100
AcDbLine
 62
253
  6
CONTINUOUS
 10
19.645217609
 20
-35.2703308205
 11
19.7323409452
 21
-35.313992752
  0
LINE
  5
40B
100
AcDbEntity
  8
RACCORDO
100
AcDbLine
 62
253
  6
CONTINUOUS
 10
19.7323409452
 20
-35.313992752
 11
19.9821220512
 21
-35.4394954475
  0
LINE
  5
40C
100
AcDbEntity
  8
RACCORDO
100
AcDbLine
 62
253
  6
CONTINUOUS
 10
19.9821220512
 20
-35.4394954475
 11
20.0616106536
 21
-35.4794618632
  0
LINE
  5
40D
100
AcDbEntity
  8
0
100
AcDbLine
 62
7
  6
CONTINUOUS
 10
19.0675026919
 20
-37.4776055906
 11
19.0986635874
 21
-37.3338286505
  0
LINE
  5
40E
100
AcDbEntity
  8
0
100
AcDbLine
 62
7
  6
CONTINUOUS
 10
19.0986635874
 20
-37.3338286505
 11
19.1299553401
 21
-37.1904433734
  0
LINE
  5
40F
100
AcDbEntity
  8
0
100
AcDbLine
 62
7
  6
CONTINUOUS
 10
19.1299553401
 20
-37.1904433734
 11
19.1456491761
 21
-37.1188973666
  0
LINE
  5
410
100
AcDbEntity
  8
0
100
AcDbLine
 62
7
  6
CONTINUOUS
 10
19.1456491761
 20
-37.1188973666
 11
19.1613744218
 21
-37.0474489893
  0
SPLINE
  5
411
100
AcDbEntity
  8
0
100
AcDbSpline
 62
7
  6
CONTINUOUS
 70
0
 71
3
 72
9
 73
5
 74
3
 42
0.0000001
 43
0.0000001
 44
0.0000000001
 12
-0.1414654192
 22
-0.0704144256
 32
0.0
 13
-0.1541095272
 23
0.0322849609
 33
0.0
 40
0.0
 40
0.0
 40
0.0
 40
0.0
 40
0.3906512961
 40
1.0
 40
1.0
 40
1.0
 40
1.0
 10
21.2822818616
 20
-37.1216311973
 30
0.0
 10
21.2638606452
 20
-37.1308003595
 30
0.0
 10
21.2134350796
 20
-37.1478711076
 30
0.0
 10
21.1595877342
 20
-37.1467657543
 30
0.0
 10
21.1282855873
 20
-37.1402081546
 30
0.0
 11
21.2822818616
 21
-37.1216311973
 31
0.0
 11
21.2239408276
 21
-37.1413639529
 31
0.0
 11
21.1282855873
 21
-37.1402081546
 31
0.0
  0
SPLINE
  5
412
100
AcDbEntity
  8
RACCORDO
100
AcDbSpline
 62
253
  6
CONTINUOUS
 70
0
 71
3
 72
11
 73
7
 74
5
 42
0.0000001
 43
0.0000001
 44
0.0000000001
 12
0.7900434657
 22
-0.3975199191
 32
0.0
 13
0.8810332143
 23
-0.0846807059
 33
0.0
 40
0.0
 40
0.0
 40
0.0
 40
0.0
 40
0.3231058527
 40
0.6254569668
 40
0.9085813129
 40
1.0
 40
1.0
 40
1.0
 40
1.0
 10
20.0616106536
 20
-35.4794618632
 30
0.0
 10
20.1466998762
 20
-35.522275534
 30
0.0
 10
20.3154914153
 20
-35.5973510741
 30
0.0
 10
20.5704645245
 20
-35.6810792842
 30
0.0
 10
20.7664805823
 20
-35.7209353384
 30
0.0
 10
20.876253043
 20
-35.7338753325
 30
0.0
 10
20.9031006763
 20
-35.7364557988
 30
0.0
 11
20.0616106536
 21
-35.4794618632
 31
0.0
 11
20.3228882341
 21
-35.5951887042
 31
0.0
 11
20.5772581398
 21
-35.6776560033
 31
0.0
 11
20.822744533
 21
-35.7270155962
 31
0.0
 11
20.9031006763
 21
-35.7364557988
 31
0.0
  0
SPLINE
  5
413
100
AcDbEntity
  8
RACCORDO
100
AcDbSpline
 62
253
  6
CONTINUOUS
 70
0
 71
3
 72
16
 73
12
 74
10
 42
0.0000001
 43
0.0000001
 44
0.0000000001
 12
2.1598988771
 22
-0.1130645235
 32
0.0
 13
0.7107695596
 23
2.0424625007
 33
0.0
 40
0.0
 40
0.0
 40
0.0
 40
0.0
 40
0.0362282557
 40
0.1413756267
 40
0.2489654201
 40
0.3663576776
 40
0.4949564072
 40
0.6335319694
 40
0.7770164928
 40
0.9144368903
 40
1.0
 40
1.0
 40
1.0
 40
1.0
 10
20.9824515181
 20
-35.7423592095
 30
0.0
 10
21.0085346411
 20
-35.7437245863
 30
0.0
 10
21.1104332809
 20
-35.7468112917
 30
0.0
 10
21.2900743419
 20
-35.735990537
 30
0.0
 10
21.5237077974
 20
-35.6860752631
 30
0.0
 10
21.7609380629
 20
-35.5896291578
 30
0.0
 10
21.9967274877
 20
-35.4412518957
 30
0.0
 10
22.2144136048
 20
-35.2381145115
 30
0.0
 10
22.3939312008
 20
-34.9930359175
 30
0.0
 10
22.5155838384
 20
-34.7577522081
 30
0.0
 10
22.5740291474
 20
-34.6078976905
 30
0.0
 10
22.594301032
 20
-34.5496445428
 30
0.0
 11
20.9824515181
 21
-35.7423592095
 31
0.0
 11
21.0607660647
 21
-35.744700366
 31
0.0
 11
21.2875923485
 21
-35.7304976304
 31
0.0
 11
21.5148789146
 21
-35.6813024544
 31
0.0
 11
21.750180805
 21
-35.5863520674
 31
0.0
 11
21.9854703302
 21
-35.4383647214
 31
0.0
 11
22.2048576807
 21
-35.234443947
 31
0.0
 11
22.3894909725
 21
-34.9852576875
 31
0.0
 11
22.5268824878
 21
-34.7219165039
 31
0.0
 11
22.594301032
 21
-34.5496445428
 31
0.0
  0
SPLINE
  5
414
100
AcDbEntity
  8
RACCORDO
100
AcDbSpline
 62
253
  6
CONTINUOUS
 70
0
 71
3
 72
11
 73
7
 74
5
 42
0.0000001
 43
0.0000001
 44
0.0000000001
 12
0.3377409188
 22
0.9705299732
 32
0.0
 13
-0.0006874442
 23
1.0270685122
 33
0.0
 40
0.0
 40
0.0
 40
0.0
 40
0.0
 40
0.0898988321
 40
0.3695015091
 40
0.6752740427
 40
1.0
 40
1.0
 40
1.0
 40
1.0
 10
22.594301032
 20
-34.5496445428
 30
0.0
 10
22.60442187
 20
-34.5205613724
 30
0.0
 10
22.6438129809
 20
-34.4002544968
 30
0.0
 10
22.6997528577
 20
-34.1755109854
 30
0.0
 10
22.743779574
 20
-33.8665531167
 30
0.0
 10
22.7535166414
 20
-33.6505371871
 30
0.0
 10
22.7534422311
 20
-33.5393652518
 30
0.0
 11
22.594301032
 21
-34.5496445428
 31
0.0
 11
22.6230695856
 21
-34.4618625781
 31
0.0
 11
22.6929821417
 21
-34.1833315829
 31
0.0
 11
22.7379791648
 21
-33.8725224762
 31
0.0
 11
22.7534422311
 21
-33.5393652518
 31
0.0
  0
SPLINE
  5
415
100
AcDbEntity
  8
0
100
AcDbSpline
 62
253
  6
CONTINUOUS
 70
0
 71
3
 72
8
 73
4
 74
2
 42
0.0000001
 43
0.0000001
 44
0.0000000001
 12
0.0000508084
 22
0.1035734538
 32
0.0
 13
0.0327735292
 23
0.0996131113
 33
0.0
 40
0.0
 40
0.0
 40
0.0
 40
0.0
 40
1.0
 40
1.0
 40
1.0
 40
1.0
 10
-27.5290410695
 20
30.1624164484
 30
0.0
 10
-27.5290241334
 20
30.196940933
 30
0.0
 10
-27.525541926
 20
30.2328856384
 30
0.0
 10
-27.5146174163
 20
30.2660900088
 30
0.0
 11
-27.5290410695
 21
30.1624164484
 31
0.0
 11
-27.5146174163
 21
30.2660900088
 31
0.0
  0
SPLINE
  5
416
100
AcDbEntity
  8
0
100
AcDbSpline
 62
7
  6
CONTINUOUS
 70
0
 71
3
 72
9
 73
5
 74
3
 42
0.0000001
 43
0.0000001
 44
0.0000000001
 12
0.2277502143
 22
0.0834472242
 32
0.0
 13
0.1023834924
 23
0.2181947932
 33
0.0
 40
0.0
 40
0.0
 40
0.0
 40
0.0
 40
0.5732889942
 40
1.0
 40
1.0
 40
1.0
 40
1.0
 10
21.6276267131
 20
-37.5349724002
 30
0.0
 10
21.6711489435
 20
-37.5190259418
 30
0.0
 10
21.7224435751
 20
-37.4469217284
 30
0.0
 10
21.76424857
 20
-37.3763645688
 30
0.0
 10
21.778811291
 20
-37.3453291956
 30
0.0
 11
21.6276267131
 21
-37.5349724002
 31
0.0
 11
21.7268433724
 21
-37.436861293
 31
0.0
 11
21.778811291
 21
-37.3453291956
 31
0.0
  0
SPLINE
  5
417
100
AcDbEntity
  8
0
100
AcDbSpline
 62
7
  6
CONTINUOUS
 70
0
 71
3
 72
10
 73
6
 74
4
 42
0.0000001
 43
0.0000001
 44
0.0000000001
 12
0.1461552416
 22
0.3114790477
 32
0.0
 13
-0.0360865734
 23
0.3474354717
 33
0.0
 40
0.0
 40
0.0
 40
0.0
 40
0.0
 40
0.1704456366
 40
0.7674953368
 40
1.0
 40
1.0
 40
1.0
 40
1.0
 10
21.778811291
 20
-37.3453291956
 30
0.0
 10
21.7871151321
 20
-37.3276324474
 30
0.0
 10
21.819709537
 20
-37.246587375
 30
0.0
 10
21.8264479826
 20
-37.1270901697
 30
0.0
 10
21.8199009852
 20
-37.03029049
 30
0.0
 10
21.8171042196
 20
-37.0033637009
 30
0.0
 11
21.778811291
 21
-37.3453291956
 31
0.0
 11
21.8002398082
 21
-37.2911092447
 31
0.0
 11
21.8226175112
 21
-37.0847348704
 31
0.0
 11
21.8171042196
 21
-37.0033637009
 31
0.0
  0
SPLINE
  5
418
100
AcDbEntity
  8
0
100
AcDbSpline
 62
7
  6
CONTINUOUS
 70
0
 71
3
 72
10
 73
6
 74
4
 42
0.0000001
 43
0.0000001
 44
0.0000000001
 12
-0.0742156989
 22
0.7145362931
 32
0.0
 13
-0.4722258562
 23
0.5390396075
 33
0.0
 40
0.0
 40
0.0
 40
0.0
 40
0.0
 40
0.253547803
 40
0.6981843315
 40
1.0
 40
1.0
 40
1.0
 40
1.0
 10
21.8171042196
 20
-37.0033637009
 30
0.0
 10
21.8108318105
 20
-36.9429739985
 30
0.0
 10
21.7802383391
 20
-36.7795053665
 30
0.0
 10
21.6828529262
 20
-36.5590678158
 30
0.0
 10
21.5803457545
 20
-36.4106554636
 30
0.0
 10
21.532837367
 20
-36.3564252638
 30
0.0
 11
21.8171042196
 21
-37.0033637009
 31
0.0
 11
21.7836793304
 21
-36.8255068339
 31
0.0
 11
21.6583658347
 21
-36.5333092855
 31
0.0
 11
21.532837367
 21
-36.3564252638
 31
0.0
  0
SPLINE
  5
419
100
AcDbEntity
  8
0
100
AcDbSpline
 62
7
  6
CONTINUOUS
 70
0
 71
3
 72
8
 73
4
 74
2
 42
0.0000001
 43
0.0000001
 44
0.0000000001
 12
-0.0756101462
 22
0.086307988
 32
0.0
 13
-0.0863770456
 23
0.0751448615
 33
0.0
 40
0.0
 40
0.0
 40
0.0
 40
0.0
 40
1.0
 40
1.0
 40
1.0
 40
1.0
 10
21.532837367
 20
-36.3564252638
 30
0.0
 10
21.507633985
 20
-36.3276559344
 30
0.0
 10
21.4807247454
 20
-36.3005127027
 30
0.0
 10
21.4519323969
 20
-36.2754644156
 30
0.0
 11
21.532837367
 21
-36.3564252638
 31
0.0
 11
21.4519323969
 21
-36.2754644156
 31
0.0
  0
SPLINE
  5
41A
100
AcDbEntity
  8
0
100
AcDbSpline
 62
253
  6
CONTINUOUS
 70
0
 71
3
 72
10
 73
6
 74
4
 42
0.0000001
 43
0.0000001
 44
0.0000000001
 12
-0.0042305677
 22
9.0931945394
 32
0.0
 13
0.0000000406
 23
9.0931955235
 33
0.0
 40
0.0
 40
0.0
 40
0.0
 40
0.0
 40
0.3123637488
 40
0.6410919869
 40
1.0
 40
1.0
 40
1.0
 40
1.0
 10
-27.5290411139
 20
-8.3757140407
 30
0.0
 10
-27.5294816059
 20
-7.4289192624
 30
0.0
 10
-27.529117141
 20
-5.4857275261
 30
0.0
 10
-27.5294132449
 20
-2.4546624155
 30
0.0
 10
-27.5294344358
 20
-0.3703921074
 30
0.0
 10
-27.5294344309
 20
0.7174814719
 30
0.0
 11
-27.5290411139
 21
-8.3757140407
 31
0.0
 11
-27.5292580338
 21
-5.5353294065
 31
0.0
 11
-27.5293626186
 21
-2.5461392651
 31
0.0
 11
-27.5294344309
 21
0.7174814719
 31
0.0
  0
LINE
  5
41B
100
AcDbEntity
  8
0
100
AcDbLine
 62
253
  6
CONTINUOUS
 10
-27.5294344179
 20
21.068966307
 11
-27.5293015423
 21
29.2306706403
  0
LINE
  5
41C
100
AcDbEntity
  8
0
100
AcDbLine
 62
253
  6
CONTINUOUS
 10
-27.5293015423
 20
29.2306706403
 11
-27.5290410964
 21
30.1624164358
  0
LINE
  5
41D
100
AcDbEntity
  8
0
100
AcDbLine
 62
7
  6
CONTINUOUS
 10
19.7500547143
 20
-35.9066183948
 11
19.7197415425
 21
-35.7903856581
  0
SPLINE
  5
41E
100
AcDbEntity
  8
RACCORDO
100
AcDbSpline
 62
253
  6
CONTINUOUS
 70
0
 71
3
 72
17
 73
13
 74
11
 42
0.0000001
 43
0.0000001
 44
0.0000000001
 12
-0.0088327848
 22
9.0923727115
 32
0.0
 13
-0.0068986626
 23
9.0923743847
 33
0.0
 40
0.0
 40
0.0
 40
0.0
 40
0.0
 40
0.069025885
 40
0.1441520107
 40
0.2253085485
 40
0.3125287496
 40
0.4061829699
 40
0.506919573
 40
0.6156265369
 40
0.7327994723
 40
0.8599515416
 40
1.0
 40
1.0
 40
1.0
 40
1.0
 10
22.7534422311
 20
-33.5393652518
 30
0.0
 10
22.7532390008
 20
-33.3301622276
 30
0.0
 10
22.7544044258
 20
-32.8932676677
 30
0.0
 10
22.7561324772
 20
-32.2104067272
 30
0.0
 10
22.7561312611
 20
-31.4723991409
 30
0.0
 10
22.7543035993
 20
-30.6782389529
 30
0.0
 10
22.7499273378
 20
-29.8247448923
 30
0.0
 10
22.7441781243
 20
-28.9061365838
 30
0.0
 10
22.7381626782
 20
-27.9162477825
 30
0.0
 10
22.7338655574
 20
-26.846288936
 30
0.0
 10
22.7314683387
 20
-25.6813347719
 30
0.0
 10
22.7307722269
 20
-24.8715056959
 30
0.0
 10
22.7304501779
 20
-24.4470480239
 30
0.0
 11
22.7534422311
 21
-33.5393652518
 31
0.0
 11
22.754341391
 21
-32.9117565271
 31
0.0
 11
22.7558090642
 21
-32.2286830458
 31
0.0
 11
22.7558586466
 21
-31.4907772095
 31
0.0
 11
22.7539882382
 21
-30.6977404648
 31
0.0
 11
22.7498827199
 21
-29.8462108832
 31
0.0
 11
22.7443559908
 21
-28.9302923837
 31
0.0
 11
22.7386453369
 21
-27.9419041825
 31
0.0
 11
22.7343205526
 21
-26.8765324581
 31
0.0
 11
22.7317685019
 21
-25.7204207242
 31
0.0
 11
22.7304501779
 21
-24.4470480239
 31
0.0
  0
SPLINE
  5
41F
100
AcDbEntity
  8
0
100
AcDbSpline
 62
7
  6
CONTINUOUS
 70
0
 71
3
 72
14
 73
10
 74
8
 42
0.0000001
 43
0.0000001
 44
0.0000000001
 12
-0.1808584937
 22
0.7079263248
 32
0.0
 13
-0.6045999105
 23
0.4102784717
 33
0.0
 40
0.0
 40
0.0
 40
0.0
 40
0.0
 40
0.1051200461
 40
0.2191383314
 40
0.3437406793
 40
0.4850696794
 40
0.6455282421
 40
0.8194163409
 40
1.0
 40
1.0
 40
1.0
 40
1.0
 10
21.8221928382
 20
-38.1560242832
 30
0.0
 10
21.8158555538
 20
-38.1312185339
 30
0.0
 10
21.8024603365
 20
-38.0795531752
 30
0.0
 10
21.779878854
 20
-37.9989274997
 30
0.0
 10
21.7519631586
 20
-37.9106725011
 30
0.0
 10
21.7154611216
 20
-37.8133778956
 30
0.0
 10
21.6656400833
 20
-37.7085256227
 30
0.0
 10
21.596510286
 20
-37.603252444
 30
0.0
 10
21.5330623305
 20
-37.5426422557
 30
0.0
 10
21.4966687092
 20
-37.5179457265
 30
0.0
 11
21.8221928382
 21
-38.1560242832
 31
0.0
 11
21.8027739826
 21
-38.0817122022
 31
0.0
 11
21.7801503678
 21
-38.0015338655
 31
0.0
 11
21.7524836239
 21
-37.9147970643
 31
0.0
 11
21.71583261
 21
-37.8182561332
 31
0.0
 11
21.6647739296
 21
-37.7127169364
 31
0.0
 11
21.5935925813
 21
-37.6074750017
 31
0.0
 11
21.4966687092
 21
-37.5179457265
 31
0.0
  0
SPLINE
  5
420
100
AcDbEntity
  8
RACCORDO
100
AcDbSpline
 62
253
  6
CONTINUOUS
 70
0
 71
3
 72
13
 73
9
 74
7
 42
0.0000001
 43
0.0000001
 44
0.0000000001
 12
8.2361342579
 22
-3.3077043806
 32
0.0
 13
8.7175790449
 23
-1.666922705
 33
0.0
 40
0.0
 40
0.0
 40
0.0
 40
0.0
 40
0.1614662374
 40
0.339234895
 40
0.5218507719
 40
0.7382867889
 40
0.8858153005
 40
1.0
 40
1.0
 40
1.0
 40
1.0
 10
22.730452682
 20
-24.4470490331
 30
0.0
 10
23.1737385518
 20
-24.6250765601
 30
0.0
 10
24.1122688525
 20
-24.9813900132
 30
0.0
 10
25.5752498226
 20
-25.4757393216
 30
0.0
 10
27.2110863406
 20
-25.963040447
 30
0.0
 10
28.7774989114
 20
-26.3663859906
 30
0.0
 10
30.1580813995
 20
-26.6753856304
 30
0.0
 10
30.9172505101
 20
-26.827879463
 30
0.0
 10
31.2490552246
 20
-26.8913251523
 30
0.0
 11
22.730452682
 21
-24.4470490331
 31
0.0
 11
24.0699975565
 21
-24.9563475636
 31
0.0
 11
25.5645113977
 21
-25.4621599084
 31
0.0
 11
27.1176716319
 21
-25.9255386282
 31
0.0
 11
28.9777447532
 21
-26.4054331332
 31
0.0
 11
30.2554726396
 21
-26.691647504
 31
0.0
 11
31.2490552246
 21
-26.8913251523
 31
0.0
  0
SPLINE
  5
421
100
AcDbEntity
  8
0
100
AcDbSpline
 62
7
  6
CONTINUOUS
 70
0
 71
3
 72
10
 73
6
 74
4
 42
0.0000001
 43
0.0000001
 44
0.0000000001
 12
-0.7197124905
 22
0.625914025
 32
0.0
 13
-0.8995651556
 23
0.3175867149
 33
0.0
 40
0.0
 40
0.0
 40
0.0
 40
0.0
 40
0.4305982116
 40
0.8594392892
 40
1.0
 40
1.0
 40
1.0
 40
1.0
 10
21.4519323969
 20
-36.2754644156
 30
0.0
 10
21.3486300931
 20
-36.1856252623
 30
0.0
 10
21.1214335148
 20
-36.0299477862
 30
0.0
 10
20.8321755252
 20
-35.8957327304
 30
0.0
 10
20.6623361348
 20
-35.832959139
 30
0.0
 10
20.6201882956
 20
-35.8180790675
 30
0.0
 11
21.4519323969
 21
-36.2754644156
 31
0.0
 11
21.1155963312
 21
-36.0397527152
 31
0.0
 11
20.7458752152
 21
-35.8647830449
 31
0.0
 11
20.6201882956
 21
-35.8180790675
 31
0.0
  0
SPLINE
  5
422
100
AcDbEntity
  8
0
100
AcDbSpline
 62
7
  6
CONTINUOUS
 70
0
 71
3
 72
8
 73
4
 74
2
 42
0.0000001
 43
0.0000001
 44
0.0000000001
 12
-0.251716456
 22
0.0888671619
 32
0.0
 13
-0.2548346998
 23
0.0793248112
 33
0.0
 40
0.0
 40
0.0
 40
0.0
 40
0.0
 40
1.0
 40
1.0
 40
1.0
 40
1.0
 10
20.6201882956
 20
-35.8180790675
 30
0.0
 10
20.5362828103
 20
-35.7884566802
 30
0.0
 10
20.4514982061
 20
-35.761275603
 30
0.0
 10
20.3665533061
 20
-35.7348339993
 30
0.0
 11
20.6201882956
 21
-35.8180790675
 31
0.0
 11
20.3665533061
 21
-35.7348339993
 31
0.0
  0
LINE
  5
423
100
AcDbEntity
  8
0
100
AcDbLine
 62
7
  6
CONTINUOUS
 10
20.8817886627
 20
-37.8911902473
 11
20.8739737848
 21
-37.7316178017
  0
LINE
  5
424
100
AcDbEntity
  8
0
100
AcDbLine
 62
7
  6
CONTINUOUS
 10
20.8739737848
 20
-37.7316178017
 11
20.8664037492
 21
-37.5725351889
  0
LINE
  5
425
100
AcDbEntity
  8
0
100
AcDbLine
 62
7
  6
CONTINUOUS
 10
20.8664037492
 20
-37.5725351889
 11
20.8590750012
 21
-37.413942555
  0
SPLINE
  5
426
100
AcDbEntity
  8
RACCORDO
100
AcDbSpline
 62
253
  6
CONTINUOUS
 70
0
 71
3
 72
37
 73
33
 74
31
 42
0.0000001
 43
0.0000001
 44
0.0000000001
 12
-0.404294643
 22
28.2948359378
 32
0.0
 13
0.005727805
 23
28.2977236204
 33
0.0
 40
0.0
 40
0.0
 40
0.0
 40
0.0
 40
0.0093952923
 40
0.0189579545
 40
0.0287785184
 40
0.0389704512
 40
0.0496862555
 40
0.06105225
 40
0.0732440479
 40
0.0864967501
 40
0.1010119923
 40
0.1168723044
 40
0.1341405969
 40
0.1530292804
 40
0.1738385291
 40
0.1967804126
 40
0.2220854646
 40
0.2498448678
 40
0.2800553043
 40
0.3129025625
 40
0.3486428677
 40
0.3875009605
 40
0.4297222627
 40
0.4755347888
 40
0.5251194809
 40
0.5786488833
 40
0.6363695652
 40
0.6985902545
 40
0.7656870881
 40
0.8379995104
 40
0.91591239
 40
1.0
 40
1.0
 40
1.0
 40
1.0
 10
31.1488224929
 20
-55.1882917221
 30
0.0
 10
31.1475563374
 20
-55.0996789703
 30
0.0
 10
31.1464216879
 20
-54.9208430811
 30
0.0
 10
31.1512263614
 20
-54.6494148729
 30
0.0
 10
31.158681691
 20
-54.3705471379
 30
0.0
 10
31.1672105323
 20
-54.0808195004
 30
0.0
 10
31.171416579
 20
-53.7764179803
 30
0.0
 10
31.1772000011
 20
-53.4531825888
 30
0.0
 10
31.183708653
 20
-53.1060254648
 30
0.0
 10
31.1910517112
 20
-52.7291738345
 30
0.0
 10
31.1990729513
 20
-52.3177252092
 30
0.0
 10
31.2072302045
 20
-51.8683947161
 30
0.0
 10
31.2148075097
 20
-51.3777958292
 30
0.0
 10
31.2208525259
 20
-50.8404873803
 30
0.0
 10
31.2229300472
 20
-50.249633762
 30
0.0
 10
31.2260142818
 20
-49.5982638322
 30
0.0
 10
31.2309442017
 20
-48.881344711
 30
0.0
 10
31.2373582535
 20
-48.0958739454
 30
0.0
 10
31.2415328734
 20
-47.2392433563
 30
0.0
 10
31.2432988675
 20
-46.3073240256
 30
0.0
 10
31.2421019132
 20
-45.2938348045
 30
0.0
 10
31.2402668169
 20
-44.1919260006
 30
0.0
 10
31.2390857704
 20
-42.9950087266
 30
0.0
 10
31.2394664929
 20
-41.6969116465
 30
0.0
 10
31.2401603887
 20
-40.2921503497
 30
0.0
 10
31.2416219573
 20
-38.7750649634
 30
0.0
 10
31.2432197008
 20
-37.1387897205
 30
0.0
 10
31.244829818
 20
-35.3745386025
 30
0.0
 10
31.24624909
 20
-33.4726495979
 30
0.0
 10
31.2474702825
 20
-31.4227426701
 30
0.0
 10
31.2484613817
 20
-29.2125688311
 30
0.0
 10
31.248891345
 20
-27.6844871577
 30
0.0
 10
31.2490518909
 20
-26.8913245082
 30
0.0
 11
31.1488224929
 21
-55.1882917221
 31
0.0
 11
31.1474877453
 21
-54.9224296812
 31
0.0
 11
31.1515849102
 21
-54.6518591233
 31
0.0
 11
31.1587108479
 21
-54.374050892
 31
0.0
 11
31.1663336366
 21
-54.0857431444
 31
0.0
 11
31.1715316258
 21
-53.7825548254
 31
0.0
 11
31.1771049196
 21
-53.4609713386
 31
0.0
 11
31.1835616474
 21
-53.116031627
 31
0.0
 11
31.1908202923
 21
-52.7410805697
 31
0.0
 11
31.1987379728
 21
-52.3304085672
 31
0.0
 11
31.2067951797
 21
-51.881670159
 31
0.0
 11
31.2142452659
 21
-51.3930735752
 31
0.0
 11
31.2199930938
 21
-50.8585977245
 31
0.0
 11
31.2229731024
 21
-50.269750886
 31
0.0
 11
31.226129092
 21
-49.620555464
 31
0.0
 11
31.2309317545
 21
-48.9044961876
 31
0.0
 11
31.2367566549
 21
-48.11898985
 31
0.0
 11
31.2410050662
 21
-47.264113804
 31
0.0
 11
31.2427907253
 21
-46.334612866
 31
0.0
 11
31.2420584145
 21
-45.3232438337
 31
0.0
 11
31.2404388609
 21
-44.2236494323
 31
0.0
 11
31.2393636879
 21
-43.0288831525
 31
0.0
 11
31.2394976999
 21
-41.7324929292
 31
0.0
 11
31.2402475917
 21
-40.3293591895
 31
0.0
 11
31.241587039
 21
-38.8145995143
 31
0.0
 11
31.2431615329
 21
-37.1812363366
 31
0.0
 11
31.2447408552
 21
-35.4205331409
 31
0.0
 11
31.24616653
 21
-33.5218459837
 31
0.0
 11
31.2473904471
 21
-31.4755693678
 31
0.0
 11
31.2483762189
 21
-29.2708124095
 31
0.0
 11
31.2490518909
 21
-26.8913245082
 31
0.0
  0
SPLINE
  5
427
100
AcDbEntity
  8
RACCORDO
100
AcDbSpline
 62
253
  6
CONTINUOUS
 70
0
 71
3
 72
9
 73
5
 74
3
 42
0.0000001
 43
0.0000001
 44
0.0000000001
 12
0.4589035797
 22
-0.2006008073
 32
0.0
 13
0.5042233757
 23
0.0030204016
 33
0.0
 40
0.0
 40
0.0
 40
0.0
 40
0.0
 40
0.7704236155
 40
1.0
 40
1.0
 40
1.0
 40
1.0
 10
29.8333334367
 20
-56.1126579324
 30
0.0
 10
29.9511834884
 20
-56.1641737988
 30
0.0
 10
30.1138795797
 20
-56.2126976389
 30
0.0
 10
30.2821734363
 20
-56.2219283339
 30
0.0
 10
30.3207593628
 20
-56.2216971963
 30
0.0
 11
29.8333334367
 21
-56.1126579324
 31
0.0
 11
30.205195878
 21
-56.2156190771
 31
0.0
 11
30.3207593628
 21
-56.2216971963
 31
0.0
  0
SPLINE
  5
428
100
AcDbEntity
  8
RACCORDO
100
AcDbSpline
 62
253
  6
CONTINUOUS
 70
0
 71
3
 72
9
 73
5
 74
3
 42
0.0000001
 43
0.0000001
 44
0.0000000001
 12
0.3110367776
 22
0.0018631742
 32
0.0
 13
0.2878916882
 23
0.1175038098
 33
0.0
 40
0.0
 40
0.0
 40
0.0
 40
0.0
 40
0.688637424
 40
1.0
 40
1.0
 40
1.0
 40
1.0
 10
30.3207593628
 20
-56.2216971963
 30
0.0
 10
30.3921565513
 20
-56.2212695125
 30
0.0
 10
30.4955850544
 20
-56.2089632943
 30
0.0
 10
30.5940356869
 20
-56.1759569777
 30
0.0
 10
30.6239152528
 20
-56.163761548
 30
0.0
 11
30.3207593628
 21
-56.2216971963
 31
0.0
 11
30.5322454139
 21
-56.1945040359
 31
0.0
 11
30.6239152528
 21
-56.163761548
 31
0.0
  0
SPLINE
  5
429
100
AcDbEntity
  8
RACCORDO
100
AcDbSpline
 62
253
  6
CONTINUOUS
 70
0
 71
3
 72
9
 73
5
 74
3
 42
0.0000001
 43
0.0000001
 44
0.0000000001
 12
0.2488359795
 22
0.1015631114
 32
0.0
 13
0.1957757245
 23
0.1832990389
 33
0.0
 40
0.0
 40
0.0
 40
0.0
 40
0.0
 40
0.6765923728
 40
1.0
 40
1.0
 40
1.0
 40
1.0
 10
30.6239152528
 20
-56.163761548
 30
0.0
 10
30.6800354281
 20
-56.1408559392
 30
0.0
 10
30.7589437564
 20
-56.0969987201
 30
0.0
 10
30.8276636025
 20
-56.0396354793
 30
0.0
 10
30.8487687234
 20
-56.0198753769
 30
0.0
 11
30.6239152528
 21
-56.163761548
 31
0.0
 11
30.782148919
 21
-56.07532627
 31
0.0
 11
30.8487687234
 21
-56.0198753769
 31
0.0
  0
SPLINE
  5
42A
100
AcDbEntity
  8
RACCORDO
100
AcDbSpline
 62
253
  6
CONTINUOUS
 70
0
 71
3
 72
11
 73
7
 74
5
 42
0.0000001
 43
0.0000001
 44
0.0000000001
 12
0.6063266282
 22
0.5676857461
 32
0.0
 13
0.0306338958
 23
0.8272703094
 33
0.0
 40
0.0
 40
0.0
 40
0.0
 40
0.0
 40
0.2037205812
 40
0.504579707
 40
0.8031088218
 40
1.0
 40
1.0
 40
1.0
 40
1.0
 10
30.8487687234
 20
-56.0198753769
 30
0.0
 10
30.8899424611
 20
-55.9813256202
 30
0.0
 10
30.981370234
 20
-55.874453559
 30
0.0
 10
31.0813932975
 20
-55.674252363
 30
0.0
 10
31.1335844937
 20
-55.459610059
 30
0.0
 10
31.145914568
 20
-55.3231767163
 30
0.0
 10
31.1479250826
 20
-55.268882641
 30
0.0
 11
30.8487687234
 21
-56.0198753769
 31
0.0
 11
30.9591095349
 21
-55.8919452544
 31
0.0
 11
31.0727734884
 21
-55.6706099064
 31
0.0
 11
31.1329328014
 21
-55.4311636873
 31
0.0
 11
31.1479250826
 21
-55.268882641
 31
0.0
  0
SPLINE
  5
42B
100
AcDbEntity
  8
RACCORDO
100
AcDbSpline
 62
253
  6
CONTINUOUS
 70
0
 71
3
 72
39
 73
35
 74
33
 42
0.0000001
 43
0.0000001
 44
0.0000000001
 12
-0.0000074403
 22
28.4205954702
 32
0.0
 13
1.6670943189
 23
28.3716591587
 33
0.0
 40
0.0
 40
0.0
 40
0.0
 40
0.0
 40
0.0814074029
 40
0.1567111185
 40
0.2264262298
 40
0.29096631
 40
0.3507032458
 40
0.405992624
 40
0.457161806
 40
0.5045310293
 40
0.5484080182
 40
0.5890857719
 40
0.6267531587
 40
0.6615422783
 40
0.6936382297
 40
0.7232814584
 40
0.7507444704
 40
0.7762257587
 40
0.7997276165
 40
0.8212867578
 40
0.8410735465
 40
0.8592371086
 40
0.8759669749
 40
0.8914331509
 40
0.9056199791
 40
0.918458296
 40
0.9300861573
 40
0.9408465981
 40
0.9510835472
 40
0.9609939352
 40
0.9706611629
 40
0.980306778
 40
0.9900814642
 40
1.0
 40
1.0
 40
1.0
 40
1.0
 10
32.2753805731
 20
-6.4442856992
 30
0.0
 10
32.2753803712
 20
-5.6730700768
 30
0.0
 10
32.2755043285
 20
-4.1884623018
 30
0.0
 10
32.276166519
 20
-2.0434062915
 30
0.0
 10
32.2772098682
 20
-0.0581435794
 30
0.0
 10
32.2785507794
 20
1.7796465446
 30
0.0
 10
32.2803803726
 20
3.4807735539
 30
0.0
 10
32.282662702
 20
5.0552302443
 30
0.0
 10
32.2850785319
 20
6.5125206463
 30
0.0
 10
32.2874173782
 20
7.86169539
 30
0.0
 10
32.2893372751
 20
9.1114798161
 30
0.0
 10
32.290703364
 20
10.2693542941
 30
0.0
 10
32.2912368838
 20
11.3411352863
 30
0.0
 10
32.2909994828
 20
12.3316163412
 30
0.0
 10
32.2905719265
 20
13.2460801424
 30
0.0
 10
32.2905105424
 20
14.0911400297
 30
0.0
 10
32.2912416792
 20
14.8735354103
 30
0.0
 10
32.2926335104
 20
15.5977493151
 30
0.0
 10
32.2946984791
 20
16.2660309096
 30
0.0
 10
32.2973671577
 20
16.8803628254
 30
0.0
 10
32.3003375456
 20
17.4441201155
 30
0.0
 10
32.3036699389
 20
17.9621244521
 30
0.0
 10
32.3078954662
 20
18.4391896507
 30
0.0
 10
32.3130376565
 20
18.8785697802
 30
0.0
 10
32.3189194797
 20
19.2810702555
 30
0.0
 10
32.3253142166
 20
19.6471953727
 30
0.0
 10
32.3320158437
 20
19.9808488817
 30
0.0
 10
32.3389092566
 20
20.289848618
 30
0.0
 10
32.3460515037
 20
20.5825674021
 30
0.0
 10
32.3532650343
 20
20.8649246966
 30
0.0
 10
32.3615053915
 20
21.1416508257
 30
0.0
 10
32.3718245099
 20
21.4170229504
 30
0.0
 10
32.3848944234
 20
21.6946618893
 30
0.0
 10
32.3952450895
 20
21.8809408629
 30
0.0
 10
32.4007568011
 20
21.9747426354
 30
0.0
 11
32.2753805731
 21
-6.4442856992
 31
0.0
 11
32.2755993818
 21
-4.1306388424
 31
0.0
 11
32.2762631903
 21
-1.990462508
 31
0.0
 11
32.2773056252
 21
-0.0091178053
 31
0.0
 11
32.2786938075
 21
1.8251491791
 31
0.0
 11
32.2805356306
 21
3.5229074671
 31
0.0
 11
32.2827759081
 21
5.0942629222
 31
0.0
 11
32.2851572858
 21
6.5485195942
 31
0.0
 11
32.2874287534
 21
7.8947792108
 31
0.0
 11
32.2893069681
 21
9.1417879483
 31
0.0
 11
32.2906005463
 21
10.2978732094
 31
0.0
 11
32.2911136496
 21
11.3684026485
 31
0.0
 11
32.2909543061
 21
12.3571301313
 31
0.0
 11
32.2906234863
 21
13.2693161223
 31
0.0
 11
32.2906558543
 21
14.1117943309
 31
0.0
 11
32.2913924727
 21
14.8923091391
 31
0.0
 11
32.2928162358
 21
15.6165011247
 31
0.0
 11
32.2949009697
 21
16.2844346648
 31
0.0
 11
32.2975385896
 21
16.8971526228
 31
0.0
 11
32.3005323473
 21
17.4594969717
 31
0.0
 11
32.303974434
 21
17.9757047445
 31
0.0
 11
32.3082358421
 21
18.4511584099
 31
0.0
 11
32.3134018099
 21
18.8906859838
 31
0.0
 11
32.3193073402
 21
19.2938408391
 31
0.0
 11
32.32568157
 21
19.6586577682
 31
0.0
 11
32.3323079741
 21
19.9890620687
 31
0.0
 11
32.3391290046
 21
20.2948041264
 31
0.0
 11
32.3461834748
 21
20.5856587779
 31
0.0
 11
32.353524702
 21
20.8672222175
 31
0.0
 11
32.3618636759
 21
21.1418440058
 31
0.0
 11
32.3722133413
 21
21.4157826908
 31
0.0
 11
32.3852190242
 21
21.6932804874
 31
0.0
 11
32.4007568011
 21
21.9747426354
 31
0.0
  0
SPLINE
  5
42C
100
AcDbEntity
  8
0
100
AcDbSpline
 62
7
  6
CONTINUOUS
 70
0
 71
3
 72
9
 73
5
 74
3
 42
0.0000001
 43
0.0000001
 44
0.0000000001
 12
0.1896939784
 22
-0.0849933299
 32
0.0
 13
0.1896774289
 23
0.0944790156
 33
0.0
 40
0.0
 40
0.0
 40
0.0
 40
0.0
 40
0.7208292407
 40
1.0
 40
1.0
 40
1.0
 40
1.0
 10
21.0351119353
 20
-37.1450559107
 30
0.0
 10
21.0806909241
 20
-37.1654778032
 30
0.0
 10
21.1547095944
 20
-37.1749299333
 30
0.0
 10
21.2221340658
 20
-37.1516549218
 30
0.0
 10
21.2397848631
 20
-37.1428629956
 30
0.0
 11
21.0351119353
 21
-37.1450559107
 31
0.0
 11
21.1839742565
 21
-37.1620996943
 31
0.0
 11
21.2397848631
 21
-37.1428629956
 31
0.0
  0
SPLINE
  5
42D
100
AcDbEntity
  8
0
100
AcDbSpline
 62
7
  6
CONTINUOUS
 70
0
 71
3
 72
9
 73
5
 74
3
 42
0.0000001
 43
0.0000001
 44
0.0000000001
 12
0.0913954231
 22
-0.3664187637
 32
0.0
 13
0.0933045153
 23
-0.3659355795
 33
0.0
 40
0.0
 40
0.0
 40
0.0
 40
0.0
 40
0.3339048067
 40
1.0
 40
1.0
 40
1.0
 40
1.0
 10
21.8415215404
 20
-38.4229602048
 30
0.0
 10
21.8516939974
 20
-38.4637432003
 30
0.0
 10
21.8820989991
 20
-38.5858983302
 30
0.0
 10
21.9126570854
 20
-38.708016583
 30
0.0
 10
21.9333736484
 20
-38.7892658932
 30
0.0
 11
21.8415215404
 21
-38.4229602048
 31
0.0
 11
21.8720158176
 21
-38.5453154588
 31
0.0
 11
21.9333736484
 21
-38.7892658932
 31
0.0
  0
LINE
  5
42E
100
AcDbEntity
  8
0
100
AcDbLine
 62
7
  6
CONTINUOUS
 10
14.8044190013
 20
-34.6088168317
 11
14.7844050108
 21
-34.5279232889
  0
LINE
  5
42F
100
AcDbEntity
  8
0
100
AcDbLine
 62
7
  6
CONTINUOUS
 10
14.7844050108
 20
-34.5279232889
 11
14.7261704562
 21
-34.2913061765
  0
SPLINE
  5
430
100
AcDbEntity
  8
0
100
AcDbSpline
 62
7
  6
CONTINUOUS
 70
0
 71
3
 72
9
 73
5
 74
3
 42
0.0000001
 43
0.0000001
 44
0.0000000001
 12
-0.1595990114
 22
0.6121512517
 32
0.0
 13
-0.1543258165
 23
0.6134996646
 33
0.0
 40
0.0
 40
0.0
 40
0.0
 40
0.0
 40
0.6039368739
 40
1.0
 40
1.0
 40
1.0
 40
1.0
 10
22.0072713347
 20
-38.8896669714
 30
0.0
 10
21.975142092
 20
-38.7664334003
 30
0.0
 10
21.9238863853
 20
-38.5618810836
 30
0.0
 10
21.8730243357
 20
-38.357234358
 30
0.0
 10
21.8526500806
 20
-38.276239493
 30
0.0
 11
22.0072713347
 21
-38.8896669714
 31
0.0
 11
21.9133752519
 21
-38.5193255922
 31
0.0
 11
21.8526500806
 21
-38.276239493
 31
0.0
  0
LINE
  5
431
100
AcDbEntity
  8
0
100
AcDbLine
 62
7
  6
CONTINUOUS
 10
20.8165745324
 20
-37.4351927893
 11
20.8239030989
 21
-37.5938612558
  0
LINE
  5
432
100
AcDbEntity
  8
0
100
AcDbLine
 62
7
  6
CONTINUOUS
 10
20.8556514404
 20
-38.2331380097
 11
20.8642151744
 21
-38.3941070186
  0
LINE
  5
433
100
AcDbEntity
  8
0
100
AcDbLine
 62
7
  6
CONTINUOUS
 10
20.9108917282
 20
-37.0446111172
 11
20.8269267873
 21
-37.004555585
  0
LINE
  5
434
100
AcDbEntity
  8
0
100
AcDbLine
 62
7
  6
CONTINUOUS
 10
20.8269267873
 20
-37.004555585
 11
20.8222086472
 21
-36.8912170435
  0
LINE
  5
435
100
AcDbEntity
  8
0
100
AcDbLine
 62
7
  6
CONTINUOUS
 10
20.804505979
 20
-36.4404931025
 11
20.8003659601
 21
-36.3284699416
  0
SPLINE
  5
436
100
AcDbEntity
  8
RACCORDO
100
AcDbSpline
 62
253
  6
CONTINUOUS
 70
0
 71
3
 72
28
 73
24
 74
22
 42
0.0000001
 43
0.0000001
 44
0.0000000001
 12
-17.2191655922
 22
8.0407552382
 32
0.0
 13
-16.9977737149
 23
8.4987703362
 33
0.0
 40
0.0
 40
0.0
 40
0.0
 40
0.0
 40
0.0223634522
 40
0.0477037889
 40
0.0758694941
 40
0.1064756734
 40
0.1394558026
 40
0.1749941122
 40
0.2133057082
 40
0.2545520822
 40
0.2998571924
 40
0.3497394443
 40
0.3997546619
 40
0.447694566
 40
0.4941537594
 40
0.5399955426
 40
0.5876524497
 40
0.6399159292
 40
0.6985477481
 40
0.7635567763
 40
0.8350301349
 40
0.9135874214
 40
1.0
 40
1.0
 40
1.0
 40
1.0
 10
30.4718120079
 20
25.3611516844
 30
0.0
 10
30.3434520126
 20
25.4210913661
 30
0.0
 10
30.0705457556
 20
25.5508767687
 30
0.0
 10
29.6381667043
 20
25.7607200312
 30
0.0
 10
29.1594397294
 20
25.9946473452
 30
0.0
 10
28.6373658135
 20
26.2500979507
 30
0.0
 10
28.0737957559
 20
26.5270028328
 30
0.0
 10
27.4672219018
 20
26.8270664658
 30
0.0
 10
26.8144933611
 20
27.151920088
 30
0.0
 10
26.1067943512
 20
27.5051789202
 30
0.0
 10
25.3337369023
 20
27.8916169374
 30
0.0
 10
24.511133936
 20
28.3031724514
 30
0.0
 10
23.6734810651
 20
28.7219495866
 30
0.0
 10
22.8549735718
 20
29.1305301627
 30
0.0
 10
22.0600524044
 20
29.5271673075
 30
0.0
 10
21.2667832663
 20
29.9231001685
 30
0.0
 10
20.440789712
 20
30.335801002
 30
0.0
 10
19.5423648269
 20
30.7848071052
 30
0.0
 10
18.5454706872
 20
31.2826634748
 30
0.0
 10
17.4393029431
 20
31.8340745098
 30
0.0
 10
16.2199082278
 20
32.4412690961
 30
0.0
 10
14.8790827435
 20
33.1087773672
 30
0.0
 10
13.9438779179
 20
33.5751279969
 30
0.0
 10
13.4542707657
 20
33.8199282167
 30
0.0
 11
30.4718120079
 21
25.3611516844
 31
0.0
 11
30.0878053152
 21
25.5432515048
 31
0.0
 11
29.654357931
 21
25.7530889782
 31
0.0
 11
29.1733496347
 21
25.9879006662
 31
0.0
 11
28.6509412457
 21
26.2436264411
 31
0.0
 11
28.0884598508
 21
26.5200993011
 31
0.0
 11
27.4830844115
 21
26.8195104241
 31
0.0
 11
26.8311987764
 21
27.1437607714
 31
0.0
 11
26.1298304019
 21
27.4937600111
 31
0.0
 11
25.3596926227
 21
27.8786941814
 31
0.0
 11
24.5118664492
 21
28.3027540797
 31
0.0
 11
23.6616780737
 21
28.7277398666
 31
0.0
 11
22.8465694789
 21
29.1346958431
 31
0.0
 11
22.0565607737
 21
29.5289295595
 31
0.0
 11
21.2770980267
 21
29.9180189433
 31
0.0
 11
20.4669005005
 21
30.3227715289
 31
0.0
 11
19.5784303128
 21
30.7667319918
 31
0.0
 11
18.5815540304
 21
31.264498206
 31
0.0
 11
17.4759135496
 21
31.8157297211
 31
0.0
 11
16.2600693012
 21
32.4212490327
 31
0.0
 11
14.9236986088
 21
33.0867416008
 31
0.0
 11
13.4542707657
 21
33.8199282167
 31
0.0
  0
SPLINE
  5
437
100
AcDbEntity
  8
RACCORDO
100
AcDbSpline
 62
253
  6
CONTINUOUS
 70
0
 71
3
 72
31
 73
27
 74
25
 42
0.0000001
 43
0.0000001
 44
0.0000000001
 12
-16.9442900441
 22
8.4722368147
 32
0.0
 13
-16.6805711817
 23
8.98032888
 33
0.0
 40
0.0
 40
0.0
 40
0.0
 40
0.0
 40
0.1125405686
 40
0.2115998567
 40
0.2997252304
 40
0.378388752
 40
0.4483767278
 40
0.510425158
 40
0.5654815554
 40
0.61456555
 40
0.6586082486
 40
0.6983283841
 40
0.7344248735
 40
0.7674854621
 40
0.7976673142
 40
0.8250570036
 40
0.8499827815
 40
0.8728597955
 40
0.8938550934
 40
0.9128140394
 40
0.9298255887
 40
0.9453462443
 40
0.9598683547
 40
0.9736974838
 40
0.9870158765
 40
1.0
 40
1.0
 40
1.0
 40
1.0
 10
-15.5371076878
 20
48.3156174434
 30
0.0
 10
-16.1727477001
 20
48.633440893
 30
0.0
 10
-17.3670649557
 20
49.2326528688
 30
0.0
 10
-19.0584263198
 20
50.0821246081
 30
0.0
 10
-20.5589458756
 20
50.8349313526
 30
0.0
 10
-21.8960270085
 20
51.504122972
 30
0.0
 10
-23.0860003621
 20
52.0993165947
 30
0.0
 10
-24.1423776647
 20
52.6283628557
 30
0.0
 10
-25.0806378099
 20
53.0984731487
 30
0.0
 10
-25.9173590262
 20
53.5174160662
 30
0.0
 10
-26.6676846034
 20
53.8925983576
 30
0.0
 10
-27.3447086598
 20
54.2309965011
 30
0.0
 10
-27.9596593411
 20
54.5384710693
 30
0.0
 10
-28.5206313894
 20
54.8192196264
 30
0.0
 10
-29.0323356521
 20
55.0755612078
 30
0.0
 10
-29.4978268116
 20
55.3094616404
 30
0.0
 10
-29.9216936211
 20
55.5234593092
 30
0.0
 10
-30.3090184713
 20
55.7202381887
 30
0.0
 10
-30.662458119
 20
55.9005248006
 30
0.0
 10
-30.9828350155
 20
56.0641146948
 30
0.0
 10
-31.2724478743
 20
56.2119332503
 30
0.0
 10
-31.5372812369
 20
56.3466700466
 30
0.0
 10
-31.7841014743
 20
56.4724942773
 30
0.0
 10
-32.0180701133
 20
56.5929061639
 30
0.0
 10
-32.2426995812
 20
56.7102324316
 30
0.0
 10
-32.3893203423
 20
56.7882745694
 30
0.0
 10
-32.4615145411
 20
56.8271418026
 30
0.0
 11
-15.5371076878
 21
48.3156174434
 31
0.0
 11
-17.443085376
 21
49.2709701456
 31
0.0
 11
-19.1201914543
 21
50.1129846439
 31
0.0
 11
-20.6124785722
 21
50.8614702886
 31
0.0
 11
-21.9450473229
 21
51.5285834093
 31
0.0
 11
-23.130787179
 21
52.1218514175
 31
0.0
 11
-24.1818392815
 21
52.6481689263
 31
0.0
 11
-25.1143794485
 21
53.1153218955
 31
0.0
 11
-25.9458640544
 21
53.5315905264
 31
0.0
 11
-26.692108813
 21
53.9047856939
 31
0.0
 11
-27.3651689387
 21
54.2412428219
 31
0.0
 11
-27.9767864699
 21
54.5470845376
 31
0.0
 11
-28.5368686859
 21
54.8273935415
 31
0.0
 11
-29.0480455114
 21
55.0835672651
 31
0.0
 11
-29.5116518534
 21
55.3166015865
 31
0.0
 11
-29.9331489493
 21
55.5294751566
 31
0.0
 11
-30.3195567376
 21
55.7257293779
 31
0.0
 11
-30.6738998337
 21
55.9063937217
 31
0.0
 11
-30.9937921616
 21
56.0696974326
 31
0.0
 11
-31.2808666215
 21
56.2161480809
 31
0.0
 11
-31.5428827146
 21
56.3495658791
 31
0.0
 11
-31.7879176978
 21
56.4746430679
 31
0.0
 11
-32.0208143104
 21
56.5946205278
 31
0.0
 11
-32.2444160587
 21
56.7115034594
 31
0.0
 11
-32.4615145411
 21
56.8271418026
 31
0.0
  0
LINE
  5
438
100
AcDbEntity
  8
0
100
AcDbLine
 62
7
  6
CONTINUOUS
 10
14.3502014192
 20
-32.7165703229
 11
13.884976403
 21
-32.4842523442
  0
SPLINE
  5
439
100
AcDbEntity
  8
0
100
AcDbSpline
 62
7
  6
CONTINUOUS
 70
0
 71
3
 72
10
 73
6
 74
4
 42
0.0000001
 43
0.0000001
 44
0.0000000001
 12
1.0328816627
 22
-0.3215215932
 32
0.0
 13
0.8678067971
 23
-0.6482496069
 33
0.0
 40
0.0
 40
0.0
 40
0.0
 40
0.0
 40
0.3746840098
 40
0.7480067035
 40
1.0
 40
1.0
 40
1.0
 40
1.0
 10
20.3240873894
 20
-35.7560669576
 30
0.0
 10
20.4530888037
 20
-35.7962232909
 30
0.0
 10
20.7098914016
 20
-35.8798193954
 30
0.0
 10
21.0378065543
 20
-36.0322881265
 30
0.0
 10
21.2282895938
 20
-36.1551079092
 30
0.0
 10
21.3011834256
 20
-36.2095594277
 30
0.0
 11
20.3240873894
 21
-35.7560669576
 31
0.0
 11
20.7074683045
 21
-35.8876121511
 31
0.0
 11
21.0724000449
 21
-36.0605811776
 31
0.0
 11
21.3011834256
 21
-36.2095594277
 31
0.0
  0
SPLINE
  5
43A
100
AcDbEntity
  8
RACCORDO
100
AcDbSpline
 62
253
  6
CONTINUOUS
 70
0
 71
3
 72
11
 73
7
 74
5
 42
0.0000001
 43
0.0000001
 44
0.0000000001
 12
0.155417469
 22
4.072809421
 32
0.0
 13
-3.6775772888
 23
1.757087492
 33
0.0
 40
0.0
 40
0.0
 40
0.0
 40
0.0
 40
0.2224950802
 40
0.4869208767
 40
0.7620103171
 40
1.0
 40
1.0
 40
1.0
 40
1.0
 10
32.4007497907
 20
21.9747394897
 30
0.0
 10
32.4122763315
 20
22.2767995093
 30
0.0
 10
32.3310029913
 20
22.9430503613
 30
0.0
 10
31.9486056639
 20
23.9161591571
 30
0.0
 10
31.3268790659
 20
24.7836855092
 30
0.0
 10
30.7635538255
 20
25.2217621194
 30
0.0
 10
30.4718120079
 20
25.3611516844
 30
0.0
 11
32.4007497907
 21
21.9747394897
 31
0.0
 11
32.3039518599
 21
22.8763980778
 31
0.0
 11
31.9153600672
 21
23.8816439625
 31
0.0
 11
31.2532180145
 21
24.7864436684
 31
0.0
 11
30.4718120079
 21
25.3611516844
 31
0.0
  0
SPLINE
  5
43B
100
AcDbEntity
  8
0
100
AcDbSpline
 62
7
  6
CONTINUOUS
 70
0
 71
3
 72
13
 73
9
 74
7
 42
0.0000001
 43
0.0000001
 44
0.0000000001
 12
0.9966837377
 22
-0.8671466232
 32
0.0
 13
-0.8588997572
 23
-1.073643899
 33
0.0
 40
0.0
 40
0.0
 40
0.0
 40
0.0
 40
0.2334387425
 40
0.4497067471
 40
0.633514071
 40
0.7833790161
 40
0.902016367
 40
1.0
 40
1.0
 40
1.0
 40
1.0
 10
21.409395651
 20
-36.2967181614
 30
0.0
 10
21.4869505171
 20
-36.3641933672
 30
0.0
 10
21.6096085601
 20
-36.5241388098
 30
0.0
 10
21.7310861907
 20
-36.7773162376
 30
0.0
 10
21.7806172218
 20
-37.0165544429
 30
0.0
 10
21.7844725041
 20
-37.2165910995
 30
0.0
 10
21.7424844844
 20
-37.3770758303
 30
0.0
 10
21.68859432
 20
-37.4540089093
 30
0.0
 10
21.6605416138
 20
-37.4890754192
 30
0.0
 11
21.409395651
 21
-36.2967181614
 31
0.0
 11
21.6044767542
 21
-36.5355744133
 31
0.0
 11
21.7254227422
 21
-36.7944257108
 31
0.0
 11
21.77541789
 21
-37.0320523321
 31
0.0
 11
21.7744422891
 21
-37.2300374448
 31
0.0
 11
21.7313981803
 21
-37.3807434361
 31
0.0
 11
21.6605416138
 21
-37.4890754192
 31
0.0
  0
SPLINE
  5
43C
100
AcDbEntity
  8
0
100
AcDbSpline
 62
7
  6
CONTINUOUS
 70
0
 71
3
 72
8
 73
4
 74
2
 42
0.0000001
 43
0.0000001
 44
0.0000000001
 12
-0.0649258981
 22
-0.0811588242
 32
0.0
 13
-0.0887014248
 23
-0.0408257614
 33
0.0
 40
0.0
 40
0.0
 40
0.0
 40
0.0
 40
1.0
 40
1.0
 40
1.0
 40
1.0
 10
21.6605416138
 20
-37.4890754192
 30
0.0
 10
21.6388996477
 20
-37.5161283606
 30
0.0
 10
21.6150694048
 20
-37.5433405473
 30
0.0
 10
21.5855022632
 20
-37.5569491344
 30
0.0
 11
21.6605416138
 21
-37.4890754192
 31
0.0
 11
21.5855022632
 21
-37.5569491344
 31
0.0
  0
SPLINE
  5
43D
100
AcDbEntity
  8
0
100
AcDbSpline
 62
7
  6
CONTINUOUS
 70
0
 71
3
 72
8
 73
4
 74
2
 42
0.0000001
 43
0.0000001
 44
0.0000000001
 12
0.1343232845
 22
-0.0911554279
 32
0.0
 13
0.0982054477
 23
-0.1321048409
 33
0.0
 40
0.0
 40
0.0
 40
0.0
 40
0.0
 40
1.0
 40
1.0
 40
1.0
 40
1.0
 10
21.4551153968
 20
-37.5401147657
 30
0.0
 10
21.499889825
 20
-37.5704999084
 30
0.0
 10
21.5380880227
 20
-37.610126175
 30
0.0
 10
21.5708231719
 20
-37.654161122
 30
0.0
 11
21.4551153968
 21
-37.5401147657
 31
0.0
 11
21.5708231719
 21
-37.654161122
 31
0.0
  0
SPLINE
  5
43E
100
AcDbEntity
  8
0
100
AcDbSpline
 62
7
  6
CONTINUOUS
 70
0
 71
3
 72
8
 73
4
 74
2
 42
0.0000001
 43
0.0000001
 44
0.0000000001
 12
0.048747602
 22
-0.0655747147
 32
0.0
 13
0.0410795822
 23
-0.0703192953
 33
0.0
 40
0.0
 40
0.0
 40
0.0
 40
0.0
 40
1.0
 40
1.0
 40
1.0
 40
1.0
 10
21.5708231719
 20
-37.654161122
 30
0.0
 10
21.5870723726
 20
-37.6760193602
 30
0.0
 10
21.6019754947
 20
-37.6989638838
 30
0.0
 10
21.6156686888
 20
-37.722403649
 30
0.0
 11
21.5708231719
 21
-37.654161122
 31
0.0
 11
21.6156686888
 21
-37.722403649
 31
0.0
  0
SPLINE
  5
43F
100
AcDbEntity
  8
0
100
AcDbSpline
 62
7
  6
CONTINUOUS
 70
0
 71
3
 72
9
 73
5
 74
3
 42
0.0000001
 43
0.0000001
 44
0.0000000001
 12
0.2065178268
 22
-0.3535135289
 32
0.0
 13
0.1059494443
 23
-0.3912441057
 33
0.0
 40
0.0
 40
0.0
 40
0.0
 40
0.0
 40
0.5925248683
 40
1.0
 40
1.0
 40
1.0
 40
1.0
 10
21.6156686888
 20
-37.722403649
 30
0.0
 10
21.6564576715
 20
-37.7922255014
 30
0.0
 10
21.7071781572
 20
-37.9174796328
 30
0.0
 10
21.745093205
 20
-38.0471939036
 30
0.0
 10
21.7594837929
 20
-38.1003346514
 30
0.0
 11
21.6156686888
 21
-37.722403649
 31
0.0
 11
21.7120681633
 21
-37.9422237681
 31
0.0
 11
21.7594837929
 21
-38.1003346514
 31
0.0
  0
LINE
  5
440
100
AcDbEntity
  8
RACCORDO
100
AcDbLine
 62
253
  6
CONTINUOUS
 10
11.3506138166
 20
22.2702971035
 11
11.3653965664
 21
22.4231762284
  0
LINE
  5
441
100
AcDbEntity
  8
RACCORDO
100
AcDbLine
 62
253
  6
CONTINUOUS
 10
11.3653965664
 20
22.4231762284
 11
11.3737149234
 21
22.5083563153
  0
LINE
  5
442
100
AcDbEntity
  8
RACCORDO
100
AcDbLine
 62
253
  6
CONTINUOUS
 10
11.5446748072
 20
24.1434183877
 11
11.5691467461
 21
24.3620060454
  0
LINE
  5
443
100
AcDbEntity
  8
RACCORDO
100
AcDbLine
 62
253
  6
CONTINUOUS
 10
11.7487622577
 20
25.8739922927
 11
11.7597166951
 21
25.961566778
  0
LINE
  5
444
100
AcDbEntity
  8
RACCORDO
100
AcDbLine
 62
253
  6
CONTINUOUS
 10
11.8154336256
 20
26.3997795198
 11
11.8238562082
 21
26.4650129504
  0
LINE
  5
445
100
AcDbEntity
  8
RACCORDO
100
AcDbLine
 62
253
  6
CONTINUOUS
 10
11.8238562082
 20
26.4650129504
 11
11.841226761
 21
26.5987442745
  0
LINE
  5
446
100
AcDbEntity
  8
0
100
AcDbLine
 62
7
  6
CONTINUOUS
 10
20.1721142711
 20
-37.6570773886
 11
20.2113720668
 21
-37.799012591
  0
LINE
  5
447
100
AcDbEntity
  8
RACCORDO
100
AcDbLine
 62
253
  6
CONTINUOUS
 10
-17.6407642243
 20
36.7659859906
 11
-17.6329397923
 21
36.8471470845
  0
LINE
  5
448
100
AcDbEntity
  8
RACCORDO
100
AcDbLine
 62
253
  6
CONTINUOUS
 10
-17.4453726323
 20
38.6510802043
 11
-17.4222312962
 21
38.8576949389
  0
LINE
  5
449
100
AcDbEntity
  8
RACCORDO
100
AcDbLine
 62
253
  6
CONTINUOUS
 10
-17.2236261423
 20
40.5211891021
 11
-17.2084875395
 21
40.6409562564
  0
LINE
  5
44A
100
AcDbEntity
  8
RACCORDO
100
AcDbLine
 62
253
  6
CONTINUOUS
 10
-17.2084875395
 20
40.6409562564
 11
-17.197351787
 21
40.7284934314
  0
LINE
  5
44B
100
AcDbEntity
  8
RACCORDO
100
AcDbLine
 62
253
  6
CONTINUOUS
 10
-17.197351787
 20
40.7284934314
 11
-17.167521834
 21
40.9607018603
  0
SPLINE
  5
44C
100
AcDbEntity
  8
RACCORDO
100
AcDbSpline
 62
253
  6
CONTINUOUS
 70
0
 71
3
 72
11
 73
7
 74
5
 42
0.0000001
 43
0.0000001
 44
0.0000000001
 12
0.0457814784
 22
2.742095968
 32
0.0
 13
-2.4487967917
 23
1.2347390471
 33
0.0
 40
0.0
 40
0.0
 40
0.0
 40
0.0
 40
0.2221474096
 40
0.4855336146
 40
0.7608064931
 40
1.0
 40
1.0
 40
1.0
 40
1.0
 10
31.1452875696
 20
22.0018796614
 30
0.0
 10
31.1486776485
 20
22.2049295001
 30
0.0
 10
31.0855443239
 20
22.6504647518
 30
0.0
 10
30.8224716877
 20
23.3013845979
 30
0.0
 10
30.4017209904
 20
23.882720662
 30
0.0
 10
30.0273357534
 20
24.1838619579
 30
0.0
 10
29.8320903226
 20
24.2823091455
 30
0.0
 11
31.1452875696
 21
22.0018796614
 31
0.0
 11
31.0689775387
 21
22.6063160484
 31
0.0
 11
30.801451425
 21
23.2772793217
 31
0.0
 11
30.3546912614
 21
23.8858221954
 31
0.0
 11
29.8320903226
 21
24.2823091455
 31
0.0
  0
SPLINE
  5
44D
100
AcDbEntity
  8
RACCORDO
100
AcDbSpline
 62
253
  6
CONTINUOUS
 70
0
 71
3
 72
39
 73
35
 74
33
 42
0.0000001
 43
0.0000001
 44
0.0000000001
 12
0.0000200639
 22
28.5424463076
 32
0.0
 13
0.4632054106
 23
28.5386874605
 33
0.0
 40
0.0
 40
0.0
 40
0.0
 40
0.0
 40
0.0810689709
 40
0.1560664354
 40
0.2255035353
 40
0.2897939521
 40
0.3493094969
 40
0.4043967375
 40
0.455377545
 40
0.5025652264
 40
0.5462631645
 40
0.5867608913
 40
0.624243495
 40
0.6588662292
 40
0.6908272353
 40
0.7203781691
 40
0.7477796502
 40
0.7732210493
 40
0.7967076509
 40
0.81826168
 40
0.8380520094
 40
0.8562733458
 40
0.8731146686
 40
0.8887233832
 40
0.9030706218
 40
0.9160754276
 40
0.9278637844
 40
0.9387750449
 40
0.9491520133
 40
0.9592457076
 40
0.9692812437
 40
0.9794120737
 40
0.9896940085
 40
1.0
 40
1.0
 40
1.0
 40
1.0
 10
31.2490546392
 20
-6.5397286687
 30
0.0
 10
31.2490551814
 20
-5.7684264191
 30
0.0
 10
31.2489317414
 20
-4.2835871302
 30
0.0
 10
31.2483695759
 20
-2.1381130108
 30
0.0
 10
31.2475115848
 20
-0.1522726644
 30
0.0
 10
31.2463804292
 20
1.6862702373
 30
0.0
 10
31.2449735944
 20
3.3882862012
 30
0.0
 10
31.2436155919
 20
4.9636725522
 30
0.0
 10
31.242331331
 20
6.4217697952
 30
0.0
 10
31.2413478848
 20
7.7715077467
 30
0.0
 10
31.2407850471
 20
9.0215083188
 30
0.0
 10
31.2406105539
 20
10.1791735469
 30
0.0
 10
31.2413439775
 20
11.250495671
 30
0.0
 10
31.2417904696
 20
12.2405982026
 30
0.0
 10
31.2416920917
 20
13.1552380584
 30
0.0
 10
31.2400951188
 20
14.0011724867
 30
0.0
 10
31.2375791208
 20
14.7850755619
 30
0.0
 10
31.2344757535
 20
15.5112792515
 30
0.0
 10
31.2304344211
 20
16.1818438772
 30
0.0
 10
31.2262747917
 20
16.7986410149
 30
0.0
 10
31.2227107915
 20
17.3653474304
 30
0.0
 10
31.2169912653
 20
17.8871977176
 30
0.0
 10
31.2097412038
 20
18.3692388718
 30
0.0
 10
31.2020894663
 20
18.8144095929
 30
0.0
 10
31.1943746266
 20
19.2230719337
 30
0.0
 10
31.187028018
 20
19.5953871305
 30
0.0
 10
31.1805375164
 20
19.9350221036
 30
0.0
 10
31.1748548145
 20
20.2496672583
 30
0.0
 10
31.1701403279
 20
20.5481999885
 30
0.0
 10
31.16550096
 20
20.8384121667
 30
0.0
 10
31.1556182869
 20
21.1261492689
 30
0.0
 10
31.1470673812
 20
21.4157106182
 30
0.0
 10
31.1418986881
 20
21.7079506749
 30
0.0
 10
31.1436963059
 20
21.9038398381
 30
0.0
 10
31.1452875696
 20
22.0018796614
 30
0.0
 11
31.2490546392
 21
-6.5397286687
 31
0.0
 11
31.248855266
 21
-4.2258219285
 31
0.0
 11
31.2482927174
 21
-2.085210897
 31
0.0
 11
31.2474275886
 21
-0.1033063925
 31
0.0
 11
31.2462853567
 21
1.7316990213
 31
0.0
 11
31.2449283475
 21
3.4304177221
 31
0.0
 11
31.2435768056
 21
5.002741749
 31
0.0
 11
31.2423378724
 21
6.4578581814
 31
0.0
 11
31.2413885751
 21
7.8047097093
 31
0.0
 11
31.2408359712
 21
9.0519556397
 31
0.0
 11
31.2407733782
 21
10.20785983
 31
0.0
 11
31.2413192925
 21
11.2777048948
 31
0.0
 11
31.2417062234
 21
12.2659223512
 31
0.0
 11
31.2414083481
 21
13.1781676027
 31
0.0
 11
31.2398636946
 21
14.0216221296
 31
0.0
 11
31.2373754547
 21
14.8037234736
 31
0.0
 11
31.2341756051
 21
15.5298761933
 31
0.0
 11
31.2302400518
 21
16.2002297058
 31
0.0
 11
31.226210264
 21
16.8154212251
 31
0.0
 11
31.2221590526
 21
17.3802711122
 31
0.0
 11
31.2164798701
 21
17.900321619
 31
0.0
 11
31.2093862895
 21
18.3809618282
 31
0.0
 11
31.2017525026
 21
18.8264073186
 31
0.0
 11
31.1940724447
 21
19.2358405832
 31
0.0
 11
31.1868400381
 21
19.6069590889
 31
0.0
 11
31.1804391702
 21
19.9433667393
 31
0.0
 11
31.1748836801
 21
20.2547512515
 31
0.0
 11
31.1700880395
 21
20.5508964879
 31
0.0
 11
31.1646088363
 21
20.8389431067
 31
0.0
 11
31.1558779258
 21
21.125248764
 31
0.0
 11
31.1476758347
 21
21.4142910849
 31
0.0
 11
31.1432150916
 21
21.7077287538
 31
0.0
 11
31.1452875696
 21
22.0018796614
 31
0.0
  0
LINE
  5
44E
100
AcDbEntity
  8
0
100
AcDbLine
 62
7
  6
CONTINUOUS
 10
19.0405535461
 20
-37.4269328823
 11
19.0249893639
 21
-37.4988622546
  0
SPLINE
  5
44F
100
AcDbEntity
  8
RACCORDO
100
AcDbSpline
 62
253
  6
CONTINUOUS
 70
0
 71
3
 72
16
 73
12
 74
10
 42
0.0000001
 43
0.0000001
 44
0.0000000001
 12
-0.0001007274
 22
9.0922775784
 32
0.0
 13
0.0070323693
 23
9.0922748594
 33
0.0
 40
0.0
 40
0.0
 40
0.0
 40
0.0
 40
0.1261707016
 40
0.2639208732
 40
0.4021613571
 40
0.5286447893
 40
0.64151444
 40
0.7439507583
 40
0.8371294406
 40
0.9221549801
 40
1.0
 40
1.0
 40
1.0
 40
1.0
 10
22.7304528696
 20
-4.0954534868
 30
0.0
 10
22.7304486333
 20
-3.7130604732
 30
0.0
 10
22.7307853496
 20
-2.9131797801
 30
0.0
 10
22.7331670938
 20
-1.6943269787
 30
0.0
 10
22.7386115688
 20
-0.4745356369
 30
0.0
 10
22.7461329808
 20
0.6698348498
 30
0.0
 10
22.7525128291
 20
1.7056970367
 30
0.0
 10
22.7557366597
 20
2.6406356097
 30
0.0
 10
22.756043022
 20
3.491190972
 30
0.0
 10
22.754269987
 20
4.2672122256
 30
0.0
 10
22.7526531175
 20
4.7608327144
 30
0.0
 10
22.7528355958
 20
4.9967621536
 30
0.0
 11
22.7304528696
 21
-4.0954534868
 31
0.0
 11
22.7310508437
 21
-2.9482746018
 31
0.0
 11
22.7336870653
 21
-1.6958145789
 31
0.0
 11
22.739232038
 21
-0.4389059574
 31
0.0
 11
22.7463203885
 21
0.7110946716
 31
0.0
 11
22.7522214714
 21
1.7373198999
 31
0.0
 11
22.7553313768
 21
2.6686941482
 31
0.0
 11
22.7556613641
 21
3.5159005276
 31
0.0
 11
22.754086982
 21
4.2889747305
 31
0.0
 11
22.7528355958
 21
4.9967621536
 31
0.0
  0
SPLINE
  5
450
100
AcDbEntity
  8
RACCORDO
100
AcDbSpline
 62
253
  6
CONTINUOUS
 70
0
 71
3
 72
21
 73
17
 74
15
 42
0.0000001
 43
0.0000001
 44
0.0000000001
 12
0.0051597799
 22
5.4461780575
 32
0.0
 13
-4.9275856647
 23
2.3194356154
 33
0.0
 40
0.0
 40
0.0
 40
0.0
 40
0.0
 40
0.1062962115
 40
0.206363072
 40
0.2997496571
 40
0.3854747082
 40
0.4629814864
 40
0.5330158547
 40
0.5976651546
 40
0.6594077235
 40
0.7202172906
 40
0.7804566212
 40
0.8397573295
 40
0.8967612258
 40
0.9503425829
 40
1.0
 40
1.0
 40
1.0
 40
1.0
 10
22.7528355958
 20
4.9967621536
 30
0.0
 10
22.7530184175
 20
5.1897315185
 30
0.0
 10
22.7234035718
 20
5.5647335937
 30
0.0
 10
22.6139682742
 20
6.0988050459
 30
0.0
 10
22.4609545363
 20
6.5828097454
 30
0.0
 10
22.2823056285
 20
7.0135939561
 30
0.0
 10
22.0903356538
 20
7.3914930663
 30
0.0
 10
21.8921108264
 20
7.7220707214
 30
0.0
 10
21.6921453637
 20
8.0175099546
 30
0.0
 10
21.4861969401
 20
8.2881016296
 30
0.0
 10
21.2688328801
 20
8.5391147169
 30
0.0
 10
21.039618872
 20
8.7732389653
 30
0.0
 10
20.7993277825
 20
8.9857381604
 30
0.0
 10
20.5539689264
 20
9.1731057346
 30
0.0
 10
20.3088101701
 20
9.3302982804
 30
0.0
 10
20.1428702779
 20
9.4180077015
 30
0.0
 10
20.0613065523
 20
9.4564000955
 30
0.0
 11
22.7528355958
 21
4.9967621536
 31
0.0
 11
22.7103775296
 21
5.5741114375
 31
0.0
 11
22.6020572559
 21
6.1082203212
 31
0.0
 11
22.4495452592
 21
6.5934153883
 31
0.0
 11
22.2708757608
 21
7.0247489451
 31
0.0
 11
22.0796577436
 21
7.4010699605
 31
0.0
 11
21.8840271587
 21
7.728498955
 31
0.0
 11
21.6864705356
 21
8.0199436079
 31
0.0
 11
21.4824022479
 21
8.2872032413
 31
0.0
 11
21.2656557843
 21
8.5376050837
 31
0.0
 11
21.0356895977
 21
8.7715885836
 31
0.0
 11
20.7936868362
 21
8.985456183
 31
0.0
 11
20.5465086997
 21
9.1732974714
 31
0.0
 11
20.3006539084
 21
9.3304937877
 31
0.0
 11
20.0613065523
 21
9.4564000955
 31
0.0
  0
LINE
  5
451
100
AcDbEntity
  8
0
100
AcDbLine
 62
7
  6
CONTINUOUS
 10
19.1891315589
 20
-36.7331983933
 11
19.534091347
 21
-36.9027584261
  0
LINE
  5
452
100
AcDbEntity
  8
0
100
AcDbLine
 62
7
  6
CONTINUOUS
 10
19.534091347
 20
-36.9027584261
 11
19.6024926977
 21
-36.9362897391
  0
SPLINE
  5
453
100
AcDbEntity
  8
RACCORDO
100
AcDbSpline
 62
253
  6
CONTINUOUS
 70
0
 71
3
 72
18
 73
14
 74
12
 42
0.0000001
 43
0.0000001
 44
0.0000000001
 12
-4.3492383548
 22
2.0486853568
 32
0.0
 13
-4.2996525009
 23
2.1508078631
 33
0.0
 40
0.0
 40
0.0
 40
0.0
 40
0.0
 40
0.0615711419
 40
0.1282635737
 40
0.2008338734
 40
0.2795927271
 40
0.3649601246
 40
0.4574640254
 40
0.5577423304
 40
0.6663111515
 40
0.7836165556
 40
0.9101440513
 40
1.0
 40
1.0
 40
1.0
 40
1.0
 10
20.0613065523
 20
9.4564000955
 30
0.0
 10
19.9720440284
 20
9.4984467277
 30
0.0
 10
19.7862347179
 20
9.5863369339
 30
0.0
 10
19.4961277279
 20
9.7256983602
 30
0.0
 10
19.1817314786
 20
9.8781002045
 30
0.0
 10
18.8409597581
 20
10.0446963192
 30
0.0
 10
18.4721071695
 20
10.2265793034
 30
0.0
 10
18.0727228152
 20
10.4245179826
 30
0.0
 10
17.6403113524
 20
10.6395452728
 30
0.0
 10
17.1725576715
 20
10.8727628729
 30
0.0
 10
16.6673772966
 20
11.1251882561
 30
0.0
 10
16.1890742863
 20
11.3643131717
 30
0.0
 10
15.8789404891
 20
11.5194277368
 30
0.0
 10
15.7501573709
 20
11.5838486971
 30
0.0
 11
20.0613065523
 21
9.4564000955
 31
0.0
 11
19.7937760484
 21
9.5830842958
 31
0.0
 11
19.5046972817
 21
9.7217827646
 31
0.0
 11
19.1907371763
 21
9.8739418926
 31
0.0
 11
18.8505650108
 21
10.0402300663
 31
0.0
 11
18.482423034
 21
10.2216398493
 31
0.0
 11
18.0839280463
 21
10.4190706234
 31
0.0
 11
17.6522437642
 21
10.6337024529
 31
0.0
 11
17.1851196891
 21
10.8665805974
 31
0.0
 11
16.6806062522
 21
11.1185999863
 31
0.0
 11
16.1365188914
 21
11.3906101404
 31
0.0
 11
15.7501573709
 21
11.5838486971
 31
0.0
  0
LINE
  5
454
100
AcDbEntity
  8
RACCORDO
100
AcDbLine
 62
253
  6
CONTINUOUS
 10
15.7501573709
 20
11.5838486971
 11
15.3435124732
 21
11.7872922348
  0
LINE
  5
455
100
AcDbEntity
  8
RACCORDO
100
AcDbLine
 62
253
  6
CONTINUOUS
 10
15.3435124732
 20
11.7872922348
 11
15.1322605873
 21
11.8929901669
  0
SPLINE
  5
456
100
AcDbEntity
  8
RACCORDO
100
AcDbSpline
 62
253
  6
CONTINUOUS
 70
0
 71
3
 72
13
 73
9
 74
7
 42
0.0000001
 43
0.0000001
 44
0.0000000001
 12
-4.2895363933
 22
2.1461663
 32
0.0
 13
-4.2900967976
 23
2.1450458525
 33
0.0
 40
0.0
 40
0.0
 40
0.0
 40
0.0
 40
0.0505210304
 40
0.2102518918
 40
0.3831795516
 40
0.5705172617
 40
0.7742845421
 40
1.0
 40
1.0
 40
1.0
 40
1.0
 10
15.1322605873
 20
11.8929901669
 30
0.0
 10
15.0600233211
 20
11.9291323446
 30
0.0
 10
14.7593924679
 20
12.0795379151
 30
0.0
 10
14.2114448876
 20
12.3535403216
 30
0.0
 10
13.4675393202
 20
12.7247568491
 30
0.0
 10
12.6603895838
 20
13.1269171476
 30
0.0
 10
11.777669734
 20
13.5666574589
 30
0.0
 10
11.1633303026
 20
13.8734138162
 30
0.0
 10
10.8405499149
 20
14.0348038185
 30
0.0
 11
15.1322605873
 21
11.8929901669
 31
0.0
 11
14.9155455593
 21
12.0014102483
 31
0.0
 11
14.2302706373
 21
12.3440121389
 31
0.0
 11
13.4881181427
 21
12.7143971932
 31
0.0
 11
12.6838966347
 21
13.1151942572
 31
0.0
 11
11.8091435091
 21
13.5511390035
 31
0.0
 11
10.8405499149
 21
14.0348038185
 31
0.0
  0
LINE
  5
457
100
AcDbEntity
  8
0
100
AcDbLine
 62
7
  6
CONTINUOUS
 10
16.8584413883
 20
-36.2206367134
 11
16.8571029074
 21
-36.4222753611
  0
SPLINE
  5
458
100
AcDbEntity
  8
RACCORDO
100
AcDbSpline
 62
253
  6
CONTINUOUS
 70
0
 71
3
 72
28
 73
24
 74
22
 42
0.0000001
 43
0.0000001
 44
0.0000000001
 12
-17.0040646846
 22
8.5977219688
 32
0.0
 13
-17.0425236206
 23
8.5212339185
 33
0.0
 40
0.0
 40
0.0
 40
0.0
 40
0.0
 40
0.0230788426
 40
0.0488310103
 40
0.0771858434
 40
0.1078969733
 40
0.1410155407
 40
0.176676093
 40
0.2150319336
 40
0.2562415306
 40
0.3014631073
 40
0.3512146414
 40
0.4010750618
 40
0.4488818927
 40
0.4952345047
 40
0.5409848238
 40
0.5885377216
 40
0.6406659516
 40
0.6991305998
 40
0.7639731932
 40
0.8352962937
 40
0.9137144241
 40
1.0
 40
1.0
 40
1.0
 40
1.0
 10
29.8320903226
 20
24.2823091455
 30
0.0
 10
29.7012789451
 20
24.3484509696
 30
0.0
 10
29.4251859743
 20
24.4897422175
 30
0.0
 10
28.9892204812
 20
24.7139396068
 30
0.0
 10
28.5094888563
 20
24.9590291872
 30
0.0
 10
27.987174191
 20
25.2235966109
 30
0.0
 10
27.4231830041
 20
25.5085713111
 30
0.0
 10
26.8158408256
 20
25.8154146282
 30
0.0
 10
26.1622234282
 20
26.144623742
 30
0.0
 10
25.453833858
 20
26.5000800715
 30
0.0
 10
24.6804873675
 20
26.8874662274
 30
0.0
 10
23.8577366825
 20
27.298904364
 30
0.0
 10
23.020146172
 20
27.7173786672
 30
0.0
 10
22.2020724794
 20
28.1266149156
 30
0.0
 10
21.4074550485
 20
28.5243913851
 30
0.0
 10
20.6143264052
 20
28.9215389364
 30
0.0
 10
19.7882742582
 20
29.3348656253
 30
0.0
 10
18.8899074486
 20
29.7841331285
 30
0.0
 10
17.8933231865
 20
30.2825156339
 30
0.0
 10
16.7879309847
 20
30.835889337
 30
0.0
 10
15.5694046953
 20
31.4463753918
 30
0.0
 10
14.2291616293
 20
32.1179627287
 30
0.0
 10
13.2937864261
 20
32.5863496592
 30
0.0
 10
12.803611771
 20
32.8314361846
 30
0.0
 11
29.8320903226
 21
24.2823091455
 31
0.0
 11
29.4403642735
 21
24.4821288616
 31
0.0
 11
29.0038260625
 21
24.7061952734
 31
0.0
 11
28.5226804312
 21
24.9519534855
 31
0.0
 11
28.0007726921
 21
25.2166041558
 31
0.0
 11
27.4375908586
 21
25.50128594
 31
0.0
 11
26.8310594883
 21
25.8075746858
 31
0.0
 11
26.1783316779
 21
26.1363119043
 31
0.0
 11
25.4765706465
 21
26.4885753394
 31
0.0
 11
24.7061704384
 21
26.8744975926
 31
0.0
 11
23.8583292943
 21
27.2985431386
 31
0.0
 11
23.0085145317
 21
27.7232806771
 31
0.0
 11
22.1938311384
 21
28.1307851425
 31
0.0
 11
21.404042106
 21
28.5261193006
 31
0.0
 11
20.6245446056
 21
28.9163749936
 31
0.0
 11
19.8142482586
 21
29.3218343396
 31
0.0
 11
18.9259020975
 21
29.7661320257
 31
0.0
 11
17.9295868497
 21
30.2644627446
 31
0.0
 11
16.8247640921
 21
30.8175186942
 31
0.0
 11
15.6097011876
 21
31.4262040824
 31
0.0
 11
14.2738063363
 21
32.0955181746
 31
0.0
 11
12.803611771
 21
32.8314361846
 31
0.0
  0
LINE
  5
459
100
AcDbEntity
  8
0
100
AcDbLine
 62
7
  6
CONTINUOUS
 10
16.5318289771
 20
-33.8494256443
 11
16.9596349016
 21
-34.0631603573
  0
LINE
  5
45A
100
AcDbEntity
  8
0
100
AcDbLine
 62
7
  6
CONTINUOUS
 10
16.9596349016
 20
-34.0631603573
 11
17.0367105066
 21
-34.3251730547
  0
LINE
  5
45B
100
AcDbEntity
  8
0
100
AcDbLine
 62
7
  6
CONTINUOUS
 10
17.3523316777
 20
-35.3791482239
 11
17.4106230006
 21
-35.5705919504
  0
LINE
  5
45C
100
AcDbEntity
  8
0
100
AcDbLine
 62
7
  6
CONTINUOUS
 10
17.4106230006
 20
-35.5705919504
 11
17.4330889823
 21
-35.6441164184
  0
SPLINE
  5
45D
100
AcDbEntity
  8
RACCORDO
100
AcDbSpline
 62
253
  6
CONTINUOUS
 70
0
 71
3
 72
11
 73
7
 74
5
 42
0.0000001
 43
0.0000001
 44
0.0000000001
 12
-1.1802916426
 22
0.6189219893
 32
0.0
 13
-1.1591698623
 23
-0.6670429341
 33
0.0
 40
0.0
 40
0.0
 40
0.0
 40
0.0
 40
0.3682730437
 40
0.6658774803
 40
0.9199623951
 40
1.0
 40
1.0
 40
1.0
 40
1.0
 10
-32.4615170844
 20
56.8271403564
 30
0.0
 10
-32.6064069496
 20
56.9031177847
 30
0.0
 10
-32.8866503629
 20
57.0110368938
 30
0.0
 10
-33.3007366188
 20
57.0406288551
 30
0.0
 10
-33.5772296548
 20
56.9689192833
 30
0.0
 10
-33.7100705592
 20
56.9011598249
 30
0.0
 10
-33.7409962857
 20
56.883363652
 30
0.0
 11
-32.4615170844
 21
56.8271403564
 31
0.0
 11
-32.9223495498
 21
56.9960315127
 31
0.0
 11
-33.3183291125
 21
57.0186412004
 31
0.0
 11
-33.645658871
 21
56.9319109704
 31
0.0
 11
-33.7409962857
 21
56.883363652
 31
0.0
  0
LINE
  5
45E
100
AcDbEntity
  8
0
100
AcDbLine
 62
7
  6
CONTINUOUS
 10
17.8119168197
 20
-34.4884820288
 11
18.2362534674
 21
-34.6997695506
  0
LINE
  5
45F
100
AcDbEntity
  8
0
100
AcDbLine
 62
7
  6
CONTINUOUS
 10
15.6881516438
 20
-33.4275847301
 11
16.116194817
 21
-33.6415550792
  0
LINE
  5
460
100
AcDbEntity
  8
0
100
AcDbLine
 62
7
  6
CONTINUOUS
 10
15.1015780007
 20
-33.1344948427
 11
15.5293149953
 21
-33.3483255389
  0
LINE
  5
461
100
AcDbEntity
  8
0
100
AcDbLine
 62
7
  6
CONTINUOUS
 10
14.9925674252
 20
-35.392207392
 11
14.970555912
 21
-35.4798096247
  0
LINE
  5
462
100
AcDbEntity
  8
0
100
AcDbLine
 62
7
  6
CONTINUOUS
 10
15.5542697592
 20
-33.3912291209
 11
15.5717685524
 21
-33.3270987603
  0
LINE
  5
463
100
AcDbEntity
  8
0
100
AcDbLine
 62
7
  6
CONTINUOUS
 10
13.8425232592
 20
-32.5054789161
 11
14.3077480777
 21
-32.7377969937
  0
LINE
  5
464
100
AcDbEntity
  8
0
100
AcDbLine
 62
7
  6
CONTINUOUS
 10
15.5717685524
 20
-33.3270987603
 11
15.2156176627
 21
-33.1490532315
  0
LINE
  5
465
100
AcDbEntity
  8
0
100
AcDbLine
 62
7
  6
CONTINUOUS
 10
15.2156176627
 20
-33.1490532315
 11
15.1440315096
 21
-33.1132680883
  0
SPLINE
  5
466
100
AcDbEntity
  8
RACCORDO
100
AcDbSpline
 62
253
  6
CONTINUOUS
 70
0
 71
3
 72
10
 73
6
 74
4
 42
0.0000001
 43
0.0000001
 44
0.0000000001
 12
1.025070248
 22
-0.1960067458
 32
0.0
 13
0.9516471328
 23
0.4284336497
 33
0.0
 40
0.0
 40
0.0
 40
0.0
 40
0.0
 40
0.3445133728
 40
0.6889474631
 40
1.0
 40
1.0
 40
1.0
 40
1.0
 10
31.2490549717
 20
-6.539728104
 30
0.0
 10
31.3667717745
 20
-6.5622370857
 30
0.0
 10
31.6072449835
 20
-6.5832719857
 30
0.0
 10
31.9552128323
 20
-6.5525004517
 30
0.0
 10
32.1767098215
 20
-6.4887074904
 30
0.0
 10
32.2753805731
 20
-6.4442856992
 30
0.0
 11
31.2490549717
 21
-6.539728104
 31
0.0
 11
31.6070872033
 21
-6.5727132585
 31
0.0
 11
31.9650086104
 21
-6.5394285372
 31
0.0
 11
32.2753805731
 21
-6.4442856992
 31
0.0
  0
SPLINE
  5
467
100
AcDbEntity
  8
RACCORDO
100
AcDbSpline
 62
253
  6
CONTINUOUS
 70
0
 71
3
 72
10
 73
6
 74
4
 42
0.0000001
 43
0.0000001
 44
0.0000000001
 12
1.0250705615
 22
-0.1960056504
 32
0.0
 13
0.9516472957
 23
0.4284335369
 33
0.0
 40
0.0
 40
0.0
 40
0.0
 40
0.0
 40
0.3445135179
 40
0.6889476251
 40
1.0
 40
1.0
 40
1.0
 40
1.0
 10
31.2490551999
 20
-26.8913252815
 30
0.0
 10
31.3667720883
 20
-26.9138341469
 30
0.0
 10
31.6072453724
 20
-26.9348688779
 30
0.0
 10
31.9552132612
 20
-26.9040974901
 30
0.0
 10
32.1767102349
 20
-26.8403045612
 30
0.0
 10
32.275380952
 20
-26.7958828048
 30
0.0
 11
31.2490551999
 21
-26.8913252815
 31
0.0
 11
31.6070876392
 21
-26.9243102168
 31
0.0
 11
31.9650091043
 21
-26.8910255496
 31
0.0
 11
32.275380952
 21
-26.7958828048
 31
0.0
  0
SPLINE
  5
468
100
AcDbEntity
  8
RACCORDO
100
AcDbSpline
 62
253
  6
CONTINUOUS
 70
0
 71
3
 72
10
 73
6
 74
4
 42
0.0000001
 43
0.0000001
 44
0.0000000001
 12
1.214632217
 22
-0.4247742402
 32
0.0
 13
1.1377873881
 23
0.6010028596
 33
0.0
 40
0.0
 40
0.0
 40
0.0
 40
0.0
 40
0.3273010036
 40
0.6771760995
 40
1.0
 40
1.0
 40
1.0
 40
1.0
 10
31.1488204078
 20
-55.188293356
 30
0.0
 10
31.281337189
 20
-55.2346363677
 30
0.0
 10
31.5724058208
 20
-55.2833751409
 30
0.0
 10
32.0029717259
 20
-55.2534034875
 30
0.0
 10
32.2826162417
 20
-55.1645096508
 30
0.0
 10
32.4050512292
 20
-55.0998369551
 30
0.0
 11
31.1488204078
 21
-55.188293356
 31
0.0
 11
31.5628197414
 21
-55.2656231694
 31
0.0
 11
32.0119148239
 21
-55.2339999922
 31
0.0
 11
32.4050512292
 21
-55.0998369551
 31
0.0
  0
SPLINE
  5
469
100
AcDbEntity
  8
RACCORDO
100
AcDbSpline
 62
253
  6
CONTINUOUS
 70
0
 71
3
 72
9
 73
5
 74
3
 42
0.0000001
 43
0.0000001
 44
0.0000000001
 12
0.0612125311
 22
-0.4970365912
 32
0.0
 13
0.4603775871
 23
-0.2221958888
 33
0.0
 40
0.0
 40
0.0
 40
0.0
 40
0.0
 40
0.6474968381
 40
1.0
 40
1.0
 40
1.0
 40
1.0
 10
29.8333417053
 20
-56.1126519439
 30
0.0
 10
29.8465533454
 20
-56.2199284844
 30
0.0
 10
29.8943750038
 20
-56.3914886596
 30
0.0
 10
30.0322926649
 20
-56.5022761292
 30
0.0
 10
30.0863875166
 20
-56.5283843803
 30
0.0
 11
29.8333417053
 21
-56.1126519439
 31
0.0
 11
29.9462550339
 21
-56.4166187386
 31
0.0
 11
30.0863875166
 21
-56.5283843803
 31
0.0
  0
SPLINE
  5
46A
100
AcDbEntity
  8
RACCORDO
100
AcDbSpline
 62
253
  6
CONTINUOUS
 70
0
 71
3
 72
9
 73
5
 74
3
 42
0.0000001
 43
0.0000001
 44
0.0000000001
 12
0.0913277901
 22
-0.421651174
 32
0.0
 13
0.393359453
 23
-0.1982436482
 33
0.0
 40
0.0
 40
0.0
 40
0.0
 40
0.0
 40
0.6866906291
 40
1.0
 40
1.0
 40
1.0
 40
1.0
 10
12.8036257662
 20
-47.704669055
 30
0.0
 10
12.8245304121
 20
-47.8011836916
 30
0.0
 10
12.8828923659
 20
-47.9432774743
 30
0.0
 10
13.0031987179
 20
-48.0311185852
 30
0.0
 10
13.0442797855
 20
-48.0518224494
 30
0.0
 11
12.8036257662
 21
-47.704669055
 31
0.0
 11
12.9338931362
 21
-47.9707501067
 31
0.0
 11
13.0442797855
 21
-48.0518224494
 31
0.0
  0
SPLINE
  5
46B
100
AcDbEntity
  8
RACCORDO
100
AcDbSpline
 62
253
  6
CONTINUOUS
 70
0
 71
3
 72
9
 73
5
 74
3
 42
0.0000001
 43
0.0000001
 44
0.0000000001
 12
0.0914964849
 22
-0.4222224046
 32
0.0
 13
0.3941795023
 23
-0.1979548809
 33
0.0
 40
0.0
 40
0.0
 40
0.0
 40
0.0
 40
0.6857895494
 40
1.0
 40
1.0
 40
1.0
 40
1.0
 10
-16.1877665726
 20
-33.2089727464
 30
0.0
 10
-16.1668507949
 20
-33.3054913173
 30
0.0
 10
-16.1084066818
 20
-33.447776633
 30
0.0
 10
-15.987850596
 20
-33.5356665057
 30
0.0
 10
-15.9465654896
 20
-33.5563996698
 30
0.0
 11
-16.1877665726
 21
-33.2089727464
 31
0.0
 11
-16.0574783564
 21
-33.4750643081
 31
0.0
 11
-15.9465654896
 21
-33.5563996698
 31
0.0
  0
SPLINE
  5
46C
100
AcDbEntity
  8
RACCORDO
100
AcDbSpline
 62
253
  6
CONTINUOUS
 70
0
 71
3
 72
9
 73
5
 74
3
 42
0.0000001
 43
0.0000001
 44
0.0000000001
 12
0.0653676337
 22
-0.488391179
 32
0.0
 13
0.438774271
 23
-0.2468779023
 33
0.0
 40
0.0
 40
0.0
 40
0.0
 40
0.0
 40
0.6739789913
 40
1.0
 40
1.0
 40
1.0
 40
1.0
 10
-33.1475664249
 20
-24.6220047692
 30
0.0
 10
-33.1328809543
 20
-24.7317265673
 30
0.0
 10
-33.0796955968
 20
-24.8989322272
 30
0.0
 10
-32.9480291975
 20
-25.0083749314
 30
0.0
 10
-32.9003459873
 20
-25.0352040589
 30
0.0
 11
-33.1475664249
 21
-24.6220047692
 31
0.0
 11
-33.0255394958
 21
-24.9308740826
 31
0.0
 11
-32.9003459873
 21
-25.0352040589
 31
0.0
  0
SPLINE
  5
46D
100
AcDbEntity
  8
RACCORDO
100
AcDbSpline
 62
253
  6
CONTINUOUS
 70
0
 71
3
 72
9
 73
5
 74
3
 42
0.0000001
 43
0.0000001
 44
0.0000000001
 12
-0.2917629988
 22
0.2066934781
 32
0.0
 13
-0.0136990418
 23
0.3644338407
 33
0.0
 40
0.0
 40
0.0
 40
0.0
 40
0.0
 40
0.7849929803
 40
1.0
 40
1.0
 40
1.0
 40
1.0
 10
-34.505949952
 20
-22.3675236295
 30
0.0
 10
-34.5822939207
 20
-22.3134393197
 30
0.0
 10
-34.6747945652
 20
-22.2185900373
 30
0.0
 10
-34.6937463784
 20
-22.0986688099
 30
0.0
 10
-34.6947281752
 20
-22.0725501986
 30
0.0
 11
-34.505949952
 21
-22.3675236295
 31
0.0
 11
-34.6821968159
 21
-22.149077595
 31
0.0
 11
-34.6947281752
 21
-22.0725501986
 31
0.0
  0
SPLINE
  5
46E
100
AcDbEntity
  8
RACCORDO
100
AcDbSpline
 62
253
  6
CONTINUOUS
 70
0
 71
3
 72
8
 73
4
 74
2
 42
0.0000001
 43
0.0000001
 44
0.0000000001
 12
-0.1156347605
 22
0.1511868997
 32
0.0
 13
-0.0001663876
 23
0.1910817242
 33
0.0
 40
0.0
 40
0.0
 40
0.0
 40
0.0
 40
1.0
 40
1.0
 40
1.0
 40
1.0
 10
-34.7455946536
 20
6.1059994352
 30
0.0
 10
-34.7841395738
 20
6.1563950684
 30
0.0
 10
-34.8115092096
 20
6.220874064
 30
0.0
 10
-34.8115646721
 20
6.284567972
 30
0.0
 11
-34.7455946536
 21
6.1059994352
 31
0.0
 11
-34.8115646721
 21
6.284567972
 31
0.0
  0
SPLINE
  5
46F
100
AcDbEntity
  8
RACCORDO
100
AcDbSpline
 62
253
  6
CONTINUOUS
 70
0
 71
3
 72
8
 73
4
 74
2
 42
0.0000001
 43
0.0000001
 44
0.0000000001
 12
-0.1156525628
 22
0.1512099055
 32
0.0
 13
-0.0001413214
 23
0.1911102218
 33
0.0
 40
0.0
 40
0.0
 40
0.0
 40
0.0
 40
1.0
 40
1.0
 40
1.0
 40
1.0
 10
-34.7455946536
 20
26.4575967087
 30
0.0
 10
-34.7841455079
 20
26.5080000105
 30
0.0
 10
-34.8115175884
 20
26.5724910359
 30
0.0
 10
-34.8115646955
 20
26.6361944432
 30
0.0
 11
-34.7455946536
 21
26.4575967087
 31
0.0
 11
-34.8115646955
 21
26.6361944432
 31
0.0
  0
SPLINE
  5
470
100
AcDbEntity
  8
RACCORDO
100
AcDbSpline
 62
253
  6
CONTINUOUS
 70
0
 71
3
 72
9
 73
5
 74
3
 42
0.0000001
 43
0.0000001
 44
0.0000000001
 12
-0.2944811671
 22
0.1960247255
 32
0.0
 13
0.0264183928
 23
0.3654262817
 33
0.0
 40
0.0
 40
0.0
 40
0.0
 40
0.0
 40
0.743842879
 40
1.0
 40
1.0
 40
1.0
 40
1.0
 10
-34.5059532597
 20
54.8273913523
 30
0.0
 10
-34.5789691661
 20
54.8759952177
 30
0.0
 10
-34.6821949905
 20
54.9606459688
 30
0.0
 10
-34.6944470071
 20
55.0829954787
 30
0.0
 10
-34.6921912539
 20
55.1141976601
 30
0.0
 11
-34.5059532597
 21
54.8273913523
 31
0.0
 11
-34.6822007443
 21
55.0227877418
 31
0.0
 11
-34.6921912539
 21
55.1141976601
 31
0.0
  0
SPLINE
  5
471
100
AcDbEntity
  8
RACCORDO
100
AcDbSpline
 62
253
  6
CONTINUOUS
 70
0
 71
3
 72
10
 73
6
 74
4
 42
0.0000001
 43
0.0000001
 44
0.0000000001
 12
0.1539384272
 22
1.290406842
 32
0.0
 13
1.1490503597
 23
0.6070668235
 33
0.0
 40
0.0
 40
0.0
 40
0.0
 40
0.0
 40
0.3377614571
 40
0.6848426874
 40
1.0
 40
1.0
 40
1.0
 40
1.0
 10
-33.1475602965
 20
55.7697664947
 30
0.0
 10
-33.1302288073
 20
55.9150497264
 30
0.0
 10
-33.0423045117
 20
56.2043818049
 30
0.0
 10
-32.8060901995
 20
56.572598352
 30
0.0
 10
-32.5820411094
 20
56.7632884498
 30
0.0
 10
-32.4613305682
 20
56.8270622993
 30
0.0
 11
-33.1475602965
 21
55.7697664947
 31
0.0
 11
-33.0255387522
 21
56.1914051127
 31
0.0
 11
-32.7799754926
 21
56.5697518646
 31
0.0
 11
-32.4613305682
 21
56.8270622993
 31
0.0
  0
SPLINE
  5
472
100
AcDbEntity
  8
RACCORDO
100
AcDbSpline
 62
253
  6
CONTINUOUS
 70
0
 71
3
 72
10
 73
6
 74
4
 42
0.0000001
 43
0.0000001
 44
0.0000000001
 12
0.2128830927
 22
1.1952514598
 32
0.0
 13
1.0573832111
 23
0.5965618225
 33
0.0
 40
0.0
 40
0.0
 40
0.0
 40
0.0
 40
0.3436754858
 40
0.6893637576
 40
1.0
 40
1.0
 40
1.0
 40
1.0
 10
-16.1877665726
 20
47.327125587
 30
0.0
 10
-16.1633790058
 20
47.4640517957
 30
0.0
 10
-16.0727168862
 20
47.7322848955
 30
0.0
 10
-15.8507154877
 20
48.0747156538
 30
0.0
 10
-15.6465948703
 20
48.2538462024
 30
0.0
 10
-15.5371076878
 20
48.3156174434
 30
0.0
 11
-16.1877665726
 21
47.327125587
 31
0.0
 11
-16.0574781307
 21
47.7235051807
 31
0.0
 11
-15.8267284302
 21
48.0740641581
 31
0.0
 11
-15.5371076878
 21
48.3156174434
 31
0.0
  0
SPLINE
  5
473
100
AcDbEntity
  8
RACCORDO
100
AcDbSpline
 62
253
  6
CONTINUOUS
 70
0
 71
3
 72
10
 73
6
 74
4
 42
0.0000001
 43
0.0000001
 44
0.0000000001
 12
0.2128818809
 22
1.1952518549
 32
0.0
 13
1.0573839026
 23
0.5965609562
 33
0.0
 40
0.0
 40
0.0
 40
0.0
 40
0.0
 40
0.3436755679
 40
0.6893636758
 40
1.0
 40
1.0
 40
1.0
 40
1.0
 10
12.8036116685
 20
32.8314364665
 30
0.0
 10
12.8279991022
 20
32.9683627532
 30
0.0
 10
12.9186610839
 20
33.2365959479
 30
0.0
 10
13.1406627304
 20
33.5790266345
 30
0.0
 10
13.3447834828
 20
33.7581570491
 30
0.0
 10
13.4542707657
 20
33.8199282167
 30
0.0
 11
12.8036116685
 21
32.8314364665
 31
0.0
 11
12.9338999555
 21
33.2278162798
 31
0.0
 11
13.1646497281
 21
33.5783750447
 31
0.0
 11
13.4542707657
 21
33.8199282167
 31
0.0
  0
LINE
  5
474
100
AcDbEntity
  8
0
100
AcDbLine
 62
7
  6
CONTINUOUS
 10
16.1586485101
 20
-33.6203282326
 11
16.0165125217
 21
-33.5492810411
  0
LINE
  5
475
100
AcDbEntity
  8
0
100
AcDbLine
 62
7
  6
CONTINUOUS
 10
16.0165125217
 20
-33.5492810411
 11
15.9452401811
 21
-33.5136537179
  0
LINE
  5
476
100
AcDbEntity
  8
0
100
AcDbLine
 62
7
  6
CONTINUOUS
 10
15.9452401811
 20
-33.5136537179
 11
15.7306052231
 21
-33.4063579405
  0
SPLINE
  5
477
100
AcDbEntity
  8
RACCORDO
100
AcDbSpline
 62
253
  6
CONTINUOUS
 70
0
 71
3
 72
10
 73
6
 74
4
 42
0.0000001
 43
0.0000001
 44
0.0000000001
 12
0.1406644475
 22
1.2813252097
 32
0.0
 13
1.1055263146
 23
0.6628667645
 33
0.0
 40
0.0
 40
0.0
 40
0.0
 40
0.0
 40
0.341653593
 40
0.6897756228
 40
1.0
 40
1.0
 40
1.0
 40
1.0
 10
29.8320953055
 20
24.2823108574
 30
0.0
 10
29.8481148101
 20
24.4282339779
 30
0.0
 10
29.929229722
 20
24.7184582425
 30
0.0
 10
30.147672969
 20
25.0926021947
 30
0.0
 10
30.3574916038
 20
25.2926058747
 30
0.0
 10
30.4718120079
 20
25.3611516844
 30
0.0
 11
29.8320953055
 21
24.2823108574
 31
0.0
 11
29.9455349054
 21
24.7078494478
 31
0.0
 11
30.1744078171
 21
25.0938318521
 31
0.0
 11
30.4718120079
 21
25.3611516844
 31
0.0
  0
SPLINE
  5
478
100
AcDbEntity
  8
RACCORDO
100
AcDbSpline
 62
253
  6
CONTINUOUS
 70
0
 71
3
 72
10
 73
6
 74
4
 42
0.0000001
 43
0.0000001
 44
0.0000000001
 12
1.1928559549
 22
-0.45278942
 32
0.0
 13
1.1973033775
 23
0.4408947836
 33
0.0
 40
0.0
 40
0.0
 40
0.0
 40
0.0
 40
0.3336395973
 40
0.6854653302
 40
1.0
 40
1.0
 40
1.0
 40
1.0
 10
31.1453096841
 20
22.0018926259
 30
0.0
 10
31.2779710109
 20
21.951536466
 30
0.0
 10
31.5656109589
 20
21.8868536492
 30
0.0
 10
31.9925115183
 20
21.8763724673
 30
0.0
 10
32.2752497247
 20
21.9282373347
 30
0.0
 10
32.4007808656
 20
21.9744628998
 30
0.0
 11
31.1453096841
 21
22.0018926259
 31
0.0
 11
31.5591606975
 21
21.9021917085
 31
0.0
 11
32.0079484356
 21
21.8923866324
 31
0.0
 11
32.4007808656
 21
21.9744628998
 31
0.0
  0
SPLINE
  5
479
100
AcDbEntity
  8
RACCORDO
100
AcDbSpline
 62
253
  6
CONTINUOUS
 70
0
 71
3
 72
37
 73
33
 74
31
 42
0.0000001
 43
0.0000001
 44
0.0000000001
 12
-1.6666530614
 22
28.2553853212
 32
0.0
 13
0.0087622789
 23
28.3044953196
 33
0.0
 40
0.0
 40
0.0
 40
0.0
 40
0.0
 40
0.009320901
 40
0.0188005979
 40
0.0285652943
 40
0.0387628542
 40
0.0495373957
 40
0.0609649316
 40
0.0732045253
 40
0.0864925455
 40
0.1010295248
 40
0.1169006418
 40
0.1341744108
 40
0.1530765583
 40
0.1739185145
 40
0.1968857302
 40
0.2221872312
 40
0.2499135032
 40
0.2800901722
 40
0.3129151993
 40
0.3486597527
 40
0.3875425723
 40
0.4297932727
 40
0.4756231956
 40
0.5252201802
 40
0.5787529223
 40
0.636472257
 40
0.6986874915
 40
0.7657745481
 40
0.8380727421
 40
0.9159656742
 40
1.0
 40
1.0
 40
1.0
 40
1.0
 10
32.4050512292
 20
-55.0998369551
 30
0.0
 10
32.3998729931
 20
-55.0120484052
 30
0.0
 10
32.390044787
 20
-54.8349382907
 30
0.0
 10
32.3774566483
 20
-54.5657199458
 30
0.0
 10
32.3669962043
 20
-54.2881338889
 30
0.0
 10
32.3580662135
 20
-53.9982736601
 30
0.0
 10
32.3497422375
 20
-53.6927016894
 30
0.0
 10
32.3414248426
 20
-53.3678565171
 30
0.0
 10
32.3334643068
 20
-53.0192812811
 30
0.0
 10
32.3258979415
 20
-52.6413537473
 30
0.0
 10
32.3189737949
 20
-52.2291456021
 30
0.0
 10
32.3129136887
 20
-51.7793152108
 30
0.0
 10
32.307856419
 20
-51.2882854974
 30
0.0
 10
32.3037034541
 20
-50.7503471527
 30
0.0
 10
32.2998007256
 20
-50.1586892569
 30
0.0
 10
32.2955493633
 20
-49.5066554989
 30
0.0
 10
32.2918554165
 20
-48.7896645167
 30
0.0
 10
32.2898734293
 20
-48.0046460764
 30
0.0
 10
32.2897827192
 20
-47.1486424108
 30
0.0
 10
32.2908917779
 20
-46.2169887725
 30
0.0
 10
32.2919387091
 20
-45.2031938752
 30
0.0
 10
32.2916788872
 20
-44.10046842
 30
0.0
 10
32.2895457377
 20
-42.9025912942
 30
0.0
 10
32.2866506206
 20
-41.6036294313
 30
0.0
 10
32.2834640789
 20
-40.1982237262
 30
0.0
 10
32.2805056796
 20
-38.6806426538
 30
0.0
 10
32.278164609
 20
-37.0440092778
 30
0.0
 10
32.2764306519
 20
-35.2794924171
 30
0.0
 10
32.2753270908
 20
-33.3774259436
 30
0.0
 10
32.2747654076
 20
-31.3274427938
 30
0.0
 10
32.2747725336
 20
-29.1175649269
 30
0.0
 10
32.275135508
 20
-27.5898084479
 30
0.0
 10
32.275380952
 20
-26.7969587211
 30
0.0
 11
32.4050512292
 21
-55.0998369551
 31
0.0
 11
32.3905071018
 21
-54.8364147447
 31
0.0
 11
32.377980979
 21
-54.5683892384
 31
0.0
 11
32.3674593189
 21
-54.2922047684
 31
0.0
 11
32.3584005257
 21
-54.0037101585
 31
0.0
 11
32.3499906489
 21
-53.698858162
 31
0.0
 11
32.3417648585
 21
-53.375512124
 31
0.0
 11
32.3338459951
 21
-53.0291670999
 31
0.0
 11
32.3263266788
 21
-52.653131549
 31
0.0
 11
32.3194031906
 21
-52.2417279199
 31
0.0
 11
32.3133193975
 21
-51.7925451405
 31
0.0
 11
32.3082153299
 21
-51.3036464453
 31
0.0
 11
32.3039400607
 21
-50.7686477559
 31
0.0
 11
32.2999401062
 21
-50.1787402367
 31
0.0
 11
32.2958340141
 21
-49.5286777248
 31
0.0
 11
32.2922725156
 21
-48.8125403289
 31
0.0
 11
32.29023478
 21
-48.0277648005
 31
0.0
 11
32.2899621578
 21
-47.1736294179
 31
0.0
 11
32.2908356025
 21
-46.2445339577
 31
0.0
 11
32.2917032621
 21
-45.232802737
 31
0.0
 11
32.2914147168
 21
-44.1322441367
 31
0.0
 11
32.2895202061
 21
-42.9363608281
 31
0.0
 11
32.2867218291
 21
-41.6391709455
 31
0.0
 11
32.283619819
 21
-40.2353566876
 31
0.0
 11
32.2807088144
 21
-38.7201421626
 31
0.0
 11
32.278342627
 21
-37.0864271589
 31
0.0
 11
32.2765894987
 21
-35.3254571332
 31
0.0
 11
32.2754488979
 21
-33.4265921063
 31
0.0
 11
32.2748708969
 21
-31.3802281968
 31
0.0
 11
32.2748551977
 21
-29.1755079574
 31
0.0
 11
32.275380952
 21
-26.7969587211
 31
0.0
  0
SPLINE
  5
47A
100
AcDbEntity
  8
RACCORDO
100
AcDbSpline
 62
253
  6
CONTINUOUS
 70
0
 71
3
 72
9
 73
5
 74
3
 42
0.0000001
 43
0.0000001
 44
0.0000000001
 12
0.1132326198
 22
0.0628787823
 32
0.0
 13
-0.0020947317
 23
0.1342422412
 33
0.0
 40
0.0
 40
0.0
 40
0.0
 40
0.0
 40
0.7501397271
 40
1.0
 40
1.0
 40
1.0
 40
1.0
 10
-12.0952691379
 20
-14.0252545212
 30
0.0
 10
-12.066955709
 20
-14.009531897
 30
0.0
 10
-12.0268661567
 20
-13.9808944638
 30
0.0
 10
-12.0199321238
 20
-13.936449057
 30
0.0
 10
-12.0201065872
 20
-13.925268456
 30
0.0
 11
-12.0952691379
 21
-14.0252545212
 31
0.0
 11
-12.0254671068
 21
-13.9576724457
 31
0.0
 11
-12.0201065872
 21
-13.925268456
 31
0.0
  0
SPLINE
  5
47B
100
AcDbEntity
  8
RACCORDO
100
AcDbSpline
 62
7
  6
CONTINUOUS
 70
0
 71
3
 72
9
 73
5
 74
3
 42
0.0000001
 43
0.0000001
 44
0.0000000001
 12
0.0796370452
 22
0.0442229495
 32
0.0
 13
-0.0079390647
 23
-0.0552323601
 33
0.0
 40
0.0
 40
0.0
 40
0.0
 40
0.0
 40
0.9890318952
 40
1.0
 40
1.0
 40
1.0
 40
1.0
 10
-12.1057894326
 20
-13.2556933051
 30
0.0
 10
-12.0795349067
 20
-13.2411140026
 30
0.0
 10
-12.0200543015
 20
-13.2050934185
 30
0.0
 10
-12.0220485607
 20
-13.2229410032
 30
0.0
 10
-12.0220775862
 20
-13.2231429347
 30
0.0
 11
-12.1057894326
 21
-13.2556933051
 31
0.0
 11
-12.0220122096
 21
-13.2225559752
 31
0.0
 11
-12.0220775862
 21
-13.2231429347
 31
0.0
  0
SPLINE
  5
47C
100
AcDbEntity
  8
RACCORDO
100
AcDbSpline
 62
253
  6
CONTINUOUS
 70
0
 71
3
 72
9
 73
5
 74
3
 42
0.0000001
 43
0.0000001
 44
0.0000000001
 12
0.1132326198
 22
0.0628787823
 32
0.0
 13
-0.0020947317
 23
0.1342422412
 33
0.0
 40
0.0
 40
0.0
 40
0.0
 40
0.0
 40
0.7501397271
 40
1.0
 40
1.0
 40
1.0
 40
1.0
 10
19.7245360155
 20
-29.9351570979
 30
0.0
 10
19.7528494443
 20
-29.9194344737
 30
0.0
 10
19.7929389967
 20
-29.8907970405
 30
0.0
 10
19.7998730296
 20
-29.8463516337
 30
0.0
 10
19.7996985662
 20
-29.8351710327
 30
0.0
 11
19.7245360155
 21
-29.9351570979
 31
0.0
 11
19.7943380466
 21
-29.8675750224
 31
0.0
 11
19.7996985662
 21
-29.8351710327
 31
0.0
  0
SPLINE
  5
47D
100
AcDbEntity
  8
RACCORDO
100
AcDbSpline
 62
7
  6
CONTINUOUS
 70
0
 71
3
 72
9
 73
5
 74
3
 42
0.0000001
 43
0.0000001
 44
0.0000000001
 12
0.0796370452
 22
0.0442229495
 32
0.0
 13
-0.0079390647
 23
-0.0552323601
 33
0.0
 40
0.0
 40
0.0
 40
0.0
 40
0.0
 40
0.9890318952
 40
1.0
 40
1.0
 40
1.0
 40
1.0
 10
19.7140157208
 20
-29.1655958818
 30
0.0
 10
19.7402702467
 20
-29.1510165793
 30
0.0
 10
19.7997508519
 20
-29.1149959952
 30
0.0
 10
19.7977565927
 20
-29.1328435799
 30
0.0
 10
19.7977275672
 20
-29.1330455114
 30
0.0
 11
19.7140157208
 21
-29.1655958818
 31
0.0
 11
19.7977929438
 21
-29.1324585519
 31
0.0
 11
19.7977275672
 21
-29.1330455114
 31
0.0
  0
SPLINE
  5
47E
100
AcDbEntity
  8
RACCORDO
100
AcDbSpline
 62
253
  6
CONTINUOUS
 70
0
 71
3
 72
11
 73
7
 74
5
 42
0.0000001
 43
0.0000001
 44
0.0000000001
 12
-5.5310153587
 22
3.4430131609
 32
0.0
 13
-3.9580581133
 23
5.1749634304
 33
0.0
 40
0.0
 40
0.0
 40
0.0
 40
0.0
 40
0.1871146254
 40
0.5655656901
 40
0.9021647657
 40
1.0
 40
1.0
 40
1.0
 40
1.0
 10
-29.8570445083
 20
1.8466981365
 30
0.0
 10
-30.2020224639
 20
2.0614441757
 30
0.0
 10
-31.229200559
 20
2.7355738035
 30
0.0
 10
-32.7794418403
 20
3.9415158379
 30
0.0
 10
-34.0247434019
 20
5.202005838
 30
0.0
 10
-34.6165160859
 20
5.9372345217
 30
0.0
 10
-34.7455952669
 20
6.1059991083
 30
0.0
 11
-29.8570445083
 21
1.8466981365
 31
0.0
 11
-30.8756392983
 21
2.5164708699
 31
0.0
 11
-32.814021425
 21
4.0403079075
 31
0.0
 11
-34.3462391733
 21
5.6092084114
 31
0.0
 11
-34.7455952669
 21
6.1059991083
 31
0.0
  0
SPLINE
  5
47F
100
AcDbEntity
  8
RACCORDO
100
AcDbSpline
 62
253
  6
CONTINUOUS
 70
0
 71
3
 72
31
 73
27
 74
25
 42
0.0000001
 43
0.0000001
 44
0.0000000001
 12
-16.9450072756
 22
8.4725135597
 32
0.0
 13
-16.9576382094
 23
8.4472045049
 33
0.0
 40
0.0
 40
0.0
 40
0.0
 40
0.0
 40
0.1125622706
 40
0.2115415756
 40
0.2995830661
 40
0.3781992509
 40
0.4481808649
 40
0.5102229409
 40
0.5652530124
 40
0.614307874
 40
0.6583350435
 40
0.6980547812
 40
0.7341548803
 40
0.7672164483
 40
0.7974042559
 40
0.8248199422
 40
0.8497847815
 40
0.8726858108
 40
0.8936537004
 40
0.9125380802
 40
0.9294374827
 40
0.9448563039
 40
0.9593731445
 40
0.9732983474
 40
0.9867900191
 40
1.0
 40
1.0
 40
1.0
 40
1.0
 10
-16.1877662577
 20
47.327125199
 30
0.0
 10
-16.8235557559
 20
47.6450203203
 30
0.0
 10
-18.018861428
 20
48.2415539307
 30
0.0
 10
-19.7117681502
 20
49.0861039461
 30
0.0
 10
-21.2126185399
 20
49.8354207551
 30
0.0
 10
-22.549241939
 20
50.5037201767
 30
0.0
 10
-23.7390817312
 20
51.098453182
 30
0.0
 10
-24.7959590853
 20
51.6260547292
 30
0.0
 10
-25.7345335541
 20
52.0947588916
 30
0.0
 10
-26.5711378549
 20
52.5130180888
 30
0.0
 10
-27.3210965739
 20
52.8883733976
 30
0.0
 10
-27.9980146588
 20
53.2268780132
 30
0.0
 10
-28.6131748856
 20
53.5340546462
 30
0.0
 10
-29.1746779248
 20
53.8139459492
 30
0.0
 10
-29.687357887
 20
54.0688502766
 30
0.0
 10
-30.1545845332
 20
54.3003238147
 30
0.0
 10
-30.5806871688
 20
54.5111481447
 30
0.0
 10
-30.970197947
 20
54.7041108472
 30
0.0
 10
-31.3251031245
 20
54.8804270187
 30
0.0
 10
-31.6462731473
 20
55.0394630909
 30
0.0
 10
-31.936340118
 20
55.1823399959
 30
0.0
 10
-32.202081701
 20
55.3121844847
 30
0.0
 10
-32.4518733981
 20
55.4318684498
 30
0.0
 10
-32.6906809119
 20
55.5463092383
 30
0.0
 10
-32.9216206676
 20
55.6580697493
 30
0.0
 10
-33.0728948076
 20
55.7325693685
 30
0.0
 10
-33.1475648331
 20
55.7697651718
 30
0.0
 11
-16.1877662577
 21
47.327125199
 31
0.0
 11
-18.0956366778
 21
48.279806052
 31
0.0
 11
-19.7735307864
 21
49.1170300097
 31
0.0
 11
-21.2657949403
 21
49.8621612816
 31
0.0
 11
-22.5980269839
 21
50.5280775064
 31
0.0
 11
-23.7839829348
 21
51.120763639
 31
0.0
 11
-24.8355651098
 21
51.6458581066
 31
0.0
 11
-25.768254494
 21
52.1116920683
 31
0.0
 11
-26.5995042477
 21
52.5272805096
 31
0.0
 11
-27.3454442254
 21
52.900502695
 31
0.0
 11
-28.0184930431
 21
53.2370335615
 31
0.0
 11
-28.6303793041
 21
53.5425522697
 31
0.0
 11
-29.1909692907
 21
53.8219427315
 31
0.0
 11
-29.7030966915
 21
54.0765163048
 31
0.0
 11
-30.1684739174
 21
54.3071523766
 31
0.0
 11
-30.5923503168
 21
54.5169647391
 31
0.0
 11
-30.9810993173
 21
54.7096060431
 31
0.0
 11
-31.3369268643
 21
54.8861998394
 31
0.0
 11
-31.6575650195
 21
55.0449071022
 31
0.0
 11
-31.9448064278
 21
55.1863119839
 31
0.0
 11
-32.2073671385
 21
55.3143383897
 31
0.0
 11
-32.4552412588
 21
55.4334855963
 31
0.0
 11
-32.6930757723
 21
55.547646671
 31
0.0
 11
-32.9230919559
 21
55.6591116949
 31
0.0
 11
-33.1475648331
 21
55.7697651718
 31
0.0
  0
SPLINE
  5
480
100
AcDbEntity
  8
RACCORDO
100
AcDbSpline
 62
253
  6
CONTINUOUS
 70
0
 71
3
 72
16
 73
12
 74
10
 42
0.0000001
 43
0.0000001
 44
0.0000000001
 12
-5.9137596171
 22
2.9568894521
 32
0.0
 13
-5.9132122738
 23
2.9579840179
 33
0.0
 40
0.0
 40
0.0
 40
0.0
 40
0.0
 40
0.1708583238
 40
0.3231549078
 40
0.4600092247
 40
0.5834878485
 40
0.6952987468
 40
0.7967669151
 40
0.8890609491
 40
0.9734303059
 40
1.0
 40
1.0
 40
1.0
 40
1.0
 10
-18.1508281212
 20
28.5304925553
 30
0.0
 10
-18.4876331396
 20
28.6988956137
 30
0.0
 10
-19.1244726337
 20
29.0177681904
 30
0.0
 10
-20.0305843335
 20
29.4725303893
 30
0.0
 10
-20.843426533
 20
29.8803386406
 30
0.0
 10
-21.5767533985
 20
30.2476601864
 30
0.0
 10
-22.2406190824
 20
30.5795166753
 30
0.0
 10
-22.8430782011
 20
30.880504214
 30
0.0
 10
-23.3913912979
 20
31.154548229
 30
0.0
 10
-23.7920089163
 20
31.3548733184
 30
0.0
 10
-24.0106837671
 20
31.4642463757
 30
0.0
 10
-24.0630545143
 20
31.4904439525
 30
0.0
 11
-18.1508281212
 21
28.5304925553
 31
0.0
 11
-19.1609685281
 21
29.0362506528
 31
0.0
 11
-20.0610132116
 21
29.4877742234
 31
0.0
 11
-20.8698213779
 21
29.8934664021
 31
0.0
 11
-21.599796938
 21
30.2590733012
 31
0.0
 11
-22.2610214158
 21
30.5896823615
 31
0.0
 11
-22.8611574316
 21
30.889557149
 31
0.0
 11
-23.4070047876
 21
31.1623751388
 31
0.0
 11
-23.9059387222
 21
31.4118583198
 31
0.0
 11
-24.0630545143
 21
31.4904439525
 31
0.0
  0
SPLINE
  5
481
100
AcDbEntity
  8
RACCORDO
100
AcDbSpline
 62
253
  6
CONTINUOUS
 70
0
 71
3
 72
17
 73
13
 74
11
 42
0.0000001
 43
0.0000001
 44
0.0000000001
 12
-3.285288635
 22
1.6434098467
 32
0.0
 13
-3.245735051
 23
1.7202096006
 33
0.0
 40
0.0
 40
0.0
 40
0.0
 40
0.0
 40
0.0915370321
 40
0.2184341211
 40
0.3323926994
 40
0.4352013937
 40
0.5311182145
 40
0.624342119
 40
0.7181932394
 40
0.8129094303
 40
0.9071115989
 40
1.0
 40
1.0
 40
1.0
 40
1.0
 10
-24.0630545143
 20
31.4904439525
 30
0.0
 10
-24.1632963714
 20
31.5405882392
 30
0.0
 10
-24.4024899109
 20
31.6602728297
 30
0.0
 10
-24.7663737813
 20
31.8425946612
 30
0.0
 10
-25.1424324415
 20
32.0314276516
 30
0.0
 10
-25.4844333786
 20
32.2035506631
 30
0.0
 10
-25.803575997
 20
32.3646163746
 30
0.0
 10
-26.1126210798
 20
32.5213448542
 30
0.0
 10
-26.4199152168
 20
32.6782730405
 30
0.0
 10
-26.7278078204
 20
32.8366593403
 30
0.0
 10
-27.034097094
 20
32.9955836231
 30
0.0
 10
-27.2367409388
 20
33.1024333596
 30
0.0
 10
-27.3372379853
 20
33.155695866
 30
0.0
 11
-24.0630545143
 21
31.4904439525
 31
0.0
 11
-24.3637579486
 21
31.6409210514
 31
0.0
 11
-24.7805060453
 21
31.8497555142
 31
0.0
 11
-25.1546032082
 21
32.0376140877
 31
0.0
 11
-25.4919387076
 21
32.2074093755
 31
0.0
 11
-25.8064672102
 21
32.3662059467
 31
0.0
 11
-26.1118636184
 21
32.5211400297
 31
0.0
 11
-26.4188944918
 21
32.6779421574
 31
0.0
 11
-26.7282739764
 21
32.8371287793
 31
0.0
 11
-27.0353473833
 21
32.9966643508
 31
0.0
 11
-27.3372379853
 21
33.155695866
 31
0.0
  0
SPLINE
  5
482
100
AcDbEntity
  8
RACCORDO
100
AcDbSpline
 62
253
  6
CONTINUOUS
 70
0
 71
3
 72
22
 73
18
 74
16
 42
0.0000001
 43
0.0000001
 44
0.0000000001
 12
-3.5013110824
 22
1.6949786273
 32
0.0
 13
-0.0056148021
 23
-3.8880980889
 33
0.0
 40
0.0
 40
0.0
 40
0.0
 40
0.0
 40
0.051603647
 40
0.1263440791
 40
0.1964789265
 40
0.2582632413
 40
0.3193891265
 40
0.3777858743
 40
0.4345647409
 40
0.493243323
 40
0.5538805836
 40
0.6170648358
 40
0.6843823207
 40
0.7567788287
 40
0.8343825782
 40
0.9159740713
 40
1.0
 40
1.0
 40
1.0
 40
1.0
 10
-27.4282006873
 20
33.2018141513
 30
0.0
 10
-27.4884274943
 20
33.2309698442
 30
0.0
 10
-27.6385393774
 20
33.2969857194
 30
0.0
 10
-27.8808718399
 20
33.3770636882
 30
0.0
 10
-28.1446091981
 20
33.4284572524
 30
0.0
 10
-28.3954147163
 20
33.4405548051
 30
0.0
 10
-28.6300702946
 20
33.4142952487
 30
0.0
 10
-28.8504542713
 20
33.3496958251
 30
0.0
 10
-29.0535827523
 20
33.249849514
 30
0.0
 10
-29.239640107
 20
33.1155821821
 30
0.0
 10
-29.4035639365
 20
32.9433037752
 30
0.0
 10
-29.5428486186
 20
32.7372631433
 30
0.0
 10
-29.6572398548
 20
32.4995820151
 30
0.0
 10
-29.7465676811
 20
32.2317927274
 30
0.0
 10
-29.8101498038
 20
31.9379310448
 30
0.0
 10
-29.8479258177
 20
31.6245979299
 30
0.0
 10
-29.8561883954
 20
31.4098581225
 30
0.0
 10
-29.8563456584
 20
31.3009577716
 30
0.0
 11
-27.4282006873
 21
33.2018141513
 31
0.0
 11
-27.6120039775
 21
33.2824739013
 31
0.0
 11
-27.888203161
 21
33.3728147069
 31
0.0
 11
-28.1561242489
 21
33.4235977539
 31
0.0
 11
-28.3961160325
 21
33.4341515494
 31
0.0
 11
-28.6322205971
 21
33.4069732151
 31
0.0
 11
-28.850058969
 21
33.3429475121
 31
0.0
 11
-29.048241199
 21
33.2456866313
 31
0.0
 11
-29.2330006241
 21
33.1118374205
 31
0.0
 11
-29.3962427962
 21
32.9417298305
 31
0.0
 11
-29.5347914571
 21
32.738859285
 31
0.0
 11
-29.6494222553
 21
32.5035591111
 31
0.0
 11
-29.7396576178
 21
32.2369294152
 31
0.0
 11
-29.804544589
 21
31.9422576296
 31
0.0
 11
-29.8433100023
 21
31.6273989946
 31
0.0
 11
-29.8563456584
 21
31.3009577716
 31
0.0
  0
SPLINE
  5
483
100
AcDbEntity
  8
RACCORDO
100
AcDbSpline
 62
253
  6
CONTINUOUS
 70
0
 71
3
 72
9
 73
5
 74
3
 42
0.0000001
 43
0.0000001
 44
0.0000000001
 12
0.1592000013
 22
0.0945360817
 32
0.0
 13
-0.0024474272
 23
0.1803613097
 33
0.0
 40
0.0
 40
0.0
 40
0.0
 40
0.0
 40
0.3354078055
 40
1.0
 40
1.0
 40
1.0
 40
1.0
 10
-12.1688300721
 20
-14.1838704155
 30
0.0
 10
-12.1510310977
 20
-14.1733010356
 30
0.0
 10
-12.1045454164
 20
-14.1295706353
 30
0.0
 10
-12.0947269576
 20
-14.0652100941
 30
0.0
 10
-12.0952691379
 20
-14.0252545212
 30
0.0
 11
-12.1688300721
 21
-14.1838704155
 31
0.0
 11
-12.1239727807
 21
-14.1416451427
 31
0.0
 11
-12.0952691379
 21
-14.0252545212
 31
0.0
  0
SPLINE
  5
484
100
AcDbEntity
  8
RACCORDO
100
AcDbSpline
 62
253
  6
CONTINUOUS
 70
0
 71
3
 72
13
 73
9
 74
7
 42
0.0000001
 43
0.0000001
 44
0.0000000001
 12
-0.0127342855
 22
-9.1026620478
 32
0.0
 13
0.0000658086
 23
-9.1026709549
 33
0.0
 40
0.0
 40
0.0
 40
0.0
 40
0.0
 40
0.2081939621
 40
0.3976205682
 40
0.5695216629
 40
0.7260039087
 40
0.8689252506
 40
1.0
 40
1.0
 40
1.0
 40
1.0
 10
-29.8563456584
 20
31.3009577716
 30
0.0
 10
-29.8572293922
 20
30.6692513457
 30
0.0
 10
-29.8622765729
 20
29.4627879377
 30
0.0
 10
-29.8598505011
 20
27.7347288024
 30
0.0
 10
-29.856161661
 20
26.1635827447
 30
0.0
 10
-29.8553229861
 20
24.7335380194
 30
0.0
 10
-29.856612696
 20
23.4273710785
 30
0.0
 10
-29.857048107
 20
22.5960056806
 30
0.0
 10
-29.8570452317
 20
22.1982955758
 30
0.0
 11
-29.8563456584
 21
31.3009577716
 31
0.0
 11
-29.8606667116
 21
29.4058415658
 31
0.0
 11
-29.8594914209
 21
27.6815539008
 31
0.0
 11
-29.8565327454
 21
26.116797596
 31
0.0
 11
-29.855689416
 21
24.692391452
 31
0.0
 11
-29.856543305
 21
23.3914257846
 31
0.0
 11
-29.8570452317
 21
22.1982955758
 31
0.0
  0
SPLINE
  5
485
100
AcDbEntity
  8
RACCORDO
100
AcDbSpline
 62
253
  6
CONTINUOUS
 70
0
 71
3
 72
11
 73
7
 74
5
 42
0.0000001
 43
0.0000001
 44
0.0000000001
 12
-5.5310153587
 22
3.4430131609
 32
0.0
 13
-3.9580581133
 23
5.1749634304
 33
0.0
 40
0.0
 40
0.0
 40
0.0
 40
0.0
 40
0.1871146254
 40
0.5655656901
 40
0.9021647657
 40
1.0
 40
1.0
 40
1.0
 40
1.0
 10
-29.8570445083
 20
22.1982951254
 30
0.0
 10
-30.2020224639
 20
22.4130411647
 30
0.0
 10
-31.229200559
 20
23.0871707924
 30
0.0
 10
-32.7794418403
 20
24.2931128269
 30
0.0
 10
-34.0247434019
 20
25.553602827
 30
0.0
 10
-34.6165160859
 20
26.2888315107
 30
0.0
 10
-34.7455952669
 20
26.4575960973
 30
0.0
 11
-29.8570445083
 21
22.1982951254
 31
0.0
 11
-30.8756392983
 21
22.8680678588
 31
0.0
 11
-32.814021425
 21
24.3919048965
 31
0.0
 11
-34.3462391733
 21
25.9608054003
 31
0.0
 11
-34.7455952669
 21
26.4575960973
 31
0.0
  0
LINE
  5
486
100
AcDbEntity
  8
RACCORDO
100
AcDbLine
 62
253
  6
CONTINUOUS
 10
-34.5059505146
 20
54.8273921474
 11
-34.5229094316
 21
54.629067921
  0
SPLINE
  5
487
100
AcDbEntity
  8
RACCORDO
100
AcDbSpline
 62
253
  6
CONTINUOUS
 70
0
 71
3
 72
11
 73
7
 74
5
 42
0.0000001
 43
0.0000001
 44
0.0000000001
 12
-0.0680582547
 22
-0.7907470007
 32
0.0
 13
-0.0527581674
 23
-0.7919288934
 33
0.0
 40
0.0
 40
0.0
 40
0.0
 40
0.0
 40
0.1252717849
 40
0.5029805849
 40
0.876674184
 40
1.0
 40
1.0
 40
1.0
 40
1.0
 10
-34.5229094316
 20
54.629067921
 30
0.0
 10
-34.5257513579
 20
54.5960484916
 30
0.0
 10
-34.5372211959
 20
54.463476786
 30
0.0
 10
-34.5578632074
 20
54.2324658722
 30
0.0
 10
-34.5760739893
 20
54.0017628148
 30
0.0
 10
-34.5851590526
 20
53.8705841548
 30
0.0
 10
-34.5873278673
 20
53.8380290625
 30
0.0
 11
-34.5229094316
 21
54.629067921
 31
0.0
 11
-34.531487841
 21
54.530014163
 31
0.0
 11
-34.5574399849
 21
54.2313633542
 31
0.0
 11
-34.5805727678
 21
53.9356773257
 31
0.0
 11
-34.5873278673
 21
53.8380290625
 31
0.0
  0
SPLINE
  5
488
100
AcDbEntity
  8
RACCORDO
100
AcDbSpline
 62
253
  6
CONTINUOUS
 70
0
 71
3
 72
34
 73
30
 74
28
 42
0.0000001
 43
0.0000001
 44
0.0000000001
 12
-1.7670485012
 22
-26.5243626491
 32
0.0
 13
-0.0026994857
 23
-26.5826904805
 33
0.0
 40
0.0
 40
0.0
 40
0.0
 40
0.0
 40
0.0073652503
 40
0.0186458572
 40
0.0307528447
 40
0.0442599304
 40
0.059436668
 40
0.0760914654
 40
0.0941025091
 40
0.1136300348
 40
0.1348849443
 40
0.1579820188
 40
0.1829517835
 40
0.20991336
 40
0.2391792376
 40
0.270999729
 40
0.3055958657
 40
0.3433285489
 40
0.3845572596
 40
0.4294800752
 40
0.4781258011
 40
0.5305937752
 40
0.5870934187
 40
0.6479349323
 40
0.7135047477
 40
0.7841274949
 40
0.8601392293
 40
0.9419463803
 40
1.0
 40
1.0
 40
1.0
 40
1.0
 10
-34.5873278673
 20
53.8380290625
 30
0.0
 10
-34.5916661188
 20
53.7729095392
 30
0.0
 10
-34.6017830872
 20
53.6079960296
 30
0.0
 10
-34.6141984844
 20
53.3357748033
 30
0.0
 10
-34.6292258397
 20
53.0092022375
 30
0.0
 10
-34.6443278441
 20
52.6480728491
 30
0.0
 10
-34.6593804423
 20
52.2466126885
 30
0.0
 10
-34.6733537951
 20
51.8051808385
 30
0.0
 10
-34.685502936
 20
51.3251295974
 30
0.0
 10
-34.6954284042
 20
50.8042576597
 30
0.0
 10
-34.7027929205
 20
50.238273605
 30
0.0
 10
-34.7087992936
 20
49.6240498542
 30
0.0
 10
-34.7142722986
 20
48.9592529459
 30
0.0
 10
-34.7185442947
 20
48.2397847053
 30
0.0
 10
-34.721341974
 20
47.4596054392
 30
0.0
 10
-34.7228872123
 20
46.6117735316
 30
0.0
 10
-34.7227874465
 20
45.6889169189
 30
0.0
 10
-34.7221283396
 20
44.6826956665
 30
0.0
 10
-34.7219781636
 20
43.5849702384
 30
0.0
 10
-34.7234810272
 20
42.3905463327
 30
0.0
 10
-34.7261498585
 20
41.0965345426
 30
0.0
 10
-34.7296501902
 20
39.6999433339
 30
0.0
 10
-34.7335002556
 20
38.1952870705
 30
0.0
 10
-34.7371772337
 20
36.5745359431
 30
0.0
 10
-34.7402861061
 20
34.8286399949
 30
0.0
 10
-34.7425513031
 20
32.9483209041
 30
0.0
 10
-34.7442788148
 20
30.9241238725
 30
0.0
 10
-34.7452486965
 20
29.0113000791
 30
0.0
 10
-34.7455037791
 20
27.7720082304
 30
0.0
 10
-34.7455560174
 20
27.257601096
 30
0.0
 11
-34.5873278673
 21
53.8380290625
 31
0.0
 11
-34.5992546541
 21
53.6426039434
 31
0.0
 11
-34.6138843881
 21
53.3430921449
 31
0.0
 11
-34.6284434167
 21
53.0215853184
 31
0.0
 11
-34.64346655
 21
52.662845068
 31
0.0
 11
-34.6585159505
 21
52.2596873403
 31
0.0
 11
-34.6725241347
 21
51.8171796842
 31
0.0
 11
-34.6846845452
 21
51.3385521377
 31
0.0
 11
-34.6946362572
 21
50.8195533695
 31
0.0
 11
-34.7022887854
 21
50.2545925134
 31
0.0
 11
-34.7084849938
 21
49.6406413969
 31
0.0
 11
-34.7138828837
 21
48.9768998185
 31
0.0
 11
-34.7181536579
 21
48.2602013005
 31
0.0
 11
-34.7210417265
 21
47.4822408942
 31
0.0
 11
-34.7225815763
 21
46.6363680224
 31
0.0
 11
-34.7227102555
 21
45.7167096388
 31
0.0
 11
-34.7222314286
 21
44.7136735124
 31
0.0
 11
-34.7222265354
 21
43.6177034576
 31
0.0
 11
-34.7235932124
 21
42.4235349377
 31
0.0
 11
-34.7261720581
 21
41.1304032326
 31
0.0
 11
-34.7295723896
 21
39.7356674618
 31
0.0
 11
-34.7333318879
 21
38.2337596324
 31
0.0
 11
-34.7369555574
 21
36.6164325669
 31
0.0
 11
-34.7400452614
 21
34.8734131977
 31
0.0
 11
-34.7423879121
 21
32.9960720296
 31
0.0
 11
-34.7441226207
 21
30.9754763641
 31
0.0
 11
-34.7452277038
 21
28.8008224696
 31
0.0
 11
-34.7455560174
 21
27.257601096
 31
0.0
  0
LINE
  5
489
100
AcDbEntity
  8
RACCORDO
100
AcDbLine
 62
253
  6
CONTINUOUS
 10
-34.7455560174
 20
27.257601096
 11
-34.7455954986
 21
26.4575964001
  0
SPLINE
  5
48A
100
AcDbEntity
  8
RACCORDO
100
AcDbSpline
 62
253
  6
CONTINUOUS
 70
0
 71
3
 72
8
 73
4
 74
2
 42
0.0000001
 43
0.0000001
 44
0.0000000001
 12
-0.1986199154
 22
0.0990163592
 32
0.0
 13
-0.2143431027
 23
0.0608916392
 33
0.0
 40
0.0
 40
0.0
 40
0.0
 40
0.0
 40
1.0
 40
1.0
 40
1.0
 40
1.0
 10
-33.1475648331
 20
55.7697651718
 30
0.0
 10
-33.2137714716
 20
55.8027706249
 30
0.0
 10
-33.2831589117
 20
55.8302535998
 30
0.0
 10
-33.3546066126
 20
55.8505508129
 30
0.0
 11
-33.1475648331
 21
55.7697651718
 31
0.0
 11
-33.3546066126
 21
55.8505508129
 31
0.0
  0
SPLINE
  5
48B
100
AcDbEntity
  8
RACCORDO
100
AcDbSpline
 62
253
  6
CONTINUOUS
 70
0
 71
3
 72
16
 73
12
 74
10
 42
0.0000001
 43
0.0000001
 44
0.0000000001
 12
-1.6631385762
 22
0.4724725582
 32
0.0
 13
-0.2085781829
 23
-1.7102353536
 33
0.0
 40
0.0
 40
0.0
 40
0.0
 40
0.0
 40
0.0579482875
 40
0.211268492
 40
0.3431049611
 40
0.4623072645
 40
0.5742268229
 40
0.684048489
 40
0.7968817627
 40
0.9162394661
 40
1.0
 40
1.0
 40
1.0
 40
1.0
 10
-33.3546066126
 20
55.8505508129
 30
0.0
 10
-33.3867319567
 20
55.8596771381
 30
0.0
 10
-33.5053734551
 20
55.8876535293
 30
0.0
 10
-33.7048424977
 20
55.8984642912
 30
0.0
 10
-33.9330163562
 20
55.8387990081
 30
0.0
 10
-34.112478904
 20
55.7278042616
 30
0.0
 10
-34.249048624
 20
55.5853330299
 30
0.0
 10
-34.3518481869
 20
55.4218881037
 30
0.0
 10
-34.4279445693
 20
55.240114387
 30
0.0
 10
-34.4741563357
 20
55.0642398931
 30
0.0
 10
-34.4924982202
 20
54.9489275227
 30
0.0
 10
-34.4983217602
 20
54.9011774473
 30
0.0
 11
-33.3546066126
 21
55.8505508129
 31
0.0
 11
-33.45213036
 21
55.8734203309
 31
0.0
 11
-33.71592445
 21
55.8843799634
 31
0.0
 11
-33.9353101078
 21
55.8259781792
 31
0.0
 11
-34.1103081516
 21
55.7186873261
 31
0.0
 11
-34.2446179883
 21
55.5804658434
 31
0.0
 11
-34.3463316315
 21
55.4210318989
 31
0.0
 11
-34.4223129185
 21
55.2422020209
 31
0.0
 11
-34.4754378977
 21
55.0436489742
 31
0.0
 11
-34.4983217602
 21
54.9011774473
 31
0.0
  0
SPLINE
  5
48C
100
AcDbEntity
  8
RACCORDO
100
AcDbSpline
 62
253
  6
CONTINUOUS
 70
0
 71
3
 72
12
 73
8
 74
6
 42
0.0000001
 43
0.0000001
 44
0.0000000001
 12
1.6486756862
 22
0.7063507459
 32
0.0
 13
-0.0664422865
 23
1.7795240411
 33
0.0
 40
0.0
 40
0.0
 40
0.0
 40
0.0
 40
0.1435087447
 40
0.3590242444
 40
0.5723224631
 40
0.7865636777
 40
1.0
 40
1.0
 40
1.0
 40
1.0
 10
31.6643206164
 20
-56.6067863393
 30
0.0
 10
31.7431870758
 20
-56.5729971697
 30
0.0
 10
31.9303673587
 20
-56.4645933508
 30
0.0
 10
32.1617749699
 20
-56.2066818161
 30
0.0
 10
32.3229501902
 20
-55.8560361898
 30
0.0
 10
32.4013635491
 20
-55.481328833
 30
0.0
 10
32.4097782949
 20
-55.2264419773
 30
0.0
 10
32.4050512292
 20
-55.0998369551
 30
0.0
 11
31.6643206164
 21
-56.6067863393
 31
0.0
 11
31.8861129703
 21
-56.4778051706
 31
0.0
 11
32.146024462
 21
-56.1954316145
 31
0.0
 11
32.309060348
 21
-55.8523674721
 31
0.0
 11
32.3904444335
 21
-55.4796358924
 31
0.0
 11
32.4050512292
 21
-55.0998369551
 31
0.0
  0
LINE
  5
48D
100
AcDbEntity
  8
0
100
AcDbLine
 62
7
  6
CONTINUOUS
 10
18.5741020119
 20
-37.2337513082
 11
18.5620162461
 21
-37.1383104205
  0
LINE
  5
48E
100
AcDbEntity
  8
0
100
AcDbLine
 62
7
  6
CONTINUOUS
 10
18.2787089923
 20
-34.6785417882
 11
17.8543717659
 21
-34.4672545557
  0
LINE
  5
48F
100
AcDbEntity
  8
RACCORDO
100
AcDbLine
 62
253
  6
CONTINUOUS
 10
-34.7455954986
 20
6.1059994112
 11
-34.7455527365
 21
5.2747026846
  0
SPLINE
  5
490
100
AcDbEntity
  8
RACCORDO
100
AcDbSpline
 62
253
  6
CONTINUOUS
 70
0
 71
3
 72
31
 73
27
 74
25
 42
0.0000001
 43
0.0000001
 44
0.0000000001
 12
0.0027625174
 22
-26.0998444504
 32
0.0
 13
1.1668554912
 23
-26.0739258127
 33
0.0
 40
0.0
 40
0.0
 40
0.0
 40
0.0
 40
0.0613625822
 40
0.1476357203
 40
0.2275311706
 40
0.3015407348
 40
0.3700934692
 40
0.4335719273
 40
0.4923605933
 40
0.5467602038
 40
0.596991489
 40
0.643134049
 40
0.6852973624
 40
0.7238317179
 40
0.7591792937
 40
0.7916341222
 40
0.8213707338
 40
0.8486836176
 40
0.8738160566
 40
0.8969097973
 40
0.9181450171
 40
0.9377013917
 40
0.9557680016
 40
0.9722651565
 40
0.9869530917
 40
1.0
 40
1.0
 40
1.0
 40
1.0
 10
-34.7455527365
 20
5.2747026846
 30
0.0
 10
-34.7454962315
 20
4.740851401
 30
0.0
 10
-34.7452207451
 20
3.4564283008
 30
0.0
 10
-34.7441734831
 20
1.4769191439
 30
0.0
 10
-34.7423287269
 20
-0.6126175491
 30
0.0
 10
-34.7398794156
 20
-2.5479869727
 30
0.0
 10
-34.7364943238
 20
-4.3405277784
 30
0.0
 10
-34.7326124418
 20
-6.0006461455
 30
0.0
 10
-34.7286155776
 20
-7.5376323858
 30
0.0
 10
-34.7252113337
 20
-8.9593700292
 30
0.0
 10
-34.7227383974
 20
-10.2710891055
 30
0.0
 10
-34.721886981
 20
-11.4763552607
 30
0.0
 10
-34.7223905841
 20
-12.5798586278
 30
0.0
 10
-34.7230255932
 20
-13.5894461003
 30
0.0
 10
-34.7222815158
 20
-14.5145705969
 30
0.0
 10
-34.7199324711
 20
-15.3631523297
 30
0.0
 10
-34.7160903525
 20
-16.141826518
 30
0.0
 10
-34.7108326652
 20
-16.8567864775
 30
0.0
 10
-34.7046635968
 20
-17.513943496
 30
0.0
 10
-34.6977740629
 20
-18.1182164717
 30
0.0
 10
-34.6882042654
 20
-18.673936919
 30
0.0
 10
-34.6762086051
 20
-19.1858629982
 30
0.0
 10
-34.6621940808
 20
-19.6565000918
 30
0.0
 10
-34.6468471982
 20
-20.0847141741
 30
0.0
 10
-34.6313058679
 20
-20.4692182564
 30
0.0
 10
-34.6204836713
 20
-20.7102663006
 30
0.0
 10
-34.6154090524
 20
-20.8236610065
 30
0.0
 11
-34.7455527365
 21
5.2747026846
 31
0.0
 11
-34.745197429
 21
3.6731488673
 31
0.0
 11
-34.7440062552
 21
1.4214336967
 31
0.0
 11
-34.7421454282
 21
-0.6638242965
 31
0.0
 11
-34.73961113
 21
-2.5954607475
 31
0.0
 11
-34.7362716457
 21
-4.3846733364
 31
0.0
 11
-34.7324418764
 21
-6.0414467939
 31
0.0
 11
-34.7285710113
 21
-7.5758169485
 31
0.0
 11
-34.7252497874
 21
-8.9956344362
 31
0.0
 11
-34.7229398473
 21
-10.3066611327
 31
0.0
 11
-34.7221064348
 21
-11.5109744815
 31
0.0
 11
-34.7224380746
 21
-12.6114303537
 31
0.0
 11
-34.7227924176
 21
-13.6171709767
 31
0.0
 11
-34.7219464207
 21
-14.5397368198
 31
0.0
 11
-34.7195478619
 21
-15.3867993974
 31
0.0
 11
-34.7156600421
 21
-16.1629105987
 31
0.0
 11
-34.7104415271
 21
-16.8757535169
 31
0.0
 11
-34.7042676634
 21
-17.5316772094
 31
0.0
 11
-34.6969808207
 21
-18.1343761998
 31
0.0
 11
-34.6873557258
 21
-18.6885285527
 31
0.0
 11
-34.6753444019
 21
-19.198805539
 31
0.0
 11
-34.6612904774
 21
-19.6701317656
 31
0.0
 11
-34.6459364672
 21
-20.1004310984
 31
0.0
 11
-34.6304271393
 21
-20.4834700638
 31
0.0
 11
-34.6154090524
 21
-20.8236610065
 31
0.0
  0
SPLINE
  5
491
100
AcDbEntity
  8
RACCORDO
100
AcDbSpline
 62
253
  6
CONTINUOUS
 70
0
 71
3
 72
12
 73
8
 74
6
 42
0.0000001
 43
0.0000001
 44
0.0000000001
 12
0.0648130376
 22
-1.4482773125
 32
0.0
 13
0.1247698505
 23
-1.4443369401
 33
0.0
 40
0.0
 40
0.0
 40
0.0
 40
0.0
 40
0.2167754375
 40
0.4297587389
 40
0.6452295339
 40
0.8612049123
 40
1.0
 40
1.0
 40
1.0
 40
1.0
 10
-34.6154090524
 20
-20.8236610065
 30
0.0
 10
-34.6107257609
 20
-20.9283113226
 30
0.0
 10
-34.6014686501
 20
-21.1357844751
 30
0.0
 10
-34.5824737252
 20
-21.4470206589
 30
0.0
 10
-34.5588995926
 20
-21.7575498394
 30
0.0
 10
-34.534912077
 20
-22.0320682958
 30
0.0
 10
-34.5201873607
 20
-22.202873601
 30
0.0
 10
-34.51441488
 20
-22.2696958917
 30
0.0
 11
-34.6154090524
 21
-20.8236610065
 31
0.0
 11
-34.6005232826
 21
-21.137571289
 31
0.0
 11
-34.5817907665
 21
-21.4457680281
 31
0.0
 11
-34.5583279043
 21
-21.7572572773
 31
0.0
 11
-34.5317391591
 21
-22.0692294454
 31
0.0
 11
-34.51441488
 21
-22.2696958917
 31
0.0
  0
LINE
  5
492
100
AcDbEntity
  8
RACCORDO
100
AcDbLine
 62
253
  6
CONTINUOUS
 10
-34.51441488
 20
-22.2696958917
 11
-34.5059505146
 21
-22.3675238751
  0
SPLINE
  5
493
100
AcDbEntity
  8
RACCORDO
100
AcDbSpline
 62
253
  6
CONTINUOUS
 70
0
 71
3
 72
18
 73
14
 74
12
 42
0.0000001
 43
0.0000001
 44
0.0000000001
 12
-0.000068595
 22
-9.0802341776
 32
0.0
 13
0.0133415533
 23
-9.0802243765
 33
0.0
 40
0.0
 40
0.0
 40
0.0
 40
0.0
 40
0.131589146
 40
0.2621143983
 40
0.3793267711
 40
0.4840932228
 40
0.5790983543
 40
0.6654457226
 40
0.7442950529
 40
0.8165432283
 40
0.8828546329
 40
0.943848144
 40
1.0
 40
1.0
 40
1.0
 40
1.0
 10
-29.8570451636
 20
1.8466985444
 30
0.0
 10
-29.8570481724
 20
1.4484117908
 30
0.0
 10
-29.8566222748
 20
0.6550584391
 30
0.0
 10
-29.8555524691
 20
-0.4930663455
 30
0.0
 10
-29.8556542301
 20
-1.5600066074
 30
0.0
 10
-29.8572488614
 20
-2.5194350103
 30
0.0
 10
-29.8590869139
 20
-3.3854420395
 30
0.0
 10
-29.860532881
 20
-4.1730053115
 30
0.0
 10
-29.8609860621
 20
-4.8916904305
 30
0.0
 10
-29.8605313164
 20
-5.5497316436
 30
0.0
 10
-29.8594827473
 20
-6.1537272809
 30
0.0
 10
-29.8575296687
 20
-6.7090007188
 30
0.0
 10
-29.8565954076
 20
-7.0635687791
 30
0.0
 10
-29.85634569
 20
-7.2335259297
 30
0.0
 11
-29.8570451636
 21
1.8466985444
 31
0.0
 11
-29.8565415747
 21
0.6518383896
 31
0.0
 11
-29.855728725
 21
-0.5333611883
 31
0.0
 11
-29.8559513128
 21
-1.5976769589
 31
0.0
 11
-29.857374527
 21
-2.5489798098
 31
0.0
 11
-29.8590993818
 21
-3.4116469277
 31
0.0
 11
-29.8604098785
 21
-4.1957001572
 31
0.0
 11
-29.860834063
 21
-4.9116704158
 31
0.0
 11
-29.8603997453
 21
-5.5677006234
 31
0.0
 11
-29.8592685812
 21
-6.169822643
 31
0.0
 11
-29.8575629403
 21
-6.7236553804
 31
0.0
 11
-29.85634569
 21
-7.2335259297
 31
0.0
  0
SPLINE
  5
494
100
AcDbEntity
  8
RACCORDO
100
AcDbSpline
 62
253
  6
CONTINUOUS
 70
0
 71
3
 72
12
 73
8
 74
6
 42
0.0000001
 43
0.0000001
 44
0.0000000001
 12
0.0031162198
 22
-1.8947303949
 32
0.0
 13
0.6349800787
 23
-1.7855020949
 33
0.0
 40
0.0
 40
0.0
 40
0.0
 40
0.0
 40
0.2420161998
 40
0.4699277059
 40
0.6790560406
 40
0.8718188421
 40
1.0
 40
1.0
 40
1.0
 40
1.0
 10
-29.85634569
 20
-7.2335259297
 30
0.0
 10
-29.8560942981
 20
-7.3863777463
 30
0.0
 10
-29.840526341
 20
-7.6832847087
 30
0.0
 10
-29.7825472347
 20
-8.1086095362
 30
0.0
 10
-29.7006821094
 20
-8.4981682929
 30
0.0
 10
-29.611423616
 20
-8.8210454951
 30
0.0
 10
-29.547360901
 20
-9.0134289722
 30
0.0
 10
-29.5202300737
 20
-9.0897182142
 30
0.0
 11
-29.85634569
 21
-7.2335259297
 31
0.0
 11
-29.833546192
 21
-7.6915148511
 31
0.0
 11
-29.7756422219
 21
-8.1194465333
 31
0.0
 11
-29.6943756323
 21
-8.5072657435
 31
0.0
 11
-29.5969344881
 21
-8.8592616558
 31
0.0
 11
-29.5202300737
 21
-9.0897182142
 31
0.0
  0
SPLINE
  5
495
100
AcDbEntity
  8
RACCORDO
100
AcDbSpline
 62
253
  6
CONTINUOUS
 70
0
 71
3
 72
10
 73
6
 74
4
 42
0.0000001
 43
0.0000001
 44
0.0000000001
 12
0.2921308518
 22
-0.8214434835
 32
0.0
 13
0.4135881166
 23
-0.7675379433
 33
0.0
 40
0.0
 40
0.0
 40
0.0
 40
0.0
 40
0.1404824966
 40
0.5699773036
 40
1.0
 40
1.0
 40
1.0
 40
1.0
 10
-29.5202300737
 20
-9.0897182142
 30
0.0
 10
-29.5065503166
 20
-9.128184358
 30
0.0
 10
-29.4494540614
 20
-9.2836887924
 30
0.0
 10
-29.3381344466
 20
-9.552315944
 30
0.0
 10
-29.2266020333
 20
-9.7759866581
 30
0.0
 10
-29.1673179409
 20
-9.8860062367
 30
0.0
 11
-29.5202300737
 21
-9.0897182142
 31
0.0
 11
-29.4780192965
 21
-9.2046934455
 31
0.0
 11
-29.3342352633
 21
-9.5503715985
 31
0.0
 11
-29.1673179409
 21
-9.8860062367
 31
0.0
  0
SPLINE
  5
496
100
AcDbEntity
  8
RACCORDO
100
AcDbSpline
 62
253
  6
CONTINUOUS
 70
0
 71
3
 72
10
 73
6
 74
4
 42
0.0000001
 43
0.0000001
 44
0.0000000001
 12
0.5220743562
 22
-0.8380355509
 32
0.0
 13
0.6780843783
 23
-0.717932493
 33
0.0
 40
0.0
 40
0.0
 40
0.0
 40
0.0
 40
0.3550763364
 40
0.7287964071
 40
1.0
 40
1.0
 40
1.0
 40
1.0
 10
-28.9863594506
 20
-10.1981547439
 30
0.0
 10
-28.9245673673
 20
-10.2973436083
 30
0.0
 10
-28.7913206134
 20
-10.4969480736
 30
0.0
 10
-28.5896390979
 20
-10.7573564397
 30
0.0
 10
-28.4484932829
 20
-10.9160532386
 30
0.0
 10
-28.387193643
 20
-10.9809551958
 30
0.0
 11
-28.9863594506
 21
-10.1981547439
 31
0.0
 11
-28.7914682402
 21
-10.4895109342
 31
0.0
 11
-28.5652439242
 21
-10.780947572
 31
0.0
 11
-28.387193643
 21
-10.9809551958
 31
0.0
  0
SPLINE
  5
497
100
AcDbEntity
  8
RACCORDO
100
AcDbSpline
 62
253
  6
CONTINUOUS
 70
0
 71
3
 72
11
 73
7
 74
5
 42
0.0000001
 43
0.0000001
 44
0.0000000001
 12
0.9104565903
 22
-0.9639602245
 32
0.0
 13
1.1869293654
 23
-0.5900329816
 33
0.0
 40
0.0
 40
0.0
 40
0.0
 40
0.0
 40
0.1040196266
 40
0.4236648931
 40
0.7291243065
 40
1.0
 40
1.0
 40
1.0
 40
1.0
 10
-28.387193643
 20
-10.9809551958
 30
0.0
 10
-28.3556251915
 20
-11.01437879
 30
0.0
 10
-28.2249481357
 20
-11.1485305306
 30
0.0
 10
-27.9853815813
 20
-11.3647513405
 30
0.0
 10
-27.6652941181
 20
-11.5988336455
 30
0.0
 10
-27.4444214209
 20
-11.7268414559
 30
0.0
 10
-27.337251316
 20
-11.7801166536
 30
0.0
 11
-28.387193643
 21
-10.9809551958
 31
0.0
 11
-28.2909427233
 21
-11.0797402926
 31
0.0
 11
-27.9760327075
 21
-11.3631899464
 31
0.0
 11
-27.6487317839
 21
-11.6015304814
 31
0.0
 11
-27.337251316
 21
-11.7801166536
 31
0.0
  0
ELLIPSE
  5
498
100
AcDbEntity
  8
RACCORDO
100
AcDbEllipse
 62
7
  6
CONTINUOUS
 10
35.3678315937
 20
-11.5889970996
 30
0.0
 11
0.2435324942
 21
0.4370186336
 31
0.0
 40
0.6437101552
 41
-2.2971554858
 42
-0.8572588529
  0
ELLIPSE
  5
499
100
AcDbEntity
  8
RACCORDO
100
AcDbEllipse
 62
7
  6
CONTINUOUS
 10
34.2364607438
 20
-18.3010310262
 30
0.0
 11
0.2435324942
 21
0.4370186336
 31
0.0
 40
0.6437101552
 41
0.030472449
 42
0.58263778
  0
ELLIPSE
  5
49A
100
AcDbEntity
  8
RACCORDO
100
AcDbEllipse
 62
7
  6
CONTINUOUS
 10
34.6236669164
 20
-12.9115342524
 30
0.0
 11
0.2435324942
 21
0.4370186336
 31
0.0
 40
0.6437101552
 41
0.8444371678
 42
2.2843338007
  0
ELLIPSE
  5
49B
100
AcDbEntity
  8
RACCORDO
100
AcDbEllipse
 62
7
  6
CONTINUOUS
 10
35.3678315937
 20
-18.8667164511
 30
0.0
 11
0.2435324942
 21
0.4370186336
 31
0.0
 40
0.6437101552
 41
5.4259264543
 42
6.8658230871
  0
ELLIPSE
  5
49C
100
AcDbEntity
  8
RACCORDO
100
AcDbEllipse
 62
7
  6
CONTINUOUS
 10
34.6236669164
 20
-18.2142281834
 30
0.0
 11
0.2435324942
 21
0.4370186336
 31
0.0
 40
0.6437101552
 41
2.2843338007
 42
3.7242304336
  0
ENDSEC
  0
SECTION
  2
OBJECTS
  0
DICTIONARY
  5
C
100
AcDbDictionary
280
0
281
1
  3
ACAD_GROUP
350
D
  3
ACAD_MLINESTYLE
350
17
  3
ACAD_LAYOUT
350
1A
  3
ACAD_PLOTSETTINGS
350
19
  3
ACAD_PLOTSTYLENAME
350
E
  0
DICTIONARY
  5
D
102
{ACAD_REACTORS
330
C
102
}
100
AcDbDictionary
280
0
281
1
  0
ACDBDICTIONARYWDFLT
  5
E
102
{ACAD_REACTORS
330
C
102
}
100
AcDbDictionary
281
1
  3
Normal
350
F
100
AcDbDictionaryWithDefault
340
F
  0
DICTIONARY
  5
17
102
{ACAD_REACTORS
330
C
102
}
100
AcDbDictionary
280
0
281
1
  3
Standard
350
18
  0
DICTIONARY
  5
19
102
{ACAD_REACTORS
330
C
102
}
100
AcDbDictionary
281
1
  0
DICTIONARY
  5
1A
102
{ACAD_REACTORS
330
C
102
}
100
AcDbDictionary
281
1
  3
Model
350
49D
  3
Layout1
350
49E
  0
ACDBPLACEHOLDER
  5
F
102
{ACAD_REACTORS
330
E
102
}
  0
MLINESTYLE
  5
18
102
{ACAD_REACTORS
330
17
102
}
100
AcDbMlineStyle
  2
STANDARD
 70
0
  3

 62
256
 51
90.0
 52
90.0
 71
2
 49
0.5
 62
256
  6
BYLAYER
 49
-0.5
 62
256
  6
BYLAYER
  0
LAYOUT
  5
49D
102
{ACAD_REACTORS
330
1A
102
}
100
AcDbPlotSettings
  1

  2
none_device
  4
ISO_A4_(297.00_x_210.00_MM)
  6

 40
0.0
 41
0.0
 42
0.0
 43
0.0
 44
297.0
 45
210.0
 46
0.0
 47
0.0
 48
0.0
 49
0.0
140
0.0
141
0.0
142
1.0
143
1.0
 70
1024
 72
1
 73
0
 74
0
  7

 75
0
147
1.0
148
0.0
149
0.0
100
AcDbLayout
  1
Model
 70
0
 71
0
 10
0.0
 20
0.0
 11
297.0
 21
210.0
 12
0.0
 22
0.0
 32
0.0
 14
0.0
 24
0.0
 34
0.0
 15
0.0
 25
0.0
 35
0.0
146
0.0
 13
0.0
 23
0.0
 33
0.0
 16
1.0
 26
0.0
 36
0.0
 17
0.0
 27
1.0
 37
0.0
 76
0
330
20D
345
0
346
0
  0
LAYOUT
  5
49E
102
{ACAD_REACTORS
330
1A
102
}
100
AcDbPlotSettings
  1

  2
none_device
  4
ISO_A4_(297.00_x_210.00_MM)
  6

 40
0.0
 41
0.0
 42
0.0
 43
0.0
 44
297.0
 45
210.0
 46
0.0
 47
0.0
 48
0.0
 49
0.0
140
0.0
141
0.0
142
1.0
143
1.0
 70
0
 72
1
 73
0
 74
0
  7

 75
0
147
1.0
148
0.0
149
0.0
100
AcDbLayout
  1
Layout1
 70
0
 71
1
 10
0.0
 20
0.0
 11
297.0
 21
210.0
 12
0.0
 22
0.0
 32
0.0
 14
0.0
 24
0.0
 34
0.0
 15
0.0
 25
0.0
 35
0.0
146
0.0
 13
0.0
 23
0.0
 33
0.0
 16
1.0
 26
0.0
 36
0.0
 17
0.0
 27
1.0
 37
0.0
 76
0
330
20E
345
0
346
0
  0
ENDSEC
  0
EOF
