  0
SECTION
  2
HEADER
  9
$ACADVER
  1
AC1015
  9
$DWGCODEPAGE
  3
ANSI_1252
  9
$EXTMAX
 10
297.0
 20
210.0
 30
0.0
  9
$EXTMIN
 10
0.0
 20
0.0
 30
0.0
  9
$LIMMIN
 10
0.0
 20
0.0
  9
$LIMMAX
 10
297.0
 20
210.0
  9
$VIEWCTR
 10
148.5
 20
105.0
  9
$VIEWSIZE
 40
210.0
  9
$CLAYER
  8
0
  9
$LTSCALE
 40
16.335
  9
$CELTYPE
  6
BYLAYER
  9
$DIMSCALE
 40
1.0
  9
$DIMASZ
 40
3.0
  9
$DIMEXO
 40
1.85625
  9
$DIMDLI
 40
11.286
  9
$DIMEXE
 40
5.346
  9
$DIMCEN
 40
2.673
  9
$DIMLFAC
 40
1.0
  9
$DIMBLK
  1
_FILLED
  9
$DIMTXT
 40
3.0
  9
$DIMTOL
 70
1
  9
$DIMLIM
 70
0
  9
$DIMTFAC
 40
1.0
  9
$DIMTP
 40
0.01
  9
$DIMTM
 40
0.01
  9
$PDMODE
 70
3
  9
$PDSIZE
 40
3.0
  9
$HANDSEED
  5
483
  9
$TILEMODE
 70
1
  9
$MEASUREMENT
 70
1
  9
$INSUNITS
 70
4
  0
ENDSEC
  0
SECTION
  2
CLASSES
  0
CLASS
  1
ACDBDICTIONARYWDFLT
  2
AcDbDictionaryWithDefault
  3
AutoCAD 2000
 90
0
280
0
281
0
  0
CLASS
  1
ACDBPLACEHOLDER
  2
AcDbPlaceHolder
  3
AutoCAD 2000
 90
0
280
0
281
0
  0
CLASS
  1
LAYOUT
  2
AcDbLayout
  3
AutoCAD 2000
 90
0
280
0
281
0
  0
ENDSEC
  0
SECTION
  2
TABLES
  0
TABLE
  2
VPORT
  5
8
100
AcDbSymbolTable
 70
2
  0
VPORT
  5
1F4
100
AcDbSymbolTableRecord
100
AcDbViewportTableRecord
  2
*ACTIVE
 70
0
 10
0.0
 20
0.0
 11
1.0
 21
1.0
 12
148.5
 22
105.0
 13
0.0
 23
0.0
 14
1.0
 24
1.0
 15
0.0
 25
0.0
 16
0.0
 26
0.0
 36
1.0
 17
0.0
 27
0.0
 37
0.0
 40
210.0
 41
1.4142857143
 42
50.0
 43
0.0
 44
0.0
 50
0.0
 51
0.0
 71
0
 72
100
 73
1
 74
1
 75
0
 76
0
 77
0
 78
0
  0
ENDTAB
  0
TABLE
  2
LTYPE
  5
5
100
AcDbSymbolTable
 70
6
  0
LTYPE
  5
14
100
AcDbSymbolTableRecord
100
AcDbLinetypeTableRecord
  2
BYBLOCK
 70
0
  3

 72
65
 73
0
 40
0.0
  0
LTYPE
  5
15
100
AcDbSymbolTableRecord
100
AcDbLinetypeTableRecord
  2
BYLAYER
 70
0
  3

 72
65
 73
0
 40
0.0
  0
LTYPE
  5
16
100
AcDbSymbolTableRecord
100
AcDbLinetypeTableRecord
  2
CONTINUOUS
 70
64
  3
Solid line
 72
65
 73
0
 40
0.0
  0
LTYPE
  5
1F5
100
AcDbSymbolTableRecord
100
AcDbLinetypeTableRecord
  2
CENTER
 70
64
  3
____ _ ____ _ ____ _ ____ _ ____ _ ____ _ ____
 72
65
 73
4
 40
0.6
 49
0.375
 74
0
 49
-0.075
 74
0
 49
0.075
 74
0
 49
-0.075
 74
0
  0
LTYPE
  5
1F6
100
AcDbSymbolTableRecord
100
AcDbLinetypeTableRecord
  2
HIDDEN
 70
64
  3
- - - - - - - - - - - - - - - - - - - -
 72
65
 73
2
 40
0.2
 49
0.1
 74
0
 49
-0.1
 74
0
  0
LTYPE
  5
1F7
100
AcDbSymbolTableRecord
100
AcDbLinetypeTableRecord
  2
PHANTOM
 70
64
  3
_____ _ _ _____ _ _ _____ _ _ _____
 72
65
 73
6
 40
0.8
 49
0.45
 74
0
 49
-0.05
 74
0
 49
0.1
 74
0
 49
-0.05
 74
0
 49
0.1
 74
0
 49
-0.05
 74
0
  0
LTYPE
  5
1F8
100
AcDbSymbolTableRecord
100
AcDbLinetypeTableRecord
  2
DOT
 70
64
  3
. . . . . . . . . . . . . . . . . . . .
 72
65
 73
2
 40
0.2
 49
0.1
 74
0
 49
-0.1
 74
0
  0
LTYPE
  5
1F9
100
AcDbSymbolTableRecord
100
AcDbLinetypeTableRecord
  2
DASHED
 70
64
  3
- - - - - - - - - - - - - - - - - - - -
 72
65
 73
2
 40
0.2
 49
0.1
 74
0
 49
-0.1
 74
0
  0
ENDTAB
  0
TABLE
  2
LAYER
  5
2
100
AcDbSymbolTable
 70
36
  0
LAYER
  5
10
100
AcDbSymbolTableRecord
100
AcDbLayerTableRecord
  2
0
 70
0
 62
7
  6
CONTINUOUS
370
-3
390
F
  0
LAYER
  5
1FA
100
AcDbSymbolTableRecord
100
AcDbLayerTableRecord
  2
DEFAULT_1
 70
0
 62
7
  6
CENTER
370
-3
390
F
  0
LAYER
  5
1FB
100
AcDbSymbolTableRecord
100
AcDbLayerTableRecord
  2
DEFAULT_2
 70
0
 62
7
  6
HIDDEN
370
-3
390
F
  0
LAYER
  5
1FC
100
AcDbSymbolTableRecord
100
AcDbLayerTableRecord
  2
DEFAULT_3
 70
0
 62
7
  6
PHANTOM
370
-3
390
F
  0
LAYER
  5
1FD
100
AcDbSymbolTableRecord
100
AcDbLayerTableRecord
  2
ASSI
 70
0
 62
7
  6
CONTINUOUS
370
-3
390
F
  0
LAYER
  5
1FE
100
AcDbSymbolTableRecord
100
AcDbLayerTableRecord
  2
COORDINATE
 70
0
 62
7
  6
CONTINUOUS
370
-3
390
F
  0
LAYER
  5
1FF
100
AcDbSymbolTableRecord
100
AcDbLayerTableRecord
  2
COPY_PUBLISH
 70
0
 62
7
  6
CONTINUOUS
370
-3
390
F
  0
LAYER
  5
200
100
AcDbSymbolTableRecord
100
AcDbLayerTableRecord
  2
COSMETIC
 70
0
 62
7
  6
CONTINUOUS
370
-3
390
F
  0
LAYER
  5
201
100
AcDbSymbolTableRecord
100
AcDbLayerTableRecord
  2
CURVE
 70
0
 62
7
  6
CONTINUOUS
370
-3
390
F
  0
LAYER
  5
202
100
AcDbSymbolTableRecord
100
AcDbLayerTableRecord
  2
DRAFT
 70
0
 62
7
  6
CONTINUOUS
370
-3
390
F
  0
LAYER
  5
203
100
AcDbSymbolTableRecord
100
AcDbLayerTableRecord
  2
IMPORT_IGES
 70
0
 62
7
  6
CONTINUOUS
370
-3
390
F
  0
LAYER
  5
204
100
AcDbSymbolTableRecord
100
AcDbLayerTableRecord
  2
INTFCLR_1
 70
0
 62
7
  6
CONTINUOUS
370
-3
390
F
  0
LAYER
  5
205
100
AcDbSymbolTableRecord
100
AcDbLayerTableRecord
  2
PIANI
 70
0
 62
7
  6
CONTINUOUS
370
-3
390
F
  0
LAYER
  5
206
100
AcDbSymbolTableRecord
100
AcDbLayerTableRecord
  2
PUNTI
 70
0
 62
7
  6
CONTINUOUS
370
-3
390
F
  0
LAYER
  5
207
100
AcDbSymbolTableRecord
100
AcDbLayerTableRecord
  2
RACCORDO
 70
0
 62
7
  6
CONTINUOUS
370
-3
390
F
  0
LAYER
  5
208
100
AcDbSymbolTableRecord
100
AcDbLayerTableRecord
  2
SNAPLINE
 70
0
 62
7
  6
CONTINUOUS
370
-3
390
F
  0
LAYER
  5
209
100
AcDbSymbolTableRecord
100
AcDbLayerTableRecord
  2
SUPERFICI
 70
0
 62
7
  6
CONTINUOUS
370
-3
390
F
  0
LAYER
  5
20A
100
AcDbSymbolTableRecord
100
AcDbLayerTableRecord
  2
TRASH
 70
0
 62
7
  6
CONTINUOUS
370
-3
390
F
  0
ENDTAB
  0
TABLE
  2
STYLE
  5
3
100
AcDbSymbolTable
 70
1
  0
STYLE
  5
11
100
AcDbSymbolTableRecord
100
AcDbTextStyleTableRecord
  2
STANDARD
 70
0
 40
0.0
 41
0.8
 50
0.0
 71
0
 42
0.2
  3
txt
  4

  0
STYLE
  5
20B
100
AcDbSymbolTableRecord
100
AcDbTextStyleTableRecord
  2
TEXTSTYLE_1
 70
0
 40
0.0
 41
0.8
 50
0.0
 71
0
 42
0.2
  3
gdt
  4

  0
ENDTAB
  0
TABLE
  2
VIEW
  5
6
100
AcDbSymbolTable
 70
0
  0
ENDTAB
  0
TABLE
  2
UCS
  5
7
100
AcDbSymbolTable
 70
0
  0
ENDTAB
  0
TABLE
  2
APPID
  5
9
100
AcDbSymbolTable
 70
1
  0
APPID
  5
20C
100
AcDbSymbolTableRecord
100
AcDbRegAppTableRecord
  2
ACAD
 70
0
  0
ENDTAB
  0
TABLE
  2
BLOCK_RECORD
  5
1
100
AcDbSymbolTable
 70
0
  0
BLOCK_RECORD
  5
20D
100
AcDbSymbolTableRecord
100
AcDbBlockTableRecord
  2
*Model_Space
  0
BLOCK_RECORD
  5
20E
100
AcDbSymbolTableRecord
100
AcDbBlockTableRecord
  2
*Paper_Space
  0
ENDTAB
  0
TABLE
  2
DIMSTYLE
  5
A
100
AcDbSymbolTable
 70
1
100
AcDbDimStyleTable
 71
0
  0
DIMSTYLE
105
20F
100
AcDbSymbolTableRecord
100
AcDbDimStyleTableRecord
  2
STANDARD
 70
0
  3

  4

 40
1.0
 41
3.0
 42
0.0625
 43
0.38
 44
0.18
 45
0.0
 46
0.0
 47
0.01
 48
0.01
140
3.0
141
0.09
142
0.0
143
25.4
144
1.0
145
0.0
146
1.0
147
0.09
 71
1.0
 72
0.0
 73
0
 74
0
 75
0
 76
0
 77
1
 78
8
170
0
171
2
172
0
173
0
174
0
175
0
176
0
177
0
178
0
270
2
271
2
272
2
273
2
274
2
275
0
280
0
281
0
282
0
283
1
284
8
285
0
286
0
287
3
288
0
340
11
  0
ENDTAB
  0
ENDSEC
  0
SECTION
  2
BLOCKS
  0
BLOCK
  5
20
100
AcDbEntity
  8
0
100
AcDbBlockBegin
  2
*Model_Space
 70
0
 10
0.0
 20
0.0
 30
0.0
  3
*Model_Space
  1

  0
ENDBLK
  5
21
100
AcDbEntity
  8
0
100
AcDbBlockEnd
  0
BLOCK
  5
1C
100
AcDbEntity
  8
0
100
AcDbBlockBegin
  2
*Paper_Space
 70
0
 10
0.0
 20
0.0
 30
0.0
  3
*Paper_Space
  1

  0
ENDBLK
  5
1D
100
AcDbEntity
  8
0
100
AcDbBlockEnd
  0
ENDSEC
  0
SECTION
  2
ENTITIES
  0
LWPOLYLINE
  5
210
100
AcDbEntity
  8
RACCORDO
100
AcDbPolyline
 62
7
  6
CONTINUOUS
 90
8
 70
0
 10
-55.0469712498
 20
67.2122538598
 10
-55.1056879909
 20
67.1760712087
 10
-55.3219725007
 20
67.0103594693
 10
-55.5132029975
 20
66.8080451335
 10
-55.6756869537
 20
66.5712826346
 10
-55.805237523
 20
66.3047198553
 10
-55.8994240006
 20
66.0134909362
 10
-55.9576813512
 20
65.700598264
  0
LINE
  5
211
100
AcDbEntity
  8
RACCORDO
100
AcDbLine
 62
7
  6
CONTINUOUS
 10
-55.046243854
 20
67.2126864813
 11
-55.0470028162
 21
67.2122395369
  0
LINE
  5
212
100
AcDbEntity
  8
SUPERFICI
100
AcDbLine
 62
7
  6
CONTINUOUS
 10
-55.0446338469
 20
67.2136317465
 11
-52.0475508335
 21
68.9692565593
  0
LINE
  5
213
100
AcDbEntity
  8
RACCORDO
100
AcDbLine
 62
253
  6
CONTINUOUS
 10
-50.6403117651
 20
68.9196151663
 11
-53.7605241167
 21
67.1592345447
  0
LINE
  5
214
100
AcDbEntity
  8
RACCORDO
100
AcDbLine
 62
7
  6
CONTINUOUS
 10
-55.9576813512
 20
65.700598264
 11
-55.9781902397
 21
65.4381836199
  0
LWPOLYLINE
  5
215
100
AcDbEntity
  8
RACCORDO
100
AcDbPolyline
 62
7
  6
CONTINUOUS
 90
3
 70
0
 10
-55.978136405
 20
-11.7062156602
 10
-55.9758230068
 20
-11.7597540524
 10
-55.9487089052
 20
-12.0408244991
  0
LINE
  5
216
100
AcDbEntity
  8
RACCORDO
100
AcDbLine
 62
7
  6
CONTINUOUS
 10
-55.9780368897
 20
-11.709005143
 11
-55.978136405
 21
-11.7062156602
  0
LWPOLYLINE
  5
217
100
AcDbEntity
  8
RACCORDO
100
AcDbPolyline
 62
7
  6
CONTINUOUS
 90
3
 70
0
 10
-56.05891701
 20
52.7861435983
 10
-56.0478760454
 20
47.769786419
 10
-56.0455958581
 20
45.1101138743
  0
LWPOLYLINE
  5
218
100
AcDbEntity
  8
RACCORDO
100
AcDbPolyline
 62
7
  6
CONTINUOUS
 90
3
 70
0
 10
-56.0513303692
 20
16.6495943806
 10
-56.0456776466
 20
9.0074812549
 10
-56.0480056119
 20
6.430522041
  0
LINE
  5
219
100
AcDbEntity
  8
RACCORDO
100
AcDbLine
 62
253
  6
CONTINUOUS
 10
-55.9290360363
 20
36.7615421592
 11
-55.9290360363
 21
16.4099451581
  0
LWPOLYLINE
  5
21A
100
AcDbEntity
  8
RACCORDO
100
AcDbPolyline
 62
7
  6
CONTINUOUS
 90
3
 70
0
 10
-56.0455958581
 20
45.1101138743
 10
-56.0499366165
 20
39.5365919787
 10
-56.0513323333
 20
16.6495468107
  0
LWPOLYLINE
  5
21B
100
AcDbEntity
  8
RACCORDO
100
AcDbPolyline
 62
7
  6
CONTINUOUS
 90
8
 70
0
 10
-56.0480056119
 20
6.430522041
 10
-56.0577551314
 20
1.4426532858
 10
-56.0602592661
 20
-0.9680816693
 10
-56.0564167653
 20
-3.3195889091
 10
-56.0471256963
 20
-5.6082257272
 10
-56.0309845565
 20
-7.8336106004
 10
-56.0081802963
 20
-9.9934138522
 10
-55.9781107046
 20
-11.7090077166
  0
LWPOLYLINE
  5
21C
100
AcDbEntity
  8
RACCORDO
100
AcDbPolyline
 62
7
  6
CONTINUOUS
 90
7
 70
0
 10
-55.9781283893
 20
65.4397577129
 10
-56.0076791063
 20
63.7115153237
 10
-56.0306122909
 20
61.5434169478
 10
-56.0466126272
 20
59.367434152
 10
-56.0555709798
 20
57.2203236636
 10
-56.0600813663
 20
55.0641628081
 10
-56.05891701
 20
52.7861435983
  0
LWPOLYLINE
  5
21D
100
AcDbEntity
  8
RACCORDO
100
AcDbPolyline
 62
7
  6
CONTINUOUS
 90
6
 70
0
 10
-55.8207883197
 20
-12.6084326967
 10
-55.7214731839
 20
-12.8905568495
 10
-55.6005596818
 20
-13.1657155352
 10
-55.4594368998
 20
-13.4313432029
 10
-55.2991921246
 20
-13.6847973707
 10
-55.1226338815
 20
-13.9216152649
  0
LWPOLYLINE
  5
21E
100
AcDbEntity
  8
RACCORDO
100
AcDbPolyline
 62
7
  6
CONTINUOUS
 90
3
 70
0
 10
-55.9487089052
 20
-12.0408244991
 10
-55.8967807481
 20
-12.3242396878
 10
-55.8207883197
 20
-12.6084326967
  0
LINE
  5
21F
100
AcDbEntity
  8
0
100
AcDbLine
 62
253
  6
CONTINUOUS
 10
-43.4368765568
 20
37.8813505255
 11
-43.5526401623
 21
37.8273748711
  0
LWPOLYLINE
  5
220
100
AcDbEntity
  8
RACCORDO
100
AcDbPolyline
 62
7
  6
CONTINUOUS
 90
5
 70
0
 10
-55.1226338815
 20
-13.9216152649
 10
-54.9312563112
 20
-14.1399166232
 10
-54.7262691853
 20
-14.3375902546
 10
-54.5103231392
 20
-14.5117052983
 10
-54.2848078174
 20
-14.6605296429
  0
LINE
  5
221
100
AcDbEntity
  8
RACCORDO
100
AcDbLine
 62
253
  6
CONTINUOUS
 10
-45.9862449848
 20
29.8265051951
 11
-45.9862449861
 21
9.4749084531
  0
LINE
  5
222
100
AcDbEntity
  8
RACCORDO
100
AcDbLine
 62
253
  6
CONTINUOUS
 10
-45.2243919744
 20
29.0273064059
 11
-45.2243919754
 21
8.6756830896
  0
LINE
  5
223
100
AcDbEntity
  8
0
100
AcDbLine
 62
253
  6
CONTINUOUS
 10
-43.5529181033
 20
8.3823920516
 11
-43.5529181025
 21
28.733978532
  0
LINE
  5
224
100
AcDbEntity
  8
DRAFT
100
AcDbLine
 62
7
  6
CONTINUOUS
 10
-41.6247003049
 20
36.975415388
 11
-41.6247003049
 21
0.1881609038
  0
LWPOLYLINE
  5
225
100
AcDbEntity
  8
RACCORDO
100
AcDbPolyline
 62
7
  6
CONTINUOUS
 90
9
 70
0
 10
51.2150547083
 20
-67.4160227151
 10
51.2449289446
 20
-67.4296795702
 10
51.4829505421
 20
-67.5220253229
 10
51.7201671277
 20
-67.5852559144
 10
51.9557461541
 20
-67.6195405487
 10
52.1873629061
 20
-67.6249151388
 10
52.4105099384
 20
-67.6021428432
 10
52.621719509
 20
-67.5531143802
 10
52.795683192
 20
-67.4903466719
  0
LINE
  5
226
100
AcDbEntity
  8
RACCORDO
100
AcDbLine
 62
7
  6
CONTINUOUS
 10
49.7722962759
 20
-66.7217263868
 11
51.2153544495
 21
-67.4161720874
  0
LINE
  5
227
100
AcDbEntity
  8
RACCORDO
100
AcDbLine
 62
7
  6
CONTINUOUS
 10
-47.3943731702
 20
-18.1640666732
 11
-43.5017021599
 21
-20.1044767095
  0
LINE
  5
228
100
AcDbEntity
  8
RACCORDO
100
AcDbLine
 62
7
  6
CONTINUOUS
 10
27.6459530319
 20
-55.6819939808
 11
36.3256461303
 21
-60.017358665
  0
LINE
  5
229
100
AcDbEntity
  8
RACCORDO
100
AcDbLine
 62
7
  6
CONTINUOUS
 10
-43.5017021599
 20
-20.1044767095
 11
-39.4339018634
 21
-22.1375726614
  0
LINE
  5
22A
100
AcDbEntity
  8
RACCORDO
100
AcDbLine
 62
253
  6
CONTINUOUS
 10
-31.3064904036
 20
-25.978340274
 11
27.7369258275
 21
-55.5000483895
  0
LINE
  5
22B
100
AcDbEntity
  8
RACCORDO
100
AcDbLine
 62
7
  6
CONTINUOUS
 10
36.3256461303
 20
-60.017358665
 11
40.3917186922
 21
-62.051158968
  0
LINE
  5
22C
100
AcDbEntity
  8
RACCORDO
100
AcDbLine
 62
7
  6
CONTINUOUS
 10
-39.4339018634
 20
-22.1375726614
 11
27.6459530319
 21
-55.6819939808
  0
LWPOLYLINE
  5
22D
100
AcDbEntity
  8
RACCORDO
100
AcDbPolyline
 62
7
  6
CONTINUOUS
 90
5
 70
0
 10
40.3917186922
 20
-62.051158968
 10
44.2706181472
 20
-63.9965245229
 10
46.1440108546
 20
-64.9327699878
 10
47.9810095599
 20
-65.8404644994
 10
49.7722962759
 20
-66.7217263868
  0
LWPOLYLINE
  5
22E
100
AcDbEntity
  8
RACCORDO
100
AcDbPolyline
 62
7
  6
CONTINUOUS
 90
5
 70
0
 10
-54.1994002332
 20
-14.7087219007
 10
-52.8420894638
 20
-15.4142783044
 10
-51.0811893334
 20
-16.3090651092
 10
-49.2671952897
 20
-17.2270954993
 10
-47.3943731702
 20
-18.1640666732
  0
LINE
  5
22F
100
AcDbEntity
  8
RACCORDO
100
AcDbLine
 62
7
  6
CONTINUOUS
 10
-54.1994002332
 20
-14.7087219007
 11
-54.1951449485
 21
-14.7110154575
  0
LINE
  5
230
100
AcDbEntity
  8
RACCORDO
100
AcDbLine
 62
7
  6
CONTINUOUS
 10
-54.2848078174
 20
-14.6605296429
 11
-54.1951291517
 21
-14.7109855707
  0
LINE
  5
231
100
AcDbEntity
  8
RACCORDO
100
AcDbLine
 62
253
  6
CONTINUOUS
 10
-28.1035229563
 20
-5.5920842185
 11
-28.1035229563
 21
-6.3735038582
  0
LINE
  5
232
100
AcDbEntity
  8
RACCORDO
100
AcDbLine
 62
7
  6
CONTINUOUS
 10
-28.026466404
 20
-5.5725014745
 11
-28.026466404
 21
-6.2731342673
  0
LINE
  5
233
100
AcDbEntity
  8
DRAFT
100
AcDbLine
 62
7
  6
CONTINUOUS
 10
-33.2296144674
 20
-3.9274450792
 11
-33.3376388747
 21
-4.1059816964
  0
LINE
  5
234
100
AcDbEntity
  8
DRAFT
100
AcDbLine
 62
7
  6
CONTINUOUS
 10
-32.8575321287
 20
-3.759932858
 11
-32.965556536
 21
-3.9384694752
  0
LINE
  5
235
100
AcDbEntity
  8
DRAFT
100
AcDbLine
 62
7
  6
CONTINUOUS
 10
-32.4854497901
 20
-3.5924206367
 11
-32.5934741974
 21
-3.7709572539
  0
LINE
  5
236
100
AcDbEntity
  8
RACCORDO
100
AcDbLine
 62
253
  6
CONTINUOUS
 10
-33.2885945051
 20
-9.152761026
 11
25.7548216639
 21
-38.6744669329
  0
LINE
  5
237
100
AcDbEntity
  8
RACCORDO
100
AcDbLine
 62
7
  6
CONTINUOUS
 10
-28.0269901751
 20
-5.5658560998
 11
-28.0252942189
 21
-5.56879487
  0
LINE
  5
238
100
AcDbEntity
  8
DRAFT
100
AcDbLine
 62
7
  6
CONTINUOUS
 10
-28.954846077
 20
-6.0648292745
 11
-29.0521116902
 21
-6.2487452887
  0
LINE
  5
239
100
AcDbEntity
  8
DRAFT
100
AcDbLine
 62
7
  6
CONTINUOUS
 10
-28.6198216344
 20
-5.8787881051
 11
-28.7170872476
 21
-6.0627041193
  0
LINE
  5
23A
100
AcDbEntity
  8
DRAFT
100
AcDbLine
 62
7
  6
CONTINUOUS
 10
-28.2847971919
 20
-5.6927469358
 11
-28.3820628051
 21
-5.87666295
  0
LINE
  5
23B
100
AcDbEntity
  8
0
100
AcDbLine
 62
253
  6
CONTINUOUS
 10
-41.4125682706
 20
-0.1777127345
 11
-43.2752678593
 21
-1.1887283897
  0
LINE
  5
23C
100
AcDbEntity
  8
0
100
AcDbLine
 62
253
  6
CONTINUOUS
 10
-41.6247003049
 20
0.1881609038
 11
-43.552640162
 21
-0.7107555971
  0
LINE
  5
23D
100
AcDbEntity
  8
RACCORDO
100
AcDbLine
 62
253
  6
CONTINUOUS
 10
19.5372017201
 20
-29.6072604236
 11
19.5370651641
 21
-29.6071926059
  0
LINE
  5
23E
100
AcDbEntity
  8
RACCORDO
100
AcDbLine
 62
253
  6
CONTINUOUS
 10
3.6272991434
 20
-21.6523091352
 11
3.6271625874
 21
-21.6522413176
  0
LINE
  5
23F
100
AcDbEntity
  8
RACCORDO
100
AcDbLine
 62
253
  6
CONTINUOUS
 10
-12.2826034333
 20
-13.6973578469
 11
-12.2827399893
 21
-13.6972900292
  0
LINE
  5
240
100
AcDbEntity
  8
RACCORDO
100
AcDbLine
 62
253
  6
CONTINUOUS
 10
-33.7071532347
 20
-7.8989609548
 11
25.3358912713
 21
-37.4204816273
  0
LINE
  5
241
100
AcDbEntity
  8
0
100
AcDbLine
 62
7
  6
CONTINUOUS
 10
25.8795127102
 20
-35.7665464354
 11
-33.1640517273
 21
-6.2447648621
  0
LINE
  5
242
100
AcDbEntity
  8
DRAFT
100
AcDbLine
 62
7
  6
CONTINUOUS
 10
-41.4125682706
 20
-0.1777127345
 11
35.9997731883
 21
-38.8838834639
  0
LINE
  5
243
100
AcDbEntity
  8
DRAFT
100
AcDbLine
 62
7
  6
CONTINUOUS
 10
-33.4529838631
 20
-4.0280064329
 11
-29.1559687842
 21
-6.1765139723
  0
LINE
  5
244
100
AcDbEntity
  8
DRAFT
100
AcDbLine
 62
7
  6
CONTINUOUS
 10
30.1866264437
 20
-35.8478115863
 11
34.4836415226
 21
-37.9963191257
  0
LINE
  5
245
100
AcDbEntity
  8
DRAFT
100
AcDbLine
 62
7
  6
CONTINUOUS
 10
-33.2296144674
 20
-3.9274450792
 11
-28.954846077
 21
-6.0648292745
  0
LINE
  5
246
100
AcDbEntity
  8
DRAFT
100
AcDbLine
 62
7
  6
CONTINUOUS
 10
30.4099958394
 20
-35.7472502326
 11
34.6847642298
 21
-37.8846344278
  0
LINE
  5
247
100
AcDbEntity
  8
DRAFT
100
AcDbLine
 62
7
  6
CONTINUOUS
 10
-33.0809015244
 20
-3.8604942116
 11
-28.8209443417
 21
-5.990472803
  0
LINE
  5
248
100
AcDbEntity
  8
DRAFT
100
AcDbLine
 62
7
  6
CONTINUOUS
 10
30.5587087824
 20
-35.680299365
 11
34.8186659651
 21
-37.8102779564
  0
LINE
  5
249
100
AcDbEntity
  8
DRAFT
100
AcDbLine
 62
7
  6
CONTINUOUS
 10
-32.8575321287
 20
-3.759932858
 11
-28.6198216344
 21
-5.8787881051
  0
LINE
  5
24A
100
AcDbEntity
  8
DRAFT
100
AcDbLine
 62
7
  6
CONTINUOUS
 10
30.7820781781
 20
-35.5797380114
 11
35.0197886724
 21
-37.6985932585
  0
LINE
  5
24B
100
AcDbEntity
  8
DRAFT
100
AcDbLine
 62
7
  6
CONTINUOUS
 10
-32.7088191858
 20
-3.6929819903
 11
-28.4859198992
 21
-5.8044316336
  0
LINE
  5
24C
100
AcDbEntity
  8
DRAFT
100
AcDbLine
 62
7
  6
CONTINUOUS
 10
30.930791121
 20
-35.5127871437
 11
35.1536904076
 21
-37.624236787
  0
LINE
  5
24D
100
AcDbEntity
  8
RACCORDO
100
AcDbLine
 62
253
  6
CONTINUOUS
 10
-16.1716314191
 20
-11.8266048869
 11
-12.4147126496
 21
-13.7050642717
  0
LINE
  5
24E
100
AcDbEntity
  8
RACCORDO
100
AcDbLine
 62
253
  6
CONTINUOUS
 10
-0.2617288424
 20
-19.7815561753
 11
3.4951899271
 21
-21.6600155601
  0
LINE
  5
24F
100
AcDbEntity
  8
RACCORDO
100
AcDbLine
 62
253
  6
CONTINUOUS
 10
15.6481737343
 20
-27.7365074636
 11
19.4050925038
 21
-29.6149668484
  0
LINE
  5
250
100
AcDbEntity
  8
RACCORDO
100
AcDbLine
 62
7
  6
CONTINUOUS
 10
-16.0393185182
 20
-11.819000047
 11
-12.2823997486
 21
-13.6974594317
  0
LINE
  5
251
100
AcDbEntity
  8
RACCORDO
100
AcDbLine
 62
7
  6
CONTINUOUS
 10
-0.1294159415
 20
-19.7739513353
 11
3.6275028281
 21
-21.6524107201
  0
LINE
  5
252
100
AcDbEntity
  8
RACCORDO
100
AcDbLine
 62
7
  6
CONTINUOUS
 10
15.7804866352
 20
-27.7289026237
 11
19.5374054048
 21
-29.6073620084
  0
LINE
  5
253
100
AcDbEntity
  8
DRAFT
100
AcDbLine
 62
7
  6
CONTINUOUS
 10
-32.4854497901
 20
-3.5924206367
 11
-28.2847971919
 21
-5.6927469358
  0
LINE
  5
254
100
AcDbEntity
  8
DRAFT
100
AcDbLine
 62
7
  6
CONTINUOUS
 10
31.1541605167
 20
-35.4122257901
 11
35.3548131149
 21
-37.5125520892
  0
LINE
  5
255
100
AcDbEntity
  8
RACCORDO
100
AcDbLine
 62
253
  6
CONTINUOUS
 10
-32.2958083265
 20
-3.5070436663
 11
-28.1140432511
 21
-5.597926204
  0
LINE
  5
256
100
AcDbEntity
  8
RACCORDO
100
AcDbLine
 62
253
  6
CONTINUOUS
 10
31.3438019803
 20
-35.3268488197
 11
35.5255670557
 21
-37.4177313574
  0
LINE
  5
257
100
AcDbEntity
  8
RACCORDO
100
AcDbLine
 62
7
  6
CONTINUOUS
 10
-32.1118963346
 20
-3.5233970867
 11
-28.0838022209
 21
-5.5374441436
  0
LINE
  5
258
100
AcDbEntity
  8
RACCORDO
100
AcDbLine
 62
7
  6
CONTINUOUS
 10
31.5277139721
 20
-35.3432022401
 11
35.5558080859
 21
-37.357249297
  0
LINE
  5
259
100
AcDbEntity
  8
DRAFT
100
AcDbLine
 62
7
  6
CONTINUOUS
 10
-29.0521116902
 20
-6.2487452887
 11
-29.1559687842
 21
-6.1765139723
  0
LINE
  5
25A
100
AcDbEntity
  8
DRAFT
100
AcDbLine
 62
7
  6
CONTINUOUS
 10
-28.7170872476
 20
-6.0627041193
 11
-28.8209443417
 21
-5.990472803
  0
LINE
  5
25B
100
AcDbEntity
  8
DRAFT
100
AcDbLine
 62
7
  6
CONTINUOUS
 10
-28.3820628051
 20
-5.87666295
 11
-28.4859198992
 21
-5.8044316336
  0
LINE
  5
25C
100
AcDbEntity
  8
RACCORDO
100
AcDbLine
 62
253
  6
CONTINUOUS
 10
-12.1936203796
 20
-14.06615718
 11
-12.1936203796
 21
-14.3284551466
  0
LINE
  5
25D
100
AcDbEntity
  8
RACCORDO
100
AcDbLine
 62
7
  6
CONTINUOUS
 10
-12.116564478
 20
-13.9654751779
 11
-12.1165638273
 21
-14.2280855556
  0
LINE
  5
25E
100
AcDbEntity
  8
DRAFT
100
AcDbLine
 62
7
  6
CONTINUOUS
 10
34.5874986166
 20
-38.0685504421
 11
34.4836415226
 21
-37.9963191257
  0
LINE
  5
25F
100
AcDbEntity
  8
DRAFT
100
AcDbLine
 62
7
  6
CONTINUOUS
 10
34.9225230591
 20
-37.8825092727
 11
34.8186659651
 21
-37.8102779564
  0
LINE
  5
260
100
AcDbEntity
  8
DRAFT
100
AcDbLine
 62
7
  6
CONTINUOUS
 10
35.2575475017
 20
-37.6964681034
 11
35.1536904076
 21
-37.624236787
  0
LINE
  5
261
100
AcDbEntity
  8
RACCORDO
100
AcDbLine
 62
253
  6
CONTINUOUS
 10
-28.1035229563
 20
-6.3735038582
 11
-28.5291150798
 21
-6.6194393299
  0
LINE
  5
262
100
AcDbEntity
  8
RACCORDO
100
AcDbLine
 62
7
  6
CONTINUOUS
 10
-28.1763658285
 20
-6.5328837952
 11
-28.420301545
 21
-6.6738460973
  0
LINE
  5
263
100
AcDbEntity
  8
RACCORDO
100
AcDbLine
 62
7
  6
CONTINUOUS
 10
-28.1035229563
 20
-5.5920842185
 11
-28.2847971919
 21
-5.6927469358
  0
LINE
  5
264
100
AcDbEntity
  8
DRAFT
100
AcDbLine
 62
7
  6
CONTINUOUS
 10
-28.4859198992
 20
-5.8044316336
 11
-28.6198216344
 21
-5.8787881051
  0
LINE
  5
265
100
AcDbEntity
  8
DRAFT
100
AcDbLine
 62
7
  6
CONTINUOUS
 10
-28.8209443417
 20
-5.990472803
 11
-28.954846077
 21
-6.0648292745
  0
LINE
  5
266
100
AcDbEntity
  8
DRAFT
100
AcDbLine
 62
7
  6
CONTINUOUS
 10
-29.1559687842
 20
-6.1765139723
 11
-29.2898705195
 21
-6.2508704438
  0
LINE
  5
267
100
AcDbEntity
  8
RACCORDO
100
AcDbLine
 62
7
  6
CONTINUOUS
 10
-32.2958083265
 20
-3.5070436663
 11
-32.4854497901
 21
-3.5924206367
  0
LINE
  5
268
100
AcDbEntity
  8
DRAFT
100
AcDbLine
 62
7
  6
CONTINUOUS
 10
-32.7088191858
 20
-3.6929819903
 11
-32.8575321287
 21
-3.759932858
  0
LINE
  5
269
100
AcDbEntity
  8
DRAFT
100
AcDbLine
 62
7
  6
CONTINUOUS
 10
-33.0809015244
 20
-3.8604942116
 11
-33.2296144674
 21
-3.9274450792
  0
LINE
  5
26A
100
AcDbEntity
  8
DRAFT
100
AcDbLine
 62
7
  6
CONTINUOUS
 10
-33.4529838631
 20
-4.0280064329
 11
-33.601696806
 21
-4.0949573005
  0
LINE
  5
26B
100
AcDbEntity
  8
RACCORDO
100
AcDbLine
 62
253
  6
CONTINUOUS
 10
55.3726209906
 20
-29.4105212247
 11
55.6751054685
 21
-29.5617634636
  0
LINE
  5
26C
100
AcDbEntity
  8
RACCORDO
100
AcDbLine
 62
253
  6
CONTINUOUS
 10
55.3515896207
 20
-28.7294990767
 11
56.5164031275
 21
-29.3119058301
  0
LINE
  5
26D
100
AcDbEntity
  8
RACCORDO
100
AcDbLine
 62
7
  6
CONTINUOUS
 10
55.3515896207
 20
-28.6459382783
 11
56.5498274468
 21
-29.2450571914
  0
LINE
  5
26E
100
AcDbEntity
  8
RACCORDO
100
AcDbLine
 62
253
  6
CONTINUOUS
 10
3.716282197
 20
-22.0211084683
 11
3.716282197
 21
-22.2834064349
  0
LINE
  5
26F
100
AcDbEntity
  8
RACCORDO
100
AcDbLine
 62
7
  6
CONTINUOUS
 10
3.7933380987
 20
-21.9204264663
 11
3.7933387494
 21
-22.183036844
  0
LINE
  5
270
100
AcDbEntity
  8
RACCORDO
100
AcDbLine
 62
253
  6
CONTINUOUS
 10
-12.4147126496
 20
-13.7050642717
 11
-13.3453172435
 21
-14.211338248
  0
LINE
  5
271
100
AcDbEntity
  8
RACCORDO
100
AcDbLine
 62
7
  6
CONTINUOUS
 10
-16.2943147831
 20
-11.8127383597
 11
-17.2773528838
 21
-12.2453204279
  0
LINE
  5
272
100
AcDbEntity
  8
RACCORDO
100
AcDbLine
 62
253
  6
CONTINUOUS
 10
-16.1716314191
 20
-11.8266048869
 11
-17.2051725275
 21
-12.281410606
  0
LINE
  5
273
100
AcDbEntity
  8
RACCORDO
100
AcDbLine
 62
253
  6
CONTINUOUS
 10
-16.2943031063
 20
-11.8127332222
 11
-16.2941219415
 21
-11.8126537374
  0
LINE
  5
274
100
AcDbEntity
  8
RACCORDO
100
AcDbLine
 62
253
  6
CONTINUOUS
 10
-12.1936203796
 20
-14.3284551466
 11
-12.6192125031
 21
-14.5743906182
  0
LINE
  5
275
100
AcDbEntity
  8
RACCORDO
100
AcDbLine
 62
7
  6
CONTINUOUS
 10
-12.2664632518
 20
-14.4878350835
 11
-12.5103989683
 21
-14.6287973856
  0
LINE
  5
276
100
AcDbEntity
  8
RACCORDO
100
AcDbLine
 62
253
  6
CONTINUOUS
 10
-12.1936203796
 20
-14.06615718
 11
-12.8842438371
 21
-14.4418749512
  0
LINE
  5
277
100
AcDbEntity
  8
RACCORDO
100
AcDbLine
 62
253
  6
CONTINUOUS
 10
56.8399189753
 20
12.5814235847
 11
53.5521755646
 21
11.1012722324
  0
LINE
  5
278
100
AcDbEntity
  8
RACCORDO
100
AcDbLine
 62
7
  6
CONTINUOUS
 10
35.6126201317
 20
-37.3856612532
 11
35.6143160879
 21
-37.3886000234
  0
LINE
  5
279
100
AcDbEntity
  8
RACCORDO
100
AcDbLine
 62
253
  6
CONTINUOUS
 10
54.7185986317
 20
16.2401599679
 11
51.5983862816
 21
14.4797793471
  0
LINE
  5
27A
100
AcDbEntity
  8
RACCORDO
100
AcDbLine
 62
7
  6
CONTINUOUS
 10
-0.3844122064
 20
-19.767689648
 11
-1.3674503071
 21
-20.2002717162
  0
LINE
  5
27B
100
AcDbEntity
  8
RACCORDO
100
AcDbLine
 62
253
  6
CONTINUOUS
 10
-0.2617288424
 20
-19.7815561753
 11
-1.2952699508
 21
-20.2363618944
  0
LINE
  5
27C
100
AcDbEntity
  8
RACCORDO
100
AcDbLine
 62
253
  6
CONTINUOUS
 10
-0.3844005296
 20
-19.7676845106
 11
-0.3842193648
 21
-19.7676050257
  0
LINE
  5
27D
100
AcDbEntity
  8
RACCORDO
100
AcDbLine
 62
7
  6
CONTINUOUS
 10
-43.6970327518
 20
38.0113736525
 11
-43.6964420231
 21
38.011080119
  0
LINE
  5
27E
100
AcDbEntity
  8
RACCORDO
100
AcDbLine
 62
7
  6
CONTINUOUS
 10
-33.5868554914
 20
32.9552676238
 11
-33.5861704113
 21
32.9549262027
  0
LINE
  5
27F
100
AcDbEntity
  8
RACCORDO
100
AcDbLine
 62
7
  6
CONTINUOUS
 10
25.4562549338
 20
3.4337111474
 11
25.4570081934
 21
3.4333356532
  0
LINE
  5
280
100
AcDbEntity
  8
RACCORDO
100
AcDbLine
 62
253
  6
CONTINUOUS
 10
25.3362629761
 20
4.5617341668
 11
-33.7067796083
 21
34.0832558017
  0
LINE
  5
281
100
AcDbEntity
  8
RACCORDO
100
AcDbLine
 62
253
  6
CONTINUOUS
 10
25.7548217714
 20
6.2340930154
 11
-33.2885945255
 21
35.7557988621
  0
LINE
  5
282
100
AcDbEntity
  8
0
100
AcDbLine
 62
7
  6
CONTINUOUS
 10
-43.6970327518
 20
38.0113736525
 11
35.5686298821
 21
-1.6214448181
  0
LINE
  5
283
100
AcDbEntity
  8
RACCORDO
100
AcDbLine
 62
7
  6
CONTINUOUS
 10
35.5686834425
 20
-1.621471604
 11
35.5688828977
 21
-1.6215714991
  0
LWPOLYLINE
  5
284
100
AcDbEntity
  8
0
100
AcDbPolyline
 62
7
  6
CONTINUOUS
 90
46
 70
0
 10
35.5688297444
 20
-1.6215448869
 10
35.5700188362
 20
-1.6221482361
 10
35.5761816731
 20
-1.6254802503
 10
35.5844498113
 20
-1.6303746698
 10
35.5946547108
 20
-1.6369508733
 10
35.6064402813
 20
-1.6451723222
 10
35.619664122
 20
-1.6551067353
 10
35.6341438334
 20
-1.6667747348
 10
35.6494618591
 20
-1.6799677046
 10
35.6654096558
 20
-1.6946045333
 10
35.6818610311
 20
-1.7106537615
 10
35.6985527178
 20
-1.7279188484
 10
35.7153630138
 20
-1.7463061998
 10
35.7322241166
 20
-1.7657740981
 10
35.7490157799
 20
-1.7862215202
 10
35.765629114
 20
-1.8075505275
 10
35.7819679832
 20
-1.8296548149
 10
35.7979586621
 20
-1.8524300227
 10
35.8135030976
 20
-1.8757159439
 10
35.8285188053
 20
-1.899390652
 10
35.8429916172
 20
-1.9234239741
 10
35.8568576979
 20
-1.9476701009
 10
35.870063909
 20
-1.9719755723
 10
35.8826307899
 20
-1.9963472801
 10
35.894550633
 20
-2.0207429829
 10
35.9057729099
 20
-2.0450148191
 10
35.9162794595
 20
-2.0690504511
 10
35.9260895511
 20
-2.0928120531
 10
35.9352191305
 20
-2.116270266
 10
35.9436668646
 20
-2.1393641288
 10
35.9514491728
 20
-2.1620730675
 10
35.958573257
 20
-2.1843420756
 10
35.9650314128
 20
-2.2060639609
 10
35.9708395942
 20
-2.2271980222
 10
35.9760313502
 20
-2.247726585
 10
35.9806350314
 20
-2.2675905084
 10
35.9846845512
 20
-2.2867683465
 10
35.9882100503
 20
-2.305246417
 10
35.9912166501
 20
-2.322945435
 10
35.9936991805
 20
-2.3397115085
 10
35.9956899507
 20
-2.3555438949
 10
35.9972386144
 20
-2.370568396
 10
35.9983718268
 20
-2.3846759019
 10
35.9991344744
 20
-2.3978558315
 10
35.999583012
 20
-2.4104042518
 10
35.9997497399
 20
-2.4222062385
  0
LINE
  5
285
100
AcDbEntity
  8
RACCORDO
100
AcDbLine
 62
253
  6
CONTINUOUS
 10
19.6261847737
 20
-29.9760597567
 11
19.6261847737
 21
-30.2383577233
  0
LINE
  5
286
100
AcDbEntity
  8
RACCORDO
100
AcDbLine
 62
7
  6
CONTINUOUS
 10
19.7032406754
 20
-29.8753777546
 11
19.7032413261
 21
-30.1379881323
  0
LINE
  5
287
100
AcDbEntity
  8
RACCORDO
100
AcDbLine
 62
253
  6
CONTINUOUS
 10
3.716282197
 20
-22.2834064349
 11
3.2906900736
 21
-22.5293419066
  0
LINE
  5
288
100
AcDbEntity
  8
RACCORDO
100
AcDbLine
 62
7
  6
CONTINUOUS
 10
3.6434393249
 20
-22.4427863719
 11
3.3995036084
 21
-22.583748674
  0
LINE
  5
289
100
AcDbEntity
  8
RACCORDO
100
AcDbLine
 62
253
  6
CONTINUOUS
 10
3.4951899271
 20
-21.6600155601
 11
2.5645853332
 21
-22.1662895364
  0
LINE
  5
28A
100
AcDbEntity
  8
RACCORDO
100
AcDbLine
 62
253
  6
CONTINUOUS
 10
3.716282197
 20
-22.0211084683
 11
3.0256587396
 21
-22.3968262396
  0
LINE
  5
28B
100
AcDbEntity
  8
RACCORDO
100
AcDbLine
 62
7
  6
CONTINUOUS
 10
35.9997546964
 20
-40.9624242722
 11
35.9997546362
 21
-40.9622818975
  0
LINE
  5
28C
100
AcDbEntity
  8
RACCORDO
100
AcDbLine
 62
253
  6
CONTINUOUS
 10
35.5360873504
 20
-37.4118893719
 11
35.5360873504
 21
-38.1933090116
  0
LINE
  5
28D
100
AcDbEntity
  8
RACCORDO
100
AcDbLine
 62
7
  6
CONTINUOUS
 10
35.6131439028
 20
-37.3923066279
 11
35.6131439028
 21
-38.0929394207
  0
LINE
  5
28E
100
AcDbEntity
  8
0
100
AcDbLine
 62
7
  6
CONTINUOUS
 10
35.9997497399
 20
-2.4222062385
 11
35.9997546361
 21
-40.9622952436
  0
LWPOLYLINE
  5
28F
100
AcDbEntity
  8
0
100
AcDbPolyline
 62
7
  6
CONTINUOUS
 90
5
 70
0
 10
35.9997546971
 20
-40.9624376474
 10
35.9996675249
 20
-40.9716661185
 10
35.9987938489
 20
-40.9916078312
 10
35.9973377768
 20
-41.0062499761
 10
35.9957897535
 20
-41.0157896404
  0
LINE
  5
290
100
AcDbEntity
  8
RACCORDO
100
AcDbLine
 62
253
  6
CONTINUOUS
 10
19.4050925038
 20
-29.6149668484
 11
18.4744879099
 21
-30.1212408247
  0
LINE
  5
291
100
AcDbEntity
  8
RACCORDO
100
AcDbLine
 62
253
  6
CONTINUOUS
 10
19.6261847737
 20
-29.9760597567
 11
18.9355613163
 21
-30.3517775279
  0
LINE
  5
292
100
AcDbEntity
  8
RACCORDO
100
AcDbLine
 62
7
  6
CONTINUOUS
 10
15.5254903703
 20
-27.7226409364
 11
14.5424522696
 21
-28.1552230046
  0
LINE
  5
293
100
AcDbEntity
  8
RACCORDO
100
AcDbLine
 62
253
  6
CONTINUOUS
 10
15.6481737343
 20
-27.7365074636
 11
14.6146326259
 21
-28.1913131827
  0
LINE
  5
294
100
AcDbEntity
  8
RACCORDO
100
AcDbLine
 62
253
  6
CONTINUOUS
 10
15.5255020471
 20
-27.7226357989
 11
15.5256832119
 21
-27.7225563141
  0
LINE
  5
295
100
AcDbEntity
  8
RACCORDO
100
AcDbLine
 62
253
  6
CONTINUOUS
 10
27.7369258292
 20
25.0417763282
 11
-31.3064904019
 21
54.5634844438
  0
LINE
  5
296
100
AcDbEntity
  8
RACCORDO
100
AcDbLine
 62
253
  6
CONTINUOUS
 10
28.3872813795
 20
26.0285458771
 11
-30.6561409924
 21
55.5502570631
  0
LINE
  5
297
100
AcDbEntity
  8
RACCORDO
100
AcDbLine
 62
253
  6
CONTINUOUS
 10
36.8547973887
 20
-32.3638853651
 11
36.8547973882
 21
-12.0122882966
  0
LINE
  5
298
100
AcDbEntity
  8
RACCORDO
100
AcDbLine
 62
253
  6
CONTINUOUS
 10
38.4531953064
 20
-32.7448117617
 11
38.4531953079
 21
-12.3932149509
  0
LINE
  5
299
100
AcDbEntity
  8
RACCORDO
100
AcDbLine
 62
253
  6
CONTINUOUS
 10
19.6261847737
 20
-30.2383577233
 11
19.2005926503
 21
-30.4842931949
  0
LINE
  5
29A
100
AcDbEntity
  8
RACCORDO
100
AcDbLine
 62
7
  6
CONTINUOUS
 10
19.5533419016
 20
-30.3977376602
 11
19.3094061851
 21
-30.5386999623
  0
LINE
  5
29B
100
AcDbEntity
  8
SUPERFICI
100
AcDbLine
 62
7
  6
CONTINUOUS
 10
54.7185986317
 20
16.2401599679
 11
-50.6403117651
 21
68.9196151663
  0
LINE
  5
29C
100
AcDbEntity
  8
0
100
AcDbLine
 62
7
  6
CONTINUOUS
 10
35.9957897535
 20
-41.0157896404
 11
35.9950697888
 21
-41.0189545075
  0
LINE
  5
29D
100
AcDbEntity
  8
DRAFT
100
AcDbLine
 62
7
  6
CONTINUOUS
 10
30.4099958394
 20
-35.7472502326
 11
30.3019714321
 21
-35.9257868498
  0
LINE
  5
29E
100
AcDbEntity
  8
DRAFT
100
AcDbLine
 62
7
  6
CONTINUOUS
 10
30.7820781781
 20
-35.5797380114
 11
30.6740537708
 21
-35.7582746285
  0
LINE
  5
29F
100
AcDbEntity
  8
DRAFT
100
AcDbLine
 62
7
  6
CONTINUOUS
 10
31.1541605167
 20
-35.4122257901
 11
31.0461361094
 21
-35.5907624073
  0
LINE
  5
2A0
100
AcDbEntity
  8
RACCORDO
100
AcDbLine
 62
7
  6
CONTINUOUS
 10
31.3438019803
 20
-35.3268488197
 11
31.1541605167
 21
-35.4122257901
  0
LINE
  5
2A1
100
AcDbEntity
  8
DRAFT
100
AcDbLine
 62
7
  6
CONTINUOUS
 10
30.930791121
 20
-35.5127871437
 11
30.7820781781
 21
-35.5797380114
  0
LINE
  5
2A2
100
AcDbEntity
  8
DRAFT
100
AcDbLine
 62
7
  6
CONTINUOUS
 10
30.5587087824
 20
-35.680299365
 11
30.4099958394
 21
-35.7472502326
  0
LINE
  5
2A3
100
AcDbEntity
  8
DRAFT
100
AcDbLine
 62
7
  6
CONTINUOUS
 10
30.1866264437
 20
-35.8478115863
 11
30.0379135008
 21
-35.9147624539
  0
LINE
  5
2A4
100
AcDbEntity
  8
RACCORDO
100
AcDbLine
 62
7
  6
CONTINUOUS
 10
56.5164031275
 20
-29.3119058301
 11
55.6751054685
 21
-29.5617634636
  0
LINE
  5
2A5
100
AcDbEntity
  8
RACCORDO
100
AcDbLine
 62
253
  6
CONTINUOUS
 10
52.323268976
 20
-37.7162073433
 11
52.323268976
 21
-17.364610347
  0
LINE
  5
2A6
100
AcDbEntity
  8
RACCORDO
100
AcDbLine
 62
253
  6
CONTINUOUS
 10
53.4716042977
 20
-37.6489250354
 11
53.4716042977
 21
-17.2973328854
  0
LINE
  5
2A7
100
AcDbEntity
  8
DRAFT
100
AcDbLine
 62
7
  6
CONTINUOUS
 10
34.6847642298
 20
-37.8846344278
 11
34.5874986166
 21
-38.0685504421
  0
LINE
  5
2A8
100
AcDbEntity
  8
DRAFT
100
AcDbLine
 62
7
  6
CONTINUOUS
 10
35.0197886724
 20
-37.6985932585
 11
34.9225230591
 21
-37.8825092727
  0
LINE
  5
2A9
100
AcDbEntity
  8
DRAFT
100
AcDbLine
 62
7
  6
CONTINUOUS
 10
35.3548131149
 20
-37.5125520892
 11
35.2575475017
 21
-37.6964681034
  0
LINE
  5
2AA
100
AcDbEntity
  8
RACCORDO
100
AcDbLine
 62
7
  6
CONTINUOUS
 10
55.6751054685
 20
-23.4004530962
 11
56.5164031275
 21
-22.892802915
  0
LINE
  5
2AB
100
AcDbEntity
  8
RACCORDO
100
AcDbLine
 62
253
  6
CONTINUOUS
 10
35.5360873504
 20
-38.1933090116
 11
35.110495227
 21
-38.4392444833
  0
LINE
  5
2AC
100
AcDbEntity
  8
RACCORDO
100
AcDbLine
 62
7
  6
CONTINUOUS
 10
35.4632444783
 20
-38.3526889486
 11
35.2193087618
 21
-38.4936512507
  0
LINE
  5
2AD
100
AcDbEntity
  8
RACCORDO
100
AcDbLine
 62
7
  6
CONTINUOUS
 10
35.5360873504
 20
-37.4118893719
 11
35.3548131149
 21
-37.5125520892
  0
LINE
  5
2AE
100
AcDbEntity
  8
DRAFT
100
AcDbLine
 62
7
  6
CONTINUOUS
 10
35.1536904076
 20
-37.624236787
 11
35.0197886724
 21
-37.6985932585
  0
LINE
  5
2AF
100
AcDbEntity
  8
DRAFT
100
AcDbLine
 62
7
  6
CONTINUOUS
 10
34.8186659651
 20
-37.8102779564
 11
34.6847642298
 21
-37.8846344278
  0
LINE
  5
2B0
100
AcDbEntity
  8
DRAFT
100
AcDbLine
 62
7
  6
CONTINUOUS
 10
34.4836415226
 20
-37.9963191257
 11
34.3497397873
 21
-38.0706755972
  0
LINE
  5
2B1
100
AcDbEntity
  8
0
100
AcDbLine
 62
7
  6
CONTINUOUS
 10
29.6391519807
 20
-40.7502285475
 11
29.6816062759
 21
-40.7290013999
  0
LINE
  5
2B2
100
AcDbEntity
  8
0
100
AcDbLine
 62
7
  6
CONTINUOUS
 10
30.1042897583
 20
-40.9825901455
 11
30.1467442542
 21
-40.9613628975
  0
LINE
  5
2B3
100
AcDbEntity
  8
0
100
AcDbLine
 62
7
  6
CONTINUOUS
 10
30.8981700307
 20
-41.3792628199
 11
30.9406249319
 21
-41.3580353693
  0
LINE
  5
2B4
100
AcDbEntity
  8
0
100
AcDbLine
 62
7
  6
CONTINUOUS
 10
31.3259543963
 20
-41.5930698305
 11
31.3684095772
 21
-41.5718422401
  0
LINE
  5
2B5
100
AcDbEntity
  8
0
100
AcDbLine
 62
7
  6
CONTINUOUS
 10
31.484797649
 20
-41.6723257196
 11
31.5272529457
 21
-41.6510980713
  0
LINE
  5
2B6
100
AcDbEntity
  8
0
100
AcDbLine
 62
7
  6
CONTINUOUS
 10
31.9128077183
 20
-41.8863126206
 11
31.955263381
 21
-41.8650847893
  0
LINE
  5
2B7
100
AcDbEntity
  8
0
100
AcDbLine
 62
7
  6
CONTINUOUS
 10
32.328315766
 20
-42.094246242
 11
32.3707718645
 21
-42.0730181928
  0
LINE
  5
2B8
100
AcDbEntity
  8
0
100
AcDbLine
 62
7
  6
CONTINUOUS
 10
32.7558640724
 20
-42.308109764
 11
32.7983207065
 21
-42.286881447
  0
LINE
  5
2B9
100
AcDbEntity
  8
0
100
AcDbLine
 62
7
  6
CONTINUOUS
 10
30.7699412107
 20
-43.7231809675
 11
30.8124545324
 21
-43.7019243066
  0
LINE
  5
2BA
100
AcDbEntity
  8
0
100
AcDbLine
 62
7
  6
CONTINUOUS
 10
33.6069946372
 20
-42.7340071121
 11
33.6494526329
 21
-42.7127781143
  0
LINE
  5
2BB
100
AcDbEntity
  8
RACCORDO
100
AcDbLine
 62
7
  6
CONTINUOUS
 10
55.3515896207
 20
-29.2781027342
 11
55.3515896207
 21
-23.9754088032
  0
LINE
  5
2BC
100
AcDbEntity
  8
RACCORDO
100
AcDbLine
 62
7
  6
CONTINUOUS
 10
56.8399189753
 20
-64.4948373521
 11
56.8399189753
 21
-29.5955665594
  0
LINE
  5
2BD
100
AcDbEntity
  8
RACCORDO
100
AcDbLine
 62
7
  6
CONTINUOUS
 10
56.8399189753
 20
-22.3178472079
 11
56.8399189753
 21
12.5814235847
  0
LINE
  5
2BE
100
AcDbEntity
  8
0
100
AcDbLine
 62
7
  6
CONTINUOUS
 10
34.0302225455
 20
-42.9458490037
 11
34.0726813053
 21
-42.9246196238
  0
LINE
  5
2BF
100
AcDbEntity
  8
0
100
AcDbLine
 62
7
  6
CONTINUOUS
 10
32.0164679009
 20
-44.3458072439
 11
32.0589809575
 21
-44.3245507156
  0
LINE
  5
2C0
100
AcDbEntity
  8
0
100
AcDbLine
 62
7
  6
CONTINUOUS
 10
34.9322585976
 20
-43.3968941694
 11
34.97471842
 21
-43.3756642582
  0
LINE
  5
2C1
100
AcDbEntity
  8
0
100
AcDbLine
 62
7
  6
CONTINUOUS
 10
32.6569583702
 20
-44.6654116219
 11
32.6994719169
 21
-44.6441548485
  0
LINE
  5
2C2
100
AcDbEntity
  8
0
100
AcDbLine
 62
7
  6
CONTINUOUS
 10
35.3468635415
 20
-43.6036225169
 11
35.3893238482
 21
-43.5823923635
  0
LINE
  5
2C3
100
AcDbEntity
  8
0
100
AcDbLine
 62
7
  6
CONTINUOUS
 10
33.3349368216
 20
-44.9212805975
 11
33.3774491294
 21
-44.9000244436
  0
LINE
  5
2C4
100
AcDbEntity
  8
0
100
AcDbLine
 62
7
  6
CONTINUOUS
 10
36.1054854707
 20
-44.0084319091
 11
36.1479478697
 21
-43.9872007096
  0
LINE
  5
2C5
100
AcDbEntity
  8
0
100
AcDbLine
 62
7
  6
CONTINUOUS
 10
34.9835400796
 20
-44.9790581251
 11
35.0260386669
 21
-44.9578088314
  0
LINE
  5
2C6
100
AcDbEntity
  8
0
100
AcDbLine
 62
7
  6
CONTINUOUS
 10
34.3303074543
 20
-45.4987125792
 11
34.3728254634
 21
-45.4774535746
  0
LINE
  5
2C7
100
AcDbEntity
  8
0
100
AcDbLine
 62
7
  6
CONTINUOUS
 10
34.8224707757
 20
-45.7431855408
 11
34.8649912306
 21
-45.7219253134
  0
LINE
  5
2C8
100
AcDbEntity
  8
0
100
AcDbLine
 62
7
  6
CONTINUOUS
 10
36.563358618
 20
-45.2794036617
 11
36.6058510118
 21
-45.2581574648
  0
LINE
  5
2C9
100
AcDbEntity
  8
0
100
AcDbLine
 62
253
  6
CONTINUOUS
 10
36.810487867
 20
-45.400431937
 11
36.8529814467
 21
-45.3791851471
  0
LINE
  5
2CA
100
AcDbEntity
  8
0
100
AcDbLine
 62
7
  6
CONTINUOUS
 10
37.2265992441
 20
-45.7992796718
 11
37.269041627
 21
-45.7780584804
  0
LINE
  5
2CB
100
AcDbEntity
  8
0
100
AcDbLine
 62
7
  6
CONTINUOUS
 10
36.0917445709
 20
-46.371458325
 11
36.1342724343
 21
-46.3501943933
  0
LINE
  5
2CC
100
AcDbEntity
  8
0
100
AcDbLine
 62
7
  6
CONTINUOUS
 10
37.3515542595
 20
-45.8162264052
 11
37.3940553977
 21
-45.7949758361
  0
LINE
  5
2CD
100
AcDbEntity
  8
0
100
AcDbLine
 62
7
  6
CONTINUOUS
 10
36.6485027681
 20
-46.6450272139
 11
36.6910337215
 21
-46.6237617372
  0
LINE
  5
2CE
100
AcDbEntity
  8
0
100
AcDbLine
 62
7
  6
CONTINUOUS
 10
37.7311640282
 20
-47.1707846168
 11
37.7737012755
 21
-47.1495159931
  0
LINE
  5
2CF
100
AcDbEntity
  8
RACCORDO
100
AcDbLine
 62
253
  6
CONTINUOUS
 10
56.8399189753
 20
-64.4948373521
 11
53.5521755681
 21
-65.9749803611
  0
LINE
  5
2D0
100
AcDbEntity
  8
RACCORDO
100
AcDbLine
 62
253
  6
CONTINUOUS
 10
52.7920955304
 20
-67.4918725505
 11
52.7956305157
 21
-67.4903702214
  0
LINE
  5
2D1
100
AcDbEntity
  8
SUPERFICI
100
AcDbLine
 62
7
  6
CONTINUOUS
 10
52.7894092927
 20
-67.4930039836
 11
55.9924292742
 21
-66.1485989977
  0
ARC
  5
2D2
100
AcDbEntity
  8
RACCORDO
100
AcDbCircle
 62
253
  6
CONTINUOUS
 10
-5.7005309904
 20
-9.1380862494
 40
50.1558988284
100
AcDbArc
 50
182.189518751
 51
183.0505770414
  0
ARC
  5
2D3
100
AcDbEntity
  8
RACCORDO
100
AcDbCircle
 62
253
  6
CONTINUOUS
 10
-9.1552114499
 20
-9.32451381
 40
46.6961926904
100
AcDbArc
 50
183.0477377155
 51
183.29996523
  0
ARC
  5
2D4
100
AcDbEntity
  8
RACCORDO
100
AcDbCircle
 62
253
  6
CONTINUOUS
 10
34.7935607403
 20
-41.854343163
 40
3.6685875605
100
AcDbArc
 50
359.2817668454
 51
0.44544638
  0
ARC
  5
2D5
100
AcDbEntity
  8
RACCORDO
100
AcDbCircle
 62
253
  6
CONTINUOUS
 10
36.9150026411
 20
-41.8426963582
 40
2.1386209323
100
AcDbArc
 50
255.9054963689
 51
258.5304154638
  0
ARC
  5
2D6
100
AcDbEntity
  8
0
100
AcDbCircle
 62
7
  6
CONTINUOUS
 10
36.3447332902
 20
-45.4076498574
 40
1.1879936314
100
AcDbArc
 50
32.8730550819
 51
41.9104422848
  0
ARC
  5
2D7
100
AcDbEntity
  8
0
100
AcDbCircle
 62
7
  6
CONTINUOUS
 10
36.4135803778
 20
-45.37148636
 40
1.1578237409
100
AcDbArc
 50
34.6947986825
 51
45.0437034329
  0
ARC
  5
2D8
100
AcDbEntity
  8
RACCORDO
100
AcDbCircle
 62
253
  6
CONTINUOUS
 10
36.4638927166
 20
-41.6851901449
 40
0.9839728006
100
AcDbArc
 50
122.7606225936
 51
124.8000501791
  0
ARC
  5
2D9
100
AcDbEntity
  8
RACCORDO
100
AcDbCircle
 62
253
  6
CONTINUOUS
 10
36.4350868841
 20
-41.6398443196
 40
0.9302520827
100
AcDbArc
 50
118.4760736029
 51
122.7799663648
  0
ARC
  5
2DA
100
AcDbEntity
  8
0
100
AcDbCircle
 62
7
  6
CONTINUOUS
 10
36.5537635479
 20
-45.2375125283
 40
0.5797755815
100
AcDbArc
 50
16.0328272834
 51
21.9255198641
  0
ARC
  5
2DB
100
AcDbEntity
  8
0
100
AcDbCircle
 62
7
  6
CONTINUOUS
 10
36.5712983746
 20
-45.2303598134
 40
0.5608382242
100
AcDbArc
 50
21.9165463218
 51
28.3421855011
  0
ARC
  5
2DC
100
AcDbEntity
  8
RACCORDO
100
AcDbCircle
 62
7
  6
CONTINUOUS
 10
15.6462928056
 20
-27.997364604
 40
0.3001330018
100
AcDbArc
 50
63.441293895
 51
113.7337834892
  0
ARC
  5
2DD
100
AcDbEntity
  8
RACCORDO
100
AcDbCircle
 62
7
  6
CONTINUOUS
 10
-0.2636097711
 20
-20.0424133156
 40
0.3001330018
100
AcDbArc
 50
63.441293895
 51
113.7337834892
  0
ARC
  5
2DE
100
AcDbEntity
  8
RACCORDO
100
AcDbCircle
 62
7
  6
CONTINUOUS
 10
-16.1735123477
 20
-12.0874620273
 40
0.3001330018
100
AcDbArc
 50
63.441293895
 51
113.7337834892
  0
ARC
  5
2DF
100
AcDbEntity
  8
0
100
AcDbCircle
 62
7
  6
CONTINUOUS
 10
36.9788970234
 20
-45.3010736584
 40
0.1439504105
100
AcDbArc
 50
287.5541496646
 51
295.8676366802
  0
ARC
  5
2E0
100
AcDbEntity
  8
RACCORDO
100
AcDbCircle
 62
253
  6
CONTINUOUS
 10
19.4800182506
 20
-30.2749197344
 40
0.1420166256
100
AcDbArc
 50
300.7469346347
 51
311.7337707778
  0
ARC
  5
2E1
100
AcDbEntity
  8
RACCORDO
100
AcDbCircle
 62
253
  6
CONTINUOUS
 10
3.5701156739
 20
-22.3199684461
 40
0.1420166256
100
AcDbArc
 50
300.7469346347
 51
311.7337707778
  0
ARC
  5
2E2
100
AcDbEntity
  8
RACCORDO
100
AcDbCircle
 62
253
  6
CONTINUOUS
 10
-12.3397869027
 20
-14.3650171577
 40
0.1420166256
100
AcDbArc
 50
300.7469346347
 51
311.7337707777
  0
ARC
  5
2E3
100
AcDbEntity
  8
RACCORDO
100
AcDbCircle
 62
253
  6
CONTINUOUS
 10
-28.2496894794
 20
-6.4100658694
 40
0.1420166256
100
AcDbArc
 50
300.7469346347
 51
311.7337707778
  0
ARC
  5
2E4
100
AcDbEntity
  8
RACCORDO
100
AcDbCircle
 62
253
  6
CONTINUOUS
 10
35.3899208273
 20
-38.2298710228
 40
0.1420166256
100
AcDbArc
 50
300.7469346347
 51
311.7337707778
  0
ARC
  5
2E5
100
AcDbEntity
  8
RACCORDO
100
AcDbCircle
 62
253
  6
CONTINUOUS
 10
-20.3626523646
 20
46.6934293325
 40
69.8588607993
100
AcDbArc
 50
241.2861990762
 51
241.6738513217
  0
ARC
  5
2E6
100
AcDbEntity
  8
RACCORDO
100
AcDbCircle
 62
253
  6
CONTINUOUS
 10
-3.7221858639
 20
62.1605446053
 40
52.1369323894
100
AcDbArc
 50
176.7250856595
 51
177.0608274995
  0
ARC
  5
2E7
100
AcDbEntity
  8
RACCORDO
100
AcDbCircle
 62
253
  6
CONTINUOUS
 10
-37.3341935203
 20
15.7347766026
 40
34.5534625459
100
AcDbArc
 50
240.3067292518
 51
241.3043489261
  0
ARC
  5
2E8
100
AcDbEntity
  8
RACCORDO
100
AcDbCircle
 62
253
  6
CONTINUOUS
 10
-53.7631343186
 20
65.0239782651
 40
2.0141254605
100
AcDbArc
 50
175.4511012473
 51
176.727139272
  0
ARC
  5
2E9
100
AcDbEntity
  8
RACCORDO
100
AcDbCircle
 62
253
  6
CONTINUOUS
 10
-44.0554550772
 20
38.9066334838
 40
1.1906488618
100
AcDbArc
 50
291.7013723766
 51
294.9800885585
  0
ARC
  5
2EA
100
AcDbEntity
  8
0
100
AcDbCircle
 62
7
  6
CONTINUOUS
 10
141.9035592115
 20
-78.620052557
 40
114.0874846609
100
AcDbArc
 50
161.6664416019
 51
161.9678383157
  0
ARC
  5
2EB
100
AcDbEntity
  8
0
100
AcDbCircle
 62
7
  6
CONTINUOUS
 10
144.0688076011
 20
-67.9358993643
 40
111.4375029018
100
AcDbArc
 50
167.8869529841
 51
168.0288751822
  0
ARC
  5
2EC
100
AcDbEntity
  8
0
100
AcDbCircle
 62
7
  6
CONTINUOUS
 10
141.1363102928
 20
-71.0708035965
 40
109.7506012612
100
AcDbArc
 50
165.7591343179
 51
165.8933162537
  0
ARC
  5
2ED
100
AcDbEntity
  8
0
100
AcDbCircle
 62
7
  6
CONTINUOUS
 10
142.0268942713
 20
-45.1398580326
 40
109.328567339
100
AcDbArc
 50
179.0040186188
 51
179.193093961
  0
ARC
  5
2EE
100
AcDbEntity
  8
0
100
AcDbCircle
 62
7
  6
CONTINUOUS
 10
141.7429115708
 20
-45.1365432416
 40
109.0445661209
100
AcDbArc
 50
179.1927341532
 51
179.6029056662
  0
ARC
  5
2EF
100
AcDbEntity
  8
0
100
AcDbCircle
 62
7
  6
CONTINUOUS
 10
141.3505764696
 20
-45.1552357185
 40
108.6947208886
100
AcDbArc
 50
178.9212839238
 51
179.7418002643
  0
ARC
  5
2F0
100
AcDbEntity
  8
0
100
AcDbCircle
 62
7
  6
CONTINUOUS
 10
140.8356623182
 20
-67.2824423867
 40
108.1763039299
100
AcDbArc
 50
167.6654087686
 51
168.1016359572
  0
ARC
  5
2F1
100
AcDbEntity
  8
0
100
AcDbCircle
 62
7
  6
CONTINUOUS
 10
139.4461061323
 20
-46.9572112575
 40
107.2281215588
100
AcDbArc
 50
178.236441747
 51
178.3787792653
  0
ARC
  5
2F2
100
AcDbEntity
  8
0
100
AcDbCircle
 62
7
  6
CONTINUOUS
 10
139.2570745073
 20
-46.94832729
 40
107.0389061106
100
AcDbArc
 50
177.5381322343
 51
178.2380809369
  0
ARC
  5
2F3
100
AcDbEntity
  8
0
100
AcDbCircle
 62
7
  6
CONTINUOUS
 10
138.9419158435
 20
-45.1145515476
 40
106.2434852805
100
AcDbArc
 50
179.6042963431
 51
179.7463201293
  0
ARC
  5
2F4
100
AcDbEntity
  8
0
100
AcDbCircle
 62
7
  6
CONTINUOUS
 10
133.4974694396
 20
-69.4038399242
 40
105.8889008617
100
AcDbArc
 50
165.0322331128
 51
165.1629985856
  0
ARC
  5
2F5
100
AcDbEntity
  8
0
100
AcDbCircle
 62
7
  6
CONTINUOUS
 10
138.0826436235
 20
-46.9186245018
 40
105.8641131458
100
AcDbArc
 50
178.3787773243
 51
178.5238134772
  0
ARC
  5
2F6
100
AcDbEntity
  8
0
100
AcDbCircle
 62
7
  6
CONTINUOUS
 10
133.48219107
 20
-69.3651124271
 40
105.8285979301
100
AcDbArc
 50
165.0333695662
 51
165.1642245057
  0
ARC
  5
2F7
100
AcDbEntity
  8
0
100
AcDbCircle
 62
7
  6
CONTINUOUS
 10
132.820689735
 20
-69.2229069493
 40
105.1883528547
100
AcDbArc
 50
164.9014239832
 51
165.0322322775
  0
ARC
  5
2F8
100
AcDbEntity
  8
0
100
AcDbCircle
 62
7
  6
CONTINUOUS
 10
132.5688208076
 20
-69.1206822622
 40
104.883086811
100
AcDbArc
 50
164.8082496134
 51
165.0335085753
  0
ARC
  5
2F9
100
AcDbEntity
  8
0
100
AcDbCircle
 62
7
  6
CONTINUOUS
 10
137.4614552925
 20
-66.5172278417
 40
104.6795643812
100
AcDbArc
 50
167.7227336416
 51
167.8872762812
  0
ARC
  5
2FA
100
AcDbEntity
  8
0
100
AcDbCircle
 62
7
  6
CONTINUOUS
 10
132.2894770186
 20
-69.0531484763
 40
104.5957664424
100
AcDbArc
 50
165.1621267808
 51
165.8362111348
  0
ARC
  5
2FB
100
AcDbEntity
  8
0
100
AcDbCircle
 62
7
  6
CONTINUOUS
 10
136.7442788027
 20
-46.8841383796
 40
104.5253040906
100
AcDbArc
 50
178.523811525
 51
178.671581961
  0
ARC
  5
2FC
100
AcDbEntity
  8
0
100
AcDbCircle
 62
7
  6
CONTINUOUS
 10
132.1564691638
 20
-69.0437057687
 40
104.5003833566
100
AcDbArc
 50
164.7705864737
 51
164.9014231498
  0
ARC
  5
2FD
100
AcDbEntity
  8
0
100
AcDbCircle
 62
7
  6
CONTINUOUS
 10
131.9724169412
 20
-69.0050527944
 40
104.3125789973
100
AcDbArc
 50
165.1602360584
 51
165.9737463072
  0
ARC
  5
2FE
100
AcDbEntity
  8
0
100
AcDbCircle
 62
7
  6
CONTINUOUS
 10
135.2196787661
 20
-69.5679213128
 40
103.6460798042
100
AcDbArc
 50
165.6354461743
 51
165.7598058818
  0
ARC
  5
2FF
100
AcDbEntity
  8
0
100
AcDbCircle
 62
7
  6
CONTINUOUS
 10
131.0139017425
 20
-64.7905114919
 40
102.8165774108
100
AcDbArc
 50
167.3086186861
 51
167.6922693226
  0
ARC
  5
300
100
AcDbEntity
  8
0
100
AcDbCircle
 62
7
  6
CONTINUOUS
 10
130.4865377405
 20
-64.670856817
 40
102.2758101118
100
AcDbArc
 50
166.8363496301
 51
167.3091058654
  0
ARC
  5
301
100
AcDbEntity
  8
0
100
AcDbCircle
 62
7
  6
CONTINUOUS
 10
134.4837055429
 20
-46.7483153129
 40
102.2613515429
100
AcDbArc
 50
177.3914812186
 51
177.5352130228
  0
ARC
  5
302
100
AcDbEntity
  8
0
100
AcDbCircle
 62
7
  6
CONTINUOUS
 10
129.3509539773
 20
-68.3079079022
 40
101.5642176239
100
AcDbArc
 50
165.8382107363
 51
165.9794316077
  0
ARC
  5
303
100
AcDbEntity
  8
0
100
AcDbCircle
 62
7
  6
CONTINUOUS
 10
125.1441573429
 20
-66.9833361137
 40
93.2443398755
100
AcDbArc
 50
165.3476713331
 51
165.6379903712
  0
ARC
  5
304
100
AcDbEntity
  8
0
100
AcDbCircle
 62
7
  6
CONTINUOUS
 10
147.2893476369
 20
-30.8965965432
 40
113.8537967614
100
AcDbArc
 50
186.0642980588
 51
187.063476287
  0
ARC
  5
305
100
AcDbEntity
  8
0
100
AcDbCircle
 62
7
  6
CONTINUOUS
 10
144.7829248902
 20
-15.5561741935
 40
112.9266871544
100
AcDbArc
 50
194.5260353905
 51
194.8424386979
  0
ARC
  5
306
100
AcDbEntity
  8
0
100
AcDbCircle
 62
7
  6
CONTINUOUS
 10
145.4771473224
 20
-31.1161590932
 40
112.0730056954
100
AcDbArc
 50
186.0590528285
 51
186.7791440489
  0
ARC
  5
307
100
AcDbEntity
  8
0
100
AcDbCircle
 62
7
  6
CONTINUOUS
 10
147.528659518
 20
-40.1524848805
 40
111.0263364256
100
AcDbArc
 50
182.9212860649
 51
183.0923235314
  0
ARC
  5
308
100
AcDbEntity
  8
0
100
AcDbCircle
 62
7
  6
CONTINUOUS
 10
142.5975071986
 20
-16.1428522997
 40
110.7104081186
100
AcDbArc
 50
194.3616455305
 51
194.8437482349
  0
ARC
  5
309
100
AcDbEntity
  8
0
100
AcDbCircle
 62
7
  6
CONTINUOUS
 10
142.4584357372
 20
-38.4343028019
 40
110.5564991434
100
AcDbArc
 50
182.1962978619
 51
182.7650984286
  0
ARC
  5
30A
100
AcDbEntity
  8
0
100
AcDbCircle
 62
7
  6
CONTINUOUS
 10
141.8325496063
 20
-38.4855582328
 40
109.9723456924
100
AcDbArc
 50
181.7720814901
 51
182.7643396126
  0
ARC
  5
30B
100
AcDbEntity
  8
0
100
AcDbCircle
 62
7
  6
CONTINUOUS
 10
141.1352820977
 20
-38.4979439287
 40
109.2318159071
100
AcDbArc
 50
182.7652367353
 51
182.9110845931
  0
ARC
  5
30C
100
AcDbEntity
  8
0
100
AcDbCircle
 62
7
  6
CONTINUOUS
 10
140.6244449595
 20
-38.3145243992
 40
109.1913358303
100
AcDbArc
 50
182.0436094306
 51
183.0540167126
  0
ARC
  5
30D
100
AcDbEntity
  8
0
100
AcDbCircle
 62
7
  6
CONTINUOUS
 10
140.6133393195
 20
-38.5459940977
 40
108.7516359161
100
AcDbArc
 50
182.7635149198
 51
183.0570808117
  0
ARC
  5
30E
100
AcDbEntity
  8
0
100
AcDbCircle
 62
7
  6
CONTINUOUS
 10
140.042226308
 20
-38.5535304152
 40
108.1373476267
100
AcDbArc
 50
182.9110831862
 51
183.0591860389
  0
ARC
  5
30F
100
AcDbEntity
  8
0
100
AcDbCircle
 62
7
  6
CONTINUOUS
 10
138.7924795403
 20
-38.5723832849
 40
106.887944315
100
AcDbArc
 50
181.7652856124
 51
182.1976445336
  0
ARC
  5
310
100
AcDbEntity
  8
0
100
AcDbCircle
 62
7
  6
CONTINUOUS
 10
138.4499708365
 20
-17.2002077909
 40
106.3838174746
100
AcDbArc
 50
194.3586368472
 51
194.5243932261
  0
ARC
  5
311
100
AcDbEntity
  8
0
100
AcDbCircle
 62
7
  6
CONTINUOUS
 10
136.9169326207
 20
-38.447193953
 40
105.4814512585
100
AcDbArc
 50
181.7521112938
 51
182.0434058875
  0
ARC
  5
312
100
AcDbEntity
  8
0
100
AcDbCircle
 62
7
  6
CONTINUOUS
 10
138.9244700772
 20
-40.4087486239
 40
102.8823005169
100
AcDbArc
 50
182.3403366634
 51
182.90661297
  0
ARC
  5
313
100
AcDbEntity
  8
0
100
AcDbCircle
 62
7
  6
CONTINUOUS
 10
131.3198093813
 20
-40.9179674123
 40
94.8133490586
100
AcDbArc
 50
182.2362229719
 51
182.6236970271
  0
ARC
  5
314
100
AcDbEntity
  8
0
100
AcDbCircle
 62
7
  6
CONTINUOUS
 10
131.1289535458
 20
-40.9484289472
 40
94.664719331
100
AcDbArc
 50
182.2132587731
 51
182.6222358514
  0
ARC
  5
315
100
AcDbEntity
  8
0
100
AcDbCircle
 62
7
  6
CONTINUOUS
 10
125.6509108309
 20
-40.9604361354
 40
89.5972850101
100
AcDbArc
 50
181.9495121468
 51
182.3344543351
  0
ARC
  5
316
100
AcDbEntity
  8
0
100
AcDbCircle
 62
7
  6
CONTINUOUS
 10
156.6730072181
 20
-74.954352545
 40
125.7653237931
100
AcDbArc
 50
166.1264904394
 51
166.2400919052
  0
ARC
  5
317
100
AcDbEntity
  8
0
100
AcDbCircle
 62
7
  6
CONTINUOUS
 10
151.8153535987
 20
-82.6395639928
 40
124.3394188138
100
AcDbArc
 50
161.7257177788
 51
161.9277875215
  0
ARC
  5
318
100
AcDbEntity
  8
0
100
AcDbCircle
 62
7
  6
CONTINUOUS
 10
156.2266428648
 20
-71.6104631238
 40
124.1293238933
100
AcDbArc
 50
167.7692867974
 51
167.9719964065
  0
ARC
  5
319
100
AcDbEntity
  8
0
100
AcDbCircle
 62
7
  6
CONTINUOUS
 10
151.6376927956
 20
-82.5438292726
 40
124.1070242931
100
AcDbArc
 50
161.8273331893
 51
162.0312979217
  0
ARC
  5
31A
100
AcDbEntity
  8
0
100
AcDbCircle
 62
7
  6
CONTINUOUS
 10
156.123879222
 20
-71.5548889183
 40
123.9800787446
100
AcDbArc
 50
167.8041909461
 51
167.9735144937
  0
ARC
  5
31B
100
AcDbEntity
  8
0
100
AcDbCircle
 62
7
  6
CONTINUOUS
 10
153.9245716498
 20
-74.2813202456
 40
122.935682376
100
AcDbArc
 50
166.2400876638
 51
166.3574203246
  0
ARC
  5
31C
100
AcDbEntity
  8
0
100
AcDbCircle
 62
7
  6
CONTINUOUS
 10
148.7628576225
 20
-80.85772979
 40
121.3025502397
100
AcDbArc
 50
162.0616295535
 51
162.2555516809
  0
ARC
  5
31D
100
AcDbEntity
  8
0
100
AcDbCircle
 62
7
  6
CONTINUOUS
 10
148.4712061446
 20
-81.5542499788
 40
120.8235695521
100
AcDbArc
 50
161.9251155277
 51
162.3504623887
  0
ARC
  5
31E
100
AcDbEntity
  8
0
100
AcDbCircle
 62
7
  6
CONTINUOUS
 10
151.2703655436
 20
-73.6371211427
 40
120.2044184674
100
AcDbArc
 50
166.3574160436
 51
166.478556933
  0
ARC
  5
31F
100
AcDbEntity
  8
0
100
AcDbCircle
 62
7
  6
CONTINUOUS
 10
151.1580818076
 20
-73.5870491465
 40
120.0834320179
100
AcDbArc
 50
165.8943770173
 51
166.1289005367
  0
ARC
  5
320
100
AcDbEntity
  8
0
100
AcDbCircle
 62
7
  6
CONTINUOUS
 10
171.2549154629
 20
-0.9668242732
 40
144.8458536385
100
AcDbArc
 50
197.1542955069
 51
197.2741498882
  0
ARC
  5
321
100
AcDbEntity
  8
0
100
AcDbCircle
 62
7
  6
CONTINUOUS
 10
170.5115574757
 20
-1.1959156119
 40
144.0679951583
100
AcDbArc
 50
196.9934230857
 51
197.1544348805
  0
ARC
  5
322
100
AcDbEntity
  8
0
100
AcDbCircle
 62
7
  6
CONTINUOUS
 10
164.3151544984
 20
-5.7802314451
 40
139.1424822717
100
AcDbArc
 50
195.5001778001
 51
195.7438063724
  0
ARC
  5
323
100
AcDbEntity
  8
0
100
AcDbCircle
 62
7
  6
CONTINUOUS
 10
164.212145482
 20
-5.8083699084
 40
139.0356999712
100
AcDbArc
 50
195.2078829486
 51
195.5003480829
  0
ARC
  5
324
100
AcDbEntity
  8
0
100
AcDbCircle
 62
7
  6
CONTINUOUS
 10
165.4410914284
 20
-3.2469753669
 40
138.3153707254
100
AcDbArc
 50
196.4038738476
 51
196.9718594472
  0
ARC
  5
325
100
AcDbEntity
  8
0
100
AcDbCircle
 62
7
  6
CONTINUOUS
 10
164.8168805714
 20
-3.4214888679
 40
137.6205612877
100
AcDbArc
 50
196.4040807587
 51
196.8612950662
  0
ARC
  5
326
100
AcDbEntity
  8
0
100
AcDbCircle
 62
7
  6
CONTINUOUS
 10
160.7179838596
 20
-6.7578691739
 40
135.4148279526
100
AcDbArc
 50
194.9375081486
 51
195.2080298048
  0
ARC
  5
327
100
AcDbEntity
  8
0
100
AcDbCircle
 62
7
  6
CONTINUOUS
 10
166.1696342401
 20
-9.7755895862
 40
135.0810757906
100
AcDbArc
 50
195.5699364933
 51
195.7095195066
  0
ARC
  5
328
100
AcDbEntity
  8
0
100
AcDbCircle
 62
7
  6
CONTINUOUS
 10
164.8699708508
 20
-10.1527024174
 40
133.7745485632
100
AcDbArc
 50
195.4278759444
 51
195.7085882561
  0
ARC
  5
329
100
AcDbEntity
  8
0
100
AcDbCircle
 62
7
  6
CONTINUOUS
 10
159.7164485406
 20
-10.6990223206
 40
133.057027904
100
AcDbArc
 50
193.7020732451
 51
193.9481958272
  0
ARC
  5
32A
100
AcDbEntity
  8
0
100
AcDbCircle
 62
7
  6
CONTINUOUS
 10
163.5947984662
 20
-10.4930492975
 40
132.4081508571
100
AcDbArc
 50
195.4286729477
 51
195.5699328301
  0
ARC
  5
32B
100
AcDbEntity
  8
0
100
AcDbCircle
 62
7
  6
CONTINUOUS
 10
163.4058826888
 20
-13.3524953388
 40
131.9097190061
100
AcDbArc
 50
194.1521970449
 51
194.3956131027
  0
ARC
  5
32C
100
AcDbEntity
  8
0
100
AcDbCircle
 62
7
  6
CONTINUOUS
 10
156.1559975802
 20
-7.9741084841
 40
130.69349803
100
AcDbArc
 50
194.6611014085
 51
194.9378511832
  0
ARC
  5
32D
100
AcDbEntity
  8
0
100
AcDbCircle
 62
7
  6
CONTINUOUS
 10
156.9685886308
 20
-11.3893976293
 40
130.2701469198
100
AcDbArc
 50
193.1303913635
 51
193.9860866142
  0
ARC
  5
32E
100
AcDbEntity
  8
0
100
AcDbCircle
 62
7
  6
CONTINUOUS
 10
161.1228432829
 20
-11.1884605509
 40
129.8869069559
100
AcDbArc
 50
195.2843429659
 51
195.4271676966
  0
ARC
  5
32F
100
AcDbEntity
  8
0
100
AcDbCircle
 62
7
  6
CONTINUOUS
 10
161.1364117074
 20
-11.1715341829
 40
129.8578553457
100
AcDbArc
 50
195.2857976331
 51
195.4286693059
  0
ARC
  5
330
100
AcDbEntity
  8
0
100
AcDbCircle
 62
7
  6
CONTINUOUS
 10
153.6140345578
 20
-12.1750906044
 40
126.7786308785
100
AcDbArc
 50
193.1240043932
 51
193.6092161965
  0
ARC
  5
331
100
AcDbEntity
  8
0
100
AcDbCircle
 62
7
  6
CONTINUOUS
 10
158.0387938977
 20
-12.0309342573
 40
126.6898579325
100
AcDbArc
 50
195.1392265776
 51
195.2844829863
  0
ARC
  5
332
100
AcDbEntity
  8
0
100
AcDbCircle
 62
7
  6
CONTINUOUS
 10
152.2626396837
 20
-8.994376919
 40
126.6686774585
100
AcDbArc
 50
194.5189450651
 51
194.6603619682
  0
ARC
  5
333
100
AcDbEntity
  8
0
100
AcDbCircle
 62
7
  6
CONTINUOUS
 10
158.0546703459
 20
-12.0134598624
 40
126.663177182
100
AcDbArc
 50
195.140643378
 51
195.2859382868
  0
ARC
  5
334
100
AcDbEntity
  8
0
100
AcDbCircle
 62
7
  6
CONTINUOUS
 10
154.4362489567
 20
-13.0056351595
 40
122.9577845275
100
AcDbArc
 50
194.9907731627
 51
195.1392206389
  0
ARC
  5
335
100
AcDbEntity
  8
0
100
AcDbCircle
 62
7
  6
CONTINUOUS
 10
152.7490854628
 20
-13.4467079648
 40
121.1674128394
100
AcDbArc
 50
194.8417083575
 51
195.1417146276
  0
ARC
  5
336
100
AcDbEntity
  8
0
100
AcDbCircle
 62
7
  6
CONTINUOUS
 10
153.8756885554
 20
-30.1296794873
 40
120.5292772496
100
AcDbArc
 50
186.9102689068
 51
187.0478995264
  0
ARC
  5
337
100
AcDbEntity
  8
0
100
AcDbCircle
 62
7
  6
CONTINUOUS
 10
153.4752147548
 20
-30.1600117314
 40
120.0833187373
100
AcDbArc
 50
187.0493175234
 51
187.1884104997
  0
ARC
  5
338
100
AcDbEntity
  8
0
100
AcDbCircle
 62
7
  6
CONTINUOUS
 10
153.3088593551
 20
-30.199994067
 40
119.9581035217
100
AcDbArc
 50
187.0477878278
 51
187.3271059479
  0
ARC
  5
339
100
AcDbEntity
  8
0
100
AcDbCircle
 62
7
  6
CONTINUOUS
 10
153.0889071451
 20
-30.2087356013
 40
119.6939505505
100
AcDbArc
 50
187.1884099037
 51
187.3288858333
  0
ARC
  5
33A
100
AcDbEntity
  8
0
100
AcDbCircle
 62
7
  6
CONTINUOUS
 10
153.0354420035
 20
-30.2310229829
 40
119.6829413036
100
AcDbArc
 50
186.7727997299
 51
186.9105019289
  0
ARC
  5
33B
100
AcDbEntity
  8
0
100
AcDbCircle
 62
7
  6
CONTINUOUS
 10
151.0644638393
 20
-13.9085333926
 40
119.4672029003
100
AcDbArc
 50
194.8392675595
 51
194.9907671025
  0
ARC
  5
33C
100
AcDbEntity
  8
0
100
AcDbCircle
 62
7
  6
CONTINUOUS
 10
150.9392359476
 20
-17.3932857175
 40
118.8396328467
100
AcDbArc
 50
193.1059375393
 51
193.2719353773
  0
ARC
  5
33D
100
AcDbEntity
  8
0
100
AcDbCircle
 62
7
  6
CONTINUOUS
 10
151.0702070204
 20
-32.762506279
 40
117.8275652147
100
AcDbArc
 50
185.5659090189
 51
186.1032217117
  0
ARC
  5
33E
100
AcDbEntity
  8
0
100
AcDbCircle
 62
7
  6
CONTINUOUS
 10
153.1230918917
 20
-39.8697975022
 40
116.6714774448
100
AcDbArc
 50
183.1707320402
 51
183.3290962584
  0
ARC
  5
33F
100
AcDbEntity
  8
0
100
AcDbCircle
 62
7
  6
CONTINUOUS
 10
149.2984389015
 20
-32.9334685273
 40
116.0475687368
100
AcDbArc
 50
185.2990411233
 51
185.5667428539
  0
ARC
  5
340
100
AcDbEntity
  8
0
100
AcDbCircle
 62
7
  6
CONTINUOUS
 10
152.3446026436
 20
-39.8919153245
 40
115.8493235222
100
AcDbArc
 50
183.0925183685
 51
183.3312562397
  0
ARC
  5
341
100
AcDbEntity
  8
0
100
AcDbCircle
 62
7
  6
CONTINUOUS
 10
148.3176896474
 20
-40.1348299511
 40
111.8587722276
100
AcDbArc
 50
182.845649519
 51
183.1713298712
  0
ARC
  5
342
100
AcDbEntity
  8
0
100
AcDbCircle
 62
7
  6
CONTINUOUS
 10
100.3727200595
 20
83.0976824799
 40
144.5470098679
100
AcDbArc
 50
244.1654510978
 51
244.3187240666
  0
SPLINE
  5
343
100
AcDbEntity
  8
SUPERFICI
100
AcDbSpline
 62
7
  6
CONTINUOUS
 70
0
 71
3
 72
10
 73
6
 74
4
 42
0.0000001
 43
0.0000001
 44
0.0000000001
 12
0.0
 22
4.3940700466
 32
0.0
 13
-3.9301757288
 23
1.9650878644
 33
0.0
 40
0.0
 40
0.0
 40
0.0
 40
0.0
 40
0.3342904765
 40
0.6865843886
 40
1.0
 40
1.0
 40
1.0
 40
1.0
 10
56.8399189753
 20
12.5814235847
 30
0.0
 10
56.8399189753
 20
13.0710555079
 30
0.0
 10
56.6165494013
 20
14.0788764463
 30
0.0
 10
55.8814728633
 20
15.3631327902
 30
0.0
 10
55.1291914414
 20
16.034863563
 30
0.0
 10
54.7185986317
 20
16.2401599679
 30
0.0
 11
56.8399189753
 21
12.5814235847
 31
0.0
 11
56.5557159388
 21
14.0225632087
 31
0.0
 11
55.7792588035
 21
15.3617536706
 31
0.0
 11
54.7185986317
 21
16.2401599679
 31
0.0
  0
SPLINE
  5
344
100
AcDbEntity
  8
SUPERFICI
100
AcDbSpline
 62
7
  6
CONTINUOUS
 70
0
 71
3
 72
9
 73
5
 74
3
 42
0.0000001
 43
0.0000001
 44
0.0000000001
 12
-1.2877596021
 22
0.6438798011
 32
0.0
 13
-1.2619714153
 23
-0.7644736371
 33
0.0
 40
0.0
 40
0.0
 40
0.0
 40
0.0
 40
0.747489447
 40
1.0
 40
1.0
 40
1.0
 40
1.0
 10
-50.6403117651
 20
68.9196151663
 30
0.0
 10
-50.9611740027
 20
69.0800462851
 30
0.0
 10
-51.4806713717
 20
69.2176772573
 30
0.0
 10
-51.9342353248
 20
69.0261166787
 30
0.0
 10
-52.0404556914
 20
68.9617707918
 30
0.0
 11
-50.6403117651
 21
68.9196151663
 31
0.0
 11
-51.7009719368
 21
69.1018690408
 31
0.0
 11
-52.0404556914
 21
68.9617707918
 31
0.0
  0
SPLINE
  5
345
100
AcDbEntity
  8
0
100
AcDbSpline
 62
7
  6
CONTINUOUS
 70
0
 71
3
 72
9
 73
5
 74
3
 42
0.0000001
 43
0.0000001
 44
0.0000000001
 12
-0.0874627015
 22
-0.0441135285
 32
0.0
 13
-0.0914616769
 23
0.0394029949
 33
0.0
 40
0.0
 40
0.0
 40
0.0
 40
0.0
 40
0.4070551665
 40
1.0
 40
1.0
 40
1.0
 40
1.0
 10
37.3513494632
 20
-45.8158569569
 30
0.0
 10
37.3394820817
 20
-45.8218425035
 30
0.0
 10
37.308686376
 20
-45.8320010269
 30
0.0
 10
37.2759283086
 20
-45.8244187467
 30
0.0
 10
37.2578510657
 20
-45.8166308127
 30
0.0
 11
37.3513494632
 21
-45.8158569569
 31
0.0
 11
37.3140858281
 21
-45.8271731193
 31
0.0
 11
37.2578510657
 21
-45.8166308127
 31
0.0
  0
SPLINE
  5
346
100
AcDbEntity
  8
0
100
AcDbSpline
 62
7
  6
CONTINUOUS
 70
0
 71
3
 72
8
 73
4
 74
2
 42
0.0000001
 43
0.0000001
 44
0.0000000001
 12
-0.0332379947
 22
0.0143194022
 32
0.0
 13
-0.0287968232
 23
0.0197048076
 33
0.0
 40
0.0
 40
0.0
 40
0.0
 40
0.0
 40
1.0
 40
1.0
 40
1.0
 40
1.0
 10
37.2578510657
 20
-45.8166308127
 30
0.0
 10
37.2467717341
 20
-45.8118576786
 30
0.0
 10
37.2361981852
 20
-45.805847941
 30
0.0
 10
37.2265992441
 20
-45.7992796718
 30
0.0
 11
37.2578510657
 21
-45.8166308127
 31
0.0
 11
37.2265992441
 21
-45.7992796718
 31
0.0
  0
SPLINE
  5
347
100
AcDbEntity
  8
0
100
AcDbSpline
 62
7
  6
CONTINUOUS
 70
0
 71
3
 72
9
 73
5
 74
3
 42
0.0000001
 43
0.0000001
 44
0.0000000001
 12
0.0532584393
 22
0.0259017165
 32
0.0
 13
0.0354182842
 23
0.0466858294
 33
0.0
 40
0.0
 40
0.0
 40
0.0
 40
0.0
 40
0.5328467667
 40
1.0
 40
1.0
 40
1.0
 40
1.0
 10
37.0417016672
 20
-45.4306008656
 30
0.0
 10
37.0511611962
 20
-45.426000317
 30
0.0
 10
37.0677983867
 20
-45.4153793483
 30
0.0
 10
37.0810099748
 20
-45.4010607146
 30
0.0
 10
37.0865252301
 20
-45.3937909025
 30
0.0
 11
37.0417016672
 21
-45.4306008656
 31
0.0
 11
37.0679187261
 21
-45.4136317573
 31
0.0
 11
37.0865252301
 21
-45.3937909025
 31
0.0
  0
SPLINE
  5
348
100
AcDbEntity
  8
0
100
AcDbSpline
 62
7
  6
CONTINUOUS
 70
0
 71
3
 72
10
 73
6
 74
4
 42
0.0000001
 43
0.0000001
 44
0.0000000001
 12
0.1974310022
 22
0.260239317
 32
0.0
 13
-0.0904640446
 23
0.3145906149
 33
0.0
 40
0.0
 40
0.0
 40
0.0
 40
0.0
 40
0.1831546711
 40
0.5321063014
 40
1.0
 40
1.0
 40
1.0
 40
1.0
 10
37.0865252301
 20
-45.3937909025
 30
0.0
 10
37.0985787002
 20
-45.377902887
 30
0.0
 10
37.1244858892
 20
-45.3236849891
 30
0.0
 10
37.1384964424
 20
-45.2152304637
 30
0.0
 10
37.1250971396
 20
-45.1264504241
 30
0.0
 10
37.1109879542
 20
-45.0773854353
 30
0.0
 11
37.0865252301
 21
-45.3937909025
 31
0.0
 11
37.1142273941
 21
-45.3401648757
 31
0.0
 11
37.1322961384
 21
-45.2280956925
 31
0.0
 11
37.1109879542
 21
-45.0773854353
 31
0.0
  0
SPLINE
  5
349
100
AcDbEntity
  8
0
100
AcDbSpline
 62
7
  6
CONTINUOUS
 70
0
 71
3
 72
11
 73
7
 74
5
 42
0.0000001
 43
0.0000001
 44
0.0000000001
 12
-0.2820433216
 22
0.5223645631
 32
0.0
 13
-0.5641975014
 23
0.1794368976
 33
0.0
 40
0.0
 40
0.0
 40
0.0
 40
0.0
 40
0.1099443057
 40
0.4536464219
 40
0.7819807484
 40
1.0
 40
1.0
 40
1.0
 40
1.0
 10
37.0649078301
 20
-44.9641095193
 30
0.0
 10
37.0545714777
 20
-44.9449658495
 30
0.0
 10
37.0072729677
 20
-44.8686141633
 30
0.0
 10
36.8934039209
 20
-44.7606665446
 30
0.0
 10
36.7403052949
 20
-44.6725504961
 30
0.0
 10
36.638689514
 20
-44.6363223254
 30
0.0
 10
36.5976875417
 20
-44.6232820927
 30
0.0
 11
37.0649078301
 21
-44.9641095193
 31
0.0
 11
37.0305433563
 21
-44.9087635195
 31
0.0
 11
36.8865265643
 21
-44.7654081687
 31
0.0
 11
36.718571746
 21
-44.668079757
 31
0.0
 11
36.5976875417
 21
-44.6232820927
 31
0.0
  0
SPLINE
  5
34A
100
AcDbEntity
  8
0
100
AcDbSpline
 62
7
  6
CONTINUOUS
 70
0
 71
3
 72
8
 73
4
 74
2
 42
0.0000001
 43
0.0000001
 44
0.0000000001
 12
-0.06258297
 22
0.019903835
 32
0.0
 13
-0.0629845896
 23
0.0182680508
 33
0.0
 40
0.0
 40
0.0
 40
0.0
 40
0.0
 40
1.0
 40
1.0
 40
1.0
 40
1.0
 10
36.5976875417
 20
-44.6232820927
 30
0.0
 10
36.5768265517
 20
-44.616647481
 30
0.0
 10
36.5558483564
 20
-44.6103795174
 30
0.0
 10
36.5348534932
 20
-44.6042901672
 30
0.0
 11
36.5976875417
 21
-44.6232820927
 31
0.0
 11
36.5348534932
 21
-44.6042901672
 31
0.0
  0
SPLINE
  5
34B
100
AcDbEntity
  8
DRAFT
100
AcDbSpline
 62
7
  6
CONTINUOUS
 70
0
 71
3
 72
10
 73
6
 74
4
 42
0.0000001
 43
0.0000001
 44
0.0000000001
 12
0.0
 22
-0.4394070047
 32
0.0
 13
0.3930175729
 23
-0.1965087864
 33
0.0
 40
0.0
 40
0.0
 40
0.0
 40
0.0
 40
0.3342904765
 40
0.6865843886
 40
1.0
 40
1.0
 40
1.0
 40
1.0
 10
-41.6247003049
 20
0.1881609038
 30
0.0
 10
-41.6247003049
 20
0.1391977115
 30
0.0
 10
-41.6023633475
 20
0.0384156177
 30
0.0
 10
-41.5288556937
 20
-0.0900100167
 30
0.0
 10
-41.4536275515
 20
-0.157183094
 30
0.0
 10
-41.4125682706
 20
-0.1777127345
 30
0.0
 11
-41.6247003049
 21
0.1881609038
 31
0.0
 11
-41.5962800013
 21
0.0440469414
 31
0.0
 11
-41.5186342878
 21
-0.0898721048
 31
0.0
 11
-41.4125682706
 21
-0.1777127345
 31
0.0
  0
SPLINE
  5
34C
100
AcDbEntity
  8
RACCORDO
100
AcDbSpline
 62
7
  6
CONTINUOUS
 70
0
 71
3
 72
10
 73
6
 74
4
 42
0.0000001
 43
0.0000001
 44
0.0000000001
 12
0.2969078163
 22
-0.1484172521
 32
0.0
 13
0.0007561701
 23
-0.3322813075
 33
0.0
 40
0.0
 40
0.0
 40
0.0
 40
0.0
 40
0.2597309936
 40
0.7341910415
 40
1.0
 40
1.0
 40
1.0
 40
1.0
 10
19.5370069724
 20
-29.607309018
 30
0.0
 10
19.5627123598
 20
-29.6201585381
 30
0.0
 10
19.6305932094
 20
-29.6668615018
 30
0.0
 10
19.6910474733
 20
-29.7635943921
 30
0.0
 10
19.703021969
 20
-29.8459369838
 30
0.0
 10
19.7030889679
 20
-29.8753780999
 30
0.0
 11
19.5370069724
 21
-29.607309018
 31
0.0
 11
19.6077995805
 21
-29.6562455929
 31
0.0
 11
19.6901964694
 21
-29.7881873329
 31
0.0
 11
19.7030889679
 21
-29.8753780999
 31
0.0
  0
SPLINE
  5
34D
100
AcDbEntity
  8
RACCORDO
100
AcDbSpline
 62
7
  6
CONTINUOUS
 70
0
 71
3
 72
10
 73
6
 74
4
 42
0.0000001
 43
0.0000001
 44
0.0000000001
 12
0.2721277774
 22
0.1569085859
 32
0.0
 13
0.0005624008
 23
0.3144289199
 33
0.0
 40
0.0
 40
0.0
 40
0.0
 40
0.0
 40
0.2480317305
 40
0.7448406177
 40
1.0
 40
1.0
 40
1.0
 40
1.0
 10
19.5528796718
 20
-30.397851584
 30
0.0
 10
19.5753784463
 20
-30.3848788146
 30
0.0
 10
19.6382213232
 20
-30.3372197159
 30
0.0
 10
19.6926204862
 20
-30.2441472676
 30
0.0
 10
19.703040528
 20
-30.1650849987
 30
0.0
 10
19.703088362
 20
-30.1383418357
 30
0.0
 11
19.5528796718
 21
-30.397851584
 31
0.0
 11
19.6147562683
 21
-30.3507354689
 31
0.0
 11
19.6924588422
 21
-30.2176952737
 31
0.0
 11
19.703088362
 21
-30.1383418357
 31
0.0
  0
SPLINE
  5
34E
100
AcDbEntity
  8
RACCORDO
100
AcDbSpline
 62
7
  6
CONTINUOUS
 70
0
 71
3
 72
10
 73
6
 74
4
 42
0.0000001
 43
0.0000001
 44
0.0000000001
 12
0.2721277774
 22
0.1569085859
 32
0.0
 13
0.0005624008
 23
0.3144289199
 33
0.0
 40
0.0
 40
0.0
 40
0.0
 40
0.0
 40
0.2480317305
 40
0.7448406177
 40
1.0
 40
1.0
 40
1.0
 40
1.0
 10
3.6429770951
 20
-22.4429002956
 30
0.0
 10
3.6654758696
 20
-22.4299275263
 30
0.0
 10
3.7283187465
 20
-22.3822684275
 30
0.0
 10
3.7827179095
 20
-22.2891959792
 30
0.0
 10
3.7931379513
 20
-22.2101337104
 30
0.0
 10
3.7931857853
 20
-22.1833905474
 30
0.0
 11
3.6429770951
 21
-22.4429002956
 31
0.0
 11
3.7048536916
 21
-22.3957841805
 31
0.0
 11
3.7825562655
 21
-22.2627439854
 31
0.0
 11
3.7931857853
 21
-22.1833905474
 31
0.0
  0
SPLINE
  5
34F
100
AcDbEntity
  8
RACCORDO
100
AcDbSpline
 62
7
  6
CONTINUOUS
 70
0
 71
3
 72
10
 73
6
 74
4
 42
0.0000001
 43
0.0000001
 44
0.0000000001
 12
0.2969078163
 22
-0.1484172521
 32
0.0
 13
0.0007561701
 23
-0.3322813075
 33
0.0
 40
0.0
 40
0.0
 40
0.0
 40
0.0
 40
0.2597309936
 40
0.7341910415
 40
1.0
 40
1.0
 40
1.0
 40
1.0
 10
3.6271043957
 20
-21.6523577297
 30
0.0
 10
3.6528097831
 20
-21.6652072498
 30
0.0
 10
3.7206906327
 20
-21.7119102135
 30
0.0
 10
3.7811448966
 20
-21.8086431038
 30
0.0
 10
3.7931193923
 20
-21.8909856954
 30
0.0
 10
3.7931863912
 20
-21.9204268115
 30
0.0
 11
3.6271043957
 21
-21.6523577297
 31
0.0
 11
3.6978970038
 21
-21.7012943045
 31
0.0
 11
3.7802938927
 21
-21.8332360445
 31
0.0
 11
3.7931863912
 21
-21.9204268115
 31
0.0
  0
SPLINE
  5
350
100
AcDbEntity
  8
RACCORDO
100
AcDbSpline
 62
7
  6
CONTINUOUS
 70
0
 71
3
 72
10
 73
6
 74
4
 42
0.0000001
 43
0.0000001
 44
0.0000000001
 12
0.2969078163
 22
-0.1484172521
 32
0.0
 13
0.0007561701
 23
-0.3322813075
 33
0.0
 40
0.0
 40
0.0
 40
0.0
 40
0.0
 40
0.2597309936
 40
0.7341910415
 40
1.0
 40
1.0
 40
1.0
 40
1.0
 10
-12.282798181
 20
-13.6974064413
 30
0.0
 10
-12.2570927936
 20
-13.7102559614
 30
0.0
 10
-12.1892119439
 20
-13.7569589251
 30
0.0
 10
-12.1287576801
 20
-13.8536918154
 30
0.0
 10
-12.1167831844
 20
-13.9360344071
 30
0.0
 10
-12.1167161855
 20
-13.9654755232
 30
0.0
 11
-12.282798181
 21
-13.6974064413
 31
0.0
 11
-12.2120055729
 21
-13.7463430162
 31
0.0
 11
-12.129608684
 21
-13.8782847562
 31
0.0
 11
-12.1167161855
 21
-13.9654755232
 31
0.0
  0
SPLINE
  5
351
100
AcDbEntity
  8
RACCORDO
100
AcDbSpline
 62
7
  6
CONTINUOUS
 70
0
 71
3
 72
10
 73
6
 74
4
 42
0.0000001
 43
0.0000001
 44
0.0000000001
 12
0.2721277774
 22
0.1569085859
 32
0.0
 13
0.0005624008
 23
0.3144289199
 33
0.0
 40
0.0
 40
0.0
 40
0.0
 40
0.0
 40
0.2480317305
 40
0.7448406177
 40
1.0
 40
1.0
 40
1.0
 40
1.0
 10
-12.2669254816
 20
-14.4879490073
 30
0.0
 10
-12.244426707
 20
-14.4749762379
 30
0.0
 10
-12.1815838302
 20
-14.4273171392
 30
0.0
 10
-12.1271846672
 20
-14.3342446909
 30
0.0
 10
-12.1167646254
 20
-14.255182422
 30
0.0
 10
-12.1167167914
 20
-14.228439259
 30
0.0
 11
-12.2669254816
 21
-14.4879490073
 31
0.0
 11
-12.2050488851
 21
-14.4408328922
 31
0.0
 11
-12.1273463112
 21
-14.307792697
 31
0.0
 11
-12.1167167914
 21
-14.228439259
 31
0.0
  0
SPLINE
  5
352
100
AcDbEntity
  8
RACCORDO
100
AcDbSpline
 62
7
  6
CONTINUOUS
 70
0
 71
3
 72
10
 73
6
 74
4
 42
0.0000001
 43
0.0000001
 44
0.0000000001
 12
0.2721277774
 22
0.1569085859
 32
0.0
 13
0.0005624008
 23
0.3144289199
 33
0.0
 40
0.0
 40
0.0
 40
0.0
 40
0.0
 40
0.2480317305
 40
0.7448406177
 40
1.0
 40
1.0
 40
1.0
 40
1.0
 10
-28.1768280583
 20
-6.5329977189
 30
0.0
 10
-28.1543292837
 20
-6.5200249496
 30
0.0
 10
-28.0914864069
 20
-6.4723658508
 30
0.0
 10
-28.0370872439
 20
-6.3792934025
 30
0.0
 10
-28.0266672021
 20
-6.3002311337
 30
0.0
 10
-28.0266193681
 20
-6.2734879707
 30
0.0
 11
-28.1768280583
 21
-6.5329977189
 31
0.0
 11
-28.1149514618
 21
-6.4858816038
 31
0.0
 11
-28.0372488879
 21
-6.3528414087
 31
0.0
 11
-28.0266193681
 21
-6.2734879707
 31
0.0
  0
SPLINE
  5
353
100
AcDbEntity
  8
RACCORDO
100
AcDbSpline
 62
7
  6
CONTINUOUS
 70
0
 71
3
 72
10
 73
6
 74
4
 42
0.0000001
 43
0.0000001
 44
0.0000000001
 12
0.2721277774
 22
0.1569085859
 32
0.0
 13
0.0005624008
 23
0.3144289199
 33
0.0
 40
0.0
 40
0.0
 40
0.0
 40
0.0
 40
0.2480317305
 40
0.7448406177
 40
1.0
 40
1.0
 40
1.0
 40
1.0
 10
35.4627822485
 20
-38.3528028723
 30
0.0
 10
35.485281023
 20
-38.339830103
 30
0.0
 10
35.5481238999
 20
-38.2921710042
 30
0.0
 10
35.6025230629
 20
-38.1990985559
 30
0.0
 10
35.6129431047
 20
-38.1200362871
 30
0.0
 10
35.6129909386
 20
-38.0932931241
 30
0.0
 11
35.4627822485
 21
-38.3528028723
 31
0.0
 11
35.524658845
 21
-38.3056867572
 31
0.0
 11
35.6023614189
 21
-38.1726465621
 31
0.0
 11
35.6129909386
 21
-38.0932931241
 31
0.0
  0
SPLINE
  5
354
100
AcDbEntity
  8
SUPERFICI
100
AcDbSpline
 62
7
  6
CONTINUOUS
 70
0
 71
3
 72
9
 73
5
 74
3
 42
0.0000001
 43
0.0000001
 44
0.0000000001
 12
1.7918844005
 22
0.8071883358
 32
0.0
 13
0.0
 23
1.9340051951
 33
0.0
 40
0.0
 40
0.0
 40
0.0
 40
0.0
 40
0.3840074907
 40
1.0
 40
1.0
 40
1.0
 40
1.0
 10
55.9858193539
 20
-66.1444175561
 30
0.0
 10
56.2151850313
 20
-66.0410954336
 30
0.0
 10
56.7402558851
 20
-65.5763518304
 30
0.0
 10
56.8399189753
 20
-64.8919482564
 30
0.0
 10
56.8399189753
 20
-64.4948373521
 30
0.0
 11
55.9858193539
 21
-66.1444175561
 31
0.0
 11
56.5557159388
 21
-65.6517739395
 31
0.0
 11
56.8399189753
 21
-64.4948373521
 31
0.0
  0
SPLINE
  5
355
100
AcDbEntity
  8
0
100
AcDbSpline
 62
7
  6
CONTINUOUS
 70
0
 71
3
 72
8
 73
4
 74
2
 42
0.0000001
 43
0.0000001
 44
0.0000000001
 12
-0.0294910323
 22
0.0918541379
 32
0.0
 13
-0.0440903777
 23
0.0861728867
 33
0.0
 40
0.0
 40
0.0
 40
0.0
 40
0.0
 40
1.0
 40
1.0
 40
1.0
 40
1.0
 10
37.0814793006
 20
-46.1351994618
 30
0.0
 10
37.0716489565
 20
-46.1045814159
 30
0.0
 10
37.0589559075
 20
-46.0748494497
 30
0.0
 10
37.044259115
 20
-46.0461251541
 30
0.0
 11
37.0814793006
 21
-46.1351994618
 31
0.0
 11
37.044259115
 21
-46.0461251541
 31
0.0
  0
SPLINE
  5
356
100
AcDbEntity
  8
0
100
AcDbSpline
 62
7
  6
CONTINUOUS
 70
0
 71
3
 72
9
 73
5
 74
3
 42
0.0000001
 43
0.0000001
 44
0.0000000001
 12
-0.0463694273
 22
0.0906271982
 32
0.0
 13
-0.057675039
 23
0.0834283246
 33
0.0
 40
0.0
 40
0.0
 40
0.0
 40
0.0
 40
0.4989645169
 40
1.0
 40
1.0
 40
1.0
 40
1.0
 10
37.044259115
 20
-46.0461251541
 30
0.0
 10
37.036546882
 20
-46.0310519021
 30
0.0
 10
37.0199845781
 20
-46.0013989503
 30
0.0
 10
37.001704576
 20
-45.9729311077
 30
0.0
 10
36.9920721623
 20
-45.9589975907
 30
0.0
 11
37.044259115
 21
-46.0461251541
 31
0.0
 11
37.0195912303
 21
-46.001755412
 31
0.0
 11
36.9920721623
 21
-45.9589975907
 31
0.0
  0
SPLINE
  5
357
100
AcDbEntity
  8
0
100
AcDbSpline
 62
7
  6
CONTINUOUS
 70
0
 71
3
 72
8
 73
4
 74
2
 42
0.0000001
 43
0.0000001
 44
0.0000000001
 12
-0.0560686689
 22
0.0811046718
 32
0.0
 13
-0.0676902372
 23
0.0729437835
 33
0.0
 40
0.0
 40
0.0
 40
0.0
 40
0.0
 40
1.0
 40
1.0
 40
1.0
 40
1.0
 10
36.9920721623
 20
-45.9589975907
 30
0.0
 10
36.973382606
 20
-45.9319627001
 30
0.0
 10
36.9529105353
 20
-45.9061697098
 30
0.0
 10
36.9303471229
 20
-45.8818551153
 30
0.0
 11
36.9920721623
 21
-45.9589975907
 31
0.0
 11
36.9303471229
 21
-45.8818551153
 31
0.0
  0
SPLINE
  5
358
100
AcDbEntity
  8
0
100
AcDbSpline
 62
7
  6
CONTINUOUS
 70
0
 71
3
 72
8
 73
4
 74
2
 42
0.0000001
 43
0.0000001
 44
0.0000000001
 12
-0.0614451717
 22
0.0662140286
 32
0.0
 13
-0.0737231316
 23
0.051085959
 33
0.0
 40
0.0
 40
0.0
 40
0.0
 40
0.0
 40
1.0
 40
1.0
 40
1.0
 40
1.0
 10
36.9303471229
 20
-45.8818551153
 30
0.0
 10
36.909865399
 20
-45.8597837725
 30
0.0
 10
36.8876604245
 20
-45.8389306172
 30
0.0
 10
36.8630860473
 20
-45.8219019642
 30
0.0
 11
36.9303471229
 21
-45.8818551153
 31
0.0
 11
36.8630860473
 21
-45.8219019642
 31
0.0
  0
SPLINE
  5
359
100
AcDbEntity
  8
0
100
AcDbSpline
 62
7
  6
CONTINUOUS
 70
0
 71
3
 72
8
 73
4
 74
2
 42
0.0000001
 43
0.0000001
 44
0.0000000001
 12
-0.032857696
 22
0.0227685243
 32
0.0
 13
-0.0358532598
 23
0.0175181036
 33
0.0
 40
0.0
 40
0.0
 40
0.0
 40
0.0
 40
1.0
 40
1.0
 40
1.0
 40
1.0
 10
36.8630860473
 20
-45.8219019642
 30
0.0
 10
36.8521334819
 20
-45.8143124561
 30
0.0
 10
36.8407102585
 20
-45.8074826471
 30
0.0
 10
36.8287591719
 20
-45.8016432792
 30
0.0
 11
36.8630860473
 21
-45.8219019642
 31
0.0
 11
36.8287591719
 21
-45.8016432792
 31
0.0
  0
LINE
  5
35A
100
AcDbEntity
  8
0
100
AcDbLine
 62
7
  6
CONTINUOUS
 10
36.8287591719
 20
-45.8016432792
 11
36.6357546074
 21
-45.7071919482
  0
LINE
  5
35B
100
AcDbEntity
  8
0
100
AcDbLine
 62
7
  6
CONTINUOUS
 10
36.6357546074
 20
-45.7071919482
 11
36.5968504674
 21
-45.688118814
  0
LINE
  5
35C
100
AcDbEntity
  8
0
100
AcDbLine
 62
7
  6
CONTINUOUS
 10
36.6485027681
 20
-46.6450272139
 11
36.3628148914
 21
-46.5048653881
  0
LINE
  5
35D
100
AcDbEntity
  8
0
100
AcDbLine
 62
7
  6
CONTINUOUS
 10
36.3628148914
 20
-46.5048653881
 11
36.2183709352
 21
-46.4338237343
  0
LINE
  5
35E
100
AcDbEntity
  8
0
100
AcDbLine
 62
7
  6
CONTINUOUS
 10
36.2183709352
 20
-46.4338237343
 11
36.2069257507
 21
-46.2326694528
  0
LINE
  5
35F
100
AcDbEntity
  8
0
100
AcDbLine
 62
7
  6
CONTINUOUS
 10
36.2069257507
 20
-46.2326694528
 11
36.1957996983
 21
-46.0309730393
  0
LINE
  5
360
100
AcDbEntity
  8
0
100
AcDbLine
 62
7
  6
CONTINUOUS
 10
36.1957996983
 20
-46.0309730393
 11
36.1850007809
 21
-45.8287339753
  0
LINE
  5
361
100
AcDbEntity
  8
0
100
AcDbLine
 62
7
  6
CONTINUOUS
 10
36.1850007809
 20
-45.8287339753
 11
36.1745264886
 21
-45.625725927
  0
LINE
  5
362
100
AcDbEntity
  8
0
100
AcDbLine
 62
7
  6
CONTINUOUS
 10
37.3829050673
 20
-47.0027451481
 11
37.312297555
 21
-46.9685397738
  0
SPLINE
  5
363
100
AcDbEntity
  8
0
100
AcDbSpline
 62
7
  6
CONTINUOUS
 70
0
 71
3
 72
10
 73
6
 74
4
 42
0.0000001
 43
0.0000001
 44
0.0000000001
 12
-0.2265805534
 22
0.8345724851
 32
0.0
 13
-0.26435931
 23
0.8233857755
 33
0.0
 40
0.0
 40
0.0
 40
0.0
 40
0.0
 40
0.3330090212
 40
0.6655598976
 40
1.0
 40
1.0
 40
1.0
 40
1.0
 10
37.312297555
 20
-46.9685397738
 30
0.0
 10
37.2871464322
 20
-46.8758997183
 30
0.0
 10
37.2373864886
 20
-46.6906067292
 30
0.0
 10
37.1647873456
 20
-46.411641018
 30
0.0
 10
37.1109500714
 20
-46.2269905356
 30
0.0
 10
37.0814792865
 20
-46.1351994613
 30
0.0
 11
37.312297555
 21
-46.9685397738
 31
0.0
 11
37.2377129483
 21
-46.6903852014
 31
0.0
 11
37.1635785836
 21
-46.4125203257
 31
0.0
 11
37.0814792865
 21
-46.1351994613
 31
0.0
  0
LINE
  5
364
100
AcDbEntity
  8
0
100
AcDbLine
 62
7
  6
CONTINUOUS
 10
34.8224707757
 20
-45.7431855408
 11
34.6808630435
 21
-45.6728785801
  0
LINE
  5
365
100
AcDbEntity
  8
0
100
AcDbLine
 62
7
  6
CONTINUOUS
 10
34.6808630435
 20
-45.6728785801
 11
34.6100676615
 21
-45.6377187607
  0
LINE
  5
366
100
AcDbEntity
  8
0
100
AcDbLine
 62
7
  6
CONTINUOUS
 10
34.6100676615
 20
-45.6377187607
 11
34.3977148625
 21
-45.532215132
  0
LINE
  5
367
100
AcDbEntity
  8
0
100
AcDbLine
 62
7
  6
CONTINUOUS
 10
36.0917445709
 20
-46.371458325
 11
35.9413948615
 21
-46.2973110135
  0
LINE
  5
368
100
AcDbEntity
  8
0
100
AcDbLine
 62
7
  6
CONTINUOUS
 10
35.9413948615
 20
-46.2973110135
 11
35.8658635841
 21
-46.260024698
  0
LINE
  5
369
100
AcDbEntity
  8
0
100
AcDbLine
 62
7
  6
CONTINUOUS
 10
35.8658635841
 20
-46.260024698
 11
35.7140859924
 21
-46.1850311907
  0
LINE
  5
36A
100
AcDbEntity
  8
0
100
AcDbLine
 62
7
  6
CONTINUOUS
 10
35.7140859924
 20
-46.1850311907
 11
35.6378387333
 21
-46.1473259077
  0
LINE
  5
36B
100
AcDbEntity
  8
0
100
AcDbLine
 62
7
  6
CONTINUOUS
 10
35.4996662529
 20
-45.6042203364
 11
35.1111639772
 21
-45.4114265037
  0
LINE
  5
36C
100
AcDbEntity
  8
0
100
AcDbLine
 62
7
  6
CONTINUOUS
 10
35.1111639772
 20
-45.4114265037
 11
35.0118822848
 21
-45.362101481
  0
LINE
  5
36D
100
AcDbEntity
  8
0
100
AcDbLine
 62
7
  6
CONTINUOUS
 10
35.0118822848
 20
-45.362101481
 11
34.9147475349
 21
-45.3138264249
  0
LINE
  5
36E
100
AcDbEntity
  8
0
100
AcDbLine
 62
7
  6
CONTINUOUS
 10
35.3945216215
 20
-45.1833392694
 11
35.3538218532
 21
-45.0134663444
  0
LINE
  5
36F
100
AcDbEntity
  8
0
100
AcDbLine
 62
7
  6
CONTINUOUS
 10
35.3538218532
 20
-45.0134663444
 11
35.3135273828
 21
-44.844239949
  0
LINE
  5
370
100
AcDbEntity
  8
0
100
AcDbLine
 62
7
  6
CONTINUOUS
 10
35.3135273828
 20
-44.844239949
 11
35.2736386832
 21
-44.6756599656
  0
LINE
  5
371
100
AcDbEntity
  8
0
100
AcDbLine
 62
7
  6
CONTINUOUS
 10
35.1950814961
 20
-44.3404385438
 11
35.1564154474
 21
-44.1737965424
  0
LINE
  5
372
100
AcDbEntity
  8
0
100
AcDbLine
 62
7
  6
CONTINUOUS
 10
32.6569583702
 20
-44.6654116219
 11
32.4525815866
 21
-44.5634587111
  0
LINE
  5
373
100
AcDbEntity
  8
0
100
AcDbLine
 62
7
  6
CONTINUOUS
 10
32.4525815866
 20
-44.5634587111
 11
32.2470675913
 21
-44.4609082439
  0
LINE
  5
374
100
AcDbEntity
  8
0
100
AcDbLine
 62
7
  6
CONTINUOUS
 10
33.3570236912
 20
-43.4972936406
 11
33.4197201675
 21
-43.3041804519
  0
LINE
  5
375
100
AcDbEntity
  8
0
100
AcDbLine
 62
7
  6
CONTINUOUS
 10
34.3303074543
 20
-45.4987125792
 11
34.1210662301
 21
-45.3946798214
  0
LINE
  5
376
100
AcDbEntity
  8
0
100
AcDbLine
 62
7
  6
CONTINUOUS
 10
34.1210662301
 20
-45.3946798214
 11
33.9808317287
 21
-45.3249266997
  0
LINE
  5
377
100
AcDbEntity
  8
0
100
AcDbLine
 62
7
  6
CONTINUOUS
 10
33.9808317287
 20
-45.3249266997
 11
33.9104922879
 21
-45.2899309235
  0
LINE
  5
378
100
AcDbEntity
  8
0
100
AcDbLine
 62
7
  6
CONTINUOUS
 10
33.3349368216
 20
-44.9212805975
 11
33.221209786
 21
-44.8646122639
  0
LINE
  5
379
100
AcDbEntity
  8
0
100
AcDbLine
 62
7
  6
CONTINUOUS
 10
33.221209786
 20
-44.8646122639
 11
33.1585293678
 21
-44.6670422159
  0
LINE
  5
37A
100
AcDbEntity
  8
0
100
AcDbLine
 62
7
  6
CONTINUOUS
 10
33.1585293678
 20
-44.6670422159
 11
33.0963580792
 21
-44.470092323
  0
LINE
  5
37B
100
AcDbEntity
  8
0
100
AcDbLine
 62
7
  6
CONTINUOUS
 10
33.0963580792
 20
-44.470092323
 11
33.0346915191
 21
-44.2737640023
  0
LINE
  5
37C
100
AcDbEntity
  8
0
100
AcDbLine
 62
7
  6
CONTINUOUS
 10
33.0346915191
 20
-44.2737640023
 11
32.973525096
 21
-44.0780571122
  0
LINE
  5
37D
100
AcDbEntity
  8
0
100
AcDbLine
 62
7
  6
CONTINUOUS
 10
32.973525096
 20
-44.0780571122
 11
32.9423530541
 21
-43.9779437209
  0
LINE
  5
37E
100
AcDbEntity
  8
0
100
AcDbLine
 62
7
  6
CONTINUOUS
 10
32.7338143655
 20
-43.3015058867
 11
32.6751153924
 21
-43.1089450303
  0
LINE
  5
37F
100
AcDbEntity
  8
0
100
AcDbLine
 62
7
  6
CONTINUOUS
 10
32.0164679009
 20
-44.3458072439
 11
31.9454005245
 21
-44.3103283813
  0
LINE
  5
380
100
AcDbEntity
  8
0
100
AcDbLine
 62
7
  6
CONTINUOUS
 10
31.9454005245
 20
-44.3103283813
 11
31.6598796141
 21
-44.167760674
  0
LINE
  5
381
100
AcDbEntity
  8
0
100
AcDbLine
 62
7
  6
CONTINUOUS
 10
31.6598796141
 20
-44.167760674
 11
31.5881863301
 21
-44.1319560937
  0
LINE
  5
382
100
AcDbEntity
  8
0
100
AcDbLine
 62
7
  6
CONTINUOUS
 10
30.7699412107
 20
-43.7231809675
 11
30.5187149162
 21
-43.5976434172
  0
LINE
  5
383
100
AcDbEntity
  8
0
100
AcDbLine
 62
7
  6
CONTINUOUS
 10
30.5187149162
 20
-43.5976434172
 11
30.3926618178
 21
-43.5346527353
  0
SPLINE
  5
384
100
AcDbEntity
  8
RACCORDO
100
AcDbSpline
 62
7
  6
CONTINUOUS
 70
0
 71
3
 72
8
 73
4
 74
2
 42
0.0000001
 43
0.0000001
 44
0.0000000001
 12
0.0940047835
 22
0.0423211436
 32
0.0
 13
0.1056366665
 23
-0.0257201977
 33
0.0
 40
0.0
 40
0.0
 40
0.0
 40
0.0
 40
1.0
 40
1.0
 40
1.0
 40
1.0
 10
-32.2841243555
 20
-3.5017835189
 30
0.0
 10
-32.2527894276
 20
-3.4876764711
 30
0.0
 10
-32.2167889666
 20
-3.4886074278
 30
0.0
 10
-32.1815767444
 20
-3.4971808271
 30
0.0
 11
-32.2841243555
 21
-3.5017835189
 31
0.0
 11
-32.1815767444
 21
-3.4971808271
 31
0.0
  0
SPLINE
  5
385
100
AcDbEntity
  8
RACCORDO
100
AcDbSpline
 62
7
  6
CONTINUOUS
 70
0
 71
3
 72
9
 73
5
 74
3
 42
0.0000001
 43
0.0000001
 44
0.0000000001
 12
0.0717775856
 22
-0.0174762585
 32
0.0
 13
0.0648422708
 23
-0.0320477835
 33
0.0
 40
0.0
 40
0.0
 40
0.0
 40
0.0
 40
0.7524768124
 40
1.0
 40
1.0
 40
1.0
 40
1.0
 10
-32.1815767444
 20
-3.4971808271
 30
0.0
 10
-32.1635730881
 20
-3.5015643202
 30
0.0
 10
-32.1399210677
 20
-3.5100447953
 30
0.0
 10
-32.1179203648
 20
-3.5203079231
 30
0.0
 10
-32.1125703763
 20
-3.5229521129
 30
0.0
 11
-32.1815767444
 21
-3.4971808271
 31
0.0
 11
-32.1289129055
 21
-3.5153364179
 31
0.0
 11
-32.1125703763
 21
-3.5229521129
 31
0.0
  0
SPLINE
  5
386
100
AcDbEntity
  8
RACCORDO
100
AcDbSpline
 62
7
  6
CONTINUOUS
 70
0
 71
3
 72
8
 73
4
 74
2
 42
0.0000001
 43
0.0000001
 44
0.0000000001
 12
0.0940047835
 22
0.0423211436
 32
0.0
 13
0.1056366665
 23
-0.0257201977
 33
0.0
 40
0.0
 40
0.0
 40
0.0
 40
0.0
 40
1.0
 40
1.0
 40
1.0
 40
1.0
 10
31.3554859513
 20
-35.3215886723
 30
0.0
 10
31.3868208792
 20
-35.3074816245
 30
0.0
 10
31.4228213402
 20
-35.3084125812
 30
0.0
 10
31.4580335624
 20
-35.3169859805
 30
0.0
 11
31.3554859513
 21
-35.3215886723
 31
0.0
 11
31.4580335624
 21
-35.3169859805
 31
0.0
  0
SPLINE
  5
387
100
AcDbEntity
  8
RACCORDO
100
AcDbSpline
 62
7
  6
CONTINUOUS
 70
0
 71
3
 72
9
 73
5
 74
3
 42
0.0000001
 43
0.0000001
 44
0.0000000001
 12
0.0717775856
 22
-0.0174762585
 32
0.0
 13
0.0648422708
 23
-0.0320477835
 33
0.0
 40
0.0
 40
0.0
 40
0.0
 40
0.0
 40
0.7524768124
 40
1.0
 40
1.0
 40
1.0
 40
1.0
 10
31.4580335624
 20
-35.3169859805
 30
0.0
 10
31.4760372187
 20
-35.3213694736
 30
0.0
 10
31.499689239
 20
-35.3298499486
 30
0.0
 10
31.521689942
 20
-35.3401130765
 30
0.0
 10
31.5270399305
 20
-35.3427572663
 30
0.0
 11
31.4580335624
 21
-35.3169859805
 31
0.0
 11
31.5106974013
 21
-35.3351415713
 31
0.0
 11
31.5270399305
 21
-35.3427572663
 31
0.0
  0
SPLINE
  5
388
100
AcDbEntity
  8
RACCORDO
100
AcDbSpline
 62
253
  6
CONTINUOUS
 70
0
 71
3
 72
11
 73
7
 74
5
 42
0.0000001
 43
0.0000001
 44
0.0000000001
 12
0.0022275527
 22
-9.09502543
 32
0.0
 13
-0.0003817752
 23
-9.0950256947
 33
0.0
 40
0.0
 40
0.0
 40
0.0
 40
0.0
 40
0.2237875863
 40
0.4657408202
 40
0.7241104052
 40
1.0
 40
1.0
 40
1.0
 40
1.0
 10
-45.224590868
 20
38.1224311705
 30
0.0
 10
-45.2244247018
 20
37.4439799078
 30
0.0
 10
-45.2242319815
 20
36.0320049947
 30
0.0
 10
-45.2244381841
 20
33.836737416
 30
0.0
 10
-45.2244184658
 20
31.4835134642
 30
0.0
 10
-45.224386535
 20
29.8638131394
 30
0.0
 10
-45.2244216443
 20
29.0274054881
 30
0.0
 11
-45.224590868
 21
38.1224311705
 31
0.0
 11
-45.2243146141
 21
36.0870773401
 31
0.0
 11
-45.2243972171
 21
33.8865064602
 31
0.0
 11
-45.2244146172
 21
31.5366284441
 31
0.0
 11
-45.2244216443
 21
29.0274054881
 31
0.0
  0
SPLINE
  5
389
100
AcDbEntity
  8
RACCORDO
100
AcDbSpline
 62
253
  6
CONTINUOUS
 70
0
 71
3
 72
11
 73
7
 74
5
 42
0.0000001
 43
0.0000001
 44
0.0000000001
 12
0.5120578308
 22
-1.7507762102
 32
0.0
 13
1.6532475793
 23
0.7708391543
 33
0.0
 40
0.0
 40
0.0
 40
0.0
 40
0.0
 40
0.1799135989
 40
0.4357344042
 40
0.7298453406
 40
1.0
 40
1.0
 40
1.0
 40
1.0
 10
-45.2243919744
 20
29.0273064059
 30
0.0
 10
-45.193683252
 20
28.9223102563
 30
0.0
 10
-44.9747814315
 20
28.7268425251
 30
0.0
 10
-44.5470744166
 20
28.6039893541
 30
0.0
 10
-44.0432270532
 20
28.5861604011
 30
0.0
 10
-43.7017953175
 20
28.6645634317
 30
0.0
 10
-43.5529178053
 20
28.7339786947
 30
0.0
 11
-45.2243919744
 21
29.0273064059
 31
0.0
 11
-45.0067012772
 21
28.7817138288
 31
0.0
 11
-44.566138503
 21
28.6278791783
 31
0.0
 11
-44.0299332921
 21
28.6102727655
 31
0.0
 11
-43.5529178053
 21
28.7339786947
 31
0.0
  0
SPLINE
  5
38A
100
AcDbEntity
  8
RACCORDO
100
AcDbSpline
 62
253
  6
CONTINUOUS
 70
0
 71
3
 72
11
 73
7
 74
5
 42
0.0000001
 43
0.0000001
 44
0.0000000001
 12
0.5120355277
 22
-1.7507926642
 32
0.0
 13
1.6532138496
 23
0.7709340453
 33
0.0
 40
0.0
 40
0.0
 40
0.0
 40
0.0
 40
0.1799157447
 40
0.4357341063
 40
0.7298430986
 40
1.0
 40
1.0
 40
1.0
 40
1.0
 10
-45.2243919754
 20
8.6756830896
 30
0.0
 10
-45.1936842243
 20
8.570684701
 30
0.0
 10
-44.9747859242
 20
8.3752101785
 30
0.0
 10
-44.5470737725
 20
8.2523620868
 30
0.0
 10
-44.0432246313
 20
8.2345490975
 30
0.0
 10
-43.7017935166
 20
8.3129678299
 30
0.0
 10
-43.5529178063
 20
8.3823922142
 30
0.0
 11
-45.2243919754
 21
8.6756830896
 31
0.0
 11
-45.0067014934
 21
8.4300827998
 31
0.0
 11
-44.5661391303
 21
8.2762530974
 31
0.0
 11
-44.0299341285
 21
8.2586629584
 31
0.0
 11
-43.5529178063
 21
8.3823922142
 31
0.0
  0
SPLINE
  5
38B
100
AcDbEntity
  8
RACCORDO
100
AcDbSpline
 62
253
  6
CONTINUOUS
 70
0
 71
3
 72
11
 73
7
 74
5
 42
0.0000001
 43
0.0000001
 44
0.0000000001
 12
0.0003816216
 22
-9.0916789232
 32
0.0
 13
-0.0023188447
 23
-9.0916786355
 33
0.0
 40
0.0
 40
0.0
 40
0.0
 40
0.0
 40
0.2765571816
 40
0.5345095558
 40
0.7755715422
 40
1.0
 40
1.0
 40
1.0
 40
1.0
 10
-45.2244216432
 20
8.6757821781
 30
0.0
 10
-45.2243864632
 20
7.8376591451
 30
0.0
 10
-45.2244195369
 20
6.2177960553
 30
0.0
 10
-45.2244352503
 20
3.8673802377
 30
0.0
 10
-45.2242384622
 20
1.6749436324
 30
0.0
 10
-45.2244174861
 20
0.2642470719
 30
0.0
 10
-45.2245909576
 20
-0.4158967331
 30
0.0
 11
-45.2244216432
 21
8.6757821781
 31
0.0
 11
-45.2244147332
 21
6.161413077
 31
0.0
 11
-45.2243966198
 21
3.8161929108
 31
0.0
 11
-45.2243159072
 21
1.6245347297
 31
0.0
 11
-45.2245909576
 21
-0.4158967331
 31
0.0
  0
SPLINE
  5
38C
100
AcDbEntity
  8
RACCORDO
100
AcDbSpline
 62
253
  6
CONTINUOUS
 70
0
 71
3
 72
11
 73
7
 74
5
 42
0.0000001
 43
0.0000001
 44
0.0000000001
 12
0.5013552402
 22
-1.7555586123
 32
0.0
 13
1.6547169593
 23
0.7715276422
 33
0.0
 40
0.0
 40
0.0
 40
0.0
 40
0.0
 40
0.1797433242
 40
0.4353961213
 40
0.7296544269
 40
1.0
 40
1.0
 40
1.0
 40
1.0
 10
-45.2245909576
 20
-0.4158967331
 30
0.0
 10
-45.1945525385
 20
-0.5210800467
 30
0.0
 10
-44.9762370317
 20
-0.7177422246
 30
0.0
 10
-44.5480538847
 20
-0.8402856404
 30
0.0
 10
-44.043756905
 20
-0.8587848913
 30
0.0
 10
-43.701755297
 20
-0.7802714643
 30
0.0
 10
-43.5526401621
 20
-0.7107451034
 30
0.0
 11
-45.2245909576
 21
-0.4158967331
 31
0.0
 11
-45.0079616028
 21
-0.6624007847
 31
0.0
 11
-44.5673839971
 21
-0.8165214785
 31
0.0
 11
-44.0304457244
 21
-0.8345392449
 31
0.0
 11
-43.5526401621
 21
-0.7107451034
 31
0.0
  0
SPLINE
  5
38D
100
AcDbEntity
  8
RACCORDO
100
AcDbSpline
 62
253
  6
CONTINUOUS
 70
0
 71
3
 72
29
 73
25
 74
23
 42
0.0000001
 43
0.0000001
 44
0.0000000001
 12
-0.0016568777
 22
-2.9316018501
 32
0.0
 13
2.6245949226
 23
-1.3060603529
 33
0.0
 40
0.0
 40
0.0
 40
0.0
 40
0.0
 40
0.040436397
 40
0.08237554
 40
0.1257269531
 40
0.169466306
 40
0.2123084363
 40
0.253665509
 40
0.2938992891
 40
0.3337958994
 40
0.3737453383
 40
0.4139225472
 40
0.4542654492
 40
0.4942797241
 40
0.5338774781
 40
0.5739333415
 40
0.615783953
 40
0.6607583144
 40
0.7093795415
 40
0.7615461843
 40
0.8170686456
 40
0.8753492249
 40
0.9363571001
 40
1.0
 40
1.0
 40
1.0
 40
1.0
 10
-45.2245909663
 20
-0.4158967053
 30
0.0
 10
-45.224613299
 20
-0.4554111774
 30
0.0
 10
-45.2222160993
 20
-0.5359230136
 30
0.0
 10
-45.2121442208
 20
-0.658417245
 30
0.0
 10
-45.1957098585
 20
-0.7834795123
 30
0.0
 10
-45.17320489
 20
-0.9084879473
 30
0.0
 10
-45.1453217491
 20
-1.0304050261
 30
0.0
 10
-45.1130482836
 20
-1.1476769714
 30
0.0
 10
-45.0769188607
 20
-1.260794963
 30
0.0
 10
-45.0370144004
 20
-1.3711712763
 30
0.0
 10
-44.9931922116
 20
-1.4799905626
 30
0.0
 10
-44.9453285277
 20
-1.5875717763
 30
0.0
 10
-44.8935850686
 20
-1.6934129064
 30
0.0
 10
-44.8382578366
 20
-1.7967852241
 30
0.0
 10
-44.7792413191
 20
-1.8977706207
 30
0.0
 10
-44.7156530391
 20
-1.9980721863
 30
0.0
 10
-44.6454101326
 20
-2.1002796525
 30
0.0
 10
-44.5660684021
 20
-2.2062733677
 30
0.0
 10
-44.4753487828
 20
-2.3161658204
 30
0.0
 10
-44.3718702055
 20
-2.4286305134
 30
0.0
 10
-44.2551101757
 20
-2.5413507224
 30
0.0
 10
-44.1242556027
 20
-2.6514141085
 30
0.0
 10
-43.9783560678
 20
-2.755073881
 30
0.0
 10
-43.8723992317
 20
-2.815741798
 30
0.0
 10
-43.8167202877
 20
-2.8434489541
 30
0.0
 11
-45.2245909663
 21
-0.4158967053
 31
0.0
 11
-45.2212473486
 21
-0.5343929764
 31
0.0
 11
-45.2112827549
 21
-0.6569374016
 31
0.0
 11
-45.1947701695
 21
-0.7829492052
 31
0.0
 11
-45.1720609621
 21
-0.9091486447
 31
0.0
 11
-45.1440951275
 21
-1.0315916502
 31
0.0
 11
-45.111959753
 21
-1.1484978481
 31
0.0
 11
-45.0761130725
 21
-1.2608681583
 31
0.0
 11
-45.0363781237
 21
-1.3708727412
 31
0.0
 11
-44.9926341106
 21
-1.4795124567
 31
0.0
 11
-44.9447533598
 21
-1.5871247693
 31
0.0
 11
-44.8927968869
 21
-1.693370536
 31
0.0
 11
-44.8374234385
 21
-1.7967845823
 31
0.0
 11
-44.7788732902
 21
-1.8970221831
 31
0.0
 11
-44.7159993236
 21
-1.9961996357
 31
0.0
 11
-44.64649059
 21
-2.0972996479
 31
0.0
 11
-44.5674136932
 21
-2.2028006457
 31
0.0
 11
-44.476625926
 21
-2.3126855485
 31
0.0
 11
-44.3730431851
 21
-2.4251967341
 31
0.0
 11
-44.2558302643
 21
-2.5381353514
 31
0.0
 11
-44.124901457
 21
-2.6479043947
 31
0.0
 11
-43.9788911085
 21
-2.7511932952
 31
0.0
 11
-43.8167202877
 21
-2.8434489541
 31
0.0
  0
SPLINE
  5
38E
100
AcDbEntity
  8
RACCORDO
100
AcDbSpline
 62
253
  6
CONTINUOUS
 70
0
 71
3
 72
11
 73
7
 74
5
 42
0.0000001
 43
0.0000001
 44
0.0000000001
 12
-1.2576255587
 22
1.435927341
 32
0.0
 13
1.6771174458
 23
0.9114748748
 33
0.0
 40
0.0
 40
0.0
 40
0.0
 40
0.0
 40
0.2047985825
 40
0.4646326533
 40
0.7461294766
 40
1.0
 40
1.0
 40
1.0
 40
1.0
 10
-43.8167202877
 20
-2.8434489541
 30
0.0
 10
-43.9025735983
 20
-2.7454236595
 30
0.0
 10
-43.9925766218
 20
-2.4392330504
 30
0.0
 10
-43.9084721278
 20
-1.9642455518
 30
0.0
 10
-43.6722713762
 20
-1.5088407514
 30
0.0
 10
-43.4171909314
 20
-1.2658608126
 30
0.0
 10
-43.2752673702
 20
-1.1887286114
 30
0.0
 11
-43.8167202877
 21
-2.8434489541
 31
0.0
 11
-43.9542544236
 21
-2.477522588
 31
0.0
 11
-43.8879269934
 21
-1.9860069398
 31
0.0
 11
-43.6375083562
 21
-1.5106082959
 31
0.0
 11
-43.2752673702
 21
-1.1887286114
 31
0.0
  0
SPLINE
  5
38F
100
AcDbEntity
  8
RACCORDO
100
AcDbSpline
 62
253
  6
CONTINUOUS
 70
0
 71
3
 72
11
 73
7
 74
5
 42
0.0000001
 43
0.0000001
 44
0.0000000001
 12
4.637586497
 22
-2.3080766176
 32
0.0
 13
4.6333710671
 23
-2.316527193
 33
0.0
 40
0.0
 40
0.0
 40
0.0
 40
0.0
 40
0.250975518
 40
0.5124281639
 40
0.7974127447
 40
1.0
 40
1.0
 40
1.0
 40
1.0
 10
-43.8167209831
 20
-2.843447738
 30
0.0
 10
-43.4287474253
 20
-3.0365379796
 30
0.0
 10
-42.6375051367
 20
-3.4325866638
 30
0.0
 10
-41.4059106291
 20
-4.0482789849
 30
0.0
 10
-40.2491634749
 20
-4.626835697
 30
0.0
 10
-39.4961393016
 20
-5.0033459935
 30
0.0
 10
-39.1832519926
 20
-5.1597789555
 30
0.0
 11
-43.8167209831
 21
-2.843447738
 31
0.0
 11
-42.6536356724
 21
-3.4243939201
 31
0.0
 11
-41.4422741712
 21
-4.030147358
 31
0.0
 11
-40.1218976191
 21
-4.6904474326
 31
0.0
 11
-39.1832519926
 21
-5.1597789555
 31
0.0
  0
LINE
  5
390
100
AcDbEntity
  8
RACCORDO
100
AcDbLine
 62
253
  6
CONTINUOUS
 10
-39.1832519926
 20
-5.1597789555
 11
-38.6956110439
 21
-5.4035762442
  0
LINE
  5
391
100
AcDbEntity
  8
RACCORDO
100
AcDbLine
 62
253
  6
CONTINUOUS
 10
-38.6956110439
 20
-5.4035762442
 11
-38.1949554289
 21
-5.6538717698
  0
LINE
  5
392
100
AcDbEntity
  8
RACCORDO
100
AcDbLine
 62
253
  6
CONTINUOUS
 10
-38.1949554289
 20
-5.6538717698
 11
-37.6826503123
 21
-5.9099855256
  0
LINE
  5
393
100
AcDbEntity
  8
RACCORDO
100
AcDbLine
 62
253
  6
CONTINUOUS
 10
-37.6826503123
 20
-5.9099855256
 11
-35.3899447606
 21
-7.0561545236
  0
LINE
  5
394
100
AcDbEntity
  8
RACCORDO
100
AcDbLine
 62
253
  6
CONTINUOUS
 10
-35.3899447606
 20
-7.0561545236
 11
-33.7410954312
 21
-7.8805407181
  0
LINE
  5
395
100
AcDbEntity
  8
RACCORDO
100
AcDbLine
 62
253
  6
CONTINUOUS
 10
-33.7410954312
 20
-7.8805407181
 11
-33.7063266391
 21
-7.8979255652
  0
SPLINE
  5
396
100
AcDbEntity
  8
RACCORDO
100
AcDbSpline
 62
253
  6
CONTINUOUS
 70
0
 71
3
 72
12
 73
8
 74
6
 42
0.0000001
 43
0.0000001
 44
0.0000000001
 12
-1.258628996
 22
1.4411806806
 32
0.0
 13
1.6816715497
 23
0.9127592796
 33
0.0
 40
0.0
 40
0.0
 40
0.0
 40
0.0
 40
0.1596054174
 40
0.356129783
 40
0.5779685448
 40
0.8009062017
 40
1.0
 40
1.0
 40
1.0
 40
1.0
 10
-33.7071532347
 20
-7.8989609548
 30
0.0
 10
-33.7741145701
 20
-7.8222875401
 30
0.0
 10
-33.8608195607
 20
-7.59849215
 30
0.0
 10
-33.8439027542
 20
-7.2248464966
 30
0.0
 10
-33.7119674569
 20
-6.8323253104
 30
0.0
 10
-33.4850167761
 20
-6.4853537049
 30
0.0
 10
-33.2762571898
 20
-6.3056180093
 30
0.0
 10
-33.1646537311
 20
-6.2450431054
 30
0.0
 11
-33.7071532347
 21
-7.8989609548
 31
0.0
 11
-33.8323224972
 21
-7.6203997363
 31
0.0
 11
-33.8283533964
 21
-7.2443884394
 31
0.0
 11
-33.6959565335
 21
-6.8410955957
 31
0.0
 11
-33.4598688358
 21
-6.485812499
 31
0.0
 11
-33.1646537311
 21
-6.2450431054
 31
0.0
  0
SPLINE
  5
397
100
AcDbEntity
  8
RACCORDO
100
AcDbSpline
 62
253
  6
CONTINUOUS
 70
0
 71
3
 72
12
 73
8
 74
6
 42
0.0000001
 43
0.0000001
 44
0.0000000001
 12
-1.2591097634
 22
1.4410402528
 32
0.0
 13
1.6825687418
 23
0.911546398
 33
0.0
 40
0.0
 40
0.0
 40
0.0
 40
0.0
 40
0.1598070475
 40
0.3566339799
 40
0.5787226091
 40
0.8015865389
 40
1.0
 40
1.0
 40
1.0
 40
1.0
 10
25.3358912713
 20
-37.4204816273
 30
0.0
 10
25.2688197334
 20
-37.3437188312
 30
0.0
 10
25.1819802193
 20
-37.119555384
 30
0.0
 10
25.1991798878
 20
-36.7453662757
 30
0.0
 10
25.3316699503
 20
-36.3526454821
 30
0.0
 10
25.5589867893
 20
-36.0062219746
 30
0.0
 10
25.7676294408
 20
-35.827111738
 30
0.0
 10
25.87891087
 20
-35.7668240461
 30
0.0
 11
25.3358912713
 21
-37.4204816273
 31
0.0
 11
25.2105593831
 21
-37.1415336387
 31
0.0
 11
25.2147721301
 21
-36.7649045807
 31
0.0
 11
25.3477919497
 21
-36.3612641217
 31
0.0
 11
25.5843600894
 21
-36.0064139003
 31
0.0
 11
25.87891087
 21
-35.7668240461
 31
0.0
  0
LINE
  5
398
100
AcDbEntity
  8
RACCORDO
100
AcDbLine
 62
253
  6
CONTINUOUS
 10
25.3367171188
 20
-37.4194472849
 11
31.9693778969
 21
-40.7360746334
  0
LINE
  5
399
100
AcDbEntity
  8
RACCORDO
100
AcDbLine
 62
253
  6
CONTINUOUS
 10
31.9693778969
 20
-40.7360746334
 11
32.6725726337
 21
-41.0876160149
  0
LINE
  5
39A
100
AcDbEntity
  8
RACCORDO
100
AcDbLine
 62
253
  6
CONTINUOUS
 10
32.6725726337
 20
-41.0876160149
 11
33.182056019
 21
-41.3423011518
  0
LINE
  5
39B
100
AcDbEntity
  8
RACCORDO
100
AcDbLine
 62
253
  6
CONTINUOUS
 10
33.182056019
 20
-41.3423011518
 11
33.6852991643
 21
-41.5938643202
  0
LINE
  5
39C
100
AcDbEntity
  8
RACCORDO
100
AcDbLine
 62
253
  6
CONTINUOUS
 10
33.6852991643
 20
-41.5938643202
 11
33.8119013669
 21
-41.6571546466
  0
LINE
  5
39D
100
AcDbEntity
  8
RACCORDO
100
AcDbLine
 62
253
  6
CONTINUOUS
 10
33.8119013669
 20
-41.6571546466
 11
34.0416758821
 21
-41.7720321842
  0
SPLINE
  5
39E
100
AcDbEntity
  8
RACCORDO
100
AcDbSpline
 62
253
  6
CONTINUOUS
 70
0
 71
3
 72
18
 73
14
 74
12
 42
0.0000001
 43
0.0000001
 44
0.0000000001
 12
1.4078547057
 22
-0.703914969
 32
0.0
 13
1.4068519384
 23
-0.7059169775
 33
0.0
 40
0.0
 40
0.0
 40
0.0
 40
0.0
 40
0.037340657
 40
0.1415800397
 40
0.237650336
 40
0.3298596052
 40
0.4206430613
 40
0.51115262
 40
0.6045553838
 40
0.7008550436
 40
0.7990818506
 40
0.8991147329
 40
1.0
 40
1.0
 40
1.0
 40
1.0
 10
34.0416758821
 20
-41.7720321842
 30
0.0
 10
34.0591992886
 20
-41.7807937333
 30
0.0
 10
34.1256404413
 20
-41.8140142812
 30
0.0
 10
34.2371642906
 20
-41.8697798881
 30
0.0
 10
34.3744337254
 20
-41.9384266251
 30
0.0
 10
34.5053849292
 20
-42.0039232198
 30
0.0
 10
34.6337217967
 20
-42.0681245808
 30
0.0
 10
34.7626136536
 20
-42.132616174
 30
0.0
 10
34.8940897048
 20
-42.198411027
 30
0.0
 10
35.029184048
 20
-42.2660232288
 30
0.0
 10
35.1673841669
 20
-42.3352023776
 30
0.0
 10
35.3077285869
 20
-42.4054727769
 30
0.0
 10
35.4019691334
 20
-42.4527103931
 30
0.0
 10
35.4492793446
 20
-42.4764492674
 30
0.0
 11
34.0416758821
 21
-41.7720321842
 31
0.0
 11
34.0942459226
 21
-41.7983171899
 31
0.0
 11
34.2409973
 21
-41.8716979078
 31
0.0
 11
34.3762449078
 21
-41.9393340483
 31
0.0
 11
34.5060531568
 21
-42.0042595395
 31
0.0
 11
34.6338494848
 21
-42.068190542
 31
0.0
 11
34.7612554615
 21
-42.1319382257
 31
0.0
 11
34.8927300508
 21
-42.1977316727
 31
0.0
 11
35.0282790304
 21
-42.2655723178
 31
0.0
 11
35.1665356361
 21
-42.3347805342
 31
0.0
 11
35.307323587
 21
-42.4052827371
 31
0.0
 11
35.4492793446
 21
-42.4764492674
 31
0.0
  0
SPLINE
  5
39F
100
AcDbEntity
  8
RACCORDO
100
AcDbSpline
 62
253
  6
CONTINUOUS
 70
0
 71
3
 72
11
 73
7
 74
5
 42
0.0000001
 43
0.0000001
 44
0.0000000001
 12
-1.1895863997
 22
1.3563067282
 32
0.0
 13
1.4845138796
 23
1.0315124573
 33
0.0
 40
0.0
 40
0.0
 40
0.0
 40
0.0
 40
0.2166540135
 40
0.4915630693
 40
0.7894082052
 40
1.0
 40
1.0
 40
1.0
 40
1.0
 10
35.4492793446
 20
-42.4764492674
 30
0.0
 10
35.3633697886
 20
-42.378499502
 30
0.0
 10
35.2735443901
 20
-42.0722243067
 30
0.0
 10
35.3575438784
 20
-41.5972767664
 30
0.0
 10
35.5778431529
 20
-41.1734357967
 30
0.0
 10
35.7981165673
 20
-40.9496115029
 30
0.0
 10
35.9023253814
 20
-40.8772021497
 30
0.0
 11
35.4492793446
 21
-42.4764492674
 31
0.0
 11
35.3117995558
 21
-42.1105657029
 31
0.0
 11
35.3781708656
 21
-41.6190704971
 31
0.0
 11
35.6289035162
 21
-41.1438213551
 31
0.0
 11
35.9023253814
 21
-40.8772021497
 31
0.0
  0
SPLINE
  5
3A0
100
AcDbEntity
  8
RACCORDO
100
AcDbSpline
 62
253
  6
CONTINUOUS
 70
0
 71
3
 72
28
 73
24
 74
22
 42
0.0000001
 43
0.0000001
 44
0.0000000001
 12
1.9492145017
 22
-0.9786607255
 32
0.0
 13
-0.0092591243
 23
2.1810841932
 33
0.0
 40
0.0
 40
0.0
 40
0.0
 40
0.0
 40
0.0877436479
 40
0.1633352344
 40
0.2280492444
 40
0.2839043154
 40
0.3322993494
 40
0.3746306296
 40
0.4126981743
 40
0.4480587464
 40
0.4823150301
 40
0.5167978155
 40
0.5523155171
 40
0.5886129276
 40
0.6251355448
 40
0.6625271594
 40
0.7020167823
 40
0.7445497133
 40
0.7907606752
 40
0.8406842915
 40
0.89327464
 40
0.9468595998
 40
1.0
 40
1.0
 40
1.0
 40
1.0
 10
35.4492802057
 20
-42.4764499376
 30
0.0
 10
35.5062906027
 20
-42.5050736916
 30
0.0
 10
35.6157497332
 20
-42.5521550388
 30
0.0
 10
35.7759851636
 20
-42.5966816448
 30
0.0
 10
35.917809788
 20
-42.6155323837
 30
0.0
 10
36.0410191518
 20
-42.6150404911
 30
0.0
 10
36.1468989475
 20
-42.6004810281
 30
0.0
 10
36.2374991543
 20
-42.5759307834
 30
0.0
 10
36.3158244154
 20
-42.5446869399
 30
0.0
 10
36.3852173627
 20
-42.5081532338
 30
0.0
 10
36.4484769882
 20
-42.4663870497
 30
0.0
 10
36.5074665788
 20
-42.4186040088
 30
0.0
 10
36.5627492015
 20
-42.3644426817
 30
0.0
 10
36.6138639846
 20
-42.3043782379
 30
0.0
 10
36.6603446792
 20
-42.2389928263
 30
0.0
 10
36.7024766612
 20
-42.1680197555
 30
0.0
 10
36.7407709
 20
-42.0900036193
 30
0.0
 10
36.7751942705
 20
-42.0032596162
 30
0.0
 10
36.8050541619
 20
-41.9068635075
 30
0.0
 10
36.8291973056
 20
-41.801364124
 30
0.0
 10
36.846557052
 20
-41.6891170903
 30
0.0
 10
36.8565923009
 20
-41.5736472094
 30
0.0
 10
36.8585180409
 20
-41.4960241444
 30
0.0
 10
36.8583540297
 20
-41.4573895822
 30
0.0
 11
35.4492802057
 21
-42.4764499376
 31
0.0
 11
35.6254246511
 21
-42.5512742404
 31
0.0
 11
35.7844576042
 21
-42.5947674458
 31
0.0
 11
35.9244302441
 21
-42.6129446651
 31
0.0
 11
36.0462532532
 21
-42.6121334398
 31
0.0
 11
36.1507916746
 21
-42.5975221102
 31
0.0
 11
36.2399004924
 21
-42.5733508941
 31
0.0
 11
36.3170203155
 21
-42.5425874048
 31
0.0
 11
36.385269334
 21
-42.5066659709
 31
0.0
 11
36.4476245073
 21
-42.4655030078
 31
0.0
 11
36.5061040833
 21
-42.4182085693
 31
0.0
 11
36.5614959071
 21
-42.3640513426
 31
0.0
 11
36.6128518474
 21
-42.3038001486
 31
0.0
 11
36.65907191
 21
-42.23892056
 31
0.0
 11
36.7007726965
 21
-42.1688330324
 31
0.0
 11
36.7388017352
 21
-42.0915521425
 31
0.0
 11
36.773124311
 21
-42.0053662979
 31
0.0
 11
36.8030773966
 21
-41.9091289895
 31
0.0
 11
36.8275214456
 21
-41.8030195468
 31
0.0
 11
36.8451903605
 21
-41.689683546
 31
0.0
 11
36.8554110776
 21
-41.5732569449
 31
0.0
 11
36.8583540297
 21
-41.4573895822
 31
0.0
  0
SPLINE
  5
3A1
100
AcDbEntity
  8
RACCORDO
100
AcDbSpline
 62
253
  6
CONTINUOUS
 70
0
 71
3
 72
10
 73
6
 74
4
 42
0.0000001
 43
0.0000001
 44
0.0000000001
 12
-1.0500467781
 22
0.0748047937
 32
0.0
 13
-0.0462227643
 23
1.0863377403
 33
0.0
 40
0.0
 40
0.0
 40
0.0
 40
0.0
 40
0.4790892888
 40
0.8397869841
 40
1.0
 40
1.0
 40
1.0
 40
1.0
 10
36.8583540297
 20
-41.4573895822
 30
0.0
 10
36.6906653083
 20
-41.4454435237
 30
0.0
 10
36.4053352936
 20
-41.3856803651
 30
0.0
 10
36.0678836632
 20
-41.2120619937
 30
0.0
 10
36.0099571679
 20
-41.0201103466
 30
0.0
 10
36.0074886718
 20
-40.962095198
 30
0.0
 11
36.8583540297
 21
-41.4573895822
 31
0.0
 11
36.3657422141
 21
-41.3492529117
 31
0.0
 11
36.0567378745
 21
-41.1285823655
 31
0.0
 11
36.0074886718
 21
-40.962095198
 31
0.0
  0
SPLINE
  5
3A2
100
AcDbEntity
  8
RACCORDO
100
AcDbSpline
 62
253
  6
CONTINUOUS
 70
0
 71
3
 72
11
 73
7
 74
5
 42
0.0000001
 43
0.0000001
 44
0.0000000001
 12
-0.0200754981
 22
9.0934681633
 32
0.0
 13
-0.0004418943
 23
9.0934903127
 33
0.0
 40
0.0
 40
0.0
 40
0.0
 40
0.0
 40
0.2235993303
 40
0.4648389279
 40
0.7231748266
 40
1.0
 40
1.0
 40
1.0
 40
1.0
 10
36.858353931
 20
-41.4573895755
 30
0.0
 10
36.8568576417
 20
-40.7796251117
 30
0.0
 10
36.8565513488
 20
-39.3706209653
 30
0.0
 10
36.856548542
 20
-37.1785604487
 30
0.0
 10
36.8556070853
 20
-34.8251631075
 30
0.0
 10
36.8550363311
 20
-33.2030025431
 30
0.0
 10
36.8549955553
 20
-32.363900199
 30
0.0
 11
36.858353931
 21
-41.4573895755
 31
0.0
 11
36.8566334266
 21
-39.424091957
 31
0.0
 11
36.8564078033
 21
-37.2303820225
 31
0.0
 11
36.8556477225
 21
-34.8812071499
 31
0.0
 11
36.8549955553
 21
-32.363900199
 31
0.0
  0
SPLINE
  5
3A3
100
AcDbEntity
  8
RACCORDO
100
AcDbSpline
 62
253
  6
CONTINUOUS
 70
0
 71
3
 72
10
 73
6
 74
4
 42
0.0000001
 43
0.0000001
 44
0.0000000001
 12
-1.0467272068
 22
0.0765354998
 32
0.0
 13
-0.0446103352
 23
1.0834692472
 33
0.0
 40
0.0
 40
0.0
 40
0.0
 40
0.0
 40
0.4793616944
 40
0.8399040781
 40
1.0
 40
1.0
 40
1.0
 40
1.0
 10
36.8547973887
 20
-32.3638853651
 30
0.0
 10
36.6875437462
 20
-32.3516559695
 30
0.0
 10
36.403274493
 20
-32.2913779067
 30
0.0
 10
36.0668405858
 20
-32.1179589365
 30
0.0
 10
36.009579484
 20
-31.9266623339
 30
0.0
 10
36.0071988398
 20
-31.8688426646
 30
0.0
 11
36.8547973887
 21
-32.3638853651
 31
0.0
 11
36.3636123611
 21
-32.25503997
 31
0.0
 11
36.0559430469
 21
-32.0347585829
 31
0.0
 11
36.0071988398
 21
-31.8688426646
 31
0.0
  0
SPLINE
  5
3A4
100
AcDbEntity
  8
RACCORDO
100
AcDbSpline
 62
253
  6
CONTINUOUS
 70
0
 71
3
 72
10
 73
6
 74
4
 42
0.0000001
 43
0.0000001
 44
0.0000000001
 12
-0.0379777333
 22
1.3446466491
 32
0.0
 13
-0.8850019553
 23
1.0130589609
 33
0.0
 40
0.0
 40
0.0
 40
0.0
 40
0.0
 40
0.3680016415
 40
0.6995849848
 40
1.0
 40
1.0
 40
1.0
 40
1.0
 10
25.7547864873
 20
-38.6744493556
 30
0.0
 10
25.7501278646
 20
-38.5095052976
 30
0.0
 10
25.7159152474
 20
-38.1955485145
 30
0.0
 10
25.5777762667
 20
-37.7654514843
 30
0.0
 10
25.4245138834
 20
-37.5219276617
 30
0.0
 10
25.3358912581
 20
-37.4204816207
 30
0.0
 11
25.7547864873
 21
-38.6744493556
 31
0.0
 11
25.6968602226
 21
-38.1828206815
 31
0.0
 11
25.5553144584
 21
-37.7598352412
 31
0.0
 11
25.3358912581
 21
-37.4204816207
 31
0.0
  0
SPLINE
  5
3A5
100
AcDbEntity
  8
RACCORDO
100
AcDbSpline
 62
253
  6
CONTINUOUS
 70
0
 71
3
 72
10
 73
6
 74
4
 42
0.0000001
 43
0.0000001
 44
0.0000000001
 12
-0.0348611531
 22
1.3257815734
 32
0.0
 13
-0.8699916206
 23
1.0010128173
 33
0.0
 40
0.0
 40
0.0
 40
0.0
 40
0.0
 40
0.367631512
 40
0.6996993947
 40
1.0
 40
1.0
 40
1.0
 40
1.0
 10
35.8570890225
 20
-43.7134336062
 30
0.0
 10
35.8528170031
 20
-43.5509672447
 30
0.0
 10
35.8199476719
 20
-43.2413286024
 30
0.0
 10
35.6854187966
 20
-42.8167632579
 30
0.0
 10
35.535033812
 20
-42.5759840674
 30
0.0
 10
35.4479474752
 20
-42.4757824824
 30
0.0
 11
35.8570890225
 21
-43.7134336062
 31
0.0
 11
35.8013655042
 21
-43.2290608073
 31
0.0
 11
35.6631351676
 21
-42.8109149132
 31
0.0
 11
35.4479474752
 21
-42.4757824824
 31
0.0
  0
SPLINE
  5
3A6
100
AcDbEntity
  8
RACCORDO
100
AcDbSpline
 62
253
  6
CONTINUOUS
 70
0
 71
3
 72
10
 73
6
 74
4
 42
0.0000001
 43
0.0000001
 44
0.0000000001
 12
-1.5066514763
 22
0.6800596167
 32
0.0
 13
-1.6495599523
 23
0.1069192074
 33
0.0
 40
0.0
 40
0.0
 40
0.0
 40
0.0
 40
0.3092840196
 40
0.6455681008
 40
1.0
 40
1.0
 40
1.0
 40
1.0
 10
38.4620264237
 20
-41.8258280559
 30
0.0
 10
38.3066986822
 20
-41.7557175319
 30
0.0
 10
37.9706617482
 20
-41.63498715
 30
0.0
 10
37.4321720961
 20
-41.5134609939
 30
0.0
 10
37.0532387969
 20
-41.4699774637
 30
0.0
 10
36.8583532414
 20
-41.4573456045
 30
0.0
 11
38.4620264237
 21
-41.8258280559
 31
0.0
 11
37.9820547604
 21
-41.6497401849
 31
0.0
 11
37.4402876551
 21
-41.5252560666
 31
0.0
 11
36.8583532414
 21
-41.4573456045
 31
0.0
  0
SPLINE
  5
3A7
100
AcDbEntity
  8
RACCORDO
100
AcDbSpline
 62
253
  6
CONTINUOUS
 70
0
 71
3
 72
10
 73
6
 74
4
 42
0.0000001
 43
0.0000001
 44
0.0000000001
 12
-1.4993134193
 22
0.6905287059
 32
0.0
 13
-1.6462921383
 23
0.1203861217
 33
0.0
 40
0.0
 40
0.0
 40
0.0
 40
0.0
 40
0.3094536261
 40
0.6457237447
 40
1.0
 40
1.0
 40
1.0
 40
1.0
 10
38.4531952673
 20
-32.7448516987
 30
0.0
 10
38.2985392759
 20
-32.6736228281
 30
0.0
 10
37.9638660001
 20
-32.5503886509
 30
0.0
 10
37.4271444347
 20
-32.4246613718
 30
0.0
 10
37.04921146
 20
-32.3781296724
 30
0.0
 10
36.8547973887
 20
-32.3639130242
 30
0.0
 11
38.4531952673
 21
-32.7448516987
 31
0.0
 11
37.9750316011
 21
-32.5651637536
 31
0.0
 11
37.435077213
 21
-32.4364790174
 31
0.0
 11
36.8547973887
 21
-32.3639130242
 31
0.0
  0
SPLINE
  5
3A8
100
AcDbEntity
  8
RACCORDO
100
AcDbSpline
 62
253
  6
CONTINUOUS
 70
0
 71
3
 72
10
 73
6
 74
4
 42
0.0000001
 43
0.0000001
 44
0.0000000001
 12
-1.4994595465
 22
0.6901580613
 32
0.0
 13
-1.6462513821
 23
0.1206377555
 33
0.0
 40
0.0
 40
0.0
 40
0.0
 40
0.0
 40
0.3091686157
 40
0.6455022789
 40
1.0
 40
1.0
 40
1.0
 40
1.0
 10
38.4531952687
 20
-12.3931750618
 30
0.0
 10
38.298666658
 20
-12.322049991
 30
0.0
 10
37.9641067867
 20
-12.1988921868
 30
0.0
 10
37.4274056534
 20
-12.0731150373
 30
0.0
 10
37.0493281759
 20
-12.0265158867
 30
0.0
 10
36.8547973882
 20
-12.0122606169
 30
0.0
 11
38.4531952687
 21
-12.3931750618
 31
0.0
 11
37.9754605372
 21
-12.2137026923
 31
0.0
 11
37.4354222563
 21
-12.0849498423
 31
0.0
 11
36.8547973882
 21
-12.0122606169
 31
0.0
  0
SPLINE
  5
3A9
100
AcDbEntity
  8
RACCORDO
100
AcDbSpline
 62
253
  6
CONTINUOUS
 70
0
 71
3
 72
10
 73
6
 74
4
 42
0.0000001
 43
0.0000001
 44
0.0000000001
 12
-1.5030362642
 22
0.7004847231
 32
0.0
 13
-1.6532216676
 23
0.1290541625
 33
0.0
 40
0.0
 40
0.0
 40
0.0
 40
0.0
 40
0.3097846681
 40
0.6460775592
 40
1.0
 40
1.0
 40
1.0
 40
1.0
 10
38.4621576722
 20
-3.3097931404
 30
0.0
 10
38.3069518087
 20
-3.2374599979
 30
0.0
 10
37.9711725611
 20
-3.1119678016
 30
0.0
 10
37.4326404132
 20
-2.9829312276
 30
0.0
 10
37.0533967596
 20
-2.9342914721
 30
0.0
 10
36.8583593437
 20
-2.9190664174
 30
0.0
 11
38.4621576722
 21
-3.3097931404
 31
0.0
 11
37.9821550621
 21
-3.1268013749
 31
0.0
 11
37.4403444357
 21
-2.9948022463
 31
0.0
 11
36.8583593437
 21
-2.9190664174
 31
0.0
  0
SPLINE
  5
3AA
100
AcDbEntity
  8
RACCORDO
100
AcDbSpline
 62
253
  6
CONTINUOUS
 70
0
 71
3
 72
10
 73
6
 74
4
 42
0.0000001
 43
0.0000001
 44
0.0000000001
 12
-0.0442681714
 22
-1.7263635976
 32
0.0
 13
-0.7206955265
 23
-1.5693593917
 33
0.0
 40
0.0
 40
0.0
 40
0.0
 40
0.0
 40
0.3181318484
 40
0.6539967751
 40
1.0
 40
1.0
 40
1.0
 40
1.0
 10
35.8579930927
 20
1.1750232567
 30
0.0
 10
35.8532987209
 20
0.9919528425
 30
0.0
 10
35.8130321101
 20
0.615991392
 30
0.0
 10
35.6737916392
 20
0.0559609179
 30
0.0
 10
35.5315142653
 20
-0.3111596246
 30
0.0
 10
35.4483932731
 20
-0.4921607615
 30
0.0
 11
35.8579930927
 21
1.1750232567
 31
0.0
 11
35.8021042158
 21
0.6284816239
 31
0.0
 11
35.6637191405
 21
0.0652164614
 31
0.0
 11
35.4483932731
 21
-0.4921607615
 31
0.0
  0
SPLINE
  5
3AB
100
AcDbEntity
  8
RACCORDO
100
AcDbSpline
 62
253
  6
CONTINUOUS
 70
0
 71
3
 72
10
 73
6
 74
4
 42
0.0000001
 43
0.0000001
 44
0.0000000001
 12
-0.047509163
 22
-1.7337051983
 32
0.0
 13
-0.7327862406
 23
-1.5719462971
 33
0.0
 40
0.0
 40
0.0
 40
0.0
 40
0.0
 40
0.3176430157
 40
0.6535282413
 40
1.0
 40
1.0
 40
1.0
 40
1.0
 10
25.754786595
 20
6.2341105944
 30
0.0
 10
25.7497562771
 20
6.0505441452
 30
0.0
 10
25.7082192941
 20
5.6733167965
 30
0.0
 10
25.5658829135
 20
5.111479289
 30
0.0
 10
25.4208928886
 20
4.7432791662
 30
0.0
 10
25.3362629761
 20
4.5617341668
 30
0.0
 11
25.754786595
 21
6.2341105944
 31
0.0
 11
25.6972162849
 21
5.6862208539
 31
0.0
 11
25.5557917422
 21
5.1211038128
 31
0.0
 11
25.3362629761
 21
4.5617341668
 31
0.0
  0
SPLINE
  5
3AC
100
AcDbEntity
  8
RACCORDO
100
AcDbSpline
 62
253
  6
CONTINUOUS
 70
0
 71
3
 72
10
 73
6
 74
4
 42
0.0000001
 43
0.0000001
 44
0.0000000001
 12
-0.0474720115
 22
-1.7337660954
 32
0.0
 13
-0.7324434525
 23
-1.5721720816
 33
0.0
 40
0.0
 40
0.0
 40
0.0
 40
0.0
 40
0.3185655554
 40
0.6540128162
 40
1.0
 40
1.0
 40
1.0
 40
1.0
 10
-33.2885593583
 20
35.7557812692
 30
0.0
 10
-33.2936003409
 20
35.5716752162
 30
0.0
 10
-33.3352273816
 20
35.1941557932
 30
0.0
 10
-33.4775595925
 20
34.6323063132
 30
0.0
 10
-33.6223075793
 20
34.2645729254
 30
0.0
 10
-33.7067795951
 20
34.0832557951
 30
0.0
 11
-33.2885593583
 21
35.7557812692
 31
0.0
 11
-33.3463623115
 21
35.2062879835
 31
0.0
 11
-33.4876324152
 21
34.6418946072
 31
0.0
 11
-33.7067795951
 21
34.0832557951
 31
0.0
  0
SPLINE
  5
3AD
100
AcDbEntity
  8
RACCORDO
100
AcDbSpline
 62
253
  6
CONTINUOUS
 70
0
 71
3
 72
10
 73
6
 74
4
 42
0.0000001
 43
0.0000001
 44
0.0000000001
 12
-0.06412545
 22
-1.7209511482
 32
0.0
 13
-0.7389512156
 23
-1.5555500727
 33
0.0
 40
0.0
 40
0.0
 40
0.0
 40
0.0
 40
0.3175800128
 40
0.6534323595
 40
1.0
 40
1.0
 40
1.0
 40
1.0
 10
-43.3861634199
 20
40.797115849
 30
0.0
 10
-43.3929517403
 20
40.6149359531
 30
0.0
 10
-43.4376894028
 20
40.2408412665
 30
0.0
 10
-43.583779051
 20
39.6842036654
 30
0.0
 10
-43.730579642
 20
39.3197025367
 30
0.0
 10
-43.8159451684
 20
39.1400014305
 30
0.0
 11
-43.3861634199
 21
40.797115849
 31
0.0
 11
-43.4484196159
 21
40.2537517648
 31
0.0
 11
-43.593623257
 21
39.6938884349
 31
0.0
 11
-43.8159451684
 21
39.1400014305
 31
0.0
  0
SPLINE
  5
3AE
100
AcDbEntity
  8
RACCORDO
100
AcDbSpline
 62
253
  6
CONTINUOUS
 70
0
 71
3
 72
10
 73
6
 74
4
 42
0.0000001
 43
0.0000001
 44
0.0000000001
 12
0.9877992601
 22
-0.5305507589
 32
0.0
 13
0.3118159351
 23
-1.0770340332
 33
0.0
 40
0.0
 40
0.0
 40
0.0
 40
0.0
 40
0.3834602817
 40
0.713723741
 40
1.0
 40
1.0
 40
1.0
 40
1.0
 10
-45.9836919963
 20
38.9132170545
 30
0.0
 10
-45.8574314021
 20
38.8454020067
 30
0.0
 10
-45.6312160386
 20
38.700572405
 30
0.0
 10
-45.3642682268
 20
38.4339783498
 30
0.0
 10
-45.2543506765
 20
38.2252189421
 30
0.0
 10
-45.22459551
 20
38.1224425174
 30
0.0
 11
-45.9836919963
 21
38.9132170545
 31
0.0
 11
-45.6246569197
 21
38.6766597063
 31
0.0
 11
-45.3682121936
 21
38.4095130988
 31
0.0
 11
-45.22459551
 21
38.1224425174
 31
0.0
  0
SPLINE
  5
3AF
100
AcDbEntity
  8
RACCORDO
100
AcDbSpline
 62
253
  6
CONTINUOUS
 70
0
 71
3
 72
10
 73
6
 74
4
 42
0.0000001
 43
0.0000001
 44
0.0000000001
 12
0.9922714912
 22
-0.5386390992
 32
0.0
 13
0.3169350058
 23
-1.0836452341
 33
0.0
 40
0.0
 40
0.0
 40
0.0
 40
0.0
 40
0.3823005832
 40
0.712664239
 40
1.0
 40
1.0
 40
1.0
 40
1.0
 10
-45.9862450324
 20
29.8265450884
 30
0.0
 10
-45.8597963758
 20
29.7579044079
 30
0.0
 10
-45.6330392222
 20
29.6112126998
 30
0.0
 10
-45.3653903897
 20
29.3416801497
 30
0.0
 10
-45.2547475614
 20
29.1311240743
 30
0.0
 10
-45.2243919744
 20
29.027334065
 30
0.0
 11
-45.9862450324
 21
29.8265450884
 31
0.0
 11
-45.6268772555
 21
29.5874592191
 31
0.0
 11
-45.3695158708
 21
29.3174780016
 31
0.0
 11
-45.2243919744
 21
29.027334065
 31
0.0
  0
SPLINE
  5
3B0
100
AcDbEntity
  8
RACCORDO
100
AcDbSpline
 62
253
  6
CONTINUOUS
 70
0
 71
3
 72
10
 73
6
 74
4
 42
0.0000001
 43
0.0000001
 44
0.0000000001
 12
0.9924166362
 22
-0.5384245077
 32
0.0
 13
0.3168433936
 23
-1.0836982948
 33
0.0
 40
0.0
 40
0.0
 40
0.0
 40
0.0
 40
0.3819574817
 40
0.7124295009
 40
1.0
 40
1.0
 40
1.0
 40
1.0
 10
-45.9862450338
 20
9.4748685206
 30
0.0
 10
-45.8598913807
 20
9.4063167643
 30
0.0
 10
-45.6331733362
 20
9.2597184889
 30
0.0
 10
-45.365473978
 20
8.9902183276
 30
0.0
 10
-45.2547635797
 20
8.779535316
 30
0.0
 10
-45.2243919754
 20
8.6756554295
 30
0.0
 11
-45.9862450338
 21
9.4748685206
 31
0.0
 11
-45.6271371421
 21
9.2360740011
 31
0.0
 11
-45.3696398698
 21
8.9660417853
 31
0.0
 11
-45.2243919754
 21
8.6756554295
 31
0.0
  0
SPLINE
  5
3B1
100
AcDbEntity
  8
RACCORDO
100
AcDbSpline
 62
253
  6
CONTINUOUS
 70
0
 71
3
 72
10
 73
6
 74
4
 42
0.0000001
 43
0.0000001
 44
0.0000000001
 12
0.9954150801
 22
-0.5504788642
 32
0.0
 13
0.3086763344
 23
-1.0948045863
 33
0.0
 40
0.0
 40
0.0
 40
0.0
 40
0.0
 40
0.3813390294
 40
0.7116625748
 40
1.0
 40
1.0
 40
1.0
 40
1.0
 10
-45.9836745165
 20
0.3970357034
 30
0.0
 10
-45.8571443097
 20
0.3270626781
 30
0.0
 10
-45.6302836137
 20
0.1774679687
 30
0.0
 10
-45.3634896033
 20
-0.0969666867
 30
0.0
 10
-45.2542579907
 20
-0.3106464992
 30
0.0
 10
-45.2245903442
 20
-0.4158708777
 30
0.0
 11
-45.9836745165
 21
0.3970357034
 31
0.0
 11
-45.6246429246
 21
0.1536196529
 31
0.0
 11
-45.368202353
 21
-0.1210037167
 31
0.0
 11
-45.2245903442
 21
-0.4158708777
 31
0.0
  0
SPLINE
  5
3B2
100
AcDbEntity
  8
RACCORDO
100
AcDbSpline
 62
253
  6
CONTINUOUS
 70
0
 71
3
 72
10
 73
6
 74
4
 42
0.0000001
 43
0.0000001
 44
0.0000000001
 12
-0.0512066658
 22
1.3417690874
 32
0.0
 13
-0.8886014662
 23
1.0066547773
 33
0.0
 40
0.0
 40
0.0
 40
0.0
 40
0.0
 40
0.3661285452
 40
0.6982514692
 40
1.0
 40
1.0
 40
1.0
 40
1.0
 10
-43.3861730942
 20
-4.0918022256
 30
0.0
 10
-43.3924225016
 20
-3.9280489043
 30
0.0
 10
-43.4295939551
 20
-3.615631087
 30
0.0
 10
-43.5713347434
 20
-3.1875907684
 30
0.0
 10
-43.7265025871
 20
-2.9449880809
 30
0.0
 10
-43.8158806494
 20
-2.8437358809
 30
0.0
 11
-43.3861730942
 21
-4.0918022256
 31
0.0
 11
-43.4483955513
 21
-3.6041381878
 31
0.0
 11
-43.5935732208
 21
-3.1824738643
 31
0.0
 11
-43.8158806494
 21
-2.8437358809
 31
0.0
  0
SPLINE
  5
3B3
100
AcDbEntity
  8
RACCORDO
100
AcDbSpline
 62
253
  6
CONTINUOUS
 70
0
 71
3
 72
10
 73
6
 74
4
 42
0.0000001
 43
0.0000001
 44
0.0000000001
 12
-0.037940576
 22
1.3443947124
 32
0.0
 13
-0.8846969803
 23
1.012989577
 33
0.0
 40
0.0
 40
0.0
 40
0.0
 40
0.0
 40
0.3670664964
 40
0.699179481
 40
1.0
 40
1.0
 40
1.0
 40
1.0
 10
-33.288559338
 20
-9.1527786205
 30
0.0
 10
-33.2932015761
 20
-8.9882845349
 30
0.0
 10
-33.3272944338
 20
-8.6745799552
 30
0.0
 10
-33.4650723752
 20
-8.2444493912
 30
0.0
 10
-33.6184415664
 20
-8.0005369716
 30
0.0
 10
-33.7071532347
 20
-7.8989609548
 30
0.0
 11
-33.288559338
 21
-9.1527786205
 31
0.0
 11
-33.3461530835
 21
-8.6624709093
 31
0.0
 11
-33.4876010572
 21
-8.2387901277
 31
0.0
 11
-33.7071532347
 21
-7.8989609548
 31
0.0
  0
SPLINE
  5
3B4
100
AcDbEntity
  8
RACCORDO
100
AcDbSpline
 62
253
  6
CONTINUOUS
 70
0
 71
3
 72
29
 73
25
 74
23
 42
0.0000001
 43
0.0000001
 44
0.0000000001
 12
-0.0018637089
 22
-5.4234619402
 32
0.0
 13
4.856164688
 23
-2.4148721319
 33
0.0
 40
0.0
 40
0.0
 40
0.0
 40
0.0
 40
0.0417784558
 40
0.0837374929
 40
0.1268361398
 40
0.1710023145
 40
0.214773256
 40
0.2569739061
 40
0.2976308069
 40
0.3373690904
 40
0.3768592707
 40
0.4163473488
 40
0.45572592
 40
0.4950217539
 40
0.5339461406
 40
0.5728440402
 40
0.6136868373
 40
0.6582114644
 40
0.7072154921
 40
0.7593456709
 40
0.8147076377
 40
0.8733991844
 40
0.9353149354
 40
1.0
 40
1.0
 40
1.0
 40
1.0
 10
-45.9836762966
 20
0.3970348781
 30
0.0
 10
-45.9837022509
 20
0.321506923
 30
0.0
 10
-45.9793574825
 20
0.1700963308
 30
0.0
 10
-45.9609858437
 20
-0.0585479906
 30
0.0
 10
-45.9311946
 20
-0.2903436945
 30
0.0
 10
-45.8899269336
 20
-0.5236983682
 30
0.0
 10
-45.838391596
 20
-0.7533322015
 30
0.0
 10
-45.7784892916
 20
-0.97434863
 30
0.0
 10
-45.7118107369
 20
-1.1857717007
 30
0.0
 10
-45.6387009417
 20
-1.389854385
 30
0.0
 10
-45.5587813314
 20
-1.5890901125
 30
0.0
 10
-45.4719173385
 20
-1.7846828909
 30
0.0
 10
-45.3783553059
 20
-1.9767684203
 30
0.0
 10
-45.2785368857
 20
-2.1645279506
 30
0.0
 10
-45.1723178998
 20
-2.3477413738
 30
0.0
 10
-45.057890787
 20
-2.5292570355
 30
0.0
 10
-44.930980157
 20
-2.714695944
 30
0.0
 10
-44.7852391397
 20
-2.9091440725
 30
0.0
 10
-44.6172358489
 20
-3.1120652507
 30
0.0
 10
-44.4250973822
 20
-3.3199392063
 30
0.0
 10
-44.208201308
 20
-3.528108349
 30
0.0
 10
-43.9638994441
 20
-3.7323340479
 30
0.0
 10
-43.6900810785
 20
-3.9259731296
 30
0.0
 10
-43.4908768974
 20
-4.0397317097
 30
0.0
 10
-43.3861697885
 20
-4.0918004297
 30
0.0
 11
-45.9836762966
 21
0.3970348781
 31
0.0
 11
-45.9774291796
 21
0.1705371352
 31
0.0
 11
-45.9593771722
 21
-0.056308979
 31
0.0
 11
-45.9296443096
 21
-0.2881541013
 31
0.0
 11
-45.8880041026
 21
-0.5240405778
 31
0.0
 11
-45.8360526869
 21
-0.7556762528
 31
0.0
 11
-45.7762365509
 21
-0.9765951743
 31
0.0
 11
-45.7099553029
 21
-1.1868986717
 31
0.0
 11
-45.6372866689
 21
-1.3897970297
 31
0.0
 11
-45.5575809769
 21
-1.5885865964
 31
0.0
 11
-45.4706923587
 21
-1.7843307503
 31
0.0
 11
-45.3771663926
 21
-1.976331447
 31
0.0
 11
-45.2770739606
 21
-2.1644840829
 31
0.0
 11
-45.1711773929
 21
-2.3471072292
 31
0.0
 11
-45.0586846495
 21
-2.5255730486
 31
0.0
 11
-44.9335029456
 21
-2.7083186135
 31
0.0
 11
-44.7886394816
 21
-2.9015180568
 31
0.0
 11
-44.6190761665
 21
-3.1061708591
 31
0.0
 11
-44.4271082625
 21
-3.3137337349
 31
0.0
 11
-44.2103121179
 21
-3.5214634116
 31
0.0
 11
-43.9658210784
 21
-3.7252924376
 31
0.0
 11
-43.6912750421
 21
-3.9186434011
 31
0.0
 11
-43.3861697885
 21
-4.0918004297
 31
0.0
  0
SPLINE
  5
3B5
100
AcDbEntity
  8
RACCORDO
100
AcDbSpline
 62
253
  6
CONTINUOUS
 70
0
 71
3
 72
11
 73
7
 74
5
 42
0.0000001
 43
0.0000001
 44
0.0000000001
 12
5.1026699914
 22
-2.5311276088
 32
0.0
 13
5.0934248859
 23
-2.5496810361
 33
0.0
 40
0.0
 40
0.0
 40
0.0
 40
0.0
 40
0.2259875408
 40
0.4636376046
 40
0.7233665525
 40
1.0
 40
1.0
 40
1.0
 40
1.0
 10
-43.3861697885
 20
-4.0918004297
 30
0.0
 10
-43.0017898408
 20
-4.2824681976
 30
0.0
 10
-42.2150705356
 20
-4.6774165068
 30
0.0
 10
-40.9877581959
 20
-5.2938423866
 30
0.0
 10
-39.674774565
 20
-5.9539471892
 30
0.0
 10
-38.7642507543
 20
-6.4100315211
 30
0.0
 10
-38.2945801925
 20
-6.6451405394
 30
0.0
 11
-43.3861697885
 21
-4.0918004297
 31
0.0
 11
-42.2348791238
 21
-4.6675165772
 31
0.0
 11
-41.0252565592
 21
-5.2751039299
 31
0.0
 11
-39.7032921824
 21
-5.9392152384
 31
0.0
 11
-38.2945801925
 21
-6.6451405394
 31
0.0
  0
LINE
  5
3B6
100
AcDbEntity
  8
RACCORDO
100
AcDbLine
 62
253
  6
CONTINUOUS
 10
-38.2945801925
 20
-6.6451405394
 11
-37.7753653621
 21
-6.9049987535
  0
LINE
  5
3B7
100
AcDbEntity
  8
RACCORDO
100
AcDbLine
 62
253
  6
CONTINUOUS
 10
-37.7753653621
 20
-6.9049987535
 11
-36.1978383547
 21
-7.6943216588
  0
SPLINE
  5
3B8
100
AcDbEntity
  8
RACCORDO
100
AcDbSpline
 62
253
  6
CONTINUOUS
 70
0
 71
3
 72
9
 73
5
 74
3
 42
0.0000001
 43
0.0000001
 44
0.0000000001
 12
2.9092402629
 22
-1.4558976971
 32
0.0
 13
2.9093080784
 23
-1.4557621456
 33
0.0
 40
0.0
 40
0.0
 40
0.0
 40
0.0
 40
0.3840066899
 40
1.0
 40
1.0
 40
1.0
 40
1.0
 10
-36.1978383547
 20
-7.6943216588
 30
0.0
 10
-35.8254491136
 20
-7.8806798106
 30
0.0
 10
-34.8557491001
 20
-8.3660724475
 30
0.0
 10
-33.886257253
 20
-8.8518808719
 30
0.0
 10
-33.2888858153
 20
-9.1507941195
 30
0.0
 11
-36.1978383547
 21
-7.6943216588
 31
0.0
 11
-35.0807372253
 21
-8.2535291627
 31
0.0
 11
-33.2888858153
 21
-9.1507941195
 31
0.0
  0
SPLINE
  5
3B9
100
AcDbEntity
  8
RACCORDO
100
AcDbSpline
 62
253
  6
CONTINUOUS
 70
0
 71
3
 72
29
 73
25
 74
23
 42
0.0000001
 43
0.0000001
 44
0.0000000001
 12
21.8812577704
 22
-11.7972168535
 32
0.0
 13
22.2345211769
 23
-11.1170403653
 33
0.0
 40
0.0
 40
0.0
 40
0.0
 40
0.0
 40
0.010570591
 40
0.0279674434
 40
0.0473888045
 40
0.0690242859
 40
0.0929096456
 40
0.1189953891
 40
0.1475246239
 40
0.1786466063
 40
0.2125165173
 40
0.2492745405
 40
0.2890401153
 40
0.3320122887
 40
0.3784455158
 40
0.4285457289
 40
0.4825847032
 40
0.5409005006
 40
0.6038093269
 40
0.6716484276
 40
0.7447489681
 40
0.8234922866
 40
0.9083742406
 40
1.0
 40
1.0
 40
1.0
 40
1.0
 10
-53.5099826931
 20
-14.8005941516
 30
0.0
 10
-53.4328834178
 20
-14.8421620029
 30
0.0
 10
-53.228706397
 20
-14.9517899035
 30
0.0
 10
-52.8818120112
 20
-15.1358070045
 30
0.0
 10
-52.4522401275
 20
-15.3595908595
 30
0.0
 10
-51.9741508645
 20
-15.6066006759
 30
0.0
 10
-51.4475606326
 20
-15.8800422532
 30
0.0
 10
-50.8702333166
 20
-16.1797292238
 30
0.0
 10
-50.2388160878
 20
-16.5053686916
 30
0.0
 10
-49.5484238984
 20
-16.8573615322
 30
0.0
 10
-48.7957688313
 20
-17.2373340996
 30
0.0
 10
-47.9778937518
 20
-17.6470336288
 30
0.0
 10
-47.0915001192
 20
-18.088345139
 30
0.0
 10
-46.1326924738
 20
-18.5640882139
 30
0.0
 10
-45.0973083199
 20
-19.078166708
 30
0.0
 10
-43.9800702617
 20
-19.633593692
 30
0.0
 10
-42.7751174402
 20
-20.2337636802
 30
0.0
 10
-41.4758094875
 20
-20.8825534246
 30
0.0
 10
-40.0747646205
 20
-21.5835677872
 30
0.0
 10
-38.5646407525
 20
-22.3403645514
 30
0.0
 10
-36.9375149343
 20
-23.1565479434
 30
0.0
 10
-35.1841842343
 20
-24.0361029522
 30
0.0
 10
-33.2934220475
 20
-24.984044183
 30
0.0
 10
-31.9855726869
 20
-25.6388029432
 30
0.0
 10
-31.3064877245
 20
-25.9783386984
 30
0.0
 11
-53.5099826931
 21
-14.8005941516
 31
0.0
 11
-53.278463179
 21
-14.9248854037
 31
0.0
 11
-52.8963954409
 21
-15.1274956024
 31
0.0
 11
-52.4683935778
 21
-15.3508859223
 31
0.0
 11
-51.9907944537
 21
-15.598198794
 31
0.0
 11
-51.4637361717
 21
-15.8716281551
 31
0.0
 11
-50.888077657
 21
-16.1701574991
 31
0.0
 11
-50.257670191
 21
-16.4950525146
 31
0.0
 11
-49.5684875878
 21
-16.8465807627
 31
0.0
 11
-48.8169438206
 21
-17.2261733953
 31
0.0
 11
-48.0000159372
 21
-17.6355513291
 31
0.0
 11
-47.1151904683
 21
-18.076310446
 31
0.0
 11
-46.1584031334
 21
-18.5513813174
 31
0.0
 11
-45.1245657909
 21
-19.064738006
 31
0.0
 11
-44.0093628634
 21
-19.6191996597
 31
0.0
 11
-42.8069354093
 21
-20.2181562542
 31
0.0
 11
-41.5099442004
 21
-20.8657200399
 31
0.0
 11
-40.1113717403
 21
-21.5654302385
 31
0.0
 11
-38.6036626232
 21
-22.3209204509
 31
0.0
 11
-36.979313228
 21
-23.1355912807
 31
0.0
 11
-35.2296175031
 21
-24.0132288923
 31
0.0
 11
-33.3432897398
 21
-24.9588261737
 31
0.0
 11
-31.3064877245
 21
-25.9783386984
 31
0.0
  0
SPLINE
  5
3BA
100
AcDbEntity
  8
RACCORDO
100
AcDbSpline
 62
253
  6
CONTINUOUS
 70
0
 71
3
 72
12
 73
8
 74
6
 42
0.0000001
 43
0.0000001
 44
0.0000000001
 12
0.1563690867
 22
-2.7122041288
 32
0.0
 13
2.3602852631
 23
-1.3451973847
 33
0.0
 40
0.0
 40
0.0
 40
0.0
 40
0.0
 40
0.1901287861
 40
0.4044866895
 40
0.6219316054
 40
0.8266259442
 40
1.0
 40
1.0
 40
1.0
 40
1.0
 10
-55.7739749207
 20
-12.0125064143
 30
0.0
 10
-55.7640648324
 20
-12.1843957738
 30
0.0
 10
-55.7003873634
 20
-12.5480053934
 30
0.0
 10
-55.5048229108
 20
-13.0789834891
 30
0.0
 10
-55.2129579355
 20
-13.5797602185
 30
0.0
 10
-54.8600866475
 20
-13.9913000579
 30
0.0
 10
-54.5868849224
 20
-14.2037195961
 30
0.0
 10
-54.4504808461
 20
-14.2814603716
 30
0.0
 11
-55.7739749207
 21
-12.0125064143
 31
0.0
 11
-55.6901689182
 21
-12.5221867159
 31
0.0
 11
-55.490459341
 21
-13.0692197031
 31
0.0
 11
-55.1921022021
 21
-13.5790727105
 31
0.0
 11
-54.8271121025
 21
-13.9986243792
 31
0.0
 11
-54.4504808461
 21
-14.2814603716
 31
0.0
  0
SPLINE
  5
3BB
100
AcDbEntity
  8
0
100
AcDbSpline
 62
253
  6
CONTINUOUS
 70
0
 71
3
 72
10
 73
6
 74
4
 42
0.0000001
 43
0.0000001
 44
0.0000000001
 12
-0.5137090581
 22
0.2564811965
 32
0.0
 13
-0.0001910608
 23
0.5741772932
 33
0.0
 40
0.0
 40
0.0
 40
0.0
 40
0.0
 40
0.3138993823
 40
0.6690417903
 40
1.0
 40
1.0
 40
1.0
 40
1.0
 10
-43.2752677918
 20
-1.188728353
 30
0.0
 10
-43.3290187772
 20
-1.1618919233
 30
0.0
 10
-43.4278333705
 20
-1.0736936813
 30
0.0
 10
-43.5236756575
 20
-0.9056738447
 30
0.0
 10
-43.552619081
 20
-0.7740984919
 30
0.0
 10
-43.5526401587
 20
-0.7107555956
 30
0.0
 11
-43.2752677918
 21
-1.188728353
 31
0.0
 11
-43.414105266
 21
-1.0738004746
 31
0.0
 11
-43.5161297595
 21
-0.897243926
 31
0.0
 11
-43.5526401587
 21
-0.7107555956
 31
0.0
  0
SPLINE
  5
3BC
100
AcDbEntity
  8
RACCORDO
100
AcDbSpline
 62
253
  6
CONTINUOUS
 70
0
 71
3
 72
15
 73
11
 74
9
 42
0.0000001
 43
0.0000001
 44
0.0000000001
 12
8.9614149369
 22
-8.2066464177
 32
0.0
 13
10.6803692799
 23
-5.7953185085
 33
0.0
 40
0.0
 40
0.0
 40
0.0
 40
0.0
 40
0.0385884785
 40
0.1948644094
 40
0.4381961519
 40
0.5645206362
 40
0.6923397321
 40
0.8212322715
 40
0.9572022949
 40
1.0
 40
1.0
 40
1.0
 40
1.0
 10
-55.9290347749
 20
36.7615435366
 30
0.0
 10
-55.8137656525
 20
36.6559828704
 30
0.0
 10
-55.2284102161
 20
36.1264883176
 30
0.0
 10
-53.8764043798
 20
34.9755808749
 30
0.0
 10
-52.1782423641
 20
33.6865754067
 30
0.0
 10
-50.5178461938
 20
32.5445641979
 30
0.0
 10
-49.2152302403
 20
31.7014189591
 30
0.0
 10
-47.856763629
 20
30.8737428641
 30
0.0
 10
-46.7735886691
 20
30.2571957046
 30
0.0
 10
-46.1384699302
 20
29.9094389313
 30
0.0
 10
-45.9861048319
 20
29.8267634871
 30
0.0
 11
-55.9290347749
 21
36.7615435366
 31
0.0
 11
-55.5813102849
 21
36.4469677868
 31
0.0
 11
-54.1362371432
 21
35.2149600259
 31
0.0
 11
-51.7830174904
 21
33.4246754243
 31
0.0
 11
-50.5188713208
 21
32.5539225595
 31
0.0
 11
-49.2151452856
 21
31.7097300175
 31
0.0
 11
-47.8774076212
 21
30.8951691199
 31
0.0
 11
-46.4422412029
 21
30.0765489482
 31
0.0
 11
-45.9861048319
 21
29.8267634871
 31
0.0
  0
LINE
  5
3BD
100
AcDbEntity
  8
0
100
AcDbLine
 62
253
  6
CONTINUOUS
 10
-33.1640517273
 20
-6.2447648621
 11
-34.6983410709
 21
-5.4769173409
  0
LINE
  5
3BE
100
AcDbEntity
  8
0
100
AcDbLine
 62
253
  6
CONTINUOUS
 10
-34.6983410709
 20
-5.4769173409
 11
-35.0505866877
 21
-5.3008196735
  0
LINE
  5
3BF
100
AcDbEntity
  8
0
100
AcDbLine
 62
253
  6
CONTINUOUS
 10
-35.0505866877
 20
-5.3008196735
 11
-35.3923288625
 21
-5.1299951546
  0
LINE
  5
3C0
100
AcDbEntity
  8
0
100
AcDbLine
 62
253
  6
CONTINUOUS
 10
-35.3923288625
 20
-5.1299951546
 11
-35.72369877
 21
-4.9643270955
  0
LINE
  5
3C1
100
AcDbEntity
  8
0
100
AcDbLine
 62
253
  6
CONTINUOUS
 10
-35.72369877
 20
-4.9643270955
 11
-36.3562922576
 21
-4.648014502
  0
SPLINE
  5
3C2
100
AcDbEntity
  8
0
100
AcDbSpline
 62
253
  6
CONTINUOUS
 70
0
 71
3
 72
18
 73
14
 74
12
 42
0.0000001
 43
0.0000001
 44
0.0000000001
 12
-6.9188289242
 22
3.4595794275
 32
0.0
 13
-6.9214709874
 23
3.4542905783
 33
0.0
 40
0.0
 40
0.0
 40
0.0
 40
0.0
 40
0.1274829125
 40
0.2447599566
 40
0.3531212007
 40
0.4520375563
 40
0.5406064395
 40
0.6211022916
 40
0.6974274008
 40
0.7730076789
 40
0.848693334
 40
0.9243387889
 40
1.0
 40
1.0
 40
1.0
 40
1.0
 10
-36.3562922576
 20
-4.648014502
 30
0.0
 10
-36.6503030783
 20
-4.5010020816
 30
0.0
 10
-37.2147981139
 20
-4.2187684595
 30
0.0
 10
-38.0292012874
 20
-3.8115677341
 30
0.0
 10
-38.7777224004
 20
-3.4373103896
 30
0.0
 10
-39.4600311412
 20
-3.0961522597
 30
0.0
 10
-40.0780712647
 20
-2.7871216611
 30
0.0
 10
-40.6440079341
 20
-2.504139539
 30
0.0
 10
-41.1799897152
 20
-2.2361366334
 30
0.0
 10
-41.7048835266
 20
-1.9736921665
 30
0.0
 10
-42.228210057
 20
-1.7120318321
 30
0.0
 10
-42.7517648625
 20
-1.4503614862
 30
0.0
 10
-43.1007055669
 20
-1.2758469925
 30
0.0
 10
-43.2752678593
 20
-1.1887283897
 30
0.0
 11
-36.3562922576
 21
-4.648014502
 31
0.0
 11
-37.2383346789
 21
-4.2069971488
 31
0.0
 11
-38.049763973
 21
-3.8012868677
 31
0.0
 11
-38.7995046556
 21
-3.426418075
 31
0.0
 11
-39.4838948914
 21
-3.0842188643
 31
0.0
 11
-40.0966896426
 21
-2.7778113721
 31
0.0
 11
-40.6536268919
 21
-2.4993300111
 31
0.0
 11
-41.1817084596
 21
-2.2352796163
 31
0.0
 11
-41.7046405299
 21
-1.9738137468
 31
0.0
 11
-42.2283097113
 21
-1.7119993692
 31
0.0
 11
-42.7517169904
 21
-1.4503565452
 31
0.0
 11
-43.2752678593
 21
-1.1887283897
 31
0.0
  0
SPLINE
  5
3C3
100
AcDbEntity
  8
RACCORDO
100
AcDbSpline
 62
253
  6
CONTINUOUS
 70
0
 71
3
 72
37
 73
33
 74
31
 42
0.0000001
 43
0.0000001
 44
0.0000000001
 12
-1.3996176685
 22
-27.2342209896
 32
0.0
 13
-0.0194615638
 23
-27.2700426412
 33
0.0
 40
0.0
 40
0.0
 40
0.0
 40
0.0
 40
0.0053103463
 40
0.0199317042
 40
0.0328117306
 40
0.0443297273
 40
0.0552387705
 40
0.066264362
 40
0.077966639
 40
0.0908531612
 40
0.105385177
 40
0.1216559201
 40
0.1395602224
 40
0.1591724631
 40
0.1807819457
 40
0.204704358
 40
0.2312138012
 40
0.2603701269
 40
0.292175299
 40
0.3266719196
 40
0.3639449865
 40
0.4041556035
 40
0.4475508743
 40
0.4943509724
 40
0.5447993282
 40
0.5992246948
 40
0.6579933848
 40
0.7214428883
 40
0.7899195054
 40
0.8637704988
 40
0.9433680282
 40
1.0
 40
1.0
 40
1.0
 40
1.0
 10
-55.7905338877
 20
64.833904486
 30
0.0
 10
-55.7930113725
 20
64.7856967715
 30
0.0
 10
-55.8020714809
 20
64.6047429034
 30
0.0
 10
-55.8155834995
 20
64.3067870915
 30
0.0
 10
-55.8285323665
 20
63.9523317377
 30
0.0
 10
-55.8370548379
 20
63.6314962651
 30
0.0
 10
-55.8418626158
 20
63.3274474053
 30
0.0
 10
-55.8472573461
 20
63.0217352523
 30
0.0
 10
-55.8535654139
 20
62.6980609968
 30
0.0
 10
-55.8611351173
 20
62.3425327352
 30
0.0
 10
-55.8693449509
 20
61.9454813063
 30
0.0
 10
-55.878031598
 20
61.5028184687
 30
0.0
 10
-55.8870536299
 20
61.0139743658
 30
0.0
 10
-55.8963983932
 20
60.4765988784
 30
0.0
 10
-55.9053755621
 20
59.8845050778
 30
0.0
 10
-55.9135633207
 20
59.2296985242
 30
0.0
 10
-55.9207219191
 20
58.5062756264
 30
0.0
 10
-55.9275229005
 20
57.7111923463
 30
0.0
 10
-55.9337889798
 20
56.8434988171
 30
0.0
 10
-55.9389659761
 20
55.9020154287
 30
0.0
 10
-55.9425743539
 20
54.8841182938
 30
0.0
 10
-55.9438785439
 20
53.7853263897
 30
0.0
 10
-55.9425388123
 20
52.5999337808
 30
0.0
 10
-55.9386826441
 20
51.3214853737
 30
0.0
 10
-55.9327578746
 20
49.9427805718
 30
0.0
 10
-55.9260178804
 20
48.4552837459
 30
0.0
 10
-55.9205906303
 20
46.8495994197
 30
0.0
 10
-55.9181247052
 20
45.1161812311
 30
0.0
 10
-55.9187973274
 20
43.2456632573
 30
0.0
 10
-55.9225639925
 20
41.2283634133
 30
0.0
 10
-55.9267235388
 20
39.3187331043
 30
0.0
 10
-55.92836488
 20
38.0804053726
 30
0.0
 10
-55.9287322623
 20
37.5656199444
 30
0.0
 11
-55.7905338877
 21
64.833904486
 31
0.0
 11
-55.7977786014
 21
64.6892718038
 31
0.0
 11
-55.815679112
 21
64.2909487012
 31
0.0
 11
-55.8283691728
 21
63.9399390898
 31
0.0
 11
-55.8366241182
 21
63.6259512703
 31
0.0
 11
-55.8419362675
 21
63.3285085794
 31
0.0
 11
-55.8472383553
 21
63.027886932
 31
0.0
 11
-55.8534468524
 21
62.7088256845
 31
0.0
 11
-55.8607829174
 21
62.3574861945
 31
0.0
 11
-55.8689526128
 21
61.9612816595
 31
0.0
 11
-55.8776580762
 21
61.5176631351
 31
0.0
 11
-55.8866843751
 21
61.0294954065
 31
0.0
 11
-55.8958938404
 21
60.4947479732
 31
0.0
 11
-55.9048091387
 21
59.9055238038
 31
0.0
 11
-55.9130002644
 21
59.2532099185
 31
0.0
 11
-55.920329899
 21
58.5303333066
 31
0.0
 11
-55.9271480906
 21
57.7352681629
 31
0.0
 11
-55.9333733966
 21
56.8679619594
 31
0.0
 11
-55.9385327243
 21
55.9272516351
 31
0.0
 11
-55.9420953831
 21
54.910819583
 31
0.0
 11
-55.9434368412
 21
53.8142749769
 31
0.0
 11
-55.9422158406
 21
52.6308845239
 31
0.0
 11
-55.9385204104
 21
51.3546489866
 31
0.0
 11
-55.932861664
 21
49.978931579
 31
0.0
 11
-55.9264705723
 21
48.4947630225
 31
0.0
 11
-55.9212372578
 21
46.8921466144
 31
0.0
 11
-55.9186840678
 21
45.1618775387
 31
0.0
 11
-55.9192312443
 21
43.2945170357
 31
0.0
 11
-55.9225669407
 21
41.2805997212
 31
0.0
 11
-55.9268177483
 21
39.1099754949
 31
0.0
 11
-55.9287322623
 21
37.5656199444
 31
0.0
  0
LINE
  5
3C4
100
AcDbEntity
  8
RACCORDO
100
AcDbLine
 62
253
  6
CONTINUOUS
 10
-55.9287322623
 20
37.5656199444
 11
-55.9290024179
 21
37.001128035
  0
LINE
  5
3C5
100
AcDbEntity
  8
RACCORDO
100
AcDbLine
 62
253
  6
CONTINUOUS
 10
-55.9290024179
 20
37.001128035
 11
-55.9290312831
 21
36.7615404304
  0
LINE
  5
3C6
100
AcDbEntity
  8
0
100
AcDbLine
 62
253
  6
CONTINUOUS
 10
35.9914022853
 20
-40.8220634895
 11
35.8200038968
 21
-40.7362569945
  0
LINE
  5
3C7
100
AcDbEntity
  8
0
100
AcDbLine
 62
253
  6
CONTINUOUS
 10
35.8200038968
 20
-40.7362569945
 11
32.6164764864
 21
-39.1343983739
  0
LINE
  5
3C8
100
AcDbEntity
  8
0
100
AcDbLine
 62
253
  6
CONTINUOUS
 10
32.6164764864
 20
-39.1343983739
 11
32.4156182231
 21
-39.0339726045
  0
LINE
  5
3C9
100
AcDbEntity
  8
0
100
AcDbLine
 62
253
  6
CONTINUOUS
 10
32.4156182231
 20
-39.0339726045
 11
32.2069609961
 21
-38.9296468009
  0
LINE
  5
3CA
100
AcDbEntity
  8
0
100
AcDbLine
 62
253
  6
CONTINUOUS
 10
32.2069609961
 20
-38.9296468009
 11
28.7806033108
 21
-37.2164725926
  0
LINE
  5
3CB
100
AcDbEntity
  8
0
100
AcDbLine
 62
253
  6
CONTINUOUS
 10
28.7806033108
 20
-37.2164725926
 11
28.6659723625
 21
-37.1591605101
  0
SPLINE
  5
3CC
100
AcDbEntity
  8
0
100
AcDbSpline
 62
253
  6
CONTINUOUS
 70
0
 71
3
 72
10
 73
6
 74
4
 42
0.0000001
 43
0.0000001
 44
0.0000000001
 12
-2.7862410798
 22
1.3930514507
 32
0.0
 13
-2.7862164016
 23
1.3931008383
 33
0.0
 40
0.0
 40
0.0
 40
0.0
 40
0.0
 40
0.1945780102
 40
0.5771614376
 40
1.0
 40
1.0
 40
1.0
 40
1.0
 10
28.6659723625
 20
-37.1591605101
 30
0.0
 10
28.4852586141
 20
-37.068808117
 30
0.0
 10
27.9492275945
 20
-36.8007910189
 30
0.0
 10
27.0206011442
 20
-36.3361992521
 30
0.0
 10
26.2722192895
 20
-35.9628986874
 30
0.0
 10
25.8795127102
 20
-35.7665464354
 30
0.0
 11
28.6659723625
 21
-37.1591605101
 31
0.0
 11
28.1238423622
 21
-36.8880808289
 31
0.0
 11
27.057882564
 21
-36.3551026908
 31
0.0
 11
25.8795127102
 21
-35.7665464354
 31
0.0
  0
SPLINE
  5
3CD
100
AcDbEntity
  8
RACCORDO
100
AcDbSpline
 62
253
  6
CONTINUOUS
 70
0
 71
3
 72
11
 73
7
 74
5
 42
0.0000001
 43
0.0000001
 44
0.0000000001
 12
-0.7674202425
 22
0.3851339212
 32
0.0
 13
-0.7554535908
 23
-0.4129380016
 33
0.0
 40
0.0
 40
0.0
 40
0.0
 40
0.0
 40
0.3376539415
 40
0.6164204565
 40
0.8552219986
 40
1.0
 40
1.0
 40
1.0
 40
1.0
 10
-54.4507355529
 20
66.0914386152
 30
0.0
 10
-54.5371097095
 20
66.134785944
 30
0.0
 10
-54.7050501848
 20
66.1960283606
 30
0.0
 10
-54.9516887742
 20
66.217639412
 30
0.0
 10
-55.1403421461
 20
66.1820238949
 30
0.0
 10
-55.2414304635
 20
66.1373968122
 30
0.0
 10
-55.2778881505
 20
66.1174686994
 30
0.0
 11
-54.4507355529
 21
66.0914386152
 31
0.0
 11
-54.7240431625
 21
66.1881770414
 31
0.0
 11
-54.9626790069
 21
66.2067815751
 31
0.0
 11
-55.1639578477
 21
66.167665603
 31
0.0
 11
-55.2778881505
 21
66.1174686994
 31
0.0
  0
SPLINE
  5
3CE
100
AcDbEntity
  8
RACCORDO
100
AcDbSpline
 62
253
  6
CONTINUOUS
 70
0
 71
3
 72
15
 73
11
 74
9
 42
0.0000001
 43
0.0000001
 44
0.0000000001
 12
-0.9669110919
 22
-0.5285226504
 32
0.0
 13
-0.0872581259
 23
-1.0957200077
 33
0.0
 40
0.0
 40
0.0
 40
0.0
 40
0.0
 40
0.0542406846
 40
0.2104668501
 40
0.3602686543
 40
0.5058965214
 40
0.6476735707
 40
0.7847128824
 40
0.9160176985
 40
1.0
 40
1.0
 40
1.0
 40
1.0
 10
-55.2778881505
 20
66.1174686994
 30
0.0
 10
-55.2953701237
 20
66.1079128892
 30
0.0
 10
-55.3616902912
 20
66.0680824316
 30
0.0
 10
-55.4636410334
 20
65.9825782107
 30
0.0
 10
-55.5668637477
 20
65.8520809493
 30
0.0
 10
-55.644320266
 20
65.7112171288
 30
0.0
 10
-55.7003646963
 20
65.5657775188
 30
0.0
 10
-55.7387989381
 20
65.4202844617
 30
0.0
 10
-55.7603717903
 20
65.2928870639
 30
0.0
 10
-55.7684725917
 20
65.2143920105
 30
0.0
 10
-55.7709153045
 20
65.1837183145
 30
0.0
 11
-55.2778881505
 21
66.1174686994
 31
0.0
 11
-55.3291046082
 21
66.0867108068
 31
0.0
 11
-55.4611170891
 21
65.976938546
 31
0.0
 11
-55.5639148439
 21
65.8483485946
 31
0.0
 11
-55.6416730785
 21
65.7084660701
 31
0.0
 11
-55.698227124
 21
65.5632819573
 31
0.0
 11
-55.7370629414
 21
65.4177719247
 31
0.0
 11
-55.7613792167
 21
65.2755341253
 31
0.0
 11
-55.7709153045
 21
65.1837183145
 31
0.0
  0
SPLINE
  5
3CF
100
AcDbEntity
  8
RACCORDO
100
AcDbSpline
 62
253
  6
CONTINUOUS
 70
0
 71
3
 72
38
 73
34
 74
32
 42
0.0000001
 43
0.0000001
 44
0.0000000001
 12
0.000178111
 22
28.3992545551
 32
0.0
 13
1.0594062553
 23
28.3794876223
 33
0.0
 40
0.0
 40
0.0
 40
0.0
 40
0.0
 40
0.0830481828
 40
0.1596387988
 40
0.2303336786
 40
0.2956133208
 40
0.3559204505
 40
0.4116660389
 40
0.4632218043
 40
0.5109387702
 40
0.5551348897
 40
0.5960866424
 40
0.6340518493
 40
0.6692985044
 40
0.7019962275
 40
0.7321865542
 40
0.7598994192
 40
0.7851537192
 40
0.8079705519
 40
0.8285669021
 40
0.8472666538
 40
0.8643891251
 40
0.8801391595
 40
0.8944153631
 40
0.9070729099
 40
0.9183721698
 40
0.9287606062
 40
0.9386971572
 40
0.9486796941
 40
0.9593505573
 40
0.97131344
 40
0.9848324335
 40
1.0
 40
1.0
 40
1.0
 40
1.0
 10
53.4716042977
 20
-17.2973328854
 30
0.0
 10
53.4716092283
 20
-16.5111640575
 30
0.0
 10
53.4726678863
 20
-14.9999564629
 30
0.0
 10
53.4755291878
 20
-12.8195234835
 30
0.0
 10
53.4777642861
 20
-10.807294129
 30
0.0
 10
53.4782438356
 20
-8.9492096859
 30
0.0
 10
53.4768605228
 20
-7.2326419323
 30
0.0
 10
53.4738244628
 20
-5.6459925549
 30
0.0
 10
53.4697818782
 20
-4.178529835
 30
0.0
 10
53.4659527685
 20
-2.8203991008
 30
0.0
 10
53.4630741968
 20
-1.5626481503
 30
0.0
 10
53.4615591806
 20
-0.3972089901
 30
0.0
 10
53.4615600626
 20
0.6835119092
 30
0.0
 10
53.4630695093
 20
1.6860955447
 30
0.0
 10
53.465668053
 20
2.615076263
 30
0.0
 10
53.4689379913
 20
3.4727363
 30
0.0
 10
53.4725828413
 20
4.2599315009
 30
0.0
 10
53.4762528007
 20
4.9773251702
 30
0.0
 10
53.4801653012
 20
5.6273486467
 30
0.0
 10
53.4845246907
 20
6.2153197508
 30
0.0
 10
53.489368126
 20
6.7493798124
 30
0.0
 10
53.4944737351
 20
7.2375578011
 30
0.0
 10
53.4996318242
 20
7.6838574331
 30
0.0
 10
53.5044357043
 20
8.0878914288
 30
0.0
 10
53.5088039635
 20
8.4497947358
 30
0.0
 10
53.5128371439
 20
8.7748961598
 30
0.0
 10
53.5163710779
 20
9.0742436699
 30
0.0
 10
53.5193872786
 20
9.3611317112
 30
0.0
 10
53.521828271
 20
9.6506987206
 30
0.0
 10
53.5247004322
 20
9.9594449719
 30
0.0
 10
53.5295362704
 20
10.301650321
 30
0.0
 10
53.5381117583
 20
10.6863643673
 30
0.0
 10
53.5468193597
 20
10.9577896441
 30
0.0
 10
53.5521755646
 20
11.1012722324
 30
0.0
 11
53.4716042977
 21
-17.2973328854
 31
0.0
 11
53.4729608962
 21
-14.9388267918
 31
0.0
 11
53.4755264535
 21
-12.7637119055
 31
0.0
 11
53.4775245495
 21
-10.7560310124
 31
0.0
 11
53.4779142271
 21
-8.9021378763
 31
0.0
 11
53.4764971252
 21
-7.1894609353
 31
0.0
 11
53.4735179186
 21
-5.6063305827
 31
0.0
 11
53.4696654002
 21
-4.1421903453
 31
0.0
 11
53.4659832573
 21
-2.7870690858
 31
0.0
 11
53.4632186142
 21
-1.5319352847
 31
0.0
 11
53.4617841023
 21
-0.3689369191
 31
0.0
 11
53.4618405218
 21
0.7092466542
 31
0.0
 11
53.4633294039
 21
1.7102242785
 31
0.0
 11
53.4658978634
 21
2.6388116863
 31
0.0
 11
53.4691492271
 21
3.4961882947
 31
0.0
 11
53.4727572405
 21
4.2832047317
 31
0.0
 11
53.4764842874
 21
5.0003983437
 31
0.0
 11
53.480450201
 21
5.6483672462
 31
0.0
 11
53.4848268924
 21
6.2332718635
 31
0.0
 11
53.489631906
 21
6.7643091341
 31
0.0
 11
53.4947023709
 21
7.2505481192
 31
0.0
 11
53.4998190474
 21
7.6978080894
 31
0.0
 11
53.5046308005
 21
8.1032130752
 31
0.0
 11
53.5089803987
 21
8.4626516504
 31
0.0
 11
53.5129106476
 21
8.7835181411
 31
0.0
 11
53.5163566493
 21
9.0785218636
 31
0.0
 11
53.5192849406
 21
9.3606973115
 31
0.0
 11
53.5218132076
 21
9.6441826446
 31
0.0
 11
53.5248165797
 21
9.9472123212
 31
0.0
 11
53.5297616952
 21
10.2869132798
 31
0.0
 11
53.5383538085
 21
10.6707464632
 31
0.0
 11
53.5521755646
 21
11.1012722324
 31
0.0
  0
SPLINE
  5
3D0
100
AcDbEntity
  8
RACCORDO
100
AcDbSpline
 62
253
  6
CONTINUOUS
 70
0
 71
3
 72
9
 73
5
 74
3
 42
0.0000001
 43
0.0000001
 44
0.0000000001
 12
-0.0880043072
 22
0.0463114805
 32
0.0
 13
-0.0964811352
 23
-0.02757279
 33
0.0
 40
0.0
 40
0.0
 40
0.0
 40
0.0
 40
0.3073564576
 40
1.0
 40
1.0
 40
1.0
 40
1.0
 10
19.5366517991
 20
-29.6079781109
 30
0.0
 10
19.5276355684
 20
-29.6032334
 30
0.0
 10
19.4966575373
 20
-29.5915238729
 30
0.0
 10
19.4627949401
 20
-29.5948637011
 30
0.0
 10
19.4405192617
 20
-29.6012297394
 30
0.0
 11
19.5366517991
 21
-29.6079781109
 31
0.0
 11
19.5083204734
 21
-29.5974570849
 31
0.0
 11
19.4405192617
 21
-29.6012297394
 31
0.0
  0
SPLINE
  5
3D1
100
AcDbEntity
  8
RACCORDO
100
AcDbSpline
 62
253
  6
CONTINUOUS
 70
0
 71
3
 72
8
 73
4
 74
2
 42
0.0000001
 43
0.0000001
 44
0.0000000001
 12
-0.036940458
 22
-0.0105570015
 32
0.0
 13
-0.0334801607
 23
-0.0163822381
 33
0.0
 40
0.0
 40
0.0
 40
0.0
 40
0.0
 40
1.0
 40
1.0
 40
1.0
 40
1.0
 10
19.4405192617
 20
-29.6012297394
 30
0.0
 10
19.4282057757
 20
-29.6047487399
 30
0.0
 10
19.4162525574
 20
-29.6095061024
 30
0.0
 10
19.4050925038
 20
-29.6149668484
 30
0.0
 11
19.4405192617
 21
-29.6012297394
 31
0.0
 11
19.4050925038
 21
-29.6149668484
 31
0.0
  0
SPLINE
  5
3D2
100
AcDbEntity
  8
RACCORDO
100
AcDbSpline
 62
253
  6
CONTINUOUS
 70
0
 71
3
 72
15
 73
11
 74
9
 42
0.0000001
 43
0.0000001
 44
0.0000000001
 12
13.3966858166
 22
-6.1723800025
 32
0.0
 13
14.2295351608
 23
-3.8845581587
 33
0.0
 40
0.0
 40
0.0
 40
0.0
 40
0.0
 40
0.0372609883
 40
0.1584516601
 40
0.2778454003
 40
0.4005453676
 40
0.5261476003
 40
0.7816646696
 40
0.9557478391
 40
1.0
 40
1.0
 40
1.0
 40
1.0
 10
38.4533123499
 20
-32.7445577276
 30
0.0
 10
38.6197036009
 20
-32.8212207206
 30
0.0
 10
39.328405676
 20
-33.1447792901
 30
0.0
 10
40.5795765385
 20
-33.6935959348
 30
0.0
 10
42.2324768228
 20
-34.3709955716
 30
0.0
 10
43.9192556062
 20
-35.0218469074
 30
0.0
 10
46.2478421629
 20
-35.8672423721
 30
0.0
 10
48.8426559889
 20
-36.7177017975
 30
0.0
 10
51.078647538
 20
-37.3729764175
 30
0.0
 10
52.1133734517
 20
-37.6589059608
 30
0.0
 10
52.323269345
 20
-37.7162059917
 30
0.0
 11
38.4533123499
 21
-32.7445577276
 31
0.0
 11
38.9532826448
 21
-32.9728099169
 31
0.0
 11
40.5905229976
 21
-33.6903931251
 31
0.0
 11
42.2196448019
 21
-34.3592619563
 31
0.0
 11
43.9080298948
 21
-35.011124973
 31
0.0
 11
45.6495356359
 21
-35.6431980565
 31
0.0
 11
49.2301048726
 21
-36.8198078793
 31
0.0
 11
51.6941204122
 21
-37.5423444483
 31
0.0
 11
52.323269345
 21
-37.7162059917
 31
0.0
  0
SPLINE
  5
3D3
100
AcDbEntity
  8
RACCORDO
100
AcDbSpline
 62
253
  6
CONTINUOUS
 70
0
 71
3
 72
8
 73
4
 74
2
 42
0.0000001
 43
0.0000001
 44
0.0000000001
 12
0.0005169474
 22
-0.033658557
 32
0.0
 13
-0.0114833664
 23
-0.0304459677
 33
0.0
 40
0.0
 40
0.0
 40
0.0
 40
0.0
 40
1.0
 40
1.0
 40
1.0
 40
1.0
 10
19.7013402617
 20
-30.1383712926
 30
0.0
 10
19.7015125775
 20
-30.1495908116
 30
0.0
 10
19.6997659973
 20
-30.160735278
 30
0.0
 10
19.6959382085
 20
-30.1708839339
 30
0.0
 11
19.7013402617
 21
-30.1383712926
 31
0.0
 11
19.6959382085
 21
-30.1708839339
 31
0.0
  0
SPLINE
  5
3D4
100
AcDbEntity
  8
RACCORDO
100
AcDbSpline
 62
253
  6
CONTINUOUS
 70
0
 71
3
 72
8
 73
4
 74
2
 42
0.0000001
 43
0.0000001
 44
0.0000000001
 12
-0.0215907502
 22
-0.0572437789
 32
0.0
 13
-0.0505420159
 23
-0.0384848867
 33
0.0
 40
0.0
 40
0.0
 40
0.0
 40
0.0
 40
1.0
 40
1.0
 40
1.0
 40
1.0
 10
19.6959382085
 20
-30.1708839339
 30
0.0
 10
19.6887412917
 20
-30.1899651935
 30
0.0
 10
19.6741871738
 20
-30.2055262016
 30
0.0
 10
19.6573398352
 20
-30.2183544971
 30
0.0
 11
19.6959382085
 21
-30.1708839339
 31
0.0
 11
19.6573398352
 21
-30.2183544971
 31
0.0
  0
SPLINE
  5
3D5
100
AcDbEntity
  8
RACCORDO
100
AcDbSpline
 62
253
  6
CONTINUOUS
 70
0
 71
3
 72
8
 73
4
 74
2
 42
0.0000001
 43
0.0000001
 44
0.0000000001
 12
-0.0298013206
 22
-0.0226920203
 32
0.0
 13
-0.0314706982
 23
-0.0174758757
 33
0.0
 40
0.0
 40
0.0
 40
0.0
 40
0.0
 40
1.0
 40
1.0
 40
1.0
 40
1.0
 10
19.6573398352
 20
-30.2183544971
 30
0.0
 10
19.6474060616
 20
-30.2259185039
 30
0.0
 10
19.6366750065
 20
-30.2325324314
 30
0.0
 10
19.6261847737
 20
-30.2383577233
 30
0.0
 11
19.6573398352
 21
-30.2183544971
 31
0.0
 11
19.6261847737
 21
-30.2383577233
 31
0.0
  0
SPLINE
  5
3D6
100
AcDbEntity
  8
RACCORDO
100
AcDbSpline
 62
253
  6
CONTINUOUS
 70
0
 71
3
 72
38
 73
34
 74
32
 42
0.0000001
 43
0.0000001
 44
0.0000000001
 12
0.0000643371
 22
28.4776541618
 32
0.0
 13
0.2033419986
 23
28.4769281805
 33
0.0
 40
0.0
 40
0.0
 40
0.0
 40
0.0
 40
0.0828711115
 40
0.159291356
 40
0.229800432
 40
0.2948705903
 40
0.3549549683
 40
0.4104706706
 40
0.4618211778
 40
0.5093737495
 40
0.5534509177
 40
0.5943257131
 40
0.6322502716
 40
0.6674799083
 40
0.7001703097
 40
0.7303598553
 40
0.758076053
 40
0.7833444219
 40
0.8062097174
 40
0.8268778678
 40
0.8456569354
 40
0.8628471565
 40
0.8786496807
 40
0.8929556113
 40
0.9056523656
 40
0.9169668084
 40
0.9273373872
 40
0.9372241251
 40
0.9472127678
 40
0.9580491253
 40
0.9703494732
 40
0.9843180537
 40
1.0
 40
1.0
 40
1.0
 40
1.0
 10
52.3232655185
 20
-17.3646079704
 30
0.0
 10
52.3232672957
 20
-16.5779496858
 30
0.0
 10
52.3228971362
 20
-15.0658682991
 30
0.0
 10
52.3218007186
 20
-12.8844761768
 30
0.0
 10
52.3209542891
 20
-10.8720603757
 30
0.0
 10
52.3209747047
 20
-9.0147134285
 30
0.0
 10
52.3217120935
 20
-7.29969198
 30
0.0
 10
52.3232764311
 20
-5.7149056897
 30
0.0
 10
52.3247296966
 20
-4.2490781975
 30
0.0
 10
52.3254552105
 20
-2.8918309449
 30
0.0
 10
52.3251331173
 20
-1.6340247417
 30
0.0
 10
52.323960155
 20
-0.4676135249
 30
0.0
 10
52.3221221957
 20
0.6148110217
 30
0.0
 10
52.3200494409
 20
1.6195441594
 30
0.0
 10
52.3180256132
 20
2.5508522267
 30
0.0
 10
52.315914176
 20
3.4108382239
 30
0.0
 10
52.3137510171
 20
4.2003697496
 30
0.0
 10
52.3115473186
 20
4.9203752898
 30
0.0
 10
52.3084342218
 20
5.5734728455
 30
0.0
 10
52.3052890288
 20
6.1649691565
 30
0.0
 10
52.3026136234
 20
6.7025964342
 30
0.0
 10
52.3008980821
 20
7.1940401249
 30
0.0
 10
52.2995473056
 20
7.6430232614
 30
0.0
 10
52.298986641
 20
8.0493537902
 30
0.0
 10
52.2975117568
 20
8.4130783406
 30
0.0
 10
52.2967806945
 20
8.739448368
 30
0.0
 10
52.2964429239
 20
9.0391449211
 30
0.0
 10
52.2964271196
 20
9.3262557894
 30
0.0
 10
52.2946683349
 20
9.6177891039
 30
0.0
 10
52.2887655303
 20
9.932182015
 30
0.0
 10
52.2816708814
 20
10.2843336631
 30
0.0
 10
52.2769040639
 20
10.6825341451
 30
0.0
 10
52.2771770879
 20
10.9640031837
 30
0.0
 10
52.2782400207
 20
11.1128610696
 30
0.0
 11
52.3232655185
 21
-17.3646079704
 31
0.0
 11
52.3227766303
 21
-15.0046331672
 31
0.0
 11
52.3218034616
 21
-12.8283640914
 31
0.0
 11
52.3210828037
 21
-10.8204311385
 31
0.0
 11
52.3211097738
 21
-8.9673856738
 31
0.0
 11
52.3218959022
 21
-7.2563237195
 31
0.0
 11
52.3233166455
 21
-5.6753673863
 31
0.0
 11
52.3246498109
 21
-4.2130260102
 31
0.0
 11
52.3252876355
 21
-2.8588404678
 31
0.0
 11
52.3249626162
 21
-1.6036261569
 31
0.0
 11
52.3237926388
 21
-0.4396084573
 31
0.0
 11
52.3220106402
 21
0.6403925326
 31
0.0
 11
52.3199806151
 21
1.6436478891
 31
0.0
 11
52.317928515
 21
2.5745915721
 31
0.0
 11
52.3158140108
 21
3.4343164127
 31
0.0
 11
52.3136431955
 21
4.2236057192
 31
0.0
 11
52.3112626902
 21
4.9431856528
 31
0.0
 11
52.3082720301
 21
5.5943287615
 31
0.0
 11
52.3052287327
 21
6.1829013344
 31
0.0
 11
52.3026768189
 21
6.7176790371
 31
0.0
 11
52.3008931033
 21
7.2072129593
 31
0.0
 11
52.2996327939
 21
7.6572300145
 31
0.0
 11
52.2987731009
 21
8.0646284513
 31
0.0
 11
52.2975742187
 21
8.4262002401
 31
0.0
 11
52.2968229926
 21
8.7484081538
 31
0.0
 11
52.2964917732
 21
9.0437377248
 31
0.0
 11
52.2961480997
 21
9.325288619
 31
0.0
 11
52.2941375106
 21
9.6097346254
 31
0.0
 11
52.2889603917
 21
9.9182852362
 31
0.0
 11
52.2824366517
 21
10.2685095352
 31
0.0
 11
52.2779071023
 21
10.6662761513
 31
0.0
 11
52.2782400207
 21
11.1128610696
 31
0.0
  0
SPLINE
  5
3D7
100
AcDbEntity
  8
RACCORDO
100
AcDbSpline
 62
253
  6
CONTINUOUS
 70
0
 71
3
 72
15
 73
11
 74
9
 42
0.0000001
 43
0.0000001
 44
0.0000000001
 12
-14.2295350894
 22
3.884558167
 32
0.0
 13
-13.3966857434
 23
6.1723800019
 33
0.0
 40
0.0
 40
0.0
 40
0.0
 40
0.0
 40
0.0442521592
 40
0.2183353296
 40
0.4738524005
 40
0.599454634
 40
0.7221546019
 40
0.8415483428
 40
0.9627390154
 40
1.0
 40
1.0
 40
1.0
 40
1.0
 10
52.3232693168
 20
-17.3646090987
 30
0.0
 10
52.1133734329
 20
-17.3073090699
 30
0.0
 10
51.0786475282
 20
-17.0213795266
 30
0.0
 10
48.842655988
 20
-16.3661048985
 30
0.0
 10
46.2478421636
 20
-15.5156454562
 30
0.0
 10
43.9192556064
 20
-14.6702499825
 30
0.0
 10
42.2324768227
 20
-14.0193986416
 30
0.0
 10
40.5795765384
 20
-13.3419989991
 30
0.0
 10
39.3284056933
 20
-12.7931823576
 30
0.0
 10
38.6197036353
 20
-12.4696237938
 30
0.0
 10
38.4533124014
 20
-12.3929608083
 30
0.0
 11
52.3232693168
 21
-17.3646090987
 31
0.0
 11
51.6941204122
 21
-17.1907475615
 31
0.0
 11
49.2301048726
 21
-16.4682109818
 31
0.0
 11
45.6495356359
 21
-15.2916011386
 31
0.0
 11
43.9080298948
 21
-14.6595280482
 31
0.0
 11
42.2196448019
 21
-14.0076650261
 31
0.0
 11
40.5905229976
 21
-13.3387961894
 31
0.0
 11
38.9532826448
 21
-12.6212129756
 31
0.0
 11
38.4533124014
 21
-12.3929608083
 31
0.0
  0
SPLINE
  5
3D8
100
AcDbEntity
  8
0
100
AcDbSpline
 62
253
  6
CONTINUOUS
 70
0
 71
3
 72
8
 73
4
 74
2
 42
0.0000001
 43
0.0000001
 44
0.0000000001
 12
0.0000345204
 22
0.1042908339
 32
0.0
 13
0.0334269775
 23
0.1001406954
 33
0.0
 40
0.0
 40
0.0
 40
0.0
 40
0.0
 40
1.0
 40
1.0
 40
1.0
 40
1.0
 10
-43.552640159
 20
37.8273748727
 30
0.0
 10
-43.5526286522
 20
37.862138484
 30
0.0
 10
-43.5490390279
 20
37.8982982364
 30
0.0
 10
-43.537896702
 20
37.9316784682
 30
0.0
 11
-43.552640159
 21
37.8273748727
 31
0.0
 11
-43.537896702
 21
37.9316784682
 31
0.0
  0
SPLINE
  5
3D9
100
AcDbEntity
  8
RACCORDO
100
AcDbSpline
 62
253
  6
CONTINUOUS
 70
0
 71
3
 72
9
 73
5
 74
3
 42
0.0000001
 43
0.0000001
 44
0.0000000001
 12
0.1152286097
 22
0.0549177958
 32
0.0
 13
0.1097676108
 23
-0.0608892723
 33
0.0
 40
0.0
 40
0.0
 40
0.0
 40
0.0
 40
0.1964382824
 40
1.0
 40
1.0
 40
1.0
 40
1.0
 10
15.5260500026
 20
-27.7233259149
 30
0.0
 10
15.533595106
 20
-27.7197299291
 30
0.0
 10
15.5736940176
 20
-27.7059424739
 30
0.0
 10
15.618772051
 20
-27.7201980342
 30
0.0
 10
15.6481737343
 20
-27.7365074636
 30
0.0
 11
15.5260500026
 21
-27.7233259149
 31
0.0
 11
15.549541163
 21
-27.7153952849
 31
0.0
 11
15.6481737343
 21
-27.7365074636
 31
0.0
  0
LINE
  5
3DA
100
AcDbEntity
  8
0
100
AcDbLine
 62
253
  6
CONTINUOUS
 10
-43.5529181025
 20
28.733978532
 11
-43.5526401623
 21
37.8273748711
  0
SPLINE
  5
3DB
100
AcDbEntity
  8
RACCORDO
100
AcDbSpline
 62
253
  6
CONTINUOUS
 70
0
 71
3
 72
11
 73
7
 74
5
 42
0.0000001
 43
0.0000001
 44
0.0000000001
 12
0.00302709
 22
9.0834712585
 32
0.0
 13
0.0720752089
 23
9.0831858085
 33
0.0
 40
0.0
 40
0.0
 40
0.0
 40
0.0
 40
0.2772554098
 40
0.5360613224
 40
0.7777127739
 40
1.0
 40
1.0
 40
1.0
 40
1.0
 10
38.4539489619
 20
-12.3932541916
 30
0.0
 10
38.454228721
 20
-11.5537736761
 30
0.0
 10
38.4567860484
 20
-9.9306765655
 30
0.0
 10
38.4579184668
 20
-7.5758963488
 30
0.0
 10
38.454981427
 20
-5.3875613246
 30
0.0
 10
38.4568159928
 20
-3.9828191877
 30
0.0
 10
38.4621564589
 20
-3.3097937951
 30
0.0
 11
38.4539489619
 21
-12.3932541916
 31
0.0
 11
38.4563987681
 21
-9.8748136968
 31
0.0
 11
38.4572046805
 21
-7.5239576361
 31
0.0
 11
38.4559119598
 21
-5.328923881
 31
0.0
 11
38.4621564589
 21
-3.3097937951
 31
0.0
  0
LINE
  5
3DC
100
AcDbEntity
  8
0
100
AcDbLine
 62
253
  6
CONTINUOUS
 10
-43.552640162
 20
-0.7107555971
 11
-43.5529181033
 21
8.3823920516
  0
SPLINE
  5
3DD
100
AcDbEntity
  8
RACCORDO
100
AcDbSpline
 62
253
  6
CONTINUOUS
 70
0
 71
3
 72
8
 73
4
 74
2
 42
0.0000001
 43
0.0000001
 44
0.0000000001
 12
0.0005169474
 22
-0.033658557
 32
0.0
 13
-0.0114833664
 23
-0.0304459677
 33
0.0
 40
0.0
 40
0.0
 40
0.0
 40
0.0
 40
1.0
 40
1.0
 40
1.0
 40
1.0
 10
3.791437685
 20
-22.1834200043
 30
0.0
 10
3.7916100008
 20
-22.1946395233
 30
0.0
 10
3.7898634206
 20
-22.2057839896
 30
0.0
 10
3.7860356318
 20
-22.2159326455
 30
0.0
 11
3.791437685
 21
-22.1834200043
 31
0.0
 11
3.7860356318
 21
-22.2159326455
 31
0.0
  0
SPLINE
  5
3DE
100
AcDbEntity
  8
RACCORDO
100
AcDbSpline
 62
253
  6
CONTINUOUS
 70
0
 71
3
 72
8
 73
4
 74
2
 42
0.0000001
 43
0.0000001
 44
0.0000000001
 12
-0.0215907502
 22
-0.0572437789
 32
0.0
 13
-0.0505420159
 23
-0.0384848867
 33
0.0
 40
0.0
 40
0.0
 40
0.0
 40
0.0
 40
1.0
 40
1.0
 40
1.0
 40
1.0
 10
3.7860356318
 20
-22.2159326455
 30
0.0
 10
3.778838715
 20
-22.2350139052
 30
0.0
 10
3.7642845971
 20
-22.2505749132
 30
0.0
 10
3.7474372585
 20
-22.2634032088
 30
0.0
 11
3.7860356318
 21
-22.2159326455
 31
0.0
 11
3.7474372585
 21
-22.2634032088
 31
0.0
  0
SPLINE
  5
3DF
100
AcDbEntity
  8
RACCORDO
100
AcDbSpline
 62
253
  6
CONTINUOUS
 70
0
 71
3
 72
8
 73
4
 74
2
 42
0.0000001
 43
0.0000001
 44
0.0000000001
 12
-0.0298013206
 22
-0.0226920203
 32
0.0
 13
-0.0314706982
 23
-0.0174758757
 33
0.0
 40
0.0
 40
0.0
 40
0.0
 40
0.0
 40
1.0
 40
1.0
 40
1.0
 40
1.0
 10
3.7474372585
 20
-22.2634032088
 30
0.0
 10
3.7375034849
 20
-22.2709672155
 30
0.0
 10
3.7267724298
 20
-22.277581143
 30
0.0
 10
3.716282197
 20
-22.2834064349
 30
0.0
 11
3.7474372585
 21
-22.2634032088
 31
0.0
 11
3.716282197
 21
-22.2834064349
 31
0.0
  0
SPLINE
  5
3E0
100
AcDbEntity
  8
RACCORDO
100
AcDbSpline
 62
253
  6
CONTINUOUS
 70
0
 71
3
 72
9
 73
5
 74
3
 42
0.0000001
 43
0.0000001
 44
0.0000000001
 12
-0.0880043072
 22
0.0463114805
 32
0.0
 13
-0.0964811352
 23
-0.02757279
 33
0.0
 40
0.0
 40
0.0
 40
0.0
 40
0.0
 40
0.3073564576
 40
1.0
 40
1.0
 40
1.0
 40
1.0
 10
3.6267492224
 20
-21.6530268226
 30
0.0
 10
3.6177329917
 20
-21.6482821117
 30
0.0
 10
3.5867549606
 20
-21.6365725846
 30
0.0
 10
3.5528923634
 20
-21.6399124127
 30
0.0
 10
3.530616685
 20
-21.646278451
 30
0.0
 11
3.6267492224
 21
-21.6530268226
 31
0.0
 11
3.5984178967
 21
-21.6425057965
 31
0.0
 11
3.530616685
 21
-21.646278451
 31
0.0
  0
SPLINE
  5
3E1
100
AcDbEntity
  8
RACCORDO
100
AcDbSpline
 62
253
  6
CONTINUOUS
 70
0
 71
3
 72
8
 73
4
 74
2
 42
0.0000001
 43
0.0000001
 44
0.0000000001
 12
-0.036940458
 22
-0.0105570015
 32
0.0
 13
-0.0334801607
 23
-0.0163822381
 33
0.0
 40
0.0
 40
0.0
 40
0.0
 40
0.0
 40
1.0
 40
1.0
 40
1.0
 40
1.0
 10
3.530616685
 20
-21.646278451
 30
0.0
 10
3.518303199
 20
-21.6497974515
 30
0.0
 10
3.5063499807
 20
-21.654554814
 30
0.0
 10
3.4951899271
 20
-21.6600155601
 30
0.0
 11
3.530616685
 21
-21.646278451
 31
0.0
 11
3.4951899271
 21
-21.6600155601
 31
0.0
  0
SPLINE
  5
3E2
100
AcDbEntity
  8
RACCORDO
100
AcDbSpline
 62
253
  6
CONTINUOUS
 70
0
 71
3
 72
9
 73
5
 74
3
 42
0.0000001
 43
0.0000001
 44
0.0000000001
 12
0.1152286097
 22
0.0549177958
 32
0.0
 13
0.1097676108
 23
-0.0608892723
 33
0.0
 40
0.0
 40
0.0
 40
0.0
 40
0.0
 40
0.1964382824
 40
1.0
 40
1.0
 40
1.0
 40
1.0
 10
-0.3838525741
 20
-19.7683746266
 30
0.0
 10
-0.3763074707
 20
-19.7647786407
 30
0.0
 10
-0.3362085591
 20
-19.7509911856
 30
0.0
 10
-0.2911305257
 20
-19.7652467459
 30
0.0
 10
-0.2617288424
 20
-19.7815561753
 30
0.0
 11
-0.3838525741
 21
-19.7683746266
 31
0.0
 11
-0.3603614137
 21
-19.7604439966
 31
0.0
 11
-0.2617288424
 21
-19.7815561753
 31
0.0
  0
SPLINE
  5
3E3
100
AcDbEntity
  8
RACCORDO
100
AcDbSpline
 62
253
  6
CONTINUOUS
 70
0
 71
3
 72
9
 73
5
 74
3
 42
0.0000001
 43
0.0000001
 44
0.0000000001
 12
-0.0880043072
 22
0.0463114805
 32
0.0
 13
-0.0964811352
 23
-0.02757279
 33
0.0
 40
0.0
 40
0.0
 40
0.0
 40
0.0
 40
0.3073564576
 40
1.0
 40
1.0
 40
1.0
 40
1.0
 10
-12.2831533543
 20
-13.6980755342
 30
0.0
 10
-12.292169585
 20
-13.6933308234
 30
0.0
 10
-12.3231476161
 20
-13.6816212962
 30
0.0
 10
-12.3570102133
 20
-13.6849611244
 30
0.0
 10
-12.3792858917
 20
-13.6913271627
 30
0.0
 11
-12.2831533543
 21
-13.6980755342
 31
0.0
 11
-12.31148468
 21
-13.6875545082
 31
0.0
 11
-12.3792858917
 21
-13.6913271627
 31
0.0
  0
SPLINE
  5
3E4
100
AcDbEntity
  8
RACCORDO
100
AcDbSpline
 62
253
  6
CONTINUOUS
 70
0
 71
3
 72
8
 73
4
 74
2
 42
0.0000001
 43
0.0000001
 44
0.0000000001
 12
-0.036940458
 22
-0.0105570015
 32
0.0
 13
-0.0334801607
 23
-0.0163822381
 33
0.0
 40
0.0
 40
0.0
 40
0.0
 40
0.0
 40
1.0
 40
1.0
 40
1.0
 40
1.0
 10
-12.3792858917
 20
-13.6913271627
 30
0.0
 10
-12.3915993777
 20
-13.6948461632
 30
0.0
 10
-12.403552596
 20
-13.6996035257
 30
0.0
 10
-12.4147126496
 20
-13.7050642717
 30
0.0
 11
-12.3792858917
 21
-13.6913271627
 31
0.0
 11
-12.4147126496
 21
-13.7050642717
 31
0.0
  0
SPLINE
  5
3E5
100
AcDbEntity
  8
RACCORDO
100
AcDbSpline
 62
253
  6
CONTINUOUS
 70
0
 71
3
 72
8
 73
4
 74
2
 42
0.0000001
 43
0.0000001
 44
0.0000000001
 12
0.0005169474
 22
-0.033658557
 32
0.0
 13
-0.0114833664
 23
-0.0304459677
 33
0.0
 40
0.0
 40
0.0
 40
0.0
 40
0.0
 40
1.0
 40
1.0
 40
1.0
 40
1.0
 10
-12.1184648917
 20
-14.2284687159
 30
0.0
 10
-12.1182925759
 20
-14.2396882349
 30
0.0
 10
-12.1200391561
 20
-14.2508327013
 30
0.0
 10
-12.1238669449
 20
-14.2609813572
 30
0.0
 11
-12.1184648917
 21
-14.2284687159
 31
0.0
 11
-12.1238669449
 21
-14.2609813572
 31
0.0
  0
SPLINE
  5
3E6
100
AcDbEntity
  8
RACCORDO
100
AcDbSpline
 62
253
  6
CONTINUOUS
 70
0
 71
3
 72
8
 73
4
 74
2
 42
0.0000001
 43
0.0000001
 44
0.0000000001
 12
-0.0215907502
 22
-0.0572437789
 32
0.0
 13
-0.0505420159
 23
-0.0384848867
 33
0.0
 40
0.0
 40
0.0
 40
0.0
 40
0.0
 40
1.0
 40
1.0
 40
1.0
 40
1.0
 10
-12.1238669449
 20
-14.2609813572
 30
0.0
 10
-12.1310638617
 20
-14.2800626168
 30
0.0
 10
-12.1456179796
 20
-14.2956236249
 30
0.0
 10
-12.1624653182
 20
-14.3084519204
 30
0.0
 11
-12.1238669449
 21
-14.2609813572
 31
0.0
 11
-12.1624653182
 21
-14.3084519204
 31
0.0
  0
SPLINE
  5
3E7
100
AcDbEntity
  8
RACCORDO
100
AcDbSpline
 62
253
  6
CONTINUOUS
 70
0
 71
3
 72
8
 73
4
 74
2
 42
0.0000001
 43
0.0000001
 44
0.0000000001
 12
-0.0298013206
 22
-0.0226920203
 32
0.0
 13
-0.0314706982
 23
-0.0174758757
 33
0.0
 40
0.0
 40
0.0
 40
0.0
 40
0.0
 40
1.0
 40
1.0
 40
1.0
 40
1.0
 10
-12.1624653182
 20
-14.3084519204
 30
0.0
 10
-12.1723990918
 20
-14.3160159272
 30
0.0
 10
-12.1831301469
 20
-14.3226298547
 30
0.0
 10
-12.1936203796
 20
-14.3284551466
 30
0.0
 11
-12.1624653182
 21
-14.3084519204
 31
0.0
 11
-12.1936203796
 21
-14.3284551466
 31
0.0
  0
SPLINE
  5
3E8
100
AcDbEntity
  8
RACCORDO
100
AcDbSpline
 62
253
  6
CONTINUOUS
 70
0
 71
3
 72
15
 73
11
 74
9
 42
0.0000001
 43
0.0000001
 44
0.0000000001
 12
0.4779714467
 22
-16.9591429107
 32
0.0
 13
3.6244411583
 23
-16.5742091263
 33
0.0
 40
0.0
 40
0.0
 40
0.0
 40
0.0
 40
0.041893021
 40
0.1690999137
 40
0.2990188947
 40
0.4259115879
 40
0.5502127038
 40
0.7952742298
 40
0.9551738769
 40
1.0
 40
1.0
 40
1.0
 40
1.0
 10
-33.2888301864
 20
-9.1527676683
 30
0.0
 10
-33.2821556304
 20
-9.3895909115
 30
0.0
 10
-33.2516466414
 20
-10.3454211705
 30
0.0
 10
-33.1731630171
 20
-12.034769361
 30
0.0
 10
-33.0291447319
 20
-14.201882507
 30
0.0
 10
-32.836629864
 20
-16.3487964284
 30
0.0
 10
-32.5191782792
 20
-19.1374359234
 30
0.0
 10
-32.0796591339
 20
-22.0994195351
 30
0.0
 10
-31.6025222275
 20
-24.5984359947
 30
0.0
 10
-31.3606440573
 20
-25.730687128
 30
0.0
 10
-31.3064875088
 20
-25.9783396409
 30
0.0
 11
-33.2888301864
 21
-9.1527676683
 31
0.0
 11
-33.2661873891
 21
-9.8631587585
 31
0.0
 11
-33.1667912303
 21
-12.0190451614
 31
0.0
 11
-33.0194583511
 21
-14.218305071
 31
0.0
 11
-32.8266956434
 21
-16.3625036813
 31
0.0
 11
-32.5884490355
 21
-18.4578801661
 31
0.0
 11
-31.974774242
 21
-22.5700252319
 31
0.0
 11
-31.465381495
 21
-25.2346091848
 31
0.0
 11
-31.3064875088
 21
-25.9783396409
 31
0.0
  0
SPLINE
  5
3E9
100
AcDbEntity
  8
RACCORDO
100
AcDbSpline
 62
253
  6
CONTINUOUS
 70
0
 71
3
 72
9
 73
5
 74
3
 42
0.0000001
 43
0.0000001
 44
0.0000000001
 12
0.1152286097
 22
0.0549177958
 32
0.0
 13
0.1097676108
 23
-0.0608892723
 33
0.0
 40
0.0
 40
0.0
 40
0.0
 40
0.0
 40
0.1964382824
 40
1.0
 40
1.0
 40
1.0
 40
1.0
 10
-16.2937551508
 20
-11.8134233382
 30
0.0
 10
-16.2862100474
 20
-11.8098273524
 30
0.0
 10
-16.2461111358
 20
-11.7960398972
 30
0.0
 10
-16.2010331024
 20
-11.8102954575
 30
0.0
 10
-16.1716314191
 20
-11.8266048869
 30
0.0
 11
-16.2937551508
 21
-11.8134233382
 31
0.0
 11
-16.2702639904
 21
-11.8054927082
 31
0.0
 11
-16.1716314191
 21
-11.8266048869
 31
0.0
  0
SPLINE
  5
3EA
100
AcDbEntity
  8
RACCORDO
100
AcDbSpline
 62
253
  6
CONTINUOUS
 70
0
 71
3
 72
18
 73
14
 74
12
 42
0.0000001
 43
0.0000001
 44
0.0000000001
 12
1.8355577386
 22
-0.7980188307
 32
0.0
 13
-0.015116412
 23
2.0014689006
 33
0.0
 40
0.0
 40
0.0
 40
0.0
 40
0.0
 40
0.1515660297
 40
0.2752504748
 40
0.3798769189
 40
0.472403919
 40
0.5577452117
 40
0.6388151723
 40
0.7169912306
 40
0.7925595978
 40
0.8651598495
 40
0.9342853936
 40
1.0
 40
1.0
 40
1.0
 40
1.0
 10
50.9619221365
 20
-66.9876618629
 30
0.0
 10
51.0546582028
 20
-67.0279793782
 30
0.0
 10
51.2313348469
 20
-67.084802654
 30
0.0
 10
51.4867745353
 20
-67.1022686526
 30
0.0
 10
51.699357522
 20
-67.0606978977
 30
0.0
 10
51.8701716786
 20
-66.9762596713
 30
0.0
 10
52.0031734211
 20
-66.8637073432
 30
0.0
 10
52.1036745481
 20
-66.7338822581
 30
0.0
 10
52.176852545
 20
-66.5946204965
 30
0.0
 10
52.2272882923
 20
-66.4518257628
 30
0.0
 10
52.2590522885
 20
-66.3100828154
 30
0.0
 10
52.2756907169
 20
-66.1724915843
 30
0.0
 10
52.2785732336
 20
-66.0824568436
 30
0.0
 10
52.2782421106
 20
-66.03861493
 30
0.0
 11
50.9619221365
 21
-66.9876618629
 31
0.0
 11
51.2517811855
 21
-67.0771663426
 31
0.0
 11
51.498930296
 21
-67.0913824487
 31
0.0
 11
51.7041583123
 21
-67.0497282046
 31
0.0
 11
51.8701355691
 21
-66.9675770607
 31
0.0
 11
52.0008707702
 21
-66.8576437861
 31
0.0
 11
52.1007670794
 21
-66.729775831
 31
0.0
 11
52.174134737
 21
-66.59157131
 31
0.0
 11
52.2249955926
 21
-66.4491270889
 31
0.0
 11
52.2571067347
 21
-66.3074081923
 31
0.0
 11
52.2738795054
 21
-66.1700720523
 31
0.0
 11
52.2782421106
 21
-66.03861493
 31
0.0
  0
LINE
  5
3EB
100
AcDbEntity
  8
RACCORDO
100
AcDbLine
 62
253
  6
CONTINUOUS
 10
27.7369285066
 20
-55.5000468139
 11
28.0680527742
 21
-55.6655781781
  0
LINE
  5
3EC
100
AcDbEntity
  8
RACCORDO
100
AcDbLine
 62
253
  6
CONTINUOUS
 10
28.0680527742
 20
-55.6655781781
 11
28.4208473857
 21
-55.8418714436
  0
SPLINE
  5
3ED
100
AcDbEntity
  8
RACCORDO
100
AcDbSpline
 62
253
  6
CONTINUOUS
 70
0
 71
3
 72
30
 73
26
 74
24
 42
0.0000001
 43
0.0000001
 44
0.0000000001
 12
22.4960698872
 22
-11.2391777712
 32
0.0
 13
23.0656007569
 23
-10.0184985517
 33
0.0
 40
0.0
 40
0.0
 40
0.0
 40
0.0
 40
0.0585605514
 40
0.141124363
 40
0.2177919159
 40
0.2890020425
 40
0.3551591258
 40
0.4166361586
 40
0.4737679079
 40
0.5268452727
 40
0.5761670214
 40
0.6219836153
 40
0.6644763346
 40
0.7038700707
 40
0.740362933
 40
0.7740491107
 40
0.8050598259
 40
0.8336629617
 40
0.8599796795
 40
0.8837762231
 40
0.9058029361
 40
0.9278802271
 40
0.9516143973
 40
0.9764458732
 40
1.0
 40
1.0
 40
1.0
 40
1.0
 10
28.4208473857
 20
-55.8418714436
 30
0.0
 10
28.8599748046
 20
-56.0612622594
 30
0.0
 10
29.918374425
 20
-56.5896658096
 30
0.0
 10
31.5521447424
 20
-57.4043651285
 30
0.0
 10
33.2810138056
 20
-58.2659663085
 30
0.0
 10
34.8867811908
 20
-59.066247189
 30
0.0
 10
36.3783324558
 20
-59.8102344472
 30
0.0
 10
37.7638615186
 20
-60.5023858224
 30
0.0
 10
39.0508061566
 20
-61.1465428708
 30
0.0
 10
40.2460558284
 20
-61.7462513524
 30
0.0
 10
41.3560797854
 20
-62.3043184786
 30
0.0
 10
42.3865743829
 20
-62.8230453901
 30
0.0
 10
43.342534198
 20
-63.3047511087
 30
0.0
 10
44.2291631587
 20
-63.7503644989
 30
0.0
 10
45.0507550615
 20
-64.1609902238
 30
0.0
 10
45.8106090548
 20
-64.5379543557
 30
0.0
 10
46.5125346293
 20
-64.8828609018
 30
0.0
 10
47.1604052415
 20
-65.1976850235
 30
0.0
 10
47.7549628354
 20
-65.4838452769
 30
0.0
 10
48.2998564631
 20
-65.7460797488
 30
0.0
 10
48.8124933685
 20
-65.9933882091
 30
0.0
 10
49.3248208044
 20
-66.2401480365
 30
0.0
 10
49.8610425922
 20
-66.4914129623
 30
0.0
 10
50.4103043298
 20
-66.7439766104
 30
0.0
 10
50.7808254418
 20
-66.9090028679
 30
0.0
 10
50.9619221365
 20
-66.9876618629
 30
0.0
 11
28.4208473857
 21
-55.8418714436
 31
0.0
 11
29.738398229
 21
-56.4997063668
 31
0.0
 11
31.5964142297
 21
-57.4263439881
 31
0.0
 11
33.3219555808
 21
-58.2863754463
 31
0.0
 11
34.9246443308
 21
-59.0852342142
 31
0.0
 11
36.4133602659
 21
-59.8279008745
 31
0.0
 11
37.7963529666
 21
-60.5188499555
 31
0.0
 11
39.0810897983
 21
-61.1619695691
 31
0.0
 11
40.27411053
 21
-61.7605355199
 31
0.0
 11
41.3822827572
 21
-62.3176116079
 31
0.0
 11
42.4114242166
 21
-62.8356468902
 31
0.0
 11
43.3658191445
 21
-63.3162688787
 31
0.0
 11
44.2510619071
 21
-63.7609413055
 31
0.0
 11
45.0720098461
 21
-64.1710871087
 31
0.0
 11
45.8309472401
 21
-64.5474201529
 31
0.0
 11
46.5309081398
 21
-64.8912280777
 31
0.0
 11
47.1778476198
 21
-65.2056391355
 31
0.0
 11
47.7739998038
 21
-65.4930034414
 31
0.0
 11
48.3131817005
 21
-65.7526014256
 31
0.0
 11
48.8121376935
 21
-65.9931518658
 31
0.0
 11
49.312716204
 21
-66.2332631358
 31
0.0
 11
49.8530076903
 21
-66.4868740928
 31
0.0
 11
50.4205640683
 21
-66.7472857098
 31
0.0
 11
50.9619221365
 21
-66.9876618629
 31
0.0
  0
SPLINE
  5
3EE
100
AcDbEntity
  8
RACCORDO
100
AcDbSpline
 62
253
  6
CONTINUOUS
 70
0
 71
3
 72
15
 73
11
 74
9
 42
0.0000001
 43
0.0000001
 44
0.0000000001
 12
0.4779710919
 22
-16.9591451379
 32
0.0
 13
3.6244416217
 23
-16.5742112938
 33
0.0
 40
0.0
 40
0.0
 40
0.0
 40
0.0
 40
0.0418931448
 40
0.1691000209
 40
0.2990189848
 40
0.4259116614
 40
0.5502127608
 40
0.7952742546
 40
0.9551738805
 40
1.0
 40
1.0
 40
1.0
 40
1.0
 10
25.7545859554
 20
-38.674473576
 30
0.0
 10
25.7612605261
 20
-38.9112975505
 30
0.0
 10
25.7917695265
 20
-39.8671285406
 30
0.0
 10
25.8702531829
 20
-41.556477461
 30
0.0
 10
26.014271466
 20
-43.7235906059
 30
0.0
 10
26.2067863314
 20
-45.8705045259
 30
0.0
 10
26.5242379117
 20
-48.6591440182
 30
0.0
 10
26.9637570499
 20
-51.6211276271
 30
0.0
 10
27.4408939534
 20
-54.1201440968
 30
0.0
 10
27.6827721249
 20
-55.2523952414
 30
0.0
 10
27.7369286759
 20
-55.5000477666
 30
0.0
 11
25.7545859554
 21
-38.674473576
 31
0.0
 11
25.7772288134
 21
-39.3848668598
 31
0.0
 11
25.8766249698
 21
-41.5407532615
 31
0.0
 11
26.0239578467
 21
-43.74001317
 31
0.0
 11
26.2167205518
 21
-45.8842117789
 31
0.0
 11
26.4549671564
 21
-47.979588262
 31
0.0
 11
27.0686419409
 21
-52.0917333233
 31
0.0
 11
27.5780346826
 21
-54.7563172736
 31
0.0
 11
27.7369286759
 21
-55.5000477666
 31
0.0
  0
SPLINE
  5
3EF
100
AcDbEntity
  8
RACCORDO
100
AcDbSpline
 62
253
  6
CONTINUOUS
 70
0
 71
3
 72
13
 73
9
 74
7
 42
0.0000001
 43
0.0000001
 44
0.0000000001
 12
4.1066738809
 22
-2.0517619512
 32
0.0
 13
4.1065703569
 23
-2.0519691477
 33
0.0
 40
0.0
 40
0.0
 40
0.0
 40
0.0
 40
0.2033709868
 40
0.3901064946
 40
0.5618587677
 40
0.7199770186
 40
0.8656716795
 40
1.0
 40
1.0
 40
1.0
 40
1.0
 10
25.7545303966
 20
-38.6725020875
 30
0.0
 10
26.0329231698
 20
-38.811591705
 30
0.0
 10
26.5671069858
 20
-39.0780523147
 30
0.0
 10
27.3362820642
 20
-39.4622160313
 30
0.0
 10
28.043568995
 20
-39.8153144545
 30
0.0
 10
28.6946026413
 20
-40.1404900398
 30
0.0
 10
29.2943534375
 20
-40.4401777468
 30
0.0
 10
29.6776579367
 20
-40.6317243119
 30
0.0
 10
29.8615341697
 20
-40.7236035017
 30
0.0
 11
25.7545303966
 21
-38.6725020875
 31
0.0
 11
26.5898498151
 21
-39.089488406
 31
0.0
 11
27.3568055453
 21
-39.4724372185
 31
0.0
 11
28.0622233177
 21
-39.8246574127
 31
0.0
 11
28.7116006294
 21
-40.1490039151
 31
0.0
 11
29.3099107379
 21
-40.4479553914
 31
0.0
 11
29.8615341697
 21
-40.7236035017
 31
0.0
  0
LINE
  5
3F0
100
AcDbEntity
  8
RACCORDO
100
AcDbLine
 62
253
  6
CONTINUOUS
 10
29.8615341697
 20
-40.7236035017
 11
30.2052817068
 21
-40.8953546835
  0
LINE
  5
3F1
100
AcDbEntity
  8
RACCORDO
100
AcDbLine
 62
253
  6
CONTINUOUS
 10
30.2052817068
 20
-40.8953546835
 11
31.133267232
 21
-41.3587902504
  0
LINE
  5
3F2
100
AcDbEntity
  8
RACCORDO
100
AcDbLine
 62
253
  6
CONTINUOUS
 10
31.133267232
 20
-41.3587902504
 11
31.8019531533
 21
-41.6924007856
  0
LINE
  5
3F3
100
AcDbEntity
  8
RACCORDO
100
AcDbLine
 62
253
  6
CONTINUOUS
 10
31.8019531533
 20
-41.6924007856
 11
32.6026953248
 21
-42.0913756444
  0
LINE
  5
3F4
100
AcDbEntity
  8
RACCORDO
100
AcDbLine
 62
253
  6
CONTINUOUS
 10
32.6026953248
 20
-42.0913756444
 11
32.9038320356
 21
-42.2412598971
  0
LINE
  5
3F5
100
AcDbEntity
  8
RACCORDO
100
AcDbLine
 62
253
  6
CONTINUOUS
 10
32.9038320356
 20
-42.2412598971
 11
32.9991488159
 21
-42.2886836994
  0
LINE
  5
3F6
100
AcDbEntity
  8
RACCORDO
100
AcDbLine
 62
253
  6
CONTINUOUS
 10
32.9991488159
 20
-42.2886836994
 11
33.6790831181
 21
-42.6267205301
  0
LINE
  5
3F7
100
AcDbEntity
  8
RACCORDO
100
AcDbLine
 62
253
  6
CONTINUOUS
 10
33.6790831181
 20
-42.6267205301
 11
33.8285176908
 21
-42.7009707809
  0
LINE
  5
3F8
100
AcDbEntity
  8
RACCORDO
100
AcDbLine
 62
253
  6
CONTINUOUS
 10
33.8285176908
 20
-42.7009707809
 11
33.9003373694
 21
-42.7366643813
  0
SPLINE
  5
3F9
100
AcDbEntity
  8
RACCORDO
100
AcDbSpline
 62
253
  6
CONTINUOUS
 70
0
 71
3
 72
14
 73
10
 74
8
 42
0.0000001
 43
0.0000001
 44
0.0000000001
 12
1.0225044954
 22
-0.5082385827
 32
0.0
 13
1.0216575867
 23
-0.5099388988
 33
0.0
 40
0.0
 40
0.0
 40
0.0
 40
0.0
 40
0.0684102018
 40
0.262378858
 40
0.4392752893
 40
0.59867252
 40
0.7417518086
 40
0.8735570062
 40
1.0
 40
1.0
 40
1.0
 40
1.0
 10
33.9003373694
 20
-42.7366643813
 30
0.0
 10
33.923653949
 20
-42.7482539493
 30
0.0
 10
34.013079297
 20
-42.7927093431
 30
0.0
 10
34.162773693
 20
-42.8671803687
 30
0.0
 10
34.3434472989
 20
-42.9571307506
 30
0.0
 10
34.5067573602
 20
-43.0384973031
 30
0.0
 10
34.6546895842
 20
-43.1122432045
 30
0.0
 10
34.791383601
 20
-43.1804187574
 30
0.0
 10
34.87933546
 20
-43.2243061046
 30
0.0
 10
34.9223959413
 20
-43.2457988383
 30
0.0
 11
33.9003373694
 21
-42.7366643813
 31
0.0
 11
33.9702849192
 21
-42.7714374884
 31
0.0
 11
34.1685863346
 21
-42.8700850158
 31
0.0
 11
34.3494050028
 21
-42.9601086633
 31
0.0
 11
34.5123132901
 21
-43.0412734039
 31
0.0
 11
34.6585275783
 21
-43.1141624314
 31
0.0
 11
34.7932077309
 21
-43.1813341963
 31
0.0
 11
34.9223959413
 21
-43.2457988383
 31
0.0
  0
LINE
  5
3FA
100
AcDbEntity
  8
RACCORDO
100
AcDbLine
 62
253
  6
CONTINUOUS
 10
34.9223959413
 20
-43.2457988383
 11
35.2193667968
 21
-43.394117839
  0
LINE
  5
3FB
100
AcDbEntity
  8
RACCORDO
100
AcDbLine
 62
253
  6
CONTINUOUS
 10
35.2193667968
 20
-43.394117839
 11
35.2629427337
 21
-43.415896165
  0
SPLINE
  5
3FC
100
AcDbEntity
  8
RACCORDO
100
AcDbSpline
 62
253
  6
CONTINUOUS
 70
0
 71
3
 72
12
 73
8
 74
6
 42
0.0000001
 43
0.0000001
 44
0.0000000001
 12
0.548231965
 22
-0.2740178915
 32
0.0
 13
0.5477079036
 23
-0.2750639433
 33
0.0
 40
0.0
 40
0.0
 40
0.0
 40
0.0
 40
0.0803172089
 40
0.3261147409
 40
0.5766365178
 40
0.8311277149
 40
1.0
 40
1.0
 40
1.0
 40
1.0
 10
35.2629427337
 20
-43.415896165
 30
0.0
 10
35.2776202207
 20
-43.4232322824
 30
0.0
 10
35.3372147038
 20
-43.453021425
 30
0.0
 10
35.4425822717
 20
-43.5057095824
 30
0.0
 10
35.5797573108
 20
-43.5743502125
 30
0.0
 10
35.702856714
 20
-43.636000517
 30
0.0
 10
35.7801659311
 20
-43.674785928
 30
0.0
 10
35.8109968262
 20
-43.6902694868
 30
0.0
 11
35.2629427337
 21
-43.415896165
 31
0.0
 11
35.3069744334
 21
-43.4379060407
 31
0.0
 11
35.4417159445
 21
-43.5052840705
 31
0.0
 11
35.5790281791
 21
-43.5739951278
 31
0.0
 11
35.7184870342
 21
-43.6438528855
 31
0.0
 11
35.8109968262
 21
-43.6902694868
 31
0.0
  0
LINE
  5
3FD
100
AcDbEntity
  8
RACCORDO
100
AcDbLine
 62
253
  6
CONTINUOUS
 10
35.8109968262
 20
-43.6902694868
 11
35.8570924984
 21
-43.713431687
  0
SPLINE
  5
3FE
100
AcDbEntity
  8
RACCORDO
100
AcDbSpline
 62
253
  6
CONTINUOUS
 70
0
 71
3
 72
9
 73
5
 74
3
 42
0.0000001
 43
0.0000001
 44
0.0000000001
 12
0.5137814441
 22
-0.2583862878
 32
0.0
 13
0.5581754435
 23
-0.1400140011
 33
0.0
 40
0.0
 40
0.0
 40
0.0
 40
0.0
 40
0.6305190578
 40
1.0
 40
1.0
 40
1.0
 40
1.0
 10
35.8570924984
 20
-43.713431687
 30
0.0
 10
35.9650754957
 20
-43.7677375132
 30
0.0
 10
36.1416264311
 20
-43.8440358531
 30
0.0
 10
36.3254563933
 20
-43.8996907533
 30
0.0
 10
36.3942014562
 20
-43.9169349216
 30
0.0
 11
35.8570924984
 21
-43.713431687
 31
0.0
 11
36.1906067629
 21
-43.8557457401
 31
0.0
 11
36.3942014562
 21
-43.9169349216
 31
0.0
  0
SPLINE
  5
3FF
100
AcDbEntity
  8
RACCORDO
100
AcDbSpline
 62
253
  6
CONTINUOUS
 70
0
 71
3
 72
26
 73
22
 74
20
 42
0.0000001
 43
0.0000001
 44
0.0000000001
 12
3.2403599205
 22
-0.6567099339
 32
0.0
 13
0.0414956144
 23
3.3040721078
 33
0.0
 40
0.0
 40
0.0
 40
0.0
 40
0.0
 40
0.0794720005
 40
0.1474480042
 40
0.2067868068
 40
0.2583656023
 40
0.3039030247
 40
0.3458126592
 40
0.3867363571
 40
0.428292586
 40
0.4707818301
 40
0.5143155965
 40
0.5584846742
 40
0.6039877163
 40
0.6527340114
 40
0.7058767386
 40
0.7637897344
 40
0.8256630648
 40
0.8897967292
 40
0.9553804235
 40
1.0
 40
1.0
 40
1.0
 40
1.0
 10
36.489742759
 20
-43.9386098881
 30
0.0
 10
36.575582054
 20
-43.9560065722
 30
0.0
 10
36.7369538593
 20
-43.9782261906
 30
0.0
 10
36.9653766128
 20
-43.9784217044
 30
0.0
 10
37.1611980328
 20
-43.9519703091
 30
0.0
 10
37.327956497
 20
-43.9068526165
 30
0.0
 10
37.4701762882
 20
-43.8492669187
 30
0.0
 10
37.5949722797
 20
-43.7823405953
 30
0.0
 10
37.7089802392
 20
-43.7060074219
 30
0.0
 10
37.8155510959
 20
-43.6186068115
 30
0.0
 10
37.916011026
 20
-43.5201364652
 30
0.0
 10
38.0095875399
 20
-43.4112698449
 30
0.0
 10
38.095327831
 20
-43.2920131964
 30
0.0
 10
38.1735861123
 20
-43.1609945033
 30
0.0
 10
38.2452529132
 20
-43.0151550662
 30
0.0
 10
38.3099454126
 20
-42.8512840377
 30
0.0
 10
38.3655542174
 20
-42.6689335922
 30
0.0
 10
38.4097593385
 20
-42.4710790567
 30
0.0
 10
38.4411141325
 20
-42.2622613355
 30
0.0
 10
38.4572630127
 20
-42.0708261546
 30
0.0
 10
38.4612428921
 20
-41.9494717596
 30
0.0
 10
38.4618600644
 20
-41.9003296603
 30
0.0
 11
36.489742759
 21
-43.9386098881
 31
0.0
 11
36.7499722373
 21
-43.9735442104
 31
0.0
 11
36.9745544282
 21
-43.9730291175
 31
0.0
 11
37.1687790416
 21
-43.9463622776
 31
0.0
 11
37.3332210341
 21
-43.901663386
 31
0.0
 11
37.4726822898
 21
-43.84522354
 31
0.0
 11
37.5947515252
 21
-43.7798692035
 31
0.0
 11
37.7071058078
 21
-43.7046551421
 31
0.0
 11
37.8134127577
 21
-43.6177704857
 31
0.0
 11
37.9137472909
 21
-43.5195918968
 31
0.0
 11
38.0075082729
 21
-43.4105244063
 31
0.0
 11
38.0927658659
 21
-43.2920922494
 31
0.0
 11
38.1700138113
 21
-43.1631213705
 31
0.0
 11
38.2412167794
 21
-43.0186656877
 31
0.0
 11
38.3058969911
 21
-42.8554378314
 31
0.0
 11
38.3620065927
 21
-42.6725137875
 31
0.0
 11
38.4068859531
 21
-42.4730806917
 31
0.0
 11
38.438624746
 21
-42.2635830039
 31
0.0
 11
38.4569991003
 21
-42.0476845406
 31
0.0
 11
38.4618600644
 21
-41.9003296603
 31
0.0
  0
SPLINE
  5
400
100
AcDbEntity
  8
RACCORDO
100
AcDbSpline
 62
253
  6
CONTINUOUS
 70
0
 71
3
 72
11
 73
7
 74
5
 42
0.0000001
 43
0.0000001
 44
0.0000000001
 12
-0.0707731229
 22
9.0807061869
 32
0.0
 13
-0.0030405923
 23
9.0809814691
 33
0.0
 40
0.0
 40
0.0
 40
0.0
 40
0.0
 40
0.2227173361
 40
0.4642743104
 40
0.7229668589
 40
1.0
 40
1.0
 40
1.0
 40
1.0
 10
38.4620374312
 20
-41.8258219944
 30
0.0
 10
38.4567832974
 20
-41.1516784304
 30
0.0
 10
38.4550149301
 20
-39.7463058992
 30
0.0
 10
38.4578360611
 20
-37.5578976214
 30
0.0
 10
38.4568260547
 20
-35.2050648442
 30
0.0
 10
38.4542297419
 20
-33.583428583
 30
0.0
 10
38.4539489603
 20
-32.7448509761
 30
0.0
 11
38.4620374312
 21
-41.8258219944
 31
0.0
 11
38.455910535
 21
-39.8033391592
 31
0.0
 11
38.4571624779
 21
-37.6097649862
 31
0.0
 11
38.4564068095
 21
-35.2605827373
 31
0.0
 11
38.4539489603
 21
-32.7448509761
 31
0.0
  0
SPLINE
  5
401
100
AcDbEntity
  8
RACCORDO
100
AcDbSpline
 62
253
  6
CONTINUOUS
 70
0
 71
3
 72
30
 73
26
 74
24
 42
0.0000001
 43
0.0000001
 44
0.0000000001
 12
-0.2142024219
 22
28.3217821994
 32
0.0
 13
-0.0000650952
 23
28.3225922123
 33
0.0
 40
0.0
 40
0.0
 40
0.0
 40
0.0
 40
0.0207805413
 40
0.0394241635
 40
0.0569616726
 40
0.0753850005
 40
0.0959081378
 40
0.1185326642
 40
0.1432822927
 40
0.1704374189
 40
0.2002096468
 40
0.2328387749
 40
0.2684974075
 40
0.3071975298
 40
0.3489972021
 40
0.3941801861
 40
0.4430011526
 40
0.4956745444
 40
0.5524572075
 40
0.6136383603
 40
0.6795996216
 40
0.7507493016
 40
0.8274656824
 40
0.9101766752
 40
1.0
 40
1.0
 40
1.0
 40
1.0
 10
52.2782421106
 20
-66.03861493
 30
0.0
 10
52.2767583632
 20
-65.8424342753
 30
0.0
 10
52.2772599918
 20
-65.4702014796
 30
0.0
 10
52.2885695398
 20
-64.9325498532
 30
0.0
 10
52.2975606337
 20
-64.4170970105
 30
0.0
 10
52.2962131261
 20
-63.8838235328
 30
0.0
 10
52.2978370579
 20
-63.3025459012
 30
0.0
 10
52.2998524045
 20
-62.6615389147
 30
0.0
 10
52.3016539778
 20
-61.957920506
 30
0.0
 10
52.305286914
 20
-61.186827257
 30
0.0
 10
52.3099312833
 20
-60.3413494504
 30
0.0
 10
52.3135112301
 20
-59.4155848938
 30
0.0
 10
52.3162572043
 20
-58.4055305316
 30
0.0
 10
52.3189026155
 20
-57.308897781
 30
0.0
 10
52.3213537086
 20
-56.1223462828
 30
0.0
 10
52.3237748746
 20
-54.8402449582
 30
0.0
 10
52.3251076919
 20
-53.4554844964
 30
0.0
 10
52.3251311396
 20
-51.9612125075
 30
0.0
 10
52.3242772198
 20
-50.3502500242
 30
0.0
 10
52.322979709
 20
-48.6138388527
 30
0.0
 10
52.3216480759
 20
-46.7417906295
 30
0.0
 10
52.320796521
 20
-44.7230760095
 30
0.0
 10
52.321464572
 20
-42.5462293591
 30
0.0
 10
52.3228335673
 20
-40.1930878226
 30
0.0
 10
52.3232674674
 20
-38.5642147668
 30
0.0
 10
52.3232655183
 20
-37.7162049666
 30
0.0
 11
52.2782421106
 21
-66.03861493
 31
0.0
 11
52.2793225832
 21
-65.4500571254
 31
0.0
 11
52.2884635996
 21
-64.9221005436
 31
0.0
 11
52.2958024529
 21
-64.425447043
 31
0.0
 11
52.2967009876
 21
-63.9036514134
 31
0.0
 11
52.2978139194
 21
-63.3223840314
 31
0.0
 11
52.2997297965
 21
-62.6816016595
 31
0.0
 11
52.3018354752
 21
-61.9806311862
 31
0.0
 11
52.3052661075
 21
-61.2115352717
 31
0.0
 11
52.3095650574
 21
-60.3683195619
 31
0.0
 11
52.3132316022
 21
-59.4441853456
 31
0.0
 11
52.3161296866
 21
-58.4342445914
 31
0.0
 11
52.3187711513
 21
-57.3381599943
 31
0.0
 11
52.3212541053
 21
-56.1542875237
 31
0.0
 11
52.3235201697
 21
-54.8745903
 31
0.0
 11
52.3248627728
 21
-53.4918546264
 31
0.0
 11
52.324999927
 21
-52.0000076354
 31
0.0
 11
52.3242431919
 21
-50.3917756022
 31
0.0
 11
52.3230234123
 21
-48.658967189
 31
0.0
 11
52.3217696463
 21
-46.7907737051
 31
0.0
 11
52.3210542219
 21
-44.7756304579
 31
0.0
 11
52.3215430058
 21
-42.6028237457
 31
0.0
 11
52.32267644
 21
-40.2602342989
 31
0.0
 11
52.3232655183
 21
-37.7162049666
 31
0.0
  0
SPLINE
  5
402
100
AcDbEntity
  8
0
100
AcDbSpline
 62
7
  6
CONTINUOUS
 70
0
 71
3
 72
12
 73
8
 74
6
 42
0.0000001
 43
0.0000001
 44
0.0000000001
 12
1.2269282352
 22
-0.3925079961
 32
0.0
 13
0.8633827832
 23
-0.9599337047
 33
0.0
 40
0.0
 40
0.0
 40
0.0
 40
0.0
 40
0.2478691325
 40
0.483093909
 40
0.7079187384
 40
0.9263450651
 40
1.0
 40
1.0
 40
1.0
 40
1.0
 10
36.1054854707
 20
-44.0084319091
 30
0.0
 10
36.2068580164
 20
-44.0408621146
 30
0.0
 10
36.4028032469
 20
-44.1095925877
 30
0.0
 10
36.6808754889
 20
-44.2331221005
 30
0.0
 10
36.9383046505
 20
-44.3699999259
 30
0.0
 10
37.1197309362
 20
-44.5006408565
 30
0.0
 10
37.2076285892
 20
-44.5905399421
 30
0.0
 10
37.2288260568
 20
-44.6141078936
 30
0.0
 11
36.1054854707
 21
-44.0084319091
 31
0.0
 11
36.4063036758
 21
-44.1154898787
 31
0.0
 11
36.6833514099
 21
-44.238213806
 31
0.0
 11
36.9374894925
 21
-44.3771057975
 31
0.0
 11
37.1623681977
 21
-44.546222259
 31
0.0
 11
37.2288260568
 21
-44.6141078936
 31
0.0
  0
SPLINE
  5
403
100
AcDbEntity
  8
0
100
AcDbSpline
 62
7
  6
CONTINUOUS
 70
0
 71
3
 72
15
 73
11
 74
9
 42
0.0000001
 43
0.0000001
 44
0.0000000001
 12
0.6260260637
 22
-0.9668398565
 32
0.0
 13
-1.0463374394
 23
-0.5277408043
 33
0.0
 40
0.0
 40
0.0
 40
0.0
 40
0.0
 40
0.2211174486
 40
0.4105979132
 40
0.5687234654
 40
0.6978299578
 40
0.8032291849
 40
0.8898027805
 40
0.9656108713
 40
1.0
 40
1.0
 40
1.0
 40
1.0
 10
37.3424996961
 20
-44.7628312259
 30
0.0
 10
37.3886414581
 20
-44.8340929467
 30
0.0
 10
37.4604391534
 20
-44.9751011944
 30
0.0
 10
37.5214320679
 20
-45.1852944261
 30
0.0
 10
37.5435205205
 20
-45.3672374946
 30
0.0
 10
37.5361015273
 20
-45.5183037386
 30
0.0
 10
37.5009852075
 20
-45.6378747698
 30
0.0
 10
37.4453077263
 20
-45.7248924373
 30
0.0
 10
37.3995910608
 20
-45.7843651565
 30
0.0
 10
37.3633436741
 20
-45.8098074414
 30
0.0
 10
37.3513494632
 20
-45.8158569569
 30
0.0
 11
37.3424996961
 21
-44.7628312259
 31
0.0
 11
37.4579196979
 21
-44.9890818043
 31
0.0
 11
37.5185035475
 21
-45.1981299224
 31
0.0
 11
37.5391867679
 21
-45.3785820786
 31
0.0
 11
37.5292227399
 21
-45.5265473583
 31
0.0
 11
37.4932232835
 21
-45.6421399749
 31
0.0
 11
37.4419425308
 21
-45.727342339
 31
0.0
 11
37.3849303791
 21
-45.7931620849
 31
0.0
 11
37.3513494632
 21
-45.8158569569
 31
0.0
  0
LINE
  5
404
100
AcDbEntity
  8
0
100
AcDbLine
 62
7
  6
CONTINUOUS
 10
31.3509536765
 20
-41.6360452366
 11
31.3592380487
 21
-41.6055550343
  0
LINE
  5
405
100
AcDbEntity
  8
0
100
AcDbLine
 62
7
  6
CONTINUOUS
 10
31.3592380487
 20
-41.6055550343
 11
31.3684095772
 21
-41.5718422401
  0
LINE
  5
406
100
AcDbEntity
  8
0
100
AcDbLine
 62
7
  6
CONTINUOUS
 10
31.3684095772
 20
-41.5718422401
 11
31.2264145927
 21
-41.5008679827
  0
LINE
  5
407
100
AcDbEntity
  8
0
100
AcDbLine
 62
7
  6
CONTINUOUS
 10
31.2264145927
 20
-41.5008679827
 11
30.9406249319
 21
-41.3580353693
  0
SPLINE
  5
408
100
AcDbEntity
  8
0
100
AcDbSpline
 62
7
  6
CONTINUOUS
 70
0
 71
3
 72
9
 73
5
 74
3
 42
0.0000001
 43
0.0000001
 44
0.0000000001
 12
0.198895124
 22
-0.136098004
 32
0.0
 13
0.1210780928
 23
-0.2086014737
 33
0.0
 40
0.0
 40
0.0
 40
0.0
 40
0.0
 40
0.5649945651
 40
1.0
 40
1.0
 40
1.0
 40
1.0
 10
37.2263764357
 20
-45.8005475041
 30
0.0
 10
37.263834657
 20
-45.8261790483
 30
0.0
 10
37.3208342837
 20
-45.8849023548
 30
0.0
 10
37.3652741461
 20
-45.9520643614
 30
0.0
 10
37.3828306889
 20
-45.982311953
 30
0.0
 11
37.2263764357
 21
-45.8005475041
 31
0.0
 11
37.324234302
 21
-45.8952295386
 31
0.0
 11
37.3828306889
 21
-45.982311953
 31
0.0
  0
SPLINE
  5
409
100
AcDbEntity
  8
0
100
AcDbSpline
 62
7
  6
CONTINUOUS
 70
0
 71
3
 72
9
 73
5
 74
3
 42
0.0000001
 43
0.0000001
 44
0.0000000001
 12
0.0561095567
 22
-0.0966693143
 32
0.0
 13
0.0457679794
 23
-0.1019792026
 33
0.0
 40
0.0
 40
0.0
 40
0.0
 40
0.0
 40
0.4969735172
 40
1.0
 40
1.0
 40
1.0
 40
1.0
 10
37.3828306889
 20
-45.982311953
 30
0.0
 10
37.3921256768
 20
-45.9983259827
 30
0.0
 10
37.4098277236
 20
-46.0311310064
 30
0.0
 10
37.4258767934
 20
-46.0647674179
 30
0.0
 10
37.433550962
 20
-46.0818668311
 30
0.0
 11
37.3828306889
 21
-45.982311953
 31
0.0
 11
37.4093123171
 21
-46.0311377771
 31
0.0
 11
37.433550962
 21
-46.0818668311
 31
0.0
  0
SPLINE
  5
40A
100
AcDbEntity
  8
0
100
AcDbSpline
 62
7
  6
CONTINUOUS
 70
0
 71
3
 72
9
 73
5
 74
3
 42
0.0000001
 43
0.0000001
 44
0.0000000001
 12
0.0705712375
 22
-0.1572452751
 32
0.0
 13
0.0504000523
 23
-0.1646891334
 33
0.0
 40
0.0
 40
0.0
 40
0.0
 40
0.0
 40
0.6598832317
 40
1.0
 40
1.0
 40
1.0
 40
1.0
 10
37.433550962
 20
-46.0818668311
 30
0.0
 10
37.4490738874
 20
-46.1164546712
 30
0.0
 10
37.4701240679
 20
-46.1699821546
 30
0.0
 10
37.4877930237
 20
-46.2246068861
 30
0.0
 10
37.4935069913
 20
-46.2432780647
 30
0.0
 11
37.433550962
 21
-46.0818668311
 31
0.0
 11
37.4753828693
 21
-46.1875762408
 31
0.0
 11
37.4935069913
 21
-46.2432780647
 31
0.0
  0
SPLINE
  5
40B
100
AcDbEntity
  8
0
100
AcDbSpline
 62
7
  6
CONTINUOUS
 70
0
 71
3
 72
10
 73
6
 74
4
 42
0.0000001
 43
0.0000001
 44
0.0000000001
 12
0.129052979
 22
-0.421698437
 32
0.0
 13
0.1087673589
 23
-0.4273451364
 33
0.0
 40
0.0
 40
0.0
 40
0.0
 40
0.0
 40
0.2721287538
 40
0.6999616073
 40
1.0
 40
1.0
 40
1.0
 40
1.0
 10
37.4935069913
 20
-46.2432780647
 30
0.0
 10
37.5052133334
 20
-46.2815301547
 30
0.0
 10
37.5321333605
 20
-46.3809185271
 30
0.0
 10
37.5666377765
 20
-46.5237679686
 30
0.0
 10
37.5929634903
 20
-46.6274663016
 30
0.0
 10
37.6038416182
 20
-46.6702062842
 30
0.0
 11
37.4935069913
 21
-46.2432780647
 31
0.0
 11
37.5257266761
 21
-46.3589007208
 31
0.0
 11
37.5714656214
 21
-46.5419274036
 31
0.0
 11
37.6038416182
 21
-46.6702062842
 31
0.0
  0
SPLINE
  5
40C
100
AcDbEntity
  8
0
100
AcDbSpline
 62
7
  6
CONTINUOUS
 70
0
 71
3
 72
10
 73
6
 74
4
 42
0.0000001
 43
0.0000001
 44
0.0000000001
 12
0.1274051025
 22
-0.5005725197
 32
0.0
 13
0.1307659156
 23
-0.4996881104
 33
0.0
 40
0.0
 40
0.0
 40
0.0
 40
0.0
 40
0.1326039761
 40
0.5498381453
 40
1.0
 40
1.0
 40
1.0
 40
1.0
 10
37.6038416182
 20
-46.6702062842
 30
0.0
 10
37.6094730926
 20
-46.692332253
 30
0.0
 10
37.6328530601
 20
-46.7840703456
 30
0.0
 10
37.6748165803
 20
-46.9510459365
 30
0.0
 10
37.7115420858
 20
-47.0958044412
 30
0.0
 10
37.7311640282
 20
-47.1707846168
 30
0.0
 11
37.6038416182
 21
-46.6702062842
 31
0.0
 11
37.6207322989
 21
-46.7365851974
 31
0.0
 11
37.6735103676
 21
-46.9455303571
 31
0.0
 11
37.7311640282
 21
-47.1707846168
 31
0.0
  0
SPLINE
  5
40D
100
AcDbEntity
  8
RACCORDO
100
AcDbSpline
 62
253
  6
CONTINUOUS
 70
0
 71
3
 72
29
 73
25
 74
23
 42
0.0000001
 43
0.0000001
 44
0.0000000001
 12
0.0420815711
 22
5.4215700068
 32
0.0
 13
-4.8704300605
 23
2.3820376201
 33
0.0
 40
0.0
 40
0.0
 40
0.0
 40
0.0
 40
0.0462476488
 40
0.0925702216
 40
0.1379044555
 40
0.1818168614
 40
0.2238065408
 40
0.2641055163
 40
0.3059429403
 40
0.3488361841
 40
0.3911083213
 40
0.4324648959
 40
0.4734088165
 40
0.5143999961
 40
0.5555537303
 40
0.5959348641
 40
0.6358590537
 40
0.6777274005
 40
0.7236445723
 40
0.7729363934
 40
0.8251532014
 40
0.8804067332
 40
0.9386959304
 40
1.0
 40
1.0
 40
1.0
 40
1.0
 10
38.4621564589
 20
-3.3097937951
 30
0.0
 10
38.4628051834
 20
-3.2262155065
 30
0.0
 10
38.4583429603
 20
-3.0588405498
 30
0.0
 10
38.436915691
 20
-2.8104175419
 30
0.0
 10
38.4029410809
 20
-2.5676633341
 30
0.0
 10
38.357999003
 20
-2.334684468
 30
0.0
 10
38.3042818834
 20
-2.1129470766
 30
0.0
 10
38.242287863
 20
-1.8972945131
 30
0.0
 10
38.1711271562
 20
-1.6827687874
 30
0.0
 10
38.0900571434
 20
-1.4679655459
 30
0.0
 10
38.0003919834
 20
-1.257555352
 30
0.0
 10
37.9042816622
 20
-1.0539139926
 30
0.0
 10
37.8022240215
 20
-0.855797446
 30
0.0
 10
37.6940283709
 20
-0.6613862614
 30
0.0
 10
37.5796953711
 20
-0.4716913643
 30
0.0
 10
37.4591058398
 20
-0.2882091013
 30
0.0
 10
37.330763153
 20
-0.108475263
 30
0.0
 10
37.1890486625
 20
0.0737842938
 30
0.0
 10
37.0282285773
 20
0.2623487943
 30
0.0
 10
36.8449400032
 20
0.4559075324
 30
0.0
 10
36.6382815983
 20
0.6499677527
 30
0.0
 10
36.406304351
 20
0.8399466633
 30
0.0
 10
36.1464193157
 20
1.0203261617
 30
0.0
 10
35.9575188369
 20
1.1263470642
 30
0.0
 10
35.8579931092
 20
1.1750232642
 30
0.0
 11
38.4621564589
 21
-3.3097937951
 31
0.0
 11
38.4558703053
 21
-3.0591301863
 31
0.0
 11
38.4345327046
 21
-2.8088896134
 31
0.0
 11
38.4004697459
 21
-2.5654712467
 31
0.0
 11
38.3554730171
 21
-2.3316806876
 31
0.0
 11
38.3019810545
 21
-2.1103975013
 31
0.0
 11
38.241677985
 21
-1.9003938106
 31
0.0
 11
38.1702989164
 21
-1.6850859088
 31
0.0
 11
38.088140681
 21
-1.4675262814
 31
0.0
 11
37.9984006588
 21
-1.2566377215
 31
0.0
 11
37.9027942302
 21
-1.0538177136
 31
0.0
 11
37.8012149552
 21
-0.8564351221
 31
0.0
 11
37.6930640753
 21
-0.6622819692
 31
0.0
 11
37.5777341708
 21
-0.4712751951
 31
0.0
 11
37.4574814998
 21
-0.2883212315
 31
0.0
 11
37.3316524504
 21
-0.112192728
 31
0.0
 11
37.1922725607
 21
0.0669770165
 31
0.0
 11
37.0306364302
 21
0.2563184878
 31
0.0
 11
36.8467805559
 21
0.4502721795
 31
0.0
 11
36.6402250972
 21
0.6438790694
 31
0.0
 11
36.4082167176
 21
0.8333896109
 31
0.0
 11
36.1482536674
 21
1.0130927399
 31
0.0
 11
35.8579931092
 21
1.1750232642
 31
0.0
  0
LINE
  5
40E
100
AcDbEntity
  8
0
100
AcDbLine
 62
7
  6
CONTINUOUS
 10
30.4461505513
 20
-42.2166797906
 11
30.3949464184
 21
-42.0059063079
  0
SPLINE
  5
40F
100
AcDbEntity
  8
0
100
AcDbSpline
 62
7
  6
CONTINUOUS
 70
0
 71
3
 72
10
 73
6
 74
4
 42
0.0000001
 43
0.0000001
 44
0.0000000001
 12
0.1984398238
 22
-0.0918431016
 32
0.0
 13
0.2126264386
 23
0.0674996808
 33
0.0
 40
0.0
 40
0.0
 40
0.0
 40
0.0
 40
0.4640304492
 40
0.8786155618
 40
1.0
 40
1.0
 40
1.0
 40
1.0
 10
36.810487867
 20
-45.400431937
 30
0.0
 10
36.8411819071
 20
-45.4146379356
 30
0.0
 10
36.9010785927
 20
-45.4373770433
 30
0.0
 10
36.974613391
 20
-45.4496860047
 30
0.0
 10
37.0137102965
 20
-45.4410517708
 30
0.0
 10
37.0223134768
 20
-45.4383206338
 30
0.0
 11
36.810487867
 21
-45.400431937
 31
0.0
 11
36.9057637186
 21
-45.4353306846
 31
0.0
 11
36.9959850632
 21
-45.4441814254
 31
0.0
 11
37.0223134768
 21
-45.4383206338
 31
0.0
  0
LINE
  5
410
100
AcDbEntity
  8
0
100
AcDbLine
 62
7
  6
CONTINUOUS
 10
30.1467442542
 20
-40.9613628975
 11
29.6816062759
 21
-40.7290013999
  0
SPLINE
  5
411
100
AcDbEntity
  8
RACCORDO
100
AcDbSpline
 62
253
  6
CONTINUOUS
 70
0
 71
3
 72
24
 73
20
 74
18
 42
0.0000001
 43
0.0000001
 44
0.0000000001
 12
-10.149638401
 22
4.9635285901
 32
0.0
 13
-10.1033229188
 23
5.0571377018
 33
0.0
 40
0.0
 40
0.0
 40
0.0
 40
0.0
 40
0.0301857472
 40
0.0628735234
 40
0.098206974
 40
0.136399501
 40
0.1776933147
 40
0.2223066607
 40
0.2703821616
 40
0.3220818673
 40
0.3776434274
 40
0.4373441086
 40
0.5014947113
 40
0.5704165642
 40
0.6444488353
 40
0.7239084525
 40
0.8092447043
 40
0.9009713282
 40
1.0
 40
1.0
 40
1.0
 40
1.0
 10
35.8579931092
 20
1.1750232642
 30
0.0
 10
35.7558683029
 20
1.2249658706
 30
0.0
 10
35.5434138646
 20
1.3295224845
 30
0.0
 10
35.2120523473
 20
1.4938221791
 30
0.0
 10
34.8541078915
 20
1.6723875607
 30
0.0
 10
34.4675482505
 20
1.8661956936
 30
0.0
 10
34.0500637769
 20
2.076299536
 30
0.0
 10
33.5996198494
 20
2.3037063828
 30
0.0
 10
33.1140503637
 20
2.5484947099
 30
0.0
 10
32.5914841164
 20
2.8114894495
 30
0.0
 10
32.0296062246
 20
3.0937615756
 30
0.0
 10
31.4255795279
 20
3.3965900172
 30
0.0
 10
30.7763486106
 20
3.7215212435
 30
0.0
 10
30.0786650576
 20
4.0702373376
 30
0.0
 10
29.3292771779
 20
4.4444657367
 30
0.0
 10
28.5245307282
 20
4.8462068006
 30
0.0
 10
27.6603414569
 20
5.2780713435
 30
0.0
 10
26.7303302871
 20
5.7430883943
 30
0.0
 10
26.0880366658
 20
6.0649010352
 30
0.0
 10
25.7545304493
 20
6.2318349118
 30
0.0
 11
35.8579931092
 21
1.1750232642
 31
0.0
 11
35.5519403294
 21
1.3255070038
 31
0.0
 11
35.2210431689
 21
1.4895247055
 31
0.0
 11
34.8638003928
 21
1.6676954294
 31
0.0
 11
34.4780361838
 21
1.861054366
 31
0.0
 11
34.0612736888
 21
2.0707640602
 31
0.0
 11
33.6112384362
 21
2.2977884322
 31
0.0
 11
33.1262116968
 21
2.5422975576
 31
0.0
 11
32.6044453486
 21
2.8048906806
 31
0.0
 11
32.0434986472
 21
3.0866901309
 31
0.0
 11
31.44052753
 21
3.3890121975
 31
0.0
 11
30.79238969
 21
3.7134234648
 31
0.0
 11
30.0958610276
 21
4.0615930665
 31
0.0
 11
29.3475558592
 21
4.4353179815
 31
0.0
 11
28.5443592148
 21
4.8363751586
 31
0.0
 11
27.6818851778
 21
5.2673438137
 31
0.0
 11
26.7549880501
 21
5.7309113354
 31
0.0
 11
25.7545304493
 21
6.2318349118
 31
0.0
  0
SPLINE
  5
412
100
AcDbEntity
  8
RACCORDO
100
AcDbSpline
 62
253
  6
CONTINUOUS
 70
0
 71
3
 72
15
 73
11
 74
9
 42
0.0000001
 43
0.0000001
 44
0.0000000001
 12
0.5187163725
 22
18.92196743
 32
0.0
 13
3.3432313311
 23
18.6314979952
 33
0.0
 40
0.0
 40
0.0
 40
0.0
 40
0.0
 40
0.0387313173
 40
0.1579908014
 40
0.2822025414
 40
0.4060806329
 40
0.5300039158
 40
0.7817593589
 40
0.9515823952
 40
1.0
 40
1.0
 40
1.0
 40
1.0
 10
25.754592487
 20
6.2340993008
 30
0.0
 10
25.7612893431
 20
6.478390209
 30
0.0
 10
25.7921387465
 20
7.4747934101
 30
0.0
 10
25.8714372513
 20
9.2537544036
 30
0.0
 10
26.0160353258
 20
11.5672302124
 30
0.0
 10
26.2090757283
 20
13.906737892
 30
0.0
 10
26.5301578951
 20
17.0425378612
 30
0.0
 10
26.9738008386
 20
20.4566415748
 30
0.0
 10
27.4442189954
 20
23.3848946886
 30
0.0
 10
27.6829711391
 20
24.7410783966
 30
0.0
 10
27.7369282235
 20
25.0417758986
 30
0.0
 11
25.754592487
 21
6.2340993008
 31
0.0
 11
25.7772288319
 21
6.9668978203
 31
0.0
 11
25.87662499
 21
9.2221803816
 31
0.0
 11
26.0239578685
 21
11.56877317
 31
0.0
 11
26.2167205754
 21
13.9057344874
 31
0.0
 11
26.4549671823
 21
16.2393575795
 31
0.0
 11
27.068641973
 21
20.9651774371
 31
0.0
 11
27.5780347185
 21
24.1391541361
 31
0.0
 11
27.7369282235
 21
25.0417758986
 31
0.0
  0
LINE
  5
413
100
AcDbEntity
  8
0
100
AcDbLine
 62
7
  6
CONTINUOUS
 10
36.563358618
 20
-45.2794036617
 11
36.7696274254
 21
-45.3804559647
  0
LINE
  5
414
100
AcDbEntity
  8
0
100
AcDbLine
 62
7
  6
CONTINUOUS
 10
36.7696274254
 20
-45.3804559647
 11
36.810487867
 21
-45.400431937
  0
SPLINE
  5
415
100
AcDbEntity
  8
RACCORDO
100
AcDbSpline
 62
253
  6
CONTINUOUS
 70
0
 71
3
 72
28
 73
24
 74
22
 42
0.0000001
 43
0.0000001
 44
0.0000000001
 12
-23.2537731735
 22
11.599660375
 32
0.0
 13
-23.2428279877
 23
11.6215762596
 33
0.0
 40
0.0
 40
0.0
 40
0.0
 40
0.0
 40
0.0193027202
 40
0.0405962934
 40
0.0640777926
 40
0.0896469088
 40
0.1172810281
 40
0.1471909956
 40
0.1795710632
 40
0.2143844849
 40
0.2516555713
 40
0.2917160547
 40
0.3349447874
 40
0.3816962907
 40
0.4322272612
 40
0.4867215702
 40
0.545371028
 40
0.6083874416
 40
0.6760553733
 40
0.7486877044
 40
0.8265935477
 40
0.9101844362
 40
1.0
 40
1.0
 40
1.0
 40
1.0
 10
50.962007456
 20
13.3850671107
 30
0.0
 10
50.8123870967
 20
13.4597021104
 30
0.0
 10
50.4986530086
 20
13.618554601
 30
0.0
 10
50.0057149593
 20
13.8736891739
 30
0.0
 10
49.4649329309
 20
14.1544691006
 30
0.0
 10
48.8736337539
 20
14.4571303894
 30
0.0
 10
48.2306054342
 20
14.7808981072
 30
0.0
 10
47.5345609644
 20
15.130553256
 30
0.0
 10
46.7837316138
 20
15.5096853203
 30
0.0
 10
45.9758886272
 20
15.9173676876
 30
0.0
 10
45.1081348887
 20
16.3539989135
 30
0.0
 10
44.174729058
 20
16.8223272851
 30
0.0
 10
43.1673400858
 20
17.3263185727
 30
0.0
 10
42.0783334177
 20
17.8698771224
 30
0.0
 10
40.9020391381
 20
18.4570641556
 30
0.0
 10
39.6335630472
 20
19.0903400797
 30
0.0
 10
38.2685661047
 20
19.7724063419
 30
0.0
 10
36.8017514279
 20
20.5059981063
 30
0.0
 10
35.2267528312
 20
21.2940572061
 30
0.0
 10
33.536489638
 20
22.1399814871
 30
0.0
 10
31.7229171316
 20
23.0477000344
 30
0.0
 10
29.7761740142
 20
24.0219008331
 30
0.0
 10
28.4327844079
 20
24.6938446239
 30
0.0
 10
27.7369285083
 20
25.0417774317
 30
0.0
 11
50.962007456
 21
13.3850671107
 31
0.0
 11
50.5143629619
 21
13.6113945781
 31
0.0
 11
50.0225983901
 21
13.8650776709
 31
0.0
 11
49.4807218854
 21
14.1456339839
 31
0.0
 11
48.8892370889
 21
14.4483495077
 31
0.0
 11
48.2481657434
 21
14.7719373993
 31
0.0
 11
47.5537965726
 21
15.1211796174
 31
0.0
 11
46.8025326754
 21
15.5001560366
 31
0.0
 11
45.9948167089
 21
15.9076228111
 31
0.0
 11
45.1296387432
 21
16.342979476
 31
0.0
 11
44.1991719126
 21
16.809847334
 31
0.0
 11
43.1945552472
 21
17.3125159079
 31
0.0
 11
42.1076290756
 21
17.8552636512
 31
0.0
 11
40.9327599855
 21
18.4417396834
 31
0.0
 11
39.6658012931
 21
19.0743352696
 31
0.0
 11
38.3024427108
 21
19.7555756583
 31
0.0
 11
36.8378094997
 21
20.4880186056
 31
0.0
 11
35.265221184
 21
21.2748380613
 31
0.0
 11
33.5773440977
 21
22.1195473385
 31
0.0
 11
31.7669434403
 21
23.0256385994
 31
0.0
 11
29.8243622237
 21
23.997711088
 31
0.0
 11
27.7369285083
 21
25.0417774317
 31
0.0
  0
LINE
  5
416
100
AcDbEntity
  8
0
100
AcDbLine
 62
7
  6
CONTINUOUS
 10
34.9322585976
 20
-43.3968941694
 11
35.3468635415
 21
-43.6036225169
  0
LINE
  5
417
100
AcDbEntity
  8
0
100
AcDbLine
 62
7
  6
CONTINUOUS
 10
31.955263381
 20
-41.8650847893
 11
31.5272529457
 21
-41.6510980713
  0
LINE
  5
418
100
AcDbEntity
  8
0
100
AcDbLine
 62
7
  6
CONTINUOUS
 10
34.9835400796
 20
-44.9790581251
 11
35.3264786391
 21
-45.1495493336
  0
LINE
  5
419
100
AcDbEntity
  8
0
100
AcDbLine
 62
7
  6
CONTINUOUS
 10
35.3264786391
 20
-45.1495493336
 11
35.3945216215
 21
-45.1833392694
  0
SPLINE
  5
41A
100
AcDbEntity
  8
RACCORDO
100
AcDbSpline
 62
253
  6
CONTINUOUS
 70
0
 71
3
 72
18
 73
14
 74
12
 42
0.0000001
 43
0.0000001
 44
0.0000000001
 12
0.0195804245
 22
2.741738859
 32
0.0
 13
-2.4540416274
 23
1.2227816875
 33
0.0
 40
0.0
 40
0.0
 40
0.0
 40
0.0
 40
0.0529607349
 40
0.1127378336
 40
0.1799140206
 40
0.2549537324
 40
0.3381299369
 40
0.4297175994
 40
0.5298888803
 40
0.6383232137
 40
0.7540691637
 40
0.8754940781
 40
1.0
 40
1.0
 40
1.0
 40
1.0
 10
52.2782400207
 20
11.1128610696
 30
0.0
 10
52.2785856853
 20
11.1612625712
 30
0.0
 10
52.275282119
 20
11.2643565049
 30
0.0
 10
52.2578289236
 20
11.4279984537
 30
0.0
 10
52.2249310768
 20
11.6098218452
 30
0.0
 10
52.1732340744
 20
11.8094263664
 30
0.0
 10
52.0990396031
 20
12.025589214
 30
0.0
 10
51.9984239239
 20
12.2561539968
 30
0.0
 10
51.8673102304
 20
12.4975723411
 30
0.0
 10
51.7017095744
 20
12.7440279063
 30
0.0
 10
51.497682644
 20
12.9861588849
 30
0.0
 10
51.253408367
 20
13.2102157563
 30
0.0
 10
51.0638550277
 20
13.334319257
 30
0.0
 10
50.962007456
 20
13.3850671107
 30
0.0
 11
52.2782400207
 21
11.1128610696
 31
0.0
 11
52.2737973947
 21
11.2580013006
 31
0.0
 11
52.2566930278
 21
11.4210037232
 31
0.0
 11
52.2241017226
 21
11.6022815436
 31
0.0
 11
52.1726927371
 21
11.8014998462
 31
0.0
 11
52.0988084048
 21
12.0172529204
 31
0.0
 11
51.9984680032
 21
12.2474506124
 31
0.0
 11
51.8673695766
 21
12.4887928966
 31
0.0
 11
51.7012578126
 21
12.7353651221
 31
0.0
 11
51.4962311317
 21
12.9775987959
 31
0.0
 11
51.249771959
 21
13.2014205926
 31
0.0
 11
50.962007456
 21
13.3850671107
 31
0.0
  0
LINE
  5
41B
100
AcDbEntity
  8
0
100
AcDbLine
 62
7
  6
CONTINUOUS
 10
32.328315766
 20
-42.094246242
 11
32.7558640724
 21
-42.308109764
  0
LINE
  5
41C
100
AcDbEntity
  8
0
100
AcDbLine
 62
7
  6
CONTINUOUS
 10
33.1495988646
 20
-43.6215066228
 11
33.2312355702
 21
-43.8881071166
  0
LINE
  5
41D
100
AcDbEntity
  8
0
100
AcDbLine
 62
7
  6
CONTINUOUS
 10
33.6069946372
 20
-42.7340071121
 11
34.0302225455
 21
-42.9458490037
  0
SPLINE
  5
41E
100
AcDbEntity
  8
RACCORDO
100
AcDbSpline
 62
253
  6
CONTINUOUS
 70
0
 71
3
 72
15
 73
11
 74
9
 42
0.0000001
 43
0.0000001
 44
0.0000000001
 12
0.5187160538
 22
18.9219697027
 32
0.0
 13
3.3432317554
 23
18.6315002185
 33
0.0
 40
0.0
 40
0.0
 40
0.0
 40
0.0
 40
0.0387314318
 40
0.1579909016
 40
0.2822026267
 40
0.4060807034
 40
0.5300039713
 40
0.7817593841
 40
0.9515824001
 40
1.0
 40
1.0
 40
1.0
 40
1.0
 10
-33.2888237769
 20
35.7558051466
 30
0.0
 10
-33.2821269051
 20
36.0000968065
 30
0.0
 10
-33.2512774871
 20
36.996500759
 30
0.0
 10
-33.171978947
 20
38.7754625029
 30
0.0
 10
-33.0273808703
 20
41.0889383104
 30
0.0
 10
-32.8343404651
 20
43.4284459885
 30
0.0
 10
-32.5132582935
 20
46.5642459553
 30
0.0
 10
-32.0696153423
 20
49.9783496656
 30
0.0
 10
-31.599197179
 20
52.9066027825
 30
0.0
 10
-31.3604450324
 20
54.2627864954
 30
0.0
 10
-31.3064879466
 20
54.5634840032
 30
0.0
 11
-33.2888237769
 21
35.7558051466
 31
0.0
 11
-33.2661873691
 21
36.4886059208
 31
0.0
 11
-33.1667912083
 21
38.7438884808
 31
0.0
 11
-33.0194583275
 21
41.090481268
 31
0.0
 11
-32.8266956178
 21
43.427442584
 31
0.0
 11
-32.5884490073
 21
45.7610656744
 31
0.0
 11
-31.9747742071
 21
50.4868855272
 31
0.0
 11
-31.465381456
 21
53.6608622234
 31
0.0
 11
-31.3064879466
 21
54.5634840032
 31
0.0
  0
LINE
  5
41F
100
AcDbEntity
  8
0
100
AcDbLine
 62
7
  6
CONTINUOUS
 10
33.3774491294
 20
-44.9000244436
 11
33.4463929752
 21
-44.6840024806
  0
LINE
  5
420
100
AcDbEntity
  8
0
100
AcDbLine
 62
7
  6
CONTINUOUS
 10
33.4463929752
 20
-44.6840024806
 11
33.5152385983
 21
-44.4697066658
  0
LINE
  5
421
100
AcDbEntity
  8
0
100
AcDbLine
 62
7
  6
CONTINUOUS
 10
33.5152385983
 20
-44.4697066658
 11
33.5839668344
 21
-44.2571309875
  0
LINE
  5
422
100
AcDbEntity
  8
0
100
AcDbLine
 62
7
  6
CONTINUOUS
 10
33.721009706
 20
-43.8371201895
 11
33.7546405358
 21
-43.7348163119
  0
LINE
  5
423
100
AcDbEntity
  8
0
100
AcDbLine
 62
7
  6
CONTINUOUS
 10
31.484797649
 20
-41.6723257196
 11
31.9128077183
 21
-41.8863126206
  0
SPLINE
  5
424
100
AcDbEntity
  8
RACCORDO
100
AcDbSpline
 62
253
  6
CONTINUOUS
 70
0
 71
3
 72
30
 73
26
 74
24
 42
0.0000001
 43
0.0000001
 44
0.0000000001
 12
-1.0933230305
 22
28.305601745
 32
0.0
 13
-0.0001760475
 23
28.3267090458
 33
0.0
 40
0.0
 40
0.0
 40
0.0
 40
0.0
 40
0.0205236809
 40
0.039012761
 40
0.0565886229
 40
0.0751726515
 40
0.0958153156
 40
0.1185192459
 40
0.1433321995
 40
0.1705245732
 40
0.2003273768
 40
0.2329989234
 40
0.268700605
 40
0.3074170806
 40
0.3492045226
 40
0.3943466946
 40
0.4431150385
 40
0.4957339872
 40
0.5524652298
 40
0.6136027151
 40
0.6795414106
 40
0.7507086665
 40
0.8274691274
 40
0.9102059355
 40
1.0
 40
1.0
 40
1.0
 40
1.0
 10
53.5521755681
 20
-65.9749803611
 30
0.0
 10
53.5446958971
 20
-65.7813353149
 30
0.0
 10
53.5333019642
 20
-65.4131252058
 30
0.0
 10
53.5245633276
 20
-64.8788626053
 30
0.0
 10
53.5202771399
 20
-64.362871322
 30
0.0
 10
53.5148564121
 20
-63.8265550491
 30
0.0
 10
53.5072186486
 20
-63.2418409553
 30
0.0
 10
53.4994505117
 20
-62.5983092996
 30
0.0
 10
53.4914606709
 20
-61.8929319297
 30
0.0
 10
53.4840763696
 20
-61.1205147976
 30
0.0
 10
53.4781810033
 20
-60.2738801635
 30
0.0
 10
53.4732353344
 20
-59.3468919525
 30
0.0
 10
53.4685006432
 20
-58.3357366521
 30
0.0
 10
53.4644868193
 20
-57.2385029931
 30
0.0
 10
53.4618576298
 20
-56.0521252584
 30
0.0
 10
53.4614146257
 20
-54.770832393
 30
0.0
 10
53.4632248256
 20
-53.3872673479
 30
0.0
 10
53.4665497274
 20
-51.8942784267
 30
0.0
 10
53.4704055078
 20
-50.2844981195
 30
0.0
 10
53.474256192
 20
-48.5489492187
 30
0.0
 10
53.4773030032
 20
-46.6770901389
 30
0.0
 10
53.4784038563
 20
-44.6577125339
 30
0.0
 10
53.4763120871
 20
-42.4797240804
 30
0.0
 10
53.4728492737
 20
-40.1258590878
 30
0.0
 10
53.471609567
 20
-38.4967818153
 30
0.0
 10
53.4716042977
 20
-37.6489250354
 30
0.0
 11
53.5521755681
 21
-65.9749803611
 31
0.0
 11
53.5341937679
 21
-65.3938901791
 31
0.0
 11
53.5251426108
 21
-64.8702336036
 31
0.0
 11
53.5202109838
 21
-64.3723917027
 31
0.0
 11
53.5148072573
 21
-63.845995069
 31
0.0
 11
53.5075648523
 21
-63.2613011813
 31
0.0
 11
53.4997670752
 21
-62.6182208266
 31
0.0
 11
53.491912637
 21
-61.9153953981
 31
0.0
 11
53.4846300557
 21
-61.1451593665
 31
0.0
 11
53.4785881623
 21
-60.3009656419
 31
0.0
 11
53.4734841968
 21
-59.3755023211
 31
0.0
 11
53.4687995878
 21
-58.3642020248
 31
0.0
 11
53.4648464075
 21
-57.2674988093
 31
0.0
 11
53.4622825869
 21
-56.0838008761
 31
0.0
 11
53.4617653774
 21
-54.8050718086
 31
0.0
 11
53.4633807331
 21
-53.4236260643
 31
0.0
 11
53.4665034697
 21
-51.9331076836
 31
0.0
 11
53.4702603478
 21
-50.3261026716
 31
0.0
 11
53.4739914646
 21
-48.5942829339
 31
0.0
 11
53.4768984956
 21
-46.726458955
 31
0.0
 11
53.4778883414
 21
-44.710525046
 31
0.0
 11
53.4761881417
 21
-42.5361544682
 31
0.0
 11
53.4732133411
 21
-40.1924948661
 31
0.0
 11
53.4716042977
 21
-37.6489250354
 31
0.0
  0
SPLINE
  5
425
100
AcDbEntity
  8
RACCORDO
100
AcDbSpline
 62
253
  6
CONTINUOUS
 70
0
 71
3
 72
9
 73
5
 74
3
 42
0.0000001
 43
0.0000001
 44
0.0000000001
 12
0.0020619962
 22
-0.1342570114
 32
0.0
 13
-0.1132312753
 23
-0.0628780357
 33
0.0
 40
0.0
 40
0.0
 40
0.0
 40
0.0
 40
0.2507024147
 40
1.0
 40
1.0
 40
1.0
 40
1.0
 10
-28.0283674684
 20
-6.2735174276
 30
0.0
 10
-28.0281951526
 20
-6.2847369466
 30
0.0
 10
-28.0351618993
 20
-6.3291899143
 30
0.0
 10
-28.0752416493
 20
-6.3577990714
 30
0.0
 10
-28.1035229563
 20
-6.3735038582
 30
0.0
 11
-28.0283674684
 21
-6.2735174276
 31
0.0
 11
-28.0337695216
 21
-6.3060300689
 31
0.0
 11
-28.1035229563
 21
-6.3735038582
 31
0.0
  0
LINE
  5
426
100
AcDbEntity
  8
0
100
AcDbLine
 62
7
  6
CONTINUOUS
 10
34.0726813053
 20
-42.9246196238
 11
33.6494526329
 21
-42.7127781143
  0
SPLINE
  5
427
100
AcDbEntity
  8
0
100
AcDbSpline
 62
7
  6
CONTINUOUS
 70
0
 71
3
 72
11
 73
7
 74
5
 42
0.0000001
 43
0.0000001
 44
0.0000000001
 12
0.1941558878
 22
0.8383222859
 32
0.0
 13
-0.4893020914
 23
0.7063646109
 33
0.0
 40
0.0
 40
0.0
 40
0.0
 40
0.0
 40
0.2017610074
 40
0.4542920498
 40
0.7639495841
 40
1.0
 40
1.0
 40
1.0
 40
1.0
 10
37.5676298484
 20
-45.5259058551
 30
0.0
 10
37.5806875443
 20
-45.4695256055
 30
0.0
 10
37.5871208959
 20
-45.3385606351
 30
0.0
 10
37.5567293635
 20
-45.1214567242
 30
0.0
 10
37.4820235307
 20
-44.9042259887
 30
0.0
 10
37.4040380859
 20
-44.7680266488
 30
0.0
 10
37.3655380985
 20
-44.7124474287
 30
0.0
 11
37.5676298484
 21
-45.5259058551
 31
0.0
 11
37.5815682517
 21
-45.3535639663
 31
0.0
 11
37.5528984654
 21
-45.1390580305
 31
0.0
 11
37.4664688599
 21
-44.888157867
 31
0.0
 11
37.3655380985
 21
-44.7124474287
 31
0.0
  0
SPLINE
  5
428
100
AcDbEntity
  8
0
100
AcDbSpline
 62
7
  6
CONTINUOUS
 70
0
 71
3
 72
11
 73
7
 74
5
 42
0.0000001
 43
0.0000001
 44
0.0000000001
 12
-0.8724782571
 22
0.8735411972
 32
0.0
 13
-1.1725756836
 23
0.375121784
 33
0.0
 40
0.0
 40
0.0
 40
0.0
 40
0.0
 40
0.17429207
 40
0.4370617016
 40
0.7111249225
 40
1.0
 40
1.0
 40
1.0
 40
1.0
 10
37.2316606757
 20
-44.552157097
 30
0.0
 10
37.1809719952
 20
-44.5014066625
 30
0.0
 10
37.0426000759
 20
-44.3852435669
 30
0.0
 10
36.7865105639
 20
-44.2431867612
 30
0.0
 10
36.4790050128
 20
-44.1005002023
 30
0.0
 10
36.2608571669
 20
-44.0233218211
 30
0.0
 10
36.1479478697
 20
-43.9872007096
 30
0.0
 11
37.2316606757
 21
-44.552157097
 31
0.0
 11
37.0675866605
 21
-44.4133478748
 31
0.0
 11
36.7889961348
 21
-44.2489102173
 31
0.0
 11
36.4825061604
 21
-44.1078238701
 31
0.0
 11
36.1479478697
 21
-43.9872007096
 31
0.0
  0
LINE
  5
429
100
AcDbEntity
  8
0
100
AcDbLine
 62
7
  6
CONTINUOUS
 10
33.2562635657
 20
-43.8100114444
 11
33.1928710453
 21
-43.6028601454
  0
LINE
  5
42A
100
AcDbEntity
  8
0
100
AcDbLine
 62
7
  6
CONTINUOUS
 10
33.1928710453
 20
-43.6028601454
 11
33.1126625334
 21
-43.3391270762
  0
SPLINE
  5
42B
100
AcDbEntity
  8
RACCORDO
100
AcDbSpline
 62
253
  6
CONTINUOUS
 70
0
 71
3
 72
9
 73
5
 74
3
 42
0.0000001
 43
0.0000001
 44
0.0000000001
 12
0.0020619962
 22
-0.1342570114
 32
0.0
 13
-0.1132312753
 23
-0.0628780357
 33
0.0
 40
0.0
 40
0.0
 40
0.0
 40
0.0
 40
0.2507024147
 40
1.0
 40
1.0
 40
1.0
 40
1.0
 10
35.6112428384
 20
-38.093322581
 30
0.0
 10
35.6114151542
 20
-38.1045421
 30
0.0
 10
35.6044484075
 20
-38.1489950677
 30
0.0
 10
35.5643686575
 20
-38.1776042248
 30
0.0
 10
35.5360873504
 20
-38.1933090116
 30
0.0
 11
35.6112428384
 21
-38.093322581
 31
0.0
 11
35.6058407852
 21
-38.1258352222
 31
0.0
 11
35.5360873504
 21
-38.1933090116
 31
0.0
  0
LINE
  5
42C
100
AcDbEntity
  8
0
100
AcDbLine
 62
7
  6
CONTINUOUS
 10
32.7983207065
 20
-42.286881447
 11
32.3707718645
 21
-42.0730181928
  0
SPLINE
  5
42D
100
AcDbEntity
  8
RACCORDO
100
AcDbSpline
 62
253
  6
CONTINUOUS
 70
0
 71
3
 72
18
 73
14
 74
12
 42
0.0000001
 43
0.0000001
 44
0.0000000001
 12
0.0981264289
 22
4.0881778518
 32
0.0
 13
-3.6953368833
 23
1.7513743924
 33
0.0
 40
0.0
 40
0.0
 40
0.0
 40
0.0
 40
0.0531520128
 40
0.1129697639
 40
0.18017983
 40
0.2553278279
 40
0.3386669633
 40
0.4303934925
 40
0.5306100145
 40
0.6390527066
 40
0.7547269348
 40
0.8757629507
 40
1.0
 40
1.0
 40
1.0
 40
1.0
 10
53.5521755919
 20
11.1012722447
 30
0.0
 10
53.553914131
 20
11.1737038718
 30
0.0
 10
53.5516414129
 20
11.3278423906
 30
0.0
 10
53.5297721153
 20
11.5726926406
 30
0.0
 10
53.4845438729
 20
11.8448215712
 30
0.0
 10
53.4106689998
 20
12.1437986985
 30
0.0
 10
53.302507297
 20
12.4676657756
 30
0.0
 10
53.154097922
 20
12.8128172855
 30
0.0
 10
52.9591555514
 20
13.1735714983
 30
0.0
 10
52.7113887286
 20
13.5406788662
 30
0.0
 10
52.4051853426
 20
13.8995017341
 30
0.0
 10
52.0372580035
 20
14.228545581
 30
0.0
 10
51.7514188651
 20
14.4072508182
 30
0.0
 10
51.5983862816
 20
14.4797793471
 30
0.0
 11
53.5521755919
 21
11.1012722447
 31
0.0
 11
53.5492432913
 21
11.3186099307
 31
0.0
 11
53.5277868151
 21
11.5622831262
 31
0.0
 11
53.4830319445
 21
11.8334606289
 31
0.0
 11
53.4096102119
 21
12.131867664
 31
0.0
 11
53.3018942997
 21
12.4552006141
 31
0.0
 11
53.1538595159
 21
12.7998562262
 31
0.0
 11
52.9589611185
 21
13.1603667535
 31
0.0
 11
52.7104471702
 21
13.5276516697
 31
0.0
 11
52.4024700221
 21
13.8866924959
 31
0.0
 11
52.0317974366
 21
14.214696336
 31
0.0
 11
51.5983862816
 21
14.4797793471
 31
0.0
  0
LINE
  5
42E
100
AcDbEntity
  8
0
100
AcDbLine
 62
7
  6
CONTINUOUS
 10
35.3830015508
 20
-45.1352639404
 11
35.0949972134
 21
-44.9921131339
  0
LINE
  5
42F
100
AcDbEntity
  8
0
100
AcDbLine
 62
7
  6
CONTINUOUS
 10
35.0949972134
 20
-44.9921131339
 11
35.0260386669
 21
-44.9578088314
  0
LINE
  5
430
100
AcDbEntity
  8
0
100
AcDbLine
 62
7
  6
CONTINUOUS
 10
35.0260386669
 20
-44.9578088314
 11
35.0548188569
 21
-44.8216762308
  0
SPLINE
  5
431
100
AcDbEntity
  8
0
100
AcDbSpline
 62
7
  6
CONTINUOUS
 70
0
 71
3
 72
9
 73
5
 74
3
 42
0.0000001
 43
0.0000001
 44
0.0000000001
 12
-0.1650782465
 22
-0.050879047
 32
0.0
 13
-0.1625323209
 23
0.0641654638
 33
0.0
 40
0.0
 40
0.0
 40
0.0
 40
0.0
 40
0.5771918325
 40
1.0
 40
1.0
 40
1.0
 40
1.0
 10
37.0621400987
 20
-45.4188891201
 30
0.0
 10
37.0303794935
 20
-45.4286781102
 30
0.0
 10
36.9672679359
 20
-45.4216253753
 30
0.0
 10
36.9116885744
 20
-45.4036303492
 30
0.0
 10
36.8887819102
 20
-45.3945871218
 30
0.0
 11
37.0621400987
 21
-45.4188891201
 31
0.0
 11
36.9600338966
 21
-45.4168911194
 31
0.0
 11
36.8887819102
 21
-45.3945871218
 31
0.0
  0
SPLINE
  5
432
100
AcDbEntity
  8
0
100
AcDbSpline
 62
7
  6
CONTINUOUS
 70
0
 71
3
 72
8
 73
4
 74
2
 42
0.0000001
 43
0.0000001
 44
0.0000000001
 12
-0.0361809011
 22
0.0142837085
 32
0.0
 13
-0.0355250746
 23
0.0164417783
 33
0.0
 40
0.0
 40
0.0
 40
0.0
 40
0.0
 40
1.0
 40
1.0
 40
1.0
 40
1.0
 10
36.8887819102
 20
-45.3945871218
 30
0.0
 10
36.8767216098
 20
-45.3898258856
 30
0.0
 10
36.8648256177
 20
-45.3846669281
 30
0.0
 10
36.8529839262
 20
-45.3791863353
 30
0.0
 11
36.8887819102
 21
-45.3945871218
 31
0.0
 11
36.8529839262
 21
-45.3791863353
 31
0.0
  0
SPLINE
  5
433
100
AcDbEntity
  8
RACCORDO
100
AcDbSpline
 62
253
  6
CONTINUOUS
 70
0
 71
3
 72
28
 73
24
 74
22
 42
0.0000001
 43
0.0000001
 44
0.0000000001
 12
-23.5502684089
 22
10.8411295925
 32
0.0
 13
-23.1886226504
 23
11.5945251111
 33
0.0
 40
0.0
 40
0.0
 40
0.0
 40
0.0
 40
0.0187085083
 40
0.0395010769
 40
0.0626981065
 40
0.0882004413
 40
0.1158339927
 40
0.1456828458
 40
0.1779473017
 40
0.2126730053
 40
0.2499164794
 40
0.2900072747
 40
0.3333291556
 40
0.3802246098
 40
0.4309174639
 40
0.4855805831
 40
0.5443962212
 40
0.6075693481
 40
0.6753902145
 40
0.7481776451
 40
0.8262420668
 40
0.9099998389
 40
1.0
 40
1.0
 40
1.0
 40
1.0
 10
51.5983862816
 20
14.4797793471
 30
0.0
 10
51.4515228178
 20
14.547386468
 30
0.0
 10
51.1423533324
 20
14.6921306825
 30
0.0
 10
50.6541598227
 20
14.927198359
 30
0.0
 10
50.1149306375
 20
15.1915592864
 30
0.0
 10
49.5230188326
 20
15.4827558069
 30
0.0
 10
48.8789374134
 20
15.7981291732
 30
0.0
 10
48.1821679367
 20
16.1387827412
 30
0.0
 10
47.4311689318
 20
16.5080557536
 30
0.0
 10
46.6240518168
 20
16.9080140056
 30
0.0
 10
45.7573052002
 20
17.339958559
 30
0.0
 10
44.824909103
 20
17.8067172162
 30
0.0
 10
43.8184938858
 20
18.3119479855
 30
0.0
 10
42.7302854756
 20
18.8584645973
 30
0.0
 10
41.5542428634
 20
19.4484717251
 30
0.0
 10
40.2858640761
 20
20.0841525408
 30
0.0
 10
38.9206507462
 20
20.7673333666
 30
0.0
 10
37.4534247954
 20
21.5007482948
 30
0.0
 10
35.8779945582
 20
22.2877442268
 30
0.0
 10
34.1872811863
 20
23.1319317341
 30
0.0
 10
32.3732476629
 20
24.0374421155
 30
0.0
 10
30.4261998104
 20
25.0095414972
 30
0.0
 10
29.0829413041
 20
25.6807095013
 30
0.0
 10
28.3872813795
 20
26.0285458771
 30
0.0
 11
51.5983862816
 21
14.4797793471
 31
0.0
 11
51.1590233724
 21
14.685246211
 31
0.0
 11
50.6731455586
 21
14.9187240673
 31
0.0
 11
50.1328768617
 21
15.1829068717
 31
0.0
 11
49.5394581371
 21
15.4744487963
 31
0.0
 11
48.896101124
 21
15.789648256
 31
0.0
 11
48.2010452306
 21
16.129865556
 31
0.0
 11
47.4504393184
 21
16.4990412154
 31
0.0
 11
46.6436932037
 21
16.8986453922
 31
0.0
 11
45.779453017
 21
17.3292329748
 31
0.0
 11
44.8499620866
 21
17.7943853506
 31
0.0
 11
43.8461071602
 21
18.2981190291
 31
0.0
 11
42.7595748173
 21
18.8436630349
 31
0.0
 11
41.584871851
 21
19.4330088939
 31
0.0
 11
40.317884626
 21
20.067950917
 31
0.0
 11
38.9542778872
 21
20.750383877
 31
0.0
 11
37.4893214845
 21
21.4827290675
 31
0.0
 11
35.9163672106
 21
22.2685159734
 31
0.0
 11
34.2280662647
 21
23.1115296867
 31
0.0
 11
32.4172809145
 21
24.0154908114
 31
0.0
 11
30.4745133395
 21
24.9855412651
 31
0.0
 11
28.3872813795
 21
26.0285458771
 31
0.0
  0
LINE
  5
434
100
AcDbEntity
  8
0
100
AcDbLine
 62
7
  6
CONTINUOUS
 10
29.6391519807
 20
-40.7502285475
 11
30.1042897583
 21
-40.9825901455
  0
LINE
  5
435
100
AcDbEntity
  8
0
100
AcDbLine
 62
7
  6
CONTINUOUS
 10
35.3893238482
 20
-43.5823923635
 11
34.97471842
 21
-43.3756642582
  0
SPLINE
  5
436
100
AcDbEntity
  8
RACCORDO
100
AcDbSpline
 62
253
  6
CONTINUOUS
 70
0
 71
3
 72
11
 73
7
 74
5
 42
0.0000001
 43
0.0000001
 44
0.0000000001
 12
-1.186602537
 22
0.6257995793
 32
0.0
 13
-1.1598235091
 23
-0.6815541535
 33
0.0
 40
0.0
 40
0.0
 40
0.0
 40
0.0
 40
0.3334327714
 40
0.6046244357
 40
0.8344284526
 40
1.0
 40
1.0
 40
1.0
 40
1.0
 10
-53.7605241167
 20
67.1592345447
 30
0.0
 10
-53.8924081741
 20
67.228788574
 30
0.0
 10
-54.1466355366
 20
67.3301648334
 30
0.0
 10
-54.5217182198
 20
67.3741475675
 30
0.0
 10
-54.8196860745
 20
67.3238345988
 30
0.0
 10
-54.9822215028
 20
67.2502829285
 30
0.0
 10
-55.0462327605
 20
67.2126676032
 30
0.0
 11
-53.7605241167
 21
67.1592345447
 31
0.0
 11
-54.1781454237
 21
67.3194623591
 31
0.0
 11
-54.539956787
 21
67.3575110318
 31
0.0
 11
-54.8436004134
 21
67.304220353
 31
0.0
 11
-55.0462327605
 21
67.2126676032
 31
0.0
  0
LINE
  5
437
100
AcDbEntity
  8
0
100
AcDbLine
 62
7
  6
CONTINUOUS
 10
30.8981700307
 20
-41.3792628199
 11
31.3259543963
 21
-41.5930698305
  0
LINE
  5
438
100
AcDbEntity
  8
0
100
AcDbLine
 62
7
  6
CONTINUOUS
 10
36.8529814467
 20
-45.3791851471
 11
36.6473562501
 21
-45.278518191
  0
LINE
  5
439
100
AcDbEntity
  8
0
100
AcDbLine
 62
7
  6
CONTINUOUS
 10
36.6473562501
 20
-45.278518191
 11
36.6058510118
 21
-45.2581574648
  0
SPLINE
  5
43A
100
AcDbEntity
  8
RACCORDO
100
AcDbSpline
 62
253
  6
CONTINUOUS
 70
0
 71
3
 72
25
 73
21
 74
19
 42
0.0000001
 43
0.0000001
 44
0.0000000001
 12
-23.1275048119
 22
11.5635420697
 32
0.0
 13
-22.7243357721
 23
12.3369991383
 33
0.0
 40
0.0
 40
0.0
 40
0.0
 40
0.0
 40
0.1021548077
 40
0.1966804297
 40
0.2842152663
 40
0.3653097372
 40
0.4404625172
 40
0.5101316992
 40
0.5746245707
 40
0.6341298082
 40
0.688783334
 40
0.7388335606
 40
0.7846086235
 40
0.8259507838
 40
0.8630487718
 40
0.8964156075
 40
0.926576084
 40
0.9537888406
 40
0.9781811048
 40
1.0
 40
1.0
 40
1.0
 40
1.0
 10
-30.6561409924
 20
55.5502570631
 30
0.0
 10
-31.4436695943
 20
55.9440142017
 30
0.0
 10
-32.9596701251
 20
56.7026056754
 30
0.0
 10
-35.1500360468
 20
57.7995110936
 30
0.0
 10
-37.1780752237
 20
58.815177313
 30
0.0
 10
-39.05698826
 20
59.7557265136
 30
0.0
 10
-40.7984180281
 20
60.6269205794
 30
0.0
 10
-42.4122416597
 20
61.4333669892
 30
0.0
 10
-43.9059447904
 20
62.1784800926
 30
0.0
 10
-45.28417444
 20
62.8651437356
 30
0.0
 10
-46.5512583528
 20
63.4957456427
 30
0.0
 10
-47.7119866909
 20
64.074443761
 30
0.0
 10
-48.7690014132
 20
64.6040231531
 30
0.0
 10
-49.7249529318
 20
65.0860920736
 30
0.0
 10
-50.5837800227
 20
65.5232255748
 30
0.0
 10
-51.3558724866
 20
65.9182933601
 30
0.0
 10
-52.0527591421
 20
66.2732913685
 30
0.0
 10
-52.6810865999
 20
66.5924597083
 30
0.0
 10
-53.2435633719
 20
66.8825022341
 30
0.0
 10
-53.5952508166
 20
67.069507981
 30
0.0
 10
-53.7605241167
 20
67.1592345447
 30
0.0
 11
-30.6561409924
 21
55.5502570631
 31
0.0
 11
-33.0184105053
 21
56.7321608642
 31
0.0
 11
-35.2039081655
 21
57.8264991819
 31
0.0
 11
-37.2277410777
 21
58.8399698822
 31
0.0
 11
-39.1028227106
 21
59.7785709919
 31
0.0
 11
-40.840754991
 21
60.6479312587
 31
0.0
 11
-42.4522487787
 21
61.4531147229
 31
0.0
 11
-43.944476554
 21
62.1975420751
 31
0.0
 11
-45.3216552723
 21
62.8836878129
 31
0.0
 11
-46.5867010863
 21
63.5135795136
 31
0.0
 11
-47.7447661
 21
64.0912798725
 31
0.0
 11
-48.8029188091
 21
64.6216210876
 31
0.0
 11
-49.7572978115
 21
65.1031908612
 31
0.0
 11
-50.6122763724
 21
65.5381338687
 31
0.0
 11
-51.380598903
 21
65.9306387558
 31
0.0
 11
-52.0754686575
 21
66.2846841933
 31
0.0
 11
-52.702418717
 21
66.6041407687
 31
0.0
 11
-53.2626303756
 21
66.893910399
 31
0.0
 11
-53.7605241167
 21
67.1592345447
 31
0.0
  0
SPLINE
  5
43B
100
AcDbEntity
  8
RACCORDO
100
AcDbSpline
 62
253
  6
CONTINUOUS
 70
0
 71
3
 72
15
 73
11
 74
9
 42
0.0000001
 43
0.0000001
 44
0.0000000001
 12
1.6572032871
 22
0.7087823671
 32
0.0
 13
-0.0440654347
 23
1.7963469501
 33
0.0
 40
0.0
 40
0.0
 40
0.0
 40
0.0
 40
0.105725652
 40
0.2478109413
 40
0.3836600597
 40
0.5156044015
 40
0.6439507571
 40
0.7679178486
 40
0.8865611559
 40
1.0
 40
1.0
 40
1.0
 40
1.0
 10
52.7956158453
 20
-67.4903359206
 30
0.0
 10
52.8540188113
 20
-67.4653570946
 30
0.0
 10
52.9856287149
 20
-67.3944334312
 30
0.0
 10
53.1616107413
 20
-67.2433139998
 30
0.0
 10
53.3097450327
 20
-67.045535632
 30
0.0
 10
53.4162033231
 20
-66.8323286621
 30
0.0
 10
53.4880372573
 20
-66.6129656813
 30
0.0
 10
53.53145763
 20
-66.394610714
 30
0.0
 10
53.5520885943
 20
-66.1820655964
 30
0.0
 10
53.5538418598
 20
-66.0429055135
 30
0.0
 10
53.5521756158
 20
-65.9749803396
 30
0.0
 11
52.7956158453
 21
-67.4903359206
 31
0.0
 11
52.9630528758
 21
-67.3999821348
 31
0.0
 11
53.1574049457
 21
-67.2344191212
 31
0.0
 11
53.3047698478
 21
-67.0398141088
 31
0.0
 11
53.4116993145
 21
-66.8282075423
 31
0.0
 11
53.4842928643
 21
-66.6093066992
 31
0.0
 11
53.5283368128
 21
-66.3909494801
 31
0.0
 11
53.5493339333
 21
-66.1787973542
 31
0.0
 11
53.5521756158
 21
-65.9749803396
 31
0.0
  0
SPLINE
  5
43C
100
AcDbEntity
  8
RACCORDO
100
AcDbSpline
 62
253
  6
CONTINUOUS
 70
0
 71
3
 72
10
 73
6
 74
4
 42
0.0000001
 43
0.0000001
 44
0.0000000001
 12
0.3152156761
 22
-0.1420796321
 32
0.0
 13
0.0903222679
 23
-0.337048576
 33
0.0
 40
0.0
 40
0.0
 40
0.0
 40
0.0
 40
0.4050455758
 40
0.8532440426
 40
1.0
 40
1.0
 40
1.0
 40
1.0
 10
19.4050925038
 20
-29.6149668484
 30
0.0
 10
19.4476514088
 20
-29.6341497572
 30
0.0
 10
19.5263786295
 20
-29.6987486523
 30
0.0
 10
19.5868679052
 20
-29.7985214045
 30
0.0
 10
19.6089454704
 20
-29.8643538796
 30
0.0
 10
19.613363914
 20
-29.8808418417
 30
0.0
 11
19.4050925038
 21
-29.6149668484
 31
0.0
 11
19.5162865523
 21
-29.7001083956
 31
0.0
 11
19.5972074312
 21
-29.8322702097
 31
0.0
 11
19.613363914
 21
-29.8808418417
 31
0.0
  0
SPLINE
  5
43D
100
AcDbEntity
  8
RACCORDO
100
AcDbSpline
 62
253
  6
CONTINUOUS
 70
0
 71
3
 72
8
 73
4
 74
2
 42
0.0000001
 43
0.0000001
 44
0.0000000001
 12
0.0128231931
 22
-0.0478513115
 32
0.0
 13
0.0065627741
 23
-0.0488580795
 33
0.0
 40
0.0
 40
0.0
 40
0.0
 40
0.0
 40
1.0
 40
1.0
 40
1.0
 40
1.0
 10
19.613363914
 20
-29.8808418417
 30
0.0
 10
19.6176383117
 20
-29.8967922789
 30
0.0
 10
19.620951229
 20
-29.9129759569
 30
0.0
 10
19.6231388203
 20
-29.9292619834
 30
0.0
 11
19.613363914
 21
-29.8808418417
 31
0.0
 11
19.6231388203
 21
-29.9292619834
 31
0.0
  0
SPLINE
  5
43E
100
AcDbEntity
  8
RACCORDO
100
AcDbSpline
 62
253
  6
CONTINUOUS
 70
0
 71
3
 72
8
 73
4
 74
2
 42
0.0000001
 43
0.0000001
 44
0.0000000001
 12
0.006263743
 22
-0.0466318742
 32
0.0
 13
-0.00031429
 23
-0.0468498694
 33
0.0
 40
0.0
 40
0.0
 40
0.0
 40
0.0
 40
1.0
 40
1.0
 40
1.0
 40
1.0
 10
19.6231388203
 20
-29.9292619834
 30
0.0
 10
19.6252267347
 20
-29.9448059415
 30
0.0
 10
19.6262895371
 20
-29.9604431336
 30
0.0
 10
19.6261847737
 20
-29.9760597567
 30
0.0
 11
19.6231388203
 21
-29.9292619834
 31
0.0
 11
19.6261847737
 21
-29.9760597567
 31
0.0
  0
SPLINE
  5
43F
100
AcDbEntity
  8
0
100
AcDbSpline
 62
7
  6
CONTINUOUS
 70
0
 71
3
 72
9
 73
5
 74
3
 42
0.0000001
 43
0.0000001
 44
0.0000000001
 12
-0.1123577426
 22
0.4292965195
 32
0.0
 13
-0.109224974
 23
0.4301148111
 33
0.0
 40
0.0
 40
0.0
 40
0.0
 40
0.0
 40
0.518483649
 40
1.0
 40
1.0
 40
1.0
 40
1.0
 10
37.7737012755
 20
-47.1495159931
 30
0.0
 10
37.7542827248
 20
-47.0753215845
 30
0.0
 10
37.7178919476
 20
-46.9319456115
 30
0.0
 10
37.6818375071
 20
-46.7884913067
 30
0.0
 10
37.6643063035
 20
-46.7194555353
 30
0.0
 11
37.7737012755
 21
-47.1495159931
 31
0.0
 11
37.7166370947
 21
-46.9266243316
 31
0.0
 11
37.6643063035
 21
-46.7194555353
 31
0.0
  0
SPLINE
  5
440
100
AcDbEntity
  8
0
100
AcDbSpline
 62
7
  6
CONTINUOUS
 70
0
 71
3
 72
10
 73
6
 74
4
 42
0.0000001
 43
0.0000001
 44
0.0000000001
 12
-0.1097943184
 22
0.4323568209
 32
0.0
 13
-0.1177032654
 23
0.4304218615
 33
0.0
 40
0.0
 40
0.0
 40
0.0
 40
0.0
 40
0.4461074424
 40
0.8643135275
 40
1.0
 40
1.0
 40
1.0
 40
1.0
 10
37.6643063035
 20
-46.7194555353
 30
0.0
 10
37.647979616
 20
-46.6551630034
 30
0.0
 10
37.6160610412
 20
-46.5306659693
 30
0.0
 10
37.5810211362
 20
-46.3861914091
 30
0.0
 10
37.5601013218
 20
-46.306490647
 30
0.0
 10
37.5547777415
 20
-46.2870231724
 30
0.0
 11
37.6643063035
 21
-46.7194555353
 31
0.0
 11
37.6154657238
 21
-46.526547306
 31
0.0
 11
37.5702600282
 21
-46.3455584298
 31
0.0
 11
37.5547777415
 21
-46.2870231724
 31
0.0
  0
SPLINE
  5
441
100
AcDbEntity
  8
0
100
AcDbSpline
 62
7
  6
CONTINUOUS
 70
0
 71
3
 72
11
 73
7
 74
5
 42
0.0000001
 43
0.0000001
 44
0.0000000001
 12
-0.1320867925
 22
0.4830201006
 32
0.0
 13
-0.3405121532
 23
0.3714197518
 33
0.0
 40
0.0
 40
0.0
 40
0.0
 40
0.0
 40
0.2369855315
 40
0.582013235
 40
0.9023015213
 40
1.0
 40
1.0
 40
1.0
 40
1.0
 10
37.5547777415
 20
-46.2870231724
 30
0.0
 10
37.544343522
 20
-46.2488669139
 30
0.0
 10
37.5168417909
 20
-46.1556941693
 30
0.0
 10
37.4594456831
 20
-46.0159169862
 30
0.0
 10
37.3941214935
 20
-45.9061560718
 30
0.0
 10
37.3490771833
 20
-45.8520787452
 30
0.0
 10
37.3379880102
 20
-45.8399830303
 30
0.0
 11
37.5547777415
 21
-46.2870231724
 31
0.0
 11
37.5203685921
 21
-46.1734896982
 31
0.0
 11
37.4539351075
 21
-46.0140635362
 31
0.0
 11
37.3696282746
 21
-45.87768893
 31
0.0
 11
37.3379880102
 21
-45.8399830303
 31
0.0
  0
SPLINE
  5
442
100
AcDbEntity
  8
RACCORDO
100
AcDbSpline
 62
253
  6
CONTINUOUS
 70
0
 71
3
 72
9
 73
5
 74
3
 42
0.0000001
 43
0.0000001
 44
0.0000000001
 12
0.1133477565
 22
0.0629427184
 32
0.0
 13
-0.0011537458
 23
0.1346450165
 33
0.0
 40
0.0
 40
0.0
 40
0.0
 40
0.0
 40
0.7286433084
 40
1.0
 40
1.0
 40
1.0
 40
1.0
 10
19.6261847737
 20
-29.9760597567
 30
0.0
 10
19.6537148018
 20
-29.9607721598
 30
0.0
 10
19.693531296
 20
-29.9327639082
 30
0.0
 10
19.7013810539
 20
-29.8880572981
 30
0.0
 10
19.701276695
 20
-29.875878356
 30
0.0
 11
19.6261847737
 21
-29.9760597567
 31
0.0
 11
19.6947670321
 21
-29.9110905992
 31
0.0
 11
19.701276695
 21
-29.875878356
 31
0.0
  0
SPLINE
  5
443
100
AcDbEntity
  8
RACCORDO
100
AcDbSpline
 62
253
  6
CONTINUOUS
 70
0
 71
3
 72
8
 73
4
 74
2
 42
0.0000001
 43
0.0000001
 44
0.0000000001
 12
0.0958046663
 22
0.046878355
 32
0.0
 13
0.1042928842
 23
-0.0249441113
 33
0.0
 40
0.0
 40
0.0
 40
0.0
 40
0.0
 40
1.0
 40
1.0
 40
1.0
 40
1.0
 10
15.6481737343
 20
-27.7365074636
 30
0.0
 10
15.680108623
 20
-27.7208813453
 30
0.0
 10
15.7186912695
 20
-27.7111091265
 30
0.0
 10
15.7534555642
 20
-27.7194238303
 30
0.0
 11
15.6481737343
 21
-27.7365074636
 31
0.0
 11
15.7534555642
 21
-27.7194238303
 31
0.0
  0
SPLINE
  5
444
100
AcDbEntity
  8
RACCORDO
100
AcDbSpline
 62
253
  6
CONTINUOUS
 70
0
 71
3
 72
8
 73
4
 74
2
 42
0.0000001
 43
0.0000001
 44
0.0000000001
 12
0.0276492842
 22
-0.0066129806
 32
0.0
 13
0.0254721852
 23
-0.0135209696
 33
0.0
 40
0.0
 40
0.0
 40
0.0
 40
0.0
 40
1.0
 40
1.0
 40
1.0
 40
1.0
 10
15.7534555642
 20
-27.7194238303
 30
0.0
 10
15.7626719923
 20
-27.7216281572
 30
0.0
 10
15.7716200501
 20
-27.725103711
 30
0.0
 10
15.7801107785
 20
-27.7296107009
 30
0.0
 11
15.7534555642
 21
-27.7194238303
 31
0.0
 11
15.7801107785
 21
-27.7296107009
 31
0.0
  0
SPLINE
  5
445
100
AcDbEntity
  8
RACCORDO
100
AcDbSpline
 62
253
  6
CONTINUOUS
 70
0
 71
3
 72
9
 73
5
 74
3
 42
0.0000001
 43
0.0000001
 44
0.0000000001
 12
0.0020883322
 22
-0.1538980767
 32
0.0
 13
-0.1183022407
 23
-0.1054338468
 33
0.0
 40
0.0
 40
0.0
 40
0.0
 40
0.0
 40
0.7788708033
 40
1.0
 40
1.0
 40
1.0
 40
1.0
 10
19.6261847737
 20
-30.2383577233
 30
0.0
 10
19.6267269541
 20
-30.2783132961
 30
0.0
 10
19.6183490934
 20
-30.3332306369
 30
0.0
 10
19.5832745292
 20
-30.3731275666
 30
0.0
 10
19.5745545027
 20
-30.3808990673
 30
0.0
 11
19.6261847737
 21
-30.2383577233
 31
0.0
 11
19.5974811309
 21
-30.3547483447
 31
0.0
 11
19.5745545027
 21
-30.3808990673
 31
0.0
  0
SPLINE
  5
446
100
AcDbEntity
  8
RACCORDO
100
AcDbSpline
 62
253
  6
CONTINUOUS
 70
0
 71
3
 72
9
 73
5
 74
3
 42
0.0000001
 43
0.0000001
 44
0.0000000001
 12
0.0020883322
 22
-0.1538980767
 32
0.0
 13
-0.1183022407
 23
-0.1054338468
 33
0.0
 40
0.0
 40
0.0
 40
0.0
 40
0.0
 40
0.7788708033
 40
1.0
 40
1.0
 40
1.0
 40
1.0
 10
3.716282197
 20
-22.2834064349
 30
0.0
 10
3.7168243774
 20
-22.3233620078
 30
0.0
 10
3.7084465167
 20
-22.3782793486
 30
0.0
 10
3.6733719525
 20
-22.4181762783
 30
0.0
 10
3.664651926
 20
-22.4259477789
 30
0.0
 11
3.716282197
 21
-22.2834064349
 31
0.0
 11
3.6875785542
 21
-22.3997970564
 31
0.0
 11
3.664651926
 21
-22.4259477789
 31
0.0
  0
SPLINE
  5
447
100
AcDbEntity
  8
RACCORDO
100
AcDbSpline
 62
253
  6
CONTINUOUS
 70
0
 71
3
 72
10
 73
6
 74
4
 42
0.0000001
 43
0.0000001
 44
0.0000000001
 12
0.3152156761
 22
-0.1420796321
 32
0.0
 13
0.0903222679
 23
-0.337048576
 33
0.0
 40
0.0
 40
0.0
 40
0.0
 40
0.0
 40
0.4050455758
 40
0.8532440426
 40
1.0
 40
1.0
 40
1.0
 40
1.0
 10
3.4951899271
 20
-21.6600155601
 30
0.0
 10
3.5377488321
 20
-21.6791984689
 30
0.0
 10
3.6164760528
 20
-21.7437973639
 30
0.0
 10
3.6769653285
 20
-21.8435701161
 30
0.0
 10
3.6990428937
 20
-21.9094025912
 30
0.0
 10
3.7034613373
 20
-21.9258905534
 30
0.0
 11
3.4951899271
 21
-21.6600155601
 31
0.0
 11
3.6063839756
 21
-21.7451571072
 31
0.0
 11
3.6873048545
 21
-21.8773189213
 31
0.0
 11
3.7034613373
 21
-21.9258905534
 31
0.0
  0
SPLINE
  5
448
100
AcDbEntity
  8
RACCORDO
100
AcDbSpline
 62
253
  6
CONTINUOUS
 70
0
 71
3
 72
8
 73
4
 74
2
 42
0.0000001
 43
0.0000001
 44
0.0000000001
 12
0.0128231931
 22
-0.0478513115
 32
0.0
 13
0.0065627741
 23
-0.0488580795
 33
0.0
 40
0.0
 40
0.0
 40
0.0
 40
0.0
 40
1.0
 40
1.0
 40
1.0
 40
1.0
 10
3.7034613373
 20
-21.9258905534
 30
0.0
 10
3.707735735
 20
-21.9418409906
 30
0.0
 10
3.7110486523
 20
-21.9580246686
 30
0.0
 10
3.7132362436
 20
-21.9743106951
 30
0.0
 11
3.7034613373
 21
-21.9258905534
 31
0.0
 11
3.7132362436
 21
-21.9743106951
 31
0.0
  0
SPLINE
  5
449
100
AcDbEntity
  8
RACCORDO
100
AcDbSpline
 62
253
  6
CONTINUOUS
 70
0
 71
3
 72
8
 73
4
 74
2
 42
0.0000001
 43
0.0000001
 44
0.0000000001
 12
0.006263743
 22
-0.0466318742
 32
0.0
 13
-0.00031429
 23
-0.0468498694
 33
0.0
 40
0.0
 40
0.0
 40
0.0
 40
0.0
 40
1.0
 40
1.0
 40
1.0
 40
1.0
 10
3.7132362436
 20
-21.9743106951
 30
0.0
 10
3.715324158
 20
-21.9898546531
 30
0.0
 10
3.7163869604
 20
-22.0054918452
 30
0.0
 10
3.716282197
 20
-22.0211084683
 30
0.0
 11
3.7132362436
 21
-21.9743106951
 31
0.0
 11
3.716282197
 21
-22.0211084683
 31
0.0
  0
SPLINE
  5
44A
100
AcDbEntity
  8
RACCORDO
100
AcDbSpline
 62
253
  6
CONTINUOUS
 70
0
 71
3
 72
9
 73
5
 74
3
 42
0.0000001
 43
0.0000001
 44
0.0000000001
 12
0.1133477565
 22
0.0629427184
 32
0.0
 13
-0.0011537458
 23
0.1346450165
 33
0.0
 40
0.0
 40
0.0
 40
0.0
 40
0.0
 40
0.7286433084
 40
1.0
 40
1.0
 40
1.0
 40
1.0
 10
3.716282197
 20
-22.0211084683
 30
0.0
 10
3.7438122251
 20
-22.0058208715
 30
0.0
 10
3.7836287193
 20
-21.9778126199
 30
0.0
 10
3.7914784772
 20
-21.9331060097
 30
0.0
 10
3.7913741183
 20
-21.9209270677
 30
0.0
 11
3.716282197
 21
-22.0211084683
 31
0.0
 11
3.7848644554
 21
-21.9561393109
 31
0.0
 11
3.7913741183
 21
-21.9209270677
 31
0.0
  0
SPLINE
  5
44B
100
AcDbEntity
  8
RACCORDO
100
AcDbSpline
 62
253
  6
CONTINUOUS
 70
0
 71
3
 72
8
 73
4
 74
2
 42
0.0000001
 43
0.0000001
 44
0.0000000001
 12
0.0958046663
 22
0.046878355
 32
0.0
 13
0.1042928842
 23
-0.0249441113
 33
0.0
 40
0.0
 40
0.0
 40
0.0
 40
0.0
 40
1.0
 40
1.0
 40
1.0
 40
1.0
 10
-0.2617288424
 20
-19.7815561753
 30
0.0
 10
-0.2297939537
 20
-19.765930057
 30
0.0
 10
-0.1912113072
 20
-19.7561578382
 30
0.0
 10
-0.1564470124
 20
-19.7644725419
 30
0.0
 11
-0.2617288424
 21
-19.7815561753
 31
0.0
 11
-0.1564470124
 21
-19.7644725419
 31
0.0
  0
SPLINE
  5
44C
100
AcDbEntity
  8
RACCORDO
100
AcDbSpline
 62
253
  6
CONTINUOUS
 70
0
 71
3
 72
8
 73
4
 74
2
 42
0.0000001
 43
0.0000001
 44
0.0000000001
 12
0.0276492842
 22
-0.0066129806
 32
0.0
 13
0.0254721852
 23
-0.0135209696
 33
0.0
 40
0.0
 40
0.0
 40
0.0
 40
0.0
 40
1.0
 40
1.0
 40
1.0
 40
1.0
 10
-0.1564470124
 20
-19.7644725419
 30
0.0
 10
-0.1472305844
 20
-19.7666768688
 30
0.0
 10
-0.1382825266
 20
-19.7701524227
 30
0.0
 10
-0.1297917982
 20
-19.7746594125
 30
0.0
 11
-0.1564470124
 21
-19.7644725419
 31
0.0
 11
-0.1297917982
 21
-19.7746594125
 31
0.0
  0
SPLINE
  5
44D
100
AcDbEntity
  8
RACCORDO
100
AcDbSpline
 62
253
  6
CONTINUOUS
 70
0
 71
3
 72
25
 73
21
 74
19
 42
0.0000001
 43
0.0000001
 44
0.0000000001
 12
-23.1267919481
 22
11.563236469
 32
0.0
 13
-23.1150774477
 23
11.5866361829
 33
0.0
 40
0.0
 40
0.0
 40
0.0
 40
0.0
 40
0.1021621299
 40
0.1966702005
 40
0.2841783324
 40
0.3652487841
 40
0.4403842586
 40
0.510045512
 40
0.5745472783
 40
0.6340762029
 40
0.6887669194
 40
0.7388665889
 40
0.7846792283
 40
0.8260403235
 40
0.863125197
 40
0.8963779491
 40
0.9263547863
 40
0.9534686831
 40
0.9779562862
 40
1.0
 40
1.0
 40
1.0
 40
1.0
 10
-31.3064877228
 20
54.5634855475
 30
0.0
 10
-32.0940484971
 20
54.9572605029
 30
0.0
 10
-33.6102885229
 20
55.7150623416
 30
0.0
 10
-35.8013993245
 20
56.8096028996
 30
0.0
 10
-37.8299284717
 20
57.8228221187
 30
0.0
 10
-39.7090132711
 20
58.7615762291
 30
0.0
 10
-41.4503706235
 20
59.63183554
 30
0.0
 10
-43.0636899056
 20
60.4388548509
 30
0.0
 10
-44.5563908005
 20
61.1863365844
 30
0.0
 10
-45.933662906
 20
61.8761592397
 30
0.0
 10
-47.2000544751
 20
62.5101828608
 30
0.0
 10
-48.3615558093
 20
63.0896426132
 30
0.0
 10
-49.4209541503
 20
63.6164112997
 30
0.0
 10
-50.3806678333
 20
64.0917123215
 30
0.0
 10
-51.243372948
 20
64.518976492
 30
0.0
 10
-52.0173074725
 20
64.9043910743
 30
0.0
 10
-52.7155285673
 20
65.2490648644
 30
0.0
 10
-53.3485714073
 20
65.5550494712
 30
0.0
 10
-53.9210078031
 20
65.8292859066
 30
0.0
 10
-54.280888169
 20
66.0063011178
 30
0.0
 10
-54.4507355529
 20
66.0914386152
 30
0.0
 11
-31.3064877228
 21
54.5634855475
 31
0.0
 11
-33.6693393618
 21
55.7444717163
 31
0.0
 11
-35.8553791032
 21
56.836548051
 31
0.0
 11
-37.8795527761
 21
57.8476422575
 31
0.0
 11
-39.7547499757
 21
58.784483356
 31
0.0
 11
-41.4925192153
 21
59.6530390598
 31
0.0
 11
-43.1034006891
 21
60.4588682091
 31
0.0
 11
-44.5947036135
 21
61.2055488288
 31
0.0
 11
-45.9709673009
 21
61.8947938754
 31
0.0
 11
-47.2355925498
 21
62.527586563
 31
0.0
 11
-48.3947521918
 21
63.1058697121
 31
0.0
 11
-49.4554551567
 21
63.6331980183
 31
0.0
 11
-50.4136949129
 21
64.1080704322
 31
0.0
 11
-51.2728057798
 21
64.5339656712
 31
0.0
 11
-52.0428163273
 21
64.9165066519
 31
0.0
 11
-52.7381494299
 21
65.2589746745
 31
0.0
 11
-53.3691358581
 21
65.564514725
 31
0.0
 11
-53.9395046634
 21
65.8394232922
 31
0.0
 11
-54.4507355529
 21
66.0914386152
 31
0.0
  0
SPLINE
  5
44E
100
AcDbEntity
  8
RACCORDO
100
AcDbSpline
 62
253
  6
CONTINUOUS
 70
0
 71
3
 72
8
 73
4
 74
2
 42
0.0000001
 43
0.0000001
 44
0.0000000001
 12
0.0958046663
 22
0.046878355
 32
0.0
 13
0.1042928842
 23
-0.0249441113
 33
0.0
 40
0.0
 40
0.0
 40
0.0
 40
0.0
 40
1.0
 40
1.0
 40
1.0
 40
1.0
 10
-16.1716314191
 20
-11.8266048869
 30
0.0
 10
-16.1396965304
 20
-11.8109787686
 30
0.0
 10
-16.1011138839
 20
-11.8012065498
 30
0.0
 10
-16.0663495891
 20
-11.8095212536
 30
0.0
 11
-16.1716314191
 21
-11.8266048869
 31
0.0
 11
-16.0663495891
 21
-11.8095212536
 31
0.0
  0
SPLINE
  5
44F
100
AcDbEntity
  8
RACCORDO
100
AcDbSpline
 62
253
  6
CONTINUOUS
 70
0
 71
3
 72
8
 73
4
 74
2
 42
0.0000001
 43
0.0000001
 44
0.0000000001
 12
0.0276492842
 22
-0.0066129806
 32
0.0
 13
0.0254721852
 23
-0.0135209696
 33
0.0
 40
0.0
 40
0.0
 40
0.0
 40
0.0
 40
1.0
 40
1.0
 40
1.0
 40
1.0
 10
-16.0663495891
 20
-11.8095212536
 30
0.0
 10
-16.0571331611
 20
-11.8117255805
 30
0.0
 10
-16.0481851033
 20
-11.8152011343
 30
0.0
 10
-16.0396943749
 20
-11.8197081242
 30
0.0
 11
-16.0663495891
 21
-11.8095212536
 31
0.0
 11
-16.0396943749
 21
-11.8197081242
 31
0.0
  0
SPLINE
  5
450
100
AcDbEntity
  8
RACCORDO
100
AcDbSpline
 62
253
  6
CONTINUOUS
 70
0
 71
3
 72
10
 73
6
 74
4
 42
0.0000001
 43
0.0000001
 44
0.0000000001
 12
0.3152156761
 22
-0.1420796321
 32
0.0
 13
0.0903222679
 23
-0.337048576
 33
0.0
 40
0.0
 40
0.0
 40
0.0
 40
0.0
 40
0.4050455758
 40
0.8532440426
 40
1.0
 40
1.0
 40
1.0
 40
1.0
 10
-12.4147126496
 20
-13.7050642717
 30
0.0
 10
-12.3721537446
 20
-13.7242471805
 30
0.0
 10
-12.2934265239
 20
-13.7888460756
 30
0.0
 10
-12.2329372482
 20
-13.8886188278
 30
0.0
 10
-12.210859683
 20
-13.9544513029
 30
0.0
 10
-12.2064412394
 20
-13.9709392651
 30
0.0
 11
-12.4147126496
 21
-13.7050642717
 31
0.0
 11
-12.3035186011
 21
-13.7902058189
 31
0.0
 11
-12.2225977222
 21
-13.922367633
 31
0.0
 11
-12.2064412394
 21
-13.9709392651
 31
0.0
  0
SPLINE
  5
451
100
AcDbEntity
  8
RACCORDO
100
AcDbSpline
 62
253
  6
CONTINUOUS
 70
0
 71
3
 72
8
 73
4
 74
2
 42
0.0000001
 43
0.0000001
 44
0.0000000001
 12
0.0128231931
 22
-0.0478513115
 32
0.0
 13
0.0065627741
 23
-0.0488580795
 33
0.0
 40
0.0
 40
0.0
 40
0.0
 40
0.0
 40
1.0
 40
1.0
 40
1.0
 40
1.0
 10
-12.2064412394
 20
-13.9709392651
 30
0.0
 10
-12.2021668417
 20
-13.9868897022
 30
0.0
 10
-12.1988539244
 20
-14.0030733802
 30
0.0
 10
-12.1966663331
 20
-14.0193594067
 30
0.0
 11
-12.2064412394
 21
-13.9709392651
 31
0.0
 11
-12.1966663331
 21
-14.0193594067
 31
0.0
  0
SPLINE
  5
452
100
AcDbEntity
  8
RACCORDO
100
AcDbSpline
 62
253
  6
CONTINUOUS
 70
0
 71
3
 72
8
 73
4
 74
2
 42
0.0000001
 43
0.0000001
 44
0.0000000001
 12
0.006263743
 22
-0.0466318742
 32
0.0
 13
-0.00031429
 23
-0.0468498694
 33
0.0
 40
0.0
 40
0.0
 40
0.0
 40
0.0
 40
1.0
 40
1.0
 40
1.0
 40
1.0
 10
-12.1966663331
 20
-14.0193594067
 30
0.0
 10
-12.1945784187
 20
-14.0349033648
 30
0.0
 10
-12.1935156163
 20
-14.0505405569
 30
0.0
 10
-12.1936203796
 20
-14.06615718
 30
0.0
 11
-12.1966663331
 21
-14.0193594067
 31
0.0
 11
-12.1936203796
 21
-14.06615718
 31
0.0
  0
LINE
  5
453
100
AcDbEntity
  8
0
100
AcDbLine
 62
7
  6
CONTINUOUS
 10
36.6466026623
 20
-45.8108280612
 11
36.6415068128
 21
-45.7100232153
  0
SPLINE
  5
454
100
AcDbEntity
  8
RACCORDO
100
AcDbSpline
 62
253
  6
CONTINUOUS
 70
0
 71
3
 72
26
 73
22
 74
20
 42
0.0000001
 43
0.0000001
 44
0.0000000001
 12
-8.2914585991
 22
4.1412338722
 32
0.0
 13
-8.3029198276
 23
4.1182068801
 33
0.0
 40
0.0
 40
0.0
 40
0.0
 40
0.0
 40
0.0999428883
 40
0.1916002326
 40
0.2758058964
 40
0.3532464029
 40
0.4245329965
 40
0.4902029454
 40
0.5507346464
 40
0.6065596276
 40
0.6580749372
 40
0.7056355398
 40
0.7495521437
 40
0.7901273353
 40
0.8276646247
 40
0.8623966052
 40
0.8944392747
 40
0.9239053449
 40
0.9510695753
 40
0.9763094731
 40
1.0
 40
1.0
 40
1.0
 40
1.0
 10
-33.2888857774
 20
35.7535427589
 30
0.0
 10
-33.5651098844
 20
35.8915050503
 30
0.0
 10
-34.0947910255
 20
36.1557264969
 30
0.0
 10
-34.8569251956
 20
36.536739466
 30
0.0
 10
-35.5568527379
 20
36.8867179728
 30
0.0
 10
-36.2003742023
 20
37.2087863772
 30
0.0
 10
-36.792623802
 20
37.5053526618
 30
0.0
 10
-37.3381802275
 20
37.7784984768
 30
0.0
 10
-37.8410747497
 20
38.0301586256
 30
0.0
 10
-38.3049293301
 20
38.2621177641
 30
0.0
 10
-38.7330173485
 20
38.4760049798
 30
0.0
 10
-39.1282769153
 20
38.6732852249
 30
0.0
 10
-39.4933775873
 20
38.8553080051
 30
0.0
 10
-39.8308449107
 20
39.0233554161
 30
0.0
 10
-40.1429846767
 20
39.1786094965
 30
0.0
 10
-40.4315794547
 20
39.3220099221
 30
0.0
 10
-40.6978925439
 20
39.4542168498
 30
0.0
 10
-40.9433060632
 20
39.5759440871
 30
0.0
 10
-41.1699239721
 20
39.6882683585
 30
0.0
 10
-41.3805930747
 20
39.7925920296
 30
0.0
 10
-41.5160310949
 20
39.8597278579
 30
0.0
 10
-41.5815979434
 20
39.8922486882
 30
0.0
 11
-33.2888857774
 21
35.7535427589
 31
0.0
 11
-34.1176332773
 21
36.1672790776
 31
0.0
 11
-34.8775115484
 21
36.5470433324
 31
0.0
 11
-35.5755240404
 21
36.8961094053
 31
0.0
 11
-36.2173636446
 21
37.217318998
 31
0.0
 11
-36.8081421399
 21
37.513116057
 31
0.0
 11
-37.3523839766
 21
37.785586274
 31
0.0
 11
-37.854090599
 21
38.0366412001
 31
0.0
 11
-38.3168515315
 21
38.2680447864
 31
0.0
 11
-38.743962007
 21
38.4814349425
 31
0.0
 11
-39.1383649563
 21
38.6782819953
 31
0.0
 11
-39.5026308088
 21
38.8598840909
 31
0.0
 11
-39.839259614
 21
39.0275118393
 31
0.0
 11
-40.1507550896
 21
39.1824477224
 31
0.0
 11
-40.4390289562
 21
39.3256886365
 31
0.0
 11
-40.7050302227
 21
39.4577405792
 31
0.0
 11
-40.9496826683
 21
39.5790919233
 31
0.0
 11
-41.1752575811
 21
39.6908943167
 31
0.0
 11
-41.3848754688
 21
39.7947304276
 31
0.0
 11
-41.5815979434
 21
39.8922486882
 31
0.0
  0
SPLINE
  5
455
100
AcDbEntity
  8
RACCORDO
100
AcDbSpline
 62
253
  6
CONTINUOUS
 70
0
 71
3
 72
20
 73
16
 74
14
 42
0.0000001
 43
0.0000001
 44
0.0000000001
 12
-1.8084982667
 22
0.8970061327
 32
0.0
 13
-1.7972285524
 23
0.9193777374
 33
0.0
 40
0.0
 40
0.0
 40
0.0
 40
0.0
 40
0.1022728698
 40
0.1961029417
 40
0.2800617448
 40
0.3566065476
 40
0.4293840137
 40
0.5010997983
 40
0.5726179928
 40
0.6444106349
 40
0.716362941
 40
0.7881723168
 40
0.8598605125
 40
0.9309808016
 40
1.0
 40
1.0
 40
1.0
 40
1.0
 10
-41.5815979434
 20
39.8922486882
 30
0.0
 10
-41.6432513794
 20
39.9228284854
 30
0.0
 10
-41.7614553399
 20
39.981490515
 30
0.0
 10
-41.9302200399
 20
40.0653618873
 30
0.0
 10
-42.083434797
 20
40.1416213626
 30
0.0
 10
-42.2239263075
 20
40.211650358
 30
0.0
 10
-42.3570035555
 20
40.2780863179
 30
0.0
 10
-42.4870100018
 20
40.3431005368
 30
0.0
 10
-42.6163735011
 20
40.4079187014
 30
0.0
 10
-42.7458248928
 20
40.472916631
 30
0.0
 10
-42.8753933733
 20
40.5381179093
 30
0.0
 10
-43.0048340557
 20
40.6034166468
 30
0.0
 10
-43.1337015821
 20
40.6686083068
 30
0.0
 10
-43.2608073192
 20
40.733123024
 30
0.0
 10
-43.3448156923
 20
40.7759642638
 30
0.0
 10
-43.3861634503
 20
40.7971158353
 30
0.0
 11
-41.5815979434
 21
39.8922486882
 31
0.0
 11
-41.7665354722
 21
39.984033986
 31
0.0
 11
-41.9361594423
 21
40.0683361898
 31
0.0
 11
-42.0878934281
 21
40.1438598046
 31
0.0
 11
-42.2261878734
 21
40.2127958749
 31
0.0
 11
-42.3576351951
 21
40.278420536
 31
0.0
 11
-42.4871205333
 21
40.3431767648
 31
0.0
 11
-42.616199369
 21
40.4078539551
 31
0.0
 11
-42.7457192259
 21
40.4728876219
 31
0.0
 11
-42.8754684206
 21
40.5381827139
 31
0.0
 11
-43.004894589
 21
40.6034776678
 31
0.0
 11
-43.1340279
 21
40.6688097938
 31
0.0
 11
-43.2620471102
 21
40.7338041559
 31
0.0
 11
-43.3861634503
 21
40.7971158353
 31
0.0
  0
SPLINE
  5
456
100
AcDbEntity
  8
RACCORDO
100
AcDbSpline
 62
253
  6
CONTINUOUS
 70
0
 71
3
 72
27
 73
23
 74
21
 42
0.0000001
 43
0.0000001
 44
0.0000000001
 12
-3.6010838881
 22
1.842058065
 32
0.0
 13
0.002019439
 23
-4.0448707033
 33
0.0
 40
0.0
 40
0.0
 40
0.0
 40
0.0
 40
0.0787223131
 40
0.1464349248
 40
0.2052710869
 40
0.2569498726
 40
0.3027007317
 40
0.3426699845
 40
0.3786745271
 40
0.4127194393
 40
0.446556406
 40
0.4807612955
 40
0.5153251584
 40
0.5498330535
 40
0.5848054448
 40
0.6222898179
 40
0.6648142004
 40
0.7140205392
 40
0.770447631
 40
0.8355735001
 40
0.911259125
 40
1.0
 40
1.0
 40
1.0
 40
1.0
 10
-43.3861634503
 20
40.7971158353
 30
0.0
 10
-43.4806586681
 20
40.8454528592
 30
0.0
 10
-43.6614666644
 20
40.9260853944
 30
0.0
 10
-43.9263933704
 20
41.008306293
 30
0.0
 10
-44.1633242499
 20
41.0517359078
 30
0.0
 10
-44.3740847241
 20
41.0649554291
 30
0.0
 10
-44.5594832669
 20
41.0549421164
 30
0.0
 10
-44.7216325982
 20
41.0274849382
 30
0.0
 10
-44.8645859544
 20
40.9868574245
 30
0.0
 10
-44.9948165887
 20
40.9346259234
 30
0.0
 10
-45.1169049016
 20
40.8705803814
 30
0.0
 10
-45.2327305538
 20
40.7945115445
 30
0.0
 10
-45.341039917
 20
40.7066437853
 30
0.0
 10
-45.441489408
 20
40.6084587594
 30
0.0
 10
-45.5355003485
 20
40.4988471482
 30
0.0
 10
-45.6255070334
 20
40.3723572591
 30
0.0
 10
-45.7128728479
 20
40.2213215872
 30
0.0
 10
-45.7958150827
 20
40.0392420413
 30
0.0
 10
-45.8703095871
 20
39.820999802
 30
0.0
 10
-45.931269874
 20
39.5617244941
 30
0.0
 10
-45.9738119533
 20
39.2547437703
 30
0.0
 10
-45.9837396849
 20
39.0328709733
 30
0.0
 10
-45.9836799493
 20
38.9132225182
 30
0.0
 11
-43.3861634503
 21
40.7971158353
 31
0.0
 11
-43.6774258267
 21
40.9257958831
 31
0.0
 11
-43.9392535866
 21
41.0061780664
 31
0.0
 11
-44.17344542
 21
41.0484971105
 31
0.0
 11
-44.3820967476
 21
41.0611403033
 31
0.0
 11
-44.5668635344
 21
41.050792327
 31
0.0
 11
-44.7262254533
 21
41.0235687542
 31
0.0
 11
-44.866285227
 21
40.9836632989
 31
0.0
 11
-44.9940927488
 21
40.9323940705
 31
0.0
 11
-45.1153360563
 21
40.8688928146
 31
0.0
 11
-45.2309623765
 21
40.7929159335
 31
0.0
 11
-45.3396582104
 21
40.7049896124
 31
0.0
 11
-45.4395575551
 21
40.6075078455
 31
0.0
 11
-45.5316703747
 21
40.5001494467
 31
0.0
 11
-45.6196884797
 21
40.3766938908
 31
0.0
 11
-45.7060622622
 21
40.227947417
 31
0.0
 11
-45.7889403607
 21
40.0469903045
 31
0.0
 11
-45.8631831439
 21
39.8311624744
 31
0.0
 11
-45.9242789385
 21
39.5749195599
 31
0.0
 11
-45.9670395054
 21
39.2717820016
 31
0.0
 11
-45.9836799493
 21
38.9132225182
 31
0.0
  0
SPLINE
  5
457
100
AcDbEntity
  8
RACCORDO
100
AcDbSpline
 62
253
  6
CONTINUOUS
 70
0
 71
3
 72
11
 73
7
 74
5
 42
0.0000001
 43
0.0000001
 44
0.0000000001
 12
0.0033688918
 22
-9.086341204
 32
0.0
 13
0.0018898222
 23
-9.086341632
 33
0.0
 40
0.0
 40
0.0
 40
0.0
 40
0.0
 40
0.2230560734
 40
0.4652361744
 40
0.7239406656
 40
1.0
 40
1.0
 40
1.0
 40
1.0
 10
-45.9836799493
 20
38.9132225182
 30
0.0
 10
-45.9834294654
 20
38.2376346545
 30
0.0
 10
-45.9826860739
 20
36.8285360728
 30
0.0
 10
-45.9855091468
 20
34.6358799152
 30
0.0
 10
-45.9870581371
 20
32.2826875279
 30
0.0
 10
-45.9864973416
 20
30.6630051503
 30
0.0
 10
-45.9863234406
 20
29.8268820094
 30
0.0
 11
-45.9836799493
 21
38.9132225182
 31
0.0
 11
-45.9833045509
 21
36.8864588227
 31
0.0
 11
-45.9852215372
 21
34.6859284766
 31
0.0
 11
-45.9866427703
 21
32.3352514661
 31
0.0
 11
-45.9863234406
 21
29.8268820094
 31
0.0
  0
SPLINE
  5
458
100
AcDbEntity
  8
RACCORDO
100
AcDbSpline
 62
253
  6
CONTINUOUS
 70
0
 71
3
 72
29
 73
25
 74
23
 42
0.0000001
 43
0.0000001
 44
0.0000000001
 12
0.00019535
 22
-27.4653189408
 32
0.0
 13
1.0287085065
 23
-27.4461356697
 33
0.0
 40
0.0
 40
0.0
 40
0.0
 40
0.0
 40
0.0970383412
 40
0.1856835356
 40
0.2668391553
 40
0.3412718763
 40
0.4096668337
 40
0.4726044591
 40
0.5305935367
 40
0.5840928408
 40
0.6335077806
 40
0.6791561355
 40
0.7213741444
 40
0.7604727866
 40
0.7965056274
 40
0.8295408285
 40
0.8597843333
 40
0.8874384647
 40
0.912671689
 40
0.9357738263
 40
0.9566986029
 40
0.9755042985
 40
0.9936883873
 40
1.0
 40
1.0
 40
1.0
 40
1.0
 10
-55.9290312829
 20
16.4099434293
 30
0.0
 10
-55.9290249641
 20
15.521547099
 30
0.0
 10
-55.9267995144
 20
13.8215946225
 30
0.0
 10
-55.9207178728
 20
11.3786618458
 30
0.0
 10
-55.9176856
 20
9.1426780136
 30
0.0
 10
-55.9204907871
 20
7.0920870568
 30
0.0
 10
-55.9260570473
 20
5.2082918156
 30
0.0
 10
-55.9324628521
 20
3.4750436722
 30
0.0
 10
-55.9383789116
 20
1.8781660173
 30
0.0
 10
-55.9426983072
 20
0.4050849239
 30
0.0
 10
-55.9438975912
 20
-0.9550225142
 30
0.0
 10
-55.9413178328
 20
-2.2118465857
 30
0.0
 10
-55.9358298231
 20
-3.3742129011
 30
0.0
 10
-55.9283978003
 20
-4.448534907
 30
0.0
 10
-55.9199787536
 20
-5.4387768835
 30
0.0
 10
-55.9105444123
 20
-6.3479368781
 30
0.0
 10
-55.8989330121
 20
-7.180357762
 30
0.0
 10
-55.8857553734
 20
-7.9413161476
 30
0.0
 10
-55.8726756064
 20
-8.6368855697
 30
0.0
 10
-55.8596148354
 20
-9.2708344041
 30
0.0
 10
-55.8472973832
 20
-9.8459443181
 30
0.0
 10
-55.8395748743
 20
-10.3761033519
 30
0.0
 10
-55.8298494514
 20
-10.7724267651
 30
0.0
 10
-55.8219763735
 20
-10.9965497886
 30
0.0
 10
-55.8198121036
 20
-11.0542929148
 30
0.0
 11
-55.9290312829
 21
16.4099434293
 31
0.0
 11
-55.9261509118
 21
13.744755995
 31
0.0
 11
-55.9210273486
 21
11.3100928507
 31
0.0
 11
-55.9186578523
 21
9.0811291291
 31
0.0
 11
-55.9211299171
 21
7.0368122039
 31
0.0
 11
-55.9264463144
 21
5.1583304069
 31
0.0
 11
-55.9326329665
 21
3.4297395217
 31
0.0
 11
-55.9383178664
 21
1.8370611581
 31
0.0
 11
-55.9422858752
 21
0.3676910638
 31
0.0
 11
-55.9432379481
 21
-0.9895056841
 31
0.0
 11
-55.9406739403
 21
-2.2432496872
 31
0.0
 11
-55.9352542517
 21
-3.4027681029
 31
0.0
 11
-55.9279085705
 21
-4.476599655
 31
0.0
 11
-55.9194227913
 21
-5.4662167388
 31
0.0
 11
-55.9097153466
 21
-6.3734871417
 31
0.0
 11
-55.8981153987
 21
-7.2040536474
 31
0.0
 11
-55.8851748302
 21
-7.9634729409
 31
0.0
 11
-55.8720921026
 21
-8.6563879977
 31
0.0
 11
-55.8591138009
 21
-9.2907628244
 31
0.0
 11
-55.8475728683
 21
-9.8653525951
 31
0.0
 11
-55.8386195087
 21
-10.3817794175
 31
0.0
 11
-55.8258761248
 21
-10.8810486103
 31
0.0
 11
-55.8198121036
 21
-11.0542929148
 31
0.0
  0
SPLINE
  5
459
100
AcDbEntity
  8
RACCORDO
100
AcDbSpline
 62
253
  6
CONTINUOUS
 70
0
 71
3
 72
15
 73
11
 74
9
 42
0.0000001
 43
0.0000001
 44
0.0000000001
 12
8.9614148297
 22
-8.2066463112
 32
0.0
 13
10.6803691134
 23
-5.7953184988
 33
0.0
 40
0.0
 40
0.0
 40
0.0
 40
0.0
 40
0.0385884689
 40
0.1948644028
 40
0.4381961499
 40
0.5645206363
 40
0.6923397342
 40
0.8212322756
 40
0.9572023011
 40
1.0
 40
1.0
 40
1.0
 40
1.0
 10
-55.9290346838
 20
16.4099466351
 30
0.0
 10
-55.8137655913
 20
16.3043859965
 30
0.0
 10
-55.2284101833
 20
15.7748914671
 30
0.0
 10
-53.8764043791
 20
14.6239840335
 30
0.0
 10
-52.1782423669
 20
13.3349785393
 30
0.0
 10
-50.5178461945
 20
12.1929673148
 30
0.0
 10
-49.2152302403
 20
11.3498220673
 30
0.0
 10
-47.8567636292
 20
10.522145963
 30
0.0
 10
-46.7735886933
 20
9.90559881
 30
0.0
 10
-46.1384699786
 20
9.5578420455
 30
0.0
 10
-45.9861049047
 20
9.4751666134
 30
0.0
 11
-55.9290346838
 21
16.4099466351
 31
0.0
 11
-55.5813102849
 21
16.0953709665
 31
0.0
 11
-54.1362371432
 21
14.8633631879
 31
0.0
 11
-51.7830174904
 21
13.0730785527
 31
0.0
 11
-50.5188713208
 21
12.2023256764
 31
0.0
 11
-49.2151452856
 21
11.3581331256
 31
0.0
 11
-47.8774076212
 21
10.5435722189
 31
0.0
 11
-46.4422412029
 21
9.7249520378
 31
0.0
 11
-45.9861049047
 21
9.4751666134
 31
0.0
  0
SPLINE
  5
45A
100
AcDbEntity
  8
RACCORDO
100
AcDbSpline
 62
253
  6
CONTINUOUS
 70
0
 71
3
 72
9
 73
5
 74
3
 42
0.0000001
 43
0.0000001
 44
0.0000000001
 12
0.1133477565
 22
0.0629427184
 32
0.0
 13
-0.0011537458
 23
0.1346450165
 33
0.0
 40
0.0
 40
0.0
 40
0.0
 40
0.0
 40
0.7286433084
 40
1.0
 40
1.0
 40
1.0
 40
1.0
 10
-12.1936203796
 20
-14.06615718
 30
0.0
 10
-12.1660903516
 20
-14.0508695831
 30
0.0
 10
-12.1262738574
 20
-14.0228613315
 30
0.0
 10
-12.1184240995
 20
-13.9781547214
 30
0.0
 10
-12.1185284584
 20
-13.9659757793
 30
0.0
 11
-12.1936203796
 21
-14.06615718
 31
0.0
 11
-12.1250381213
 21
-14.0011880225
 31
0.0
 11
-12.1185284584
 21
-13.9659757793
 31
0.0
  0
SPLINE
  5
45B
100
AcDbEntity
  8
RACCORDO
100
AcDbSpline
 62
253
  6
CONTINUOUS
 70
0
 71
3
 72
9
 73
5
 74
3
 42
0.0000001
 43
0.0000001
 44
0.0000000001
 12
0.0020883322
 22
-0.1538980767
 32
0.0
 13
-0.1183022407
 23
-0.1054338468
 33
0.0
 40
0.0
 40
0.0
 40
0.0
 40
0.0
 40
0.7788708033
 40
1.0
 40
1.0
 40
1.0
 40
1.0
 10
-12.1936203796
 20
-14.3284551466
 30
0.0
 10
-12.1930781993
 20
-14.3684107195
 30
0.0
 10
-12.20145606
 20
-14.4233280602
 30
0.0
 10
-12.2365306242
 20
-14.46322499
 30
0.0
 10
-12.2452506507
 20
-14.4709964906
 30
0.0
 11
-12.1936203796
 21
-14.3284551466
 31
0.0
 11
-12.2223240225
 21
-14.444845768
 31
0.0
 11
-12.2452506507
 21
-14.4709964906
 31
0.0
  0
SPLINE
  5
45C
100
AcDbEntity
  8
RACCORDO
100
AcDbSpline
 62
253
  6
CONTINUOUS
 70
0
 71
3
 72
11
 73
7
 74
5
 42
0.0000001
 43
0.0000001
 44
0.0000000001
 12
-0.0018834661
 22
-9.0782514987
 32
0.0
 13
-0.0035344909
 23
-9.078251006
 33
0.0
 40
0.0
 40
0.0
 40
0.0
 40
0.0
 40
0.2766752472
 40
0.5350978609
 40
0.7766778126
 40
1.0
 40
1.0
 40
1.0
 40
1.0
 10
-45.9863234396
 20
9.4752852923
 30
0.0
 10
-45.9864971424
 20
8.6380427997
 30
0.0
 10
-45.9871501249
 20
7.0187916666
 30
0.0
 10
-45.985314265
 20
4.668499936
 30
0.0
 10
-45.9828011147
 20
2.479659631
 30
0.0
 10
-45.9834131865
 20
1.0728265021
 30
0.0
 10
-45.9836762966
 20
0.3970348781
 30
0.0
 11
-45.9863234396
 21
9.4752852923
 31
0.0
 11
-45.9866596788
 21
6.963557783
 31
0.0
 11
-45.985126103
 21
4.6175327538
 31
0.0
 11
-45.9833391114
 21
2.4244098758
 31
0.0
 11
-45.9836762966
 21
0.3970348781
 31
0.0
  0
SPLINE
  5
45D
100
AcDbEntity
  8
RACCORDO
100
AcDbSpline
 62
253
  6
CONTINUOUS
 70
0
 71
3
 72
9
 73
5
 74
3
 42
0.0000001
 43
0.0000001
 44
0.0000000001
 12
0.0020883322
 22
-0.1538980767
 32
0.0
 13
-0.1183022407
 23
-0.1054338468
 33
0.0
 40
0.0
 40
0.0
 40
0.0
 40
0.0
 40
0.7788708033
 40
1.0
 40
1.0
 40
1.0
 40
1.0
 10
-28.1035229563
 20
-6.3735038582
 30
0.0
 10
-28.102980776
 20
-6.4134594311
 30
0.0
 10
-28.1113586367
 20
-6.4683767719
 30
0.0
 10
-28.1464332009
 20
-6.5082737016
 30
0.0
 10
-28.1551532274
 20
-6.5160452022
 30
0.0
 11
-28.1035229563
 21
-6.3735038582
 31
0.0
 11
-28.1322265992
 21
-6.4898944797
 31
0.0
 11
-28.1551532274
 21
-6.5160452022
 31
0.0
  0
SPLINE
  5
45E
100
AcDbEntity
  8
RACCORDO
100
AcDbSpline
 62
253
  6
CONTINUOUS
 70
0
 71
3
 72
11
 73
7
 74
5
 42
0.0000001
 43
0.0000001
 44
0.0000000001
 12
0.0004382044
 22
9.0932492366
 32
0.0
 13
0.0201198869
 23
9.0932269883
 33
0.0
 40
0.0
 40
0.0
 40
0.0
 40
0.0
 40
0.2771671959
 40
0.5355285664
 40
0.7767457596
 40
1.0
 40
1.0
 40
1.0
 40
1.0
 10
36.8549955556
 20
-12.0123031317
 30
0.0
 10
36.8550360409
 20
-11.1721863342
 30
0.0
 10
36.8556244277
 20
-9.5489548738
 30
0.0
 10
36.8565136981
 20
-7.194573912
 30
0.0
 10
36.8565712425
 20
-5.0036082198
 30
0.0
 10
36.8568619768
 20
-3.5957553224
 30
0.0
 10
36.8583592602
 20
-2.9190548276
 30
0.0
 11
36.8549955556
 21
-12.0123031317
 31
0.0
 11
36.8556517119
 21
-9.4919528219
 31
0.0
 11
36.8563909928
 21
-7.1426085998
 31
0.0
 11
36.8566411138
 21
-4.9491605543
 31
0.0
 11
36.8583592602
 21
-2.9190548276
 31
0.0
  0
SPLINE
  5
45F
100
AcDbEntity
  8
RACCORDO
100
AcDbSpline
 62
7
  6
CONTINUOUS
 70
0
 71
3
 72
9
 73
5
 74
3
 42
0.0000001
 43
0.0000001
 44
0.0000000001
 12
0.0796370452
 22
0.0442229495
 32
0.0
 13
-0.0079390647
 23
-0.0552323601
 33
0.0
 40
0.0
 40
0.0
 40
0.0
 40
0.0
 40
0.9890318952
 40
1.0
 40
1.0
 40
1.0
 40
1.0
 10
-28.1140432511
 20
-5.597926204
 30
0.0
 10
-28.0877887252
 20
-5.5833469015
 30
0.0
 10
-28.0283081199
 20
-5.5473263174
 30
0.0
 10
-28.0303023791
 20
-5.5651739021
 30
0.0
 10
-28.0303314046
 20
-5.5653758335
 30
0.0
 11
-28.1140432511
 21
-5.597926204
 31
0.0
 11
-28.030266028
 21
-5.564788874
 31
0.0
 11
-28.0303314046
 21
-5.5653758335
 31
0.0
  0
SPLINE
  5
460
100
AcDbEntity
  8
RACCORDO
100
AcDbSpline
 62
253
  6
CONTINUOUS
 70
0
 71
3
 72
9
 73
5
 74
3
 42
0.0000001
 43
0.0000001
 44
0.0000000001
 12
0.0020883322
 22
-0.1538980767
 32
0.0
 13
-0.1183022407
 23
-0.1054338468
 33
0.0
 40
0.0
 40
0.0
 40
0.0
 40
0.0
 40
0.7788708033
 40
1.0
 40
1.0
 40
1.0
 40
1.0
 10
35.5360873504
 20
-38.1933090116
 30
0.0
 10
35.5366295308
 20
-38.2332645845
 30
0.0
 10
35.5282516701
 20
-38.2881819253
 30
0.0
 10
35.4931771059
 20
-38.328078855
 30
0.0
 10
35.4844570794
 20
-38.3358503556
 30
0.0
 11
35.5360873504
 21
-38.1933090116
 31
0.0
 11
35.5073837076
 21
-38.3096996331
 31
0.0
 11
35.4844570794
 21
-38.3358503556
 31
0.0
  0
SPLINE
  5
461
100
AcDbEntity
  8
RACCORDO
100
AcDbSpline
 62
253
  6
CONTINUOUS
 70
0
 71
3
 72
10
 73
6
 74
4
 42
0.0000001
 43
0.0000001
 44
0.0000000001
 12
-1.0467389004
 22
0.0765360992
 32
0.0
 13
-0.0445709984
 23
1.0834787093
 33
0.0
 40
0.0
 40
0.0
 40
0.0
 40
0.0
 40
0.479356378
 40
0.8398947143
 40
1.0
 40
1.0
 40
1.0
 40
1.0
 10
36.8547973882
 20
-12.0122882966
 30
0.0
 10
36.6875437322
 20
-12.0000589408
 30
0.0
 10
36.4032744562
 20
-11.9397809338
 30
0.0
 10
36.0668368102
 20
-11.7663599934
 30
0.0
 10
36.009577025
 20
-11.5750571371
 30
0.0
 10
36.0071983408
 20
-11.517233581
 30
0.0
 11
36.8547973882
 21
-12.0122882966
 31
0.0
 11
36.363612313
 21
-11.9034429696
 31
0.0
 11
36.0559430324
 21
-11.6831615825
 31
0.0
 11
36.0071983408
 21
-11.517233581
 31
0.0
  0
SPLINE
  5
462
100
AcDbEntity
  8
RACCORDO
100
AcDbSpline
 62
7
  6
CONTINUOUS
 70
0
 71
3
 72
9
 73
5
 74
3
 42
0.0000001
 43
0.0000001
 44
0.0000000001
 12
0.0796370452
 22
0.0442229495
 32
0.0
 13
-0.0079390647
 23
-0.0552323601
 33
0.0
 40
0.0
 40
0.0
 40
0.0
 40
0.0
 40
0.9890318952
 40
1.0
 40
1.0
 40
1.0
 40
1.0
 10
35.5255670557
 20
-37.4177313574
 30
0.0
 10
35.5518215816
 20
-37.4031520549
 30
0.0
 10
35.6113021869
 20
-37.3671314708
 30
0.0
 10
35.6093079276
 20
-37.3849790555
 30
0.0
 10
35.6092789021
 20
-37.3851809869
 30
0.0
 11
35.5255670557
 21
-37.4177313574
 31
0.0
 11
35.6093442788
 21
-37.3845940274
 31
0.0
 11
35.6092789021
 21
-37.3851809869
 31
0.0
  0
SPLINE
  5
463
100
AcDbEntity
  8
RACCORDO
100
AcDbSpline
 62
253
  6
CONTINUOUS
 70
0
 71
3
 72
10
 73
6
 74
4
 42
0.0000001
 43
0.0000001
 44
0.0000000001
 12
-1.0500087377
 22
0.075079265
 32
0.0
 13
-0.0453115991
 23
1.0865183655
 33
0.0
 40
0.0
 40
0.0
 40
0.0
 40
0.0
 40
0.4791574185
 40
0.8395335179
 40
1.0
 40
1.0
 40
1.0
 40
1.0
 10
36.8583592602
 20
-2.9190548276
 30
0.0
 10
36.6906527681
 20
-2.9070632319
 30
0.0
 10
36.4056340222
 20
-2.8468188339
 30
0.0
 10
36.0677342694
 20
-2.6739233031
 30
0.0
 10
36.0098700496
 20
-2.4819484102
 30
0.0
 10
36.0074463853
 20
-2.4238318169
 30
0.0
 11
36.8583592602
 21
-2.9190548276
 31
0.0
 11
36.3657448614
 21
-2.8106369015
 31
0.0
 11
36.0567375363
 21
-2.59056503
 31
0.0
 11
36.0074463853
 21
-2.4238318169
 31
0.0
  0
SPLINE
  5
464
100
AcDbEntity
  8
RACCORDO
100
AcDbSpline
 62
253
  6
CONTINUOUS
 70
0
 71
3
 72
29
 73
25
 74
23
 42
0.0000001
 43
0.0000001
 44
0.0000000001
 12
0.0127584647
 22
2.931562591
 32
0.0
 13
-2.6285968004
 23
1.2979602707
 33
0.0
 40
0.0
 40
0.0
 40
0.0
 40
0.0
 40
0.0446151971
 40
0.0913141452
 40
0.1367697141
 40
0.1794173977
 40
0.2205686647
 40
0.2609449862
 40
0.3028743746
 40
0.3457303828
 40
0.3879230418
 40
0.4299645474
 40
0.4721915056
 40
0.5143062988
 40
0.5564713129
 40
0.5972714014
 40
0.6375763959
 40
0.6798888104
 40
0.7258369393
 40
0.775070219
 40
0.8272559348
 40
0.8820857401
 40
0.9396455195
 40
1.0
 40
1.0
 40
1.0
 40
1.0
 10
36.8583592853
 20
-2.9190548297
 30
0.0
 10
36.8585490258
 20
-2.8754574154
 30
0.0
 10
36.8559789576
 20
-2.7861944733
 30
0.0
 10
36.8442011035
 20
-2.6529932141
 30
0.0
 10
36.8253937467
 20
-2.5225513787
 30
0.0
 10
36.8011335538
 20
-2.3985487985
 30
0.0
 10
36.7724872237
 20
-2.2805967734
 30
0.0
 10
36.7392033202
 20
-2.1646040716
 30
0.0
 10
36.7007664596
 20
-2.048458387
 30
0.0
 10
36.6570996269
 20
-1.9322776679
 30
0.0
 10
36.6088388832
 20
-1.817812692
 30
0.0
 10
36.5565407307
 20
-1.7058156206
 30
0.0
 10
36.5001839092
 20
-1.5958919097
 30
0.0
 10
36.4398392477
 20
-1.4879678374
 30
0.0
 10
36.376269651
 20
-1.3835378249
 30
0.0
 10
36.3097887695
 20
-1.2830515594
 30
0.0
 10
36.2394770534
 20
-1.1850291031
 30
0.0
 10
36.1622189298
 20
-1.0859125727
 30
0.0
 10
36.0749660943
 20
-0.9836740383
 30
0.0
 10
35.9759858497
 20
-0.8789778565
 30
0.0
 10
35.8647555823
 20
-0.7742377616
 30
0.0
 10
35.7404412514
 20
-0.6719822757
 30
0.0
 10
35.6018899354
 20
-0.5752247136
 30
0.0
 10
35.5013952951
 20
-0.518332947
 30
0.0
 10
35.4485127637
 20
-0.4922203744
 30
0.0
 11
36.8583592853
 21
-2.9190548297
 31
0.0
 11
36.8547739623
 21
-2.788310498
 31
0.0
 11
36.8428302584
 21
-2.6519303072
 31
0.0
 11
36.8238721891
 21
-2.5200286462
 31
0.0
 11
36.7999193981
 21
-2.3973190339
 31
0.0
 11
36.7715003143
 21
-2.280075521
 31
0.0
 11
36.7388792873
 21
-2.1662924986
 31
0.0
 11
36.7002880534
 21
-2.049587779
 31
0.0
 11
36.656097461
 21
-1.931979695
 31
0.0
 11
36.6080668325
 21
-1.8179943071
 31
0.0
 11
36.5559385063
 21
-1.7063125111
 31
0.0
 11
36.4994766568
 21
-1.5961464805
 31
0.0
 11
36.4392060876
 21
-1.488393753
 31
0.0
 11
36.3749099544
 21
-1.3828211478
 31
0.0
 11
36.3088979047
 21
-1.2830776915
 31
0.0
 11
36.240006862
 21
-1.1870814722
 31
0.0
 11
36.1637207207
 21
-1.0892703908
 31
0.0
 11
36.0762287346
 21
-0.986851953
 31
0.0
 11
35.9770075786
 21
-0.8820338583
 31
0.0
 11
35.865531234
 21
-0.7772574777
 31
0.0
 11
35.7412542854
 21
-0.6753157565
 31
0.0
 11
35.6027207366
 21
-0.5789715029
 31
0.0
 11
35.4485127637
 21
-0.4922203744
 31
0.0
  0
SPLINE
  5
465
100
AcDbEntity
  8
RACCORDO
100
AcDbSpline
 62
253
  6
CONTINUOUS
 70
0
 71
3
 72
10
 73
6
 74
4
 42
0.0000001
 43
0.0000001
 44
0.0000000001
 12
-0.5200693697
 22
-1.109490912
 32
0.0
 13
1.0836569576
 23
-0.5889747541
 33
0.0
 40
0.0
 40
0.0
 40
0.0
 40
0.0
 40
0.4245663398
 40
0.7786058068
 40
1.0
 40
1.0
 40
1.0
 40
1.0
 10
35.4485127637
 20
-0.4922203744
 30
0.0
 10
35.3749114474
 20
-0.6492378729
 30
0.0
 10
35.278732285
 20
-0.9581042047
 30
0.0
 10
35.3170351181
 20
-1.3845758526
 30
0.0
 10
35.4896161955
 20
-1.5763421425
 30
0.0
 10
35.5695879814
 20
-1.6198073393
 30
0.0
 11
35.4485127637
 21
-0.4922203744
 31
0.0
 11
35.3074859248
 21
-0.9929760714
 31
0.0
 11
35.3791014857
 21
-1.4208404225
 31
0.0
 11
35.5695879814
 21
-1.6198073393
 31
0.0
  0
SPLINE
  5
466
100
AcDbEntity
  8
RACCORDO
100
AcDbSpline
 62
253
  6
CONTINUOUS
 70
0
 71
3
 72
9
 73
5
 74
3
 42
0.0000001
 43
0.0000001
 44
0.0000000001
 12
0.0919870417
 22
-0.4206705577
 32
0.0
 13
0.3929083897
 23
-0.1972301376
 33
0.0
 40
0.0
 40
0.0
 40
0.0
 40
0.0
 40
0.6865289195
 40
1.0
 40
1.0
 40
1.0
 40
1.0
 10
27.7369273627
 20
-55.5000491571
 30
0.0
 10
27.7579779508
 20
-55.5963166583
 30
0.0
 10
27.8165403239
 20
-55.7380078995
 30
0.0
 10
27.936757496
 20
-55.8254608536
 30
0.0
 10
27.9778126352
 20
-55.8460695017
 30
0.0
 11
27.7369273627
 21
-55.5000491571
 31
0.0
 11
27.8674467368
 21
-55.7653032321
 31
0.0
 11
27.9778126352
 21
-55.8460695017
 31
0.0
  0
SPLINE
  5
467
100
AcDbEntity
  8
RACCORDO
100
AcDbSpline
 62
253
  6
CONTINUOUS
 70
0
 71
3
 72
9
 73
5
 74
3
 42
0.0000001
 43
0.0000001
 44
0.0000000001
 12
0.0919916185
 22
-0.420672032
 32
0.0
 13
0.3929114188
 23
-0.1972296622
 33
0.0
 40
0.0
 40
0.0
 40
0.0
 40
0.0
 40
0.6865273273
 40
1.0
 40
1.0
 40
1.0
 40
1.0
 10
-31.3064919388
 20
-25.9783395064
 30
0.0
 10
-31.2854403521
 20
-26.0746071216
 30
0.0
 10
-31.2268777467
 20
-26.216298808
 30
0.0
 10
-31.1066596374
 20
-26.3037522913
 30
0.0
 10
-31.0656039732
 20
-26.3243609944
 30
0.0
 11
-31.3064919388
 21
-25.9783395064
 31
0.0
 11
-31.1759712362
 21
-26.2435940137
 31
0.0
 11
-31.0656039732
 21
-26.3243609944
 31
0.0
  0
SPLINE
  5
468
100
AcDbEntity
  8
RACCORDO
100
AcDbSpline
 62
253
  6
CONTINUOUS
 70
0
 71
3
 72
9
 73
5
 74
3
 42
0.0000001
 43
0.0000001
 44
0.0000000001
 12
0.0613040349
 22
-0.5030672978
 32
0.0
 13
0.4525496
 23
-0.2514602365
 33
0.0
 40
0.0
 40
0.0
 40
0.0
 40
0.0
 40
0.6654982473
 40
1.0
 40
1.0
 40
1.0
 40
1.0
 10
-54.4504811411
 20
-14.2814605551
 30
0.0
 10
-54.4368818985
 20
-14.3930573568
 30
0.0
 10
-54.3842970363
 20
-14.5656912294
 30
0.0
 10
-54.2489273276
 20
-14.679005819
 30
0.0
 10
-54.1984677828
 20
-14.7070437823
 30
0.0
 11
-54.4504811411
 21
-14.2814605551
 31
0.0
 11
-54.330227223
 21
-14.5965606424
 31
0.0
 11
-54.1984677828
 21
-14.7070437823
 31
0.0
  0
SPLINE
  5
469
100
AcDbEntity
  8
RACCORDO
100
AcDbSpline
 62
253
  6
CONTINUOUS
 70
0
 71
3
 72
9
 73
5
 74
3
 42
0.0000001
 43
0.0000001
 44
0.0000000001
 12
-0.3101654202
 22
0.2074518873
 32
0.0
 13
-0.0069740239
 23
0.3825349854
 33
0.0
 40
0.0
 40
0.0
 40
0.0
 40
0.0
 40
0.7639783466
 40
1.0
 40
1.0
 40
1.0
 40
1.0
 10
-55.7739732847
 20
-12.012505715
 30
0.0
 10
-55.8529598397
 20
-11.9596761317
 30
0.0
 10
-55.9543875055
 20
-11.8650866694
 30
0.0
 10
-55.9742758581
 20
-11.7390420915
 30
0.0
 10
-55.9748245317
 20
-11.7089465783
 30
0.0
 11
-55.7739732847
 21
-12.012505715
 31
0.0
 11
-55.9603454474
 21
-11.7967883452
 31
0.0
 11
-55.9748245317
 21
-11.7089465783
 31
0.0
  0
SPLINE
  5
46A
100
AcDbEntity
  8
RACCORDO
100
AcDbSpline
 62
253
  6
CONTINUOUS
 70
0
 71
3
 72
9
 73
5
 74
3
 42
0.0000001
 43
0.0000001
 44
0.0000000001
 12
-0.2010393711
 22
0.1841073754
 32
0.0
 13
0.0073739431
 23
0.2751034244
 33
0.0
 40
0.0
 40
0.0
 40
0.0
 40
0.0
 40
0.8375504906
 40
1.0
 40
1.0
 40
1.0
 40
1.0
 10
-55.9290360363
 20
16.4099463697
 30
0.0
 10
-55.985162911
 20
16.4613461106
 30
0.0
 10
-56.0451101773
 20
16.5432888542
 30
0.0
 10
-56.0506157671
 20
16.6346197299
 30
0.0
 10
-56.0502164693
 20
16.6495165353
 30
0.0
 11
-55.9290360363
 21
16.4099463697
 31
0.0
 11
-56.0473902991
 21
16.6051941693
 31
0.0
 11
-56.0502164693
 21
16.6495165353
 31
0.0
  0
SPLINE
  5
46B
100
AcDbEntity
  8
RACCORDO
100
AcDbSpline
 62
253
  6
CONTINUOUS
 70
0
 71
3
 72
9
 73
5
 74
3
 42
0.0000001
 43
0.0000001
 44
0.0000000001
 12
-0.2010387043
 22
0.1841096083
 32
0.0
 13
0.0073747496
 23
0.2751043357
 33
0.0
 40
0.0
 40
0.0
 40
0.0
 40
0.0
 40
0.8375569168
 40
1.0
 40
1.0
 40
1.0
 40
1.0
 10
-55.9290360363
 20
36.7615409476
 30
0.0
 10
-55.9851631554
 20
36.8129417062
 30
0.0
 10
-56.0451106039
 20
36.8948849317
 30
0.0
 10
-56.0506157304
 20
36.9862161385
 30
0.0
 10
-56.0502164047
 20
37.001112404
 30
0.0
 11
-55.9290360363
 21
36.7615409476
 31
0.0
 11
-56.0473905802
 21
36.9567916206
 31
0.0
 11
-56.0502164047
 21
37.001112404
 31
0.0
  0
SPLINE
  5
46C
100
AcDbEntity
  8
RACCORDO
100
AcDbSpline
 62
253
  6
CONTINUOUS
 70
0
 71
3
 72
9
 73
5
 74
3
 42
0.0000001
 43
0.0000001
 44
0.0000000001
 12
-0.3120195399
 22
0.2012986001
 32
0.0
 13
0.0195066248
 23
0.3838703104
 33
0.0
 40
0.0
 40
0.0
 40
0.0
 40
0.0
 40
0.7393491857
 40
1.0
 40
1.0
 40
1.0
 40
1.0
 10
-55.7739777714
 20
65.1389659475
 30
0.0
 10
-55.8508749023
 20
65.1885759329
 30
0.0
 10
-55.9591934014
 20
65.2763761069
 30
0.0
 10
-55.9748800862
 20
65.4045771794
 30
0.0
 10
-55.9731852803
 20
65.4379292157
 30
0.0
 11
-55.7739777714
 21
65.1389659475
 31
0.0
 11
-55.9604092932
 21
65.340490542
 31
0.0
 11
-55.9731852803
 21
65.4379292157
 31
0.0
  0
SPLINE
  5
46D
100
AcDbEntity
  8
RACCORDO
100
AcDbSpline
 62
253
  6
CONTINUOUS
 70
0
 71
3
 72
10
 73
6
 74
4
 42
0.0000001
 43
0.0000001
 44
0.0000000001
 12
0.1430521336
 22
1.3040209871
 32
0.0
 13
1.1617863028
 23
0.609251372
 33
0.0
 40
0.0
 40
0.0
 40
0.0
 40
0.0
 40
0.3369200561
 40
0.6842232345
 40
1.0
 40
1.0
 40
1.0
 40
1.0
 10
-54.4507382183
 20
66.0914378036
 30
0.0
 10
-54.4346725074
 20
66.2378880783
 30
0.0
 10
-54.3475019245
 20
66.5303672396
 30
0.0
 10
-54.1095973563
 20
66.9025196917
 30
0.0
 10
-53.8828112993
 20
67.0950779575
 30
0.0
 10
-53.7605229257
 20
67.1592071001
 30
0.0
 11
-54.4507382183
 21
66.0914378036
 31
0.0
 11
-54.3304917642
 21
66.516752864
 31
0.0
 11
-54.083157806
 21
66.8993808635
 31
0.0
 11
-53.7605229257
 21
67.1592071001
 31
0.0
  0
SPLINE
  5
46E
100
AcDbEntity
  8
RACCORDO
100
AcDbSpline
 62
253
  6
CONTINUOUS
 70
0
 71
3
 72
10
 73
6
 74
4
 42
0.0000001
 43
0.0000001
 44
0.0000000001
 12
0.2141336443
 22
1.1932703899
 32
0.0
 13
1.0558740084
 23
0.5957159722
 33
0.0
 40
0.0
 40
0.0
 40
0.0
 40
0.0
 40
0.3437535262
 40
0.6894019648
 40
1.0
 40
1.0
 40
1.0
 40
1.0
 10
-31.3064919371
 20
54.5634852114
 30
0.0
 10
-31.2819555387
 20
54.7002155128
 30
0.0
 10
-31.1911793446
 20
54.9679831153
 30
0.0
 10
-30.969304772
 20
55.3097959586
 30
0.0
 10
-30.7654584566
 20
55.4885809929
 30
0.0
 10
-30.6561409924
 20
55.5502570631
 30
0.0
 11
-31.3064919371
 21
54.5634852114
 31
0.0
 11
-31.1759680557
 21
54.9592609154
 31
0.0
 11
-30.9453706025
 21
55.3091462109
 31
0.0
 11
-30.6561409924
 21
55.5502570631
 31
0.0
  0
SPLINE
  5
46F
100
AcDbEntity
  8
RACCORDO
100
AcDbSpline
 62
253
  6
CONTINUOUS
 70
0
 71
3
 72
10
 73
6
 74
4
 42
0.0000001
 43
0.0000001
 44
0.0000000001
 12
0.2141222034
 22
1.1932742308
 32
0.0
 13
1.055880211
 23
0.5957085596
 33
0.0
 40
0.0
 40
0.0
 40
0.0
 40
0.0
 40
0.3437524841
 40
0.6894008092
 40
1.0
 40
1.0
 40
1.0
 40
1.0
 10
27.7369273644
 20
25.0417755606
 30
0.0
 10
27.7614623775
 20
25.1785058876
 30
0.0
 10
27.8522371389
 20
25.4462743141
 30
0.0
 10
28.0741148088
 20
25.7880860695
 30
0.0
 10
28.2779628664
 20
25.966870345
 30
0.0
 10
28.3872813795
 20
26.0285458771
 30
0.0
 11
27.7369273644
 21
25.0417755606
 31
0.0
 11
27.8674490904
 21
25.4375512822
 31
0.0
 11
28.0980485986
 21
25.787435787
 31
0.0
 11
28.3872813795
 21
26.0285458771
 31
0.0
  0
SPLINE
  5
470
100
AcDbEntity
  8
RACCORDO
100
AcDbSpline
 62
253
  6
CONTINUOUS
 70
0
 71
3
 72
10
 73
6
 74
4
 42
0.0000001
 43
0.0000001
 44
0.0000000001
 12
0.1268538118
 22
1.2954761059
 32
0.0
 13
1.1126465436
 23
0.6755500717
 33
0.0
 40
0.0
 40
0.0
 40
0.0
 40
0.0
 40
0.3412946646
 40
0.6898847687
 40
1.0
 40
1.0
 40
1.0
 40
1.0
 10
50.9620090213
 20
13.3850676881
 30
0.0
 10
50.976440531
 20
13.5324473825
 30
0.0
 10
51.0556345663
 20
13.8264108877
 30
0.0
 10
51.2729444314
 20
14.206085699
 30
0.0
 10
51.4833700682
 20
14.4099465582
 30
0.0
 10
51.5983862816
 20
14.4797793471
 30
0.0
 11
50.9620090213
 21
13.3850676881
 31
0.0
 11
51.0721063076
 21
13.8154628235
 31
0.0
 11
51.3001483843
 21
14.2077457345
 31
0.0
 11
51.5983862816
 21
14.4797793471
 31
0.0
  0
SPLINE
  5
471
100
AcDbEntity
  8
RACCORDO
100
AcDbSpline
 62
253
  6
CONTINUOUS
 70
0
 71
3
 72
10
 73
6
 74
4
 42
0.0000001
 43
0.0000001
 44
0.0000000001
 12
1.2080628234
 22
-0.4705796103
 32
0.0
 13
1.2043140851
 23
0.4800922197
 33
0.0
 40
0.0
 40
0.0
 40
0.0
 40
0.0
 40
0.331001126
 40
0.6830695742
 40
1.0
 40
1.0
 40
1.0
 40
1.0
 10
52.2782400315
 20
11.112861076
 30
0.0
 10
52.411530083
 20
11.0609402823
 30
0.0
 10
52.7034008367
 20
10.9960986189
 30
0.0
 10
53.1374734584
 20
10.9912320602
 30
0.0
 10
53.4249477539
 20
11.0505562647
 30
0.0
 10
53.5521756791
 20
11.1012748752
 30
0.0
 11
52.2782400315
 21
11.112861076
 31
0.0
 11
52.6954863677
 21
11.0125438049
 31
0.0
 11
53.1519172695
 21
11.0083926523
 31
0.0
 11
53.5521756791
 21
11.1012748752
 31
0.0
  0
SPLINE
  5
472
100
AcDbEntity
  8
RACCORDO
100
AcDbSpline
 62
253
  6
CONTINUOUS
 70
0
 71
3
 72
10
 73
6
 74
4
 42
0.0000001
 43
0.0000001
 44
0.0000000001
 12
1.1269122434
 22
-0.3076226408
 32
0.0
 13
1.06517793
 23
0.4795402703
 33
0.0
 40
0.0
 40
0.0
 40
0.0
 40
0.0
 40
0.3381062988
 40
0.6856382161
 40
1.0
 40
1.0
 40
1.0
 40
1.0
 10
52.323268976
 20
-17.3646115586
 30
0.0
 10
52.4502743519
 20
-17.3992812761
 30
0.0
 10
52.7172230201
 20
-17.4370855279
 30
0.0
 10
53.107854358
 20
-17.4155785796
 30
0.0
 10
53.3599872196
 20
-17.347582597
 30
0.0
 10
53.4716042977
 20
-17.2973328854
 30
0.0
 11
52.323268976
 21
-17.3646115586
 31
0.0
 11
52.7137679663
 21
-17.4237869922
 31
0.0
 11
53.1190407733
 21
-17.4000441895
 31
0.0
 11
53.4716042977
 21
-17.2973328854
 31
0.0
  0
SPLINE
  5
473
100
AcDbEntity
  8
RACCORDO
100
AcDbSpline
 62
253
  6
CONTINUOUS
 70
0
 71
3
 72
10
 73
6
 74
4
 42
0.0000001
 43
0.0000001
 44
0.0000000001
 12
1.1269108645
 22
-0.3076309617
 32
0.0
 13
1.0651758396
 23
0.4795470111
 33
0.0
 40
0.0
 40
0.0
 40
0.0
 40
0.0
 40
0.3381089111
 40
0.6856390802
 40
1.0
 40
1.0
 40
1.0
 40
1.0
 10
52.323268976
 20
-37.7162061317
 30
0.0
 10
52.4502751778
 20
-37.7508770549
 30
0.0
 10
52.7172245439
 20
-37.7886821499
 30
0.0
 10
53.1078560719
 20
-37.7671723885
 30
0.0
 10
53.3599877454
 20
-37.6991753153
 30
0.0
 10
53.4716042977
 20
-37.6489250354
 30
0.0
 11
52.323268976
 21
-37.7162061317
 31
0.0
 11
52.7137711298
 21
-37.7753829998
 31
0.0
 11
53.1190420711
 21
-37.7516381533
 31
0.0
 11
53.4716042977
 21
-37.6489250354
 31
0.0
  0
SPLINE
  5
474
100
AcDbEntity
  8
RACCORDO
100
AcDbSpline
 62
253
  6
CONTINUOUS
 70
0
 71
3
 72
10
 73
6
 74
4
 42
0.0000001
 43
0.0000001
 44
0.0000000001
 12
1.2213215123
 22
-0.4539247983
 32
0.0
 13
1.164557933
 23
0.5843618568
 33
0.0
 40
0.0
 40
0.0
 40
0.0
 40
0.0
 40
0.3269826962
 40
0.6777240436
 40
1.0
 40
1.0
 40
1.0
 40
1.0
 10
52.2782449776
 20
-66.0386128669
 30
0.0
 10
52.411361978
 20
-66.0880880517
 30
0.0
 10
52.7054020586
 20
-66.1427671782
 30
0.0
 10
53.1417760576
 20
-66.1213310116
 30
0.0
 10
53.4270727355
 20
-66.0377612624
 30
0.0
 10
53.5521757427
 20
-65.9749860037
 30
0.0
 11
52.2782449776
 21
-66.0386128669
 31
0.0
 11
52.6954900081
 21
-66.1247403992
 31
0.0
 11
53.1519187776
 21
-66.1019419866
 31
0.0
 11
53.5521757427
 21
-65.9749860037
 31
0.0
  0
SPLINE
  5
475
100
AcDbEntity
  8
RACCORDO
100
AcDbSpline
 62
253
  6
CONTINUOUS
 70
0
 71
3
 72
9
 73
5
 74
3
 42
0.0000001
 43
0.0000001
 44
0.0000000001
 12
0.0559989092
 22
-0.5082090575
 32
0.0
 13
0.4699183063
 23
-0.2263019419
 33
0.0
 40
0.0
 40
0.0
 40
0.0
 40
0.0
 40
0.6435513598
 40
1.0
 40
1.0
 40
1.0
 40
1.0
 10
50.9619188775
 20
-66.9876641807
 30
0.0
 10
50.9739316023
 20
-67.096683724
 30
0.0
 10
51.0198220392
 20
-67.2725234156
 30
0.0
 10
51.1601151388
 20
-67.3872772604
 30
0.0
 10
51.2159490525
 20
-67.4141656002
 30
0.0
 11
50.9619188775
 21
-66.9876641807
 31
0.0
 11
51.0720949597
 21
-67.2977082556
 31
0.0
 11
51.2159490525
 21
-67.4141656002
 31
0.0
  0
SPLINE
  5
476
100
AcDbEntity
  8
RACCORDO
100
AcDbSpline
 62
253
  6
CONTINUOUS
 70
0
 71
3
 72
24
 73
20
 74
18
 42
0.0000001
 43
0.0000001
 44
0.0000000001
 12
-10.1215400324
 22
5.0334557197
 32
0.0
 13
-10.1104544212
 23
5.0556859582
 33
0.0
 40
0.0
 40
0.0
 40
0.0
 40
0.0
 40
0.0305541373
 40
0.0634690649
 40
0.0989807337
 40
0.1372883151
 40
0.1786124226
 40
0.2231604282
 40
0.2711291534
 40
0.3227245154
 40
0.3781780501
 40
0.4377783292
 40
0.5018381879
 40
0.5706758945
 40
0.6446295904
 40
0.724025763
 40
0.8093127426
 40
0.9010036591
 40
1.0
 40
1.0
 40
1.0
 40
1.0
 10
35.4485129369
 20
-0.4922203517
 30
0.0
 10
35.3454279624
 20
-0.4409560527
 30
0.0
 10
35.1313274905
 20
-0.3343972316
 30
0.0
 10
34.7975653351
 20
-0.1679566395
 30
0.0
 10
34.4377633362
 20
0.011731488
 30
0.0
 10
34.0497035528
 20
0.2057559464
 30
0.0
 10
33.6312537752
 20
0.415136291
 30
0.0
 10
33.180266159
 20
0.6408411927
 30
0.0
 10
32.6946468611
 20
0.8838235429
 30
0.0
 10
32.1722562312
 20
1.1451481319
 30
0.0
 10
31.6106412406
 20
1.4260260439
 30
0.0
 10
31.0069884685
 20
1.7278484111
 30
0.0
 10
30.3581984658
 20
2.0521650715
 30
0.0
 10
29.6610036085
 20
2.4006071694
 30
0.0
 10
28.9120890552
 20
2.7748264397
 30
0.0
 10
28.1077123532
 20
3.176715253
 30
0.0
 10
27.2435624704
 20
3.6085032315
 30
0.0
 10
26.3133901671
 20
4.0733882514
 30
0.0
 10
25.6707222317
 20
4.3946939005
 30
0.0
 10
25.3370895676
 20
4.5615253707
 30
0.0
 11
35.4485129369
 21
-0.4922203517
 31
0.0
 11
35.1393104706
 21
-0.3383220161
 31
0.0
 11
34.806337055
 21
-0.1722920609
 31
0.0
 11
34.447201686
 21
0.0070511544
 31
0.0
 11
34.0598795243
 21
0.2006920421
 31
0.0
 11
33.6421199727
 21
0.4097056261
 31
0.0
 11
33.1917892998
 21
0.6350661013
 31
0.0
 11
32.7068642885
 21
0.8777020604
 31
0.0
 11
32.1852537133
 21
1.138635943
 31
0.0
 11
31.6246111922
 21
1.4190274227
 31
0.0
 11
31.0220138221
 21
1.7203247885
 31
0.0
 11
30.3742973596
 21
2.0441069482
 31
0.0
 11
29.6782428676
 21
2.3919807533
 31
0.0
 11
28.9304310669
 21
2.7656547012
 31
0.0
 11
28.1275706616
 21
3.1667986945
 31
0.0
 11
27.2651543828
 21
3.5977304933
 31
0.0
 11
26.3380233616
 21
4.0611025632
 31
0.0
 11
25.3370895676
 21
4.5615253707
 31
0.0
  0
SPLINE
  5
477
100
AcDbEntity
  8
RACCORDO
100
AcDbSpline
 62
253
  6
CONTINUOUS
 70
0
 71
3
 72
11
 73
7
 74
5
 42
0.0000001
 43
0.0000001
 44
0.0000000001
 12
-0.5197633441
 22
-1.1149131832
 32
0.0
 13
1.1243682394
 23
-0.5632145454
 33
0.0
 40
0.0
 40
0.0
 40
0.0
 40
0.0
 40
0.3436168624
 40
0.6460788834
 40
0.8911929716
 40
1.0
 40
1.0
 40
1.0
 40
1.0
 10
25.3362629761
 20
4.5617341668
 30
0.0
 10
25.2767298262
 20
4.4340331769
 30
0.0
 10
25.1948475352
 20
4.1777709391
 30
0.0
 10
25.1865597525
 20
3.8074938274
 30
0.0
 10
25.2945337971
 20
3.5437926513
 30
0.0
 10
25.4163489014
 20
3.455882564
 30
0.0
 10
25.4571286237
 20
3.4354553303
 30
0.0
 11
25.3362629761
 21
4.5617341668
 31
0.0
 11
25.2110937085
 21
4.1580036833
 31
0.0
 11
25.2150628099
 21
3.7859614875
 31
0.0
 11
25.347459679
 21
3.5150655097
 31
0.0
 11
25.4571286237
 21
3.4354553303
 31
0.0
  0
SPLINE
  5
478
100
AcDbEntity
  8
RACCORDO
100
AcDbSpline
 62
253
  6
CONTINUOUS
 70
0
 71
3
 72
11
 73
7
 74
5
 42
0.0000001
 43
0.0000001
 44
0.0000000001
 12
-0.5192529038
 22
-1.1149960507
 32
0.0
 13
1.1245391711
 23
-0.5626353823
 33
0.0
 40
0.0
 40
0.0
 40
0.0
 40
0.0
 40
0.3439952807
 40
0.6468083607
 40
0.8919739829
 40
1.0
 40
1.0
 40
1.0
 40
1.0
 10
-33.7067796083
 20
34.0832558017
 30
0.0
 10
-33.7663197911
 20
33.9554046752
 30
0.0
 10
-33.8481812518
 20
33.6988489779
 30
0.0
 10
-33.8563292307
 20
33.3282888641
 30
0.0
 10
-33.748112025
 20
33.0648057182
 30
0.0
 10
-33.6264731178
 20
32.9772773109
 30
0.0
 10
-33.5859799552
 20
32.9570175578
 30
0.0
 11
-33.7067796083
 21
34.0832558017
 31
0.0
 11
-33.8319101719
 21
33.6790765874
 31
0.0
 11
-33.827723079
 21
33.3066474492
 31
0.0
 11
-33.6949526374
 21
33.0359021206
 31
0.0
 11
-33.5859799552
 21
32.9570175578
 31
0.0
  0
SPLINE
  5
479
100
AcDbEntity
  8
RACCORDO
100
AcDbSpline
 62
253
  6
CONTINUOUS
 70
0
 71
3
 72
39
 73
35
 74
33
 42
0.0000001
 43
0.0000001
 44
0.0000000001
 12
-10.1119488531
 22
5.0555141015
 32
0.0
 13
-10.1011746131
 23
5.0770073738
 33
0.0
 40
0.0
 40
0.0
 40
0.0
 40
0.0
 40
0.0820047023
 40
0.1572107631
 40
0.2262967111
 40
0.2898180245
 40
0.3482736348
 40
0.4021100677
 40
0.4517283746
 40
0.4974872834
 40
0.5397137565
 40
0.5786987611
 40
0.614697635
 40
0.6479588311
 40
0.6787321408
 40
0.7072093712
 40
0.733484947
 40
0.7576504619
 40
0.7799306329
 40
0.8006361312
 40
0.8200848826
 40
0.8383880255
 40
0.8551934476
 40
0.870241544
 40
0.8839695386
 40
0.8970315007
 40
0.9099133107
 40
0.9227686062
 40
0.9356790174
 40
0.9486232432
 40
0.9615540766
 40
0.9744786698
 40
0.9873471608
 40
1.0
 40
1.0
 40
1.0
 40
1.0
 10
-33.7059538153
 20
34.0830472796
 30
0.0
 10
-33.9823629338
 20
34.2212392559
 30
0.0
 10
-34.5122497838
 20
34.486197434
 30
0.0
 10
-35.2749502209
 20
34.8676791294
 30
0.0
 10
-35.9753243528
 20
35.2180636741
 30
0.0
 10
-36.6192287596
 20
35.5402404711
 30
0.0
 10
-37.2117363907
 20
35.8367112273
 30
0.0
 10
-37.757396597
 20
36.1097235729
 30
0.0
 10
-38.2602796697
 20
36.3613018221
 30
0.0
 10
-38.7240467783
 20
36.5932810295
 30
0.0
 10
-39.1519879481
 20
36.8073109136
 30
0.0
 10
-39.5470449781
 20
37.0048664351
 30
0.0
 10
-39.9118954313
 20
37.1872894682
 30
0.0
 10
-40.2490777467
 20
37.3558531703
 30
0.0
 10
-40.5609163748
 20
37.5117233349
 30
0.0
 10
-40.8492156858
 20
37.6558080033
 30
0.0
 10
-41.1152472479
 20
37.7887477747
 30
0.0
 10
-41.360394067
 20
37.9112376877
 30
0.0
 10
-41.5867681823
 20
38.0243369098
 30
0.0
 10
-41.7972458435
 20
38.1294833664
 30
0.0
 10
-41.9943174642
 20
38.2279295933
 30
0.0
 10
-42.1782373772
 20
38.3198153669
 30
0.0
 10
-42.3473154984
 20
38.4043027451
 30
0.0
 10
-42.500962621
 20
38.4810997772
 30
0.0
 10
-42.6419824316
 20
38.5516072822
 30
0.0
 10
-42.7756912563
 20
38.6184826075
 30
0.0
 10
-42.9064487092
 20
38.6839068933
 30
0.0
 10
-43.0366842091
 20
38.7490980255
 30
0.0
 10
-43.167117038
 20
38.8144204101
 30
0.0
 10
-43.2977893434
 20
38.8799003022
 30
0.0
 10
-43.4284921157
 20
38.9454386783
 30
0.0
 10
-43.5589211941
 20
39.0108861477
 30
0.0
 10
-43.6883939937
 20
39.0759035094
 30
0.0
 10
-43.7743302371
 20
39.1190853388
 30
0.0
 10
-43.816933083
 20
39.1404981914
 30
0.0
 11
-33.7059538153
 21
34.0830472796
 31
0.0
 11
-34.5351566132
 21
34.4976723248
 31
0.0
 11
-35.2955713866
 21
34.8780077429
 31
0.0
 11
-35.9940750845
 21
35.2274524343
 31
0.0
 11
-36.636300003
 21
35.5487839804
 31
0.0
 11
-37.227304775
 21
35.8444978221
 31
0.0
 11
-37.77161461
 21
36.116831462
 31
0.0
 11
-38.2732889809
 21
36.3678043069
 31
0.0
 11
-38.7359543537
 21
36.5992318444
 31
0.0
 11
-39.1629150767
 21
36.8127707966
 31
0.0
 11
-39.5571117525
 21
37.0098954295
 31
0.0
 11
-39.9211249403
 21
37.1918994109
 31
0.0
 11
-40.2574654347
 21
37.3600418946
 31
0.0
 11
-40.5686574617
 21
37.5155890053
 31
0.0
 11
-40.8566384299
 21
37.6595146914
 31
0.0
 11
-41.1223612194
 21
37.7923001956
 31
0.0
 11
-41.3667504542
 21
37.9144117067
 31
0.0
 11
-41.592077371
 21
38.0269874638
 31
0.0
 11
-41.8014827888
 21
38.1315994147
 31
0.0
 11
-41.9981788492
 21
38.2298602609
 31
0.0
 11
-42.1832851356
 21
38.3223403518
 31
0.0
 11
-42.3532378541
 21
38.4072660878
 31
0.0
 11
-42.5054107966
 21
38.4833272253
 31
0.0
 11
-42.6442257231
 21
38.5527330017
 31
0.0
 11
-42.7762967344
 21
38.6187896969
 31
0.0
 11
-42.9065361961
 21
38.6839553393
 31
0.0
 11
-43.0364963245
 21
38.7490093584
 31
0.0
 11
-43.1670005987
 21
38.8143683413
 31
0.0
 11
-43.2978315744
 21
38.8799286769
 31
0.0
 11
-43.4285100355
 21
38.9454554014
 31
0.0
 11
-43.5591067964
 21
39.0109876591
 31
0.0
 11
-43.6891174595
 21
39.0762737333
 31
0.0
 11
-43.816933083
 21
39.1404981914
 31
0.0
  0
SPLINE
  5
47A
100
AcDbEntity
  8
RACCORDO
100
AcDbSpline
 62
253
  6
CONTINUOUS
 70
0
 71
3
 72
10
 73
6
 74
4
 42
0.0000001
 43
0.0000001
 44
0.0000000001
 12
-0.5174484954
 22
-1.1092420024
 32
0.0
 13
1.087927003
 23
-0.5841974263
 33
0.0
 40
0.0
 40
0.0
 40
0.0
 40
0.0
 40
0.4257293753
 40
0.7772997535
 40
1.0
 40
1.0
 40
1.0
 40
1.0
 10
-43.816933083
 20
39.1404981914
 30
0.0
 10
-43.8903640913
 20
38.9830858898
 30
0.0
 10
-43.978601614
 20
38.6740037192
 30
0.0
 10
-43.9500993694
 20
38.2472690335
 30
0.0
 10
-43.7769743937
 20
38.056265618
 30
0.0
 10
-43.6962138565
 20
38.0128986477
 30
0.0
 11
-43.816933083
 21
39.1404981914
 31
0.0
 11
-43.9539046727
 21
38.6377303577
 31
0.0
 11
-43.8876748813
 21
38.2125361498
 31
0.0
 11
-43.6962138565
 21
38.0128986477
 31
0.0
  0
SPLINE
  5
47B
100
AcDbEntity
  8
RACCORDO
100
AcDbSpline
 62
253
  6
CONTINUOUS
 70
0
 71
3
 72
27
 73
23
 74
21
 42
0.0000001
 43
0.0000001
 44
0.0000000001
 12
-1.9451916557
 22
0.9842353388
 32
0.0
 13
0.0011810279
 23
-2.1800202716
 33
0.0
 40
0.0
 40
0.0
 40
0.0
 40
0.0
 40
0.0773856133
 40
0.1441127479
 40
0.2024540331
 40
0.2542207492
 40
0.3001255818
 40
0.3398672416
 40
0.3759328913
 40
0.4106686011
 40
0.4455660433
 40
0.4807613637
 40
0.5159458663
 40
0.5514462353
 40
0.5873913392
 40
0.6256238055
 40
0.6686754802
 40
0.7175837011
 40
0.7729025877
 40
0.837101751
 40
0.9130629475
 40
1.0
 40
1.0
 40
1.0
 40
1.0
 10
-43.8169324666
 20
39.1404995369
 30
0.0
 10
-43.867109083
 20
39.1658880887
 30
0.0
 10
-43.9631919655
 20
39.2082449292
 30
0.0
 10
-44.1041797299
 20
39.2514139197
 30
0.0
 10
-44.2309562221
 20
39.2741980491
 30
0.0
 10
-44.3443878552
 20
39.2809301991
 30
0.0
 10
-44.444300105
 20
39.2752227371
 30
0.0
 10
-44.5316569551
 20
39.2603237392
 30
0.0
 10
-44.6090913342
 20
39.238432326
 30
0.0
 10
-44.6806439688
 20
39.2101654101
 30
0.0
 10
-44.7484784882
 20
39.1752329813
 30
0.0
 10
-44.8127998352
 20
39.1335809301
 30
0.0
 10
-44.8729787039
 20
39.0854377712
 30
0.0
 10
-44.928576571
 20
39.0313005913
 30
0.0
 10
-44.9803920076
 20
38.9706019989
 30
0.0
 10
-45.0297313052
 20
38.9010205993
 30
0.0
 10
-45.0773436556
 20
38.8191133574
 30
0.0
 10
-45.1222606474
 20
38.7217894081
 30
0.0
 10
-45.1625519905
 20
38.6060133648
 30
0.0
 10
-45.1958662057
 20
38.467692384
 30
0.0
 10
-45.2190278887
 20
38.3040676275
 30
0.0
 10
-45.2246250911
 20
38.1856060046
 30
0.0
 10
-45.2245908661
 20
38.122431159
 30
0.0
 11
-43.8169324666
 21
39.1404995369
 31
0.0
 11
-43.9715312661
 21
39.2080247455
 31
0.0
 11
-44.1107502934
 21
39.250197877
 31
0.0
 11
-44.235983322
 21
39.2723961745
 31
0.0
 11
-44.3486505848
 21
39.2788596276
 31
0.0
 11
-44.4485510074
 21
39.2729768515
 31
0.0
 11
-44.533936116
 21
39.2582981829
 31
0.0
 11
-44.6095904326
 21
39.2368940813
 31
0.0
 11
-44.6800172882
 21
39.2090684205
 31
0.0
 11
-44.7476580015
 21
39.1742479447
 31
0.0
 11
-44.8120566103
 21
39.1325372921
 31
0.0
 11
-44.8719767664
 21
39.0846528904
 31
0.0
 11
-44.9274807475
 21
39.0307199891
 31
0.0
 11
-44.9784133997
 21
38.9711689883
 31
0.0
 11
-45.0267108697
 21
38.9032413003
 31
0.0
 11
-45.0739778953
 21
38.8221591521
 31
0.0
 11
-45.1187964035
 21
38.725415554
 31
0.0
 11
-45.1586660731
 21
38.6116004413
 31
0.0
 11
-45.1918493458
 21
38.4756356965
 31
0.0
 11
-45.2155129042
 21
38.311738188
 31
0.0
 11
-45.2245908661
 21
38.122431159
 31
0.0
  0
SPLINE
  5
47C
100
AcDbEntity
  8
RACCORDO
100
AcDbSpline
 62
253
  6
CONTINUOUS
 70
0
 71
3
 72
11
 73
7
 74
5
 42
0.0000001
 43
0.0000001
 44
0.0000000001
 12
0.4828740194
 22
-1.6898972977
 32
0.0
 13
1.633294511
 23
0.6505942161
 33
0.0
 40
0.0
 40
0.0
 40
0.0
 40
0.0
 40
0.1865334138
 40
0.4522521842
 40
0.757928826
 40
1.0
 40
1.0
 40
1.0
 40
1.0
 10
-45.2245908661
 20
38.122431159
 30
0.0
 10
-45.1945668196
 20
38.0173570551
 30
0.0
 10
-44.9758670066
 20
37.8212364781
 30
0.0
 10
-44.548295117
 20
37.6973341029
 30
0.0
 10
-44.0666658459
 20
37.6802924193
 30
0.0
 10
-43.746981197
 20
37.7478766882
 30
0.0
 10
-43.6151900237
 20
37.8003733901
 30
0.0
 11
-45.2245908661
 21
38.122431159
 31
0.0
 11
-45.0079619684
 21
37.8763620287
 31
0.0
 11
-44.5673843548
 21
37.7214778726
 31
0.0
 11
-44.0304459113
 21
37.7035815095
 31
0.0
 11
-43.6151900237
 21
37.8003733901
 31
0.0
  0
ELLIPSE
  5
47D
100
AcDbEntity
  8
RACCORDO
100
AcDbEllipse
 62
7
  6
CONTINUOUS
 10
56.4678366366
 20
-22.4853594292
 30
0.0
 11
0.2435324942
 21
0.4370186336
 31
0.0
 40
0.6437101552
 41
-2.2971554858
 42
-0.8572588529
  0
ELLIPSE
  5
47E
100
AcDbEntity
  8
RACCORDO
100
AcDbEllipse
 62
7
  6
CONTINUOUS
 10
55.7236719593
 20
-23.807896582
 30
0.0
 11
0.2435324942
 21
0.4370186336
 31
0.0
 40
0.6437101552
 41
0.8444371678
 42
2.2843338007
  0
ELLIPSE
  5
47F
100
AcDbEntity
  8
RACCORDO
100
AcDbEllipse
 62
7
  6
CONTINUOUS
 10
56.4678366366
 20
-29.7630787807
 30
0.0
 11
0.2435324942
 21
0.4370186336
 31
0.0
 40
0.6437101552
 41
5.4259264543
 42
6.8658230871
  0
ELLIPSE
  5
480
100
AcDbEntity
  8
RACCORDO
100
AcDbEllipse
 62
7
  6
CONTINUOUS
 10
55.7236719593
 20
-29.110590513
 30
0.0
 11
0.2435324942
 21
0.4370186336
 31
0.0
 40
0.6437101552
 41
2.2843338007
 42
3.7242304336
  0
ENDSEC
  0
SECTION
  2
OBJECTS
  0
DICTIONARY
  5
C
100
AcDbDictionary
280
0
281
1
  3
ACAD_GROUP
350
D
  3
ACAD_MLINESTYLE
350
17
  3
ACAD_LAYOUT
350
1A
  3
ACAD_PLOTSETTINGS
350
19
  3
ACAD_PLOTSTYLENAME
350
E
  0
DICTIONARY
  5
D
102
{ACAD_REACTORS
330
C
102
}
100
AcDbDictionary
280
0
281
1
  0
ACDBDICTIONARYWDFLT
  5
E
102
{ACAD_REACTORS
330
C
102
}
100
AcDbDictionary
281
1
  3
Normal
350
F
100
AcDbDictionaryWithDefault
340
F
  0
DICTIONARY
  5
17
102
{ACAD_REACTORS
330
C
102
}
100
AcDbDictionary
280
0
281
1
  3
Standard
350
18
  0
DICTIONARY
  5
19
102
{ACAD_REACTORS
330
C
102
}
100
AcDbDictionary
281
1
  0
DICTIONARY
  5
1A
102
{ACAD_REACTORS
330
C
102
}
100
AcDbDictionary
281
1
  3
Model
350
481
  3
Layout1
350
482
  0
ACDBPLACEHOLDER
  5
F
102
{ACAD_REACTORS
330
E
102
}
  0
MLINESTYLE
  5
18
102
{ACAD_REACTORS
330
17
102
}
100
AcDbMlineStyle
  2
STANDARD
 70
0
  3

 62
256
 51
90.0
 52
90.0
 71
2
 49
0.5
 62
256
  6
BYLAYER
 49
-0.5
 62
256
  6
BYLAYER
  0
LAYOUT
  5
481
102
{ACAD_REACTORS
330
1A
102
}
100
AcDbPlotSettings
  1

  2
none_device
  4
ISO_A4_(297.00_x_210.00_MM)
  6

 40
0.0
 41
0.0
 42
0.0
 43
0.0
 44
297.0
 45
210.0
 46
0.0
 47
0.0
 48
0.0
 49
0.0
140
0.0
141
0.0
142
1.0
143
1.0
 70
1024
 72
1
 73
0
 74
0
  7

 75
0
147
1.0
148
0.0
149
0.0
100
AcDbLayout
  1
Model
 70
0
 71
0
 10
0.0
 20
0.0
 11
297.0
 21
210.0
 12
0.0
 22
0.0
 32
0.0
 14
0.0
 24
0.0
 34
0.0
 15
0.0
 25
0.0
 35
0.0
146
0.0
 13
0.0
 23
0.0
 33
0.0
 16
1.0
 26
0.0
 36
0.0
 17
0.0
 27
1.0
 37
0.0
 76
0
330
20D
345
0
346
0
  0
LAYOUT
  5
482
102
{ACAD_REACTORS
330
1A
102
}
100
AcDbPlotSettings
  1

  2
none_device
  4
ISO_A4_(297.00_x_210.00_MM)
  6

 40
0.0
 41
0.0
 42
0.0
 43
0.0
 44
297.0
 45
210.0
 46
0.0
 47
0.0
 48
0.0
 49
0.0
140
0.0
141
0.0
142
1.0
143
1.0
 70
0
 72
1
 73
0
 74
0
  7

 75
0
147
1.0
148
0.0
149
0.0
100
AcDbLayout
  1
Layout1
 70
0
 71
1
 10
0.0
 20
0.0
 11
297.0
 21
210.0
 12
0.0
 22
0.0
 32
0.0
 14
0.0
 24
0.0
 34
0.0
 15
0.0
 25
0.0
 35
0.0
146
0.0
 13
0.0
 23
0.0
 33
0.0
 16
1.0
 26
0.0
 36
0.0
 17
0.0
 27
1.0
 37
0.0
 76
0
330
20E
345
0
346
0
  0
ENDSEC
  0
EOF
