  0
SECTION
  2
HEADER
  9
$ACADVER
  1
AC1024
  9
$DWGCODEPAGE
  3
ANSI_1252
  9
$EXTMAX
 10
297.0
 20
210.0
 30
0.0
  9
$EXTMIN
 10
0.0
 20
0.0
 30
0.0
  9
$LIMMIN
 10
0.0
 20
0.0
  9
$LIMMAX
 10
297.0
 20
210.0
  9
$VIEWCTR
 10
148.5
 20
105.0
  9
$VIEWSIZE
 40
210.0
  9
$CLAYER
  8
0
  9
$LTSCALE
 40
16.335
  9
$CELTYPE
  6
BYLAYER
  9
$DIMSCALE
 40
1.0
  9
$DIMASZ
 40
3.0
  9
$DIMEXO
 40
0.5
  9
$DIMDLI
 40
11.286
  9
$DIMEXE
 40
1.5
  9
$DIMCEN
 40
2.673
  9
$DIMLFAC
 40
1.0
  9
$DIMBLK
  1
_FILLED
  9
$DIMALT
 70
0
  9
$DIMALTF
 40
0.0393700787
  9
$DIMTXT
 40
3.0
  9
$DIMTOL
 70
1
  9
$DIMLIM
 70
0
  9
$DIMTFAC
 40
1.0
  9
$DIMTP
 40
0.01
  9
$DIMTM
 40
0.01
  9
$DIMGAP
 40
0.625
  9
$DIMDSEP
 70
44
  9
$AUNITS
 70
0
  9
$PDMODE
 70
3
  9
$PDSIZE
 40
3.0
  9
$HANDSEED
  5
39A
  9
$TILEMODE
 70
1
  9
$MEASUREMENT
 70
1
  9
$INSUNITS
 70
4
  0
ENDSEC
  0
SECTION
  2
CLASSES
  0
CLASS
  1
ACDBDICTIONARYWDFLT
  2
AcDbDictionaryWithDefault
  3
AutoCAD 2000
 90
0
 91
1
280
0
281
0
  0
CLASS
  1
ACDBPLACEHOLDER
  2
AcDbPlaceHolder
  3
AutoCAD 2000
 90
0
 91
1
280
0
281
0
  0
CLASS
  1
LAYOUT
  2
AcDbLayout
  3
AutoCAD 2000
 90
0
 91
0
280
0
281
0
  0
ENDSEC
  0
SECTION
  2
TABLES
  0
TABLE
  2
VPORT
  5
8
100
AcDbSymbolTable
 70
2
  0
VPORT
  5
1F4
100
AcDbSymbolTableRecord
100
AcDbViewportTableRecord
  2
*ACTIVE
 70
0
 10
0.0
 20
0.0
 11
1.0
 21
1.0
 12
148.5
 22
105.0
 13
0.0
 23
0.0
 14
1.0
 24
1.0
 15
0.0
 25
0.0
 16
0.0
 26
0.0
 36
1.0
 17
0.0
 27
0.0
 37
0.0
 40
210.0
 41
1.4142857143
 42
50.0
 43
0.0
 44
0.0
 50
0.0
 51
0.0
 71
0
 72
100
 73
1
 74
1
 75
0
 76
0
 77
0
 78
0
  0
ENDTAB
  0
TABLE
  2
LTYPE
  5
5
100
AcDbSymbolTable
 70
6
  0
LTYPE
  5
14
100
AcDbSymbolTableRecord
100
AcDbLinetypeTableRecord
  2
BYBLOCK
 70
0
  3

 72
65
 73
0
 40
0.0
  0
LTYPE
  5
15
100
AcDbSymbolTableRecord
100
AcDbLinetypeTableRecord
  2
BYLAYER
 70
0
  3

 72
65
 73
0
 40
0.0
  0
LTYPE
  5
16
100
AcDbSymbolTableRecord
100
AcDbLinetypeTableRecord
  2
CONTINUOUS
 70
64
  3
Solid line
 72
65
 73
0
 40
0.0
  0
LTYPE
  5
1F5
100
AcDbSymbolTableRecord
100
AcDbLinetypeTableRecord
  2
CENTER
 70
64
  3
____ _ ____ _ ____ _ ____ _ ____ _ ____ _ ____
 72
65
 73
4
 40
0.6
 49
0.375
 74
0
 49
-0.075
 74
0
 49
0.075
 74
0
 49
-0.075
 74
0
  0
LTYPE
  5
1F6
100
AcDbSymbolTableRecord
100
AcDbLinetypeTableRecord
  2
HIDDEN
 70
64
  3
- - - - - - - - - - - - - - - - - - - -
 72
65
 73
2
 40
0.2
 49
0.1
 74
0
 49
-0.1
 74
0
  0
LTYPE
  5
1F7
100
AcDbSymbolTableRecord
100
AcDbLinetypeTableRecord
  2
PHANTOM
 70
64
  3
_____ _ _ _____ _ _ _____ _ _ _____
 72
65
 73
6
 40
0.8
 49
0.45
 74
0
 49
-0.05
 74
0
 49
0.1
 74
0
 49
-0.05
 74
0
 49
0.1
 74
0
 49
-0.05
 74
0
  0
LTYPE
  5
1F8
100
AcDbSymbolTableRecord
100
AcDbLinetypeTableRecord
  2
DOT
 70
64
  3
. . . . . . . . . . . . . . . . . . . .
 72
65
 73
2
 40
0.2
 49
0.1
 74
0
 49
-0.1
 74
0
  0
LTYPE
  5
1F9
100
AcDbSymbolTableRecord
100
AcDbLinetypeTableRecord
  2
DASHED
 70
64
  3
- - - - - - - - - - - - - - - - - - - -
 72
65
 73
2
 40
0.2
 49
0.1
 74
0
 49
-0.1
 74
0
  0
ENDTAB
  0
TABLE
  2
LAYER
  5
2
100
AcDbSymbolTable
 70
36
  0
LAYER
  5
10
100
AcDbSymbolTableRecord
100
AcDbLayerTableRecord
  2
0
 70
0
 62
7
  6
CONTINUOUS
370
-3
390
F
  0
LAYER
  5
1FA
100
AcDbSymbolTableRecord
100
AcDbLayerTableRecord
  2
DEFAULT_1
 70
0
 62
7
  6
CENTER
370
-3
390
F
  0
LAYER
  5
1FB
100
AcDbSymbolTableRecord
100
AcDbLayerTableRecord
  2
DEFAULT_2
 70
0
 62
7
  6
HIDDEN
370
-3
390
F
  0
LAYER
  5
1FC
100
AcDbSymbolTableRecord
100
AcDbLayerTableRecord
  2
DEFAULT_3
 70
0
 62
7
  6
PHANTOM
370
-3
390
F
  0
LAYER
  5
1FD
100
AcDbSymbolTableRecord
100
AcDbLayerTableRecord
  2
ASSI
 70
0
 62
7
  6
CONTINUOUS
370
-3
390
F
  0
LAYER
  5
1FE
100
AcDbSymbolTableRecord
100
AcDbLayerTableRecord
  2
COLOR5
 70
0
 62
7
  6
CONTINUOUS
370
-3
390
F
  0
LAYER
  5
1FF
100
AcDbSymbolTableRecord
100
AcDbLayerTableRecord
  2
COORDINATE
 70
0
 62
7
  6
CONTINUOUS
370
-3
390
F
  0
LAYER
  5
200
100
AcDbSymbolTableRecord
100
AcDbLayerTableRecord
  2
COORD_ORIGINE
 70
0
 62
7
  6
CONTINUOUS
370
-3
390
F
  0
LAYER
  5
201
100
AcDbSymbolTableRecord
100
AcDbLayerTableRecord
  2
CURVE
 70
0
 62
7
  6
CONTINUOUS
370
-3
390
F
  0
LAYER
  5
202
100
AcDbSymbolTableRecord
100
AcDbLayerTableRecord
  2
DRAFT
 70
0
 62
7
  6
CONTINUOUS
370
-3
390
F
  0
LAYER
  5
203
100
AcDbSymbolTableRecord
100
AcDbLayerTableRecord
  2
ESTRATTORI
 70
0
 62
7
  6
CONTINUOUS
370
-3
390
F
  0
LAYER
  5
204
100
AcDbSymbolTableRecord
100
AcDbLayerTableRecord
  2
IGES
 70
0
 62
7
  6
CONTINUOUS
370
-3
390
F
  0
LAYER
  5
205
100
AcDbSymbolTableRecord
100
AcDbLayerTableRecord
  2
INTF_1
 70
0
 62
7
  6
CONTINUOUS
370
-3
390
F
  0
LAYER
  5
206
100
AcDbSymbolTableRecord
100
AcDbLayerTableRecord
  2
INTF_7
 70
0
 62
7
  6
CONTINUOUS
370
-3
390
F
  0
LAYER
  5
207
100
AcDbSymbolTableRecord
100
AcDbLayerTableRecord
  2
INTF_RED
 70
0
 62
7
  6
CONTINUOUS
370
-3
390
F
  0
LAYER
  5
208
100
AcDbSymbolTableRecord
100
AcDbLayerTableRecord
  2
NOTE
 70
0
 62
7
  6
CONTINUOUS
370
-3
390
F
  0
LAYER
  5
209
100
AcDbSymbolTableRecord
100
AcDbLayerTableRecord
  2
PIANI
 70
0
 62
7
  6
CONTINUOUS
370
-3
390
F
  0
LAYER
  5
20A
100
AcDbSymbolTableRecord
100
AcDbLayerTableRecord
  2
PIANI_ORIGINE
 70
0
 62
7
  6
CONTINUOUS
370
-3
390
F
  0
LAYER
  5
20B
100
AcDbSymbolTableRecord
100
AcDbLayerTableRecord
  2
PLACCA
 70
0
 62
7
  6
CONTINUOUS
370
-3
390
F
  0
LAYER
  5
20C
100
AcDbSymbolTableRecord
100
AcDbLayerTableRecord
  2
PUNTI
 70
0
 62
7
  6
CONTINUOUS
370
-3
390
F
  0
LAYER
  5
20D
100
AcDbSymbolTableRecord
100
AcDbLayerTableRecord
  2
RACCORDO
 70
0
 62
7
  6
CONTINUOUS
370
-3
390
F
  0
LAYER
  5
20E
100
AcDbSymbolTableRecord
100
AcDbLayerTableRecord
  2
RGB__255__255__255__
 70
0
 62
7
  6
CONTINUOUS
370
-3
390
F
  0
LAYER
  5
20F
100
AcDbSymbolTableRecord
100
AcDbLayerTableRecord
  2
RGB____0____0____0__
 70
0
 62
7
  6
CONTINUOUS
370
-3
390
F
  0
LAYER
  5
210
100
AcDbSymbolTableRecord
100
AcDbLayerTableRecord
  2
SMUSSO
 70
0
 62
7
  6
CONTINUOUS
370
-3
390
F
  0
LAYER
  5
211
100
AcDbSymbolTableRecord
100
AcDbLayerTableRecord
  2
SNAPLINE
 70
0
 62
7
  6
CONTINUOUS
370
-3
390
F
  0
LAYER
  5
212
100
AcDbSymbolTableRecord
100
AcDbLayerTableRecord
  2
SUPERFICI
 70
0
 62
7
  6
CONTINUOUS
370
-3
390
F
  0
LAYER
  5
213
100
AcDbSymbolTableRecord
100
AcDbLayerTableRecord
  2
SUPPORTO
 70
0
 62
7
  6
CONTINUOUS
370
-3
390
F
  0
LAYER
  5
214
100
AcDbSymbolTableRecord
100
AcDbLayerTableRecord
  2
TRASH
 70
0
 62
7
  6
CONTINUOUS
370
-3
390
F
  0
LAYER
  5
215
100
AcDbSymbolTableRecord
100
AcDbLayerTableRecord
  2
XSEC_DATUMS
 70
0
 62
7
  6
CONTINUOUS
370
-3
390
F
  0
ENDTAB
  0
TABLE
  2
STYLE
  5
3
100
AcDbSymbolTable
 70
1
  0
STYLE
  5
11
100
AcDbSymbolTableRecord
100
AcDbTextStyleTableRecord
  2
STANDARD
 70
0
 40
0.0
 41
0.8
 50
0.0
 71
0
 42
0.2
  3
txt
  4

  0
STYLE
  5
216
100
AcDbSymbolTableRecord
100
AcDbTextStyleTableRecord
  2
TEXTSTYLE_1
 70
0
 40
0.0
 41
0.8
 50
0.0
 71
0
 42
0.2
  3
gdt
  4

  0
ENDTAB
  0
TABLE
  2
VIEW
  5
6
100
AcDbSymbolTable
 70
0
  0
ENDTAB
  0
TABLE
  2
UCS
  5
7
100
AcDbSymbolTable
 70
0
  0
ENDTAB
  0
TABLE
  2
APPID
  5
9
100
AcDbSymbolTable
 70
1
  0
APPID
  5
217
100
AcDbSymbolTableRecord
100
AcDbRegAppTableRecord
  2
ACAD
 70
0
  0
ENDTAB
  0
TABLE
  2
BLOCK_RECORD
  5
1
100
AcDbSymbolTable
 70
0
  0
BLOCK_RECORD
  5
218
100
AcDbSymbolTableRecord
100
AcDbBlockTableRecord
  2
*Model_Space
  0
BLOCK_RECORD
  5
219
100
AcDbSymbolTableRecord
100
AcDbBlockTableRecord
  2
*Paper_Space
  0
BLOCK_RECORD
  5
21A
100
AcDbSymbolTableRecord
100
AcDbBlockTableRecord
  2
_FILLED
  0
ENDTAB
  0
TABLE
  2
DIMSTYLE
  5
A
100
AcDbSymbolTable
 70
1
100
AcDbDimStyleTable
 71
0
  0
DIMSTYLE
105
21B
100
AcDbSymbolTableRecord
100
AcDbDimStyleTableRecord
  2
STANDARD
 70
0
  3

  4

 40
1.0
 41
3.0
 42
0.5
 43
0.38
 44
1.5
 45
0.0
 46
0.0
 47
0.01
 48
0.01
140
3.0
141
0.09
142
0.0
143
25.4
144
1.0
145
0.0
146
1.0
147
0.625
 71
1
 72
0
 73
0
 74
0
 75
0
 76
0
 77
1
 78
8
 79
2
170
0
171
1
172
0
173
0
174
0
175
0
176
0
177
0
178
0
270
2
179
2
271
2
272
2
273
2
274
2
275
0
280
0
281
0
282
0
283
1
284
8
285
0
286
0
287
3
288
0
340
11
278
44
341
21A
342
21A
343
21A
344
21A
  0
ENDTAB
  0
ENDSEC
  0
SECTION
  2
BLOCKS
  0
BLOCK
  5
20
100
AcDbEntity
  8
0
100
AcDbBlockBegin
  2
*Model_Space
 70
0
 10
0.0
 20
0.0
 30
0.0
  3
*Model_Space
  1

  0
ENDBLK
  5
21
100
AcDbEntity
  8
0
100
AcDbBlockEnd
  0
BLOCK
  5
1C
100
AcDbEntity
  8
0
100
AcDbBlockBegin
  2
*Paper_Space
 70
0
 10
0.0
 20
0.0
 30
0.0
  3
*Paper_Space
  1

  0
ENDBLK
  5
1D
100
AcDbEntity
  8
0
100
AcDbBlockEnd
  0
BLOCK
  5
21C
100
AcDbEntity
  8
0
100
AcDbBlockBegin
  2
_FILLED
 70
64
 10
0.0
 20
0.0
  3
_FILLED
  1

  0
SOLID
  5
21D
100
AcDbEntity
  8
0
  6
BYBLOCK
 62
0
100
AcDbTrace
 10
0.0
 20
0.0
 11
-1.0
 21
0.3166666667
 12
-1.0
 22
-0.3166666667
 13
-1.0
 23
-0.3166666667
  0
ENDBLK
  5
21E
100
AcDbEntity
  8
0
  6
BYBLOCK
 62
0
100
AcDbBlockEnd
  0
ENDSEC
  0
SECTION
  2
ENTITIES
  0
LWPOLYLINE
  5
21F
100
AcDbEntity
  8
SUPERFICI
100
AcDbPolyline
 62
7
  6
CONTINUOUS
 90
7
 70
0
 10
-56.8133766698
 20
-10.4675522163
 10
-56.8624119594
 20
-10.5468737239
 10
-56.9093631421
 20
-10.6446194629
 10
-56.9459513686
 20
-10.7497769608
 10
-56.9710654266
 20
-10.8603396715
 10
-56.9843800076
 20
-10.9753137209
 10
-56.9866453949
 20
-11.0439187526
  0
LINE
  5
220
100
AcDbEntity
  8
SUPERFICI
100
AcDbLine
 62
7
  6
CONTINUOUS
 10
-55.9123883842
 20
-9.1550092535
 11
-56.8139668087
 21
-10.4684276861
  0
LWPOLYLINE
  5
221
100
AcDbEntity
  8
0
100
AcDbPolyline
 62
7
  6
CONTINUOUS
 90
12
 70
0
 10
-55.9121201328
 20
-9.1552088521
 10
-55.8795149782
 20
-9.1113269586
 10
-55.8062568918
 20
-9.0330858248
 10
-55.7207277097
 20
-8.9662185795
 10
-55.6233144161
 20
-8.9103706434
 10
-55.5171499406
 20
-8.8673381124
 10
-55.4019482364
 20
-8.8375379449
 10
-55.2779953502
 20
-8.8205531825
 10
-55.1492823516
 20
-8.8169290461
 10
-55.0171395972
 20
-8.8268472759
 10
-54.8802367304
 20
-8.8501261316
 10
-54.7385737512
 20
-8.8867656133
  0
LINE
  5
222
100
AcDbEntity
  8
0
100
AcDbLine
 62
250
  6
CONTINUOUS
 10
-55.7368157958
 20
-10.2300616812
 11
-54.7385316395
 21
-8.8867785454
  0
LWPOLYLINE
  5
223
100
AcDbEntity
  8
SUPERFICI
100
AcDbPolyline
 62
250
  6
CONTINUOUS
 90
10
 70
0
 10
-56.8133766698
 20
-10.4675522163
 10
-56.7828128185
 20
-10.4266340031
 10
-56.6950278407
 20
-10.3368849744
 10
-56.5907067473
 20
-10.2640172349
 10
-56.4716038436
 20
-10.2090775539
 10
-56.339874673
 20
-10.1730895146
 10
-56.1979833668
 20
-10.1570168464
 10
-56.0484430636
 20
-10.1612781105
 10
-55.8937918254
 20
-10.1856926922
 10
-55.736723855
 20
-10.2298744672
  0
LWPOLYLINE
  5
224
100
AcDbEntity
  8
SUPERFICI
100
AcDbPolyline
 62
250
  6
CONTINUOUS
 90
16
 70
0
 10
-56.7736800605
 20
-11.288107425
 10
-56.7614303524
 20
-11.1918329962
 10
-56.7405410824
 20
-11.1058351679
 10
-56.7106841886
 20
-11.0300834263
 10
-56.6700721614
 20
-10.9645313255
 10
-56.6196828873
 20
-10.9093071769
 10
-56.5639783672
 20
-10.8638950525
 10
-56.5045365202
 20
-10.8269300986
 10
-56.4405629894
 20
-10.7982543163
 10
-56.3740502605
 20
-10.7781015627
 10
-56.3064659145
 20
-10.765253869
 10
-56.2379904317
 20
-10.7590591244
 10
-56.1692564067
 20
-10.760175657
 10
-56.1011421334
 20
-10.7682275618
 10
-56.0345444178
 20
-10.7819910406
 10
-55.9701985079
 20
-10.8008535748
  0
LWPOLYLINE
  5
225
100
AcDbEntity
  8
SUPERFICI
100
AcDbPolyline
 62
250
  6
CONTINUOUS
 90
10
 70
0
 10
-55.9711429169
 20
-10.8012269705
 10
-55.9623119606
 20
-10.7342079089
 10
-55.9480132832
 20
-10.6651617278
 10
-55.9286051219
 20
-10.5951970854
 10
-55.9043045359
 20
-10.5250510431
 10
-55.8756207853
 20
-10.4563645518
 10
-55.8436901888
 20
-10.3914989594
 10
-55.8095214031
 20
-10.3317838448
 10
-55.7736670608
 20
-10.2777024641
 10
-55.7368155042
 20
-10.2300671925
  0
LWPOLYLINE
  5
226
100
AcDbEntity
  8
SUPERFICI
100
AcDbPolyline
 62
250
  6
CONTINUOUS
 90
10
 70
0
 10
-51.0205418853
 20
-11.7611132086
 10
-51.0499936006
 20
-11.804030867
 10
-51.0785735931
 20
-11.8526190037
 10
-51.1057939053
 20
-11.9060386806
 10
-51.1311898451
 20
-11.9633647153
 10
-51.1543304912
 20
-12.0236156422
 10
-51.1748241644
 20
-12.0857725752
 10
-51.1923219562
 20
-12.1487760181
 10
-51.2065255264
 20
-12.211542269
 10
-51.2171934808
 20
-12.2729971919
  0
LWPOLYLINE
  5
227
100
AcDbEntity
  8
SUPERFICI
100
AcDbPolyline
 62
7
  6
CONTINUOUS
 90
14
 70
0
 10
-56.2722073006
 20
-39.7621713901
 10
-56.2643432808
 20
-39.8462150236
 10
-56.2390419744
 20
-39.9794201247
 10
-56.196917086
 20
-40.1162512187
 10
-56.1379014687
 20
-40.2537715774
 10
-56.0650296516
 20
-40.3853207409
 10
-55.9807105681
 20
-40.5088707704
 10
-55.885015732
 20
-40.6256024334
 10
-55.7794849332
 20
-40.7341668503
 10
-55.665139801
 20
-40.8341156521
 10
-55.5428655794
 20
-40.9248603841
 10
-55.4142963442
 20
-41.00518075
 10
-55.2802513399
 20
-41.0744992606
 10
-55.137978129
 20
-41.1333638223
  0
LINE
  5
228
100
AcDbEntity
  8
SUPERFICI
100
AcDbLine
 62
7
  6
CONTINUOUS
 10
-56.2722087109
 20
-39.7621466894
 11
-56.2723645187
 21
-39.759032585
  0
LWPOLYLINE
  5
229
100
AcDbEntity
  8
SUPERFICI
100
AcDbPolyline
 62
250
  6
CONTINUOUS
 90
4
 70
0
 10
-56.1031751573
 20
-39.2006618799
 10
-56.0811397132
 20
-39.6921387296
 10
-56.0719182346
 20
-39.855936602
 10
-56.0590005934
 20
-40.017227093
  0
LINE
  5
22A
100
AcDbEntity
  8
SUPERFICI
100
AcDbLine
 62
250
  6
CONTINUOUS
 10
-56.1104158793
 20
-39.031200418
 11
-56.1031751573
 21
-39.2006618799
  0
LINE
  5
22B
100
AcDbEntity
  8
SUPERFICI
100
AcDbLine
 62
7
  6
CONTINUOUS
 10
-56.2965624495
 20
-39.1752354082
 11
-56.2724250589
 21
-39.7577958414
  0
LINE
  5
22C
100
AcDbEntity
  8
SUPERFICI
100
AcDbLine
 62
250
  6
CONTINUOUS
 10
-56.1245184206
 20
-38.6614646343
 11
-56.1104158793
 21
-39.031200418
  0
LINE
  5
22D
100
AcDbEntity
  8
SUPERFICI
100
AcDbLine
 62
7
  6
CONTINUOUS
 10
-56.3231966453
 20
-38.4208516703
 11
-56.2965624495
 21
-39.1752354082
  0
LINE
  5
22E
100
AcDbEntity
  8
SUPERFICI
100
AcDbLine
 62
7
  6
CONTINUOUS
 10
-56.3596584621
 20
-37.1799701187
 11
-56.3231966453
 21
-38.4208516703
  0
LINE
  5
22F
100
AcDbEntity
  8
SUPERFICI
100
AcDbLine
 62
250
  6
CONTINUOUS
 10
-56.1728427921
 20
-37.073302729
 11
-56.1245184206
 21
-38.6614646343
  0
LINE
  5
230
100
AcDbEntity
  8
SUPERFICI
100
AcDbLine
 62
7
  6
CONTINUOUS
 10
-56.65983283
 20
-25.4460689474
 11
-56.3596584621
 21
-37.1799701187
  0
LINE
  5
231
100
AcDbEntity
  8
SUPERFICI
100
AcDbLine
 62
250
  6
CONTINUOUS
 10
-56.4743867533
 20
-25.6836514222
 11
-56.3637657174
 21
-29.8855452403
  0
LWPOLYLINE
  5
232
100
AcDbEntity
  8
SUPERFICI
100
AcDbPolyline
 62
250
  6
CONTINUOUS
 90
3
 70
0
 10
-56.3637657174
 20
-29.8855452403
 10
-56.2712850994
 20
-33.5160590174
 10
-56.1728427921
 20
-37.073302729
  0
LWPOLYLINE
  5
233
100
AcDbEntity
  8
SUPERFICI
100
AcDbPolyline
 62
250
  6
CONTINUOUS
 90
3
 70
0
 10
-56.4742424429
 20
-25.6837229821
 10
-56.5245622426
 20
-23.5173680328
 10
-56.6818121873
 20
-16.9865464199
  0
LINE
  5
234
100
AcDbEntity
  8
SUPERFICI
100
AcDbLine
 62
7
  6
CONTINUOUS
 10
-56.9532583533
 20
-13.2650687813
 11
-56.6598392212
 21
-25.4458120452
  0
LINE
  5
235
100
AcDbEntity
  8
SUPERFICI
100
AcDbLine
 62
250
  6
CONTINUOUS
 10
-56.6818121873
 20
-16.9865464199
 11
-56.760887541
 21
-13.2527188895
  0
LINE
  5
236
100
AcDbEntity
  8
SUPERFICI
100
AcDbLine
 62
7
  6
CONTINUOUS
 10
-56.9693328985
 20
-12.4471893196
 11
-56.9532583533
 21
-13.2650687813
  0
LINE
  5
237
100
AcDbEntity
  8
SUPERFICI
100
AcDbLine
 62
250
  6
CONTINUOUS
 10
-56.760887541
 20
-13.2527188895
 11
-56.7706427832
 21
-12.6881647316
  0
LINE
  5
238
100
AcDbEntity
  8
SUPERFICI
100
AcDbLine
 62
7
  6
CONTINUOUS
 10
-56.9808263742
 20
-11.6686914598
 11
-56.9693328985
 21
-12.4471893196
  0
LWPOLYLINE
  5
239
100
AcDbEntity
  8
SUPERFICI
100
AcDbPolyline
 62
250
  6
CONTINUOUS
 90
5
 70
0
 10
-56.7706427832
 20
-12.6881647316
 10
-56.7750726319
 20
-12.312924234
 10
-56.7763492367
 20
-12.1400010189
 10
-56.7767978353
 20
-11.973394829
 10
-56.7792223379
 20
-11.6301890232
  0
LINE
  5
23A
100
AcDbEntity
  8
SUPERFICI
100
AcDbLine
 62
7
  6
CONTINUOUS
 10
-56.98664131
 20
-11.047723758
 11
-56.9808263742
 21
-11.6686914598
  0
LINE
  5
23B
100
AcDbEntity
  8
SUPERFICI
100
AcDbLine
 62
7
  6
CONTINUOUS
 10
-56.9866446363
 20
-11.0463463211
 11
-56.9866453949
 21
-11.0439187526
  0
LWPOLYLINE
  5
23C
100
AcDbEntity
  8
SUPERFICI
100
AcDbPolyline
 62
250
  6
CONTINUOUS
 90
3
 70
0
 10
-56.7792223379
 20
-11.6301890232
 10
-56.7783686442
 20
-11.4576135897
 10
-56.7736800605
 20
-11.288107425
  0
LWPOLYLINE
  5
23D
100
AcDbEntity
  8
SUPERFICI
100
AcDbPolyline
 62
250
  6
CONTINUOUS
 90
6
 70
0
 10
-55.2198179954
 20
-41.0034428919
 10
-55.20817302
 20
-41.0495434809
 10
-55.1912392246
 20
-41.0864253733
 10
-55.1694100705
 20
-41.1137812695
 10
-55.1429268833
 20
-41.1313727594
 10
-55.1373712693
 20
-41.1335794605
  0
LWPOLYLINE
  5
23E
100
AcDbEntity
  8
SUPERFICI
100
AcDbPolyline
 62
250
  6
CONTINUOUS
 90
16
 70
0
 10
-56.0590005934
 20
-40.017227093
 10
-56.0419210672
 20
-40.1151046263
 10
-56.0165515658
 20
-40.2092058644
 10
-55.982557679
 20
-40.2997554836
 10
-55.938117052
 20
-40.3881077657
 10
-55.8842345235
 20
-40.4733075827
 10
-55.825430753
 20
-40.5524810049
 10
-55.7632457281
 20
-40.6257879825
 10
-55.6968589435
 20
-40.6941216463
 10
-55.6283027277
 20
-40.7561142223
 10
-55.5590087656
 20
-40.8119907144
 10
-55.4891252183
 20
-40.8623982054
 10
-55.4193174311
 20
-40.9066784803
 10
-55.350455098
 20
-40.9448013485
 10
-55.2833908766
 20
-40.9773177116
 10
-55.2188406446
 20
-41.0043937125
  0
LWPOLYLINE
  5
23F
100
AcDbEntity
  8
SUPERFICI
100
AcDbPolyline
 62
7
  6
CONTINUOUS
 90
7
 70
0
 10
-56.6598328291
 20
-25.4460689913
 10
-56.6532430828
 20
-25.4922224835
 10
-56.6362356228
 20
-25.536604668
 10
-56.6091592593
 20
-25.5788013832
 10
-56.5725859427
 20
-25.6179244325
 10
-56.5272936805
 20
-25.6531458124
 10
-56.4742424429
 20
-25.6837229821
  0
LWPOLYLINE
  5
240
100
AcDbEntity
  8
SUPERFICI
100
AcDbPolyline
 62
250
  6
CONTINUOUS
 90
5
 70
0
 10
-50.4631011093
 20
-42.5864607528
 10
-50.450090464
 20
-42.6182854555
 10
-50.433691698
 20
-42.6427020929
 10
-50.4141882143
 20
-42.6592987122
 10
-50.3995275511
 20
-42.6661241
  0
LWPOLYLINE
  5
241
100
AcDbEntity
  8
SUPERFICI
100
AcDbPolyline
 62
250
  6
CONTINUOUS
 90
4
 70
0
 10
-4.1807880287
 20
-56.641534037
 10
-4.2515369037
 20
-56.6367836569
 10
-4.3214889685
 20
-56.627223647
 10
-4.3899084948
 20
-56.6134659244
  0
LWPOLYLINE
  5
242
100
AcDbEntity
  8
SUPERFICI
100
AcDbPolyline
 62
7
  6
CONTINUOUS
 90
11
 70
0
 10
-4.3227525725
 20
-56.7382650306
 10
-4.1927279352
 20
-56.7660874951
 10
-4.0578241352
 20
-56.7832082098
 10
-3.9245984206
 20
-56.7876125223
 10
-3.7941736879
 20
-56.7788509653
 10
-3.6698733586
 20
-56.7571319304
 10
-3.5530981509
 20
-56.7231254633
 10
-3.4436528978
 20
-56.6770820982
 10
-3.3427885
 20
-56.6197028511
 10
-3.2515461472
 20
-56.5519788948
 10
-3.1684029434
 20
-56.472604048
  0
LWPOLYLINE
  5
243
100
AcDbEntity
  8
SUPERFICI
100
AcDbPolyline
 62
250
  6
CONTINUOUS
 90
7
 70
0
 10
-4.3899084948
 20
-56.6134659244
 10
-4.8527450276
 20
-56.5065362483
 10
-5.3315131992
 20
-56.3847246532
 10
-5.8272631048
 20
-56.250482641
 10
-6.3392170075
 20
-56.1078836752
 10
-6.8717539179
 20
-55.9563256826
 10
-7.4301951322
 20
-55.7924921925
  0
LWPOLYLINE
  5
244
100
AcDbEntity
  8
SUPERFICI
100
AcDbPolyline
 62
250
  6
CONTINUOUS
 90
7
 70
0
 10
-56.0589844724
 20
-40.0172069973
 10
-56.1192102218
 20
-39.9859721842
 10
-56.1703244775
 20
-39.9491872309
 10
-56.2117666586
 20
-39.9076059215
 10
-56.2431215118
 20
-39.8617206997
 10
-56.2634927967
 20
-39.8126211843
 10
-56.2722087109
 20
-39.7621466894
  0
LWPOLYLINE
  5
245
100
AcDbEntity
  8
SUPERFICI
100
AcDbPolyline
 62
250
  6
CONTINUOUS
 90
10
 70
0
 10
-20.0079959675
 20
-46.5943788247
 10
-19.8999486337
 20
-46.5791824483
 10
-19.7912305341
 20
-46.5690232052
 10
-19.6822706716
 20
-46.5639064845
 10
-19.5733368716
 20
-46.5638412743
 10
-19.4650351813
 20
-46.5688442955
 10
-19.3582942486
 20
-46.5788630744
 10
-19.2536948566
 20
-46.5938069961
 10
-19.1514856338
 20
-46.6136242267
 10
-19.0520715284
 20
-46.6382519448
  0
LWPOLYLINE
  5
246
100
AcDbEntity
  8
SUPERFICI
100
AcDbPolyline
 62
250
  6
CONTINUOUS
 90
10
 70
0
 10
-3.6819103984
 20
-52.779768466
 10
-3.6094251625
 20
-52.7886160882
 10
-3.5354371532
 20
-52.7905464122
 10
-3.4615746506
 20
-52.7855250016
 10
-3.3894667723
 20
-52.7736683932
 10
-3.3206871578
 20
-52.7552474883
 10
-3.256723175
 20
-52.7306753446
 10
-3.1989713501
 20
-52.7004928967
 10
-3.1487029036
 20
-52.6653629317
 10
-3.1070180413
 20
-52.6260576791
  0
LINE
  5
247
100
AcDbEntity
  8
SUPERFICI
100
AcDbLine
 62
7
  6
CONTINUOUS
 10
-4.3227525725
 20
-56.7382650306
 11
-4.3228150724
 21
-56.738249011
  0
LWPOLYLINE
  5
248
100
AcDbEntity
  8
SUPERFICI
100
AcDbPolyline
 62
7
  6
CONTINUOUS
 90
7
 70
0
 10
-7.4753493851
 20
-55.8453898894
 10
-6.9010204551
 20
-56.0174602242
 10
-6.3425813694
 20
-56.1818859496
 10
-5.7980770497
 20
-56.3381992491
 10
-5.2672048642
 20
-56.4861272905
 10
-4.7508672463
 20
-56.6256965225
 10
-4.3235434244
 20
-56.738058361
  0
LINE
  5
249
100
AcDbEntity
  8
SUPERFICI
100
AcDbLine
 62
250
  6
CONTINUOUS
 10
-7.4301951322
 20
-55.7924921925
 11
-9.2296442058
 21
-55.2499036075
  0
LINE
  5
24A
100
AcDbEntity
  8
SUPERFICI
100
AcDbLine
 62
7
  6
CONTINUOUS
 10
-8.6734256045
 20
-55.4801393442
 11
-7.4753493851
 21
-55.8453898894
  0
LINE
  5
24B
100
AcDbEntity
  8
SUPERFICI
100
AcDbLine
 62
7
  6
CONTINUOUS
 10
-50.9008948711
 20
-42.5124941477
 11
-29.7631473881
 21
-48.9755824955
  0
LINE
  5
24C
100
AcDbEntity
  8
SUPERFICI
100
AcDbLine
 62
250
  6
CONTINUOUS
 10
-50.4631011093
 20
-42.5864607528
 11
-48.8060709223
 21
-43.0949913805
  0
LINE
  5
24D
100
AcDbEntity
  8
SUPERFICI
100
AcDbLine
 62
7
  6
CONTINUOUS
 10
-29.763300734
 20
-48.9755355697
 11
-8.6734256045
 21
-55.4801393442
  0
LINE
  5
24E
100
AcDbEntity
  8
SUPERFICI
100
AcDbLine
 62
250
  6
CONTINUOUS
 10
-9.2289055738
 20
-55.2490823837
 11
-12.6607948297
 21
-54.1933605269
  0
LINE
  5
24F
100
AcDbEntity
  8
SUPERFICI
100
AcDbLine
 62
250
  6
CONTINUOUS
 10
-29.7461500561
 20
-48.9200825807
 11
-48.8060709223
 21
-43.0949913805
  0
LWPOLYLINE
  5
250
100
AcDbEntity
  8
SUPERFICI
100
AcDbPolyline
 62
250
  6
CONTINUOUS
 90
3
 70
0
 10
-12.6607948297
 20
-54.1933605269
 10
-26.905988317
 20
-49.7985412801
 10
-29.7461500561
 20
-48.9200825807
  0
LWPOLYLINE
  5
251
100
AcDbEntity
  8
SUPERFICI
100
AcDbPolyline
 62
7
  6
CONTINUOUS
 90
8
 70
0
 10
-55.1370107886
 20
-41.1337077388
 10
-54.8007976064
 20
-41.2531105599
 10
-54.3056323822
 20
-41.4249725772
 10
-53.7887004738
 20
-41.5994819911
 10
-53.2502388456
 20
-41.7762906055
 10
-52.6912653182
 20
-41.9553721111
 10
-52.1130671153
 20
-42.1374356614
 10
-50.9008948711
 20
-42.5124941477
  0
LWPOLYLINE
  5
252
100
AcDbEntity
  8
SUPERFICI
100
AcDbPolyline
 62
250
  6
CONTINUOUS
 90
8
 70
0
 10
-55.2188406446
 20
-41.0043937125
 10
-54.780974959
 20
-41.1740609541
 10
-54.3227703658
 20
-41.33998461
 10
-53.8431094109
 20
-41.5052818152
 10
-53.3419339491
 20
-41.6738050537
 10
-52.8156684425
 20
-41.8473950169
 10
-52.261344038
 20
-42.0252810586
 10
-50.4632803665
 20
-42.5874537552
  0
LWPOLYLINE
  5
253
100
AcDbEntity
  8
SUPERFICI
100
AcDbPolyline
 62
7
  6
CONTINUOUS
 90
5
 70
0
 10
-29.7633566592
 20
-48.9755181306
 10
-29.7782186128
 20
-48.9688469338
 10
-29.7977268388
 20
-48.9522680833
 10
-29.814137768
 20
-48.9278994935
 10
-29.8271730826
 20
-48.8961594359
  0
LWPOLYLINE
  5
254
100
AcDbEntity
  8
SUPERFICI
100
AcDbPolyline
 62
250
  6
CONTINUOUS
 90
7
 70
0
 10
-56.1846229663
 20
-36.6566945171
 10
-56.2402472072
 20
-36.6260921744
 10
-56.2877974996
 20
-36.5905180782
 10
-56.3262431853
 20
-36.550778152
 10
-56.3547859881
 20
-36.5077161656
 10
-56.3727783766
 20
-36.4623399847
 10
-56.3802673748
 20
-36.414296278
  0
LWPOLYLINE
  5
255
100
AcDbEntity
  8
SUPERFICI
100
AcDbPolyline
 62
250
  6
CONTINUOUS
 90
13
 70
0
 10
-41.4914293439
 20
-39.9970246693
 10
-41.4822671014
 20
-40.0966626588
 10
-41.4582631572
 20
-40.1993031566
 10
-41.4198633654
 20
-40.3031214877
 10
-41.3677663741
 20
-40.4062958358
 10
-41.3028970202
 20
-40.5070068525
 10
-41.2264427335
 20
-40.6034399149
 10
-41.1398258572
 20
-40.6938879143
 10
-41.0445986446
 20
-40.7768084368
 10
-40.9424965826
 20
-40.8507557218
 10
-40.8354052193
 20
-40.9144516893
 10
-40.7252652421
 20
-40.966847594
 10
-40.6140538486
 20
-41.0071100269
  0
LWPOLYLINE
  5
256
100
AcDbEntity
  8
SUPERFICI
100
AcDbPolyline
 62
250
  6
CONTINUOUS
 90
4
 70
0
 10
-42.5645122471
 20
-22.9543540681
 10
-42.5224144451
 20
-24.2052899163
 10
-42.5053683002
 20
-24.8617411436
 10
-42.4770834702
 20
-26.2331311528
  0
LINE
  5
257
100
AcDbEntity
  8
SUPERFICI
100
AcDbLine
 62
250
  6
CONTINUOUS
 10
-42.5815788524
 20
-22.372046612
 11
-42.5645122471
 21
-22.9543540681
  0
LWPOLYLINE
  5
258
100
AcDbEntity
  8
SUPERFICI
100
AcDbPolyline
 62
250
  6
CONTINUOUS
 90
3
 70
0
 10
-42.200795875
 20
-37.1051286904
 10
-42.2407027165
 20
-35.7353084821
 10
-42.2881681264
 20
-34.258890305
  0
LINE
  5
259
100
AcDbEntity
  8
SUPERFICI
100
AcDbLine
 62
250
  6
CONTINUOUS
 10
-42.185333747
 20
-37.7554647298
 11
-42.200795875
 21
-37.1051286904
  0
LWPOLYLINE
  5
25A
100
AcDbEntity
  8
SUPERFICI
100
AcDbPolyline
 62
250
  6
CONTINUOUS
 90
5
 70
0
 10
-42.2881681264
 20
-34.258890305
 10
-42.3064612812
 20
-33.48276624
 10
-42.3203736939
 20
-32.680757795
 10
-42.3407294503
 20
-31.8472879749
 10
-42.3760012315
 20
-30.9780270876
  0
LWPOLYLINE
  5
25B
100
AcDbEntity
  8
SUPERFICI
100
AcDbPolyline
 62
250
  6
CONTINUOUS
 90
3
 70
0
 10
-42.1544072554
 20
-39.543750145
 10
-42.1658744547
 20
-38.9790383817
 10
-42.185333747
 20
-37.7554647298
  0
LWPOLYLINE
  5
25C
100
AcDbEntity
  8
SUPERFICI
100
AcDbPolyline
 62
250
  6
CONTINUOUS
 90
6
 70
0
 10
-42.4770834702
 20
-26.2331311528
 10
-42.4512475121
 20
-27.7033257433
 10
-42.4309240876
 20
-28.4795345419
 10
-42.4048589665
 20
-29.2845676498
 10
-42.3837575511
 20
-30.1176186678
 10
-42.3760012416
 20
-30.978027085
  0
LWPOLYLINE
  5
25D
100
AcDbEntity
  8
SUPERFICI
100
AcDbPolyline
 62
250
  6
CONTINUOUS
 90
10
 70
0
 10
-41.0796468177
 20
-22.2909656858
 10
-41.0920018025
 20
-22.3370694536
 10
-41.1025795097
 20
-22.3830077712
 10
-41.1112834741
 20
-22.4283586722
 10
-41.1180232005
 20
-22.472620004
 10
-41.1227567861
 20
-22.5154771281
 10
-41.1254514704
 20
-22.5567751757
 10
-41.1260455785
 20
-22.5961717799
 10
-41.1244898466
 20
-22.6331729716
 10
-41.1207625622
 20
-22.6673796573
  0
LWPOLYLINE
  5
25E
100
AcDbEntity
  8
RACCORDO
100
AcDbPolyline
 62
7
  6
CONTINUOUS
 90
4
 70
0
 10
-40.3152595865
 20
-25.7014783243
 10
-40.3111519428
 20
-25.6924760567
 10
-40.3083400628
 20
-25.6825208706
 10
-40.3068811669
 20
-25.6718778223
  0
LWPOLYLINE
  5
25F
100
AcDbEntity
  8
RACCORDO
100
AcDbPolyline
 62
7
  6
CONTINUOUS
 90
5
 70
0
 10
-40.372981842
 20
-23.3811240069
 10
-40.3688159399
 20
-23.3744636475
 10
-40.3658887546
 20
-23.3691435739
 10
-40.3642668355
 20
-23.3650538313
 10
-40.3640085077
 20
-23.3632418024
  0
LINE
  5
260
100
AcDbEntity
  8
RACCORDO
100
AcDbLine
 62
7
  6
CONTINUOUS
 10
-40.3175095506
 20
-25.7047075844
 11
-40.3374972368
 21
-25.7316028102
  0
LINE
  5
261
100
AcDbEntity
  8
RACCORDO
100
AcDbLine
 62
7
  6
CONTINUOUS
 10
-40.3752423868
 20
-23.3839279392
 11
-40.39531923
 21
-23.4072391761
  0
LWPOLYLINE
  5
262
100
AcDbEntity
  8
SUPERFICI
100
AcDbPolyline
 62
250
  6
CONTINUOUS
 90
3
 70
0
 10
-41.0367075889
 20
-22.8004160882
 10
-41.0591892343
 20
-22.8240474919
 10
-41.1080607531
 20
-22.8614882929
  0
LINE
  5
263
100
AcDbEntity
  8
SUPERFICI
100
AcDbLine
 62
250
  6
CONTINUOUS
 10
-41.1080607531
 20
-22.8614882929
 11
-41.1654388081
 21
-22.894082906
  0
LWPOLYLINE
  5
264
100
AcDbEntity
  8
SUPERFICI
100
AcDbPolyline
 62
250
  6
CONTINUOUS
 90
7
 70
0
 10
-41.1654388081
 20
-22.894082906
 10
-41.2299279139
 20
-22.9209469763
 10
-41.3002270953
 20
-22.9414565932
 10
-41.37526955
 20
-22.9551111362
 10
-41.4535278813
 20
-22.9613430664
 10
-41.5329357073
 20
-22.9597030754
 10
-41.6114595317
 20
-22.9499730278
  0
LWPOLYLINE
  5
265
100
AcDbEntity
  8
SUPERFICI
100
AcDbPolyline
 62
7
  6
CONTINUOUS
 90
9
 70
0
 10
-41.0730541945
 20
-22.7837738113
 10
-41.0808821977
 20
-22.7865925214
 10
-41.0887040639
 20
-22.7886890277
 10
-41.0922679609
 20
-22.7893094761
 10
-41.0914113627
 20
-22.7893024252
 10
-41.0860188762
 20
-22.7894643316
 10
-41.0763042915
 20
-22.7905297563
 10
-41.0626417214
 20
-22.7931169763
 10
-41.045552186
 20
-22.7977058515
  0
LWPOLYLINE
  5
266
100
AcDbEntity
  8
RACCORDO
100
AcDbPolyline
 62
250
  6
CONTINUOUS
 90
3
 70
0
 10
-2.7803919995
 20
-41.8065581739
 10
-2.7791574696
 20
-41.8063063398
 10
-2.7703079974
 20
-41.8069627872
  0
LWPOLYLINE
  5
267
100
AcDbEntity
  8
SUPERFICI
100
AcDbPolyline
 62
250
  6
CONTINUOUS
 90
10
 70
0
 10
-20.0079968933
 20
-46.5943787663
 10
-20.0540181815
 20
-46.5994960254
 10
-20.1005478218
 20
-46.6018987708
 10
-20.1471822519
 20
-46.6015563717
 10
-20.1934842446
 20
-46.598464966
 10
-20.2390787596
 20
-46.5926424601
 10
-20.2836501729
 20
-46.5841107273
 10
-20.3268210762
 20
-46.5729115529
 10
-20.3681624104
 20
-46.5591245704
 10
-20.4072851519
 20
-46.5428493685
  0
LWPOLYLINE
  5
268
100
AcDbEntity
  8
SUPERFICI
100
AcDbPolyline
 62
250
  6
CONTINUOUS
 90
6
 70
0
 10
-4.3228150724
 20
-56.738249011
 10
-4.3329927192
 20
-56.7343806583
 10
-4.3523829551
 20
-56.7184767245
 10
-4.3682775658
 20
-56.6927085865
 10
-4.3805495731
 20
-56.6574436161
 10
-4.3889722441
 20
-56.6131027523
  0
LWPOLYLINE
  5
269
100
AcDbEntity
  8
SUPERFICI
100
AcDbPolyline
 62
250
  6
CONTINUOUS
 90
10
 70
0
 10
-40.6140549637
 20
-41.007110065
 10
-40.6278871646
 20
-40.9938230521
 10
-40.6400417089
 20
-40.9763717855
 10
-40.6504075684
 20
-40.9549181607
 10
-40.658875482
 20
-40.9297138106
 10
-40.6653908048
 20
-40.9009525119
 10
-40.6699151909
 20
-40.8687005183
 10
-40.6723742012
 20
-40.8331298151
 10
-40.6726977754
 20
-40.7945846858
 10
-40.6708462928
 20
-40.7533873596
  0
LWPOLYLINE
  5
26A
100
AcDbEntity
  8
0
100
AcDbPolyline
 62
7
  6
CONTINUOUS
 90
6
 70
0
 10
-40.2214277927
 20
-39.6478190758
 10
-40.2097292374
 20
-39.6627232197
 10
-40.19638793
 20
-39.676681292
 10
-40.1814832099
 20
-39.68973898
 10
-40.1657588683
 20
-39.7012446662
 10
-40.1494628356
 20
-39.7109811446
  0
LWPOLYLINE
  5
26B
100
AcDbEntity
  8
0
100
AcDbPolyline
 62
7
  6
CONTINUOUS
 90
4
 70
0
 10
-40.2454570721
 20
-39.60033327
 10
-40.2396288921
 20
-39.6160983146
 10
-40.2315629353
 20
-39.6320145476
 10
-40.2214277927
 20
-39.6478190758
  0
LWPOLYLINE
  5
26C
100
AcDbEntity
  8
0
100
AcDbPolyline
 62
7
  6
CONTINUOUS
 90
3
 70
0
 10
-40.2509058748
 20
-39.5684680662
 10
-40.2492160663
 20
-39.5844565205
 10
-40.2454570721
 20
-39.60033327
  0
LWPOLYLINE
  5
26D
100
AcDbEntity
  8
0
100
AcDbPolyline
 62
7
  6
CONTINUOUS
 90
13
 70
0
 10
-40.0010729103
 20
-39.2553923954
 10
-39.9993831194
 20
-39.2713808025
 10
-39.9956241394
 20
-39.2872575194
 10
-39.9897959703
 20
-39.3030225461
 10
-39.9817300208
 20
-39.3189387806
 10
-39.9715948823
 20
-39.334743325
 10
-39.9598963283
 20
-39.3496474851
 10
-39.9465550201
 20
-39.3636055691
 10
-39.9316502966
 20
-39.3766632688
 10
-39.9159259479
 20
-39.3881689662
 10
-39.8996299041
 20
-39.3979054549
 10
-39.8825142353
 20
-39.4060899413
 10
-39.8645789413
 20
-39.4127224251
  0
LWPOLYLINE
  5
26E
100
AcDbEntity
  8
SUPERFICI
100
AcDbPolyline
 62
250
  6
CONTINUOUS
 90
10
 70
0
 10
-40.4248748686
 20
-41.5059715432
 10
-40.4324780702
 20
-41.4268054938
 10
-40.4436311208
 20
-41.3529590205
 10
-40.4582683811
 20
-41.2846796671
 10
-40.4763529563
 20
-41.2221282149
 10
-40.4977978168
 20
-41.1656646778
 10
-40.5224166782
 20
-41.1157541091
 10
-40.5500544373
 20
-41.0726234031
 10
-40.5806362774
 20
-41.0363555326
 10
-40.6140543683
 20
-41.0071095522
  0
LINE
  5
26F
100
AcDbEntity
  8
SUPERFICI
100
AcDbLine
 62
250
  6
CONTINUOUS
 10
-41.919621003
 20
-22.7842512699
 11
-41.8437418194
 21
-25.6213199496
  0
LINE
  5
270
100
AcDbEntity
  8
SUPERFICI
100
AcDbLine
 62
250
  6
CONTINUOUS
 10
-40.5916439702
 20
-39.9954605891
 11
-41.0192629431
 21
-22.8057731697
  0
LINE
  5
271
100
AcDbEntity
  8
0
100
AcDbLine
 62
7
  6
CONTINUOUS
 10
-40.47802675
 20
-39.8530823772
 11
-40.9012019471
 21
-22.8420285569
  0
LINE
  5
272
100
AcDbEntity
  8
0
100
AcDbLine
 62
7
  6
CONTINUOUS
 10
-40.2742448837
 20
-39.5613008829
 11
-40.688536966
 21
-22.9073359105
  0
LINE
  5
273
100
AcDbEntity
  8
0
100
AcDbLine
 62
7
  6
CONTINUOUS
 10
-40.6651979571
 20
-22.9145030938
 11
-40.4891125028
 21
-29.9928932291
  0
LINE
  5
274
100
AcDbEntity
  8
0
100
AcDbLine
 62
7
  6
CONTINUOUS
 10
-40.4408925376
 20
-31.9312687022
 11
-40.2509058748
 21
-39.5684680662
  0
LINE
  5
275
100
AcDbEntity
  8
0
100
AcDbLine
 62
7
  6
CONTINUOUS
 10
-40.4055935682
 20
-22.9942250845
 11
-40.2392795383
 21
-29.6798175583
  0
LINE
  5
276
100
AcDbEntity
  8
0
100
AcDbLine
 62
7
  6
CONTINUOUS
 10
-40.1910595731
 20
-31.6181930314
 11
-40.0010729103
 21
-39.2553923954
  0
LINE
  5
277
100
AcDbEntity
  8
RACCORDO
100
AcDbLine
 62
250
  6
CONTINUOUS
 10
-40.3752423868
 20
-23.3839279392
 11
-40.3175095506
 21
-25.7047075844
  0
LINE
  5
278
100
AcDbEntity
  8
RACCORDO
100
AcDbLine
 62
250
  6
CONTINUOUS
 10
-40.1582525435
 20
-32.1066175681
 11
-40.1005197073
 21
-34.4273972134
  0
LINE
  5
279
100
AcDbEntity
  8
RACCORDO
100
AcDbLine
 62
7
  6
CONTINUOUS
 10
-40.3641131039
 20
-23.363221548
 11
-40.3068346162
 21
-25.6657370158
  0
LINE
  5
27A
100
AcDbEntity
  8
RACCORDO
100
AcDbLine
 62
7
  6
CONTINUOUS
 10
-40.1471232606
 20
-32.085911177
 11
-40.0898447729
 21
-34.3884266447
  0
LINE
  5
27B
100
AcDbEntity
  8
SUPERFICI
100
AcDbLine
 62
250
  6
CONTINUOUS
 10
-41.8437418194
 20
-25.6213199496
 11
-41.5340344864
 21
-38.1213692427
  0
LINE
  5
27C
100
AcDbEntity
  8
SUPERFICI
100
AcDbLine
 62
250
  6
CONTINUOUS
 10
-41.5340344864
 20
-38.1213692427
 11
-41.4914277122
 21
-39.997025471
  0
LINE
  5
27D
100
AcDbEntity
  8
RACCORDO
100
AcDbLine
 62
7
  6
CONTINUOUS
 10
-40.3068811669
 20
-25.6718778223
 11
-40.306730827
 21
-25.6657248284
  0
LINE
  5
27E
100
AcDbEntity
  8
RACCORDO
100
AcDbLine
 62
7
  6
CONTINUOUS
 10
-40.0898913236
 20
-34.3945674512
 11
-40.0897409837
 21
-34.3884144574
  0
LWPOLYLINE
  5
27F
100
AcDbEntity
  8
SUPERFICI
100
AcDbPolyline
 62
250
  6
CONTINUOUS
 90
10
 70
0
 10
-40.9248142599
 20
-21.4091039827
 10
-40.9282518486
 20
-21.4973897702
 10
-40.9352864059
 20
-21.5891009957
 10
-40.9458677221
 20
-21.6838649512
 10
-40.9599685965
 20
-21.7814527211
 10
-40.9775239547
 20
-21.8813417663
 10
-40.9983801052
 20
-21.9826869344
 10
-41.0224015303
 20
-22.0849278199
 10
-41.0495216155
 20
-22.1878176783
 10
-41.0796462097
 20
-22.2909656844
  0
LWPOLYLINE
  5
280
100
AcDbEntity
  8
SUPERFICI
100
AcDbPolyline
 62
250
  6
CONTINUOUS
 90
10
 70
0
 10
-40.6708462928
 20
-40.7533873596
 10
-40.6637755374
 20
-40.6861061373
 10
-40.6516562315
 20
-40.6151010595
 10
-40.6346842349
 20
-40.5419630582
 10
-40.613212185
 20
-40.4684891061
 10
-40.587651381
 20
-40.3963078425
 10
-40.5584104075
 20
-40.3268770771
 10
-40.5260561731
 20
-40.2619169507
 10
-40.4913604101
 20
-40.2033223773
 10
-40.4551530197
 20
-40.1528008451
  0
LINE
  5
281
100
AcDbEntity
  8
0
100
AcDbLine
 62
7
  6
CONTINUOUS
 10
-40.4891125028
 20
-29.9928932291
 11
-40.2392795383
 21
-29.6798175583
  0
LWPOLYLINE
  5
282
100
AcDbEntity
  8
SUPERFICI
100
AcDbPolyline
 62
250
  6
CONTINUOUS
 90
10
 70
0
 10
-41.1832646632
 20
-40.1627475102
 10
-41.2265744823
 20
-40.1536291685
 10
-41.2684968748
 20
-40.1419465254
 10
-41.3086446846
 20
-40.1277602823
 10
-41.3466628194
 20
-40.1111427001
 10
-41.3821491406
 20
-40.0922127149
 10
-41.4146790144
 20
-40.0711510798
 10
-41.4439141746
 20
-40.0481438302
 10
-41.4695854909
 20
-40.0233658817
 10
-41.4914277122
 20
-39.997025471
  0
LINE
  5
283
100
AcDbEntity
  8
SUPERFICI
100
AcDbLine
 62
250
  6
CONTINUOUS
 10
-20.6581553882
 20
-46.2303486663
 11
-20.6822839161
 21
-46.2248443539
  0
LWPOLYLINE
  5
284
100
AcDbEntity
  8
SUPERFICI
100
AcDbPolyline
 62
250
  6
CONTINUOUS
 90
13
 70
0
 10
-20.8411890978
 20
-47.079164058
 10
-20.7297301898
 20
-47.1072719187
 10
-20.6202499251
 20
-47.1222955231
 10
-20.5147162666
 20
-47.1238645605
 10
-20.4150946538
 20
-47.1118391125
 10
-20.3231819058
 20
-47.0863720035
 10
-20.240519454
 20
-47.047895708
 10
-20.1685824674
 20
-46.9970131417
 10
-20.1087529184
 20
-46.9345782648
 10
-20.0620668084
 20
-46.8617404964
 10
-20.0293365491
 20
-46.7797943479
 10
-20.0111954557
 20
-46.6901477211
 10
-20.0079950417
 20
-46.5943788832
  0
LWPOLYLINE
  5
285
100
AcDbEntity
  8
SUPERFICI
100
AcDbPolyline
 62
250
  6
CONTINUOUS
 90
16
 70
0
 10
-20.6832811884
 20
-47.5684169333
 10
-20.5511956478
 20
-47.606914941
 10
-20.4148102276
 20
-47.6361013017
 10
-20.2750594935
 20
-47.6552544063
 10
-20.1328806088
 20
-47.6636017671
 10
-19.9898532432
 20
-47.6598894022
 10
-19.8481786771
 20
-47.6423761614
 10
-19.7087687473
 20
-47.6092445795
 10
-19.5742516448
 20
-47.5590540229
 10
-19.4491884902
 20
-47.4906763046
 10
-19.3325226711
 20
-47.4022795929
 10
-19.2284225842
 20
-47.292127969
 10
-19.1475472558
 20
-47.1607172489
 10
-19.0928595087
 20
-47.0084875382
 10
-19.0610948033
 20
-46.8344190264
 10
-19.0521051494
 20
-46.6382431155
  0
LWPOLYLINE
  5
286
100
AcDbEntity
  8
SUPERFICI
100
AcDbPolyline
 62
250
  6
CONTINUOUS
 90
3
 70
0
 10
-30.5847222239
 20
-44.4893218233
 10
-36.2778320345
 20
-42.7654904167
 10
-40.4244547724
 20
-41.5060939415
  0
LINE
  5
287
100
AcDbEntity
  8
SUPERFICI
100
AcDbLine
 62
250
  6
CONTINUOUS
 10
-40.6140549637
 20
-41.007110065
 11
-31.8357609783
 21
-43.6986172971
  0
LINE
  5
288
100
AcDbEntity
  8
SUPERFICI
100
AcDbLine
 62
250
  6
CONTINUOUS
 10
-20.6822843775
 20
-46.2248459288
 11
-40.4551503267
 21
-40.1527905189
  0
LINE
  5
289
100
AcDbEntity
  8
0
100
AcDbLine
 62
7
  6
CONTINUOUS
 10
-20.6117940681
 20
-46.0692237965
 11
-40.3415327883
 21
-40.0104123405
  0
LINE
  5
28A
100
AcDbEntity
  8
0
100
AcDbLine
 62
7
  6
CONTINUOUS
 10
-20.620171761
 20
-45.7324522041
 11
-40.113906811
 21
-39.7461151868
  0
LINE
  5
28B
100
AcDbEntity
  8
0
100
AcDbLine
 62
7
  6
CONTINUOUS
 10
-40.1144119058
 20
-39.725798096
 11
-31.3413163034
 21
-42.4199306891
  0
LINE
  5
28C
100
AcDbEntity
  8
0
100
AcDbLine
 62
7
  6
CONTINUOUS
 10
-29.11464221
 20
-43.1037207128
 11
-20.6206771813
 21
-45.7121350133
  0
LINE
  5
28D
100
AcDbEntity
  8
SUPERFICI
100
AcDbLine
 62
250
  6
CONTINUOUS
 10
-31.8357609783
 20
-43.6986172971
 11
-23.060720888
 21
-46.3960918274
  0
LINE
  5
28E
100
AcDbEntity
  8
SUPERFICI
100
AcDbLine
 62
250
  6
CONTINUOUS
 10
-23.060720888
 20
-46.3960918274
 11
-20.8411890145
 21
-47.0791654748
  0
LINE
  5
28F
100
AcDbEntity
  8
SUPERFICI
100
AcDbLine
 62
250
  6
CONTINUOUS
 10
-21.1636310499
 20
-47.4189158404
 11
-20.6832811884
 21
-47.5684169333
  0
LINE
  5
290
100
AcDbEntity
  8
SUPERFICI
100
AcDbLine
 62
250
  6
CONTINUOUS
 10
-30.5847223963
 20
-44.4893144278
 11
-21.1636310499
 21
-47.4189158404
  0
LWPOLYLINE
  5
291
100
AcDbEntity
  8
SUPERFICI
100
AcDbPolyline
 62
250
  6
CONTINUOUS
 90
16
 70
0
 10
-40.4244547724
 20
-41.5060939415
 10
-40.5550690788
 20
-41.4639193734
 10
-40.6910309019
 20
-41.4094705365
 10
-40.8314358457
 20
-41.3425905488
 10
-40.9753665509
 20
-41.2630764288
 10
-41.1212862211
 20
-41.1706312309
 10
-41.267059775
 20
-41.0648454596
 10
-41.4118520285
 20
-40.9444381429
 10
-41.5530313287
 20
-40.8095838942
 10
-41.6859754617
 20
-40.6619746396
 10
-41.8118140414
 20
-40.4991071785
 10
-41.9263701635
 20
-40.3218083529
 10
-42.0187484222
 20
-40.1371931361
 10
-42.0858711449
 20
-39.9475566113
 10
-42.1310553263
 20
-39.7498578424
 10
-42.1544072554
 20
-39.543750145
  0
LWPOLYLINE
  5
292
100
AcDbEntity
  8
SUPERFICI
100
AcDbPolyline
 62
250
  6
CONTINUOUS
 90
10
 70
0
 10
-42.1544072554
 20
-39.543750145
 10
-42.0594457811
 20
-39.5788572982
 10
-41.9690004657
 20
-39.6182837361
 10
-41.8833904314
 20
-39.6618478377
 10
-41.8028221665
 20
-39.7094395056
 10
-41.7277535332
 20
-39.7608103042
 10
-41.6588101191
 20
-39.8155182826
 10
-41.5963320788
 20
-39.8732382157
 10
-41.5404578625
 20
-39.9338167237
 10
-41.491427982
 20
-39.9970251623
  0
LWPOLYLINE
  5
293
100
AcDbEntity
  8
SUPERFICI
100
AcDbPolyline
 62
250
  6
CONTINUOUS
 90
10
 70
0
 10
-40.4551485876
 20
-40.1527893364
 10
-40.4775520399
 20
-40.1442812512
 10
-40.4995898914
 20
-40.1326192376
 10
-40.5206070083
 20
-40.1180631243
 10
-40.539932181
 20
-40.1009908672
 10
-40.5569613576
 20
-40.0818401127
 10
-40.5711513175
 20
-40.0610819625
 10
-40.5819629649
 20
-40.039298045
 10
-40.588913617
 20
-40.0171827384
 10
-40.5916428667
 20
-39.9954593393
  0
LWPOLYLINE
  5
294
100
AcDbEntity
  8
0
100
AcDbPolyline
 62
7
  6
CONTINUOUS
 90
10
 70
0
 10
-40.3415327883
 20
-40.0104123405
 10
-40.3647761988
 20
-40.0015211668
 10
-40.3874013031
 20
-39.989366348
 10
-40.4087206474
 20
-39.974317196
 10
-40.4280864534
 20
-39.9568309643
 10
-40.4449102923
 20
-39.9374389623
 10
-40.458680968
 20
-39.9167304141
 10
-40.4689800608
 20
-39.8953345433
 10
-40.4754946366
 20
-39.8739014521
 10
-40.47802675
 20
-39.8530823772
  0
LWPOLYLINE
  5
295
100
AcDbEntity
  8
0
100
AcDbPolyline
 62
7
  6
CONTINUOUS
 90
10
 70
0
 10
-40.113906811
 20
-39.7461151868
 10
-40.1424637143
 20
-39.7347866809
 10
-40.1687720434
 20
-39.7206530779
 10
-40.1928317981
 20
-39.7037143776
 10
-40.2152254001
 20
-39.6832992563
 10
-40.2353704279
 20
-39.6600790378
 10
-40.2515196165
 20
-39.636067694
 10
-40.2630905446
 20
-39.6119365489
 10
-40.2706656337
 20
-39.5870142785
 10
-40.2742448837
 20
-39.5613008829
  0
LWPOLYLINE
  5
296
100
AcDbEntity
  8
SUPERFICI
100
AcDbPolyline
 62
250
  6
CONTINUOUS
 90
5
 70
0
 10
-9.1653454011
 20
-55.3287414583
 10
-9.1799802991
 20
-55.3219019669
 10
-9.1994961875
 20
-55.305281852
 10
-9.2158981212
 20
-55.2808686238
 10
-9.2289055738
 20
-55.2490823837
  0
LWPOLYLINE
  5
297
100
AcDbEntity
  8
0
100
AcDbPolyline
 62
7
  6
CONTINUOUS
 90
3
 70
0
 10
-40.1494628356
 20
-39.7109811446
 10
-40.1323471814
 20
-39.7191656212
 10
-40.1144119058
 20
-39.725798096
  0
LWPOLYLINE
  5
298
100
AcDbEntity
  8
RACCORDO
100
AcDbPolyline
 62
7
  6
CONTINUOUS
 90
4
 70
0
 10
-40.1470186644
 20
-32.0859314313
 10
-40.1471671499
 20
-32.0847125695
 10
-40.1484270442
 20
-32.0826071121
 10
-40.1505250567
 20
-32.081429892
  0
LWPOLYLINE
  5
299
100
AcDbEntity
  8
RACCORDO
100
AcDbPolyline
 62
7
  6
CONTINUOUS
 90
4
 70
0
 10
-40.3640085077
 20
-23.3632418024
 10
-40.3641569933
 20
-23.3620229406
 10
-40.3654168876
 20
-23.3599174832
 10
-40.3675149001
 20
-23.3587402631
  0
LWPOLYLINE
  5
29A
100
AcDbEntity
  8
RACCORDO
100
AcDbPolyline
 62
7
  6
CONTINUOUS
 90
4
 70
0
 10
-40.0982697432
 20
-34.4241679533
 10
-40.0941620995
 20
-34.4151656856
 10
-40.0913502194
 20
-34.4052104996
 10
-40.0898913236
 20
-34.3945674512
  0
LWPOLYLINE
  5
29B
100
AcDbEntity
  8
RACCORDO
100
AcDbPolyline
 62
7
  6
CONTINUOUS
 90
5
 70
0
 10
-40.1559919987
 20
-32.1038136359
 10
-40.1518260966
 20
-32.0971532765
 10
-40.1488989112
 20
-32.0918332028
 10
-40.1472769922
 20
-32.0877434603
 10
-40.1470186644
 20
-32.0859314313
  0
LINE
  5
29C
100
AcDbEntity
  8
RACCORDO
100
AcDbLine
 62
7
  6
CONTINUOUS
 10
-40.1005197073
 20
-34.4273972134
 11
-40.1205073934
 21
-34.4542924391
  0
LINE
  5
29D
100
AcDbEntity
  8
0
100
AcDbLine
 62
7
  6
CONTINUOUS
 10
-40.1910595731
 20
-31.6181930314
 11
-40.4408925376
 21
-31.9312687022
  0
LINE
  5
29E
100
AcDbEntity
  8
RACCORDO
100
AcDbLine
 62
7
  6
CONTINUOUS
 10
-40.1582525435
 20
-32.1066175681
 11
-40.1783293867
 21
-32.129928805
  0
LINE
  5
29F
100
AcDbEntity
  8
RACCORDO
100
AcDbLine
 62
7
  6
CONTINUOUS
 10
-25.1180581753
 20
-43.1587591343
 11
-25.1086614344
 21
-43.1611106373
  0
LINE
  5
2A0
100
AcDbEntity
  8
RACCORDO
100
AcDbLine
 62
7
  6
CONTINUOUS
 10
-35.1380915955
 20
-40.0817040279
 11
-35.1286948546
 21
-40.0840555309
  0
LINE
  5
2A1
100
AcDbEntity
  8
0
100
AcDbLine
 62
7
  6
CONTINUOUS
 10
-39.8645789413
 20
-39.4127224251
 11
-31.0914833389
 21
-42.1068550183
  0
LINE
  5
2A2
100
AcDbEntity
  8
0
100
AcDbLine
 62
7
  6
CONTINUOUS
 10
-28.8648092455
 20
-42.7906450419
 11
-20.6304486058
 21
-45.3193373518
  0
LINE
  5
2A3
100
AcDbEntity
  8
DRAFT
100
AcDbLine
 62
7
  6
CONTINUOUS
 10
-22.8746645421
 20
-44.5303792298
 11
-25.6269729093
 21
-43.6851720174
  0
LINE
  5
2A4
100
AcDbEntity
  8
0
100
AcDbLine
 62
7
  6
CONTINUOUS
 10
-32.8946979623
 20
-41.4533241234
 11
-35.6470063295
 21
-40.608116911
  0
LINE
  5
2A5
100
AcDbEntity
  8
DRAFT
100
AcDbLine
 62
7
  6
CONTINUOUS
 10
-22.8339081685
 20
-44.4720229439
 11
-25.5768809321
 21
-43.6296826048
  0
LINE
  5
2A6
100
AcDbEntity
  8
0
100
AcDbLine
 62
7
  6
CONTINUOUS
 10
-32.8539415887
 20
-41.3949678375
 11
-35.5969143523
 21
-40.5526274984
  0
LINE
  5
2A7
100
AcDbEntity
  8
DRAFT
100
AcDbLine
 62
7
  6
CONTINUOUS
 10
-22.7727736081
 20
-44.384488515
 11
-25.5017429664
 21
-43.5464484859
  0
LINE
  5
2A8
100
AcDbEntity
  8
0
100
AcDbLine
 62
7
  6
CONTINUOUS
 10
-32.7928070283
 20
-41.3074334087
 11
-35.5217763866
 21
-40.4693933796
  0
LINE
  5
2A9
100
AcDbEntity
  8
DRAFT
100
AcDbLine
 62
7
  6
CONTINUOUS
 10
-22.7320172345
 20
-44.3261322291
 11
-25.4516509893
 21
-43.4909590733
  0
LINE
  5
2AA
100
AcDbEntity
  8
0
100
AcDbLine
 62
7
  6
CONTINUOUS
 10
-32.7520506547
 20
-41.2490771228
 11
-35.4716844095
 21
-40.413903967
  0
LINE
  5
2AB
100
AcDbEntity
  8
DRAFT
100
AcDbLine
 62
7
  6
CONTINUOUS
 10
-22.6708826742
 20
-44.2385978002
 11
-25.3765130236
 21
-43.4077249545
  0
LINE
  5
2AC
100
AcDbEntity
  8
0
100
AcDbLine
 62
7
  6
CONTINUOUS
 10
-32.6909160944
 20
-41.1615426939
 11
-35.3965464438
 21
-40.3306698481
  0
LINE
  5
2AD
100
AcDbEntity
  8
DRAFT
100
AcDbLine
 62
7
  6
CONTINUOUS
 10
-22.6301263006
 20
-44.1802415143
 11
-25.3264210465
 21
-43.3522355419
  0
LINE
  5
2AE
100
AcDbEntity
  8
0
100
AcDbLine
 62
7
  6
CONTINUOUS
 10
-32.6501597208
 20
-41.103186408
 11
-35.3464544666
 21
-40.2751804355
  0
LINE
  5
2AF
100
AcDbEntity
  8
DRAFT
100
AcDbLine
 62
7
  6
CONTINUOUS
 10
-22.5689917402
 20
-44.0927070855
 11
-25.2512830808
 21
-43.269001423
  0
LINE
  5
2B0
100
AcDbEntity
  8
0
100
AcDbLine
 62
7
  6
CONTINUOUS
 10
-32.5890251604
 20
-41.0156519791
 11
-35.2713165009
 21
-40.1919463167
  0
LINE
  5
2B1
100
AcDbEntity
  8
RACCORDO
100
AcDbLine
 62
250
  6
CONTINUOUS
 10
-35.183655541
 20
-40.0948398446
 11
-32.5177015066
 21
-40.9135284788
  0
LINE
  5
2B2
100
AcDbEntity
  8
RACCORDO
100
AcDbLine
 62
250
  6
CONTINUOUS
 10
-25.1636221208
 20
-43.171894951
 11
-22.4976680865
 21
-43.9905835851
  0
LINE
  5
2B3
100
AcDbEntity
  8
RACCORDO
100
AcDbLine
 62
7
  6
CONTINUOUS
 10
-35.1286926556
 20
-40.0840521094
 11
-32.5100947756
 21
-40.8881981277
  0
LINE
  5
2B4
100
AcDbEntity
  8
RACCORDO
100
AcDbLine
 62
7
  6
CONTINUOUS
 10
-25.1086592355
 20
-43.1611072158
 11
-22.4900613554
 21
-43.9652532341
  0
LINE
  5
2B5
100
AcDbEntity
  8
0
100
AcDbLine
 62
7
  6
CONTINUOUS
 10
-32.8539415887
 20
-41.3949678375
 11
-32.8219277095
 21
-41.4093518873
  0
LINE
  5
2B6
100
AcDbEntity
  8
0
100
AcDbLine
 62
7
  6
CONTINUOUS
 10
-32.7520506547
 20
-41.2490771228
 11
-32.7200367756
 21
-41.2634611725
  0
LINE
  5
2B7
100
AcDbEntity
  8
0
100
AcDbLine
 62
7
  6
CONTINUOUS
 10
-32.6501597208
 20
-41.103186408
 11
-32.6181458416
 21
-41.1175704577
  0
LINE
  5
2B8
100
AcDbEntity
  8
DRAFT
100
AcDbLine
 62
7
  6
CONTINUOUS
 10
-22.8339081685
 20
-44.4720229439
 11
-22.8018942894
 21
-44.4864069936
  0
LINE
  5
2B9
100
AcDbEntity
  8
DRAFT
100
AcDbLine
 62
7
  6
CONTINUOUS
 10
-22.7320172345
 20
-44.3261322291
 11
-22.7000033554
 21
-44.3405162789
  0
LINE
  5
2BA
100
AcDbEntity
  8
DRAFT
100
AcDbLine
 62
7
  6
CONTINUOUS
 10
-22.6301263006
 20
-44.1802415143
 11
-22.5981124215
 21
-44.1946255641
  0
LWPOLYLINE
  5
2BB
100
AcDbEntity
  8
SUPERFICI
100
AcDbPolyline
 62
250
  6
CONTINUOUS
 90
7
 70
0
 10
-20.4072851519
 20
-46.5428493685
 10
-20.4641277928
 20
-46.5120845983
 10
-20.5129549908
 20
-46.4759617739
 10
-20.552515098
 20
-46.4352524796
 10
-20.5817128895
 20
-46.3909234304
 10
-20.599782177
 20
-46.3439191369
 10
-20.6060839651
 20
-46.2987619899
  0
LWPOLYLINE
  5
2BC
100
AcDbEntity
  8
SUPERFICI
100
AcDbPolyline
 62
250
  6
CONTINUOUS
 90
10
 70
0
 10
-41.6996344313
 20
-31.3983793827
 10
-41.7511364606
 20
-31.3385085678
 10
-41.80930574
 20
-31.2813972219
 10
-41.8738575719
 20
-31.2272634404
 10
-41.9445950054
 20
-31.1762666023
 10
-42.0211512713
 20
-31.1286975455
 10
-42.102932593
 20
-31.0849224151
 10
-42.1895007101
 20
-31.0451449685
 10
-42.2806300221
 20
-31.0094627077
 10
-42.3760012416
 20
-30.978027085
  0
LWPOLYLINE
  5
2BD
100
AcDbEntity
  8
SUPERFICI
100
AcDbPolyline
 62
250
  6
CONTINUOUS
 90
5
 70
0
 10
-41.1207625622
 20
-22.6673796573
 10
-41.1108730158
 20
-22.7134075454
 10
-41.0960605046
 20
-22.7506633648
 10
-41.0765858571
 20
-22.7781285072
 10
-41.0528672048
 20
-22.794971817
  0
LINE
  5
2BE
100
AcDbEntity
  8
0
100
AcDbLine
 62
250
  6
CONTINUOUS
 10
-40.2742448837
 20
-39.5613008829
 11
-40.478026751
 21
-39.8530823342
  0
LWPOLYLINE
  5
2BF
100
AcDbEntity
  8
SUPERFICI
100
AcDbPolyline
 62
250
  6
CONTINUOUS
 90
10
 70
0
 10
-20.2355882009
 20
-37.9897798588
 10
-20.1276170219
 20
-37.9788793195
 10
-20.0191414353
 20
-37.9729434867
 10
-19.9106126823
 20
-37.971962978
 10
-19.8023535495
 20
-37.9759352919
 10
-19.6949582529
 20
-37.9848554559
 10
-19.5892556161
 20
-37.9986543131
 10
-19.4857725478
 20
-38.0172399253
 10
-19.3847708496
 20
-38.0405592597
 10
-19.286638228
 20
-38.0685465854
  0
LWPOLYLINE
  5
2C0
100
AcDbEntity
  8
RACCORDO
100
AcDbPolyline
 62
250
  6
CONTINUOUS
 90
3
 70
0
 10
-2.5816707179
 20
-41.8098811834
 10
-2.570576583
 20
-41.8116107602
 10
-2.5597013361
 20
-41.8141879901
  0
LINE
  5
2C1
100
AcDbEntity
  8
SUPERFICI
100
AcDbLine
 62
250
  6
CONTINUOUS
 10
-54.9066154762
 20
-26.4348017191
 11
-55.7258594613
 21
-26.0489051876
  0
LINE
  5
2C2
100
AcDbEntity
  8
SUPERFICI
100
AcDbLine
 62
250
  6
CONTINUOUS
 10
-55.7258594613
 20
-26.0489051876
 11
-56.4739282746
 21
-25.6836371816
  0
LWPOLYLINE
  5
2C3
100
AcDbEntity
  8
SUPERFICI
100
AcDbPolyline
 62
250
  6
CONTINUOUS
 90
10
 70
0
 10
-20.8411890562
 20
-47.0791647664
 10
-20.8113022377
 20
-47.1074386231
 10
-20.7842862733
 20
-47.1427620406
 10
-20.7602253917
 20
-47.1849528422
 10
-20.7391753582
 20
-47.2339049514
 10
-20.7212605294
 20
-47.2893729565
 10
-20.7066259764
 20
-47.3508775325
 10
-20.6953285934
 20
-47.4180428323
 10
-20.6873849884
 20
-47.4906910214
 10
-20.6828349956
 20
-47.568560564
  0
LWPOLYLINE
  5
2C4
100
AcDbEntity
  8
SUPERFICI
100
AcDbPolyline
 62
250
  6
CONTINUOUS
 90
10
 70
0
 10
-20.8411890145
 20
-47.0791654748
 10
-20.8550214096
 20
-47.0658782323
 10
-20.8671760111
 20
-47.0484267612
 10
-20.8775418277
 20
-47.0269730538
 10
-20.8860096081
 20
-47.0017689494
 10
-20.8925248023
 20
-46.9730082159
 10
-20.8970491587
 20
-46.9407567327
 10
-20.8995082129
 20
-46.9051862636
 10
-20.8998318467
 20
-46.866641172
 10
-20.8979804045
 20
-46.825443646
  0
LWPOLYLINE
  5
2C5
100
AcDbEntity
  8
SUPERFICI
100
AcDbPolyline
 62
250
  6
CONTINUOUS
 90
8
 70
0
 10
-29.8270450997
 20
-48.8979988397
 10
-29.948637367
 20
-48.4933794456
 10
-30.0608223346
 20
-48.0659193506
 10
-30.1639858952
 20
-47.6148848672
 10
-30.2627316492
 20
-47.1351493601
 10
-30.3524091537
 20
-46.6305335274
 10
-30.4242331176
 20
-46.1134685206
 10
-30.4811423634
 20
-45.5872251162
  0
LINE
  5
2C6
100
AcDbEntity
  8
SUPERFICI
100
AcDbLine
 62
250
  6
CONTINUOUS
 10
-30.4811423634
 20
-45.5872251162
 11
-30.5847223963
 21
-44.4893144278
  0
LWPOLYLINE
  5
2C7
100
AcDbEntity
  8
SUPERFICI
100
AcDbPolyline
 62
250
  6
CONTINUOUS
 90
10
 70
0
 10
-30.5847450882
 20
-44.4893082788
 10
-30.590888525
 20
-44.4200928994
 10
-30.5997824822
 20
-44.3552101505
 10
-30.6113843329
 20
-44.2948255555
 10
-30.6256645125
 20
-44.2390599032
 10
-30.6425710463
 20
-44.1881341791
 10
-30.6620074824
 20
-44.1423272892
 10
-30.6838912707
 20
-44.1018002075
 10
-30.7081758252
 20
-44.066638263
 10
-30.7347995954
 20
-44.0369664652
  0
LINE
  5
2C8
100
AcDbEntity
  8
RACCORDO
100
AcDbLine
 62
250
  6
CONTINUOUS
 10
-32.5046851983
 20
-41.3479672345
 11
-32.5155658395
 21
-40.9105806058
  0
LINE
  5
2C9
100
AcDbEntity
  8
RACCORDO
100
AcDbLine
 62
7
  6
CONTINUOUS
 10
-32.4960383441
 20
-41.3211453508
 11
-32.5066971014
 21
-40.8926781469
  0
LINE
  5
2CA
100
AcDbEntity
  8
0
100
AcDbLine
 62
7
  6
CONTINUOUS
 10
-31.3413163034
 20
-42.4199306891
 11
-31.3408108831
 21
-42.4402478799
  0
LINE
  5
2CB
100
AcDbEntity
  8
0
100
AcDbLine
 62
7
  6
CONTINUOUS
 10
-31.0812064942
 20
-42.5199698706
 11
-31.0914833389
 21
-42.1068550183
  0
LWPOLYLINE
  5
2CC
100
AcDbEntity
  8
SUPERFICI
100
AcDbPolyline
 62
250
  6
CONTINUOUS
 90
10
 70
0
 10
-31.0805040947
 20
-24.5604737593
 10
-31.0829359829
 20
-24.6404357858
 10
-31.0881615105
 20
-24.7230146323
 10
-31.0961484364
 20
-24.8079509506
 10
-31.1068744453
 20
-24.8950592366
 10
-31.1203013783
 20
-24.9840052475
 10
-31.1363524529
 20
-25.0742920776
 10
-31.1549578769
 20
-25.1655675383
 10
-31.1760776274
 20
-25.2576380635
 10
-31.1996597254
 20
-25.350236368
  0
LINE
  5
2CD
100
AcDbEntity
  8
SUPERFICI
100
AcDbLine
 62
250
  6
CONTINUOUS
 10
-31.0355858481
 20
-23.2993688728
 11
-31.0804811332
 21
-24.5605033527
  0
LWPOLYLINE
  5
2CE
100
AcDbEntity
  8
RACCORDO
100
AcDbPolyline
 62
250
  6
CONTINUOUS
 90
3
 70
0
 10
-32.5046851983
 20
-41.3479672345
 10
-32.5052180422
 20
-41.3577218019
 10
-32.5072587204
 20
-41.3669755712
  0
LWPOLYLINE
  5
2CF
100
AcDbEntity
  8
SUPERFICI
100
AcDbPolyline
 62
250
  6
CONTINUOUS
 90
8
 70
0
 10
-30.5813274292
 20
-18.5768992353
 10
-30.6761583223
 20
-19.2480498301
 10
-30.7609042194
 20
-19.923602171
 10
-30.8359640589
 20
-20.6022981527
 10
-30.905758559
 20
-21.2863627492
 10
-30.965851509
 20
-21.9710048206
 10
-31.0080735499
 20
-22.6438959067
 10
-31.0355858481
 20
-23.2993688728
  0
LWPOLYLINE
  5
2D0
100
AcDbEntity
  8
SUPERFICI
100
AcDbPolyline
 62
7
  6
CONTINUOUS
 90
10
 70
0
 10
-30.5813612147
 20
-18.5788464352
 10
-30.5706241675
 20
-18.5173325332
 10
-30.5563562028
 20
-18.4545336756
 10
-30.5388033723
 20
-18.3915269025
 10
-30.5182682332
 20
-18.3293953452
 10
-30.4951028676
 20
-18.2691973022
 10
-30.4697012263
 20
-18.2119496256
 10
-30.4424957252
 20
-18.1586272308
 10
-30.4139513356
 20
-18.1101448787
 10
-30.3845548554
 20
-18.0673302626
  0
LINE
  5
2D1
100
AcDbEntity
  8
0
100
AcDbLine
 62
7
  6
CONTINUOUS
 10
-35.6795184713
 20
-40.697913916
 11
-35.6470063295
 21
-40.608116911
  0
LINE
  5
2D2
100
AcDbEntity
  8
0
100
AcDbLine
 62
7
  6
CONTINUOUS
 10
-35.5578987705
 20
-40.5691617032
 11
-35.5217763866
 21
-40.4693933796
  0
LINE
  5
2D3
100
AcDbEntity
  8
0
100
AcDbLine
 62
7
  6
CONTINUOUS
 10
-35.4326688277
 20
-40.4304381717
 11
-35.3965464438
 21
-40.3306698481
  0
LINE
  5
2D4
100
AcDbEntity
  8
0
100
AcDbLine
 62
7
  6
CONTINUOUS
 10
-35.3074388848
 20
-40.2917146403
 11
-35.2713165009
 21
-40.1919463167
  0
LINE
  5
2D5
100
AcDbEntity
  8
0
100
AcDbLine
 62
250
  6
CONTINUOUS
 10
-40.2509058748
 20
-39.5684680662
 11
-40.0010729103
 21
-39.2553923954
  0
LINE
  5
2D6
100
AcDbEntity
  8
0
100
AcDbLine
 62
250
  6
CONTINUOUS
 10
-40.47802675
 20
-39.8530823772
 11
-40.5916439702
 21
-39.9954605891
  0
LINE
  5
2D7
100
AcDbEntity
  8
0
100
AcDbLine
 62
250
  6
CONTINUOUS
 10
-40.1144119058
 20
-39.725798096
 11
-39.8645789413
 21
-39.4127224251
  0
LINE
  5
2D8
100
AcDbEntity
  8
0
100
AcDbLine
 62
250
  6
CONTINUOUS
 10
-40.4551503267
 20
-40.1527905189
 11
-40.3415327883
 21
-40.0104123405
  0
LINE
  5
2D9
100
AcDbEntity
  8
0
100
AcDbLine
 62
250
  6
CONTINUOUS
 10
-40.113906811
 20
-39.7461151868
 11
-40.3415327883
 21
-40.0104123405
  0
LWPOLYLINE
  5
2DA
100
AcDbEntity
  8
SUPERFICI
100
AcDbPolyline
 62
250
  6
CONTINUOUS
 90
10
 70
0
 10
-40.5916446236
 20
-39.9954578643
 10
-40.6310045849
 20
-40.036829417
 10
-40.6798824701
 20
-40.0742723925
 10
-40.7372614511
 20
-40.1068648832
 10
-40.8017384164
 20
-40.1337225116
 10
-40.8720154116
 20
-40.1542264593
 10
-40.9470430689
 20
-40.1678810083
 10
-41.0253020288
 20
-40.1741163006
 10
-41.1047207447
 20
-40.1724788243
 10
-41.1832646632
 20
-40.1627475102
  0
LWPOLYLINE
  5
2DB
100
AcDbEntity
  8
RACCORDO
100
AcDbPolyline
 62
250
  6
CONTINUOUS
 90
8
 70
0
 10
-2.5187366619
 20
-41.7940945828
 10
-2.5221265117
 20
-41.7933715772
 10
-2.5277333577
 20
-41.7934009121
 10
-2.5336825178
 20
-41.7948385178
 10
-2.5399158473
 20
-41.7976703436
 10
-2.5463724239
 20
-41.8018687123
 10
-2.5529891433
 20
-41.8073925906
 10
-2.5597013361
 20
-41.8141879901
  0
LWPOLYLINE
  5
2DC
100
AcDbEntity
  8
RACCORDO
100
AcDbPolyline
 62
250
  6
CONTINUOUS
 90
5
 70
0
 10
-2.7703079974
 20
-41.8069627872
 10
-2.7558624518
 20
-41.8102375649
 10
-2.7367223346
 20
-41.815848254
 10
-2.7128911229
 20
-41.823744888
 10
-2.6851214831
 20
-41.8342230198
  0
LWPOLYLINE
  5
2DD
100
AcDbEntity
  8
SUPERFICI
100
AcDbPolyline
 62
250
  6
CONTINUOUS
 90
14
 70
0
 10
-42.3760012315
 20
-30.9780270876
 10
-43.357336987
 20
-30.6779559047
 10
-44.4118968514
 20
-30.3465710229
 10
-45.4711580897
 20
-30.0068631811
 10
-46.5229981459
 20
-29.6638627729
 10
-47.5316222298
 20
-29.3286383505
 10
-48.4744044295
 20
-29.0058149936
 10
-49.3916391731
 20
-28.6803432916
 10
-50.3363134088
 20
-28.3325437289
 10
-51.2911367793
 20
-27.9667410109
 10
-52.2236078075
 20
-27.5949777553
 10
-53.130322219
 20
-27.2189032848
 10
-54.0288086217
 20
-26.8305623062
 10
-54.9066154762
 20
-26.4348017191
  0
LINE
  5
2DE
100
AcDbEntity
  8
RACCORDO
100
AcDbLine
 62
250
  6
CONTINUOUS
 10
-40.1559919987
 20
-32.1038136359
 11
-40.1791559976
 21
-32.0967001964
  0
LINE
  5
2DF
100
AcDbEntity
  8
RACCORDO
100
AcDbLine
 62
7
  6
CONTINUOUS
 10
-40.1505209348
 20
-32.0814311578
 11
-40.1797591983
 21
-32.0724523706
  0
LINE
  5
2E0
100
AcDbEntity
  8
0
100
AcDbLine
 62
7
  6
CONTINUOUS
 10
-40.4642315465
 20
-31.9241015189
 11
-40.4408925376
 21
-31.9312687022
  0
LINE
  5
2E1
100
AcDbEntity
  8
0
100
AcDbLine
 62
7
  6
CONTINUOUS
 10
-40.1910595731
 20
-31.6181930314
 11
-40.474002971
 21
-31.5313038574
  0
LWPOLYLINE
  5
2E2
100
AcDbEntity
  8
SUPERFICI
100
AcDbPolyline
 62
250
  6
CONTINUOUS
 90
16
 70
0
 10
-19.2866382604
 20
-38.0685465753
 10
-18.3066650243
 20
-38.3707743662
 10
-17.2421709313
 20
-38.6901304078
 10
-16.1641944126
 20
-39.006747558
 10
-15.0864821167
 20
-39.3177120284
 10
-14.0450311869
 20
-39.6120457646
 10
-13.0596049825
 20
-39.8813565121
 10
-12.0862741907
 20
-40.1364591547
 10
-11.0676236789
 20
-40.3915775849
 10
-10.0198809186
 20
-40.6407435083
 10
-8.9781159103
 20
-40.8752489968
 10
-7.9463482265
 20
-41.0944635817
 10
-6.9038868375
 20
-41.3021688499
 10
-5.8645418052
 20
-41.4951470181
 10
-4.8733331429
 20
-41.66522294
 10
-3.9516725594
 20
-41.8127126416
  0
LWPOLYLINE
  5
2E3
100
AcDbEntity
  8
SUPERFICI
100
AcDbPolyline
 62
250
  6
CONTINUOUS
 90
10
 70
0
 10
-41.9196212867
 20
-22.7842504067
 10
-41.9687867435
 20
-22.7256595501
 10
-42.0247902076
 20
-22.6697599771
 10
-42.0873664337
 20
-22.6167515096
 10
-42.1563569578
 20
-22.5667622046
 10
-42.2313986965
 20
-22.5200798091
 10
-42.3118359226
 20
-22.4770988044
 10
-42.397184932
 20
-22.4380314591
 10
-42.4872220068
 20
-22.4029608233
 10
-42.5816103221
 20
-22.3720350868
  0
LWPOLYLINE
  5
2E4
100
AcDbEntity
  8
RACCORDO
100
AcDbPolyline
 62
7
  6
CONTINUOUS
 90
4
 70
0
 10
-32.5066996807
 20
-40.892574865
 10
-32.5068510516
 20
-40.8913526773
 10
-32.5079946158
 20
-40.8893813083
 10
-32.5100940525
 20
-40.8882024466
  0
LINE
  5
2E5
100
AcDbEntity
  8
0
100
AcDbLine
 62
7
  6
CONTINUOUS
 10
-29.1141367897
 20
-43.1240379036
 11
-29.11464221
 21
-43.1037207128
  0
LWPOLYLINE
  5
2E6
100
AcDbEntity
  8
RACCORDO
100
AcDbPolyline
 62
250
  6
CONTINUOUS
 90
3
 70
0
 10
-32.4974034305
 20
-41.3326008843
 10
-32.4961045881
 20
-41.3246400943
 10
-32.4960383441
 20
-41.3211453508
  0
LINE
  5
2E7
100
AcDbEntity
  8
0
100
AcDbLine
 62
7
  6
CONTINUOUS
 10
-32.9209081847
 20
-41.5450563868
 11
-32.8946979623
 21
-41.4533241234
  0
LINE
  5
2E8
100
AcDbEntity
  8
0
100
AcDbLine
 62
7
  6
CONTINUOUS
 10
-32.8219277095
 20
-41.4093518873
 11
-32.7928070283
 21
-41.3074334087
  0
LINE
  5
2E9
100
AcDbEntity
  8
0
100
AcDbLine
 62
7
  6
CONTINUOUS
 10
-32.7200367756
 20
-41.2634611725
 11
-32.6909160944
 21
-41.1615426939
  0
LINE
  5
2EA
100
AcDbEntity
  8
0
100
AcDbLine
 62
7
  6
CONTINUOUS
 10
-32.6181458416
 20
-41.1175704577
 11
-32.5890251604
 21
-41.0156519791
  0
LINE
  5
2EB
100
AcDbEntity
  8
RACCORDO
100
AcDbLine
 62
250
  6
CONTINUOUS
 10
-32.5072587204
 20
-41.3669755712
 11
-32.5108025907
 21
-41.3755620659
  0
LWPOLYLINE
  5
2EC
100
AcDbEntity
  8
RACCORDO
100
AcDbPolyline
 62
7
  6
CONTINUOUS
 90
29
 70
0
 10
-2.5205934466
 20
-41.7935341175
 10
-2.5302845888
 20
-41.79080799
 10
-2.5400620459
 20
-41.7884021782
 10
-2.5499078082
 20
-41.786306446
 10
-2.559806558
 20
-41.7845097765
 10
-2.5697662122
 20
-41.7829980281
 10
-2.5797736861
 20
-41.7817620218
 10
-2.5898117234
 20
-41.7807930984
 10
-2.5998812117
 20
-41.7800813103
 10
-2.6099690155
 20
-41.779618768
 10
-2.620057843
 20
-41.7793977796
 10
-2.6301412775
 20
-41.7794105872
 10
-2.6402055411
 20
-41.7796499861
 10
-2.65023285
 20
-41.7801086981
 10
-2.6602100213
 20
-41.7807796441
 10
-2.6701230151
 20
-41.7816559286
 10
-2.6799530373
 20
-41.7827303111
 10
-2.6896795542
 20
-41.7839951638
 10
-2.6992860631
 20
-41.785443246
 10
-2.7087551722
 20
-41.7870672784
 10
-2.7180655236
 20
-41.7888592625
 10
-2.7271692106
 20
-41.7908050151
 10
-2.7360813191
 20
-41.7929033375
 10
-2.7448685271
 20
-41.7951699331
 10
-2.7535018318
 20
-41.7976007085
 10
-2.7619566864
 20
-41.800192786
 10
-2.7702881823
 20
-41.8029714415
 10
-2.778462455
 20
-41.8059388812
 10
-2.7803610363
 20
-41.8066655851
  0
LINE
  5
2ED
100
AcDbEntity
  8
RACCORDO
100
AcDbLine
 62
250
  6
CONTINUOUS
 10
-2.7133349021
 20
-41.8262362329
 11
-2.6851214831
 21
-41.8342230198
  0
LINE
  5
2EE
100
AcDbEntity
  8
RACCORDO
100
AcDbLine
 62
250
  6
CONTINUOUS
 10
-2.7469555183
 20
-42.3507197293
 11
-2.8234591447
 21
-42.3272262074
  0
LINE
  5
2EF
100
AcDbEntity
  8
RACCORDO
100
AcDbLine
 62
250
  6
CONTINUOUS
 10
-2.5597013361
 20
-41.8141879901
 11
-2.2814673901
 21
-41.8996309372
  0
LINE
  5
2F0
100
AcDbEntity
  8
RACCORDO
100
AcDbLine
 62
7
  6
CONTINUOUS
 10
-2.5205934466
 20
-41.7935341175
 11
-2.2363562644
 21
-41.8808108599
  0
LINE
  5
2F1
100
AcDbEntity
  8
0
100
AcDbLine
 62
7
  6
CONTINUOUS
 10
-40.4891125028
 20
-29.9928932291
 11
-40.5124515117
 21
-29.9857260458
  0
LWPOLYLINE
  5
2F2
100
AcDbEntity
  8
RACCORDO
100
AcDbPolyline
 62
250
  6
CONTINUOUS
 90
3
 70
0
 10
-32.5046851983
 20
-41.3479672345
 10
-32.5002789606
 20
-41.3404182646
 10
-32.4974034305
 20
-41.3326008843
  0
LINE
  5
2F3
100
AcDbEntity
  8
RACCORDO
100
AcDbLine
 62
250
  6
CONTINUOUS
 10
-32.5108025907
 20
-41.3755620659
 11
-32.5142397303
 21
-41.3811999766
  0
LINE
  5
2F4
100
AcDbEntity
  8
RACCORDO
100
AcDbLine
 62
7
  6
CONTINUOUS
 10
-32.5177015066
 20
-40.9135284788
 11
-32.5890251604
 21
-41.0156519791
  0
LINE
  5
2F5
100
AcDbEntity
  8
0
100
AcDbLine
 62
7
  6
CONTINUOUS
 10
-32.7520506547
 20
-41.2490771228
 11
-32.7928070283
 21
-41.3074334087
  0
LINE
  5
2F6
100
AcDbEntity
  8
0
100
AcDbLine
 62
7
  6
CONTINUOUS
 10
-32.6501597208
 20
-41.103186408
 11
-32.6909160944
 21
-41.1615426939
  0
LINE
  5
2F7
100
AcDbEntity
  8
0
100
AcDbLine
 62
7
  6
CONTINUOUS
 10
-32.8539415887
 20
-41.3949678375
 11
-32.8946979623
 21
-41.4533241234
  0
LINE
  5
2F8
100
AcDbEntity
  8
RACCORDO
100
AcDbLine
 62
250
  6
CONTINUOUS
 10
-32.6927685878
 20
-41.6151158449
 11
-32.5046851983
 21
-41.3479672345
  0
LINE
  5
2F9
100
AcDbEntity
  8
RACCORDO
100
AcDbLine
 62
7
  6
CONTINUOUS
 10
-32.681386732
 20
-41.6186111024
 11
-32.5142397303
 21
-41.3811999766
  0
LWPOLYLINE
  5
2FA
100
AcDbEntity
  8
RACCORDO
100
AcDbPolyline
 62
7
  6
CONTINUOUS
 90
5
 70
0
 10
-32.5155658395
 20
-40.9105806058
 10
-32.5110406605
 20
-40.9043343682
 10
-32.5081868278
 20
-40.8989297444
 10
-32.506850833
 20
-40.8945104302
 10
-32.5066996807
 20
-40.892574865
  0
LINE
  5
2FB
100
AcDbEntity
  8
RACCORDO
100
AcDbLine
 62
7
  6
CONTINUOUS
 10
-35.183655541
 20
-40.0948398446
 11
-35.2713165009
 21
-40.1919463167
  0
LINE
  5
2FC
100
AcDbEntity
  8
0
100
AcDbLine
 62
7
  6
CONTINUOUS
 10
-35.3464544666
 20
-40.2751804355
 11
-35.3965464438
 21
-40.3306698481
  0
LINE
  5
2FD
100
AcDbEntity
  8
0
100
AcDbLine
 62
7
  6
CONTINUOUS
 10
-35.4716844095
 20
-40.413903967
 11
-35.5217763866
 21
-40.4693933796
  0
LINE
  5
2FE
100
AcDbEntity
  8
0
100
AcDbLine
 62
7
  6
CONTINUOUS
 10
-35.5969143523
 20
-40.5526274984
 11
-35.6470063295
 21
-40.608116911
  0
LWPOLYLINE
  5
2FF
100
AcDbEntity
  8
RACCORDO
100
AcDbPolyline
 62
7
  6
CONTINUOUS
 90
6
 70
0
 10
-35.1810312861
 20
-40.0920420122
 10
-35.173815882
 20
-40.0866219167
 10
-35.1656375469
 20
-40.082852396
 10
-35.1567735594
 20
-40.0807448553
 10
-35.1475329918
 20
-40.0804248583
 10
-35.1380915955
 20
-40.0817040279
  0
LWPOLYLINE
  5
300
100
AcDbEntity
  8
SUPERFICI
100
AcDbPolyline
 62
250
  6
CONTINUOUS
 90
10
 70
0
 10
-20.4361901842
 20
-29.3816045652
 10
-20.4822951161
 20
-29.3867286191
 10
-20.5288454261
 20
-29.3891268734
 10
-20.5754359895
 20
-29.3887799359
 10
-20.6215751387
 20
-29.3857006867
 10
-20.6669514572
 20
-29.3799191921
 10
-20.7114192467
 20
-29.3714317274
 10
-20.754646031
 20
-29.3602460895
 10
-20.7961344685
 20
-29.3464329455
 10
-20.8354771255
 20
-29.3300757751
  0
LWPOLYLINE
  5
301
100
AcDbEntity
  8
SUPERFICI
100
AcDbPolyline
 62
250
  6
CONTINUOUS
 90
7
 70
0
 10
-56.7308161066
 20
-14.7004906341
 10
-56.7864398972
 20
-14.6699063956
 10
-56.8339891188
 20
-14.6343753423
 10
-56.8724331486
 20
-14.5947019827
 10
-56.9009736199
 20
-14.55173372
 10
-56.9189631887
 20
-14.5064708826
 10
-56.9264623505
 20
-14.4580505939
  0
LINE
  5
302
100
AcDbEntity
  8
0
100
AcDbLine
 62
7
  6
CONTINUOUS
 10
-31.3413163034
 20
-42.4199306891
 11
-31.0914833389
 21
-42.1068550183
  0
LWPOLYLINE
  5
303
100
AcDbEntity
  8
SUPERFICI
100
AcDbPolyline
 62
250
  6
CONTINUOUS
 90
10
 70
0
 10
-4.2281035387
 20
-30.823564583
 10
-4.1551591699
 20
-30.8324623814
 10
-4.08075322
 20
-30.83438258
 10
-4.0065428141
 20
-30.8293043062
 10
-3.9340958964
 20
-30.8173482919
 10
-3.8650922501
 20
-30.7988002273
 10
-3.8012442094
 20
-30.7741721745
 10
-3.7439409453
 20
-30.7441128893
 10
-3.6942678633
 20
-30.7093218231
 10
-3.6531924711
 20
-30.6706059335
  0
LWPOLYLINE
  5
304
100
AcDbEntity
  8
SUPERFICI
100
AcDbPolyline
 62
250
  6
CONTINUOUS
 90
10
 70
0
 10
-19.4792767464
 20
-29.4665395825
 10
-19.5793069925
 20
-29.4377843098
 10
-19.6820177273
 20
-29.413728159
 10
-19.7869939487
 20
-29.3944326005
 10
-19.8939764164
 20
-29.3799416255
 10
-20.0023847052
 20
-29.3703500815
 10
-20.1112982851
 20
-29.365730315
 10
-20.220111106
 20
-29.366074347
 10
-20.3285503992
 20
-29.3713672372
 10
-20.4361892722
 20
-29.3816040691
  0
LINE
  5
305
100
AcDbEntity
  8
RACCORDO
100
AcDbLine
 62
250
  6
CONTINUOUS
 10
-40.372981842
 20
-23.3811240069
 11
-40.3961458409
 21
-23.3740105675
  0
LINE
  5
306
100
AcDbEntity
  8
RACCORDO
100
AcDbLine
 62
7
  6
CONTINUOUS
 10
-40.3675107782
 20
-23.3587415289
 11
-40.3967490416
 21
-23.3497627417
  0
LINE
  5
307
100
AcDbEntity
  8
SUPERFICI
100
AcDbLine
 62
7
  6
CONTINUOUS
 10
-41.0455533947
 20
-22.797699627
 11
-21.2726874456
 21
-28.8697550368
  0
LINE
  5
308
100
AcDbEntity
  8
SUPERFICI
100
AcDbLine
 62
250
  6
CONTINUOUS
 10
-41.0528672048
 20
-22.794971817
 11
-41.0455533947
 21
-22.797699627
  0
LWPOLYLINE
  5
309
100
AcDbEntity
  8
RACCORDO
100
AcDbPolyline
 62
7
  6
CONTINUOUS
 90
4
 70
0
 10
-22.4866662605
 20
-43.9696299714
 10
-22.4868176314
 20
-43.9684077837
 10
-22.4879611957
 20
-43.9664364146
 10
-22.4900606323
 20
-43.9652575529
  0
LINE
  5
30A
100
AcDbEntity
  8
SUPERFICI
100
AcDbLine
 62
7
  6
CONTINUOUS
 10
-21.0342806221
 20
-29.0859869656
 11
-21.0341017755
 21
-29.0891183222
  0
LINE
  5
30B
100
AcDbEntity
  8
RACCORDO
100
AcDbLine
 62
250
  6
CONTINUOUS
 10
-22.4846517781
 20
-44.4250223408
 11
-22.4955324193
 21
-43.9876357121
  0
LINE
  5
30C
100
AcDbEntity
  8
RACCORDO
100
AcDbLine
 62
7
  6
CONTINUOUS
 10
-22.476004924
 20
-44.3982004571
 11
-22.4866636812
 21
-43.9697332532
  0
LINE
  5
30D
100
AcDbEntity
  8
SUPERFICI
100
AcDbLine
 62
7
  6
CONTINUOUS
 10
-21.0342772559
 20
-29.0859877888
 11
-20.6060839651
 21
-46.2987619899
  0
LWPOLYLINE
  5
30E
100
AcDbEntity
  8
SUPERFICI
100
AcDbPolyline
 62
250
  6
CONTINUOUS
 90
10
 70
0
 10
-21.1827743869
 20
-27.4716930035
 10
-21.1831893978
 20
-27.5609069953
 10
-21.1870661737
 20
-27.6535879448
 10
-21.1943673306
 20
-27.7493592055
 10
-21.2050734783
 20
-27.847989463
 10
-21.2191375414
 20
-27.9489506511
 10
-21.2364352715
 20
-28.0513885756
 10
-21.2568508132
 20
-28.154736793
 10
-21.2803261797
 20
-28.2587459091
 10
-21.3067808975
 20
-28.3630208986
  0
LWPOLYLINE
  5
30F
100
AcDbEntity
  8
RACCORDO
100
AcDbPolyline
 62
250
  6
CONTINUOUS
 90
3
 70
0
 10
-22.4846517781
 20
-44.4250223408
 10
-22.4851846221
 20
-44.4347769083
 10
-22.4872253002
 20
-44.4440306775
  0
LWPOLYLINE
  5
310
100
AcDbEntity
  8
SUPERFICI
100
AcDbPolyline
 62
250
  6
CONTINUOUS
 90
10
 70
0
 10
-21.3067808686
 20
-28.3630210956
 10
-21.319135753
 20
-28.4091244607
 10
-21.3297134468
 20
-28.4550626429
 10
-21.3384174545
 20
-28.5004136731
 10
-21.3451572742
 20
-28.544675587
 10
-21.3498909216
 20
-28.5875334953
 10
-21.3525855757
 20
-28.6288319146
 10
-21.353179615
 20
-28.6682283389
 10
-21.3516238472
 20
-28.7052290605
 10
-21.3478966131
 20
-28.7394350672
  0
LINE
  5
311
100
AcDbEntity
  8
DRAFT
100
AcDbLine
 62
7
  6
CONTINUOUS
 10
-25.6594850511
 20
-43.7749690223
 11
-25.6269729093
 21
-43.6851720174
  0
LINE
  5
312
100
AcDbEntity
  8
DRAFT
100
AcDbLine
 62
7
  6
CONTINUOUS
 10
-25.5378653503
 20
-43.6462168095
 11
-25.5017429664
 21
-43.5464484859
  0
LINE
  5
313
100
AcDbEntity
  8
DRAFT
100
AcDbLine
 62
7
  6
CONTINUOUS
 10
-25.4126354075
 20
-43.5074932781
 11
-25.3765130236
 21
-43.4077249545
  0
LINE
  5
314
100
AcDbEntity
  8
DRAFT
100
AcDbLine
 62
7
  6
CONTINUOUS
 10
-25.2874054647
 20
-43.3687697466
 11
-25.2512830808
 21
-43.269001423
  0
LINE
  5
315
100
AcDbEntity
  8
0
100
AcDbLine
 62
7
  6
CONTINUOUS
 10
-28.8648092455
 20
-42.7906450419
 11
-29.11464221
 21
-43.1037207128
  0
LWPOLYLINE
  5
316
100
AcDbEntity
  8
SUPERFICI
100
AcDbPolyline
 62
250
  6
CONTINUOUS
 90
10
 70
0
 10
-41.6114595317
 20
-22.9499730278
 10
-41.6547566935
 20
-22.9408576693
 10
-41.6966709916
 20
-22.9291783639
 10
-41.736815034
 20
-22.9149951157
 10
-41.774833931
 20
-22.8983792189
 10
-41.8103241932
 20
-22.8794492337
 10
-41.8428587932
 20
-22.8583865168
 10
-41.8720985802
 20
-22.8353773593
 10
-41.8977745612
 20
-22.8105962198
 10
-41.919621003
 20
-22.7842512699
  0
LWPOLYLINE
  5
317
100
AcDbEntity
  8
SUPERFICI
100
AcDbPolyline
 62
250
  6
CONTINUOUS
 90
13
 70
0
 10
-41.0796456016
 20
-22.290965683
 10
-41.1906520084
 20
-22.2622927744
 10
-41.2999274936
 20
-22.2470135898
 10
-41.4055047355
 20
-22.2454993669
 10
-41.5054588815
 20
-22.2579409288
 10
-41.5979511877
 20
-22.2841333663
 10
-41.6813168391
 20
-22.3234901151
 10
-41.7540665887
 20
-22.3753906691
 10
-41.8148302614
 20
-22.4389956814
 10
-41.8624888454
 20
-22.5130517234
 10
-41.8962022668
 20
-22.5962297376
 10
-41.9153638899
 20
-22.6871553404
 10
-41.9196215703
 20
-22.7842495435
  0
LINE
  5
318
100
AcDbEntity
  8
SUPERFICI
100
AcDbLine
 62
250
  6
CONTINUOUS
 10
-22.6277727576
 20
-27.0584972379
 11
-21.1832192785
 21
-27.4716016773
  0
LINE
  5
319
100
AcDbEntity
  8
SUPERFICI
100
AcDbLine
 62
250
  6
CONTINUOUS
 10
-24.9416440725
 20
-26.3864871222
 11
-22.6277727576
 21
-27.0584972379
  0
LINE
  5
31A
100
AcDbEntity
  8
SUPERFICI
100
AcDbLine
 62
250
  6
CONTINUOUS
 10
-28.2232272532
 20
-25.4168353528
 11
-24.9416440725
 21
-26.3864871222
  0
LINE
  5
31B
100
AcDbEntity
  8
SUPERFICI
100
AcDbLine
 62
250
  6
CONTINUOUS
 10
-21.3067808686
 20
-28.3630210956
 11
-25.7234518615
 21
-27.0258538608
  0
LWPOLYLINE
  5
31C
100
AcDbEntity
  8
SUPERFICI
100
AcDbPolyline
 62
250
  6
CONTINUOUS
 90
3
 70
0
 10
-31.0804811332
 20
-24.5605033527
 10
-30.7361668398
 20
-24.6650343407
 10
-28.2232272532
 20
-25.4168353528
  0
LINE
  5
31D
100
AcDbEntity
  8
SUPERFICI
100
AcDbLine
 62
250
  6
CONTINUOUS
 10
-25.7234518615
 20
-27.0258538608
 11
-27.9050417334
 21
-26.362410391
  0
LWPOLYLINE
  5
31E
100
AcDbEntity
  8
SUPERFICI
100
AcDbPolyline
 62
250
  6
CONTINUOUS
 90
16
 70
0
 10
-21.1832192785
 20
-27.4716016773
 10
-21.0510895203
 20
-27.5118771722
 10
-20.914107463
 20
-27.5650475129
 10
-20.7731855672
 20
-27.6312796873
 10
-20.6292368648
 20
-27.7107712543
 10
-20.4838023143
 20
-27.8038243751
 10
-20.3390293115
 20
-27.9108639768
 10
-20.1957526279
 20
-28.0331705148
 10
-20.0565700171
 20
-28.1705268948
 10
-19.9260580466
 20
-28.3211839894
 10
-19.8030533169
 20
-28.4876026612
 10
-19.6917025508
 20
-28.6689182465
 10
-19.6028555267
 20
-28.8579585944
 10
-19.5395445244
 20
-29.0523717384
 10
-19.4984054553
 20
-29.2551395991
 10
-19.4792767464
 20
-29.4665395825
  0
LINE
  5
31F
100
AcDbEntity
  8
SUPERFICI
100
AcDbLine
 62
250
  6
CONTINUOUS
 10
-31.1996595764
 20
-25.350236414
 11
-33.3992790995
 21
-24.6762890693
  0
LWPOLYLINE
  5
320
100
AcDbEntity
  8
SUPERFICI
100
AcDbPolyline
 62
250
  6
CONTINUOUS
 90
3
 70
0
 10
-27.9050417334
 20
-26.362410391
 10
-30.0994269623
 20
-25.6894990638
 10
-31.1996595764
 20
-25.350236414
  0
LWPOLYLINE
  5
321
100
AcDbEntity
  8
SUPERFICI
100
AcDbPolyline
 62
250
  6
CONTINUOUS
 90
16
 70
0
 10
-40.9243928625
 20
-21.4092786855
 10
-41.0549629513
 20
-21.3688816046
 10
-41.1903281373
 20
-21.3384167476
 10
-41.3295619194
 20
-21.3186158298
 10
-41.4717228069
 20
-21.310245916
 10
-41.6152352922
 20
-21.3145662037
 10
-41.7579104093
 20
-21.333333275
 10
-41.8988359091
 20
-21.3683640782
 10
-42.035349701
 20
-21.4210567661
 10
-42.1628450181
 20
-21.4924823244
 10
-42.2823446872
 20
-21.5844302468
 10
-42.3896501301
 20
-21.6985986304
 10
-42.4740566931
 20
-21.8344344816
 10
-42.5325561606
 20
-21.9914408115
 10
-42.5683659783
 20
-22.1705784152
 10
-42.5815788524
 20
-22.372046612
  0
LINE
  5
322
100
AcDbEntity
  8
SUPERFICI
100
AcDbLine
 62
250
  6
CONTINUOUS
 10
-33.3992790995
 20
-24.6762890693
 11
-35.5855711199
 21
-24.0011683391
  0
LINE
  5
323
100
AcDbEntity
  8
SUPERFICI
100
AcDbLine
 62
250
  6
CONTINUOUS
 10
-35.5855711199
 20
-24.0011683391
 11
-38.865789005
 21
-22.9811497259
  0
LINE
  5
324
100
AcDbEntity
  8
SUPERFICI
100
AcDbLine
 62
250
  6
CONTINUOUS
 10
-38.865789005
 20
-22.9811497259
 11
-41.0796468177
 21
-22.2909656858
  0
LINE
  5
325
100
AcDbEntity
  8
SUPERFICI
100
AcDbLine
 62
250
  6
CONTINUOUS
 10
-31.0804813528
 20
-24.5604949918
 11
-31.7730994026
 21
-24.344401479
  0
LINE
  5
326
100
AcDbEntity
  8
SUPERFICI
100
AcDbLine
 62
250
  6
CONTINUOUS
 10
-31.7730994026
 20
-24.344401479
 11
-33.1645806329
 21
-23.9065800243
  0
LINE
  5
327
100
AcDbEntity
  8
SUPERFICI
100
AcDbLine
 62
250
  6
CONTINUOUS
 10
-33.1645806329
 20
-23.9065800243
 11
-35.0904858152
 21
-23.2963752512
  0
LINE
  5
328
100
AcDbEntity
  8
SUPERFICI
100
AcDbLine
 62
250
  6
CONTINUOUS
 10
-35.0904858152
 20
-23.2963752512
 11
-37.623362711
 21
-22.4858451467
  0
LINE
  5
329
100
AcDbEntity
  8
SUPERFICI
100
AcDbLine
 62
250
  6
CONTINUOUS
 10
-37.623362711
 20
-22.4858451467
 11
-39.0125386754
 21
-22.0357449499
  0
LINE
  5
32A
100
AcDbEntity
  8
SUPERFICI
100
AcDbLine
 62
250
  6
CONTINUOUS
 10
-39.0125386754
 20
-22.0357449499
 11
-39.973100175
 21
-21.722542338
  0
LINE
  5
32B
100
AcDbEntity
  8
SUPERFICI
100
AcDbLine
 62
250
  6
CONTINUOUS
 10
-39.973100175
 20
-21.722542338
 11
-40.9243928625
 21
-21.4092786855
  0
LWPOLYLINE
  5
32C
100
AcDbEntity
  8
SUPERFICI
100
AcDbPolyline
 62
250
  6
CONTINUOUS
 90
8
 70
0
 10
-56.7736618346
 20
-11.2881719425
 10
-56.8338444133
 20
-11.2586725349
 10
-56.8848927848
 20
-11.2245360341
 10
-56.9262480904
 20
-11.1864469978
 10
-56.9574961657
 20
-11.1448541002
 10
-56.9777431935
 20
-11.1007495467
 10
-56.9863220983
 20
-11.055782637
 10
-56.9866446363
 20
-11.0463463211
  0
LWPOLYLINE
  5
32D
100
AcDbEntity
  8
SUPERFICI
100
AcDbPolyline
 62
250
  6
CONTINUOUS
 90
7
 70
0
 10
-20.8354771255
 20
-29.3300757751
 10
-20.8920934333
 20
-29.2994542985
 10
-20.940817221
 20
-29.2634747869
 10
-20.9803787091
 20
-29.2228850341
 10
-21.0096552348
 20
-29.178632207
 10
-21.0278460984
 20
-29.1316474979
 10
-21.0342772559
 20
-29.0859877888
  0
LWPOLYLINE
  5
32E
100
AcDbEntity
  8
SUPERFICI
100
AcDbPolyline
 62
250
  6
CONTINUOUS
 90
6
 70
0
 10
-21.3478966131
 20
-28.7394350672
 10
-21.3380070469
 20
-28.7854630217
 10
-21.3231944781
 20
-28.8227189209
 10
-21.303719719
 20
-28.8501841111
 10
-21.2800008312
 20
-28.8670274142
 10
-21.2726874456
 20
-28.8697550368
  0
LWPOLYLINE
  5
32F
100
AcDbEntity
  8
SUPERFICI
100
AcDbPolyline
 62
250
  6
CONTINUOUS
 90
13
 70
0
 10
-20.4361883601
 20
-29.3816035731
 10
-20.4442926051
 20
-29.2806398946
 10
-20.4672756347
 20
-29.1767202021
 10
-20.5046921743
 20
-29.0716698944
 10
-20.5558168718
 20
-28.9672773207
 10
-20.6197524619
 20
-28.8653963772
 10
-20.6953944326
 20
-28.7679455908
 10
-20.7813088019
 20
-28.6766174813
 10
-20.8759572733
 20
-28.5929719489
 10
-20.9777271755
 20
-28.5186086548
 10
-21.0847746172
 20
-28.4548578772
 10
-21.1951184745
 20
-28.4027176848
 10
-21.3067809264
 20
-28.3630207016
  0
LINE
  5
330
100
AcDbEntity
  8
SUPERFICI
100
AcDbLine
 62
250
  6
CONTINUOUS
 10
-19.0521051494
 20
-46.6382431155
 11
-19.1082203434
 21
-45.4654453865
  0
LWPOLYLINE
  5
331
100
AcDbEntity
  8
SUPERFICI
100
AcDbPolyline
 62
250
  6
CONTINUOUS
 90
3
 70
0
 10
-19.1082203434
 20
-45.4654453865
 10
-19.1345267299
 20
-44.8341440578
 10
-19.1551805761
 20
-44.1822136921
  0
LINE
  5
332
100
AcDbEntity
  8
SUPERFICI
100
AcDbLine
 62
250
  6
CONTINUOUS
 10
-19.4231399161
 20
-33.312773681
 11
-19.3759429591
 21
-34.789528027
  0
LWPOLYLINE
  5
333
100
AcDbEntity
  8
SUPERFICI
100
AcDbPolyline
 62
250
  6
CONTINUOUS
 90
3
 70
0
 10
-20.0079968933
 20
-46.5943787663
 10
-20.0644902347
 20
-44.7137094169
 10
-20.0909771837
 20
-43.7662087672
  0
LWPOLYLINE
  5
334
100
AcDbEntity
  8
SUPERFICI
100
AcDbPolyline
 62
250
  6
CONTINUOUS
 90
5
 70
0
 10
-19.3759429591
 20
-34.789528027
 10
-19.3573045876
 20
-35.5652193622
 10
-19.3429389141
 20
-36.3666596831
 10
-19.3221680587
 20
-37.1996091895
 10
-19.2866382508
 20
-38.0685465787
  0
LINE
  5
335
100
AcDbEntity
  8
SUPERFICI
100
AcDbLine
 62
250
  6
CONTINUOUS
 10
-20.0909771837
 20
-43.7662087672
 11
-20.3784012379
 21
-32.2121053552
  0
LINE
  5
336
100
AcDbEntity
  8
SUPERFICI
100
AcDbLine
 62
250
  6
CONTINUOUS
 10
-19.1551805761
 20
-44.1822136921
 11
-19.1867591581
 21
-42.8149510116
  0
LWPOLYLINE
  5
337
100
AcDbEntity
  8
SUPERFICI
100
AcDbPolyline
 62
250
  6
CONTINUOUS
 90
3
 70
0
 10
-20.3784012379
 20
-32.2121053552
 10
-20.4183279821
 20
-30.3206393487
 10
-20.4361901842
 20
-29.3816045652
  0
LWPOLYLINE
  5
338
100
AcDbEntity
  8
SUPERFICI
100
AcDbPolyline
 62
250
  6
CONTINUOUS
 90
6
 70
0
 10
-19.1867591581
 20
-42.8149510116
 10
-19.2128635592
 20
-41.3450925931
 10
-19.2328417733
 20
-40.5684510628
 10
-19.2584536509
 20
-39.7628498255
 10
-19.2791399796
 20
-38.9292784898
 10
-19.2866382604
 20
-38.0685465753
  0
LWPOLYLINE
  5
339
100
AcDbEntity
  8
SUPERFICI
100
AcDbPolyline
 62
250
  6
CONTINUOUS
 90
5
 70
0
 10
-19.4792767464
 20
-29.4665395825
 10
-19.4767600041
 20
-30.6506640029
 10
-19.4716074263
 20
-31.2839692449
 10
-19.4597530023
 20
-31.938826145
 10
-19.4231399161
 20
-33.312773681
  0
LWPOLYLINE
  5
33A
100
AcDbEntity
  8
RACCORDO
100
AcDbPolyline
 62
250
  6
CONTINUOUS
 90
3
 70
0
 10
-22.4773700103
 20
-44.4096559906
 10
-22.4760711679
 20
-44.4016952006
 10
-22.476004924
 20
-44.3982004571
  0
LINE
  5
33B
100
AcDbEntity
  8
DRAFT
100
AcDbLine
 62
7
  6
CONTINUOUS
 10
-22.9008747645
 20
-44.6221114931
 11
-22.8746645421
 21
-44.5303792298
  0
LINE
  5
33C
100
AcDbEntity
  8
DRAFT
100
AcDbLine
 62
7
  6
CONTINUOUS
 10
-22.8018942894
 20
-44.4864069936
 11
-22.7727736081
 21
-44.384488515
  0
LINE
  5
33D
100
AcDbEntity
  8
DRAFT
100
AcDbLine
 62
7
  6
CONTINUOUS
 10
-22.7000033554
 20
-44.3405162789
 11
-22.6708826742
 21
-44.2385978002
  0
LINE
  5
33E
100
AcDbEntity
  8
DRAFT
100
AcDbLine
 62
7
  6
CONTINUOUS
 10
-22.5981124215
 20
-44.1946255641
 11
-22.5689917402
 21
-44.0927070855
  0
LINE
  5
33F
100
AcDbEntity
  8
RACCORDO
100
AcDbLine
 62
250
  6
CONTINUOUS
 10
-22.4872253002
 20
-44.4440306775
 11
-22.4907691706
 21
-44.4526171722
  0
LINE
  5
340
100
AcDbEntity
  8
RACCORDO
100
AcDbLine
 62
7
  6
CONTINUOUS
 10
-25.1636221208
 20
-43.171894951
 11
-25.2512830808
 21
-43.269001423
  0
LINE
  5
341
100
AcDbEntity
  8
DRAFT
100
AcDbLine
 62
7
  6
CONTINUOUS
 10
-25.3264210465
 20
-43.3522355419
 11
-25.3765130236
 21
-43.4077249545
  0
LINE
  5
342
100
AcDbEntity
  8
DRAFT
100
AcDbLine
 62
7
  6
CONTINUOUS
 10
-25.4516509893
 20
-43.4909590733
 11
-25.5017429664
 21
-43.5464484859
  0
LINE
  5
343
100
AcDbEntity
  8
DRAFT
100
AcDbLine
 62
7
  6
CONTINUOUS
 10
-25.5768809321
 20
-43.6296826048
 11
-25.6269729093
 21
-43.6851720174
  0
LWPOLYLINE
  5
344
100
AcDbEntity
  8
SUPERFICI
100
AcDbPolyline
 62
7
  6
CONTINUOUS
 90
15
 70
0
 10
-21.0341017755
 20
-29.0891183222
 10
-21.0347266246
 20
-29.086300601
 10
-21.0372902227
 20
-29.0779176535
 10
-21.0427234626
 20
-29.0645528974
 10
-21.0515751428
 20
-29.0472460756
 10
-21.0640079543
 20
-29.0272058986
 10
-21.0800764786
 20
-29.0053625055
 10
-21.0995896703
 20
-28.9826933349
 10
-21.1220194555
 20
-28.9602629881
 10
-21.1468692747
 20
-28.9388283793
 10
-21.1733216539
 20
-28.9192079615
 10
-21.2001106636
 20
-28.9022437807
 10
-21.2261518571
 20
-28.8883337707
 10
-21.2506392524
 20
-28.8775259481
 10
-21.2726873762
 20
-28.8697609115
  0
LWPOLYLINE
  5
345
100
AcDbEntity
  8
SUPERFICI
100
AcDbPolyline
 62
250
  6
CONTINUOUS
 90
7
 70
0
 10
-20.7815270439
 20
-46.3902530706
 10
-20.8107600965
 20
-46.4580818725
 10
-20.8368538492
 20
-46.5298727127
 10
-20.8592298592
 20
-46.6042898289
 10
-20.8772576508
 20
-46.6796732356
 10
-20.8903298612
 20
-46.7540360602
 10
-20.8979804045
 20
-46.825443646
  0
LWPOLYLINE
  5
346
100
AcDbEntity
  8
RACCORDO
100
AcDbPolyline
 62
250
  6
CONTINUOUS
 90
3
 70
0
 10
-22.4846517781
 20
-44.4250223408
 10
-22.4802455404
 20
-44.4174733709
 10
-22.4773700103
 20
-44.4096559906
  0
LINE
  5
347
100
AcDbEntity
  8
RACCORDO
100
AcDbLine
 62
250
  6
CONTINUOUS
 10
-22.4907691706
 20
-44.4526171722
 11
-22.4942063101
 21
-44.458255083
  0
LINE
  5
348
100
AcDbEntity
  8
RACCORDO
100
AcDbLine
 62
7
  6
CONTINUOUS
 10
-22.4976680865
 20
-43.9905835851
 11
-22.5689917402
 21
-44.0927070855
  0
LINE
  5
349
100
AcDbEntity
  8
DRAFT
100
AcDbLine
 62
7
  6
CONTINUOUS
 10
-22.6301263006
 20
-44.1802415143
 11
-22.6708826742
 21
-44.2385978002
  0
LINE
  5
34A
100
AcDbEntity
  8
DRAFT
100
AcDbLine
 62
7
  6
CONTINUOUS
 10
-22.8339081685
 20
-44.4720229439
 11
-22.8746645421
 21
-44.5303792298
  0
LINE
  5
34B
100
AcDbEntity
  8
DRAFT
100
AcDbLine
 62
7
  6
CONTINUOUS
 10
-22.7320172345
 20
-44.3261322291
 11
-22.7727736081
 21
-44.384488515
  0
LINE
  5
34C
100
AcDbEntity
  8
RACCORDO
100
AcDbLine
 62
250
  6
CONTINUOUS
 10
-22.6727351676
 20
-44.6921709512
 11
-22.4846517781
 21
-44.4250223408
  0
LINE
  5
34D
100
AcDbEntity
  8
RACCORDO
100
AcDbLine
 62
7
  6
CONTINUOUS
 10
-22.6613533118
 20
-44.6956662088
 11
-22.4942063101
 21
-44.458255083
  0
LWPOLYLINE
  5
34E
100
AcDbEntity
  8
RACCORDO
100
AcDbPolyline
 62
7
  6
CONTINUOUS
 90
5
 70
0
 10
-22.4955324193
 20
-43.9876357121
 10
-22.4910072404
 20
-43.9813894746
 10
-22.4881534076
 20
-43.9759848508
 10
-22.4868174128
 20
-43.9715655366
 10
-22.4866662605
 20
-43.9696299714
  0
LWPOLYLINE
  5
34F
100
AcDbEntity
  8
SUPERFICI
100
AcDbPolyline
 62
250
  6
CONTINUOUS
 90
10
 70
0
 10
-3.7082628107
 20
-27.2725587125
 10
-3.7523439743
 20
-27.311468604
 10
-3.8050563671
 20
-27.3446961757
 10
-3.8653129925
 20
-27.3720514636
 10
-3.9324172288
 20
-27.3934572195
 10
-4.0047803124
 20
-27.4085117758
 10
-4.0796596288
 20
-27.4167966514
 10
-4.1551429262
 20
-27.4182850109
 10
-4.230405321
 20
-27.4130287208
 10
-4.3042422447
 20
-27.4010219406
  0
LWPOLYLINE
  5
350
100
AcDbEntity
  8
RACCORDO
100
AcDbPolyline
 62
7
  6
CONTINUOUS
 90
6
 70
0
 10
-25.1609978659
 20
-43.1690971186
 10
-25.1537824618
 20
-43.1636770231
 10
-25.1456041267
 20
-43.1599075023
 10
-25.1367401392
 20
-43.1577999616
 10
-25.1274995716
 20
-43.1574799646
 10
-25.1180581753
 20
-43.1587591343
  0
LWPOLYLINE
  5
351
100
AcDbEntity
  8
SUPERFICI
100
AcDbPolyline
 62
250
  6
CONTINUOUS
 90
5
 70
0
 10
-5.6048614983
 20
-26.2725011526
 10
-6.5800848897
 20
-25.9880948978
 10
-7.0923383546
 20
-25.8334539476
 10
-7.6252171812
 20
-25.6681513999
 10
-8.7660713742
 20
-25.3172929438
  0
LINE
  5
352
100
AcDbEntity
  8
SUPERFICI
100
AcDbLine
 62
250
  6
CONTINUOUS
 10
-5.1412663582
 20
-26.4099257867
 11
-5.6048614983
 21
-26.2725011526
  0
LINE
  5
353
100
AcDbEntity
  8
SUPERFICI
100
AcDbLine
 62
250
  6
CONTINUOUS
 10
-51.2171934808
 20
-12.2729971919
 11
-48.2600342212
 21
-13.1710147155
  0
LWPOLYLINE
  5
354
100
AcDbEntity
  8
SUPERFICI
100
AcDbPolyline
 62
250
  6
CONTINUOUS
 90
5
 70
0
 10
-54.0950552961
 20
-11.3993753261
 10
-53.0150218546
 20
-11.7284820287
 10
-52.4357030644
 20
-11.9067724844
 10
-51.8354208153
 20
-12.0890975894
 10
-51.2173887563
 20
-12.2733462849
  0
LINE
  5
355
100
AcDbEntity
  8
SUPERFICI
100
AcDbLine
 62
7
  6
CONTINUOUS
 10
-51.0228931098
 20
-11.7649662654
 11
-30.3845211112
 21
-18.068047577
  0
LINE
  5
356
100
AcDbEntity
  8
SUPERFICI
100
AcDbLine
 62
250
  6
CONTINUOUS
 10
-48.2600342212
 20
-13.1710147155
 11
-35.6399443279
 21
-17.0276410499
  0
LINE
  5
357
100
AcDbEntity
  8
SUPERFICI
100
AcDbLine
 62
250
  6
CONTINUOUS
 10
-35.6399443279
 20
-17.0276410499
 11
-30.5813612147
 21
-18.5788464352
  0
LWPOLYLINE
  5
358
100
AcDbEntity
  8
SUPERFICI
100
AcDbPolyline
 62
250
  6
CONTINUOUS
 90
10
 70
0
 10
-9.7882203472
 20
-24.4277384787
 10
-9.2585375689
 20
-24.5907895342
 10
-8.7273944518
 20
-24.7517661429
 10
-8.194790996
 20
-24.9106683046
 10
-7.660721904
 20
-25.0674974498
 10
-7.1251924732
 20
-25.2222521481
 10
-6.5882185957
 20
-25.3749281085
 10
-6.0498055688
 20
-25.5255239009
 10
-5.5099480952
 20
-25.6740409555
 10
-4.9686461748
 20
-25.8204792723
  0
LINE
  5
359
100
AcDbEntity
  8
SUPERFICI
100
AcDbLine
 62
250
  6
CONTINUOUS
 10
-24.1979199564
 20
-20.5435441974
 11
-30.5816753751
 21
-18.5809953943
  0
LINE
  5
35A
100
AcDbEntity
  8
SUPERFICI
100
AcDbLine
 62
7
  6
CONTINUOUS
 10
-30.3845211112
 20
-18.068047577
 11
-9.7882203472
 21
-24.4277384787
  0
LWPOLYLINE
  5
35B
100
AcDbEntity
  8
SUPERFICI
100
AcDbPolyline
 62
250
  6
CONTINUOUS
 90
3
 70
0
 10
-8.7660713742
 20
-25.3172929438
 10
-9.3670696093
 20
-25.13071646
 10
-9.9837525956
 20
-24.9357961372
  0
LWPOLYLINE
  5
35C
100
AcDbEntity
  8
SUPERFICI
100
AcDbPolyline
 62
250
  6
CONTINUOUS
 90
3
 70
0
 10
-9.9829979454
 20
-24.9356188227
 10
-11.6364419224
 20
-24.4216229741
 10
-24.1979199564
 20
-20.5435441974
  0
LINE
  5
35D
100
AcDbEntity
  8
SUPERFICI
100
AcDbLine
 62
250
  6
CONTINUOUS
 10
-54.5959311957
 20
-11.242894072
 11
-54.0950552961
 21
-11.3993753261
  0
LWPOLYLINE
  5
35E
100
AcDbEntity
  8
SUPERFICI
100
AcDbPolyline
 62
250
  6
CONTINUOUS
 90
3
 70
0
 10
-55.9701985079
 20
-10.8008535748
 10
-55.5330914297
 20
-10.9400258585
 10
-54.5959311957
 20
-11.242894072
  0
LWPOLYLINE
  5
35F
100
AcDbEntity
  8
SUPERFICI
100
AcDbPolyline
 62
250
  6
CONTINUOUS
 90
10
 70
0
 10
-55.7368157958
 20
-10.2300616812
 10
-55.2194057514
 20
-10.4087453385
 10
-54.7004022821
 20
-10.5853954262
 10
-54.1798053879
 20
-10.7600119443
 10
-53.6576102166
 20
-10.9325963678
 10
-53.1338216204
 20
-11.1031472217
 10
-52.6084541559
 20
-11.2716600808
 10
-52.0815126754
 20
-11.4381334704
 10
-51.5529923267
 20
-11.6025688652
 10
-51.0228931098
 20
-11.7649662654
  0
LWPOLYLINE
  5
360
100
AcDbEntity
  8
SUPERFICI
100
AcDbPolyline
 62
250
  6
CONTINUOUS
 90
4
 70
0
 10
-20.6822870705
 20
-46.224856255
 10
-20.7164888035
 20
-46.2723048464
 10
-20.7498326656
 20
-46.3278330207
 10
-20.7815270439
 20
-46.3902530706
  0
LINE
  5
361
100
AcDbEntity
  8
0
100
AcDbLine
 62
250
  6
CONTINUOUS
 10
-3.9703621795
 20
-24.477196353
 11
-4.9686461748
 21
-25.8204792723
  0
LINE
  5
362
100
AcDbEntity
  8
0
100
AcDbLine
 62
250
  6
CONTINUOUS
 10
-20.610170793
 20
-46.1344771977
 11
-20.6822843775
 21
-46.2248459288
  0
LINE
  5
363
100
AcDbEntity
  8
0
100
AcDbLine
 62
7
  6
CONTINUOUS
 10
-3.7082629137
 20
-27.2725586479
 11
-2.6052516076
 21
-26.0506975871
  0
LWPOLYLINE
  5
364
100
AcDbEntity
  8
SUPERFICI
100
AcDbPolyline
 62
250
  6
CONTINUOUS
 90
4
 70
0
 10
-20.6078601788
 20
-46.2273606702
 10
-20.6140165555
 20
-46.2293916354
 10
-20.6351657073
 20
-46.2318368945
 10
-20.6581553882
 20
-46.2303486663
  0
LINE
  5
365
100
AcDbEntity
  8
0
100
AcDbLine
 62
7
  6
CONTINUOUS
 10
-3.9702817858
 20
-24.4772210412
 11
-54.7385737512
 21
-8.8867656133
  0
LWPOLYLINE
  5
366
100
AcDbEntity
  8
0
100
AcDbPolyline
 62
7
  6
CONTINUOUS
 90
16
 70
0
 10
-3.9702817858
 20
-24.4772210412
 10
-3.8282917535
 20
-24.5276863251
 10
-3.6904610055
 20
-24.5887737558
 10
-3.5567895417
 20
-24.660483333
 10
-3.4259159888
 20
-24.7438235951
 10
-3.2992017201
 20
-24.8377860038
 10
-3.1807308563
 20
-24.9393449449
 10
-3.0707743659
 20
-25.0487461289
 10
-2.9690612803
 20
-25.1657438453
 10
-2.8788628135
 20
-25.2865753477
 10
-2.8005541305
 20
-25.4113611667
 10
-2.7337600662
 20
-25.5399807718
 10
-2.6806263401
 20
-25.6683098244
 10
-2.6418681919
 20
-25.7949735451
 10
-2.6167703818
 20
-25.9213467133
 10
-2.6053329099
 20
-26.0474293292
  0
LWPOLYLINE
  5
367
100
AcDbEntity
  8
SUPERFICI
100
AcDbPolyline
 62
250
  6
CONTINUOUS
 90
10
 70
0
 10
-9.9829979454
 20
-24.9356188227
 10
-9.9722900533
 20
-24.8740714781
 10
-9.958032051
 20
-24.8112376319
 10
-9.9404722738
 20
-24.7481955772
 10
-9.9199178324
 20
-24.6860289673
 10
-9.8967222716
 20
-24.6257978004
 10
-9.8712778756
 20
-24.5685217337
 10
-9.8440192415
 20
-24.5151769495
 10
-9.8154172643
 20
-24.4666779496
 10
-9.7859630413
 20
-24.4238525499
  0
LWPOLYLINE
  5
368
100
AcDbEntity
  8
SUPERFICI
100
AcDbPolyline
 62
250
  6
CONTINUOUS
 90
10
 70
0
 10
-4.9686461752
 20
-25.8204797313
 10
-4.9975087436
 20
-25.8718692973
 10
-5.0248612721
 20
-25.9297356376
 10
-5.050328947
 20
-25.9930224113
 10
-5.073652799
 20
-26.0610379069
 10
-5.0942660807
 20
-26.1322512998
 10
-5.1114716923
 20
-26.2041662177
 10
-5.1249603601
 20
-26.2751136398
 10
-5.1346321294
 20
-26.3443746124
 10
-5.1402971656
 20
-26.4108868309
  0
LWPOLYLINE
  5
369
100
AcDbEntity
  8
RACCORDO
100
AcDbPolyline
 62
250
  6
CONTINUOUS
 90
6
 70
0
 10
-2.8302141997
 20
-41.8370064782
 10
-2.8176046266
 20
-41.8310316645
 10
-2.7937371331
 20
-41.8242994424
 10
-2.76810861
 20
-41.8212318792
 10
-2.7411550289
 20
-41.8218811577
 10
-2.7133349021
 20
-41.8262362329
  0
LWPOLYLINE
  5
36A
100
AcDbEntity
  8
RACCORDO
100
AcDbPolyline
 62
250
  6
CONTINUOUS
 90
11
 70
0
 10
-2.6851214831
 20
-41.8342230198
 10
-2.6778057918
 20
-41.828998746
 10
-2.6696240206
 20
-41.8243452743
 10
-2.6605761696
 20
-41.8202626046
 10
-2.6504814106
 20
-41.8167045951
 10
-2.6395205718
 20
-41.8137173877
 10
-2.628236137
 20
-41.8114394079
 10
-2.6166281062
 20
-41.8098706557
 10
-2.6046964795
 20
-41.8090111311
 10
-2.5929837407
 20
-41.8089992597
 10
-2.5816707179
 20
-41.8098811834
  0
LWPOLYLINE
  5
36B
100
AcDbEntity
  8
SUPERFICI
100
AcDbPolyline
 62
250
  6
CONTINUOUS
 90
13
 70
0
 10
-3.7084301077
 20
-27.269411203
 10
-3.7203135848
 20
-27.1226387814
 10
-3.7535866714
 20
-26.9724619266
 10
-3.8076041224
 20
-26.8214347827
 10
-3.8814022025
 20
-26.6721442567
 10
-3.9736273889
 20
-26.527115852
 10
-4.0825491436
 20
-26.3887633015
 10
-4.2060804342
 20
-26.2593130121
 10
-4.3422347369
 20
-26.1410605556
 10
-4.4890828457
 20
-26.0363188127
 10
-4.6442590983
 20
-25.9470045772
 10
-4.8049885339
 20
-25.8745688119
 10
-4.9685549551
 20
-25.8202868742
  0
LWPOLYLINE
  5
36C
100
AcDbEntity
  8
SUPERFICI
100
AcDbPolyline
 62
250
  6
CONTINUOUS
 90
5
 70
0
 10
-3.6143280451
 20
-55.4797956651
 10
-3.6080527625
 20
-55.6429345458
 10
-3.600322515
 20
-55.8084888228
 10
-3.5935673646
 20
-55.9715293097
 10
-3.5895249456
 20
-56.130094306
  0
LINE
  5
36D
100
AcDbEntity
  8
SUPERFICI
100
AcDbLine
 62
250
  6
CONTINUOUS
 10
-3.0494883422
 20
-54.4840712761
 11
-2.9946112133
 21
-55.9605143255
  0
LWPOLYLINE
  5
36E
100
AcDbEntity
  8
SUPERFICI
100
AcDbPolyline
 62
250
  6
CONTINUOUS
 90
3
 70
0
 10
-3.108275428
 20
-52.6274206265
 10
-3.0973900048
 20
-52.9997357664
 10
-3.0494883422
 20
-54.4840712761
  0
LINE
  5
36F
100
AcDbEntity
  8
SUPERFICI
100
AcDbLine
 62
7
  6
CONTINUOUS
 10
-3.3884984564
 20
-41.6575911902
 11
-3.108275428
 21
-52.6274206265
  0
LINE
  5
370
100
AcDbEntity
  8
RACCORDO
100
AcDbLine
 62
7
  6
CONTINUOUS
 10
-2.8806323195
 20
-39.8102572627
 11
-2.8184269629
 21
-42.3108395559
  0
LINE
  5
371
100
AcDbEntity
  8
RACCORDO
100
AcDbLine
 62
7
  6
CONTINUOUS
 10
-2.8267180185
 20
-41.7632177953
 11
-2.825058886
 21
-41.8299129736
  0
LINE
  5
372
100
AcDbEntity
  8
RACCORDO
100
AcDbLine
 62
7
  6
CONTINUOUS
 10
-1.891518195
 20
-54.7419427285
 11
-2.2099959454
 21
-41.9395111106
  0
LINE
  5
373
100
AcDbEntity
  8
RACCORDO
100
AcDbLine
 62
7
  6
CONTINUOUS
 10
-2.2868556839
 20
-38.8498398681
 11
-2.6053329099
 21
-26.0474293292
  0
LWPOLYLINE
  5
374
100
AcDbEntity
  8
SUPERFICI
100
AcDbPolyline
 62
250
  6
CONTINUOUS
 90
3
 70
0
 10
-3.9438608588
 20
-42.1214926037
 10
-3.8987023757
 20
-43.976155367
 10
-3.7326743948
 20
-50.4959079712
  0
LINE
  5
375
100
AcDbEntity
  8
SUPERFICI
100
AcDbLine
 62
7
  6
CONTINUOUS
 10
-3.6544474608
 20
-30.6719498281
 11
-3.4417111483
 21
-39.3952195412
  0
LINE
  5
376
100
AcDbEntity
  8
SUPERFICI
100
AcDbLine
 62
250
  6
CONTINUOUS
 10
-3.9438608588
 20
-42.1214926037
 11
-4.056966047
 21
-37.6047262911
  0
LWPOLYLINE
  5
377
100
AcDbEntity
  8
SUPERFICI
100
AcDbPolyline
 62
250
  6
CONTINUOUS
 90
3
 70
0
 10
-4.056966047
 20
-37.6047262911
 10
-4.1443568343
 20
-33.967844251
 10
-4.2708098265
 20
-29.1874471894
  0
LINE
  5
378
100
AcDbEntity
  8
SUPERFICI
100
AcDbLine
 62
7
  6
CONTINUOUS
 10
-3.4417111483
 20
-39.3952195412
 11
-3.3884984564
 21
-41.6575911902
  0
LWPOLYLINE
  5
379
100
AcDbEntity
  8
SUPERFICI
100
AcDbPolyline
 62
250
  6
CONTINUOUS
 90
3
 70
0
 10
-3.7326743948
 20
-50.4959079712
 10
-3.7154740745
 20
-51.2625646672
 10
-3.6143280451
 20
-55.4797956651
  0
LINE
  5
37A
100
AcDbEntity
  8
SUPERFICI
100
AcDbLine
 62
250
  6
CONTINUOUS
 10
-4.2708098265
 20
-29.1874471894
 11
-4.2956939966
 21
-28.0898329467
  0
LINE
  5
37B
100
AcDbEntity
  8
SUPERFICI
100
AcDbLine
 62
250
  6
CONTINUOUS
 10
-3.6827299138
 20
-29.1658536498
 11
-3.6544474608
 21
-30.6719498281
  0
LWPOLYLINE
  5
37C
100
AcDbEntity
  8
SUPERFICI
100
AcDbPolyline
 62
250
  6
CONTINUOUS
 90
5
 70
0
 10
-4.2956939966
 20
-28.0898329467
 10
-4.2977010849
 20
-27.9200320498
 10
-4.2984051396
 20
-27.7465391164
 10
-4.3000177742
 20
-27.5732062974
 10
-4.3042044127
 20
-27.400974638
  0
LWPOLYLINE
  5
37D
100
AcDbEntity
  8
SUPERFICI
100
AcDbPolyline
 62
250
  6
CONTINUOUS
 90
3
 70
0
 10
-3.7082629137
 20
-27.2725586479
 10
-3.7040292367
 20
-27.6521651821
 10
-3.6827299138
 20
-29.1658536498
  0
LINE
  5
37E
100
AcDbEntity
  8
RACCORDO
100
AcDbLine
 62
7
  6
CONTINUOUS
 10
-2.3525627833
 20
-39.0416796093
 11
-2.8149252201
 21
-39.6184175215
  0
LINE
  5
37F
100
AcDbEntity
  8
RACCORDO
100
AcDbLine
 62
250
  6
CONTINUOUS
 10
-2.8268664212
 20
-41.9715832425
 11
-2.6851214831
 21
-41.8342230198
  0
LINE
  5
380
100
AcDbEntity
  8
RACCORDO
100
AcDbLine
 62
7
  6
CONTINUOUS
 10
-2.7469555183
 20
-42.3507197293
 11
-2.2814673901
 21
-41.8996309372
  0
LWPOLYLINE
  5
381
100
AcDbEntity
  8
SUPERFICI
100
AcDbPolyline
 62
7
  6
CONTINUOUS
 90
10
 70
0
 10
-3.3884753531
 20
-41.6575980276
 10
-3.4293778349
 20
-41.69623354
 10
-3.4785720838
 20
-41.730830138
 10
-3.5350073488
 20
-41.7606582961
 10
-3.5974758953
 20
-41.7850878143
 10
-3.6646551353
 20
-41.8036108883
 10
-3.7351395436
 20
-41.8158472635
 10
-3.8074452408
 20
-41.8215407017
 10
-3.8800379951
 20
-41.8205696943
 10
-3.9513843329
 20
-41.8129561881
  0
LWPOLYLINE
  5
382
100
AcDbEntity
  8
SUPERFICI
100
AcDbPolyline
 62
250
  6
CONTINUOUS
 90
16
 70
0
 10
-4.3042044127
 20
-27.400974638
 10
-4.3165387297
 20
-27.2971506935
 10
-4.3379971351
 20
-27.1981483046
 10
-4.3689080937
 20
-27.1037353448
 10
-4.4112216858
 20
-27.0127175904
 10
-4.4637933879
 20
-26.9258751244
 10
-4.5216978757
 20
-26.8455747752
 10
-4.5832365797
 20
-26.7714578671
 10
-4.649383331
 20
-26.7028234079
 10
-4.7181712172
 20
-26.6411211474
 10
-4.7881027757
 20
-26.5860436527
 10
-4.8590913072
 20
-26.5370208617
 10
-4.9307270042
 20
-26.4950312136
 10
-5.0022239391
 20
-26.4602098701
 10
-5.0726425097
 20
-26.431896976
 10
-5.1412663582
 20
-26.4099257867
  0
LWPOLYLINE
  5
383
100
AcDbEntity
  8
SUPERFICI
100
AcDbPolyline
 62
250
  6
CONTINUOUS
 90
6
 70
0
 10
-2.9946195916
 20
-55.9636002524
 10
-2.9995164533
 20
-56.097680042
 10
-3.0259280305
 20
-56.2233263136
 10
-3.0733271938
 20
-56.3383451202
 10
-3.1408633172
 20
-56.4407765373
 10
-3.1683294162
 20
-56.4725244344
  0
LWPOLYLINE
  5
384
100
AcDbEntity
  8
0
100
AcDbPolyline
 62
7
  6
CONTINUOUS
 90
7
 70
0
 10
-1.891518195
 20
-54.7419427285
 10
-1.8968089867
 20
-54.8628789599
 10
-1.9159562427
 20
-54.9756579247
 10
-1.9489599631
 20
-55.080279623
 10
-1.9964775986
 20
-55.1776980689
 10
-2.0578516985
 20
-55.2669592482
 10
-2.0883432692
 20
-55.3024827342
  0
LWPOLYLINE
  5
385
100
AcDbEntity
  8
SUPERFICI
100
AcDbPolyline
 62
250
  6
CONTINUOUS
 90
13
 70
0
 10
-3.5895249456
 20
-56.130094306
 10
-3.5970294446
 20
-56.2204223236
 10
-3.6140076185
 20
-56.3015190012
 10
-3.6407815841
 20
-56.3734074022
 10
-3.6792665764
 20
-56.4362940306
 10
-3.728345024
 20
-56.4898755302
 10
-3.7831502615
 20
-56.5341607276
 10
-3.8419457877
 20
-56.570315751
 10
-3.9056792851
 20
-56.5986907379
 10
-3.9724236844
 20
-56.6191338069
 10
-4.0406456268
 20
-56.6327804982
 10
-4.1102260937
 20
-56.6403599426
 10
-4.1807880287
 20
-56.641534037
  0
LINE
  5
386
100
AcDbEntity
  8
0
100
AcDbLine
 62
7
  6
CONTINUOUS
 10
-2.9946112133
 20
-55.9605143255
 11
-1.8916000217
 21
-54.7386533916
  0
LINE
  5
387
100
AcDbEntity
  8
SUPERFICI
100
AcDbLine
 62
7
  6
CONTINUOUS
 10
-2.0882480441
 20
-55.3025638997
 11
-3.1682123749
 21
-56.4724212577
  0
LWPOLYLINE
  5
388
100
AcDbEntity
  8
SUPERFICI
100
AcDbPolyline
 62
250
  6
CONTINUOUS
 90
10
 70
0
 10
-2.994607326
 20
-55.9605157143
 10
-3.0385762478
 20
-56.0039375672
 10
-3.0911509102
 20
-56.0427017131
 10
-3.1512563161
 20
-56.0761358119
 10
-3.2182074395
 20
-56.1036964951
 10
-3.2904295491
 20
-56.1244180093
 10
-3.3651901116
 20
-56.1374766281
 10
-3.4405790165
 20
-56.1427594316
 10
-3.5157717699
 20
-56.1403026285
 10
-3.5895648825
 20
-56.1300569955
  0
ARC
  5
389
100
AcDbEntity
  8
RACCORDO
100
AcDbCircle
 62
7
  6
CONTINUOUS
 10
-2.6902152801
 20
-42.0397258398
 40
0.25
100
AcDbArc
 50
111.1437912234
 51
124.1236970831
  0
ARC
  5
38A
100
AcDbEntity
  8
RACCORDO
100
AcDbCircle
 62
7
  6
CONTINUOUS
 10
-22.5759739963
 20
-44.4006873361
 40
0.1
100
AcDbArc
 50
324.6572117133
 51
1.4250236
  0
ARC
  5
38B
100
AcDbEntity
  8
RACCORDO
100
AcDbCircle
 62
7
  6
CONTINUOUS
 10
-32.5960074165
 20
-41.3236322297
 40
0.1
100
AcDbArc
 50
324.6572117133
 51
1.4250236
  0
ELLIPSE
  5
38C
100
AcDbEntity
  8
RACCORDO
100
AcDbEllipse
 62
7
  6
CONTINUOUS
 10
-25.1616933222
 20
-43.2494299699
 30
0.0
 11
0.0331125425
 21
0.0944276106
 31
0.0
 40
0.398572323
 41
0.7076711529
 42
0.7600310305
  0
ELLIPSE
  5
38D
100
AcDbEntity
  8
RACCORDO
100
AcDbEllipse
 62
7
  6
CONTINUOUS
 10
-35.1817267423
 20
-40.1723748636
 30
0.0
 11
0.0331125425
 21
0.0944276106
 31
0.0
 40
0.398572323
 41
0.7076711529
 42
0.7600310305
  0
ELLIPSE
  5
38E
100
AcDbEntity
  8
RACCORDO
100
AcDbEllipse
 62
7
  6
CONTINUOUS
 10
-40.4065765144
 20
-25.6773559835
 30
0.0
 11
0.0998577375
 21
0.0059124621
 31
0.0
 40
0.666717226
 41
-0.5101697827
 42
-0.4578099051
  0
ELLIPSE
  5
38F
100
AcDbEntity
  8
RACCORDO
100
AcDbEllipse
 62
7
  6
CONTINUOUS
 10
-40.189586671
 20
-34.4000456124
 30
0.0
 11
0.0998577375
 21
0.0059124621
 31
0.0
 40
0.666717226
 41
-0.5101697827
 42
-0.4578099051
  0
ELLIPSE
  5
390
100
AcDbEntity
  8
RACCORDO
100
AcDbEllipse
 62
7
  6
CONTINUOUS
 10
-40.4643093506
 20
-23.3565763382
 30
0.0
 11
0.1000269891
 21
-0.0004594136
 31
0.0
 40
0.5949878325
 41
-0.4697833157
 42
-0.4174234382
  0
ELLIPSE
  5
391
100
AcDbEntity
  8
RACCORDO
100
AcDbEllipse
 62
7
  6
CONTINUOUS
 10
-40.2473195073
 20
-32.0792659672
 30
0.0
 11
0.1000269891
 21
-0.0004594136
 31
0.0
 40
0.5949878325
 41
-0.4697833157
 42
-0.4174234382
  0
ELLIPSE
  5
392
100
AcDbEntity
  8
RACCORDO
100
AcDbEllipse
 62
7
  6
CONTINUOUS
 10
-22.4957392878
 20
-44.068118604
 30
0.0
 11
0.0258129034
 21
0.0966744481
 31
0.0
 40
0.3268598089
 41
0.6798851861
 42
0.7322450636
  0
ELLIPSE
  5
393
100
AcDbEntity
  8
RACCORDO
100
AcDbEllipse
 62
7
  6
CONTINUOUS
 10
-32.515772708
 20
-40.9910634977
 30
0.0
 11
0.0258129034
 21
0.0966744481
 31
0.0
 40
0.3268598089
 41
0.6798851861
 42
0.7322450636
  0
ELLIPSE
  5
394
100
AcDbEntity
  8
RACCORDO
100
AcDbEllipse
 62
7
  6
CONTINUOUS
 10
-2.3619936622
 20
-38.9330739831
 30
0.0
 11
0.0496688376
 21
0.1416414084
 31
0.0
 40
0.3985723086
 41
-2.2942950946
 42
-0.8107652304
  0
ELLIPSE
  5
395
100
AcDbEntity
  8
RACCORDO
100
AcDbEllipse
 62
7
  6
CONTINUOUS
 10
-2.8054943412
 20
-39.7270231477
 30
0.0
 11
0.0496688376
 21
0.1416414084
 31
0.0
 40
0.3985723086
 41
0.847297559
 42
2.3308274232
  0
ELLIPSE
  5
396
100
AcDbEntity
  8
RACCORDO
100
AcDbEllipse
 62
7
  6
CONTINUOUS
 10
-2.2851339237
 20
-42.0227452256
 30
0.0
 11
0.0496688376
 21
0.1416414084
 31
0.0
 40
0.3985723086
 41
5.4724200768
 42
6.955949941
  0
ELLIPSE
  5
397
100
AcDbEntity
  8
RACCORDO
100
AcDbEllipse
 62
7
  6
CONTINUOUS
 10
-2.7432889846
 20
-42.2276054409
 30
0.0
 11
0.0496688376
 21
0.1416414084
 31
0.0
 40
0.3985723086
 41
2.3308274232
 42
3.8143572874
  0
ENDSEC
  0
SECTION
  2
OBJECTS
  0
DICTIONARY
  5
C
100
AcDbDictionary
280
0
281
1
  3
ACAD_GROUP
350
D
  3
ACAD_MLINESTYLE
350
17
  3
ACAD_LAYOUT
350
1A
  3
ACAD_PLOTSETTINGS
350
19
  3
ACAD_PLOTSTYLENAME
350
E
  0
DICTIONARY
  5
D
102
{ACAD_REACTORS
330
C
102
}
100
AcDbDictionary
280
0
281
1
  0
ACDBDICTIONARYWDFLT
  5
E
102
{ACAD_REACTORS
330
C
102
}
100
AcDbDictionary
281
1
  3
Normal
350
F
100
AcDbDictionaryWithDefault
340
F
  0
DICTIONARY
  5
17
102
{ACAD_REACTORS
330
C
102
}
100
AcDbDictionary
280
0
281
1
  3
Standard
350
18
  0
DICTIONARY
  5
19
102
{ACAD_REACTORS
330
C
102
}
100
AcDbDictionary
281
1
  0
DICTIONARY
  5
1A
102
{ACAD_REACTORS
330
C
102
}
100
AcDbDictionary
281
1
  3
Model
350
398
  3
Layout1
350
399
  0
ACDBPLACEHOLDER
  5
F
102
{ACAD_REACTORS
330
E
102
}
  0
MLINESTYLE
  5
18
102
{ACAD_REACTORS
330
17
102
}
100
AcDbMlineStyle
  2
STANDARD
 70
0
  3

 62
256
 51
90.0
 52
90.0
 71
2
 49
0.5
 62
256
  6
BYLAYER
 49
-0.5
 62
256
  6
BYLAYER
  0
LAYOUT
  5
398
102
{ACAD_REACTORS
330
1A
102
}
100
AcDbPlotSettings
  1

  2
none_device
  4
ISO_A4_(297.00_x_210.00_MM)
  6

 40
0.0
 41
0.0
 42
0.0
 43
0.0
 44
297.0
 45
210.0
 46
0.0
 47
0.0
 48
0.0
 49
0.0
140
0.0
141
0.0
142
1.0
143
1.0
 70
1024
 72
1
 73
0
 74
0
  7

 75
0
147
1.0
148
0.0
149
0.0
100
AcDbLayout
  1
Model
 70
0
 71
0
 10
0.0
 20
0.0
 11
297.0
 21
210.0
 12
0.0
 22
0.0
 32
0.0
 14
0.0
 24
0.0
 34
0.0
 15
0.0
 25
0.0
 35
0.0
146
0.0
 13
0.0
 23
0.0
 33
0.0
 16
1.0
 26
0.0
 36
0.0
 17
0.0
 27
1.0
 37
0.0
 76
0
330
218
345
0
346
0
  0
LAYOUT
  5
399
102
{ACAD_REACTORS
330
1A
102
}
100
AcDbPlotSettings
  1

  2
none_device
  4
ISO_A4_(297.00_x_210.00_MM)
  6

 40
0.0
 41
0.0
 42
0.0
 43
0.0
 44
297.0
 45
210.0
 46
0.0
 47
0.0
 48
0.0
 49
0.0
140
0.0
141
0.0
142
1.0
143
1.0
 70
0
 72
1
 73
0
 74
0
  7

 75
0
147
1.0
148
0.0
149
0.0
100
AcDbLayout
  1
Layout1
 70
0
 71
1
 10
0.0
 20
0.0
 11
297.0
 21
210.0
 12
0.0
 22
0.0
 32
0.0
 14
0.0
 24
0.0
 34
0.0
 15
0.0
 25
0.0
 35
0.0
146
0.0
 13
0.0
 23
0.0
 33
0.0
 16
1.0
 26
0.0
 36
0.0
 17
0.0
 27
1.0
 37
0.0
 76
0
330
219
345
0
346
0
  0
ENDSEC
  0
EOF
