  0
SECTION
  2
HEADER
  9
$ACADVER
  1
AC1024
  9
$DWGCODEPAGE
  3
ANSI_1252
  9
$EXTMAX
 10
297.0
 20
210.0
 30
0.0
  9
$EXTMIN
 10
0.0
 20
0.0
 30
0.0
  9
$LIMMIN
 10
0.0
 20
0.0
  9
$LIMMAX
 10
297.0
 20
210.0
  9
$VIEWCTR
 10
148.5
 20
105.0
  9
$VIEWSIZE
 40
210.0
  9
$CLAYER
  8
0
  9
$LTSCALE
 40
16.335
  9
$CELTYPE
  6
BYLAYER
  9
$DIMSCALE
 40
1.0
  9
$DIMASZ
 40
3.0
  9
$DIMEXO
 40
0.5
  9
$DIMDLI
 40
11.286
  9
$DIMEXE
 40
1.5
  9
$DIMCEN
 40
2.673
  9
$DIMLFAC
 40
1.0
  9
$DIMBLK
  1
_FILLED
  9
$DIMALT
 70
0
  9
$DIMALTF
 40
0.0393700787
  9
$DIMTXT
 40
3.0
  9
$DIMTOL
 70
1
  9
$DIMLIM
 70
0
  9
$DIMTFAC
 40
1.0
  9
$DIMTP
 40
0.01
  9
$DIMTM
 40
0.01
  9
$DIMGAP
 40
0.625
  9
$DIMDSEP
 70
44
  9
$AUNITS
 70
0
  9
$PDMODE
 70
3
  9
$PDSIZE
 40
3.0
  9
$HANDSEED
  5
430
  9
$TILEMODE
 70
1
  9
$MEASUREMENT
 70
1
  9
$INSUNITS
 70
4
  0
ENDSEC
  0
SECTION
  2
CLASSES
  0
CLASS
  1
ACDBDICTIONARYWDFLT
  2
AcDbDictionaryWithDefault
  3
AutoCAD 2000
 90
0
 91
1
280
0
281
0
  0
CLASS
  1
ACDBPLACEHOLDER
  2
AcDbPlaceHolder
  3
AutoCAD 2000
 90
0
 91
1
280
0
281
0
  0
CLASS
  1
LAYOUT
  2
AcDbLayout
  3
AutoCAD 2000
 90
0
 91
0
280
0
281
0
  0
ENDSEC
  0
SECTION
  2
TABLES
  0
TABLE
  2
VPORT
  5
8
100
AcDbSymbolTable
 70
2
  0
VPORT
  5
1F4
100
AcDbSymbolTableRecord
100
AcDbViewportTableRecord
  2
*ACTIVE
 70
0
 10
0.0
 20
0.0
 11
1.0
 21
1.0
 12
148.5
 22
105.0
 13
0.0
 23
0.0
 14
1.0
 24
1.0
 15
0.0
 25
0.0
 16
0.0
 26
0.0
 36
1.0
 17
0.0
 27
0.0
 37
0.0
 40
210.0
 41
1.4142857143
 42
50.0
 43
0.0
 44
0.0
 50
0.0
 51
0.0
 71
0
 72
100
 73
1
 74
1
 75
0
 76
0
 77
0
 78
0
  0
ENDTAB
  0
TABLE
  2
LTYPE
  5
5
100
AcDbSymbolTable
 70
6
  0
LTYPE
  5
14
100
AcDbSymbolTableRecord
100
AcDbLinetypeTableRecord
  2
BYBLOCK
 70
0
  3

 72
65
 73
0
 40
0.0
  0
LTYPE
  5
15
100
AcDbSymbolTableRecord
100
AcDbLinetypeTableRecord
  2
BYLAYER
 70
0
  3

 72
65
 73
0
 40
0.0
  0
LTYPE
  5
16
100
AcDbSymbolTableRecord
100
AcDbLinetypeTableRecord
  2
CONTINUOUS
 70
64
  3
Solid line
 72
65
 73
0
 40
0.0
  0
LTYPE
  5
1F5
100
AcDbSymbolTableRecord
100
AcDbLinetypeTableRecord
  2
CENTER
 70
64
  3
____ _ ____ _ ____ _ ____ _ ____ _ ____ _ ____
 72
65
 73
4
 40
0.6
 49
0.375
 74
0
 49
-0.075
 74
0
 49
0.075
 74
0
 49
-0.075
 74
0
  0
LTYPE
  5
1F6
100
AcDbSymbolTableRecord
100
AcDbLinetypeTableRecord
  2
HIDDEN
 70
64
  3
- - - - - - - - - - - - - - - - - - - -
 72
65
 73
2
 40
0.2
 49
0.1
 74
0
 49
-0.1
 74
0
  0
LTYPE
  5
1F7
100
AcDbSymbolTableRecord
100
AcDbLinetypeTableRecord
  2
PHANTOM
 70
64
  3
_____ _ _ _____ _ _ _____ _ _ _____
 72
65
 73
6
 40
0.8
 49
0.45
 74
0
 49
-0.05
 74
0
 49
0.1
 74
0
 49
-0.05
 74
0
 49
0.1
 74
0
 49
-0.05
 74
0
  0
LTYPE
  5
1F8
100
AcDbSymbolTableRecord
100
AcDbLinetypeTableRecord
  2
DOT
 70
64
  3
. . . . . . . . . . . . . . . . . . . .
 72
65
 73
2
 40
0.2
 49
0.1
 74
0
 49
-0.1
 74
0
  0
LTYPE
  5
1F9
100
AcDbSymbolTableRecord
100
AcDbLinetypeTableRecord
  2
DASHED
 70
64
  3
- - - - - - - - - - - - - - - - - - - -
 72
65
 73
2
 40
0.2
 49
0.1
 74
0
 49
-0.1
 74
0
  0
ENDTAB
  0
TABLE
  2
LAYER
  5
2
100
AcDbSymbolTable
 70
36
  0
LAYER
  5
10
100
AcDbSymbolTableRecord
100
AcDbLayerTableRecord
  2
0
 70
0
 62
7
  6
CONTINUOUS
370
-3
390
F
  0
LAYER
  5
1FA
100
AcDbSymbolTableRecord
100
AcDbLayerTableRecord
  2
DEFAULT_1
 70
0
 62
7
  6
CENTER
370
-3
390
F
  0
LAYER
  5
1FB
100
AcDbSymbolTableRecord
100
AcDbLayerTableRecord
  2
DEFAULT_2
 70
0
 62
7
  6
HIDDEN
370
-3
390
F
  0
LAYER
  5
1FC
100
AcDbSymbolTableRecord
100
AcDbLayerTableRecord
  2
DEFAULT_3
 70
0
 62
7
  6
PHANTOM
370
-3
390
F
  0
LAYER
  5
1FD
100
AcDbSymbolTableRecord
100
AcDbLayerTableRecord
  2
ASSI
 70
0
 62
7
  6
CONTINUOUS
370
-3
390
F
  0
LAYER
  5
1FE
100
AcDbSymbolTableRecord
100
AcDbLayerTableRecord
  2
COORDINATE
 70
0
 62
7
  6
CONTINUOUS
370
-3
390
F
  0
LAYER
  5
1FF
100
AcDbSymbolTableRecord
100
AcDbLayerTableRecord
  2
COORD_ORIGINE
 70
0
 62
7
  6
CONTINUOUS
370
-3
390
F
  0
LAYER
  5
200
100
AcDbSymbolTableRecord
100
AcDbLayerTableRecord
  2
CURVE
 70
0
 62
7
  6
CONTINUOUS
370
-3
390
F
  0
LAYER
  5
201
100
AcDbSymbolTableRecord
100
AcDbLayerTableRecord
  2
DRAFT
 70
0
 62
7
  6
CONTINUOUS
370
-3
390
F
  0
LAYER
  5
202
100
AcDbSymbolTableRecord
100
AcDbLayerTableRecord
  2
IGES_SCRITTE
 70
0
 62
7
  6
CONTINUOUS
370
-3
390
F
  0
LAYER
  5
203
100
AcDbSymbolTableRecord
100
AcDbLayerTableRecord
  2
INTF_1
 70
0
 62
7
  6
CONTINUOUS
370
-3
390
F
  0
LAYER
  5
204
100
AcDbSymbolTableRecord
100
AcDbLayerTableRecord
  2
INTF_7
 70
0
 62
7
  6
CONTINUOUS
370
-3
390
F
  0
LAYER
  5
205
100
AcDbSymbolTableRecord
100
AcDbLayerTableRecord
  2
NOTE
 70
0
 62
7
  6
CONTINUOUS
370
-3
390
F
  0
LAYER
  5
206
100
AcDbSymbolTableRecord
100
AcDbLayerTableRecord
  2
PIANI
 70
0
 62
7
  6
CONTINUOUS
370
-3
390
F
  0
LAYER
  5
207
100
AcDbSymbolTableRecord
100
AcDbLayerTableRecord
  2
PIANI_ORIGINE
 70
0
 62
7
  6
CONTINUOUS
370
-3
390
F
  0
LAYER
  5
208
100
AcDbSymbolTableRecord
100
AcDbLayerTableRecord
  2
PPP
 70
0
 62
7
  6
CONTINUOUS
370
-3
390
F
  0
LAYER
  5
209
100
AcDbSymbolTableRecord
100
AcDbLayerTableRecord
  2
PUNTI
 70
0
 62
7
  6
CONTINUOUS
370
-3
390
F
  0
LAYER
  5
20A
100
AcDbSymbolTableRecord
100
AcDbLayerTableRecord
  2
RACCORDO
 70
0
 62
7
  6
CONTINUOUS
370
-3
390
F
  0
LAYER
  5
20B
100
AcDbSymbolTableRecord
100
AcDbLayerTableRecord
  2
RGB__255__255__255__
 70
0
 62
7
  6
CONTINUOUS
370
-3
390
F
  0
LAYER
  5
20C
100
AcDbSymbolTableRecord
100
AcDbLayerTableRecord
  2
RGB____0____0____0__
 70
0
 62
7
  6
CONTINUOUS
370
-3
390
F
  0
LAYER
  5
20D
100
AcDbSymbolTableRecord
100
AcDbLayerTableRecord
  2
SNAPLINE
 70
0
 62
7
  6
CONTINUOUS
370
-3
390
F
  0
LAYER
  5
20E
100
AcDbSymbolTableRecord
100
AcDbLayerTableRecord
  2
SOLIDO
 70
0
 62
7
  6
CONTINUOUS
370
-3
390
F
  0
LAYER
  5
20F
100
AcDbSymbolTableRecord
100
AcDbLayerTableRecord
  2
SUPERFICI
 70
0
 62
7
  6
CONTINUOUS
370
-3
390
F
  0
LAYER
  5
210
100
AcDbSymbolTableRecord
100
AcDbLayerTableRecord
  2
SUP_LATERALE
 70
0
 62
7
  6
CONTINUOUS
370
-3
390
F
  0
LAYER
  5
211
100
AcDbSymbolTableRecord
100
AcDbLayerTableRecord
  2
TRASH
 70
0
 62
7
  6
CONTINUOUS
370
-3
390
F
  0
ENDTAB
  0
TABLE
  2
STYLE
  5
3
100
AcDbSymbolTable
 70
1
  0
STYLE
  5
11
100
AcDbSymbolTableRecord
100
AcDbTextStyleTableRecord
  2
STANDARD
 70
0
 40
0.0
 41
0.8
 50
0.0
 71
0
 42
0.2
  3
txt
  4

  0
STYLE
  5
212
100
AcDbSymbolTableRecord
100
AcDbTextStyleTableRecord
  2
TEXTSTYLE_1
 70
0
 40
0.0
 41
0.8
 50
0.0
 71
0
 42
0.2
  3
gdt
  4

  0
ENDTAB
  0
TABLE
  2
VIEW
  5
6
100
AcDbSymbolTable
 70
0
  0
ENDTAB
  0
TABLE
  2
UCS
  5
7
100
AcDbSymbolTable
 70
0
  0
ENDTAB
  0
TABLE
  2
APPID
  5
9
100
AcDbSymbolTable
 70
1
  0
APPID
  5
213
100
AcDbSymbolTableRecord
100
AcDbRegAppTableRecord
  2
ACAD
 70
0
  0
ENDTAB
  0
TABLE
  2
BLOCK_RECORD
  5
1
100
AcDbSymbolTable
 70
0
  0
BLOCK_RECORD
  5
214
100
AcDbSymbolTableRecord
100
AcDbBlockTableRecord
  2
*Model_Space
  0
BLOCK_RECORD
  5
215
100
AcDbSymbolTableRecord
100
AcDbBlockTableRecord
  2
*Paper_Space
  0
BLOCK_RECORD
  5
216
100
AcDbSymbolTableRecord
100
AcDbBlockTableRecord
  2
_FILLED
  0
ENDTAB
  0
TABLE
  2
DIMSTYLE
  5
A
100
AcDbSymbolTable
 70
1
100
AcDbDimStyleTable
 71
0
  0
DIMSTYLE
105
217
100
AcDbSymbolTableRecord
100
AcDbDimStyleTableRecord
  2
STANDARD
 70
0
  3

  4

 40
1.0
 41
3.0
 42
0.5
 43
0.38
 44
1.5
 45
0.0
 46
0.0
 47
0.01
 48
0.01
140
3.0
141
0.09
142
0.0
143
25.4
144
1.0
145
0.0
146
1.0
147
0.625
 71
1.0
 72
0.0
 73
0
 74
0
 75
0
 76
0
 77
1
 78
8
 79
2
170
0
171
1
172
0
173
0
174
0
175
0
176
0
177
0
178
0
270
2
179
2
271
2
272
2
273
2
274
2
275
0
280
0
281
0
282
0
283
1
284
8
285
0
286
0
287
3
288
0
340
11
278
44
341
216
342
216
343
216
344
216
  0
ENDTAB
  0
ENDSEC
  0
SECTION
  2
BLOCKS
  0
BLOCK
  5
20
100
AcDbEntity
  8
0
100
AcDbBlockBegin
  2
*Model_Space
 70
0
 10
0.0
 20
0.0
 30
0.0
  3
*Model_Space
  1

  0
ENDBLK
  5
21
100
AcDbEntity
  8
0
100
AcDbBlockEnd
  0
BLOCK
  5
1C
100
AcDbEntity
  8
0
100
AcDbBlockBegin
  2
*Paper_Space
 70
0
 10
0.0
 20
0.0
 30
0.0
  3
*Paper_Space
  1

  0
ENDBLK
  5
1D
100
AcDbEntity
  8
0
100
AcDbBlockEnd
  0
BLOCK
  5
218
100
AcDbEntity
  8
0
100
AcDbBlockBegin
  2
_FILLED
 70
64
 10
0.0
 20
0.0
  3
_FILLED
  1

  0
SOLID
  5
219
100
AcDbEntity
  8
0
  6
BYBLOCK
 62
0
100
AcDbTrace
 10
0.0
 20
0.0
 11
-1.0
 21
0.3166666667
 12
-1.0
 22
-0.3166666667
 13
-1.0
 23
-0.3166666667
  0
ENDBLK
  5
21A
100
AcDbEntity
  8
0
  6
BYBLOCK
 62
0
100
AcDbBlockEnd
  0
ENDSEC
  0
SECTION
  2
ENTITIES
  0
LWPOLYLINE
  5
21B
100
AcDbEntity
  8
RACCORDO
100
AcDbPolyline
 62
7
  6
CONTINUOUS
 90
13
 70
0
 10
-22.185622115
 20
27.1508436923
 10
-22.2023141443
 20
27.1386928849
 10
-22.2616779631
 20
27.0900427616
 10
-22.3175741611
 20
27.035102293
 10
-22.3694876498
 20
26.9739367617
 10
-22.4167723545
 20
26.9068432467
 10
-22.4587840924
 20
26.8343371057
 10
-22.4951924824
 20
26.7566905752
 10
-22.5256934919
 20
26.6742285315
 10
-22.5499725072
 20
26.5874993595
 10
-22.5678971833
 20
26.4968069522
 10
-22.5793670031
 20
26.4022633711
 10
-22.5814864298
 20
26.3738794608
  0
LINE
  5
21C
100
AcDbEntity
  8
SUPERFICI
100
AcDbLine
 62
7
  6
CONTINUOUS
 10
-20.7866602633
 20
28.1456457573
 11
-22.1863270036
 21
27.150347339
  0
LINE
  5
21D
100
AcDbEntity
  8
RACCORDO
100
AcDbLine
 62
7
  6
CONTINUOUS
 10
-22.1855715714
 20
27.1508796427
 11
-22.1863277598
 21
27.1503430407
  0
LINE
  5
21E
100
AcDbEntity
  8
RACCORDO
100
AcDbLine
 62
250
  6
CONTINUOUS
 10
-21.4145994933
 20
27.1205093434
 11
-19.938132894
 21
28.1221862469
  0
LINE
  5
21F
100
AcDbEntity
  8
RACCORDO
100
AcDbLine
 62
7
  6
CONTINUOUS
 10
-22.5814888392
 20
26.3738796171
 11
-22.5814854317
 21
26.3739318366
  0
LWPOLYLINE
  5
220
100
AcDbEntity
  8
RACCORDO
100
AcDbPolyline
 62
7
  6
CONTINUOUS
 90
16
 70
0
 10
-23.3362652813
 20
-4.0812749121
 10
-23.3308421152
 20
-4.1821676795
 10
-23.3182494705
 20
-4.2834913907
 10
-23.2989036359
 20
-4.3845798153
 10
-23.2731828842
 20
-4.4849805875
 10
-23.2413748959
 20
-4.5844157465
 10
-23.2037507762
 20
-4.6825617366
 10
-23.1606093882
 20
-4.7788937201
 10
-23.112230063
 20
-4.8730395808
 10
-23.0588195948
 20
-4.9647016135
 10
-23.0006744439
 20
-5.0534223716
 10
-22.9381286979
 20
-5.1387586938
 10
-22.8713827364
 20
-5.2204166386
 10
-22.8007078262
 20
-5.2980344148
 10
-22.7265115712
 20
-5.3710744729
 10
-22.6490665944
 20
-5.4391725481
  0
LWPOLYLINE
  5
221
100
AcDbEntity
  8
RACCORDO
100
AcDbPolyline
 62
7
  6
CONTINUOUS
 90
4
 70
0
 10
-23.3151335219
 20
-1.8787423754
 10
-23.3297743723
 20
-2.6397439648
 10
-23.338872911
 20
-3.3845771483
 10
-23.336337609
 20
-4.0812692071
  0
LINE
  5
222
100
AcDbEntity
  8
RACCORDO
100
AcDbLine
 62
7
  6
CONTINUOUS
 10
-23.0058559389
 20
11.1149371416
 11
-23.2187690107
 21
2.1454640344
  0
LWPOLYLINE
  5
223
100
AcDbEntity
  8
RACCORDO
100
AcDbPolyline
 62
7
  6
CONTINUOUS
 90
3
 70
0
 10
-23.2187690107
 20
2.1454640344
 10
-23.259236673
 20
0.4944282666
 10
-23.3151335219
 20
-1.8787423754
  0
LINE
  5
224
100
AcDbEntity
  8
RACCORDO
100
AcDbLine
 62
7
  6
CONTINUOUS
 10
-22.8615841452
 20
16.6540967424
 11
-23.0058443817
 21
11.1153810061
  0
LWPOLYLINE
  5
225
100
AcDbEntity
  8
RACCORDO
100
AcDbPolyline
 62
7
  6
CONTINUOUS
 90
6
 70
0
 10
-22.5814854317
 20
26.3739318366
 10
-22.6128190446
 20
25.7945028892
 10
-22.6387773101
 20
25.1442787733
 10
-22.6600190438
 20
24.4880746936
 10
-22.6789481722
 20
23.8239517376
 10
-22.8615841452
 20
16.6540967424
  0
LWPOLYLINE
  5
226
100
AcDbEntity
  8
RACCORDO
100
AcDbPolyline
 62
7
  6
CONTINUOUS
 90
13
 70
0
 10
19.9303290025
 20
-28.0309005509
 10
19.9542848536
 20
-28.0417489097
 10
20.0450068929
 20
-28.0782655197
 10
20.1350719446
 20
-28.1073133859
 10
20.2244848468
 20
-28.1289392047
 10
20.3130157191
 20
-28.1430839394
 10
20.4000443493
 20
-28.1497069535
 10
20.4852028889
 20
-28.1488766035
 10
20.5681772343
 20
-28.1407043985
 10
20.6481669724
 20
-28.1254579425
 10
20.7245764894
 20
-28.103526297
 10
20.7971221548
 20
-28.0752985502
 10
20.8490040853
 20
-28.050164599
  0
LINE
  5
227
100
AcDbEntity
  8
RACCORDO
100
AcDbLine
 62
7
  6
CONTINUOUS
 10
19.9302368416
 20
-28.0308578977
 11
19.9303290025
 21
-28.0309005509
  0
LWPOLYLINE
  5
228
100
AcDbEntity
  8
RACCORDO
100
AcDbPolyline
 62
7
  6
CONTINUOUS
 90
3
 70
0
 10
-22.568538559
 20
-5.5019801499
 10
-22.4852074115
 20
-5.5590014395
 10
-22.4557157362
 20
-5.5773187828
  0
LINE
  5
229
100
AcDbEntity
  8
RACCORDO
100
AcDbLine
 62
7
  6
CONTINUOUS
 10
-22.6490665944
 20
-5.4391725481
 11
-22.568538559
 21
-5.5019801499
  0
LINE
  5
22A
100
AcDbEntity
  8
RACCORDO
100
AcDbLine
 62
7
  6
CONTINUOUS
 10
19.0636208567
 20
-27.6168617742
 11
19.9302363624
 21
-28.0308589317
  0
LWPOLYLINE
  5
22B
100
AcDbEntity
  8
RACCORDO
100
AcDbPolyline
 62
7
  6
CONTINUOUS
 90
4
 70
0
 10
16.3075636419
 20
-26.1959295203
 10
17.2300743371
 20
-26.6813539777
 10
18.1465822625
 20
-27.1561789712
 10
19.0636208567
 20
-27.6168617742
  0
LINE
  5
22C
100
AcDbEntity
  8
RACCORDO
100
AcDbLine
 62
7
  6
CONTINUOUS
 10
-18.0590938898
 20
-7.9902234009
 11
-12.1607942391
 21
-11.1004311481
  0
LINE
  5
22D
100
AcDbEntity
  8
RACCORDO
100
AcDbLine
 62
7
  6
CONTINUOUS
 10
-12.1607942391
 20
-11.1004311481
 11
-1.3106822369
 21
-16.8328602993
  0
LINE
  5
22E
100
AcDbEntity
  8
RACCORDO
100
AcDbLine
 62
7
  6
CONTINUOUS
 10
-1.310958427
 20
-16.8327165273
 11
9.5051113836
 21
-22.5777044855
  0
LINE
  5
22F
100
AcDbEntity
  8
RACCORDO
100
AcDbLine
 62
7
  6
CONTINUOUS
 10
14.4307279908
 20
-25.1993838525
 11
16.3075636419
 21
-26.1959295203
  0
LINE
  5
230
100
AcDbEntity
  8
RACCORDO
100
AcDbLine
 62
7
  6
CONTINUOUS
 10
9.5051113836
 20
-22.5777044855
 11
14.4307279908
 21
-25.1993838525
  0
LWPOLYLINE
  5
231
100
AcDbEntity
  8
RACCORDO
100
AcDbPolyline
 62
7
  6
CONTINUOUS
 90
6
 70
0
 10
-22.4561676186
 20
-5.5769917456
 10
-21.6767637204
 20
-6.0348263293
 10
-20.8057425905
 20
-6.5214953824
 10
-19.9088013131
 20
-7.00739121
 10
-18.992217924
 20
-7.4962427559
 10
-18.0590938898
 20
-7.9902234009
  0
LINE
  5
232
100
AcDbEntity
  8
RACCORDO
100
AcDbLine
 62
7
  6
CONTINUOUS
 10
-22.4561676186
 20
-5.5769917456
 11
-22.4556917181
 21
-5.5772789966
  0
LINE
  5
233
100
AcDbEntity
  8
SUPERFICI
100
AcDbLine
 62
250
  6
CONTINUOUS
 10
-10.143750063
 20
12.8745443009
 11
-10.0052619234
 21
13.2353328966
  0
LINE
  5
234
100
AcDbEntity
  8
DRAFT
100
AcDbLine
 62
7
  6
CONTINUOUS
 10
-8.7804403667
 20
8.5609775902
 11
-8.847471183
 21
8.5155020693
  0
LINE
  5
235
100
AcDbEntity
  8
RACCORDO
100
AcDbLine
 62
7
  6
CONTINUOUS
 10
-8.5961056218
 20
8.6860352728
 11
-8.6798941422
 21
8.6291908717
  0
LINE
  5
236
100
AcDbEntity
  8
DRAFT
100
AcDbLine
 62
7
  6
CONTINUOUS
 10
-8.9480174076
 20
8.4472887879
 11
-9.0150482239
 21
8.4018132669
  0
LINE
  5
237
100
AcDbEntity
  8
DRAFT
100
AcDbLine
 62
7
  6
CONTINUOUS
 10
-9.1155944484
 20
8.3335999855
 11
-9.1826252647
 21
8.2881244646
  0
LINE
  5
238
100
AcDbEntity
  8
RACCORDO
100
AcDbLine
 62
7
  6
CONTINUOUS
 10
-8.9830018426
 20
11.3113322474
 11
-9.1556173605
 21
11.2161093474
  0
LINE
  5
239
100
AcDbEntity
  8
RACCORDO
100
AcDbLine
 62
250
  6
CONTINUOUS
 10
-8.902242091
 20
11.3063558604
 11
-9.1568620073
 21
11.1658954479
  0
LINE
  5
23A
100
AcDbEntity
  8
DRAFT
100
AcDbLine
 62
7
  6
CONTINUOUS
 10
-8.7198516594
 20
11.0053620916
 11
-8.7866689129
 21
10.968502528
  0
LINE
  5
23B
100
AcDbEntity
  8
RACCORDO
100
AcDbLine
 62
7
  6
CONTINUOUS
 10
-8.5361042123
 20
11.1067258913
 11
-8.6196257792
 21
11.0606514369
  0
LINE
  5
23C
100
AcDbEntity
  8
DRAFT
100
AcDbLine
 62
7
  6
CONTINUOUS
 10
-8.8868947931
 20
10.9132131827
 11
-8.9537120466
 21
10.8763536191
  0
LINE
  5
23D
100
AcDbEntity
  8
DRAFT
100
AcDbLine
 62
7
  6
CONTINUOUS
 10
-9.0539379269
 20
10.8210642738
 11
-9.1207551803
 21
10.7842047103
  0
LINE
  5
23E
100
AcDbEntity
  8
SUPERFICI
100
AcDbLine
 62
250
  6
CONTINUOUS
 10
6.5434931767
 20
-15.203136109
 11
6.8650740824
 21
-15.2475053625
  0
LINE
  5
23F
100
AcDbEntity
  8
SUPERFICI
100
AcDbLine
 62
250
  6
CONTINUOUS
 10
-10.5081385973
 20
-7.0526713023
 11
-10.6327526948
 21
-6.8537269898
  0
LINE
  5
240
100
AcDbEntity
  8
SUPERFICI
100
AcDbLine
 62
250
  6
CONTINUOUS
 10
-11.3844016324
 20
-5.5800398354
 11
-11.2829050288
 21
-5.7597913895
  0
LINE
  5
241
100
AcDbEntity
  8
SUPERFICI
100
AcDbLine
 62
250
  6
CONTINUOUS
 10
-11.2829050288
 20
-5.7597913895
 11
-10.8305775944
 21
12.4888595545
  0
LINE
  5
242
100
AcDbEntity
  8
SUPERFICI
100
AcDbLine
 62
250
  6
CONTINUOUS
 10
-9.9843124902
 20
12.3478331249
 11
-10.4360405131
 21
-5.876635225
  0
LINE
  5
243
100
AcDbEntity
  8
SUPERFICI
100
AcDbLine
 62
250
  6
CONTINUOUS
 10
-10.6327526948
 20
-6.8537269898
 11
5.8566656453
 21
-15.5888208554
  0
LINE
  5
244
100
AcDbEntity
  8
SUPERFICI
100
AcDbLine
 62
250
  6
CONTINUOUS
 10
6.150863459
 20
-14.7882917867
 11
-10.3276817908
 21
-6.058957825
  0
LINE
  5
245
100
AcDbEntity
  8
RACCORDO
100
AcDbLine
 62
7
  6
CONTINUOUS
 10
-8.7275912229
 20
1.883713198
 11
-8.7275968417
 21
1.8837678786
  0
LINE
  5
246
100
AcDbEntity
  8
RACCORDO
100
AcDbLine
 62
7
  6
CONTINUOUS
 10
-8.4983712393
 20
11.1313403655
 11
-8.498376858
 21
11.1313950462
  0
LINE
  5
247
100
AcDbEntity
  8
DRAFT
100
AcDbLine
 62
7
  6
CONTINUOUS
 10
-9.2831579105
 20
1.5734371063
 11
-9.2887524648
 21
1.6305922312
  0
LINE
  5
248
100
AcDbEntity
  8
DRAFT
100
AcDbLine
 62
7
  6
CONTINUOUS
 10
-9.1161147768
 20
1.6655860151
 11
-9.1217093311
 21
1.7227411401
  0
LINE
  5
249
100
AcDbEntity
  8
DRAFT
100
AcDbLine
 62
7
  6
CONTINUOUS
 10
-8.9490716431
 20
1.757734924
 11
-8.9546661974
 21
1.8148900489
  0
LINE
  5
24A
100
AcDbEntity
  8
DRAFT
100
AcDbLine
 62
7
  6
CONTINUOUS
 10
-9.0539379269
 20
10.8210642738
 11
-9.0595324811
 21
10.8782193987
  0
LINE
  5
24B
100
AcDbEntity
  8
DRAFT
100
AcDbLine
 62
7
  6
CONTINUOUS
 10
-8.8868947931
 20
10.9132131827
 11
-8.8924893474
 21
10.9703683076
  0
LINE
  5
24C
100
AcDbEntity
  8
DRAFT
100
AcDbLine
 62
7
  6
CONTINUOUS
 10
-8.7198516594
 20
11.0053620916
 11
-8.7254462137
 21
11.0625172165
  0
LINE
  5
24D
100
AcDbEntity
  8
0
100
AcDbLine
 62
7
  6
CONTINUOUS
 10
-9.1386692386
 20
11.8998626128
 11
-9.5660280593
 21
-5.3414571758
  0
LINE
  5
24E
100
AcDbEntity
  8
DRAFT
100
AcDbLine
 62
7
  6
CONTINUOUS
 10
-9.1207551803
 20
10.7842047103
 11
-9.1826252647
 21
8.2881244646
  0
LINE
  5
24F
100
AcDbEntity
  8
DRAFT
100
AcDbLine
 62
7
  6
CONTINUOUS
 10
-9.4118452484
 20
-0.959502703
 11
-9.349975164
 21
1.5365775427
  0
LINE
  5
250
100
AcDbEntity
  8
DRAFT
100
AcDbLine
 62
7
  6
CONTINUOUS
 10
-9.0539379269
 20
10.8210642738
 11
-9.1155944484
 21
8.3335999855
  0
LINE
  5
251
100
AcDbEntity
  8
DRAFT
100
AcDbLine
 62
7
  6
CONTINUOUS
 10
-9.3448144321
 20
-0.914027182
 11
-9.2831579105
 21
1.5734371063
  0
LINE
  5
252
100
AcDbEntity
  8
DRAFT
100
AcDbLine
 62
7
  6
CONTINUOUS
 10
-8.9537120466
 20
10.8763536191
 11
-9.0150482239
 21
8.4018132669
  0
LINE
  5
253
100
AcDbEntity
  8
DRAFT
100
AcDbLine
 62
7
  6
CONTINUOUS
 10
-9.2442682076
 20
-0.8458139006
 11
-9.1829320303
 21
1.6287264516
  0
LINE
  5
254
100
AcDbEntity
  8
DRAFT
100
AcDbLine
 62
7
  6
CONTINUOUS
 10
-8.8868947931
 20
10.9132131827
 11
-8.9480174075
 21
8.4472887879
  0
LINE
  5
255
100
AcDbEntity
  8
DRAFT
100
AcDbLine
 62
7
  6
CONTINUOUS
 10
-9.1772373912
 20
-0.8003383797
 11
-9.1161147768
 21
1.6655860151
  0
LINE
  5
256
100
AcDbEntity
  8
DRAFT
100
AcDbLine
 62
7
  6
CONTINUOUS
 10
-8.7866689129
 20
10.968502528
 11
-8.847471183
 21
8.5155020693
  0
LINE
  5
257
100
AcDbEntity
  8
DRAFT
100
AcDbLine
 62
7
  6
CONTINUOUS
 10
-9.0766911667
 20
-0.7321250982
 11
-9.0158888966
 21
1.7208753605
  0
LINE
  5
258
100
AcDbEntity
  8
DRAFT
100
AcDbLine
 62
7
  6
CONTINUOUS
 10
-8.7198516594
 20
11.0053620916
 11
-8.7804403667
 21
8.5609775902
  0
LINE
  5
259
100
AcDbEntity
  8
DRAFT
100
AcDbLine
 62
7
  6
CONTINUOUS
 10
-9.0096603504
 20
-0.6866495773
 11
-8.9490716431
 21
1.757734924
  0
LINE
  5
25A
100
AcDbEntity
  8
DRAFT
100
AcDbLine
 62
7
  6
CONTINUOUS
 10
-8.6196257792
 20
11.0606514369
 11
-8.6798941422
 21
8.6291908717
  0
LINE
  5
25B
100
AcDbEntity
  8
DRAFT
100
AcDbLine
 62
7
  6
CONTINUOUS
 10
-8.9091141259
 20
-0.6184362959
 11
-8.8488457629
 21
1.8130242693
  0
LINE
  5
25C
100
AcDbEntity
  8
RACCORDO
100
AcDbLine
 62
250
  6
CONTINUOUS
 10
-8.5361042123
 20
11.1067258913
 11
-8.5961056218
 21
8.6860352728
  0
LINE
  5
25D
100
AcDbEntity
  8
RACCORDO
100
AcDbLine
 62
250
  6
CONTINUOUS
 10
-8.765324196
 20
1.8590987238
 11
-8.8253256055
 21
-0.5615918947
  0
LINE
  5
25E
100
AcDbEntity
  8
RACCORDO
100
AcDbLine
 62
7
  6
CONTINUOUS
 10
-8.4983265258
 20
11.1313174417
 11
-8.556805402
 21
8.7720517455
  0
LINE
  5
25F
100
AcDbEntity
  8
RACCORDO
100
AcDbLine
 62
7
  6
CONTINUOUS
 10
-8.7275465095
 20
1.8836902742
 11
-8.7860253857
 21
-0.475575422
  0
LINE
  5
260
100
AcDbEntity
  8
0
100
AcDbLine
 62
7
  6
CONTINUOUS
 10
-9.457669337
 20
-5.5237797758
 11
6.1752326613
 21
-13.8051432253
  0
LINE
  5
261
100
AcDbEntity
  8
DRAFT
100
AcDbLine
 62
7
  6
CONTINUOUS
 10
2.83199041
 20
-11.927469826
 11
5.0874399502
 21
-13.1222702147
  0
LINE
  5
262
100
AcDbEntity
  8
DRAFT
100
AcDbLine
 62
7
  6
CONTINUOUS
 10
-3.2686842086
 20
-8.6957023774
 11
-5.5241337489
 21
-7.5009019887
  0
LINE
  5
263
100
AcDbEntity
  8
DRAFT
100
AcDbLine
 62
7
  6
CONTINUOUS
 10
2.9028071196
 20
-11.8883643867
 11
5.1504713104
 21
-13.0790405694
  0
LINE
  5
264
100
AcDbEntity
  8
DRAFT
100
AcDbLine
 62
7
  6
CONTINUOUS
 10
-3.2056528485
 20
-8.6524727322
 11
-5.4533170392
 21
-7.4617965495
  0
LINE
  5
265
100
AcDbEntity
  8
DRAFT
100
AcDbLine
 62
7
  6
CONTINUOUS
 10
3.0090321842
 20
-11.8297062279
 11
5.2450183506
 21
-13.0141961015
  0
LINE
  5
266
100
AcDbEntity
  8
DRAFT
100
AcDbLine
 62
7
  6
CONTINUOUS
 10
-3.1111058083
 20
-8.5876282643
 11
-5.3470919747
 21
-7.4031383906
  0
LINE
  5
267
100
AcDbEntity
  8
DRAFT
100
AcDbLine
 62
7
  6
CONTINUOUS
 10
3.0798488938
 20
-11.7906007887
 11
5.3080497108
 21
-12.9709664563
  0
LINE
  5
268
100
AcDbEntity
  8
DRAFT
100
AcDbLine
 62
7
  6
CONTINUOUS
 10
-3.0480744481
 20
-8.544398619
 11
-5.276275265
 21
-7.3640329514
  0
LINE
  5
269
100
AcDbEntity
  8
DRAFT
100
AcDbLine
 62
7
  6
CONTINUOUS
 10
3.1860739583
 20
-11.7319426299
 11
5.402596751
 21
-12.9061219884
  0
LINE
  5
26A
100
AcDbEntity
  8
DRAFT
100
AcDbLine
 62
7
  6
CONTINUOUS
 10
-2.9535274079
 20
-8.4795541511
 11
-5.1700502005
 21
-7.3053747926
  0
LINE
  5
26B
100
AcDbEntity
  8
DRAFT
100
AcDbLine
 62
7
  6
CONTINUOUS
 10
3.256890668
 20
-11.6928371906
 11
5.4656281111
 21
-12.8628923431
  0
LINE
  5
26C
100
AcDbEntity
  8
DRAFT
100
AcDbLine
 62
7
  6
CONTINUOUS
 10
-2.8904960477
 20
-8.4363245058
 11
-5.0992334909
 21
-7.2662693534
  0
LINE
  5
26D
100
AcDbEntity
  8
DRAFT
100
AcDbLine
 62
7
  6
CONTINUOUS
 10
3.3631157325
 20
-11.6341790318
 11
5.5601751513
 21
-12.7980478752
  0
LINE
  5
26E
100
AcDbEntity
  8
DRAFT
100
AcDbLine
 62
7
  6
CONTINUOUS
 10
-2.7959490075
 20
-8.3714800379
 11
-4.9930084264
 21
-7.2076111945
  0
LINE
  5
26F
100
AcDbEntity
  8
RACCORDO
100
AcDbLine
 62
250
  6
CONTINUOUS
 10
-4.9044875393
 20
-7.1587293955
 11
-2.7171598073
 21
-8.3174429813
  0
LINE
  5
270
100
AcDbEntity
  8
RACCORDO
100
AcDbLine
 62
250
  6
CONTINUOUS
 10
3.4516366196
 20
-11.5852972328
 11
5.6389643515
 21
-12.7440108186
  0
LINE
  5
271
100
AcDbEntity
  8
RACCORDO
100
AcDbLine
 62
7
  6
CONTINUOUS
 10
-4.8077517093
 20
-7.165147918
 11
-2.6795740258
 21
-8.2925273952
  0
LINE
  5
272
100
AcDbEntity
  8
RACCORDO
100
AcDbLine
 62
7
  6
CONTINUOUS
 10
3.5483724495
 20
-11.5917157553
 11
5.6765501331
 21
-12.7190952325
  0
LINE
  5
273
100
AcDbEntity
  8
DRAFT
100
AcDbLine
 62
7
  6
CONTINUOUS
 10
-3.1599074616
 20
-8.681701346
 11
-3.2056528485
 21
-8.6524727322
  0
LINE
  5
274
100
AcDbEntity
  8
DRAFT
100
AcDbLine
 62
7
  6
CONTINUOUS
 10
-3.0023290612
 20
-8.5736272328
 11
-3.0480744481
 21
-8.544398619
  0
LINE
  5
275
100
AcDbEntity
  8
DRAFT
100
AcDbLine
 62
7
  6
CONTINUOUS
 10
-2.8447506608
 20
-8.4655531197
 11
-2.8904960477
 21
-8.4363245058
  0
LINE
  5
276
100
AcDbEntity
  8
DRAFT
100
AcDbLine
 62
7
  6
CONTINUOUS
 10
5.1962166973
 20
-13.1082691833
 11
5.1504713104
 21
-13.0790405694
  0
LINE
  5
277
100
AcDbEntity
  8
DRAFT
100
AcDbLine
 62
7
  6
CONTINUOUS
 10
5.3537950976
 20
-13.0001950701
 11
5.3080497108
 21
-12.9709664563
  0
LINE
  5
278
100
AcDbEntity
  8
DRAFT
100
AcDbLine
 62
7
  6
CONTINUOUS
 10
5.511373498
 20
-12.8921209569
 11
5.4656281111
 21
-12.8628923431
  0
LINE
  5
279
100
AcDbEntity
  8
RACCORDO
100
AcDbLine
 62
7
  6
CONTINUOUS
 10
-9.3848373442
 20
1.9684821798
 11
-9.2122218263
 21
2.0637050799
  0
LINE
  5
27A
100
AcDbEntity
  8
RACCORDO
100
AcDbLine
 62
250
  6
CONTINUOUS
 10
-9.3860819909
 20
1.9182682804
 11
-9.1314620747
 21
2.0587286929
  0
LINE
  5
27B
100
AcDbEntity
  8
RACCORDO
100
AcDbLine
 62
7
  6
CONTINUOUS
 10
-8.765324196
 20
1.8590987238
 11
-8.8488457629
 21
1.8130242693
  0
LINE
  5
27C
100
AcDbEntity
  8
DRAFT
100
AcDbLine
 62
7
  6
CONTINUOUS
 10
-8.9490716431
 20
1.757734924
 11
-9.0158888966
 21
1.7208753605
  0
LINE
  5
27D
100
AcDbEntity
  8
DRAFT
100
AcDbLine
 62
7
  6
CONTINUOUS
 10
-9.1161147768
 20
1.6655860151
 11
-9.1829320303
 21
1.6287264516
  0
LINE
  5
27E
100
AcDbEntity
  8
DRAFT
100
AcDbLine
 62
7
  6
CONTINUOUS
 10
-9.2831579105
 20
1.5734371063
 11
-9.349975164
 21
1.5365775427
  0
LINE
  5
27F
100
AcDbEntity
  8
RACCORDO
100
AcDbLine
 62
7
  6
CONTINUOUS
 10
-2.6795320735
 20
-8.2926514332
 11
-2.6795741172
 21
-8.2925354645
  0
LINE
  5
280
100
AcDbEntity
  8
RACCORDO
100
AcDbLine
 62
250
  6
CONTINUOUS
 10
-2.7223991524
 20
-8.725054936
 11
-2.7122157861
 21
-8.3142182648
  0
LINE
  5
281
100
AcDbEntity
  8
RACCORDO
100
AcDbLine
 62
7
  6
CONTINUOUS
 10
-2.6889613089
 20
-8.6730636246
 11
-2.6795308264
 21
-8.2926012212
  0
LINE
  5
282
100
AcDbEntity
  8
RACCORDO
100
AcDbLine
 62
7
  6
CONTINUOUS
 10
-8.8253256055
 20
-0.5615918947
 11
-8.9091141259
 21
-0.6184362959
  0
LINE
  5
283
100
AcDbEntity
  8
DRAFT
100
AcDbLine
 62
7
  6
CONTINUOUS
 10
-9.1772373912
 20
-0.8003383797
 11
-9.2442682076
 21
-0.8458139006
  0
LINE
  5
284
100
AcDbEntity
  8
DRAFT
100
AcDbLine
 62
7
  6
CONTINUOUS
 10
-9.0096603504
 20
-0.6866495773
 11
-9.0766911667
 21
-0.7321250982
  0
LINE
  5
285
100
AcDbEntity
  8
DRAFT
100
AcDbLine
 62
7
  6
CONTINUOUS
 10
-9.3448144321
 20
-0.914027182
 11
-9.4118452484
 21
-0.959502703
  0
LINE
  5
286
100
AcDbEntity
  8
RACCORDO
100
AcDbLine
 62
250
  6
CONTINUOUS
 10
-8.7602314691
 20
1.8620732306
 11
-9.1314620747
 21
2.0587286929
  0
LINE
  5
287
100
AcDbEntity
  8
RACCORDO
100
AcDbLine
 62
7
  6
CONTINUOUS
 10
-8.7275897088
 20
1.8837641002
 11
-9.0695508805
 21
2.0649143913
  0
LINE
  5
288
100
AcDbEntity
  8
SUPERFICI
100
AcDbLine
 62
250
  6
CONTINUOUS
 10
5.8566656453
 20
-15.5888208554
 11
5.9812797429
 21
-15.7877651678
  0
LINE
  5
289
100
AcDbEntity
  8
SUPERFICI
100
AcDbLine
 62
250
  6
CONTINUOUS
 10
-10.8305775944
 20
12.4888595545
 11
-10.932074198
 21
12.6686111085
  0
LINE
  5
28A
100
AcDbEntity
  8
DRAFT
100
AcDbLine
 62
7
  6
CONTINUOUS
 10
-5.5241337489
 20
-7.5009019887
 11
-5.5727151611
 21
-7.5817929022
  0
LINE
  5
28B
100
AcDbEntity
  8
DRAFT
100
AcDbLine
 62
7
  6
CONTINUOUS
 10
-5.3470919747
 20
-7.4031383906
 11
-5.4017326402
 21
-7.4941183178
  0
LINE
  5
28C
100
AcDbEntity
  8
DRAFT
100
AcDbLine
 62
7
  6
CONTINUOUS
 10
-5.1700502005
 20
-7.3053747926
 11
-5.224690866
 21
-7.3963547198
  0
LINE
  5
28D
100
AcDbEntity
  8
DRAFT
100
AcDbLine
 62
7
  6
CONTINUOUS
 10
-4.9930084264
 20
-7.2076111945
 11
-5.0476490918
 21
-7.2985911217
  0
LINE
  5
28E
100
AcDbEntity
  8
0
100
AcDbLine
 62
250
  6
CONTINUOUS
 10
-9.5660280593
 20
-5.3414571758
 11
-10.4360405131
 21
-5.876635225
  0
LINE
  5
28F
100
AcDbEntity
  8
0
100
AcDbLine
 62
250
  6
CONTINUOUS
 10
-10.3276817908
 20
-6.058957825
 11
-9.457669337
 21
-5.5237797758
  0
LINE
  5
290
100
AcDbEntity
  8
DRAFT
100
AcDbLine
 62
7
  6
CONTINUOUS
 10
-9.4574620408
 20
-0.9614810213
 11
-9.4118452484
 21
-0.959502703
  0
LINE
  5
291
100
AcDbEntity
  8
DRAFT
100
AcDbLine
 62
7
  6
CONTINUOUS
 10
-9.3432300168
 20
-0.8501056964
 11
-9.2442682076
 21
-0.8458139006
  0
LINE
  5
292
100
AcDbEntity
  8
DRAFT
100
AcDbLine
 62
7
  6
CONTINUOUS
 10
-9.1756529759
 20
-0.7364168941
 11
-9.0766911667
 21
-0.7321250982
  0
LINE
  5
293
100
AcDbEntity
  8
DRAFT
100
AcDbLine
 62
7
  6
CONTINUOUS
 10
-9.0080759351
 20
-0.6227280917
 11
-8.9091141259
 21
-0.6184362959
  0
LINE
  5
294
100
AcDbEntity
  8
0
100
AcDbLine
 62
7
  6
CONTINUOUS
 10
22.3794862666
 20
-12.4816538635
 11
23.0689078124
 21
-12.8468675897
  0
LINE
  5
295
100
AcDbEntity
  8
DRAFT
100
AcDbLine
 62
7
  6
CONTINUOUS
 10
-3.2686842086
 20
-8.6957023774
 11
-3.3120741128
 21
-8.7793434371
  0
LINE
  5
296
100
AcDbEntity
  8
DRAFT
100
AcDbLine
 62
7
  6
CONTINUOUS
 10
-3.1111058083
 20
-8.5876282643
 11
-3.1599074616
 21
-8.681701346
  0
LINE
  5
297
100
AcDbEntity
  8
DRAFT
100
AcDbLine
 62
7
  6
CONTINUOUS
 10
-2.9535274079
 20
-8.4795541511
 11
-3.0023290612
 21
-8.5736272328
  0
LINE
  5
298
100
AcDbEntity
  8
DRAFT
100
AcDbLine
 62
7
  6
CONTINUOUS
 10
-2.7959490075
 20
-8.3714800379
 11
-2.8447506608
 21
-8.4655531197
  0
LINE
  5
299
100
AcDbEntity
  8
DRAFT
100
AcDbLine
 62
7
  6
CONTINUOUS
 10
-9.3955230141
 20
1.5373806225
 11
-9.349975164
 21
1.5365775427
  0
LINE
  5
29A
100
AcDbEntity
  8
DRAFT
100
AcDbLine
 62
7
  6
CONTINUOUS
 10
-9.2887524648
 20
1.6305922312
 11
-9.1829320303
 21
1.6287264516
  0
LINE
  5
29B
100
AcDbEntity
  8
DRAFT
100
AcDbLine
 62
7
  6
CONTINUOUS
 10
-9.1217093311
 20
1.7227411401
 11
-9.0158888966
 21
1.7208753605
  0
LINE
  5
29C
100
AcDbEntity
  8
DRAFT
100
AcDbLine
 62
7
  6
CONTINUOUS
 10
-8.9546661974
 20
1.8148900489
 11
-8.8488457629
 21
1.8130242693
  0
LINE
  5
29D
100
AcDbEntity
  8
RACCORDO
100
AcDbLine
 62
7
  6
CONTINUOUS
 10
5.6765920853
 20
-12.7192192705
 11
5.6765500416
 21
-12.7191033018
  0
LINE
  5
29E
100
AcDbEntity
  8
SUPERFICI
100
AcDbLine
 62
250
  6
CONTINUOUS
 10
6.3456682772
 20
4.1394504354
 11
6.4841564168
 21
4.500239031
  0
LINE
  5
29F
100
AcDbEntity
  8
RACCORDO
100
AcDbLine
 62
7
  6
CONTINUOUS
 10
-4.9044875393
 20
-7.1587293955
 11
-4.9930084264
 21
-7.2076111945
  0
LINE
  5
2A0
100
AcDbEntity
  8
DRAFT
100
AcDbLine
 62
7
  6
CONTINUOUS
 10
-5.0992334909
 20
-7.2662693534
 11
-5.1700502005
 21
-7.3053747926
  0
LINE
  5
2A1
100
AcDbEntity
  8
DRAFT
100
AcDbLine
 62
7
  6
CONTINUOUS
 10
-5.276275265
 20
-7.3640329514
 11
-5.3470919747
 21
-7.4031383906
  0
LINE
  5
2A2
100
AcDbEntity
  8
DRAFT
100
AcDbLine
 62
7
  6
CONTINUOUS
 10
-5.4533170392
 20
-7.4617965495
 11
-5.5241337489
 21
-7.5009019887
  0
LINE
  5
2A3
100
AcDbEntity
  8
SUPERFICI
100
AcDbLine
 62
250
  6
CONTINUOUS
 10
6.9958206112
 20
3.045514835
 11
7.3174015168
 21
3.0011455814
  0
LINE
  5
2A4
100
AcDbEntity
  8
RACCORDO
100
AcDbLine
 62
250
  6
CONTINUOUS
 10
5.6337250065
 20
-13.1516227733
 11
5.6439083728
 21
-12.7407861021
  0
LINE
  5
2A5
100
AcDbEntity
  8
RACCORDO
100
AcDbLine
 62
7
  6
CONTINUOUS
 10
5.66716285
 20
-13.0996314618
 11
5.6765933324
 21
-12.7191690585
  0
LINE
  5
2A6
100
AcDbEntity
  8
SUPERFICI
100
AcDbLine
 62
7
  6
CONTINUOUS
 10
6.6000720618
 20
3.3345333392
 11
6.1477446274
 21
-14.9141176047
  0
LINE
  5
2A7
100
AcDbEntity
  8
SUPERFICI
100
AcDbLine
 62
250
  6
CONTINUOUS
 10
6.9958206112
 20
3.045514835
 11
6.5434931767
 21
-15.203136109
  0
LINE
  5
2A8
100
AcDbEntity
  8
RACCORDO
100
AcDbLine
 62
7
  6
CONTINUOUS
 10
-2.7171598073
 20
-8.3174429813
 11
-2.7959490075
 21
-8.3714800379
  0
LINE
  5
2A9
100
AcDbEntity
  8
DRAFT
100
AcDbLine
 62
7
  6
CONTINUOUS
 10
-2.8904960477
 20
-8.4363245058
 11
-2.9535274079
 21
-8.4795541511
  0
LINE
  5
2AA
100
AcDbEntity
  8
DRAFT
100
AcDbLine
 62
7
  6
CONTINUOUS
 10
-3.0480744481
 20
-8.544398619
 11
-3.1111058083
 21
-8.5876282643
  0
LINE
  5
2AB
100
AcDbEntity
  8
DRAFT
100
AcDbLine
 62
7
  6
CONTINUOUS
 10
-3.2056528485
 20
-8.6524727322
 11
-3.2686842086
 21
-8.6957023774
  0
LINE
  5
2AC
100
AcDbEntity
  8
RACCORDO
100
AcDbLine
 62
250
  6
CONTINUOUS
 10
-3.0240343305
 20
-8.9319294461
 11
-2.7223991524
 21
-8.725054936
  0
LINE
  5
2AD
100
AcDbEntity
  8
RACCORDO
100
AcDbLine
 62
7
  6
CONTINUOUS
 10
-2.9859711817
 20
-8.952092994
 11
-2.7540751304
 21
-8.7930486069
  0
LINE
  5
2AE
100
AcDbEntity
  8
RACCORDO
100
AcDbLine
 62
250
  6
CONTINUOUS
 10
-8.840379535
 20
11.3125672855
 11
-8.8403308968
 21
11.3125415588
  0
LINE
  5
2AF
100
AcDbEntity
  8
RACCORDO
100
AcDbLine
 62
250
  6
CONTINUOUS
 10
-8.5310114854
 20
11.1097003982
 11
-8.902242091
 21
11.3063558604
  0
LINE
  5
2B0
100
AcDbEntity
  8
RACCORDO
100
AcDbLine
 62
7
  6
CONTINUOUS
 10
-8.4983697252
 20
11.1313912677
 11
-8.8403308968
 21
11.3125415588
  0
LINE
  5
2B1
100
AcDbEntity
  8
SUPERFICI
100
AcDbLine
 62
7
  6
CONTINUOUS
 10
-10.0931111759
 20
12.4054680707
 11
6.3963071642
 21
3.6703742052
  0
LINE
  5
2B2
100
AcDbEntity
  8
SUPERFICI
100
AcDbLine
 62
250
  6
CONTINUOUS
 10
-10.143750063
 20
12.8745443009
 11
6.3456682772
 21
4.1394504354
  0
LINE
  5
2B3
100
AcDbEntity
  8
DRAFT
100
AcDbLine
 62
7
  6
CONTINUOUS
 10
2.83199041
 20
-11.927469826
 11
2.7834089978
 21
-12.0083607395
  0
LINE
  5
2B4
100
AcDbEntity
  8
DRAFT
100
AcDbLine
 62
7
  6
CONTINUOUS
 10
3.0090321842
 20
-11.8297062279
 11
2.9543915187
 21
-11.9206861551
  0
LINE
  5
2B5
100
AcDbEntity
  8
DRAFT
100
AcDbLine
 62
7
  6
CONTINUOUS
 10
3.1860739583
 20
-11.7319426299
 11
3.1314332929
 21
-11.8229225571
  0
LINE
  5
2B6
100
AcDbEntity
  8
DRAFT
100
AcDbLine
 62
7
  6
CONTINUOUS
 10
3.3631157325
 20
-11.6341790318
 11
3.308475067
 21
-11.725158959
  0
LINE
  5
2B7
100
AcDbEntity
  8
RACCORDO
100
AcDbLine
 62
250
  6
CONTINUOUS
 10
22.3995628002
 20
5.6942369021
 11
20.9231055026
 21
4.6925658304
  0
LINE
  5
2B8
100
AcDbEntity
  8
RACCORDO
100
AcDbLine
 62
250
  6
CONTINUOUS
 10
21.923937012
 20
3.0096913398
 11
23.4832881506
 21
3.8707766017
  0
LINE
  5
2B9
100
AcDbEntity
  8
DRAFT
100
AcDbLine
 62
7
  6
CONTINUOUS
 10
-9.2282420571
 20
8.2861461463
 11
-9.1826252647
 21
8.2881244646
  0
LINE
  5
2BA
100
AcDbEntity
  8
DRAFT
100
AcDbLine
 62
7
  6
CONTINUOUS
 10
-9.1140100331
 20
8.3975214711
 11
-9.0150482239
 21
8.4018132669
  0
LINE
  5
2BB
100
AcDbEntity
  8
DRAFT
100
AcDbLine
 62
7
  6
CONTINUOUS
 10
-8.9464329923
 20
8.5112102735
 11
-8.847471183
 21
8.5155020693
  0
LINE
  5
2BC
100
AcDbEntity
  8
DRAFT
100
AcDbLine
 62
7
  6
CONTINUOUS
 10
-8.7788559514
 20
8.6248990758
 11
-8.6798941422
 21
8.6291908717
  0
LINE
  5
2BD
100
AcDbEntity
  8
DRAFT
100
AcDbLine
 62
7
  6
CONTINUOUS
 10
5.0874399502
 20
-13.1222702147
 11
5.0440500461
 21
-13.2059112744
  0
LINE
  5
2BE
100
AcDbEntity
  8
DRAFT
100
AcDbLine
 62
7
  6
CONTINUOUS
 10
5.2450183506
 20
-13.0141961015
 11
5.1962166973
 21
-13.1082691833
  0
LINE
  5
2BF
100
AcDbEntity
  8
DRAFT
100
AcDbLine
 62
7
  6
CONTINUOUS
 10
5.402596751
 20
-12.9061219884
 11
5.3537950976
 21
-13.0001950701
  0
LINE
  5
2C0
100
AcDbEntity
  8
DRAFT
100
AcDbLine
 62
7
  6
CONTINUOUS
 10
5.5601751513
 20
-12.7980478752
 11
5.511373498
 21
-12.8921209569
  0
LINE
  5
2C1
100
AcDbEntity
  8
RACCORDO
100
AcDbLine
 62
7
  6
CONTINUOUS
 10
3.4516366196
 20
-11.5852972328
 11
3.3631157325
 21
-11.6341790318
  0
LINE
  5
2C2
100
AcDbEntity
  8
DRAFT
100
AcDbLine
 62
7
  6
CONTINUOUS
 10
3.256890668
 20
-11.6928371906
 11
3.1860739583
 21
-11.7319426299
  0
LINE
  5
2C3
100
AcDbEntity
  8
DRAFT
100
AcDbLine
 62
7
  6
CONTINUOUS
 10
3.0798488938
 20
-11.7906007887
 11
3.0090321842
 21
-11.8297062279
  0
LINE
  5
2C4
100
AcDbEntity
  8
DRAFT
100
AcDbLine
 62
7
  6
CONTINUOUS
 10
2.9028071196
 20
-11.8883643867
 11
2.83199041
 21
-11.927469826
  0
LINE
  5
2C5
100
AcDbEntity
  8
DRAFT
100
AcDbLine
 62
7
  6
CONTINUOUS
 10
-9.1663030305
 20
10.78500779
 11
-9.1207551803
 21
10.7842047103
  0
LINE
  5
2C6
100
AcDbEntity
  8
DRAFT
100
AcDbLine
 62
7
  6
CONTINUOUS
 10
-9.0595324811
 20
10.8782193987
 11
-8.9537120466
 21
10.8763536191
  0
LINE
  5
2C7
100
AcDbEntity
  8
DRAFT
100
AcDbLine
 62
7
  6
CONTINUOUS
 10
-8.8924893474
 20
10.9703683076
 11
-8.7866689129
 21
10.968502528
  0
LINE
  5
2C8
100
AcDbEntity
  8
DRAFT
100
AcDbLine
 62
7
  6
CONTINUOUS
 10
-8.7254462137
 20
11.0625172165
 11
-8.6196257792
 21
11.0606514369
  0
LINE
  5
2C9
100
AcDbEntity
  8
RACCORDO
100
AcDbLine
 62
7
  6
CONTINUOUS
 10
5.6389643515
 20
-12.7440108186
 11
5.5601751513
 21
-12.7980478752
  0
LINE
  5
2CA
100
AcDbEntity
  8
DRAFT
100
AcDbLine
 62
7
  6
CONTINUOUS
 10
5.4656281111
 20
-12.8628923431
 11
5.402596751
 21
-12.9061219884
  0
LINE
  5
2CB
100
AcDbEntity
  8
DRAFT
100
AcDbLine
 62
7
  6
CONTINUOUS
 10
5.1504713104
 20
-13.0790405694
 11
5.0874399502
 21
-13.1222702147
  0
LINE
  5
2CC
100
AcDbEntity
  8
DRAFT
100
AcDbLine
 62
7
  6
CONTINUOUS
 10
5.3080497108
 20
-12.9709664563
 11
5.2450183506
 21
-13.0141961015
  0
LINE
  5
2CD
100
AcDbEntity
  8
RACCORDO
100
AcDbLine
 62
250
  6
CONTINUOUS
 10
5.6337250065
 20
-13.1516227733
 11
5.3320898284
 21
-13.3584972833
  0
LINE
  5
2CE
100
AcDbEntity
  8
RACCORDO
100
AcDbLine
 62
7
  6
CONTINUOUS
 10
5.6020490285
 20
-13.2196164442
 11
5.3701529771
 21
-13.3786608313
  0
LINE
  5
2CF
100
AcDbEntity
  8
0
100
AcDbLine
 62
7
  6
CONTINUOUS
 10
2.5115965999
 20
-14.3418679833
 11
2.5216369714
 21
-14.3356451431
  0
LINE
  5
2D0
100
AcDbEntity
  8
0
100
AcDbLine
 62
7
  6
CONTINUOUS
 10
3.2070042454
 20
-14.7059185808
 11
3.2171754408
 21
-14.6996618882
  0
LINE
  5
2D1
100
AcDbEntity
  8
0
100
AcDbLine
 62
7
  6
CONTINUOUS
 10
3.4237321496
 20
-14.8192225705
 11
3.433912398
 21
-14.812960309
  0
LINE
  5
2D2
100
AcDbEntity
  8
0
100
AcDbLine
 62
7
  6
CONTINUOUS
 10
3.5682448239
 20
-14.8947383043
 11
3.5784289895
 21
-14.8884736332
  0
LINE
  5
2D3
100
AcDbEntity
  8
0
100
AcDbLine
 62
7
  6
CONTINUOUS
 10
3.7850612736
 20
-15.0079848499
 11
3.7952482492
 21
-15.0017184503
  0
LINE
  5
2D4
100
AcDbEntity
  8
0
100
AcDbLine
 62
7
  6
CONTINUOUS
 10
4.001924104
 20
-15.1211935108
 11
4.0121105838
 21
-15.1149274161
  0
LINE
  5
2D5
100
AcDbEntity
  8
0
100
AcDbLine
 62
7
  6
CONTINUOUS
 10
2.7281711358
 20
-14.4552663156
 11
2.7384865486
 21
-14.4492234043
  0
LINE
  5
2D6
100
AcDbEntity
  8
0
100
AcDbLine
 62
7
  6
CONTINUOUS
 10
3.1242903414
 20
-15.781306549
 11
3.1343918893
 21
-15.7750926992
  0
LINE
  5
2D7
100
AcDbEntity
  8
0
100
AcDbLine
 62
7
  6
CONTINUOUS
 10
4.3298780429
 20
-15.2922774362
 11
4.3400584483
 21
-15.2860150782
  0
LINE
  5
2D8
100
AcDbEntity
  8
0
100
AcDbLine
 62
7
  6
CONTINUOUS
 10
4.735161994
 20
-15.5035082337
 11
4.7453288239
 21
-15.4972542265
  0
LINE
  5
2D9
100
AcDbEntity
  8
0
100
AcDbLine
 62
7
  6
CONTINUOUS
 10
3.8308800135
 20
-16.1535928273
 11
3.8409776565
 21
-16.1473813796
  0
LINE
  5
2DA
100
AcDbEntity
  8
0
100
AcDbLine
 62
7
  6
CONTINUOUS
 10
5.0633906439
 20
-15.6744231739
 11
5.0735453937
 21
-15.6681765976
  0
LINE
  5
2DB
100
AcDbEntity
  8
0
100
AcDbLine
 62
7
  6
CONTINUOUS
 10
4.263108601
 20
-16.3809433868
 11
4.2732038035
 21
-16.3747334403
  0
LINE
  5
2DC
100
AcDbEntity
  8
0
100
AcDbLine
 62
7
  6
CONTINUOUS
 10
5.556913375
 20
-15.9311506305
 11
5.5670564092
 21
-15.9249112609
  0
LINE
  5
2DD
100
AcDbEntity
  8
0
100
AcDbLine
 62
7
  6
CONTINUOUS
 10
4.6837983002
 20
-16.6019332072
 11
4.6938911133
 21
-16.5957247305
  0
LINE
  5
2DE
100
AcDbEntity
  8
0
100
AcDbLine
 62
7
  6
CONTINUOUS
 10
5.774228772
 20
-16.0441021598
 11
5.7843728553
 21
-16.0378621448
  0
LINE
  5
2DF
100
AcDbEntity
  8
0
100
AcDbLine
 62
7
  6
CONTINUOUS
 10
5.1047544596
 20
-16.8227745225
 11
5.1148448814
 21
-16.8165675168
  0
LINE
  5
2E0
100
AcDbEntity
  8
0
100
AcDbLine
 62
7
  6
CONTINUOUS
 10
5.5788679793
 20
-16.6413847475
 11
5.5889356179
 21
-16.6351917566
  0
LINE
  5
2E1
100
AcDbEntity
  8
0
100
AcDbLine
 62
7
  6
CONTINUOUS
 10
6.2687201378
 20
-16.3002425577
 11
6.278948171
 21
-16.293950902
  0
LINE
  5
2E2
100
AcDbEntity
  8
0
100
AcDbLine
 62
7
  6
CONTINUOUS
 10
5.4656001531
 20
-17.0118313658
 11
5.4756885324
 21
-17.0056256165
  0
LINE
  5
2E3
100
AcDbEntity
  8
0
100
AcDbLine
 62
7
  6
CONTINUOUS
 10
-19.9381329863
 20
28.1221825432
 11
22.3996843299
 21
5.694172523
  0
LINE
  5
2E4
100
AcDbEntity
  8
0
100
AcDbLine
 62
7
  6
CONTINUOUS
 10
6.7800804761
 20
-16.5631825418
 11
6.790129699
 21
-16.5570008791
  0
LINE
  5
2E5
100
AcDbEntity
  8
0
100
AcDbLine
 62
7
  6
CONTINUOUS
 10
6.4940746475
 20
-16.9076274825
 11
6.5041332052
 21
-16.9014400777
  0
LINE
  5
2E6
100
AcDbEntity
  8
0
100
AcDbLine
 62
7
  6
CONTINUOUS
 10
6.1613401773
 20
-17.3756837188
 11
6.1714246936
 21
-17.3694803458
  0
LINE
  5
2E7
100
AcDbEntity
  8
0
100
AcDbLine
 62
7
  6
CONTINUOUS
 10
6.7588600633
 20
-17.0447931077
 11
6.768918009
 21
-17.0386060793
  0
LINE
  5
2E8
100
AcDbEntity
  8
0
100
AcDbLine
 62
7
  6
CONTINUOUS
 10
6.5228227871
 20
-17.5643513216
 11
6.5329053522
 21
-17.5581491488
  0
LINE
  5
2E9
100
AcDbEntity
  8
ASSI
100
AcDbLine
 62
7
  6
CONTINUOUS
 10
7.0437358309
 20
-17.2830623752
 11
7.0336759517
 21
-17.289250593
  0
LINE
  5
2EA
100
AcDbEntity
  8
0
100
AcDbLine
 62
7
  6
CONTINUOUS
 10
7.1744043545
 20
-17.9037275532
 11
7.1844835027
 21
-17.8975274823
  0
LINE
  5
2EB
100
AcDbEntity
  8
0
100
AcDbLine
 62
7
  6
CONTINUOUS
 10
22.4338364358
 20
-10.2889658782
 11
23.1437862014
 21
-9.8259948568
  0
LINE
  5
2EC
100
AcDbEntity
  8
0
100
AcDbLine
 62
7
  6
CONTINUOUS
 10
23.0689078124
 20
-12.8468675897
 11
22.3625232444
 21
-13.1660052785
  0
LINE
  5
2ED
100
AcDbEntity
  8
0
100
AcDbLine
 62
7
  6
CONTINUOUS
 10
22.3625232444
 20
-13.1660052785
 11
22.4338364358
 21
-10.2889658782
  0
LINE
  5
2EE
100
AcDbEntity
  8
0
100
AcDbLine
 62
7
  6
CONTINUOUS
 10
23.0689078124
 20
-12.8468675897
 11
22.7294074273
 21
-26.5436398793
  0
LINE
  5
2EF
100
AcDbEntity
  8
0
100
AcDbLine
 62
7
  6
CONTINUOUS
 10
23.4833615375
 20
3.8737373092
 11
23.1437862014
 21
-9.8259948568
  0
LINE
  5
2F0
100
AcDbEntity
  8
RACCORDO
100
AcDbLine
 62
250
  6
CONTINUOUS
 10
22.7294058633
 20
-26.5436390483
 11
21.170054702
 21
-27.4047207575
  0
LINE
  5
2F1
100
AcDbEntity
  8
RACCORDO
100
AcDbLine
 62
7
  6
CONTINUOUS
 10
20.848542894
 20
-28.0504078315
 11
20.8489965669
 21
-28.0501685586
  0
LINE
  5
2F2
100
AcDbEntity
  8
SUPERFICI
100
AcDbLine
 62
7
  6
CONTINUOUS
 10
20.848569286
 20
-28.0504027057
 11
22.3678534474
 21
-27.2501195565
  0
ARC
  5
2F3
100
AcDbEntity
  8
SUPERFICI
100
AcDbCircle
 62
250
  6
CONTINUOUS
 10
-527.368816417
 20
-1003.2830410649
 40
1122.3241169545
100
AcDbArc
 50
61.8117894255
 51
62.1049888314
  0
ARC
  5
2F4
100
AcDbEntity
  8
SUPERFICI
100
AcDbCircle
 62
250
  6
CONTINUOUS
 10
-518.2022569235
 20
-984.3621953158
 40
1101.3134077224
100
AcDbArc
 50
62.0659332709
 51
62.2588044174
  0
ARC
  5
2F5
100
AcDbEntity
  8
SUPERFICI
100
AcDbCircle
 62
250
  6
CONTINUOUS
 10
-466.5455149267
 20
-889.671792188
 40
993.456020346
100
AcDbArc
 50
61.5990125541
 51
61.8081372557
  0
ARC
  5
2F6
100
AcDbEntity
  8
SUPERFICI
100
AcDbCircle
 62
250
  6
CONTINUOUS
 10
-436.454462806
 20
-828.6170021212
 40
925.4178627955
100
AcDbArc
 50
62.2502841838
 51
62.5951725092
  0
ARC
  5
2F7
100
AcDbEntity
  8
0
100
AcDbCircle
 62
7
  6
CONTINUOUS
 10
-11.7005863325
 20
-51.796870443
 40
39.785525523
100
AcDbArc
 50
62.7422684253
 51
63.0141211466
  0
ARC
  5
2F8
100
AcDbEntity
  8
0
100
AcDbCircle
 62
7
  6
CONTINUOUS
 10
4.0467682197
 20
-16.580729031
 40
1.8204324556
100
AcDbArc
 50
15.2075968864
 51
17.3499822413
  0
ARC
  5
2F9
100
AcDbEntity
  8
0
100
AcDbCircle
 62
7
  6
CONTINUOUS
 10
4.1063925325
 20
-16.5694537227
 40
1.7486200234
100
AcDbArc
 50
15.2034513225
 51
17.4839006426
  0
ARC
  5
2FA
100
AcDbEntity
  8
0
100
AcDbCircle
 62
7
  6
CONTINUOUS
 10
6.9411426713
 20
-17.0795380737
 40
0.2342908977
100
AcDbArc
 50
265.7909579235
 51
268.2327670393
  0
ARC
  5
2FB
100
AcDbEntity
  8
0
100
AcDbCircle
 62
7
  6
CONTINUOUS
 10
6.9407861335
 20
-17.091420218
 40
0.2224034099
100
AcDbArc
 50
268.2301735732
 51
271.0502810207
  0
ARC
  5
2FC
100
AcDbEntity
  8
0
100
AcDbCircle
 62
7
  6
CONTINUOUS
 10
6.846647565
 20
-16.8887390154
 40
0.1688261129
100
AcDbArc
 50
242.5863162264
 51
247.0399233582
  0
ARC
  5
2FD
100
AcDbEntity
  8
0
100
AcDbCircle
 62
7
  6
CONTINUOUS
 10
6.8213348895
 20
-16.9981919325
 40
0.0617465726
100
AcDbArc
 50
301.6289980069
 51
310.4933823054
  0
ARC
  5
2FE
100
AcDbEntity
  8
RACCORDO
100
AcDbCircle
 62
250
  6
CONTINUOUS
 10
-7.1262126454
 20
18.8727265602
 40
28.7705791198
100
AcDbArc
 50
237.5736321788
 51
237.9123856571
  0
ARC
  5
2FF
100
AcDbEntity
  8
0
100
AcDbCircle
 62
7
  6
CONTINUOUS
 10
2.6316127347
 20
-15.7428519394
 40
1.7684701507
100
AcDbArc
 50
13.933813903
 51
14.9705897559
  0
ARC
  5
300
100
AcDbEntity
  8
0
100
AcDbCircle
 62
250
  6
CONTINUOUS
 10
6.835308022
 20
-14.9161671107
 40
1.5355548172
100
AcDbArc
 50
248.0173138844
 51
248.5728957652
  0
ARC
  5
301
100
AcDbEntity
  8
0
100
AcDbCircle
 62
250
  6
CONTINUOUS
 10
6.833705586
 20
-14.9201469567
 40
1.5312644838
100
AcDbArc
 50
247.748892115
 51
248.0171706782
  0
ARC
  5
302
100
AcDbEntity
  8
0
100
AcDbCircle
 62
250
  6
CONTINUOUS
 10
6.8159916427
 20
-14.9601281544
 40
1.4875534111
100
AcDbArc
 50
240.6984924617
 51
247.7972423046
  0
ARC
  5
303
100
AcDbEntity
  8
0
100
AcDbCircle
 62
7
  6
CONTINUOUS
 10
2.0352303701
 20
-14.3539100273
 40
1.4720864703
100
AcDbArc
 50
341.4164948023
 51
341.8300590321
  0
ARC
  5
304
100
AcDbEntity
  8
0
100
AcDbCircle
 62
7
  6
CONTINUOUS
 10
2.3931079284
 20
-15.0411596961
 40
1.4026949387
100
AcDbArc
 50
0.8858145578
 51
1.611266108
  0
ARC
  5
305
100
AcDbEntity
  8
0
100
AcDbCircle
 62
7
  6
CONTINUOUS
 10
3.6885038736
 20
-15.729283302
 40
1.3863888493
100
AcDbArc
 50
0.8335057566
 51
2.5261966559
  0
ARC
  5
306
100
AcDbEntity
  8
0
100
AcDbCircle
 62
7
  6
CONTINUOUS
 10
4.2591424127
 20
-15.5400776712
 40
1.355414851
100
AcDbArc
 50
341.305094781
 51
342.913328337
  0
ARC
  5
307
100
AcDbEntity
  8
0
100
AcDbCircle
 62
7
  6
CONTINUOUS
 10
4.9182407114
 20
-16.375294797
 40
1.352560779
100
AcDbArc
 50
0.8716728055
 51
2.7962003591
  0
ARC
  5
308
100
AcDbEntity
  8
0
100
AcDbCircle
 62
7
  6
CONTINUOUS
 10
3.7560486214
 20
-15.7357096038
 40
1.3087777467
100
AcDbArc
 50
0.8640441472
 51
2.6839838642
  0
ARC
  5
309
100
AcDbEntity
  8
0
100
AcDbCircle
 62
7
  6
CONTINUOUS
 10
4.9942599863
 20
-16.3709691744
 40
1.2764211422
100
AcDbArc
 50
2.7687297409
 51
3.1763914023
  0
ARC
  5
30A
100
AcDbEntity
  8
0
100
AcDbCircle
 62
7
  6
CONTINUOUS
 10
4.3433674444
 20
-15.5658355841
 40
1.2673392635
100
AcDbArc
 50
342.9076394438
 51
343.2465723188
  0
ARC
  5
30B
100
AcDbEntity
  8
0
100
AcDbCircle
 62
7
  6
CONTINUOUS
 10
3.6395258277
 20
-15.2092642268
 40
1.1344594063
100
AcDbArc
 50
344.7060375915
 51
344.96735467
  0
ARC
  5
30C
100
AcDbEntity
  8
SUPERFICI
100
AcDbCircle
 62
250
  6
CONTINUOUS
 10
6.4285227787
 20
-15.2240322894
 40
0.5060508775
100
AcDbArc
 50
123.3217652781
 51
127.163375426
  0
ARC
  5
30D
100
AcDbEntity
  8
SUPERFICI
100
AcDbCircle
 62
250
  6
CONTINUOUS
 10
-10.2389939733
 20
12.7926245939
 40
0.4920822972
100
AcDbArc
 50
295.765305641
 51
298.2711138017
  0
ARC
  5
30E
100
AcDbEntity
  8
RACCORDO
100
AcDbCircle
 62
7
  6
CONTINUOUS
 10
-8.7309632159
 20
8.7759766146
 40
0.1742073289
100
AcDbArc
 50
354.636927432
 51
358.7086724119
  0
ARC
  5
30F
100
AcDbEntity
  8
RACCORDO
100
AcDbCircle
 62
7
  6
CONTINUOUS
 10
-8.9601831996
 20
-0.4716505529
 40
0.1742073289
100
AcDbArc
 50
354.636927432
 51
358.7086724119
  0
ARC
  5
310
100
AcDbEntity
  8
RACCORDO
100
AcDbCircle
 62
7
  6
CONTINUOUS
 10
-9.1396444357
 20
1.9319434085
 40
0.1504306069
100
AcDbArc
 50
98.7701555006
 51
118.8905444918
  0
ARC
  5
311
100
AcDbEntity
  8
RACCORDO
100
AcDbCircle
 62
7
  6
CONTINUOUS
 10
5.5169072358
 20
-13.0956094881
 40
0.1504214132
100
AcDbArc
 50
304.4136026621
 51
322.2333799917
  0
ARC
  5
312
100
AcDbEntity
  8
RACCORDO
100
AcDbCircle
 62
7
  6
CONTINUOUS
 10
-2.839216923
 20
-8.6690416508
 40
0.1504214132
100
AcDbArc
 50
304.4136026622
 51
322.2333799917
  0
ARC
  5
313
100
AcDbEntity
  8
RACCORDO
100
AcDbCircle
 62
7
  6
CONTINUOUS
 10
-8.9105661818
 20
11.1803085632
 40
0.1497113198
100
AcDbArc
 50
62.0461124581
 51
118.9176969122
  0
ARC
  5
314
100
AcDbEntity
  8
RACCORDO
100
AcDbCircle
 62
250
  6
CONTINUOUS
 10
-2.7377976945
 20
-8.6718294921
 40
0.0488492677
100
AcDbArc
 50
354.1144513333
 51
358.5523992665
  0
ARC
  5
315
100
AcDbEntity
  8
0
100
AcDbCircle
 62
7
  6
CONTINUOUS
 10
31.2600421874
 20
-24.7561076557
 40
26.9250497542
100
AcDbArc
 50
161.8338227265
 51
162.0144272964
  0
ARC
  5
316
100
AcDbEntity
  8
0
100
AcDbCircle
 62
7
  6
CONTINUOUS
 10
30.1542137521
 20
-24.4040109401
 40
25.7721940327
100
AcDbArc
 50
161.7858934198
 51
162.4702114343
  0
ARC
  5
317
100
AcDbEntity
  8
0
100
AcDbCircle
 62
7
  6
CONTINUOUS
 10
28.9457720287
 20
-24.0065922441
 40
24.4924345924
100
AcDbArc
 50
162.0104393297
 51
162.4843418903
  0
ARC
  5
318
100
AcDbEntity
  8
0
100
AcDbCircle
 62
7
  6
CONTINUOUS
 10
27.6566431792
 20
-22.2929735656
 40
23.905439318
100
AcDbArc
 50
163.5746897616
 51
164.9489679593
  0
ARC
  5
319
100
AcDbEntity
  8
0
100
AcDbCircle
 62
7
  6
CONTINUOUS
 10
25.1647933617
 20
-22.0934820028
 40
23.167161914
100
AcDbArc
 50
161.424108339
 51
161.6289308165
  0
ARC
  5
31A
100
AcDbEntity
  8
0
100
AcDbCircle
 62
7
  6
CONTINUOUS
 10
25.26684905
 20
-21.7077256058
 40
21.2068643176
100
AcDbArc
 50
164.2625279394
 51
166.0685222598
  0
ARC
  5
31B
100
AcDbEntity
  8
0
100
AcDbCircle
 62
7
  6
CONTINUOUS
 10
22.9659270227
 20
-21.3793229255
 40
20.8552843487
100
AcDbArc
 50
161.5870227162
 51
163.0648792295
  0
ARC
  5
31C
100
AcDbEntity
  8
0
100
AcDbCircle
 62
7
  6
CONTINUOUS
 10
24.609847216
 20
-21.46619791
 40
20.7484686956
100
AcDbArc
 50
164.9689147055
 51
165.1509577796
  0
ARC
  5
31D
100
AcDbEntity
  8
0
100
AcDbCircle
 62
7
  6
CONTINUOUS
 10
25.0703696306
 20
-22.7971601564
 40
20.4326673994
100
AcDbArc
 50
163.0134640804
 51
163.260536496
  0
ARC
  5
31E
100
AcDbEntity
  8
0
100
AcDbCircle
 62
7
  6
CONTINUOUS
 10
24.4241014026
 20
-21.4778332807
 40
20.325283972
100
AcDbArc
 50
164.4362741441
 51
165.9017512658
  0
ARC
  5
31F
100
AcDbEntity
  8
0
100
AcDbCircle
 62
7
  6
CONTINUOUS
 10
24.6009708205
 20
-22.6648479028
 40
19.9529197499
100
AcDbArc
 50
162.9788231925
 51
163.5416807589
  0
ARC
  5
320
100
AcDbEntity
  8
0
100
AcDbCircle
 62
7
  6
CONTINUOUS
 10
21.5692706942
 20
-20.9498930195
 40
19.3941060808
100
AcDbArc
 50
163.0766303444
 51
163.2859748267
  0
ARC
  5
321
100
AcDbEntity
  8
0
100
AcDbCircle
 62
7
  6
CONTINUOUS
 10
24.0716651643
 20
-22.4968577527
 40
19.3897905421
100
AcDbArc
 50
163.260329244
 51
163.5485821874
  0
ARC
  5
322
100
AcDbEntity
  8
0
100
AcDbCircle
 62
7
  6
CONTINUOUS
 10
21.2158864728
 20
-20.9026654543
 40
18.7944792089
100
AcDbArc
 50
163.8781478012
 51
164.1676581388
  0
ARC
  5
323
100
AcDbEntity
  8
0
100
AcDbCircle
 62
7
  6
CONTINUOUS
 10
22.8160763228
 20
-21.0703770075
 40
18.666443415
100
AcDbArc
 50
165.9124700772
 51
166.1301984012
  0
ARC
  5
324
100
AcDbEntity
  8
0
100
AcDbCircle
 62
7
  6
CONTINUOUS
 10
47.7954629522
 20
-0.3256315179
 40
44.2495770501
100
AcDbArc
 50
202.5954160113
 51
203.3057112086
  0
ARC
  5
325
100
AcDbEntity
  8
0
100
AcDbCircle
 62
7
  6
CONTINUOUS
 10
47.4605694267
 20
-0.4690579921
 40
43.8969566021
100
AcDbArc
 50
202.5642976875
 51
203.4015442958
  0
ARC
  5
326
100
AcDbEntity
  8
0
100
AcDbCircle
 62
7
  6
CONTINUOUS
 10
46.3545808604
 20
-0.6719196218
 40
42.9753300801
100
AcDbArc
 50
202.648705237
 51
203.4536850792
  0
ARC
  5
327
100
AcDbEntity
  8
0
100
AcDbCircle
 62
7
  6
CONTINUOUS
 10
41.6488681708
 20
-6.2096022768
 40
37.376930746
100
AcDbArc
 50
195.7391921987
 51
195.882802252
  0
ARC
  5
328
100
AcDbEntity
  8
0
100
AcDbCircle
 62
7
  6
CONTINUOUS
 10
39.9179593546
 20
-6.7032006765
 40
35.577018654
100
AcDbArc
 50
195.8811019142
 51
196.2559269413
  0
ARC
  5
329
100
AcDbEntity
  8
0
100
AcDbCircle
 62
7
  6
CONTINUOUS
 10
38.4848935316
 20
-7.1199676471
 40
34.0845806457
100
AcDbArc
 50
196.257693175
 51
196.4131846096
  0
ARC
  5
32A
100
AcDbEntity
  8
0
100
AcDbCircle
 62
7
  6
CONTINUOUS
 10
39.4269172682
 20
-16.0399517454
 40
32.9340886621
100
AcDbArc
 50
181.0285077825
 51
181.1756394173
  0
ARC
  5
32B
100
AcDbEntity
  8
0
100
AcDbCircle
 62
7
  6
CONTINUOUS
 10
35.7903565228
 20
-7.5234615608
 40
32.4051019348
100
AcDbArc
 50
193.9285900082
 51
195.4368410736
  0
ARC
  5
32C
100
AcDbEntity
  8
0
100
AcDbCircle
 62
7
  6
CONTINUOUS
 10
37.7824604803
 20
-16.0786353827
 40
31.2993660626
100
AcDbArc
 50
181.0016755833
 51
181.5177081711
  0
ARC
  5
32D
100
AcDbEntity
  8
0
100
AcDbCircle
 62
7
  6
CONTINUOUS
 10
34.6493803701
 20
-7.8210848736
 40
31.2147356267
100
AcDbArc
 50
193.8948247481
 51
195.2969297757
  0
ARC
  5
32E
100
AcDbEntity
  8
0
100
AcDbCircle
 62
7
  6
CONTINUOUS
 10
36.9215077796
 20
-16.0926606796
 40
30.4281251495
100
AcDbArc
 50
181.1732037668
 51
181.5231008824
  0
ARC
  5
32F
100
AcDbEntity
  8
0
100
AcDbCircle
 62
7
  6
CONTINUOUS
 10
34.8198995985
 20
-8.2229972098
 40
30.2571693398
100
AcDbArc
 50
196.8685051521
 51
197.3827053729
  0
ARC
  5
330
100
AcDbEntity
  8
0
100
AcDbCircle
 62
7
  6
CONTINUOUS
 10
34.228797156
 20
-8.6109486592
 40
29.3926525989
100
AcDbArc
 50
197.1960825083
 51
197.3365402853
  0
ARC
  5
331
100
AcDbEntity
  8
0
100
AcDbCircle
 62
7
  6
CONTINUOUS
 10
32.5738785915
 20
-8.3836289531
 40
29.0643549201
100
AcDbArc
 50
195.3066833643
 51
195.4518610944
  0
ARC
  5
332
100
AcDbEntity
  8
0
100
AcDbCircle
 62
7
  6
CONTINUOUS
 10
30.4723249781
 20
-6.7113495167
 40
28.9832217586
100
AcDbArc
 50
195.2643977667
 51
195.4162611982
  0
ARC
  5
333
100
AcDbEntity
  8
0
100
AcDbCircle
 62
7
  6
CONTINUOUS
 10
30.370115792
 20
-6.9233357527
 40
28.6497309304
100
AcDbArc
 50
195.2420342283
 51
197.1517591502
  0
ARC
  5
334
100
AcDbEntity
  8
0
100
AcDbCircle
 62
7
  6
CONTINUOUS
 10
31.6642856809
 20
-8.4408180715
 40
28.3624178107
100
AcDbArc
 50
194.6804327557
 51
196.4835284548
  0
ARC
  5
335
100
AcDbEntity
  8
0
100
AcDbCircle
 62
7
  6
CONTINUOUS
 10
30.0846078896
 20
-7.0019670943
 40
28.3422707388
100
AcDbArc
 50
195.2338877122
 51
197.1356253895
  0
ARC
  5
336
100
AcDbEntity
  8
0
100
AcDbCircle
 62
7
  6
CONTINUOUS
 10
29.5711875628
 20
-6.9628983364
 40
28.0476382704
100
AcDbArc
 50
195.4102370182
 51
198.0802438032
  0
ARC
  5
337
100
AcDbEntity
  8
0
100
AcDbCircle
 62
7
  6
CONTINUOUS
 10
31.8363809649
 20
-16.246640267
 40
25.3376566478
100
AcDbArc
 50
181.9929617529
 51
182.1927821022
  0
ARC
  5
338
100
AcDbEntity
  8
0
100
AcDbCircle
 62
7
  6
CONTINUOUS
 10
29.4250664986
 20
-15.2720428111
 40
24.5796451198
100
AcDbArc
 50
181.5940326771
 51
181.7962932106
  0
ARC
  5
339
100
AcDbEntity
  8
0
100
AcDbCircle
 62
7
  6
CONTINUOUS
 10
30.1101150408
 20
-16.3162425677
 40
23.6202906698
100
AcDbArc
 50
181.9557732869
 51
183.0289501907
  0
ARC
  5
33A
100
AcDbEntity
  8
0
100
AcDbCircle
 62
7
  6
CONTINUOUS
 10
26.3873743323
 20
-14.5547932468
 40
22.8215115251
100
AcDbArc
 50
180.8902805789
 51
181.0828014135
  0
ARC
  5
33B
100
AcDbEntity
  8
0
100
AcDbCircle
 62
7
  6
CONTINUOUS
 10
29.310902596
 20
-16.3469219635
 40
22.8101908843
100
AcDbArc
 50
182.1837931973
 51
182.9228351458
  0
ARC
  5
33C
100
AcDbEntity
  8
0
100
AcDbCircle
 62
7
  6
CONTINUOUS
 10
26.3248395283
 20
-15.3836145658
 40
21.4774490771
100
AcDbArc
 50
181.7580463542
 51
183.5387498518
  0
ARC
  5
33D
100
AcDbEntity
  8
0
100
AcDbCircle
 62
7
  6
CONTINUOUS
 10
25.6809168178
 20
-14.9980921229
 40
21.4624040226
100
AcDbArc
 50
181.6835384945
 51
183.6942023808
  0
ARC
  5
33E
100
AcDbEntity
  8
0
100
AcDbCircle
 62
7
  6
CONTINUOUS
 10
25.1878190952
 20
-15.0163182428
 40
20.9586984309
100
AcDbArc
 50
181.891419842
 51
183.492796016
  0
ARC
  5
33F
100
AcDbEntity
  8
0
100
AcDbCircle
 62
7
  6
CONTINUOUS
 10
25.3047192336
 20
-15.5847500032
 40
20.2274170558
100
AcDbArc
 50
183.2890623547
 51
183.4913821103
  0
ARC
  5
340
100
AcDbEntity
  8
0
100
AcDbCircle
 62
7
  6
CONTINUOUS
 10
24.3572295197
 20
-15.0650171104
 40
20.1266849191
100
AcDbArc
 50
183.4984714086
 51
183.7310804457
  0
ARC
  5
341
100
AcDbEntity
  8
0
100
AcDbCircle
 62
7
  6
CONTINUOUS
 10
23.8497450574
 20
-14.8011922751
 40
20.0540020447
100
AcDbArc
 50
183.6486974943
 51
183.8490571398
  0
ARC
  5
342
100
AcDbEntity
  8
SUPERFICI
100
AcDbCircle
 62
250
  6
CONTINUOUS
 10
147.0928087689
 20
290.9429751403
 40
319.0634318984
100
AcDbArc
 50
240.5033374398
 51
242.1782341539
  0
ARC
  5
343
100
AcDbEntity
  8
SUPERFICI
100
AcDbCircle
 62
250
  6
CONTINUOUS
 10
145.8085391995
 20
286.2329872097
 40
314.3001817444
100
AcDbArc
 50
241.9845540693
 51
243.6863725541
  0
SPLINE
  5
344
100
AcDbEntity
  8
0
100
AcDbSpline
 62
7
  6
CONTINUOUS
 70
0
 71
3
 72
9
 73
5
 74
0
 42
0.0000001
 43
0.0000001
 44
0.0000000001
 40
0.0
 40
0.0
 40
0.0
 40
0.0
 40
0.2353392691
 40
1.0
 40
1.0
 40
1.0
 40
1.0
 10
6.8614306573
 20
-17.0451490261
 30
0.0
 10
6.8644709384
 20
-17.0425534813
 30
0.0
 10
6.8763513044
 20
-17.0302788244
 30
0.0
 10
6.8830593854
 20
-17.0136829188
 30
0.0
 10
6.8856693456
 20
-17.0009591662
 30
0.0
  0
SPLINE
  5
345
100
AcDbEntity
  8
0
100
AcDbSpline
 62
7
  6
CONTINUOUS
 70
0
 71
3
 72
11
 73
7
 74
0
 42
0.0000001
 43
0.0000001
 44
0.0000000001
 40
0.0
 40
0.0
 40
0.0
 40
0.0
 40
0.218524803
 40
0.4778243209
 40
0.7494739878
 40
1.0
 40
1.0
 40
1.0
 40
1.0
 10
6.8856693456
 20
-17.0009591662
 30
0.0
 10
6.8898737724
 20
-16.9804622692
 30
0.0
 10
6.8864971917
 20
-16.9332665911
 30
0.0
 10
6.8591956822
 20
-16.8661426972
 30
0.0
 10
6.8141953154
 20
-16.8054303873
 30
0.0
 10
6.7741774908
 20
-16.7738577585
 30
0.0
 10
6.7528678384
 20
-16.7628435836
 30
0.0
  0
SPLINE
  5
346
100
AcDbEntity
  8
0
100
AcDbSpline
 62
7
  6
CONTINUOUS
 70
0
 71
3
 72
9
 73
5
 74
0
 42
0.0000001
 43
0.0000001
 44
0.0000000001
 40
0.0
 40
0.0
 40
0.0
 40
0.0
 40
0.2414498493
 40
1.0
 40
1.0
 40
1.0
 40
1.0
 10
7.0336761422
 20
-17.2892508852
 30
0.0
 10
7.0273154999
 20
-17.2931635578
 30
0.0
 10
6.9998005637
 20
-17.3074731789
 30
0.0
 10
6.9683196357
 20
-17.3133508433
 30
0.0
 10
6.9448627514
 20
-17.3137862629
 30
0.0
  0
SPLINE
  5
347
100
AcDbEntity
  8
RACCORDO
100
AcDbSpline
 62
7
  6
CONTINUOUS
 70
0
 71
3
 72
8
 73
4
 74
0
 42
0.0000001
 43
0.0000001
 44
0.0000000001
 40
0.0
 40
0.0
 40
0.0
 40
0.0
 40
1.0
 40
1.0
 40
1.0
 40
1.0
 10
-9.0695508805
 20
2.0649143913
 30
0.0
 10
-9.0973409158
 20
2.0796358667
 30
0.0
 10
-9.1314973453
 20
2.0853932301
 30
0.0
 10
-9.1625807501
 20
2.080615171
 30
0.0
  0
SPLINE
  5
348
100
AcDbEntity
  8
RACCORDO
100
AcDbSpline
 62
7
  6
CONTINUOUS
 70
0
 71
3
 72
8
 73
4
 74
0
 42
0.0000001
 43
0.0000001
 44
0.0000000001
 40
0.0
 40
0.0
 40
0.0
 40
0.0
 40
1.0
 40
1.0
 40
1.0
 40
1.0
 10
5.66716285
 20
-13.0996314618
 30
0.0
 10
5.6663904535
 20
-13.1307929428
 30
0.0
 10
5.6548946875
 20
-13.1630833567
 30
0.0
 10
5.6358171609
 20
-13.1877345731
 30
0.0
  0
SPLINE
  5
349
100
AcDbEntity
  8
RACCORDO
100
AcDbSpline
 62
7
  6
CONTINUOUS
 70
0
 71
3
 72
8
 73
4
 74
0
 42
0.0000001
 43
0.0000001
 44
0.0000000001
 40
0.0
 40
0.0
 40
0.0
 40
0.0
 40
1.0
 40
1.0
 40
1.0
 40
1.0
 10
-2.6889613089
 20
-8.6730636246
 30
0.0
 10
-2.6897337053
 20
-8.7042251055
 30
0.0
 10
-2.7012294714
 20
-8.7365155194
 30
0.0
 10
-2.720306998
 20
-8.7611667358
 30
0.0
  0
SPLINE
  5
34A
100
AcDbEntity
  8
0
100
AcDbSpline
 62
7
  6
CONTINUOUS
 70
0
 71
3
 72
11
 73
7
 74
0
 42
0.0000001
 43
0.0000001
 44
0.0000000001
 40
0.0
 40
0.0
 40
0.0
 40
0.0
 40
0.2218827231
 40
0.4560570144
 40
0.7137783193
 40
1.0
 40
1.0
 40
1.0
 40
1.0
 10
-20.7866602513
 20
28.1456457388
 30
0.0
 10
-20.7329266531
 20
28.1838546599
 30
0.0
 10
-20.6075877475
 20
28.2432690172
 30
0.0
 10
-20.3934134245
 20
28.2659881215
 30
0.0
 10
-20.1633466357
 20
28.2254264461
 30
0.0
 10
-20.0132908361
 20
28.1619965231
 30
0.0
 10
-19.9381329863
 20
28.1221825432
 30
0.0
  0
SPLINE
  5
34B
100
AcDbEntity
  8
SUPERFICI
100
AcDbSpline
 62
7
  6
CONTINUOUS
 70
0
 71
3
 72
9
 73
5
 74
0
 42
0.0000001
 43
0.0000001
 44
0.0000000001
 40
0.0
 40
0.0
 40
0.0
 40
0.0
 40
0.4559131946
 40
1.0
 40
1.0
 40
1.0
 40
1.0
 10
-10.0931111759
 20
12.4054680707
 30
0.0
 10
-10.0943007639
 20
12.4060982423
 30
0.0
 10
-10.0956584506
 20
12.4070044333
 30
0.0
 10
-10.1026676718
 20
12.4096877926
 30
0.0
 10
-10.1011290258
 20
12.4092256659
 30
0.0
  0
SPLINE
  5
34C
100
AcDbEntity
  8
SUPERFICI
100
AcDbSpline
 62
7
  6
CONTINUOUS
 70
0
 71
3
 72
12
 73
8
 74
0
 42
0.0000001
 43
0.0000001
 44
0.0000000001
 40
0.0
 40
0.0
 40
0.0
 40
0.0
 40
0.0619793213
 40
0.173737648
 40
0.4832779604
 40
0.8012294698
 40
1.0
 40
1.0
 40
1.0
 40
1.0
 10
6.6000720618
 20
3.3345333392
 30
0.0
 10
6.6002795333
 20
3.3429035472
 30
0.0
 10
6.5981685118
 20
3.3663953948
 30
0.0
 10
6.5837846358
 20
3.4302188367
 30
0.0
 10
6.5418634815
 20
3.5223144484
 30
0.0
 10
6.4739682916
 20
3.6116101309
 30
0.0
 10
6.4200353218
 20
3.6578044662
 30
0.0
 10
6.3963071642
 20
3.6703742052
 30
0.0
  0
LINE
  5
34D
100
AcDbEntity
  8
0
100
AcDbLine
 62
7
  6
CONTINUOUS
 10
3.2045818644
 20
-14.7133395826
 11
3.2070042454
 21
-14.7059185808
  0
LINE
  5
34E
100
AcDbEntity
  8
0
100
AcDbLine
 62
7
  6
CONTINUOUS
 10
3.1242903414
 20
-15.781306549
 11
3.0885076639
 21
-15.7624338872
  0
LINE
  5
34F
100
AcDbEntity
  8
0
100
AcDbLine
 62
7
  6
CONTINUOUS
 10
3.0885076639
 20
-15.7624338872
 11
2.908463146
 21
-15.6674453793
  0
SPLINE
  5
350
100
AcDbEntity
  8
0
100
AcDbSpline
 62
7
  6
CONTINUOUS
 70
0
 71
3
 72
9
 73
5
 74
0
 42
0.0000001
 43
0.0000001
 44
0.0000000001
 40
0.0
 40
0.0
 40
0.0
 40
0.0
 40
0.2469482852
 40
1.0
 40
1.0
 40
1.0
 40
1.0
 10
3.6148591837
 20
-16.0398596986
 30
0.0
 10
3.6089491534
 20
-15.9532323551
 30
0.0
 10
3.587277437
 20
-15.6022874555
 30
0.0
 10
3.5749390934
 20
-15.2507896806
 30
0.0
 10
3.5699380533
 20
-14.9860587647
 30
0.0
  0
LINE
  5
351
100
AcDbEntity
  8
0
100
AcDbLine
 62
7
  6
CONTINUOUS
 10
3.5686177603
 20
-14.9093870947
 11
3.5682448239
 21
-14.8947383043
  0
LINE
  5
352
100
AcDbEntity
  8
0
100
AcDbLine
 62
7
  6
CONTINUOUS
 10
3.8308800135
 20
-16.1535928273
 11
3.7592127869
 21
-16.1158686466
  0
LINE
  5
353
100
AcDbEntity
  8
0
100
AcDbLine
 62
7
  6
CONTINUOUS
 10
3.7592127869
 20
-16.1158686466
 11
3.6148591837
 21
-16.0398596986
  0
SPLINE
  5
354
100
AcDbEntity
  8
0
100
AcDbSpline
 62
7
  6
CONTINUOUS
 70
0
 71
3
 72
9
 73
5
 74
0
 42
0.0000001
 43
0.0000001
 44
0.0000000001
 40
0.0
 40
0.0
 40
0.0
 40
0.0
 40
0.2468403145
 40
1.0
 40
1.0
 40
1.0
 40
1.0
 10
4.0469591417
 20
-16.2672865498
 30
0.0
 10
4.0408441513
 20
-16.1749079318
 30
0.0
 10
4.0186523128
 20
-15.800493252
 30
0.0
 10
4.0068086907
 20
-15.4254962857
 30
0.0
 10
4.0024980434
 20
-15.143046485
 30
0.0
  0
LINE
  5
355
100
AcDbEntity
  8
0
100
AcDbLine
 62
7
  6
CONTINUOUS
 10
4.0024980434
 20
-15.143046485
 11
4.001924104
 21
-15.1211935108
  0
LINE
  5
356
100
AcDbEntity
  8
0
100
AcDbLine
 62
7
  6
CONTINUOUS
 10
4.263108601
 20
-16.3809433868
 11
4.1914232074
 21
-16.343257661
  0
LINE
  5
357
100
AcDbEntity
  8
0
100
AcDbLine
 62
7
  6
CONTINUOUS
 10
4.1914232074
 20
-16.343257661
 11
4.0469591417
 21
-16.2672865498
  0
LINE
  5
358
100
AcDbEntity
  8
0
100
AcDbLine
 62
7
  6
CONTINUOUS
 10
4.6837983002
 20
-16.6019332072
 11
4.6479953655
 21
-16.5831373453
  0
LINE
  5
359
100
AcDbEntity
  8
0
100
AcDbLine
 62
7
  6
CONTINUOUS
 10
4.6479953655
 20
-16.5831373453
 11
4.467525102
 21
-16.4883616773
  0
LINE
  5
35A
100
AcDbEntity
  8
0
100
AcDbLine
 62
7
  6
CONTINUOUS
 10
5.1047544596
 20
-16.8227745225
 11
5.0330284474
 21
-16.7851675613
  0
LINE
  5
35B
100
AcDbEntity
  8
0
100
AcDbLine
 62
7
  6
CONTINUOUS
 10
5.0330284474
 20
-16.7851675613
 11
4.8883418843
 21
-16.7092795382
  0
LINE
  5
35C
100
AcDbEntity
  8
0
100
AcDbLine
 62
7
  6
CONTINUOUS
 10
4.7268049812
 20
-15.5333471557
 11
4.7338086025
 21
-15.5085021811
  0
LINE
  5
35D
100
AcDbEntity
  8
0
100
AcDbLine
 62
7
  6
CONTINUOUS
 10
5.8645983664
 20
-17.0029076316
 11
5.5274303161
 21
-16.8269332383
  0
LINE
  5
35E
100
AcDbEntity
  8
0
100
AcDbLine
 62
7
  6
CONTINUOUS
 10
5.5274303161
 20
-16.8269332383
 11
5.522056225
 21
-16.82412668
  0
LINE
  5
35F
100
AcDbEntity
  8
0
100
AcDbLine
 62
7
  6
CONTINUOUS
 10
6.1613401773
 20
-17.3756837188
 11
6.0895370436
 21
-17.3381748356
  0
LINE
  5
360
100
AcDbEntity
  8
0
100
AcDbLine
 62
7
  6
CONTINUOUS
 10
6.0895370436
 20
-17.3381748356
 11
5.9445585421
 21
-17.2624095433
  0
SPLINE
  5
361
100
AcDbEntity
  8
0
100
AcDbSpline
 62
7
  6
CONTINUOUS
 70
0
 71
3
 72
9
 73
5
 74
0
 42
0.0000001
 43
0.0000001
 44
0.0000000001
 40
0.0
 40
0.0
 40
0.0
 40
0.0
 40
0.2451366178
 40
1.0
 40
1.0
 40
1.0
 40
1.0
 10
5.2490680775
 20
-16.8984131287
 30
0.0
 10
5.2714262278
 20
-16.8224077691
 30
0.0
 10
5.364575679
 20
-16.5129253671
 30
0.0
 10
5.4648568044
 20
-16.2056228804
 30
0.0
 10
5.5430439267
 20
-15.9745271163
 30
0.0
  0
LINE
  5
362
100
AcDbEntity
  8
0
100
AcDbLine
 62
7
  6
CONTINUOUS
 10
5.4656001531
 20
-17.0118313658
 11
5.4297779342
 21
-16.9930736831
  0
LINE
  5
363
100
AcDbEntity
  8
0
100
AcDbLine
 62
7
  6
CONTINUOUS
 10
5.4297779342
 20
-16.9930736831
 11
5.2490680775
 21
-16.8984131287
  0
LINE
  5
364
100
AcDbEntity
  8
0
100
AcDbLine
 62
7
  6
CONTINUOUS
 10
6.7528678928
 20
-16.7628427407
 11
6.493283071
 21
-16.6285969719
  0
LINE
  5
365
100
AcDbEntity
  8
0
100
AcDbLine
 62
7
  6
CONTINUOUS
 10
6.493283071
 20
-16.6285969719
 11
6.4878774509
 21
-16.6257998334
  0
SPLINE
  5
366
100
AcDbEntity
  8
0
100
AcDbSpline
 62
7
  6
CONTINUOUS
 70
0
 71
3
 72
9
 73
5
 74
0
 42
0.0000001
 43
0.0000001
 44
0.0000000001
 40
0.0
 40
0.0
 40
0.0
 40
0.0
 40
0.2473976778
 40
1.0
 40
1.0
 40
1.0
 40
1.0
 10
6.3059033042
 20
-17.4511651794
 30
0.0
 10
6.300962614
 20
-17.3608301011
 30
0.0
 10
6.2834138406
 20
-16.9955561285
 30
0.0
 10
6.2743450204
 20
-16.6299102562
 30
0.0
 10
6.2706449667
 20
-16.3547183256
 30
0.0
  0
LINE
  5
367
100
AcDbEntity
  8
0
100
AcDbLine
 62
7
  6
CONTINUOUS
 10
6.5228227871
 20
-17.5643513216
 11
6.4869670085
 21
-17.5456488892
  0
LINE
  5
368
100
AcDbEntity
  8
0
100
AcDbLine
 62
7
  6
CONTINUOUS
 10
6.4869670085
 20
-17.5456488892
 11
6.3059033042
 21
-17.4511651794
  0
LINE
  5
369
100
AcDbEntity
  8
0
100
AcDbLine
 62
7
  6
CONTINUOUS
 10
6.6933704179
 20
-17.2208586127
 11
6.5089796281
 21
-17.1251586256
  0
LINE
  5
36A
100
AcDbEntity
  8
0
100
AcDbLine
 62
7
  6
CONTINUOUS
 10
6.5089796281
 20
-17.1251586256
 11
6.5035839399
 21
-17.1223571431
  0
LINE
  5
36B
100
AcDbEntity
  8
0
100
AcDbLine
 62
7
  6
CONTINUOUS
 10
7.1744043545
 20
-17.9037275532
 11
7.0933872204
 21
-17.8615826199
  0
LINE
  5
36C
100
AcDbEntity
  8
0
100
AcDbLine
 62
7
  6
CONTINUOUS
 10
7.0933872204
 20
-17.8615826199
 11
6.9297821877
 21
-17.7764291181
  0
SPLINE
  5
36D
100
AcDbEntity
  8
0
100
AcDbSpline
 62
7
  6
CONTINUOUS
 70
0
 71
3
 72
11
 73
7
 74
0
 42
0.0000001
 43
0.0000001
 44
0.0000000001
 40
0.0
 40
0.0
 40
0.0
 40
0.0
 40
0.2363573226
 40
0.4972905055
 40
0.7597089752
 40
1.0
 40
1.0
 40
1.0
 40
1.0
 10
23.4833615375
 20
3.8737373092
 30
0.0
 10
23.4872649665
 20
4.0475510703
 30
0.0
 10
23.4269262528
 20
4.4152113519
 30
0.0
 10
23.1963827146
 20
4.9295765276
 30
0.0
 10
22.8520347772
 20
5.3794642466
 30
0.0
 10
22.5558727989
 20
5.6114312715
 30
0.0
 10
22.3996843299
 20
5.694172523
 30
0.0
  0
SPLINE
  5
36E
100
AcDbEntity
  8
0
100
AcDbSpline
 62
7
  6
CONTINUOUS
 70
0
 71
3
 72
11
 73
7
 74
0
 42
0.0000001
 43
0.0000001
 44
0.0000000001
 40
0.0
 40
0.0
 40
0.0
 40
0.0
 40
0.2836046629
 40
0.5404051249
 40
0.7756800411
 40
1.0
 40
1.0
 40
1.0
 40
1.0
 10
22.7294074273
 20
-26.5436398793
 30
0.0
 10
22.7274621099
 20
-26.6221186793
 30
0.0
 10
22.7107845308
 20
-26.7719238953
 30
0.0
 10
22.6401407615
 20
-26.9769131193
 30
0.0
 10
22.5262152788
 20
-27.142621447
 30
0.0
 10
22.4227892483
 20
-27.2211791066
 30
0.0
 10
22.3678527656
 20
-27.2501183821
 30
0.0
  0
SPLINE
  5
36F
100
AcDbEntity
  8
0
100
AcDbSpline
 62
7
  6
CONTINUOUS
 70
0
 71
3
 72
9
 73
5
 74
0
 42
0.0000001
 43
0.0000001
 44
0.0000000001
 40
0.0
 40
0.0
 40
0.0
 40
0.0
 40
0.5029555587
 40
1.0
 40
1.0
 40
1.0
 40
1.0
 10
-9.457669337
 20
-5.5237797758
 30
0.0
 10
-9.4901063199
 20
-5.5065966294
 30
0.0
 10
-9.5421426894
 20
-5.4504657847
 30
0.0
 10
-9.5669269474
 20
-5.3777218241
 30
0.0
 10
-9.5660280593
 20
-5.3414571758
 30
0.0
  0
SPLINE
  5
370
100
AcDbEntity
  8
RACCORDO
100
AcDbSpline
 62
7
  6
CONTINUOUS
 70
0
 71
3
 72
8
 73
4
 74
0
 42
0.0000001
 43
0.0000001
 44
0.0000000001
 40
0.0
 40
0.0
 40
0.0
 40
0.0
 40
1.0
 40
1.0
 40
1.0
 40
1.0
 10
-4.8989323374
 20
-7.1558284454
 30
0.0
 10
-4.8897253652
 20
-7.1512975505
 30
0.0
 10
-4.8792289077
 20
-7.1490855675
 30
0.0
 10
-4.8689729642
 20
-7.1487494578
 30
0.0
  0
SPLINE
  5
371
100
AcDbEntity
  8
RACCORDO
100
AcDbSpline
 62
7
  6
CONTINUOUS
 70
0
 71
3
 72
9
 73
5
 74
0
 42
0.0000001
 43
0.0000001
 44
0.0000000001
 40
0.0
 40
0.0
 40
0.0
 40
0.0
 40
0.2430700839
 40
1.0
 40
1.0
 40
1.0
 40
1.0
 10
-4.8689729642
 20
-7.1487494578
 30
0.0
 10
-4.8651104374
 20
-7.1486228743
 30
0.0
 10
-4.8491808177
 20
-7.1491391886
 30
0.0
 10
-4.833559796
 20
-7.153582066
 30
0.0
 10
-4.8224429743
 20
-7.1581913981
 30
0.0
  0
SPLINE
  5
372
100
AcDbEntity
  8
RACCORDO
100
AcDbSpline
 62
7
  6
CONTINUOUS
 70
0
 71
3
 72
8
 73
4
 74
0
 42
0.0000001
 43
0.0000001
 44
0.0000000001
 40
0.0
 40
0.0
 40
0.0
 40
0.0
 40
1.0
 40
1.0
 40
1.0
 40
1.0
 10
-4.8224429743
 20
-7.1581913981
 30
0.0
 10
-4.8174378017
 20
-7.1602666769
 30
0.0
 10
-4.812537015
 20
-7.1626063627
 30
0.0
 10
-4.8077514883
 20
-7.1651474784
 30
0.0
  0
SPLINE
  5
373
100
AcDbEntity
  8
RACCORDO
100
AcDbSpline
 62
7
  6
CONTINUOUS
 70
0
 71
3
 72
8
 73
4
 74
0
 42
0.0000001
 43
0.0000001
 44
0.0000000001
 40
0.0
 40
0.0
 40
0.0
 40
0.0
 40
1.0
 40
1.0
 40
1.0
 40
1.0
 10
3.4571918214
 20
-11.5823962826
 30
0.0
 10
3.4663987936
 20
-11.5778653878
 30
0.0
 10
3.4768952512
 20
-11.5756534048
 30
0.0
 10
3.4871511946
 20
-11.575317295
 30
0.0
  0
SPLINE
  5
374
100
AcDbEntity
  8
RACCORDO
100
AcDbSpline
 62
7
  6
CONTINUOUS
 70
0
 71
3
 72
9
 73
5
 74
0
 42
0.0000001
 43
0.0000001
 44
0.0000000001
 40
0.0
 40
0.0
 40
0.0
 40
0.0
 40
0.2430700839
 40
1.0
 40
1.0
 40
1.0
 40
1.0
 10
3.4871511946
 20
-11.575317295
 30
0.0
 10
3.4910137215
 20
-11.5751907115
 30
0.0
 10
3.5069433412
 20
-11.5757070258
 30
0.0
 10
3.5225643628
 20
-11.5801499032
 30
0.0
 10
3.5336811845
 20
-11.5847592354
 30
0.0
  0
SPLINE
  5
375
100
AcDbEntity
  8
RACCORDO
100
AcDbSpline
 62
7
  6
CONTINUOUS
 70
0
 71
3
 72
8
 73
4
 74
0
 42
0.0000001
 43
0.0000001
 44
0.0000000001
 40
0.0
 40
0.0
 40
0.0
 40
0.0
 40
1.0
 40
1.0
 40
1.0
 40
1.0
 10
3.5336811845
 20
-11.5847592354
 30
0.0
 10
3.5386863572
 20
-11.5868345141
 30
0.0
 10
3.5435871439
 20
-11.5891742
 30
0.0
 10
3.5483726706
 20
-11.5917153157
 30
0.0
  0
SPLINE
  5
376
100
AcDbEntity
  8
RACCORDO
100
AcDbSpline
 62
7
  6
CONTINUOUS
 70
0
 71
3
 72
9
 73
5
 74
0
 42
0.0000001
 43
0.0000001
 44
0.0000000001
 40
0.0
 40
0.0
 40
0.0
 40
0.0
 40
0.2415895694
 40
1.0
 40
1.0
 40
1.0
 40
1.0
 10
-8.5909961294
 20
8.6896861662
 30
0.0
 10
-8.5879821055
 20
8.6919554686
 30
0.0
 10
-8.5763640654
 20
8.7024928235
 30
0.0
 10
-8.5684229446
 20
8.7166416325
 30
0.0
 10
-8.5643885355
 20
8.7277771124
 30
0.0
  0
SPLINE
  5
377
100
AcDbEntity
  8
RACCORDO
100
AcDbSpline
 62
7
  6
CONTINUOUS
 70
0
 71
3
 72
8
 73
4
 74
0
 42
0.0000001
 43
0.0000001
 44
0.0000000001
 40
0.0
 40
0.0
 40
0.0
 40
0.0
 40
1.0
 40
1.0
 40
1.0
 40
1.0
 10
-8.5643885355
 20
8.7277771124
 30
0.0
 10
-8.5606815261
 20
8.7380089278
 30
0.0
 10
-8.5585455384
 20
8.748859966
 30
0.0
 10
-8.5575184951
 20
8.7596940394
 30
0.0
  0
SPLINE
  5
378
100
AcDbEntity
  8
RACCORDO
100
AcDbSpline
 62
7
  6
CONTINUOUS
 70
0
 71
3
 72
9
 73
5
 74
0
 42
0.0000001
 43
0.0000001
 44
0.0000000001
 40
0.0
 40
0.0
 40
0.0
 40
0.0
 40
0.2415895694
 40
1.0
 40
1.0
 40
1.0
 40
1.0
 10
-8.820216113
 20
-0.5579410013
 30
0.0
 10
-8.8172020892
 20
-0.5556716989
 30
0.0
 10
-8.8055840491
 20
-0.545134344
 30
0.0
 10
-8.7976429283
 20
-0.530985535
 30
0.0
 10
-8.7936085192
 20
-0.5198500551
 30
0.0
  0
SPLINE
  5
379
100
AcDbEntity
  8
RACCORDO
100
AcDbSpline
 62
7
  6
CONTINUOUS
 70
0
 71
3
 72
8
 73
4
 74
0
 42
0.0000001
 43
0.0000001
 44
0.0000000001
 40
0.0
 40
0.0
 40
0.0
 40
0.0
 40
1.0
 40
1.0
 40
1.0
 40
1.0
 10
-8.7936085192
 20
-0.5198500551
 30
0.0
 10
-8.7899015098
 20
-0.5096182397
 30
0.0
 10
-8.787765522
 20
-0.4987672016
 30
0.0
 10
-8.7867384787
 20
-0.4879331282
 30
0.0
  0
SPLINE
  5
37A
100
AcDbEntity
  8
0
100
AcDbSpline
 62
7
  6
CONTINUOUS
 70
0
 71
3
 72
13
 73
9
 74
0
 42
0.0000001
 43
0.0000001
 44
0.0000000001
 40
0.0
 40
0.0
 40
0.0
 40
0.0
 40
0.0902429815
 40
0.1941379713
 40
0.3140165228
 40
0.4475538327
 40
0.732818972
 40
1.0
 40
1.0
 40
1.0
 40
1.0
 10
7.0760674767
 20
-17.2565172012
 30
0.0
 10
7.0931733961
 20
-17.2381384415
 30
0.0
 10
7.1205165598
 20
-17.1894864619
 30
0.0
 10
7.1339176085
 20
-17.1019216296
 30
0.0
 10
7.1235990389
 20
-17.0021966397
 30
0.0
 10
7.0784193989
 20
-16.8584718638
 30
0.0
 10
6.9760165874
 20
-16.6938208188
 30
0.0
 10
6.8561795903
 20
-16.5911058843
 30
0.0
 10
6.7901296905
 20
-16.5570001206
 30
0.0
  0
SPLINE
  5
37B
100
AcDbEntity
  8
SUPERFICI
100
AcDbSpline
 62
250
  6
CONTINUOUS
 70
0
 71
3
 72
9
 73
5
 74
0
 42
0.0000001
 43
0.0000001
 44
0.0000000001
 40
0.0
 40
0.0
 40
0.0
 40
0.0
 40
0.2407626187
 40
1.0
 40
1.0
 40
1.0
 40
1.0
 10
-10.0250927622
 20
12.3494640597
 30
0.0
 10
-10.0324703817
 20
12.3459002366
 30
0.0
 10
-10.063465741
 20
12.3318329282
 30
0.0
 10
-10.095715743
 20
12.3205857
 30
0.0
 10
-10.120556696
 20
12.3134798365
 30
0.0
  0
SPLINE
  5
37C
100
AcDbEntity
  8
SUPERFICI
100
AcDbSpline
 62
250
  6
CONTINUOUS
 70
0
 71
3
 72
11
 73
7
 74
0
 42
0.0000001
 43
0.0000001
 44
0.0000000001
 40
0.0
 40
0.0
 40
0.0
 40
0.0
 40
0.2728125349
 40
0.551022059
 40
0.8004736911
 40
1.0
 40
1.0
 40
1.0
 40
1.0
 10
-10.120556696
 20
12.3134798365
 30
0.0
 10
-10.1880480485
 20
12.2941736393
 30
0.0
 10
-10.3305289409
 20
12.2755739049
 30
0.0
 10
-10.5372677913
 20
12.2979957551
 30
0.0
 10
-10.7142622696
 20
12.3642385162
 30
0.0
 10
-10.8053342127
 20
12.4441532597
 30
0.0
 10
-10.8305775944
 20
12.4888595545
 30
0.0
  0
SPLINE
  5
37D
100
AcDbEntity
  8
RACCORDO
100
AcDbSpline
 62
250
  6
CONTINUOUS
 70
0
 71
3
 72
15
 73
11
 74
0
 42
0.0000001
 43
0.0000001
 44
0.0000000001
 40
0.0
 40
0.0
 40
0.0
 40
0.0
 40
0.130057564
 40
0.2591891121
 40
0.3874728405
 40
0.5142649023
 40
0.6390687795
 40
0.7617698663
 40
0.8821453648
 40
1.0
 40
1.0
 40
1.0
 40
1.0
 10
-11.5691224487
 20
3.8904092741
 30
0.0
 10
-12.0832912012
 20
4.1584592231
 30
0.0
 10
-13.1020270938
 20
4.7040302587
 30
0.0
 10
-14.6161989676
 20
5.5356225845
 30
0.0
 10
-16.1101974773
 20
6.3736673163
 30
0.0
 10
-17.5702371617
 20
7.2323485651
 30
0.0
 10
-18.9845615433
 20
8.1184595676
 30
0.0
 10
-20.3495596581
 20
9.0281844716
 30
0.0
 10
-21.6596942991
 20
9.9631302236
 30
0.0
 10
-22.4994813514
 20
10.6138354576
 30
0.0
 10
-22.9100790902
 20
10.9417020945
 30
0.0
  0
SPLINE
  5
37E
100
AcDbEntity
  8
SUPERFICI
100
AcDbSpline
 62
250
  6
CONTINUOUS
 70
0
 71
3
 72
11
 73
7
 74
0
 42
0.0000001
 43
0.0000001
 44
0.0000000001
 40
0.0
 40
0.0
 40
0.0
 40
0.0
 40
0.2514170948
 40
0.5028275
 40
0.7532158665
 40
1.0
 40
1.0
 40
1.0
 40
1.0
 10
-11.5690752961
 20
3.8903846087
 30
0.0
 10
-11.5864732198
 20
3.1294145122
 30
0.0
 10
-11.6210678376
 20
1.607490273
 30
0.0
 10
-11.6693403707
 20
-0.6723746119
 30
0.0
 10
-11.7194078902
 20
-2.9381553264
 30
0.0
 10
-11.7616300671
 20
-4.442813236
 30
0.0
 10
-11.7900460595
 20
-5.1894152642
 30
0.0
  0
SPLINE
  5
37F
100
AcDbEntity
  8
SUPERFICI
100
AcDbSpline
 62
250
  6
CONTINUOUS
 70
0
 71
3
 72
16
 73
12
 74
0
 42
0.0000001
 43
0.0000001
 44
0.0000000001
 40
0.0
 40
0.0
 40
0.0
 40
0.0
 40
0.1126441999
 40
0.2342487766
 40
0.3631662351
 40
0.4960133498
 40
0.6294467333
 40
0.7600330636
 40
0.8843403995
 40
0.9435554502
 40
1.0
 40
1.0
 40
1.0
 40
1.0
 10
-11.7900925348
 20
-5.1893876253
 30
0.0
 10
-11.7924168059
 20
-5.2969424943
 30
0.0
 10
-11.7800874223
 20
-5.5213830497
 30
0.0
 10
-11.7059257576
 20
-5.8615764944
 30
0.0
 10
-11.577151624
 20
-6.2054706776
 30
0.0
 10
-11.4014987505
 20
-6.5406104554
 30
0.0
 10
-11.1848627916
 20
-6.8527814038
 30
0.0
 10
-10.9373102917
 20
-7.1302545841
 30
0.0
 10
-10.7086204804
 20
-7.3260025249
 30
0.0
 10
-10.5199793241
 20
-7.4563665448
 30
0.0
 10
-10.4241540717
 20
-7.5117747324
 30
0.0
 10
-10.375896089
 20
-7.5357981527
 30
0.0
  0
SPLINE
  5
380
100
AcDbEntity
  8
SUPERFICI
100
AcDbSpline
 62
250
  6
CONTINUOUS
 70
0
 71
3
 72
9
 73
5
 74
0
 42
0.0000001
 43
0.0000001
 44
0.0000000001
 40
0.0
 40
0.0
 40
0.0
 40
0.0
 40
0.5016586972
 40
1.0
 40
1.0
 40
1.0
 40
1.0
 10
-2.1672623845
 20
-11.8184431573
 30
0.0
 10
-3.5384572231
 20
-11.0995313913
 30
0.0
 10
-6.2741249275
 20
-9.6709493226
 30
0.0
 10
-9.0097389609
 20
-8.2422336233
 30
0.0
 10
-10.3758955527
 20
-7.5358142958
 30
0.0
  0
SPLINE
  5
381
100
AcDbEntity
  8
RACCORDO
100
AcDbSpline
 62
250
  6
CONTINUOUS
 70
0
 71
3
 72
11
 73
7
 74
0
 42
0.0000001
 43
0.0000001
 44
0.0000000001
 40
0.0
 40
0.0
 40
0.0
 40
0.0
 40
0.2346707305
 40
0.480297869
 40
0.7358828383
 40
1.0
 40
1.0
 40
1.0
 40
1.0
 10
-1.3966343142
 20
-16.7217903179
 30
0.0
 10
-1.5148541469
 20
-16.3505331391
 30
0.0
 10
-1.7285366606
 20
-15.5813691748
 30
0.0
 10
-1.9671973691
 20
-14.3819979275
 30
0.0
 10
-2.1235364127
 20
-13.1199384908
 30
0.0
 10
-2.1656524828
 20
-12.2569395295
 30
0.0
 10
-2.1672629563
 20
-11.8184271667
 30
0.0
  0
LINE
  5
382
100
AcDbEntity
  8
0
100
AcDbLine
 62
7
  6
CONTINUOUS
 10
7.1844835027
 20
-17.8975274823
 11
7.1563438971
 21
-17.8324036801
  0
LINE
  5
383
100
AcDbEntity
  8
0
100
AcDbLine
 62
7
  6
CONTINUOUS
 10
6.9424409581
 20
-17.3272685879
 11
6.9367361887
 21
-17.3135630484
  0
LINE
  5
384
100
AcDbEntity
  8
0
100
AcDbLine
 62
7
  6
CONTINUOUS
 10
4.3400584483
 20
-15.2860150782
 11
4.0851116804
 21
-15.1530231075
  0
LINE
  5
385
100
AcDbEntity
  8
0
100
AcDbLine
 62
7
  6
CONTINUOUS
 10
4.0851116804
 20
-15.1530231075
 11
4.0160890194
 21
-15.1170037377
  0
LINE
  5
386
100
AcDbEntity
  8
0
100
AcDbLine
 62
7
  6
CONTINUOUS
 10
4.0160890194
 20
-15.1170037377
 11
4.0121105838
 21
-15.1149274161
  0
LINE
  5
387
100
AcDbEntity
  8
0
100
AcDbLine
 62
7
  6
CONTINUOUS
 10
6.790129699
 20
-16.5570008791
 11
6.5293437939
 21
-16.4222613352
  0
SPLINE
  5
388
100
AcDbEntity
  8
0
100
AcDbSpline
 62
250
  6
CONTINUOUS
 70
0
 71
3
 72
13
 73
9
 74
0
 42
0.0000001
 43
0.0000001
 44
0.0000000001
 40
0.0
 40
0.0
 40
0.0
 40
0.0
 40
0.1298362872
 40
0.2500020174
 40
0.3640992772
 40
0.4770790753
 40
0.7175538833
 40
1.0
 40
1.0
 40
1.0
 40
1.0
 10
6.5295309196
 20
-16.4223577621
 30
0.0
 10
6.5999970651
 20
-16.4366305848
 30
0.0
 10
6.7388672827
 20
-16.4507624642
 30
0.0
 10
6.9409598253
 20
-16.4277053981
 30
0.0
 10
7.122404134
 20
-16.357151128
 30
0.0
 10
7.3314046483
 20
-16.1989891373
 30
0.0
 10
7.5120381974
 20
-15.8795477243
 30
0.0
 10
7.5408688481
 20
-15.5858569686
 30
0.0
 10
7.5402917584
 20
-15.4294529676
 30
0.0
  0
SPLINE
  5
389
100
AcDbEntity
  8
SUPERFICI
100
AcDbSpline
 62
250
  6
CONTINUOUS
 70
0
 71
3
 72
11
 73
7
 74
0
 42
0.0000001
 43
0.0000001
 44
0.0000000001
 40
0.0
 40
0.0
 40
0.0
 40
0.0
 40
0.2497648416
 40
0.4996297651
 40
0.7497132663
 40
1.0
 40
1.0
 40
1.0
 40
1.0
 10
7.5402455476
 20
-15.4294314046
 30
0.0
 10
7.5273434517
 20
-14.6718814146
 30
0.0
 10
7.5406159671
 20
-13.1559476759
 30
0.0
 10
7.5981035684
 20
-10.8824940096
 30
0.0
 10
7.6645741612
 20
-8.6076091882
 30
0.0
 10
7.7060783684
 20
-7.0903114879
 30
0.0
 10
7.726703071
 20
-6.3313486646
 30
0.0
  0
SPLINE
  5
38A
100
AcDbEntity
  8
RACCORDO
100
AcDbSpline
 62
250
  6
CONTINUOUS
 70
0
 71
3
 72
15
 73
11
 74
0
 42
0.0000001
 43
0.0000001
 44
0.0000000001
 40
0.0
 40
0.0
 40
0.0
 40
0.0
 40
0.1207647314
 40
0.2423737037
 40
0.3647399961
 40
0.4883954624
 40
0.6137140163
 40
0.7407049187
 40
0.8694519717
 40
1.0
 40
1.0
 40
1.0
 40
1.0
 10
7.726747174
 20
-6.3313722888
 30
0.0
 10
8.2390799782
 20
-6.607146294
 30
0.0
 10
9.2735587745
 20
-7.1490240599
 30
0.0
 10
10.8384618819
 20
-7.9485154507
 30
0.0
 10
12.4227283125
 20
-8.7406867363
 30
0.0
 10
14.0380651272
 20
-9.5101870309
 30
0.0
 10
15.6922296069
 20
-10.2487594004
 30
0.0
 10
17.3856957885
 20
-10.9582261643
 30
0.0
 10
19.1198560549
 20
-11.6344494748
 30
0.0
 10
20.2963269287
 20
-12.0551324098
 30
0.0
 10
20.8905765293
 20
-12.2612290409
 30
0.0
  0
LINE
  5
38B
100
AcDbEntity
  8
0
100
AcDbLine
 62
250
  6
CONTINUOUS
 10
2.5212265028
 20
-14.3343172533
 11
2.5169626464
 21
-14.332026854
  0
SPLINE
  5
38C
100
AcDbEntity
  8
0
100
AcDbSpline
 62
250
  6
CONTINUOUS
 70
0
 71
3
 72
9
 73
5
 74
0
 42
0.0000001
 43
0.0000001
 44
0.0000000001
 40
0.0
 40
0.0
 40
0.0
 40
0.0
 40
0.2505857437
 40
1.0
 40
1.0
 40
1.0
 40
1.0
 10
2.5169626464
 20
-14.332026854
 30
0.0
 10
2.1257859737
 20
-14.1219000741
 30
0.0
 10
0.5646677577
 20
-13.2834864865
 30
0.0
 10
-0.9964269208
 20
-12.4450263392
 30
0.0
 10
-2.1672696529
 20
-11.8184202075
 30
0.0
  0
LINE
  5
38D
100
AcDbEntity
  8
SUPERFICI
100
AcDbLine
 62
250
  6
CONTINUOUS
 10
-5.5705306365
 20
-9.6314968898
 11
-5.5645193578
 21
-9.6346579739
  0
SPLINE
  5
38E
100
AcDbEntity
  8
0
100
AcDbSpline
 62
7
  6
CONTINUOUS
 70
0
 71
3
 72
9
 73
5
 74
0
 42
0.0000001
 43
0.0000001
 44
0.0000000001
 40
0.0
 40
0.0
 40
0.0
 40
0.0
 40
0.2448866905
 40
1.0
 40
1.0
 40
1.0
 40
1.0
 10
3.1605317624
 20
-15.6837944064
 30
0.0
 10
3.1809805228
 20
-15.6130485854
 30
0.0
 10
3.2661664768
 20
-15.324643097
 30
0.0
 10
3.3581818722
 20
-15.0382756545
 30
0.0
 10
3.4305625397
 20
-14.8230440303
 30
0.0
  0
LINE
  5
38F
100
AcDbEntity
  8
0
100
AcDbLine
 62
250
  6
CONTINUOUS
 10
3.5683008772
 20
-14.8971911015
 11
3.5291426782
 21
-14.8761273806
  0
LINE
  5
390
100
AcDbEntity
  8
0
100
AcDbLine
 62
250
  6
CONTINUOUS
 10
3.5291426782
 20
-14.8761273806
 11
3.4305464386
 21
-14.823097904
  0
LINE
  5
391
100
AcDbEntity
  8
0
100
AcDbLine
 62
7
  6
CONTINUOUS
 10
3.7952482492
 20
-15.0017184503
 11
3.6507670193
 21
-14.9262622893
  0
LINE
  5
392
100
AcDbEntity
  8
0
100
AcDbLine
 62
7
  6
CONTINUOUS
 10
3.6507670193
 20
-14.9262622893
 11
3.5784289895
 21
-14.8884736332
  0
SPLINE
  5
393
100
AcDbEntity
  8
SUPERFICI
100
AcDbSpline
 62
250
  6
CONTINUOUS
 70
0
 71
3
 72
15
 73
11
 74
0
 42
0.0000001
 43
0.0000001
 44
0.0000000001
 40
0.0
 40
0.0
 40
0.0
 40
0.0
 40
0.1434763536
 40
0.2740278473
 40
0.3929779235
 40
0.5048107532
 40
0.6157962052
 40
0.7324588113
 40
0.8598743021
 40
1.0
 40
1.0
 40
1.0
 40
1.0
 10
5.8566656453
 20
-15.5888208554
 30
0.0
 10
5.8983993791
 20
-15.6109288567
 30
0.0
 10
5.9818404113
 20
-15.6467364273
 30
0.0
 10
6.1096008282
 20
-15.6729301371
 30
0.0
 10
6.2299234426
 20
-15.6670154269
 30
0.0
 10
6.3373973099
 20
-15.6278920227
 30
0.0
 10
6.4262803462
 20
-15.5570295631
 30
0.0
 10
6.4920005923
 20
-15.458406762
 30
0.0
 10
6.5326034057
 20
-15.3374179469
 30
0.0
 10
6.5423502345
 20
-15.2492468507
 30
0.0
 10
6.5434931767
 20
-15.203136109
 30
0.0
  0
SPLINE
  5
394
100
AcDbEntity
  8
0
100
AcDbSpline
 62
7
  6
CONTINUOUS
 70
0
 71
3
 72
9
 73
5
 74
0
 42
0.0000001
 43
0.0000001
 44
0.0000000001
 40
0.0
 40
0.0
 40
0.0
 40
0.0
 40
0.2469971488
 40
1.0
 40
1.0
 40
1.0
 40
1.0
 10
3.8363924687
 20
-16.0774039221
 30
0.0
 10
3.8308448731
 20
-15.9904091459
 30
0.0
 10
3.8106605471
 20
-15.6380549006
 30
0.0
 10
3.7997262768
 20
-15.2851964369
 30
0.0
 10
3.795635232
 20
-15.0194743624
 30
0.0
  0
LINE
  5
395
100
AcDbEntity
  8
0
100
AcDbLine
 62
250
  6
CONTINUOUS
 10
4.0021876997
 20
-15.1306920061
 11
3.9762759392
 21
-15.1167406389
  0
LINE
  5
396
100
AcDbEntity
  8
0
100
AcDbLine
 62
250
  6
CONTINUOUS
 10
3.9762759392
 20
-15.1167406389
 11
3.7956362865
 21
-15.0195040003
  0
LINE
  5
397
100
AcDbEntity
  8
0
100
AcDbLine
 62
7
  6
CONTINUOUS
 10
3.433912398
 20
-14.812960309
 11
3.2171754408
 21
-14.6996618882
  0
LINE
  5
398
100
AcDbEntity
  8
0
100
AcDbLine
 62
7
  6
CONTINUOUS
 10
4.2405395964
 20
-15.7080707387
 11
4.2393864504
 21
-15.6727528561
  0
SPLINE
  5
399
100
AcDbEntity
  8
SUPERFICI
100
AcDbSpline
 62
250
  6
CONTINUOUS
 70
0
 71
3
 72
9
 73
5
 74
0
 42
0.0000001
 43
0.0000001
 44
0.0000000001
 40
0.0
 40
0.0
 40
0.0
 40
0.0
 40
0.2237264057
 40
1.0
 40
1.0
 40
1.0
 40
1.0
 10
-2.2860056737
 20
-11.3659794211
 30
0.0
 10
-2.2673717779
 20
-11.3957532737
 30
0.0
 10
-2.1961165743
 20
-11.5364337849
 30
0.0
 10
-2.1709768278
 20
-11.6966096933
 30
0.0
 10
-2.1672671175
 20
-11.8184249897
 30
0.0
  0
LINE
  5
39A
100
AcDbEntity
  8
SUPERFICI
100
AcDbLine
 62
250
  6
CONTINUOUS
 10
2.7827691225
 20
-14.0658152507
 11
2.7885372971
 21
-14.0689074366
  0
SPLINE
  5
39B
100
AcDbEntity
  8
RACCORDO
100
AcDbSpline
 62
250
  6
CONTINUOUS
 70
0
 71
3
 72
9
 73
5
 74
0
 42
0.0000001
 43
0.0000001
 44
0.0000000001
 40
0.0
 40
0.0
 40
0.0
 40
0.0
 40
0.4657561834
 40
1.0
 40
1.0
 40
1.0
 40
1.0
 10
5.6020481003
 20
-13.2196150915
 30
0.0
 10
5.6119277549
 20
-13.2128320385
 30
0.0
 10
5.628794456
 20
-13.1915075655
 30
0.0
 10
5.6333843841
 20
-13.1653648069
 30
0.0
 10
5.6337250065
 20
-13.1516227733
 30
0.0
  0
LINE
  5
39C
100
AcDbEntity
  8
0
100
AcDbLine
 62
7
  6
CONTINUOUS
 10
4.8440921836
 20
-16.0243566347
 11
4.8556914586
 21
-15.9827524962
  0
SPLINE
  5
39D
100
AcDbEntity
  8
SUPERFICI
100
AcDbSpline
 62
250
  6
CONTINUOUS
 70
0
 71
3
 72
9
 73
5
 74
0
 42
0.0000001
 43
0.0000001
 44
0.0000000001
 40
0.0
 40
0.0
 40
0.0
 40
0.0
 40
0.281022112
 40
1.0
 40
1.0
 40
1.0
 40
1.0
 10
6.0879749516
 20
-16.2573585576
 30
0.0
 10
6.0882875689
 20
-16.2119665471
 30
0.0
 10
6.0817990672
 20
-16.0510827282
 30
0.0
 10
6.0411311863
 20
-15.8872902569
 30
0.0
 10
5.9812797383
 20
-15.7877651649
 30
0.0
  0
SPLINE
  5
39E
100
AcDbEntity
  8
0
100
AcDbSpline
 62
7
  6
CONTINUOUS
 70
0
 71
3
 72
9
 73
5
 74
0
 42
0.0000001
 43
0.0000001
 44
0.0000000001
 40
0.0
 40
0.0
 40
0.0
 40
0.0
 40
0.2473126564
 40
1.0
 40
1.0
 40
1.0
 40
1.0
 10
5.1106210366
 20
-16.7452665937
 30
0.0
 10
5.1057165817
 20
-16.6599345691
 30
0.0
 10
5.0880255946
 20
-16.3147743449
 30
0.0
 10
5.0785541574
 20
-15.9692213609
 30
0.0
 10
5.0747460266
 20
-15.7091156328
 30
0.0
  0
LINE
  5
39F
100
AcDbEntity
  8
0
100
AcDbLine
 62
250
  6
CONTINUOUS
 10
5.5407617374
 20
-15.9609834291
 11
5.0747457286
 21
-15.7091051187
  0
LINE
  5
3A0
100
AcDbEntity
  8
0
100
AcDbLine
 62
7
  6
CONTINUOUS
 10
5.7843728553
 20
-16.0378621448
 11
5.5670564092
 21
-15.9249112609
  0
SPLINE
  5
3A1
100
AcDbEntity
  8
SUPERFICI
100
AcDbSpline
 62
250
  6
CONTINUOUS
 70
0
 71
3
 72
9
 73
5
 74
0
 42
0.0000001
 43
0.0000001
 44
0.0000000001
 40
0.0
 40
0.0
 40
0.0
 40
0.0
 40
0.277296635
 40
1.0
 40
1.0
 40
1.0
 40
1.0
 10
-10.3758961313
 20
-7.5357979816
 30
0.0
 10
-10.377478118
 20
-7.4892352639
 30
0.0
 10
-10.3912933398
 20
-7.3222187464
 30
0.0
 10
-10.4419332677
 20
-7.1544584549
 30
0.0
 10
-10.5081386071
 20
-7.0526712965
 30
0.0
  0
SPLINE
  5
3A2
100
AcDbEntity
  8
SUPERFICI
100
AcDbSpline
 62
250
  6
CONTINUOUS
 70
0
 71
3
 72
15
 73
11
 74
0
 42
0.0000001
 43
0.0000001
 44
0.0000000001
 40
0.0
 40
0.0
 40
0.0
 40
0.0
 40
0.1410679912
 40
0.2686220866
 40
0.3845017997
 40
0.493617798
 40
0.6033158753
 40
0.7211911725
 40
0.852818418
 40
1.0
 40
1.0
 40
1.0
 40
1.0
 10
6.8650679904
 20
-15.2475033365
 30
0.0
 10
6.8679104281
 20
-15.3102387547
 30
0.0
 10
6.8633152605
 20
-15.4305590131
 30
0.0
 10
6.821076983
 20
-15.5980209904
 30
0.0
 10
6.7430642105
 20
-15.7367732061
 30
0.0
 10
6.6309023854
 20
-15.8392231503
 30
0.0
 10
6.4892848292
 20
-15.8967692777
 30
0.0
 10
6.3273150811
 20
-15.9068943757
 30
0.0
 10
6.1529562745
 20
-15.8699577315
 30
0.0
 10
6.0387448425
 20
-15.819239723
 30
0.0
 10
5.9812791278
 20
-15.7877636361
 30
0.0
  0
SPLINE
  5
3A3
100
AcDbEntity
  8
SUPERFICI
100
AcDbSpline
 62
250
  6
CONTINUOUS
 70
0
 71
3
 72
9
 73
5
 74
0
 42
0.0000001
 43
0.0000001
 44
0.0000000001
 40
0.0
 40
0.0
 40
0.0
 40
0.0
 40
0.4794322206
 40
1.0
 40
1.0
 40
1.0
 40
1.0
 10
7.5402897806
 20
-15.4294539506
 30
0.0
 10
7.4391867121
 20
-15.3809151
 30
0.0
 10
7.2173186441
 20
-15.3020833468
 30
0.0
 10
6.986145478
 20
-15.2605057583
 30
0.0
 10
6.865067993
 20
-15.247503394
 30
0.0
  0
SPLINE
  5
3A4
100
AcDbEntity
  8
0
100
AcDbSpline
 62
7
  6
CONTINUOUS
 70
0
 71
3
 72
8
 73
4
 74
0
 42
0.0000001
 43
0.0000001
 44
0.0000000001
 40
0.0
 40
0.0
 40
0.0
 40
0.0
 40
1.0
 40
1.0
 40
1.0
 40
1.0
 10
6.5293437939
 20
-16.4222613352
 30
0.0
 10
6.4520209725
 20
-16.3822871306
 30
0.0
 10
6.3744429509
 20
-16.3428084361
 30
0.0
 10
6.2969504929
 20
-16.3031640833
 30
0.0
  0
LINE
  5
3A5
100
AcDbEntity
  8
0
100
AcDbLine
 62
7
  6
CONTINUOUS
 10
6.2969504929
 20
-16.3031640833
 11
6.278948171
 21
-16.293950902
  0
SPLINE
  5
3A6
100
AcDbEntity
  8
0
100
AcDbSpline
 62
250
  6
CONTINUOUS
 70
0
 71
3
 72
9
 73
5
 74
0
 42
0.0000001
 43
0.0000001
 44
0.0000000001
 40
0.0
 40
0.0
 40
0.0
 40
0.0
 40
0.2585955303
 40
1.0
 40
1.0
 40
1.0
 40
1.0
 10
6.2706669846
 20
-16.3547246031
 30
0.0
 10
6.291617557
 20
-16.3630201107
 30
0.0
 10
6.3733413949
 20
-16.3932812299
 30
0.0
 10
6.457695565
 20
-16.4164598415
 30
0.0
 10
6.5210046424
 20
-16.4293270974
 30
0.0
  0
LINE
  5
3A7
100
AcDbEntity
  8
0
100
AcDbLine
 62
250
  6
CONTINUOUS
 10
5.7936117453
 20
-16.110198516
 11
5.5430136119
 21
-15.9745790418
  0
LINE
  5
3A8
100
AcDbEntity
  8
0
100
AcDbLine
 62
250
  6
CONTINUOUS
 10
5.0646470134
 20
-15.7159986894
 11
4.7267406276
 21
-15.5336346726
  0
LINE
  5
3A9
100
AcDbEntity
  8
0
100
AcDbLine
 62
250
  6
CONTINUOUS
 10
4.3380802769
 20
-15.3239306764
 11
4.0024453677
 21
-15.1431583958
  0
LINE
  5
3AA
100
AcDbEntity
  8
0
100
AcDbLine
 62
250
  6
CONTINUOUS
 10
3.7854740983
 20
-15.0261748428
 11
3.5685659829
 21
-14.9094717093
  0
LINE
  5
3AB
100
AcDbEntity
  8
0
100
AcDbLine
 62
250
  6
CONTINUOUS
 10
3.4202994125
 20
-14.8295513799
 11
3.2085100613
 21
-14.7156712456
  0
LINE
  5
3AC
100
AcDbEntity
  8
0
100
AcDbLine
 62
250
  6
CONTINUOUS
 10
3.2085100613
 20
-14.7156712456
 11
3.2045528756
 21
-14.7135437766
  0
LINE
  5
3AD
100
AcDbEntity
  8
0
100
AcDbLine
 62
7
  6
CONTINUOUS
 10
3.4237321496
 20
-14.8192225705
 11
3.4203345292
 21
-14.8296087984
  0
SPLINE
  5
3AE
100
AcDbEntity
  8
0
100
AcDbSpline
 62
7
  6
CONTINUOUS
 70
0
 71
3
 72
9
 73
5
 74
0
 42
0.0000001
 43
0.0000001
 44
0.0000000001
 40
0.0
 40
0.0
 40
0.0
 40
0.0
 40
0.2555302131
 40
1.0
 40
1.0
 40
1.0
 40
1.0
 10
3.4203345292
 20
-14.8296087984
 30
0.0
 10
3.3932722878
 20
-14.9100784797
 30
0.0
 10
3.2890159818
 20
-15.2255405281
 30
0.0
 10
3.1917853058
 20
-15.5433479774
 30
0.0
 10
3.1242903414
 20
-15.781306549
 30
0.0
  0
SPLINE
  5
3AF
100
AcDbEntity
  8
0
100
AcDbSpline
 62
7
  6
CONTINUOUS
 70
0
 71
3
 72
9
 73
5
 74
0
 42
0.0000001
 43
0.0000001
 44
0.0000000001
 40
0.0
 40
0.0
 40
0.0
 40
0.0
 40
0.2488075218
 40
1.0
 40
1.0
 40
1.0
 40
1.0
 10
6.1500379136
 20
-17.3006728325
 30
0.0
 10
6.1194700777
 20
-17.2019020808
 30
0.0
 10
5.998667933
 20
-16.8042897771
 30
0.0
 10
5.8853729774
 20
-16.4044176922
 30
0.0
 10
5.8034522658
 20
-16.1031984165
 30
0.0
  0
LINE
  5
3B0
100
AcDbEntity
  8
0
100
AcDbLine
 62
7
  6
CONTINUOUS
 10
3.2070042454
 20
-14.7059185808
 11
3.243163818
 21
-14.7248269058
  0
LINE
  5
3B1
100
AcDbEntity
  8
0
100
AcDbLine
 62
7
  6
CONTINUOUS
 10
3.243163818
 20
-14.7248269058
 11
3.4237321496
 21
-14.8192225705
  0
LINE
  5
3B2
100
AcDbEntity
  8
0
100
AcDbLine
 62
7
  6
CONTINUOUS
 10
2.5215371979
 20
-14.3356272985
 11
2.5942643078
 21
-14.3737142101
  0
LINE
  5
3B3
100
AcDbEntity
  8
0
100
AcDbLine
 62
7
  6
CONTINUOUS
 10
2.5942643078
 20
-14.3737142101
 11
2.7384865486
 21
-14.4492234043
  0
LINE
  5
3B4
100
AcDbEntity
  8
0
100
AcDbLine
 62
7
  6
CONTINUOUS
 10
2.5115965999
 20
-14.3418679832
 11
2.7281711358
 21
-14.4552663156
  0
LINE
  5
3B5
100
AcDbEntity
  8
0
100
AcDbLine
 62
250
  6
CONTINUOUS
 10
6.0879748746
 20
-16.2573676383
 11
5.8034508098
 21
-16.1032125515
  0
LINE
  5
3B6
100
AcDbEntity
  8
0
100
AcDbLine
 62
7
  6
CONTINUOUS
 10
3.5682448239
 20
-14.8947383043
 11
3.6405817691
 21
-14.9325279084
  0
LINE
  5
3B7
100
AcDbEntity
  8
0
100
AcDbLine
 62
7
  6
CONTINUOUS
 10
3.6405817691
 20
-14.9325279084
 11
3.7850612736
 21
-15.0079848499
  0
LINE
  5
3B8
100
AcDbEntity
  8
0
100
AcDbLine
 62
7
  6
CONTINUOUS
 10
3.7850612736
 20
-15.0079848499
 11
3.7855298206
 21
-15.0261902236
  0
SPLINE
  5
3B9
100
AcDbEntity
  8
0
100
AcDbSpline
 62
7
  6
CONTINUOUS
 70
0
 71
3
 72
9
 73
5
 74
0
 42
0.0000001
 43
0.0000001
 44
0.0000000001
 40
0.0
 40
0.0
 40
0.0
 40
0.0
 40
0.2531114861
 40
1.0
 40
1.0
 40
1.0
 40
1.0
 10
3.7855298206
 20
-15.0261902236
 30
0.0
 10
3.786994878
 20
-15.1213811358
 30
0.0
 10
3.7949887
 20
-15.4974235223
 30
0.0
 10
3.8120394455
 20
-15.8733000258
 30
0.0
 10
3.8308800135
 20
-16.1535928273
 30
0.0
  0
SPLINE
  5
3BA
100
AcDbEntity
  8
SUPERFICI
100
AcDbSpline
 62
250
  6
CONTINUOUS
 70
0
 71
3
 72
12
 73
8
 74
0
 42
0.0000001
 43
0.0000001
 44
0.0000000001
 40
0.0
 40
0.0
 40
0.0
 40
0.0
 40
0.2495197371
 40
0.3745227912
 40
0.4995822079
 40
0.7497814075
 40
1.0
 40
1.0
 40
1.0
 40
1.0
 10
7.3174015168
 20
3.0011455814
 30
0.0
 10
7.2656415924
 20
2.2443281783
 30
0.0
 10
7.2149288552
 20
1.1065678159
 30
0.0
 10
7.1674494986
 20
-0.4114743082
 30
0.0
 10
7.1260976024
 20
-1.9318114086
 30
0.0
 10
7.0812081453
 20
-3.8328429229
 30
0.0
 10
7.0448251477
 20
-5.3537695682
 30
0.0
 10
7.0265200161
 20
-6.1142592525
 30
0.0
  0
LINE
  5
3BB
100
AcDbEntity
  8
0
100
AcDbLine
 62
7
  6
CONTINUOUS
 10
4.001924104
 20
-15.1211935108
 11
4.0749262779
 21
-15.1592888145
  0
LINE
  5
3BC
100
AcDbEntity
  8
0
100
AcDbLine
 62
7
  6
CONTINUOUS
 10
4.0749262779
 20
-15.1592888145
 11
4.3298780429
 21
-15.2922774362
  0
SPLINE
  5
3BD
100
AcDbEntity
  8
SUPERFICI
100
AcDbSpline
 62
250
  6
CONTINUOUS
 70
0
 71
3
 72
12
 73
8
 74
0
 42
0.0000001
 43
0.0000001
 44
0.0000000001
 40
0.0
 40
0.0
 40
0.0
 40
0.0
 40
0.2505088254
 40
0.3755165995
 40
0.5004513661
 40
0.7502313462
 40
1.0
 40
1.0
 40
1.0
 40
1.0
 10
6.8650740824
 20
-15.2475053625
 30
0.0
 10
6.8511160454
 20
-14.4848195767
 30
0.0
 10
6.8568466066
 20
-13.3410979503
 30
0.0
 10
6.8847324559
 20
-11.8174850972
 30
0.0
 10
6.918771974
 20
-10.2961699902
 30
0.0
 10
6.968110346
 20
-8.3952256436
 30
0.0
 10
7.0071288746
 20
-6.8745716503
 30
0.0
 10
7.0265200161
 20
-6.1142592525
 30
0.0
  0
LINE
  5
3BE
100
AcDbEntity
  8
0
100
AcDbLine
 62
7
  6
CONTINUOUS
 10
6.5329053522
 20
-17.5581491488
 11
6.5303851667
 21
-17.5100358168
  0
SPLINE
  5
3BF
100
AcDbEntity
  8
SUPERFICI
100
AcDbSpline
 62
250
  6
CONTINUOUS
 70
0
 71
3
 72
9
 73
5
 74
0
 42
0.0000001
 43
0.0000001
 44
0.0000000001
 40
0.0
 40
0.0
 40
0.0
 40
0.0
 40
0.2345774669
 40
1.0
 40
1.0
 40
1.0
 40
1.0
 10
7.9915373414
 20
2.7756261163
 30
0.0
 10
7.942708403
 20
2.8024918612
 30
0.0
 10
7.728732961
 20
2.9063453976
 30
0.0
 10
7.4967225955
 20
2.9709113443
 30
0.0
 10
7.3174014832
 20
3.0011450797
 30
0.0
  0
SPLINE
  5
3C0
100
AcDbEntity
  8
SUPERFICI
100
AcDbSpline
 62
250
  6
CONTINUOUS
 70
0
 71
3
 72
9
 73
5
 74
0
 42
0.0000001
 43
0.0000001
 44
0.0000000001
 40
0.0
 40
0.0
 40
0.0
 40
0.0
 40
0.5206143703
 40
1.0
 40
1.0
 40
1.0
 40
1.0
 10
7.0265270784
 20
-6.1139742027
 30
0.0
 10
7.1530456504
 20
-6.1314940247
 30
0.0
 10
7.3939616365
 20
-6.1833463613
 30
0.0
 10
7.6231931698
 20
-6.2755886197
 30
0.0
 10
7.7267476478
 20
-6.3313452325
 30
0.0
  0
LINE
  5
3C1
100
AcDbEntity
  8
0
100
AcDbLine
 62
7
  6
CONTINUOUS
 10
6.768918009
 20
-17.0386060793
 11
6.5041332052
 21
-16.9014400777
  0
SPLINE
  5
3C2
100
AcDbEntity
  8
0
100
AcDbSpline
 62
7
  6
CONTINUOUS
 70
0
 71
3
 72
9
 73
5
 74
0
 42
0.0000001
 43
0.0000001
 44
0.0000000001
 40
0.0
 40
0.0
 40
0.0
 40
0.0
 40
0.2527479519
 40
1.0
 40
1.0
 40
1.0
 40
1.0
 10
5.0646775505
 20
-15.71597344
 30
0.0
 10
5.0660440601
 20
-15.8092761702
 30
0.0
 10
5.0731787265
 20
-16.1783977722
 30
0.0
 10
5.0879683176
 20
-16.5474055659
 30
0.0
 10
5.1047544596
 20
-16.8227745225
 30
0.0
  0
SPLINE
  5
3C3
100
AcDbEntity
  8
SUPERFICI
100
AcDbSpline
 62
250
  6
CONTINUOUS
 70
0
 71
3
 72
11
 73
7
 74
0
 42
0.0000001
 43
0.0000001
 44
0.0000000001
 40
0.0
 40
0.0
 40
0.0
 40
0.0
 40
0.2403472968
 40
0.5045629158
 40
0.7659450248
 40
1.0
 40
1.0
 40
1.0
 40
1.0
 10
6.4841552601
 20
4.5002349532
 30
0.0
 10
6.6146790791
 20
4.4387407998
 30
0.0
 10
6.8602951438
 20
4.2488561849
 30
0.0
 10
7.1308683677
 20
3.8713911875
 30
0.0
 10
7.2997240194
 20
3.4430580994
 30
0.0
 10
7.3308422542
 20
3.1410138811
 30
0.0
 10
7.3173871616
 20
3.0011525502
 30
0.0
  0
LINE
  5
3C4
100
AcDbEntity
  8
0
100
AcDbLine
 62
7
  6
CONTINUOUS
 10
4.735161994
 20
-15.5035082337
 11
4.7717090833
 21
-15.5225458361
  0
LINE
  5
3C5
100
AcDbEntity
  8
0
100
AcDbLine
 62
7
  6
CONTINUOUS
 10
4.7717090833
 20
-15.5225458361
 11
5.0633906439
 21
-15.6744231739
  0
SPLINE
  5
3C6
100
AcDbEntity
  8
SUPERFICI
100
AcDbSpline
 62
250
  6
CONTINUOUS
 70
0
 71
3
 72
9
 73
5
 74
0
 42
0.0000001
 43
0.0000001
 44
0.0000000001
 40
0.0
 40
0.0
 40
0.0
 40
0.0
 40
0.2349365621
 40
1.0
 40
1.0
 40
1.0
 40
1.0
 10
6.6185314712
 20
5.1473725842
 30
0.0
 10
6.616380448
 20
5.0955441849
 30
0.0
 10
6.5969642207
 20
4.875398294
 30
0.0
 10
6.5413386289
 20
4.659184589
 30
0.0
 10
6.4841551902
 20
4.5002349861
 30
0.0
  0
LINE
  5
3C7
100
AcDbEntity
  8
0
100
AcDbLine
 62
7
  6
CONTINUOUS
 10
4.3298780429
 20
-15.2922774362
 11
4.3380783463
 21
-15.3237711006
  0
LINE
  5
3C8
100
AcDbEntity
  8
0
100
AcDbLine
 62
7
  6
CONTINUOUS
 10
5.7853278897
 20
-16.7374827665
 11
5.6945896669
 21
-16.6902308259
  0
LINE
  5
3C9
100
AcDbEntity
  8
0
100
AcDbLine
 62
7
  6
CONTINUOUS
 10
5.6945896669
 20
-16.6902308259
 11
5.5889356179
 21
-16.6351917566
  0
LINE
  5
3CA
100
AcDbEntity
  8
0
100
AcDbLine
 62
250
  6
CONTINUOUS
 10
4.7258646947
 20
-15.5207099648
 11
4.6717771075
 21
-15.4915324532
  0
LINE
  5
3CB
100
AcDbEntity
  8
0
100
AcDbLine
 62
250
  6
CONTINUOUS
 10
4.6717771075
 20
-15.4915324532
 11
4.3480459026
 21
-15.3169907819
  0
SPLINE
  5
3CC
100
AcDbEntity
  8
0
100
AcDbSpline
 62
7
  6
CONTINUOUS
 70
0
 71
3
 72
9
 73
5
 74
0
 42
0.0000001
 43
0.0000001
 44
0.0000000001
 40
0.0
 40
0.0
 40
0.0
 40
0.0
 40
0.2512063765
 40
1.0
 40
1.0
 40
1.0
 40
1.0
 10
5.7938120778
 20
-16.1108828292
 30
0.0
 10
5.8227567013
 20
-16.2173097873
 30
0.0
 10
5.9395520241
 20
-16.6405404897
 30
0.0
 10
6.0633886263
 20
-17.0618551826
 30
0.0
 10
6.1613401773
 20
-17.3756837188
 30
0.0
  0
LINE
  5
3CD
100
AcDbEntity
  8
0
100
AcDbLine
 62
7
  6
CONTINUOUS
 10
5.556913375
 20
-15.9311506305
 11
5.5637470005
 21
-15.9347033475
  0
LINE
  5
3CE
100
AcDbEntity
  8
0
100
AcDbLine
 62
7
  6
CONTINUOUS
 10
5.5637470005
 20
-15.9347033475
 11
5.774228772
 21
-16.0441021598
  0
LINE
  5
3CF
100
AcDbEntity
  8
0
100
AcDbLine
 62
250
  6
CONTINUOUS
 10
3.2094965561
 20
-14.7040894603
 11
3.1342751201
 21
-14.663652632
  0
LINE
  5
3D0
100
AcDbEntity
  8
0
100
AcDbLine
 62
250
  6
CONTINUOUS
 10
3.1342751201
 20
-14.663652632
 11
2.7387537481
 21
-14.4510988008
  0
SPLINE
  5
3D1
100
AcDbEntity
  8
SUPERFICI
100
AcDbSpline
 62
250
  6
CONTINUOUS
 70
0
 71
3
 72
11
 73
7
 74
0
 42
0.0000001
 43
0.0000001
 44
0.0000000001
 40
0.0
 40
0.0
 40
0.0
 40
0.0
 40
0.2505420904
 40
0.5011236257
 40
0.7512858889
 40
1.0
 40
1.0
 40
1.0
 40
1.0
 10
7.7267009283
 20
-6.3313476582
 30
0.0
 10
7.7437445899
 20
-5.5706142835
 30
0.0
 10
7.7775638358
 20
-4.0490263049
 30
0.0
 10
7.8240245556
 20
-1.7677361264
 30
0.0
 10
7.8793125974
 20
0.5077051297
 30
0.0
 10
7.940955604
 20
2.0219712057
 30
0.0
 10
7.9914902649
 20
2.7756514165
 30
0.0
  0
LINE
  5
3D2
100
AcDbEntity
  8
0
100
AcDbLine
 62
7
  6
CONTINUOUS
 10
5.5788679793
 20
-16.6413847475
 11
5.7892943756
 21
-16.7509818003
  0
LINE
  5
3D3
100
AcDbEntity
  8
0
100
AcDbLine
 62
7
  6
CONTINUOUS
 10
6.4940746475
 20
-16.9076274825
 11
6.7588600633
 21
-17.0447931077
  0
SPLINE
  5
3D4
100
AcDbEntity
  8
0
100
AcDbSpline
 62
7
  6
CONTINUOUS
 70
0
 71
3
 72
9
 73
5
 74
0
 42
0.0000001
 43
0.0000001
 44
0.0000000001
 40
0.0
 40
0.0
 40
0.0
 40
0.0
 40
0.5517191626
 40
1.0
 40
1.0
 40
1.0
 40
1.0
 10
6.7588600021
 20
-17.0447939548
 30
0.0
 10
6.7749033363
 20
-17.0531001609
 30
0.0
 10
6.8065716237
 20
-17.064624865
 30
0.0
 10
6.8412147656
 20
-17.0584605841
 30
0.0
 10
6.8537158362
 20
-17.0507667699
 30
0.0
  0
SPLINE
  5
3D5
100
AcDbEntity
  8
0
100
AcDbSpline
 62
7
  6
CONTINUOUS
 70
0
 71
3
 72
14
 73
10
 74
0
 42
0.0000001
 43
0.0000001
 44
0.0000000001
 40
0.0
 40
0.0
 40
0.0
 40
0.0
 40
0.2743177477
 40
0.4217775089
 40
0.5653186956
 40
0.6975814556
 40
0.8134670074
 40
0.9122459303
 40
1.0
 40
1.0
 40
1.0
 40
1.0
 10
6.7800805231
 20
-16.5631817491
 30
0.0
 10
6.8512938141
 20
-16.5999536663
 30
0.0
 10
6.9468155527
 20
-16.6845130895
 30
0.0
 10
7.0406647968
 20
-16.8206712406
 30
0.0
 10
7.0927883266
 20
-16.933659078
 30
0.0
 10
7.1205335395
 20
-17.045501185
 30
0.0
 10
7.1216411519
 20
-17.1480259551
 30
0.0
 10
7.0946955919
 20
-17.2343476998
 30
0.0
 10
7.0555141315
 20
-17.2758175087
 30
0.0
 10
7.0336761422
 20
-17.2892508852
 30
0.0
  0
LINE
  5
3D6
100
AcDbEntity
  8
0
100
AcDbLine
 62
7
  6
CONTINUOUS
 10
6.2687201378
 20
-16.3002425577
 11
6.3529269152
 21
-16.343257079
  0
LINE
  5
3D7
100
AcDbEntity
  8
0
100
AcDbLine
 62
7
  6
CONTINUOUS
 10
6.5209407183
 20
-16.429314787
 11
6.7800804761
 21
-16.5631825418
  0
SPLINE
  5
3D8
100
AcDbEntity
  8
SUPERFICI
100
AcDbSpline
 62
250
  6
CONTINUOUS
 70
0
 71
3
 72
16
 73
12
 74
0
 42
0.0000001
 43
0.0000001
 44
0.0000000001
 40
0.0
 40
0.0
 40
0.0
 40
0.0
 40
0.1139848445
 40
0.2363474873
 40
0.3654264727
 40
0.4979288193
 40
0.6306367762
 40
0.760364297
 40
0.8840888699
 40
0.9432770305
 40
1.0
 40
1.0
 40
1.0
 40
1.0
 10
7.9915391605
 20
2.7756252642
 30
0.0
 10
7.9970232466
 20
2.8848473677
 30
0.0
 10
7.991310645
 20
3.1125961836
 30
0.0
 10
7.9264956489
 20
3.4585616592
 30
0.0
 10
7.8064540505
 20
3.8080067669
 30
0.0
 10
7.6387293063
 20
4.1482099573
 30
0.0
 10
7.4283089935
 20
4.4645833121
 30
0.0
 10
7.1843185281
 20
4.7448963502
 30
0.0
 10
6.955618372
 20
4.9408860583
 30
0.0
 10
6.7651814027
 20
5.069973707
 30
0.0
 10
6.6677596338
 20
5.1241713772
 30
0.0
 10
6.6185318519
 20
5.1473728105
 30
0.0
  0
SPLINE
  5
3D9
100
AcDbEntity
  8
SUPERFICI
100
AcDbSpline
 62
250
  6
CONTINUOUS
 70
0
 71
3
 72
10
 73
6
 74
0
 42
0.0000001
 43
0.0000001
 44
0.0000000001
 40
0.0
 40
0.0
 40
0.0
 40
0.0
 40
0.250113405
 40
0.5001574363
 40
1.0
 40
1.0
 40
1.0
 40
1.0
 10
-1.675922691
 20
9.3772261239
 30
0.0
 10
-0.9883704912
 20
9.0168768318
 30
0.0
 10
0.3881873658
 20
8.299394687
 30
0.0
 10
3.1491750967
 20
6.8818494527
 30
0.0
 10
5.2264354209
 20
5.8319937565
 30
0.0
 10
6.6185325108
 20
5.1473896889
 30
0.0
  0
SPLINE
  5
3DA
100
AcDbEntity
  8
RACCORDO
100
AcDbSpline
 62
250
  6
CONTINUOUS
 70
0
 71
3
 72
11
 73
7
 74
0
 42
0.0000001
 43
0.0000001
 44
0.0000000001
 40
0.0
 40
0.0
 40
0.0
 40
0.0
 40
0.2598627248
 40
0.5140044151
 40
0.7612435079
 40
1.0
 40
1.0
 40
1.0
 40
1.0
 10
-0.599694909
 20
15.4166451967
 30
0.0
 10
-0.7378344586
 20
14.9029572997
 30
0.0
 10
-0.9855747107
 20
13.8798885296
 30
0.0
 10
-1.2846409753
 20
12.3501418375
 30
0.0
 10
-1.5127521396
 20
10.8519191383
 30
0.0
 10
-1.6254892845
 20
9.8633331713
 30
0.0
 10
-1.6759239337
 20
9.3772090172
 30
0.0
  0
SPLINE
  5
3DB
100
AcDbEntity
  8
SUPERFICI
100
AcDbSpline
 62
250
  6
CONTINUOUS
 70
0
 71
3
 72
8
 73
4
 74
0
 42
0.0000001
 43
0.0000001
 44
0.0000000001
 40
0.0
 40
0.0
 40
0.0
 40
0.0
 40
1.0
 40
1.0
 40
1.0
 40
1.0
 10
-10.0931075347
 20
12.4054749404
 30
0.0
 10
-10.1081618731
 20
12.4134649279
 30
0.0
 10
-10.1219426198
 20
12.4242840219
 30
0.0
 10
-10.1335358792
 20
12.4367767934
 30
0.0
  0
SPLINE
  5
3DC
100
AcDbEntity
  8
SUPERFICI
100
AcDbSpline
 62
250
  6
CONTINUOUS
 70
0
 71
3
 72
10
 73
6
 74
0
 42
0.0000001
 43
0.0000001
 44
0.0000000001
 40
0.0
 40
0.0
 40
0.0
 40
0.0
 40
0.4208423479
 40
0.6952970829
 40
1.0
 40
1.0
 40
1.0
 40
1.0
 10
-10.1335358792
 20
12.4367767934
 30
0.0
 10
-10.1768104121
 20
12.4834089639
 30
0.0
 10
-10.2018204173
 20
12.5978231641
 30
0.0
 10
-10.1852356721
 20
12.7466273367
 30
0.0
 10
-10.160256399
 20
12.8315420783
 30
0.0
 10
-10.143750063
 20
12.8745443009
 30
0.0
  0
SPLINE
  5
3DD
100
AcDbEntity
  8
SUPERFICI
100
AcDbSpline
 62
250
  6
CONTINUOUS
 70
0
 71
3
 72
10
 73
6
 74
0
 42
0.0000001
 43
0.0000001
 44
0.0000000001
 40
0.0
 40
0.0
 40
0.0
 40
0.0
 40
0.5000747014
 40
0.7500415171
 40
1.0
 40
1.0
 40
1.0
 40
1.0
 10
-9.8453379896
 20
13.8689483451
 30
0.0
 10
-8.4944113479
 20
13.1007885579
 30
0.0
 10
-6.4559049488
 20
11.9703392854
 30
0.0
 10
-3.7286182324
 20
10.4806193011
 30
0.0
 10
-2.3607225966
 20
9.7440512129
 30
0.0
 10
-1.6759149451
 20
9.3774100847
 30
0.0
  0
SPLINE
  5
3DE
100
AcDbEntity
  8
SUPERFICI
100
AcDbSpline
 62
250
  6
CONTINUOUS
 70
0
 71
3
 72
15
 73
11
 74
0
 42
0.0000001
 43
0.0000001
 44
0.0000000001
 40
0.0
 40
0.0
 40
0.0
 40
0.0
 40
0.1417814935
 40
0.2709096764
 40
0.389148785
 40
0.5008192134
 40
0.6122909054
 40
0.7299927231
 40
0.8587407233
 40
1.0
 40
1.0
 40
1.0
 40
1.0
 10
-9.8453392121
 20
13.8689332784
 30
0.0
 10
-9.9340017857
 20
13.9212193975
 30
0.0
 10
-10.1152198188
 20
14.0017686007
 30
0.0
 10
-10.3929642383
 20
14.0648163451
 30
0.0
 10
-10.6570631159
 20
14.0529940918
 30
0.0
 10
-10.893834204
 20
13.9660919517
 30
0.0
 10
-11.0885610623
 20
13.8064461488
 30
0.0
 10
-11.2324958944
 20
13.5857111419
 30
0.0
 10
-11.3175571682
 20
13.3144559858
 30
0.0
 10
-11.3359905284
 20
13.1182032296
 30
0.0
 10
-11.3388451327
 20
13.0156906064
 30
0.0
  0
SPLINE
  5
3DF
100
AcDbEntity
  8
SUPERFICI
100
AcDbSpline
 62
250
  6
CONTINUOUS
 70
0
 71
3
 72
11
 73
7
 74
0
 42
0.0000001
 43
0.0000001
 44
0.0000000001
 40
0.0
 40
0.0
 40
0.0
 40
0.0
 40
0.2515983671
 40
0.5012675162
 40
0.7505556242
 40
1.0
 40
1.0
 40
1.0
 40
1.0
 10
-11.3388013223
 20
13.0156675654
 30
0.0
 10
-11.3480805497
 20
12.2501735816
 30
0.0
 10
-11.3806482928
 20
10.7252423664
 30
0.0
 10
-11.4434056596
 20
8.4423630308
 30
0.0
 10
-11.5080782023
 20
6.1660816281
 30
0.0
 10
-11.5488083542
 20
4.6491115729
 30
0.0
 10
-11.5690785687
 20
3.890386124
 30
0.0
  0
SPLINE
  5
3E0
100
AcDbEntity
  8
SUPERFICI
100
AcDbSpline
 62
250
  6
CONTINUOUS
 70
0
 71
3
 72
11
 73
7
 74
0
 42
0.0000001
 43
0.0000001
 44
0.0000000001
 40
0.0
 40
0.0
 40
0.0
 40
0.0
 40
0.1900854337
 40
0.4166591581
 40
0.6902364228
 40
1.0
 40
1.0
 40
1.0
 40
1.0
 10
6.6000750344
 20
3.3345332661
 30
0.0
 10
6.5992670946
 20
3.3011188006
 30
0.0
 10
6.6225583514
 20
3.2267673511
 30
0.0
 10
6.7122903176
 20
3.1406014128
 30
0.0
 10
6.8411304761
 20
3.0766679849
 30
0.0
 10
6.941863572
 20
3.0529594112
 30
0.0
 10
6.9958206112
 20
3.045514835
 30
0.0
  0
SPLINE
  5
3E1
100
AcDbEntity
  8
SUPERFICI
100
AcDbSpline
 62
250
  6
CONTINUOUS
 70
0
 71
3
 72
11
 73
7
 74
0
 42
0.0000001
 43
0.0000001
 44
0.0000000001
 40
0.0
 40
0.0
 40
0.0
 40
0.0
 40
0.1900854337
 40
0.4166591581
 40
0.6902364228
 40
1.0
 40
1.0
 40
1.0
 40
1.0
 10
6.1477475999
 20
-14.9141176778
 30
0.0
 10
6.1469396602
 20
-14.9475321434
 30
0.0
 10
6.170230917
 20
-15.0218835929
 30
0.0
 10
6.2599628832
 20
-15.1080495312
 30
0.0
 10
6.3888030416
 20
-15.1719829591
 30
0.0
 10
6.4895361376
 20
-15.1956915328
 30
0.0
 10
6.5434931767
 20
-15.203136109
 30
0.0
  0
SPLINE
  5
3E2
100
AcDbEntity
  8
SUPERFICI
100
AcDbSpline
 62
250
  6
CONTINUOUS
 70
0
 71
3
 72
9
 73
5
 74
0
 42
0.0000001
 43
0.0000001
 44
0.0000000001
 40
0.0
 40
0.0
 40
0.0
 40
0.0
 40
0.233373863
 40
1.0
 40
1.0
 40
1.0
 40
1.0
 10
-9.8453392546
 20
13.8689331749
 30
0.0
 10
-9.8495057503
 20
13.818156671
 30
0.0
 10
-9.8776825119
 20
13.6014586875
 30
0.0
 10
-9.9419774574
 20
13.390266459
 30
0.0
 10
-10.0052619184
 20
13.2353328939
 30
0.0
  0
SPLINE
  5
3E3
100
AcDbEntity
  8
SUPERFICI
100
AcDbSpline
 62
250
  6
CONTINUOUS
 70
0
 71
3
 72
9
 73
5
 74
0
 42
0.0000001
 43
0.0000001
 44
0.0000000001
 40
0.0
 40
0.0
 40
0.0
 40
0.0
 40
0.234769329
 40
1.0
 40
1.0
 40
1.0
 40
1.0
 10
-1.675905135
 20
9.3773962003
 30
0.0
 10
-1.6797207864
 20
9.3279573429
 30
0.0
 10
-1.7052425691
 20
9.1181174704
 30
0.0
 10
-1.7636759369
 20
8.9129136891
 30
0.0
 10
-1.8216656357
 20
8.7620498472
 30
0.0
  0
SPLINE
  5
3E4
100
AcDbEntity
  8
SUPERFICI
100
AcDbSpline
 62
250
  6
CONTINUOUS
 70
0
 71
3
 72
15
 73
11
 74
0
 42
0.0000001
 43
0.0000001
 44
0.0000000001
 40
0.0
 40
0.0
 40
0.0
 40
0.0
 40
0.1413630819
 40
0.2708462731
 40
0.389927511
 40
0.5024768966
 40
0.6143261215
 40
0.7315911051
 40
0.859349602
 40
1.0
 40
1.0
 40
1.0
 40
1.0
 10
-10.9320696188
 20
12.6686081511
 30
0.0
 10
-10.9319138014
 20
12.7335658009
 30
0.0
 10
-10.9211069628
 20
12.8584012477
 30
0.0
 10
-10.8691945774
 20
13.0314752106
 30
0.0
 10
-10.7820638398
 20
13.1751576681
 30
0.0
 10
-10.6623567542
 20
13.2820653002
 30
0.0
 10
-10.515005265
 20
13.3439800561
 30
0.0
 10
-10.3490267978
 20
13.3573669759
 30
0.0
 10
-10.1736212649
 20
13.3209079365
 30
0.0
 10
-10.0609123299
 20
13.2681970275
 30
0.0
 10
-10.0052628004
 20
13.2353304471
 30
0.0
  0
SPLINE
  5
3E5
100
AcDbEntity
  8
SUPERFICI
100
AcDbSpline
 62
250
  6
CONTINUOUS
 70
0
 71
3
 72
9
 73
5
 74
0
 42
0.0000001
 43
0.0000001
 44
0.0000000001
 40
0.0
 40
0.0
 40
0.0
 40
0.0
 40
0.2806082957
 40
1.0
 40
1.0
 40
1.0
 40
1.0
 10
-11.3388471544
 20
13.0156891292
 30
0.0
 10
-11.2939763961
 20
12.9928604353
 30
0.0
 10
-11.1387246581
 20
12.9041305675
 30
0.0
 10
-10.9983657342
 20
12.779346741
 30
0.0
 10
-10.9320696186
 20
12.6686082103
 30
0.0
  0
SPLINE
  5
3E6
100
AcDbEntity
  8
RACCORDO
100
AcDbSpline
 62
250
  6
CONTINUOUS
 70
0
 71
3
 72
11
 73
7
 74
0
 42
0.0000001
 43
0.0000001
 44
0.0000000001
 40
0.0
 40
0.0
 40
0.0
 40
0.0
 40
0.225983173
 40
0.4615858519
 40
0.7176988388
 40
1.0
 40
1.0
 40
1.0
 40
1.0
 10
20.8490192087
 20
-28.0501568772
 30
0.0
 10
20.8994013156
 20
-28.0235558039
 30
0.0
 10
20.9939843712
 20
-27.951585752
 30
0.0
 10
21.0970633119
 20
-27.7996318926
 30
0.0
 10
21.1586117777
 20
-27.6122791326
 30
0.0
 10
21.1704094355
 20
-27.4758920398
 30
0.0
 10
21.1700550907
 20
-27.4047209389
 30
0.0
  0
SPLINE
  5
3E7
100
AcDbEntity
  8
SUPERFICI
100
AcDbSpline
 62
250
  6
CONTINUOUS
 70
0
 71
3
 72
15
 73
11
 74
0
 42
0.0000001
 43
0.0000001
 44
0.0000000001
 40
0.0
 40
0.0
 40
0.0
 40
0.0
 40
0.1401256718
 40
0.2675410871
 40
0.384203652
 40
0.4951891012
 40
0.6070219315
 40
0.7259720487
 40
0.8565236196
 40
1.0
 40
1.0
 40
1.0
 40
1.0
 10
-10.8305775944
 20
12.4888595545
 30
0.0
 10
-10.8294346524
 20
12.5349702877
 30
0.0
 10
-10.8196878463
 20
12.6231413536
 30
0.0
 10
-10.7790850397
 20
12.7441301196
 30
0.0
 10
-10.7133648531
 20
12.8427529079
 30
0.0
 10
-10.6244818569
 20
12.9136153958
 30
0.0
 10
-10.5170079939
 20
12.952738848
 30
0.0
 10
-10.3966853383
 20
12.9586536014
 30
0.0
 10
-10.268924875
 20
12.9324598729
 30
0.0
 10
-10.1854838045
 20
12.8966523063
 30
0.0
 10
-10.143750063
 20
12.8745443009
 30
0.0
  0
SPLINE
  5
3E8
100
AcDbEntity
  8
SUPERFICI
100
AcDbSpline
 62
250
  6
CONTINUOUS
 70
0
 71
3
 72
10
 73
6
 74
0
 42
0.0000001
 43
0.0000001
 44
0.0000000001
 40
0.0
 40
0.0
 40
0.0
 40
0.0
 40
0.4979096417
 40
0.7476357717
 40
1.0
 40
1.0
 40
1.0
 40
1.0
 10
-11.1378121543
 20
3.5081010632
 30
0.0
 10
-11.0997707969
 20
5.0283860032
 30
0.0
 10
-11.0415654151
 20
7.3111442536
 30
0.0
 10
-10.9686149487
 20
10.3645578239
 30
0.0
 10
-10.9404677169
 20
11.8978630833
 30
0.0
 10
-10.932074198
 20
12.6686111085
 30
0.0
  0
SPLINE
  5
3E9
100
AcDbEntity
  8
SUPERFICI
100
AcDbSpline
 62
250
  6
CONTINUOUS
 70
0
 71
3
 72
10
 73
6
 74
0
 42
0.0000001
 43
0.0000001
 44
0.0000000001
 40
0.0
 40
0.0
 40
0.0
 40
0.0
 40
0.2475459671
 40
0.4978562467
 40
1.0
 40
1.0
 40
1.0
 40
1.0
 10
-11.3844016324
 20
-5.5800398354
 30
0.0
 10
-11.3548884615
 20
-4.8304292724
 30
0.0
 10
-11.3078559044
 20
-3.3223650858
 30
0.0
 10
-11.2300398073
 20
-0.292859344
 30
0.0
 10
-11.1751623839
 20
1.9868062182
 30
0.0
 10
-11.1378121543
 20
3.5081010632
 30
0.0
  0
SPLINE
  5
3EA
100
AcDbEntity
  8
SUPERFICI
100
AcDbSpline
 62
250
  6
CONTINUOUS
 70
0
 71
3
 72
9
 73
5
 74
0
 42
0.0000001
 43
0.0000001
 44
0.0000000001
 40
0.0
 40
0.0
 40
0.0
 40
0.0
 40
0.2221266816
 40
1.0
 40
1.0
 40
1.0
 40
1.0
 10
-11.1378235038
 20
3.5076410438
 30
0.0
 10
-11.1589732445
 20
3.5451325824
 30
0.0
 10
-11.2711915719
 20
3.7044132635
 30
0.0
 10
-11.4355067824
 20
3.820646761
 30
0.0
 10
-11.5691214717
 20
3.8904363177
 30
0.0
  0
SPLINE
  5
3EB
100
AcDbEntity
  8
SUPERFICI
100
AcDbSpline
 62
250
  6
CONTINUOUS
 70
0
 71
3
 72
12
 73
8
 74
0
 42
0.0000001
 43
0.0000001
 44
0.0000000001
 40
0.0
 40
0.0
 40
0.0
 40
0.0
 40
0.2623663053
 40
0.54518105
 40
0.6798059213
 40
0.8025409123
 40
1.0
 40
1.0
 40
1.0
 40
1.0
 10
6.1228225881
 20
-14.8207521336
 30
0.0
 10
6.0625071033
 20
-14.8663961922
 30
0.0
 10
5.9559319914
 20
-14.9859941567
 30
0.0
 10
5.8659118355
 20
-15.1622645715
 30
0.0
 10
5.8247885599
 20
-15.3133820614
 30
0.0
 10
5.8106810987
 20
-15.4432226927
 30
0.0
 10
5.826446677
 20
-15.5405767803
 30
0.0
 10
5.8566656453
 20
-15.5888208554
 30
0.0
  0
SPLINE
  5
3EC
100
AcDbEntity
  8
SUPERFICI
100
AcDbSpline
 62
250
  6
CONTINUOUS
 70
0
 71
3
 72
11
 73
7
 74
0
 42
0.0000001
 43
0.0000001
 44
0.0000000001
 40
0.0
 40
0.0
 40
0.0
 40
0.0
 40
0.3143276779
 40
0.5894659422
 40
0.814326409
 40
1.0
 40
1.0
 40
1.0
 40
1.0
 10
6.3456682772
 20
4.1394504354
 30
0.0
 10
6.3266453561
 20
4.0898920185
 30
0.0
 10
6.2990688123
 20
3.9933996195
 30
0.0
 10
6.2909151567
 20
3.854881929
 30
0.0
 10
6.3186285626
 20
3.7395481608
 30
0.0
 10
6.3686133597
 20
3.6850813054
 30
0.0
 10
6.3963108054
 20
3.6703810749
 30
0.0
  0
SPLINE
  5
3ED
100
AcDbEntity
  8
SUPERFICI
100
AcDbSpline
 62
250
  6
CONTINUOUS
 70
0
 71
3
 72
11
 73
7
 74
0
 42
0.0000001
 43
0.0000001
 44
0.0000000001
 40
0.0
 40
0.0
 40
0.0
 40
0.0
 40
0.2403859313
 40
0.5028474059
 40
0.7637504439
 40
1.0
 40
1.0
 40
1.0
 40
1.0
 10
6.3456682772
 20
4.1394504354
 30
0.0
 10
6.4395367074
 20
4.0897246335
 30
0.0
 10
6.6175050868
 20
3.9503082093
 30
0.0
 10
6.8242079232
 20
3.6798403433
 30
0.0
 10
6.9624926023
 20
3.3707813292
 30
0.0
 10
6.9984075198
 20
3.1498808063
 30
0.0
 10
6.9958206112
 20
3.045514835
 30
0.0
  0
SPLINE
  5
3EE
100
AcDbEntity
  8
SUPERFICI
100
AcDbSpline
 62
250
  6
CONTINUOUS
 70
0
 71
3
 72
11
 73
7
 74
0
 42
0.0000001
 43
0.0000001
 44
0.0000000001
 40
0.0
 40
0.0
 40
0.0
 40
0.0
 40
0.2403859313
 40
0.5028474059
 40
0.7637504439
 40
1.0
 40
1.0
 40
1.0
 40
1.0
 10
-10.6327526948
 20
-6.8537269898
 30
0.0
 10
-10.726621125
 20
-6.804001188
 30
0.0
 10
-10.9045895045
 20
-6.6645847638
 30
0.0
 10
-11.1112923408
 20
-6.3941168978
 30
0.0
 10
-11.24957702
 20
-6.0850578837
 30
0.0
 10
-11.2854919374
 20
-5.8641573608
 30
0.0
 10
-11.2829050288
 20
-5.7597913895
 30
0.0
  0
SPLINE
  5
3EF
100
AcDbEntity
  8
SUPERFICI
100
AcDbSpline
 62
250
  6
CONTINUOUS
 70
0
 71
3
 72
12
 73
8
 74
0
 42
0.0000001
 43
0.0000001
 44
0.0000000001
 40
0.0
 40
0.0
 40
0.0
 40
0.0
 40
0.2503276995
 40
0.5313237988
 40
0.6682373835
 40
0.7944970427
 40
1.0
 40
1.0
 40
1.0
 40
1.0
 10
-10.4360405131
 20
-5.876635225
 30
0.0
 10
-10.5013990604
 20
-5.9168397757
 30
0.0
 10
-10.6613015592
 20
-5.966815862
 30
0.0
 10
-10.8684460771
 20
-5.9688694321
 30
0.0
 10
-11.0325573643
 20
-5.9337204794
 30
0.0
 10
-11.1656852496
 20
-5.8810681561
 30
0.0
 10
-11.2519320438
 20
-5.8146448721
 30
0.0
 10
-11.2829050288
 20
-5.7597913895
 30
0.0
  0
SPLINE
  5
3F0
100
AcDbEntity
  8
SUPERFICI
100
AcDbSpline
 62
250
  6
CONTINUOUS
 70
0
 71
3
 72
9
 73
5
 74
0
 42
0.0000001
 43
0.0000001
 44
0.0000000001
 40
0.0
 40
0.0
 40
0.0
 40
0.0
 40
0.4972912623
 40
1.0
 40
1.0
 40
1.0
 40
1.0
 10
-10.4360405131
 20
-5.876635225
 30
0.0
 10
-10.4369398751
 20
-5.9129189917
 30
0.0
 10
-10.4121664936
 20
-5.9856763119
 30
0.0
 10
-10.3601038476
 20
-6.0417825855
 30
0.0
 10
-10.3276817908
 20
-6.058957825
 30
0.0
  0
SPLINE
  5
3F1
100
AcDbEntity
  8
SUPERFICI
100
AcDbSpline
 62
250
  6
CONTINUOUS
 70
0
 71
3
 72
11
 73
7
 74
0
 42
0.0000001
 43
0.0000001
 44
0.0000000001
 40
0.0
 40
0.0
 40
0.0
 40
0.0
 40
0.2412362576
 40
0.5080667974
 40
0.7695662106
 40
1.0
 40
1.0
 40
1.0
 40
1.0
 10
-10.5081409252
 20
-7.052667091
 30
0.0
 10
-10.6361421617
 20
-6.9872457033
 30
0.0
 10
-10.8788817365
 20
-6.7968541254
 30
0.0
 10
-11.1596820033
 20
-6.4294977424
 30
0.0
 10
-11.3455326884
 20
-6.0129597656
 30
0.0
 10
-11.3911032269
 20
-5.717199563
 30
0.0
 10
-11.3843888387
 20
-5.5800501881
 30
0.0
  0
SPLINE
  5
3F2
100
AcDbEntity
  8
SUPERFICI
100
AcDbSpline
 62
250
  6
CONTINUOUS
 70
0
 71
3
 72
9
 73
5
 74
0
 42
0.0000001
 43
0.0000001
 44
0.0000000001
 40
0.0
 40
0.0
 40
0.0
 40
0.0
 40
0.2255784029
 40
1.0
 40
1.0
 40
1.0
 40
1.0
 10
-11.3843898073
 20
-5.5800487075
 30
0.0
 10
-11.4044931661
 20
-5.5424126163
 30
0.0
 10
-11.509095046
 20
-5.3837683341
 30
0.0
 10
-11.6634260874
 20
-5.2629556623
 30
0.0
 10
-11.7900972665
 20
-5.1893899077
 30
0.0
  0
SPLINE
  5
3F3
100
AcDbEntity
  8
SUPERFICI
100
AcDbSpline
 62
250
  6
CONTINUOUS
 70
0
 71
3
 72
12
 73
8
 74
0
 42
0.0000001
 43
0.0000001
 44
0.0000000001
 40
0.0
 40
0.0
 40
0.0
 40
0.0
 40
0.2000864598
 40
0.3254309995
 40
0.4625527116
 40
0.7463610799
 40
1.0
 40
1.0
 40
1.0
 40
1.0
 10
-10.6327526948
 20
-6.8537269898
 30
0.0
 10
-10.6650161553
 20
-6.8022189174
 30
0.0
 10
-10.6796567864
 20
-6.6970188104
 30
0.0
 10
-10.6608667448
 20
-6.5584584224
 30
0.0
 10
-10.6121821666
 20
-6.3987453801
 30
0.0
 10
-10.5114415711
 20
-6.2179756268
 30
0.0
 10
-10.3933054572
 20
-6.0993254607
 30
0.0
 10
-10.3276817908
 20
-6.058957825
 30
0.0
  0
LINE
  5
3F4
100
AcDbEntity
  8
0
100
AcDbLine
 62
7
  6
CONTINUOUS
 10
5.0735453937
 20
-15.6681765976
 11
4.7453288239
 21
-15.4972542265
  0
SPLINE
  5
3F5
100
AcDbEntity
  8
RACCORDO
100
AcDbSpline
 62
250
  6
CONTINUOUS
 70
0
 71
3
 72
11
 73
7
 74
0
 42
0.0000001
 43
0.0000001
 44
0.0000000001
 40
0.0
 40
0.0
 40
0.0
 40
0.0
 40
0.2470785989
 40
0.508786164
 40
0.7657998396
 40
1.0
 40
1.0
 40
1.0
 40
1.0
 10
20.5368809641
 20
-27.4501121595
 30
0.0
 10
20.5870160256
 20
-27.4697249388
 30
0.0
 10
20.695881022
 20
-27.4962675481
 30
0.0
 10
20.8637303268
 20
-27.5012371433
 30
0.0
 10
21.0264552172
 20
-27.4731835613
 30
0.0
 10
21.1265679438
 20
-27.4314197757
 30
0.0
 10
21.1700547019
 20
-27.4047207531
 30
0.0
  0
SPLINE
  5
3F6
100
AcDbEntity
  8
RACCORDO
100
AcDbSpline
 62
250
  6
CONTINUOUS
 70
0
 71
3
 72
16
 73
12
 74
0
 42
0.0000001
 43
0.0000001
 44
0.0000000001
 40
0.0
 40
0.0
 40
0.0
 40
0.0
 40
0.0615942155
 40
0.123860998
 40
0.1863595551
 40
0.2489408447
 40
0.3741656365
 40
0.4993789484
 40
0.6245600769
 40
0.7497171919
 40
1.0
 40
1.0
 40
1.0
 40
1.0
 10
21.170054702
 20
-27.4047207575
 30
0.0
 10
21.1631385101
 20
-27.0930867182
 30
0.0
 10
21.1646152458
 20
-26.4661326018
 30
0.0
 10
21.1801083066
 20
-25.5231738387
 30
0.0
 10
21.2009061215
 20
-24.5752830459
 30
0.0
 10
21.2310453423
 20
-23.3089242443
 30
0.0
 10
21.2701849171
 20
-21.7253041969
 30
0.0
 10
21.3163488172
 20
-19.8249633698
 30
0.0
 10
21.3616117532
 20
-17.9249428047
 30
0.0
 10
21.4211012467
 20
-15.3921408531
 30
0.0
 10
21.4652604495
 20
-13.4926595744
 30
0.0
 10
21.494701776
 20
-12.2263918055
 30
0.0
  0
SPLINE
  5
3F7
100
AcDbEntity
  8
RACCORDO
100
AcDbSpline
 62
250
  6
CONTINUOUS
 70
0
 71
3
 72
12
 73
8
 74
0
 42
0.0000001
 43
0.0000001
 44
0.0000000001
 40
0.0
 40
0.0
 40
0.0
 40
0.0
 40
0.1229135498
 40
0.247418058
 40
0.4979125776
 40
0.7489251009
 40
1.0
 40
1.0
 40
1.0
 40
1.0
 10
20.5368809641
 20
-27.4501121595
 30
0.0
 10
20.5349522661
 20
-27.175669214
 30
0.0
 10
20.5398055673
 20
-26.6231875317
 30
0.0
 10
20.5615266411
 20
-25.5116350442
 30
0.0
 10
20.5973218927
 20
-24.1142800291
 30
0.0
 10
20.6411376586
 20
-22.4344392889
 30
0.0
 10
20.6698790761
 20
-21.313711907
 30
0.0
 10
20.6840744879
 20
-20.7532745687
 30
0.0
  0
SPLINE
  5
3F8
100
AcDbEntity
  8
RACCORDO
100
AcDbSpline
 62
250
  6
CONTINUOUS
 70
0
 71
3
 72
9
 73
5
 74
0
 42
0.0000001
 43
0.0000001
 44
0.0000000001
 40
0.0
 40
0.0
 40
0.0
 40
0.0
 40
0.2500527834
 40
1.0
 40
1.0
 40
1.0
 40
1.0
 10
20.6840744879
 20
-20.7532745687
 30
0.0
 10
20.7020025501
 20
-20.0454715381
 30
0.0
 10
20.7724529903
 20
-17.2148254318
 30
0.0
 10
20.83980758
 20
-14.3841037806
 30
0.0
 10
20.8905767823
 20
-12.2612184637
 30
0.0
  0
SPLINE
  5
3F9
100
AcDbEntity
  8
RACCORDO
100
AcDbSpline
 62
250
  6
CONTINUOUS
 70
0
 71
3
 72
9
 73
5
 74
0
 42
0.0000001
 43
0.0000001
 44
0.0000000001
 40
0.0
 40
0.0
 40
0.0
 40
0.0
 40
0.5574900653
 40
1.0
 40
1.0
 40
1.0
 40
1.0
 10
19.8365940913
 20
-27.8676117462
 30
0.0
 10
19.8409570839
 20
-27.9034724389
 30
0.0
 10
19.8562895439
 20
-27.9682568798
 30
0.0
 10
19.9042186535
 20
-28.0188047335
 30
0.0
 10
19.9302368527
 20
-28.0308578737
 30
0.0
  0
SPLINE
  5
3FA
100
AcDbEntity
  8
RACCORDO
100
AcDbSpline
 62
250
  6
CONTINUOUS
 70
0
 71
3
 72
14
 73
10
 74
0
 42
0.0000001
 43
0.0000001
 44
0.0000000001
 40
0.0
 40
0.0
 40
0.0
 40
0.0
 40
0.1474934406
 40
0.2796987499
 40
0.399508935
 40
0.5120207055
 40
0.6233240141
 40
0.7392493798
 40
1.0
 40
1.0
 40
1.0
 40
1.0
 10
19.8365940913
 20
-27.8676117462
 30
0.0
 10
19.8817969819
 20
-27.8873332887
 30
0.0
 10
19.9706880417
 20
-27.9182310679
 30
0.0
 10
20.1040961643
 20
-27.9363688398
 30
0.0
 10
20.2266908695
 20
-27.9230887656
 30
0.0
 10
20.334478617
 20
-27.8787187686
 30
0.0
 10
20.423237437
 20
-27.8050574931
 30
0.0
 10
20.5145195006
 20
-27.6675022294
 30
0.0
 10
20.5374935578
 20
-27.5372978021
 30
0.0
 10
20.5368810119
 20
-27.4501121164
 30
0.0
  0
SPLINE
  5
3FB
100
AcDbEntity
  8
RACCORDO
100
AcDbSpline
 62
250
  6
CONTINUOUS
 70
0
 71
3
 72
9
 73
5
 74
0
 42
0.0000001
 43
0.0000001
 44
0.0000000001
 40
0.0
 40
0.0
 40
0.0
 40
0.0
 40
0.528652837
 40
1.0
 40
1.0
 40
1.0
 40
1.0
 10
-1.3956773497
 20
-16.7222985056
 30
0.0
 10
-1.3880224755
 20
-16.7460969292
 30
0.0
 10
-1.3673625834
 20
-16.7897832637
 30
0.0
 10
-1.3306407163
 20
-16.8222560261
 30
0.0
 10
-1.3109563285
 20
-16.8327125761
 30
0.0
  0
LINE
  5
3FC
100
AcDbEntity
  8
RACCORDO
100
AcDbLine
 62
250
  6
CONTINUOUS
 10
-1.3956773497
 20
-16.7222985056
 11
-1.2838605545
 21
-16.7817480064
  0
SPLINE
  5
3FD
100
AcDbEntity
  8
RACCORDO
100
AcDbSpline
 62
250
  6
CONTINUOUS
 70
0
 71
3
 72
16
 73
12
 74
0
 42
0.0000001
 43
0.0000001
 44
0.0000000001
 40
0.0
 40
0.0
 40
0.0
 40
0.0
 40
0.2499811935
 40
0.3749544023
 40
0.4998951847
 40
0.6247784032
 40
0.7495805288
 40
0.8119562719
 40
0.8743500476
 40
0.9368738047
 40
1.0
 40
1.0
 40
1.0
 40
1.0
 10
-1.2838605545
 20
-16.7817480064
 30
0.0
 10
0.4712966989
 20
-17.7149037784
 30
0.0
 10
3.104122906
 20
-19.1141729604
 30
0.0
 10
6.614326452
 20
-20.9795547808
 30
0.0
 10
9.2458796577
 20
-22.3785555674
 30
0.0
 10
11.8757692005
 20
-23.777788353
 30
0.0
 10
14.0659538258
 20
-24.9442687043
 30
0.0
 10
15.8192274203
 20
-25.874037181
 30
0.0
 10
17.1380237138
 20
-26.5660281657
 30
0.0
 10
18.4702957848
 20
-27.2451830676
 30
0.0
 10
19.3765186375
 20
-27.6668609485
 30
0.0
 10
19.8365956325
 20
-27.8676102735
 30
0.0
  0
SPLINE
  5
3FE
100
AcDbEntity
  8
RACCORDO
100
AcDbSpline
 62
250
  6
CONTINUOUS
 70
0
 71
3
 72
9
 73
5
 74
0
 42
0.0000001
 43
0.0000001
 44
0.0000000001
 40
0.0
 40
0.0
 40
0.0
 40
0.0
 40
0.534091718
 40
1.0
 40
1.0
 40
1.0
 40
1.0
 10
-22.5534374286
 20
-5.4119797048
 30
0.0
 10
-22.5481384829
 20
-5.4465248922
 30
0.0
 10
-22.5289479756
 20
-5.5109231165
 30
0.0
 10
-22.4822372437
 20
-5.561184654
 30
0.0
 10
-22.4561659659
 20
-5.5769890165
 30
0.0
  0
LINE
  5
3FF
100
AcDbEntity
  8
RACCORDO
100
AcDbLine
 62
250
  6
CONTINUOUS
 10
-22.4095886164
 20
-5.5027660875
 11
-22.3589582957
 21
-5.5344397301
  0
SPLINE
  5
400
100
AcDbEntity
  8
RACCORDO
100
AcDbSpline
 62
250
  6
CONTINUOUS
 70
0
 71
3
 72
15
 73
11
 74
0
 42
0.0000001
 43
0.0000001
 44
0.0000000001
 40
0.0
 40
0.0
 40
0.0
 40
0.0
 40
0.1245313096
 40
0.1871314788
 40
0.2497422136
 40
0.3749089756
 40
0.499996592
 40
0.6250289671
 40
0.7500302497
 40
1.0
 40
1.0
 40
1.0
 40
1.0
 10
-22.3589582957
 20
-5.5344397301
 30
0.0
 10
-21.5221568146
 20
-6.0567425291
 30
0.0
 10
-20.2234732595
 20
-6.7742149286
 30
0.0
 10
-18.4784091606
 20
-7.7053941641
 30
0.0
 10
-16.7251139083
 20
-8.6325356663
 30
0.0
 10
-14.5326505969
 20
-9.787788022
 30
0.0
 10
-11.9033011005
 20
-11.1746768201
 30
0.0
 10
-9.2755710243
 20
-12.5617964012
 30
0.0
 10
-5.7733126749
 20
-14.4112309902
 30
0.0
 10
-3.1467680876
 20
-15.7980524259
 30
0.0
 10
-1.3956757329
 20
-16.7222962987
 30
0.0
  0
SPLINE
  5
401
100
AcDbEntity
  8
RACCORDO
100
AcDbSpline
 62
250
  6
CONTINUOUS
 70
0
 71
3
 72
9
 73
5
 74
0
 42
0.0000001
 43
0.0000001
 44
0.0000000001
 40
0.0
 40
0.0
 40
0.0
 40
0.0
 40
0.5380511995
 40
1.0
 40
1.0
 40
1.0
 40
1.0
 10
-23.2194005941
 20
-4.270723827
 30
0.0
 10
-23.2529075506
 20
-4.2469853709
 30
0.0
 10
-23.3100856685
 20
-4.1930526453
 30
0.0
 10
-23.3356523127
 20
-4.116525234
 30
0.0
 10
-23.3362513602
 20
-4.0812746758
 30
0.0
  0
SPLINE
  5
402
100
AcDbEntity
  8
RACCORDO
100
AcDbSpline
 62
250
  6
CONTINUOUS
 70
0
 71
3
 72
11
 73
7
 74
0
 42
0.0000001
 43
0.0000001
 44
0.0000000001
 40
0.0
 40
0.0
 40
0.0
 40
0.0
 40
0.2345873549
 40
0.4955337326
 40
0.759313292
 40
1.0
 40
1.0
 40
1.0
 40
1.0
 10
-23.2194005941
 20
-4.270723827
 30
0.0
 10
-23.2163526434
 20
-4.3772852839
 30
0.0
 10
-23.1710237143
 20
-4.6013431745
 30
0.0
 10
-23.0269868889
 20
-4.9174341923
 30
0.0
 10
-22.8198155061
 20
-5.1995973392
 30
0.0
 10
-22.6457567105
 20
-5.3533237957
 30
0.0
 10
-22.5534382417
 20
-5.4119803044
 30
0.0
  0
SPLINE
  5
403
100
AcDbEntity
  8
RACCORDO
100
AcDbSpline
 62
250
  6
CONTINUOUS
 70
0
 71
3
 72
9
 73
5
 74
0
 42
0.0000001
 43
0.0000001
 44
0.0000000001
 40
0.0
 40
0.0
 40
0.0
 40
0.0
 40
0.5395377471
 40
1.0
 40
1.0
 40
1.0
 40
1.0
 10
-22.910078847
 20
10.9417126761
 30
0.0
 10
-22.9386551115
 20
10.9645468083
 30
0.0
 10
-22.9868219388
 20
11.0149386108
 30
0.0
 10
-23.0065828882
 20
11.0837279476
 30
0.0
 10
-23.0058557268
 20
11.1149371367
 30
0.0
  0
SPLINE
  5
404
100
AcDbEntity
  8
RACCORDO
100
AcDbSpline
 62
250
  6
CONTINUOUS
 70
0
 71
3
 72
16
 73
12
 74
0
 42
0.0000001
 43
0.0000001
 44
0.0000000001
 40
0.0
 40
0.0
 40
0.0
 40
0.0
 40
0.2501475696
 40
0.3752430828
 40
0.5003727225
 40
0.6255510486
 40
0.750767542
 40
0.8133608208
 40
0.8758907463
 40
0.9382271838
 40
1.0
 40
1.0
 40
1.0
 40
1.0
 10
-22.910078847
 20
10.9417126761
 30
0.0
 10
-22.9392101229
 20
9.6732981728
 30
0.0
 10
-22.9829450799
 20
7.7705670284
 30
0.0
 10
-23.0416322275
 20
5.2333542521
 30
0.0
 10
-23.0860750628
 20
3.3298255829
 30
0.0
 10
-23.131045596
 20
1.4256963907
 30
0.0
 10
-23.1687315363
 20
-0.1613346047
 30
0.0
 10
-23.1972184547
 20
-1.4307349682
 30
0.0
 10
-23.2164012706
 20
-2.3813504282
 30
0.0
 10
-23.2296027074
 20
-3.327861919
 30
0.0
 10
-23.2284473953
 20
-3.957501548
 30
0.0
 10
-23.219471647
 20
-4.2706848032
 30
0.0
  0
SPLINE
  5
405
100
AcDbEntity
  8
RACCORDO
100
AcDbSpline
 62
250
  6
CONTINUOUS
 70
0
 71
3
 72
11
 73
7
 74
0
 42
0.0000001
 43
0.0000001
 44
0.0000000001
 40
0.0
 40
0.0
 40
0.0
 40
0.0
 40
0.2932372727
 40
0.5534011971
 40
0.7850093359
 40
1.0
 40
1.0
 40
1.0
 40
1.0
 10
-22.4645098179
 20
26.1872291811
 30
0.0
 10
-22.4830701829
 20
26.1998812418
 30
0.0
 10
-22.5164005604
 20
26.2264865078
 30
0.0
 10
-22.5553324845
 20
26.2729794398
 30
0.0
 10
-22.5786234329
 20
26.322674052
 30
0.0
 10
-22.5825405485
 20
26.3574445974
 30
0.0
 10
-22.5814771937
 20
26.3738788671
 30
0.0
  0
SPLINE
  5
406
100
AcDbEntity
  8
RACCORDO
100
AcDbSpline
 62
250
  6
CONTINUOUS
 70
0
 71
3
 72
15
 73
11
 74
0
 42
0.0000001
 43
0.0000001
 44
0.0000000001
 40
0.0
 40
0.0
 40
0.0
 40
0.0
 40
0.0632209578
 40
0.1258854912
 40
0.2507633229
 40
0.3755477268
 40
0.5003701752
 40
0.6252413135
 40
0.7501464452
 40
1.0
 40
1.0
 40
1.0
 40
1.0
 10
-22.4645098179
 20
26.1872291811
 30
0.0
 10
-22.4888793685
 20
25.8667289815
 30
0.0
 10
-22.521778104
 20
25.2274124468
 30
0.0
 10
-22.5669026128
 20
23.9533172639
 30
0.0
 10
-22.609802769
 20
22.3659472523
 30
0.0
 10
-22.6592396283
 20
20.462659541
 30
0.0
 10
-22.7085662694
 20
18.5593907015
 30
0.0
 10
-22.7585184583
 20
16.655527441
 30
0.0
 10
-22.8256549803
 20
14.1162175261
 30
0.0
 10
-22.8762950829
 20
12.2115582641
 30
0.0
 10
-22.9100790445
 20
10.9417126125
 30
0.0
  0
SPLINE
  5
407
100
AcDbEntity
  8
RACCORDO
100
AcDbSpline
 62
250
  6
CONTINUOUS
 70
0
 71
3
 72
10
 73
6
 74
0
 42
0.0000001
 43
0.0000001
 44
0.0000000001
 40
0.0
 40
0.0
 40
0.0
 40
0.0
 40
0.5062964817
 40
0.7640954916
 40
1.0
 40
1.0
 40
1.0
 40
1.0
 10
-21.7597983413
 20
26.6074515194
 30
0.0
 10
-21.7413549001
 20
26.7126479938
 30
0.0
 10
-21.6736578043
 20
26.8656961677
 30
0.0
 10
-21.5397998788
 20
27.0293100998
 30
0.0
 10
-21.4574910965
 20
27.0952683031
 30
0.0
 10
-21.4145992872
 20
27.1205002486
 30
0.0
  0
SPLINE
  5
408
100
AcDbEntity
  8
RACCORDO
100
AcDbSpline
 62
250
  6
CONTINUOUS
 70
0
 71
3
 72
11
 73
7
 74
0
 42
0.0000001
 43
0.0000001
 44
0.0000000001
 40
0.0
 40
0.0
 40
0.0
 40
0.0
 40
0.2834421037
 40
0.5400697107
 40
0.7752073231
 40
1.0
 40
1.0
 40
1.0
 40
1.0
 10
-21.4145992872
 20
27.1205002486
 30
0.0
 10
-21.4810039671
 20
27.15918229
 30
0.0
 10
-21.6152825881
 20
27.2209604015
 30
0.0
 10
-21.8241002858
 20
27.2609267731
 30
0.0
 10
-22.0205115678
 20
27.240817665
 30
0.0
 10
-22.1358357056
 20
27.1861132876
 30
0.0
 10
-22.1855696411
 20
27.1508825256
 30
0.0
  0
SPLINE
  5
409
100
AcDbEntity
  8
RACCORDO
100
AcDbSpline
 62
250
  6
CONTINUOUS
 70
0
 71
3
 72
13
 73
9
 74
0
 42
0.0000001
 43
0.0000001
 44
0.0000000001
 40
0.0
 40
0.0
 40
0.0
 40
0.0
 40
0.262238778
 40
0.3795636762
 40
0.4923986907
 40
0.6060715096
 40
0.7260833557
 40
1.0
 40
1.0
 40
1.0
 40
1.0
 10
-21.7597983413
 20
26.6074515194
 30
0.0
 10
-21.836270981
 20
26.6511201347
 30
0.0
 10
-21.9641222266
 20
26.6929628788
 30
0.0
 10
-22.1304607342
 20
26.6753087999
 30
0.0
 10
-22.2386339057
 20
26.6302676219
 30
0.0
 10
-22.3295548261
 20
26.5550198603
 30
0.0
 10
-22.4269457724
 20
26.4129463152
 30
0.0
 10
-22.4575356954
 20
26.2789485465
 30
0.0
 10
-22.4645097527
 20
26.1872292074
 30
0.0
  0
SPLINE
  5
40A
100
AcDbEntity
  8
RACCORDO
100
AcDbSpline
 62
250
  6
CONTINUOUS
 70
0
 71
3
 72
9
 73
5
 74
0
 42
0.0000001
 43
0.0000001
 44
0.0000000001
 40
0.0
 40
0.0
 40
0.0
 40
0.0
 40
0.5194815244
 40
1.0
 40
1.0
 40
1.0
 40
1.0
 10
-0.6006531789
 20
15.4171525818
 30
0.0
 10
-0.5759086494
 20
15.5102358241
 30
0.0
 10
-0.4967202945
 20
15.6811316642
 30
0.0
 10
-0.3701793975
 20
15.8235189567
 30
0.0
 10
-0.2965168977
 20
15.873631017
 30
0.0
  0
SPLINE
  5
40B
100
AcDbEntity
  8
RACCORDO
100
AcDbSpline
 62
250
  6
CONTINUOUS
 70
0
 71
3
 72
16
 73
12
 74
0
 42
0.0000001
 43
0.0000001
 44
0.0000000001
 40
0.0
 40
0.0
 40
0.0
 40
0.0
 40
0.2504489647
 40
0.3756769673
 40
0.5009231868
 40
0.6262036559
 40
0.7515104091
 40
0.8141325525
 40
0.8766387336
 40
0.9387887915
 40
1.0
 40
1.0
 40
1.0
 40
1.0
 10
-0.295230942
 20
15.8729517084
 30
0.0
 10
-2.0616092151
 20
16.806004914
 30
0.0
 10
-4.7110668495
 20
18.2058526538
 30
0.0
 10
-8.2439332614
 20
20.0721823608
 30
0.0
 10
-10.8944034995
 20
21.4714405959
 30
0.0
 10
-13.5461539757
 20
22.8696178616
 30
0.0
 10
-15.7569251569
 20
24.0331635485
 30
0.0
 10
-17.523806235
 20
24.9650226797
 30
0.0
 10
-18.8430445765
 20
25.6657927235
 30
0.0
 10
-20.1463648984
 20
26.3724211326
 30
0.0
 10
-20.9985956541
 20
26.8649293795
 30
0.0
 10
-21.4145994933
 20
27.1205093434
 30
0.0
  0
SPLINE
  5
40C
100
AcDbEntity
  8
RACCORDO
100
AcDbSpline
 62
250
  6
CONTINUOUS
 70
0
 71
3
 72
8
 73
4
 74
0
 42
0.0000001
 43
0.0000001
 44
0.0000000001
 40
0.0
 40
0.0
 40
0.0
 40
0.0
 40
1.0
 40
1.0
 40
1.0
 40
1.0
 10
-0.6006531789
 20
15.4171525818
 30
0.0
 10
-3.1795383381
 20
16.7823500105
 30
0.0
 10
-5.7583843393
 20
18.1476218995
 30
0.0
 10
-8.3379134119
 20
19.5116022685
 30
0.0
  0
SPLINE
  5
40D
100
AcDbEntity
  8
RACCORDO
100
AcDbSpline
 62
250
  6
CONTINUOUS
 70
0
 71
3
 72
15
 73
11
 74
0
 42
0.0000001
 43
0.0000001
 44
0.0000000001
 40
0.0
 40
0.0
 40
0.0
 40
0.0
 40
0.2511567915
 40
0.3767605562
 40
0.5023761298
 40
0.6279686906
 40
0.7533784853
 40
0.8780213097
 40
0.9395232735
 40
1.0
 40
1.0
 40
1.0
 40
1.0
 10
-8.3379134119
 20
19.5116022685
 30
0.0
 10
-9.4615508808
 20
20.1057492645
 30
0.0
 10
-11.1473416
 20
20.9966122521
 30
0.0
 10
-13.3961939942
 20
22.1825973883
 30
0.0
 10
-15.0836082898
 20
23.070938655
 30
0.0
 10
-16.7709739637
 20
23.9572653698
 30
0.0
 10
-18.4545911303
 20
24.8401329791
 30
0.0
 10
-19.8508263908
 20
25.5726456652
 30
0.0
 10
-20.9530348704
 20
26.1582037168
 30
0.0
 10
-21.4940221844
 20
26.4556737389
 30
0.0
 10
-21.7597965535
 20
26.6074520945
 30
0.0
  0
SPLINE
  5
40E
100
AcDbEntity
  8
RACCORDO
100
AcDbSpline
 62
250
  6
CONTINUOUS
 70
0
 71
3
 72
11
 73
7
 74
0
 42
0.0000001
 43
0.0000001
 44
0.0000000001
 40
0.0
 40
0.0
 40
0.0
 40
0.0
 40
0.2521842114
 40
0.5171774743
 40
0.7731175373
 40
1.0
 40
1.0
 40
1.0
 40
1.0
 10
20.6302441767
 20
4.1518203019
 30
0.0
 10
20.6377877792
 20
4.2039862122
 30
0.0
 10
20.6645692057
 20
4.3094505492
 30
0.0
 10
20.7297794506
 20
4.458027021
 30
0.0
 10
20.8152761442
 20
4.5896499137
 30
0.0
 10
20.8857845063
 20
4.6633044686
 30
0.0
 10
20.9230969555
 20
4.6925698316
 30
0.0
  0
SPLINE
  5
40F
100
AcDbEntity
  8
RACCORDO
100
AcDbSpline
 62
250
  6
CONTINUOUS
 70
0
 71
3
 72
9
 73
5
 74
0
 42
0.0000001
 43
0.0000001
 44
0.0000000001
 40
0.0
 40
0.0
 40
0.0
 40
0.0
 40
0.4624222071
 40
1.0
 40
1.0
 40
1.0
 40
1.0
 10
-9.2122218207
 20
2.0637050699
 30
0.0
 10
-9.2009515206
 20
2.0699211262
 30
0.0
 10
-9.1718308834
 20
2.0752580079
 30
0.0
 10
-9.1446841431
 20
2.0657329429
 30
0.0
 10
-9.1314620747
 20
2.0587286929
 30
0.0
  0
SPLINE
  5
410
100
AcDbEntity
  8
RACCORDO
100
AcDbSpline
 62
250
  6
CONTINUOUS
 70
0
 71
3
 72
15
 73
11
 74
0
 42
0.0000001
 43
0.0000001
 44
0.0000000001
 40
0.0
 40
0.0
 40
0.0
 40
0.0
 40
0.1265793689
 40
0.1890770251
 40
0.2514591657
 40
0.3761609426
 40
0.5008890168
 40
0.6256513423
 40
0.7504318876
 40
1.0
 40
1.0
 40
1.0
 40
1.0
 10
20.9231055026
 20
4.6925658304
 30
0.0
 10
20.0021545421
 20
5.1120592141
 30
0.0
 10
18.6558849537
 20
5.8019167126
 30
0.0
 10
16.8784174013
 20
6.7407818734
 30
0.0
 10
15.1168387421
 20
7.6781182024
 30
0.0
 10
12.9170992472
 20
8.8509849626
 30
0.0
 10
10.2762009029
 20
10.2565365324
 30
0.0
 10
7.6340232625
 20
11.6610015657
 30
0.0
 10
4.1100197035
 20
13.5329741357
 30
0.0
 10
1.4668251349
 20
14.9368533409
 30
0.0
 10
-0.295230942
 20
15.8729517084
 30
0.0
  0
SPLINE
  5
411
100
AcDbEntity
  8
RACCORDO
100
AcDbSpline
 62
250
  6
CONTINUOUS
 70
0
 71
3
 72
13
 73
9
 74
0
 42
0.0000001
 43
0.0000001
 44
0.0000000001
 40
0.0
 40
0.0
 40
0.0
 40
0.0
 40
0.1279067922
 40
0.2534360172
 40
0.3781037702
 40
0.5025200993
 40
0.7512367488
 40
1.0
 40
1.0
 40
1.0
 40
1.0
 10
20.6302441767
 20
4.1518203019
 30
0.0
 10
20.1076590667
 20
4.409480985
 30
0.0
 10
19.0848545941
 20
4.9453532905
 30
0.0
 10
17.5656546676
 20
5.7567492228
 30
0.0
 10
16.0610752556
 20
6.5619526294
 30
0.0
 10
14.0613685659
 20
7.6311961381
 30
0.0
 10
11.5613976869
 20
8.9637118164
 30
0.0
 10
9.5602993411
 20
10.0272491419
 30
0.0
 10
8.5594853846
 20
10.5587462014
 30
0.0
  0
SPLINE
  5
412
100
AcDbEntity
  8
RACCORDO
100
AcDbSpline
 62
250
  6
CONTINUOUS
 70
0
 71
3
 72
8
 73
4
 74
0
 42
0.0000001
 43
0.0000001
 44
0.0000000001
 40
0.0
 40
0.0
 40
0.0
 40
0.0
 40
1.0
 40
1.0
 40
1.0
 40
1.0
 10
8.5594853846
 20
10.5587462014
 30
0.0
 10
5.5069648298
 20
12.1798324066
 30
0.0
 10
2.4530823792
 20
13.7983531138
 30
0.0
 10
-0.600651617
 20
15.41715233
 30
0.0
  0
SPLINE
  5
413
100
AcDbEntity
  8
RACCORDO
100
AcDbSpline
 62
250
  6
CONTINUOUS
 70
0
 71
3
 72
11
 73
7
 74
0
 42
0.0000001
 43
0.0000001
 44
0.0000000001
 40
0.0
 40
0.0
 40
0.0
 40
0.0
 40
0.251438428
 40
0.516197644
 40
0.7723592661
 40
1.0
 40
1.0
 40
1.0
 40
1.0
 10
21.2917572065
 20
3.0078299995
 30
0.0
 10
21.3419333813
 20
2.9871652796
 30
0.0
 10
21.4501082122
 20
2.9568876432
 30
0.0
 10
21.6169894222
 20
2.9420498564
 30
0.0
 10
21.778704556
 20
2.9568713251
 30
0.0
 10
21.8797254179
 20
2.9880948628
 30
0.0
 10
21.9238390375
 20
3.0097198587
 30
0.0
  0
SPLINE
  5
414
100
AcDbEntity
  8
RACCORDO
100
AcDbSpline
 62
250
  6
CONTINUOUS
 70
0
 71
3
 72
11
 73
7
 74
0
 42
0.0000001
 43
0.0000001
 44
0.0000000001
 40
0.0
 40
0.0
 40
0.0
 40
0.0
 40
0.237095145
 40
0.4972378958
 40
0.7587312988
 40
1.0
 40
1.0
 40
1.0
 40
1.0
 10
21.9238424716
 20
3.0097177347
 30
0.0
 10
21.9325156212
 20
3.1714774856
 30
0.0
 10
21.8835221241
 20
3.514793196
 30
0.0
 10
21.6727778771
 20
3.9937096826
 30
0.0
 10
21.3524572809
 20
4.4111576388
 30
0.0
 10
21.0716466391
 20
4.6211536526
 30
0.0
 10
20.923109283
 20
4.6926384424
 30
0.0
  0
SPLINE
  5
415
100
AcDbEntity
  8
RACCORDO
100
AcDbSpline
 62
250
  6
CONTINUOUS
 70
0
 71
3
 72
11
 73
7
 74
0
 42
0.0000001
 43
0.0000001
 44
0.0000000001
 40
0.0
 40
0.0
 40
0.0
 40
0.0
 40
0.23754144
 40
0.4961716103
 40
0.7568757528
 40
1.0
 40
1.0
 40
1.0
 40
1.0
 10
21.2917572065
 20
3.0078299995
 30
0.0
 10
21.2977183994
 20
3.1169238708
 30
0.0
 10
21.2640077534
 20
3.3474686307
 30
0.0
 10
21.1245275769
 20
3.6694354046
 30
0.0
 10
20.916304514
 20
3.9549937971
 30
0.0
 10
20.7305362278
 20
4.1023622481
 30
0.0
 10
20.6302434915
 20
4.1518199798
 30
0.0
  0
SPLINE
  5
416
100
AcDbEntity
  8
RACCORDO
100
AcDbSpline
 62
250
  6
CONTINUOUS
 70
0
 71
3
 72
10
 73
6
 74
0
 42
0.0000001
 43
0.0000001
 44
0.0000000001
 40
0.0
 40
0.0
 40
0.0
 40
0.0
 40
0.5145661647
 40
0.7699390068
 40
1.0
 40
1.0
 40
1.0
 40
1.0
 10
20.8905766852
 20
-12.2612185813
 30
0.0
 10
20.990765334
 20
-12.2960182173
 30
0.0
 10
21.1536425549
 20
-12.3152015665
 30
0.0
 10
21.3580880846
 20
-12.285202747
 30
0.0
 10
21.4531342587
 20
-12.2500214487
 30
0.0
 10
21.4946814258
 20
-12.2271650261
 30
0.0
  0
SPLINE
  5
417
100
AcDbEntity
  8
RACCORDO
100
AcDbSpline
 62
250
  6
CONTINUOUS
 70
0
 71
3
 72
15
 73
11
 74
0
 42
0.0000001
 43
0.0000001
 44
0.0000000001
 40
0.0
 40
0.0
 40
0.0
 40
0.0
 40
0.2497248998
 40
0.3745717258
 40
0.4993946311
 40
0.6241855957
 40
0.7489650837
 40
0.8738884344
 40
0.9366192448
 40
1.0
 40
1.0
 40
1.0
 40
1.0
 10
21.494701776
 20
-12.2263918055
 30
0.0
 10
21.5280864331
 20
-10.958023836
 30
0.0
 10
21.5781680591
 20
-9.0555514689
 30
0.0
 10
21.6443251844
 20
-6.5190796809
 30
0.0
 10
21.693318016
 20
-4.6171437171
 30
0.0
 10
21.7413257907
 20
-2.7155221896
 30
0.0
 10
21.7888732047
 20
-0.8133887282
 30
0.0
 10
21.829438534
 20
0.7735369352
 30
0.0
 10
21.8714314
 20
2.0482854712
 30
0.0
 10
21.9016033884
 20
2.6884405247
 30
0.0
 10
21.923937012
 20
3.0096913398
 30
0.0
  0
SPLINE
  5
418
100
AcDbEntity
  8
RACCORDO
100
AcDbSpline
 62
250
  6
CONTINUOUS
 70
0
 71
3
 72
9
 73
5
 74
0
 42
0.0000001
 43
0.0000001
 44
0.0000000001
 40
0.0
 40
0.0
 40
0.0
 40
0.0
 40
0.2500479899
 40
1.0
 40
1.0
 40
1.0
 40
1.0
 10
20.8905766852
 20
-12.2612185813
 30
0.0
 10
20.9124077576
 20
-11.4103358801
 30
0.0
 10
20.999811065
 20
-8.0074611307
 30
0.0
 10
21.0857028732
 20
-4.6045445357
 30
0.0
 10
21.1462072983
 20
-2.0524269254
 30
0.0
  0
LINE
  5
419
100
AcDbEntity
  8
RACCORDO
100
AcDbLine
 62
250
  6
CONTINUOUS
 10
21.1462072983
 20
-2.0524269254
 11
21.1467402596
 21
-2.0299433703
  0
SPLINE
  5
41A
100
AcDbEntity
  8
RACCORDO
100
AcDbSpline
 62
250
  6
CONTINUOUS
 70
0
 71
3
 72
11
 73
7
 74
0
 42
0.0000001
 43
0.0000001
 44
0.0000000001
 40
0.0
 40
0.0
 40
0.0
 40
0.0
 40
0.2486550242
 40
0.4975373368
 40
0.7472390772
 40
1.0
 40
1.0
 40
1.0
 40
1.0
 10
21.1467402596
 20
-2.0299433703
 30
0.0
 10
21.1566384054
 20
-1.6123255767
 30
0.0
 10
21.1762639139
 20
-0.7767059892
 30
0.0
 10
21.2061095476
 20
0.4782936667
 30
0.0
 10
21.2391980209
 20
1.7400734609
 30
0.0
 10
21.2686241268
 20
2.5837924916
 30
0.0
 10
21.2918338904
 20
3.0077906109
 30
0.0
  0
SPLINE
  5
41B
100
AcDbEntity
  8
RACCORDO
100
AcDbSpline
 62
250
  6
CONTINUOUS
 70
0
 71
3
 72
9
 73
5
 74
0
 42
0.0000001
 43
0.0000001
 44
0.0000000001
 40
0.0
 40
0.0
 40
0.0
 40
0.0
 40
0.5342438166
 40
1.0
 40
1.0
 40
1.0
 40
1.0
 10
-2.7223991524
 20
-8.725054936
 30
0.0
 10
-2.7227397748
 20
-8.7387969696
 30
0.0
 10
-2.7273297029
 20
-8.7649397282
 30
0.0
 10
-2.7441964039
 20
-8.7862642012
 30
0.0
 10
-2.7540760585
 20
-8.7930472542
 30
0.0
  0
SPLINE
  5
41C
100
AcDbEntity
  8
RACCORDO
100
AcDbSpline
 62
7
  6
CONTINUOUS
 70
0
 71
3
 72
11
 73
7
 74
0
 42
0.0000001
 43
0.0000001
 44
0.0000000001
 40
0.0
 40
0.0
 40
0.0
 40
0.0
 40
0.44238111
 40
0.7568481759
 40
0.9379953507
 40
1.0
 40
1.0
 40
1.0
 40
1.0
 10
-2.7122157861
 20
-8.3142182648
 30
0.0
 10
-2.7072954247
 20
-8.3111748012
 30
0.0
 10
-2.699135563
 20
-8.3058735144
 30
0.0
 10
-2.6880995291
 20
-8.2994278611
 30
0.0
 10
-2.6832460465
 20
-8.2950368268
 30
0.0
 10
-2.6794994101
 20
-8.2934085111
 30
0.0
 10
-2.6795254487
 20
-8.2925980194
 30
0.0
  0
SPLINE
  5
41D
100
AcDbEntity
  8
RACCORDO
100
AcDbSpline
 62
250
  6
CONTINUOUS
 70
0
 71
3
 72
9
 73
5
 74
0
 42
0.0000001
 43
0.0000001
 44
0.0000000001
 40
0.0
 40
0.0
 40
0.0
 40
0.0
 40
0.2852489481
 40
1.0
 40
1.0
 40
1.0
 40
1.0
 10
-2.7223991524
 20
-8.725054936
 30
0.0
 10
-2.7177334564
 20
-8.721854999
 30
0.0
 10
-2.7022439793
 20
-8.7096595902
 30
0.0
 10
-2.6906590352
 20
-8.6909401819
 30
0.0
 10
-2.6892059254
 20
-8.6768385765
 30
0.0
  0
SPLINE
  5
41E
100
AcDbEntity
  8
RACCORDO
100
AcDbSpline
 62
7
  6
CONTINUOUS
 70
0
 71
3
 72
11
 73
7
 74
0
 42
0.0000001
 43
0.0000001
 44
0.0000000001
 40
0.0
 40
0.0
 40
0.0
 40
0.0
 40
0.44238111
 40
0.7568481759
 40
0.9379953507
 40
1.0
 40
1.0
 40
1.0
 40
1.0
 10
5.6439083728
 20
-12.7407861021
 30
0.0
 10
5.6488287342
 20
-12.7377426384
 30
0.0
 10
5.6569885959
 20
-12.7324413516
 30
0.0
 10
5.6680246297
 20
-12.7259956983
 30
0.0
 10
5.6728781124
 20
-12.721604664
 30
0.0
 10
5.6766247488
 20
-12.7199763484
 30
0.0
 10
5.6765987102
 20
-12.7191658567
 30
0.0
  0
SPLINE
  5
41F
100
AcDbEntity
  8
RACCORDO
100
AcDbSpline
 62
250
  6
CONTINUOUS
 70
0
 71
3
 72
9
 73
5
 74
0
 42
0.0000001
 43
0.0000001
 44
0.0000000001
 40
0.0
 40
0.0
 40
0.0
 40
0.0
 40
0.5417586746
 40
1.0
 40
1.0
 40
1.0
 40
1.0
 10
5.6337250065
 20
-13.1516227733
 30
0.0
 10
5.6431974601
 20
-13.145126153
 30
0.0
 10
5.6593935731
 20
-13.1305095194
 30
0.0
 10
5.6669153617
 20
-13.1093438256
 30
0.0
 10
5.6671601416
 20
-13.0996313943
 30
0.0
  0
SPLINE
  5
420
100
AcDbEntity
  8
0
100
AcDbSpline
 62
7
  6
CONTINUOUS
 70
0
 71
3
 72
9
 73
5
 74
0
 42
0.0000001
 43
0.0000001
 44
0.0000000001
 40
0.0
 40
0.0
 40
0.0
 40
0.0
 40
0.223693169
 40
1.0
 40
1.0
 40
1.0
 40
1.0
 10
6.858418711
 20
-17.0475154353
 30
0.0
 10
6.8531118092
 20
-17.050099165
 30
0.0
 10
6.8276660979
 20
-17.0583059955
 30
0.0
 10
6.7996573505
 20
-17.052166584
 30
0.0
 10
6.7807902489
 20
-17.0441901984
 30
0.0
  0
SPLINE
  5
421
100
AcDbEntity
  8
RACCORDO
100
AcDbSpline
 62
7
  6
CONTINUOUS
 70
0
 71
3
 72
11
 73
7
 74
0
 42
0.0000001
 43
0.0000001
 44
0.0000000001
 40
0.0
 40
0.0
 40
0.0
 40
0.0
 40
0.44238111
 40
0.7568481759
 40
0.9379953507
 40
1.0
 40
1.0
 40
1.0
 40
1.0
 10
-8.5310114854
 20
11.1097003982
 30
0.0
 10
-8.526091124
 20
11.1127438618
 30
0.0
 10
-8.5179312623
 20
11.1180451486
 30
0.0
 10
-8.5068952285
 20
11.1244908019
 30
0.0
 10
-8.5020417459
 20
11.1288818362
 30
0.0
 10
-8.4982951095
 20
11.1305101519
 30
0.0
 10
-8.498321148
 20
11.1313206436
 30
0.0
  0
SPLINE
  5
422
100
AcDbEntity
  8
RACCORDO
100
AcDbSpline
 62
250
  6
CONTINUOUS
 70
0
 71
3
 72
9
 73
5
 74
0
 42
0.0000001
 43
0.0000001
 44
0.0000000001
 40
0.0
 40
0.0
 40
0.0
 40
0.0
 40
0.5491629998
 40
1.0
 40
1.0
 40
1.0
 40
1.0
 10
-8.902242091
 20
11.3063558604
 30
0.0
 10
-8.8919619715
 20
11.3120268615
 30
0.0
 10
-8.8715251377
 20
11.3201782059
 30
0.0
 10
-8.8489052319
 20
11.3170631117
 30
0.0
 10
-8.8403803384
 20
11.3125657671
 30
0.0
  0
SPLINE
  5
423
100
AcDbEntity
  8
RACCORDO
100
AcDbSpline
 62
250
  6
CONTINUOUS
 70
0
 71
3
 72
9
 73
5
 74
0
 42
0.0000001
 43
0.0000001
 44
0.0000000001
 40
0.0
 40
0.0
 40
0.0
 40
0.0
 40
0.5376156085
 40
1.0
 40
1.0
 40
1.0
 40
1.0
 10
-8.902242091
 20
11.3063558604
 30
0.0
 10
-8.9154650541
 20
11.3133605843
 30
0.0
 10
-8.9426121787
 20
11.3228842849
 30
0.0
 10
-8.9717326006
 20
11.3175479713
 30
0.0
 10
-8.9830018404
 20
11.3113322434
 30
0.0
  0
SPLINE
  5
424
100
AcDbEntity
  8
RACCORDO
100
AcDbSpline
 62
7
  6
CONTINUOUS
 70
0
 71
3
 72
11
 73
7
 74
0
 42
0.0000001
 43
0.0000001
 44
0.0000000001
 40
0.0
 40
0.0
 40
0.0
 40
0.0
 40
0.44238111
 40
0.7568481759
 40
0.9379953507
 40
1.0
 40
1.0
 40
1.0
 40
1.0
 10
-8.7602314691
 20
1.8620732306
 30
0.0
 10
-8.7553111077
 20
1.8651166943
 30
0.0
 10
-8.747151246
 20
1.870417981
 30
0.0
 10
-8.7361152122
 20
1.8768636343
 30
0.0
 10
-8.7312617295
 20
1.8812546687
 30
0.0
 10
-8.7275150931
 20
1.8828829843
 30
0.0
 10
-8.7275411317
 20
1.883693476
 30
0.0
  0
SPLINE
  5
425
100
AcDbEntity
  8
RACCORDO
100
AcDbSpline
 62
250
  6
CONTINUOUS
 70
0
 71
3
 72
9
 73
5
 74
0
 42
0.0000001
 43
0.0000001
 44
0.0000000001
 40
0.0
 40
0.0
 40
0.0
 40
0.0
 40
0.5491943101
 40
1.0
 40
1.0
 40
1.0
 40
1.0
 10
-9.1314620747
 20
2.0587286929
 30
0.0
 10
-9.1211728912
 20
2.0644046941
 30
0.0
 10
-9.1007168228
 20
2.0725629802
 30
0.0
 10
-9.0780775062
 20
2.0694240413
 30
0.0
 10
-9.0695517154
 20
2.0649128147
 30
0.0
  0
ELLIPSE
  5
426
100
AcDbEntity
  8
RACCORDO
100
AcDbEllipse
 62
7
  6
CONTINUOUS
 10
-4.9075438057
 20
-7.2820310911
 30
0.0
 11
0.0760860335
 21
0.1293860661
 31
0.0
 40
0.5733931714
 41
0.7168970968
 42
0.7692569744
  0
ELLIPSE
  5
427
100
AcDbEntity
  8
RACCORDO
100
AcDbEllipse
 62
7
  6
CONTINUOUS
 10
3.4485803531
 20
-11.7085989283
 30
0.0
 11
0.0760860335
 21
0.1293860661
 31
0.0
 40
0.5733931714
 41
0.7168970968
 42
0.7692569744
  0
ELLIPSE
  5
428
100
AcDbEntity
  8
RACCORDO
100
AcDbEllipse
 62
7
  6
CONTINUOUS
 10
-8.7075206106
 20
8.7450561773
 30
0.0
 11
0.1500656697
 21
0.0029485198
 31
0.0
 40
0.6007666634
 41
-0.7459693304
 42
-0.6936094529
  0
ELLIPSE
  5
429
100
AcDbEntity
  8
RACCORDO
100
AcDbEllipse
 62
7
  6
CONTINUOUS
 10
-8.9367405942
 20
-0.5025709902
 30
0.0
 11
0.1500656697
 21
0.0029485198
 31
0.0
 40
0.6007666634
 41
-0.7459693304
 42
-0.6936094529
  0
ELLIPSE
  5
42A
100
AcDbEntity
  8
RACCORDO
100
AcDbEllipse
 62
7
  6
CONTINUOUS
 10
-2.7202160738
 20
-8.4407446769
 30
0.0
 11
0.0648675947
 21
0.135348475
 31
0.0
 40
0.5087060422
 41
0.6709320232
 42
0.7232919008
  0
ELLIPSE
  5
42B
100
AcDbEntity
  8
RACCORDO
100
AcDbEllipse
 62
7
  6
CONTINUOUS
 10
5.6359080851
 20
-12.8673125142
 30
0.0
 11
0.0648675947
 21
0.135348475
 31
0.0
 40
0.5087060422
 41
0.6709320232
 42
0.7232919008
  0
ELLIPSE
  5
42C
100
AcDbEntity
  8
RACCORDO
100
AcDbEllipse
 62
7
  6
CONTINUOUS
 10
-8.6475192011
 20
11.1657467958
 30
0.0
 11
0.1497716037
 21
-0.0096916773
 31
0.0
 40
0.5360815223
 41
-0.6979031883
 42
-0.6455433107
  0
ELLIPSE
  5
42D
100
AcDbEntity
  8
RACCORDO
100
AcDbEllipse
 62
7
  6
CONTINUOUS
 10
-8.8767391848
 20
1.9181196283
 30
0.0
 11
0.1497716037
 21
-0.0096916773
 31
0.0
 40
0.5360815223
 41
-0.6979031883
 42
-0.6455433107
  0
ENDSEC
  0
SECTION
  2
OBJECTS
  0
DICTIONARY
  5
C
100
AcDbDictionary
280
0
281
1
  3
ACAD_GROUP
350
D
  3
ACAD_MLINESTYLE
350
17
  3
ACAD_LAYOUT
350
1A
  3
ACAD_PLOTSETTINGS
350
19
  3
ACAD_PLOTSTYLENAME
350
E
  0
DICTIONARY
  5
D
102
{ACAD_REACTORS
330
C
102
}
100
AcDbDictionary
280
0
281
1
  0
ACDBDICTIONARYWDFLT
  5
E
102
{ACAD_REACTORS
330
C
102
}
100
AcDbDictionary
281
1
  3
Normal
350
F
100
AcDbDictionaryWithDefault
340
F
  0
DICTIONARY
  5
17
102
{ACAD_REACTORS
330
C
102
}
100
AcDbDictionary
280
0
281
1
  3
Standard
350
18
  0
DICTIONARY
  5
19
102
{ACAD_REACTORS
330
C
102
}
100
AcDbDictionary
281
1
  0
DICTIONARY
  5
1A
102
{ACAD_REACTORS
330
C
102
}
100
AcDbDictionary
281
1
  3
Model
350
42E
  3
Layout1
350
42F
  0
ACDBPLACEHOLDER
  5
F
102
{ACAD_REACTORS
330
E
102
}
  0
MLINESTYLE
  5
18
102
{ACAD_REACTORS
330
17
102
}
100
AcDbMlineStyle
  2
STANDARD
 70
0
  3

 62
256
 51
90.0
 52
90.0
 71
2
 49
0.5
 62
256
  6
BYLAYER
 49
-0.5
 62
256
  6
BYLAYER
  0
LAYOUT
  5
42E
102
{ACAD_REACTORS
330
1A
102
}
100
AcDbPlotSettings
  1

  2
none_device
  4
ISO_A4_(297.00_x_210.00_MM)
  6

 40
0.0
 41
0.0
 42
0.0
 43
0.0
 44
297.0
 45
210.0
 46
0.0
 47
0.0
 48
0.0
 49
0.0
140
0.0
141
0.0
142
1.0
143
1.0
 70
1024
 72
1
 73
0
 74
0
  7

 75
0
147
1.0
148
0.0
149
0.0
100
AcDbLayout
  1
Model
 70
0
 71
0
 10
0.0
 20
0.0
 11
297.0
 21
210.0
 12
0.0
 22
0.0
 32
0.0
 14
0.0
 24
0.0
 34
0.0
 15
0.0
 25
0.0
 35
0.0
146
0.0
 13
0.0
 23
0.0
 33
0.0
 16
1.0
 26
0.0
 36
0.0
 17
0.0
 27
1.0
 37
0.0
 76
0
330
214
345
0
346
0
  0
LAYOUT
  5
42F
102
{ACAD_REACTORS
330
1A
102
}
100
AcDbPlotSettings
  1

  2
none_device
  4
ISO_A4_(297.00_x_210.00_MM)
  6

 40
0.0
 41
0.0
 42
0.0
 43
0.0
 44
297.0
 45
210.0
 46
0.0
 47
0.0
 48
0.0
 49
0.0
140
0.0
141
0.0
142
1.0
143
1.0
 70
0
 72
1
 73
0
 74
0
  7

 75
0
147
1.0
148
0.0
149
0.0
100
AcDbLayout
  1
Layout1
 70
0
 71
1
 10
0.0
 20
0.0
 11
297.0
 21
210.0
 12
0.0
 22
0.0
 32
0.0
 14
0.0
 24
0.0
 34
0.0
 15
0.0
 25
0.0
 35
0.0
146
0.0
 13
0.0
 23
0.0
 33
0.0
 16
1.0
 26
0.0
 36
0.0
 17
0.0
 27
1.0
 37
0.0
 76
0
330
215
345
0
346
0
  0
ENDSEC
  0
EOF
