  0
SECTION
  2
HEADER
  9
$ACADVER
  1
AC1024
  9
$DWGCODEPAGE
  3
ANSI_1252
  9
$EXTMAX
 10
297.0
 20
210.0
 30
0.0
  9
$EXTMIN
 10
0.0
 20
0.0
 30
0.0
  9
$LIMMIN
 10
0.0
 20
0.0
  9
$LIMMAX
 10
297.0
 20
210.0
  9
$VIEWCTR
 10
148.5
 20
105.0
  9
$VIEWSIZE
 40
210.0
  9
$CLAYER
  8
0
  9
$LTSCALE
 40
16.335
  9
$CELTYPE
  6
BYLAYER
  9
$DIMSCALE
 40
1.0
  9
$DIMASZ
 40
3.0
  9
$DIMEXO
 40
0.5
  9
$DIMDLI
 40
11.286
  9
$DIMEXE
 40
1.5
  9
$DIMCEN
 40
2.673
  9
$DIMLFAC
 40
1.0
  9
$DIMBLK
  1
_FILLED
  9
$DIMALT
 70
0
  9
$DIMALTF
 40
0.0393700787
  9
$DIMTXT
 40
3.0
  9
$DIMTOL
 70
1
  9
$DIMLIM
 70
0
  9
$DIMTFAC
 40
1.0
  9
$DIMTP
 40
0.01
  9
$DIMTM
 40
0.01
  9
$DIMGAP
 40
0.625
  9
$DIMDSEP
 70
44
  9
$AUNITS
 70
0
  9
$PDMODE
 70
3
  9
$PDSIZE
 40
3.0
  9
$HANDSEED
  5
43E
  9
$TILEMODE
 70
1
  9
$MEASUREMENT
 70
1
  9
$INSUNITS
 70
4
  0
ENDSEC
  0
SECTION
  2
CLASSES
  0
CLASS
  1
ACDBDICTIONARYWDFLT
  2
AcDbDictionaryWithDefault
  3
AutoCAD 2000
 90
0
 91
1
280
0
281
0
  0
CLASS
  1
ACDBPLACEHOLDER
  2
AcDbPlaceHolder
  3
AutoCAD 2000
 90
0
 91
1
280
0
281
0
  0
CLASS
  1
LAYOUT
  2
AcDbLayout
  3
AutoCAD 2000
 90
0
 91
0
280
0
281
0
  0
ENDSEC
  0
SECTION
  2
TABLES
  0
TABLE
  2
VPORT
  5
8
100
AcDbSymbolTable
 70
2
  0
VPORT
  5
1F4
100
AcDbSymbolTableRecord
100
AcDbViewportTableRecord
  2
*ACTIVE
 70
0
 10
0.0
 20
0.0
 11
1.0
 21
1.0
 12
148.5
 22
105.0
 13
0.0
 23
0.0
 14
1.0
 24
1.0
 15
0.0
 25
0.0
 16
0.0
 26
0.0
 36
1.0
 17
0.0
 27
0.0
 37
0.0
 40
210.0
 41
1.4142857143
 42
50.0
 43
0.0
 44
0.0
 50
0.0
 51
0.0
 71
0
 72
100
 73
1
 74
1
 75
0
 76
0
 77
0
 78
0
  0
ENDTAB
  0
TABLE
  2
LTYPE
  5
5
100
AcDbSymbolTable
 70
6
  0
LTYPE
  5
14
100
AcDbSymbolTableRecord
100
AcDbLinetypeTableRecord
  2
BYBLOCK
 70
0
  3

 72
65
 73
0
 40
0.0
  0
LTYPE
  5
15
100
AcDbSymbolTableRecord
100
AcDbLinetypeTableRecord
  2
BYLAYER
 70
0
  3

 72
65
 73
0
 40
0.0
  0
LTYPE
  5
16
100
AcDbSymbolTableRecord
100
AcDbLinetypeTableRecord
  2
CONTINUOUS
 70
64
  3
Solid line
 72
65
 73
0
 40
0.0
  0
LTYPE
  5
1F5
100
AcDbSymbolTableRecord
100
AcDbLinetypeTableRecord
  2
CENTER
 70
64
  3
____ _ ____ _ ____ _ ____ _ ____ _ ____ _ ____
 72
65
 73
4
 40
0.6
 49
0.375
 74
0
 49
-0.075
 74
0
 49
0.075
 74
0
 49
-0.075
 74
0
  0
LTYPE
  5
1F6
100
AcDbSymbolTableRecord
100
AcDbLinetypeTableRecord
  2
HIDDEN
 70
64
  3
- - - - - - - - - - - - - - - - - - - -
 72
65
 73
2
 40
0.2
 49
0.1
 74
0
 49
-0.1
 74
0
  0
LTYPE
  5
1F7
100
AcDbSymbolTableRecord
100
AcDbLinetypeTableRecord
  2
PHANTOM
 70
64
  3
_____ _ _ _____ _ _ _____ _ _ _____
 72
65
 73
6
 40
0.8
 49
0.45
 74
0
 49
-0.05
 74
0
 49
0.1
 74
0
 49
-0.05
 74
0
 49
0.1
 74
0
 49
-0.05
 74
0
  0
LTYPE
  5
1F8
100
AcDbSymbolTableRecord
100
AcDbLinetypeTableRecord
  2
DOT
 70
64
  3
. . . . . . . . . . . . . . . . . . . .
 72
65
 73
2
 40
0.2
 49
0.1
 74
0
 49
-0.1
 74
0
  0
LTYPE
  5
1F9
100
AcDbSymbolTableRecord
100
AcDbLinetypeTableRecord
  2
DASHED
 70
64
  3
- - - - - - - - - - - - - - - - - - - -
 72
65
 73
2
 40
0.2
 49
0.1
 74
0
 49
-0.1
 74
0
  0
ENDTAB
  0
TABLE
  2
LAYER
  5
2
100
AcDbSymbolTable
 70
36
  0
LAYER
  5
10
100
AcDbSymbolTableRecord
100
AcDbLayerTableRecord
  2
0
 70
0
 62
7
  6
CONTINUOUS
370
-3
390
F
  0
LAYER
  5
1FA
100
AcDbSymbolTableRecord
100
AcDbLayerTableRecord
  2
DEFAULT_1
 70
0
 62
7
  6
CENTER
370
-3
390
F
  0
LAYER
  5
1FB
100
AcDbSymbolTableRecord
100
AcDbLayerTableRecord
  2
DEFAULT_2
 70
0
 62
7
  6
HIDDEN
370
-3
390
F
  0
LAYER
  5
1FC
100
AcDbSymbolTableRecord
100
AcDbLayerTableRecord
  2
DEFAULT_3
 70
0
 62
7
  6
PHANTOM
370
-3
390
F
  0
LAYER
  5
1FD
100
AcDbSymbolTableRecord
100
AcDbLayerTableRecord
  2
ASSI
 70
0
 62
7
  6
CONTINUOUS
370
-3
390
F
  0
LAYER
  5
1FE
100
AcDbSymbolTableRecord
100
AcDbLayerTableRecord
  2
COORDINATE
 70
0
 62
7
  6
CONTINUOUS
370
-3
390
F
  0
LAYER
  5
1FF
100
AcDbSymbolTableRecord
100
AcDbLayerTableRecord
  2
COPY_PUBLISH
 70
0
 62
7
  6
CONTINUOUS
370
-3
390
F
  0
LAYER
  5
200
100
AcDbSymbolTableRecord
100
AcDbLayerTableRecord
  2
COSMETICI
 70
0
 62
7
  6
CONTINUOUS
370
-3
390
F
  0
LAYER
  5
201
100
AcDbSymbolTableRecord
100
AcDbLayerTableRecord
  2
CURVE
 70
0
 62
7
  6
CONTINUOUS
370
-3
390
F
  0
LAYER
  5
202
100
AcDbSymbolTableRecord
100
AcDbLayerTableRecord
  2
DRAFT
 70
0
 62
7
  6
CONTINUOUS
370
-3
390
F
  0
LAYER
  5
203
100
AcDbSymbolTableRecord
100
AcDbLayerTableRecord
  2
IMPORT_IGES
 70
0
 62
7
  6
CONTINUOUS
370
-3
390
F
  0
LAYER
  5
204
100
AcDbSymbolTableRecord
100
AcDbLayerTableRecord
  2
INTFCLR
 70
0
 62
7
  6
CONTINUOUS
370
-3
390
F
  0
LAYER
  5
205
100
AcDbSymbolTableRecord
100
AcDbLayerTableRecord
  2
INTFCLR_17
 70
0
 62
7
  6
CONTINUOUS
370
-3
390
F
  0
LAYER
  5
206
100
AcDbSymbolTableRecord
100
AcDbLayerTableRecord
  2
INTF_1
 70
0
 62
7
  6
CONTINUOUS
370
-3
390
F
  0
LAYER
  5
207
100
AcDbSymbolTableRecord
100
AcDbLayerTableRecord
  2
INTF_11
 70
0
 62
7
  6
CONTINUOUS
370
-3
390
F
  0
LAYER
  5
208
100
AcDbSymbolTableRecord
100
AcDbLayerTableRecord
  2
INTF_2
 70
0
 62
7
  6
CONTINUOUS
370
-3
390
F
  0
LAYER
  5
209
100
AcDbSymbolTableRecord
100
AcDbLayerTableRecord
  2
INTF_5
 70
0
 62
7
  6
CONTINUOUS
370
-3
390
F
  0
LAYER
  5
20A
100
AcDbSymbolTableRecord
100
AcDbLayerTableRecord
  2
INTF_YELLOW
 70
0
 62
7
  6
CONTINUOUS
370
-3
390
F
  0
LAYER
  5
20B
100
AcDbSymbolTableRecord
100
AcDbLayerTableRecord
  2
NONE
 70
0
 62
7
  6
CONTINUOUS
370
-3
390
F
  0
LAYER
  5
20C
100
AcDbSymbolTableRecord
100
AcDbLayerTableRecord
  2
NOTE
 70
0
 62
7
  6
CONTINUOUS
370
-3
390
F
  0
LAYER
  5
20D
100
AcDbSymbolTableRecord
100
AcDbLayerTableRecord
  2
PIANI
 70
0
 62
7
  6
CONTINUOUS
370
-3
390
F
  0
LAYER
  5
20E
100
AcDbSymbolTableRecord
100
AcDbLayerTableRecord
  2
POSIZIONE_SCRITTE
 70
0
 62
7
  6
CONTINUOUS
370
-3
390
F
  0
LAYER
  5
20F
100
AcDbSymbolTableRecord
100
AcDbLayerTableRecord
  2
PUNTI
 70
0
 62
7
  6
CONTINUOUS
370
-3
390
F
  0
LAYER
  5
210
100
AcDbSymbolTableRecord
100
AcDbLayerTableRecord
  2
RACCORDO
 70
0
 62
7
  6
CONTINUOUS
370
-3
390
F
  0
LAYER
  5
211
100
AcDbSymbolTableRecord
100
AcDbLayerTableRecord
  2
RGB____0____0____0__
 70
0
 62
7
  6
CONTINUOUS
370
-3
390
F
  0
LAYER
  5
212
100
AcDbSymbolTableRecord
100
AcDbLayerTableRecord
  2
SIMBOLI
 70
0
 62
7
  6
CONTINUOUS
370
-3
390
F
  0
LAYER
  5
213
100
AcDbSymbolTableRecord
100
AcDbLayerTableRecord
  2
SMUSSO
 70
0
 62
7
  6
CONTINUOUS
370
-3
390
F
  0
LAYER
  5
214
100
AcDbSymbolTableRecord
100
AcDbLayerTableRecord
  2
SNAPLINE
 70
0
 62
7
  6
CONTINUOUS
370
-3
390
F
  0
LAYER
  5
215
100
AcDbSymbolTableRecord
100
AcDbLayerTableRecord
  2
SUPERFICI
 70
0
 62
7
  6
CONTINUOUS
370
-3
390
F
  0
LAYER
  5
216
100
AcDbSymbolTableRecord
100
AcDbLayerTableRecord
  2
TRASH
 70
0
 62
7
  6
CONTINUOUS
370
-3
390
F
  0
ENDTAB
  0
TABLE
  2
STYLE
  5
3
100
AcDbSymbolTable
 70
1
  0
STYLE
  5
11
100
AcDbSymbolTableRecord
100
AcDbTextStyleTableRecord
  2
STANDARD
 70
0
 40
0.0
 41
0.8
 50
0.0
 71
0
 42
0.2
  3
txt
  4

  0
STYLE
  5
217
100
AcDbSymbolTableRecord
100
AcDbTextStyleTableRecord
  2
TEXTSTYLE_1
 70
0
 40
0.0
 41
0.8
 50
0.0
 71
0
 42
0.2
  3
gdt
  4

  0
ENDTAB
  0
TABLE
  2
VIEW
  5
6
100
AcDbSymbolTable
 70
0
  0
ENDTAB
  0
TABLE
  2
UCS
  5
7
100
AcDbSymbolTable
 70
0
  0
ENDTAB
  0
TABLE
  2
APPID
  5
9
100
AcDbSymbolTable
 70
1
  0
APPID
  5
218
100
AcDbSymbolTableRecord
100
AcDbRegAppTableRecord
  2
ACAD
 70
0
  0
ENDTAB
  0
TABLE
  2
BLOCK_RECORD
  5
1
100
AcDbSymbolTable
 70
0
  0
BLOCK_RECORD
  5
219
100
AcDbSymbolTableRecord
100
AcDbBlockTableRecord
  2
*Model_Space
  0
BLOCK_RECORD
  5
21A
100
AcDbSymbolTableRecord
100
AcDbBlockTableRecord
  2
*Paper_Space
  0
BLOCK_RECORD
  5
21B
100
AcDbSymbolTableRecord
100
AcDbBlockTableRecord
  2
_FILLED
  0
ENDTAB
  0
TABLE
  2
DIMSTYLE
  5
A
100
AcDbSymbolTable
 70
1
100
AcDbDimStyleTable
 71
0
  0
DIMSTYLE
105
21C
100
AcDbSymbolTableRecord
100
AcDbDimStyleTableRecord
  2
STANDARD
 70
0
  3

  4

 40
1.0
 41
3.0
 42
0.5
 43
0.38
 44
1.5
 45
0.0
 46
0.0
 47
0.01
 48
0.01
140
3.0
141
0.0
142
0.0
143
25.4
144
1.0
145
0.0
146
1.0
147
0.625
 71
1
 72
0
 73
0
 74
0
 75
0
 76
0
 77
1
 78
8
 79
2
170
0
171
1
172
0
173
0
174
0
175
0
176
0
177
0
178
0
270
2
179
2
271
2
272
2
273
2
274
2
275
0
280
0
281
0
282
0
283
1
284
8
285
0
286
0
287
3
288
0
340
11
278
44
341
21B
342
21B
343
21B
344
21B
  0
ENDTAB
  0
ENDSEC
  0
SECTION
  2
BLOCKS
  0
BLOCK
  5
20
100
AcDbEntity
  8
0
100
AcDbBlockBegin
  2
*Model_Space
 70
0
 10
0.0
 20
0.0
 30
0.0
  3
*Model_Space
  1

  0
ENDBLK
  5
21
100
AcDbEntity
  8
0
100
AcDbBlockEnd
  0
BLOCK
  5
1C
100
AcDbEntity
  8
0
100
AcDbBlockBegin
  2
*Paper_Space
 70
0
 10
0.0
 20
0.0
 30
0.0
  3
*Paper_Space
  1

  0
ENDBLK
  5
1D
100
AcDbEntity
  8
0
100
AcDbBlockEnd
  0
BLOCK
  5
21D
100
AcDbEntity
  8
0
100
AcDbBlockBegin
  2
_FILLED
 70
64
 10
0.0
 20
0.0
 30
0.0
  3
_FILLED
  1

  0
SOLID
  5
21E
100
AcDbEntity
  8
0
  6
BYBLOCK
 62
0
100
AcDbTrace
 10
0.0
 20
0.0
 30
0.0
 11
-1.0
 21
0.3166666667
 31
0.0
 12
-1.0
 22
-0.3166666667
 32
0.0
 13
-1.0
 23
-0.3166666667
 33
0.0
  0
ENDBLK
  5
21F
100
AcDbEntity
  8
0
  6
BYBLOCK
 62
0
100
AcDbBlockEnd
  0
ENDSEC
  0
SECTION
  2
ENTITIES
  0
LWPOLYLINE
  5
220
100
AcDbEntity
  8
RACCORDO
100
AcDbPolyline
 62
7
  6
CONTINUOUS
 90
17
 70
0
 10
59.0159500173
 20
113.860285104
 10
58.966130659
 20
113.8170775487
 10
58.8880146711
 20
113.7417680165
 10
58.8135699837
 20
113.6602494754
 10
58.7430214828
 20
113.5727110533
 10
58.6765229546
 20
113.4793197165
 10
58.6141987168
 20
113.3802140186
 10
58.5561894806
 20
113.27555693
 10
58.5026146004
 20
113.1655232331
 10
58.4535716801
 20
113.0502623034
 10
58.4091604953
 20
112.9299064199
 10
58.36948607
 20
112.8046284565
 10
58.3346443579
 20
112.6745972677
 10
58.3047311914
 20
112.5399495332
 10
58.2798427895
 20
112.4008831714
 10
58.2600715197
 20
112.2576522267
 10
58.2518673815
 20
112.1818427116
  0
LINE
  5
221
100
AcDbEntity
  8
SUPERFICI
100
AcDbLine
 62
7
  6
CONTINUOUS
 10
59.0148531978
 20
113.8593755657
 30
0.0
 11
60.9380244466
 21
115.4625715847
 31
0.0
  0
LINE
  5
222
100
AcDbEntity
  8
RACCORDO
100
AcDbLine
 62
7
  6
CONTINUOUS
 10
59.0148520504
 20
113.8593746092
 30
0.0
 11
59.0158639441
 21
113.8602173438
 31
0.0
  0
LWPOLYLINE
  5
223
100
AcDbEntity
  8
RACCORDO
100
AcDbPolyline
 62
7
  6
CONTINUOUS
 90
9
 70
0
 10
57.1189103637
 20
96.1851016766
 10
57.0482568561
 20
94.2958491298
 10
56.9871925534
 20
92.3480656895
 10
56.9354188929
 20
90.3416920896
 10
56.8923688261
 20
88.2765070565
 10
56.8577556233
 20
86.1523754802
 10
56.832174647
 20
83.96966959
 10
56.816394933
 20
81.728886348
 10
56.8111737482
 20
79.4963351947
  0
LINE
  5
224
100
AcDbEntity
  8
RACCORDO
100
AcDbLine
 62
250
  6
CONTINUOUS
 10
57.2662748566
 20
97.8422156258
 30
0.0
 11
57.2728397136
 21
97.9813226126
 31
0.0
  0
LINE
  5
225
100
AcDbEntity
  8
RACCORDO
100
AcDbLine
 62
7
  6
CONTINUOUS
 10
57.2028625995
 20
98.0928482022
 30
0.0
 11
57.1189103637
 21
96.1851016766
 31
0.0
  0
LWPOLYLINE
  5
226
100
AcDbEntity
  8
RACCORDO
100
AcDbPolyline
 62
7
  6
CONTINUOUS
 90
9
 70
0
 10
58.0743201102
 20
110.3571319217
 10
57.9323701653
 20
108.8004191128
 10
57.7997266987
 20
107.2478974596
 10
57.6763966113
 20
105.6996465851
 10
57.5623864466
 20
104.1557477784
 10
57.4577023058
 20
102.6162816292
 10
57.3623498594
 20
101.0813289564
 10
57.2763342994
 20
99.5509709916
 10
57.202862599
 20
98.0928481907
  0
LINE
  5
227
100
AcDbEntity
  8
RACCORDO
100
AcDbLine
 62
7
  6
CONTINUOUS
 10
58.2518811128
 20
112.1819788201
 30
0.0
 11
58.0743201102
 21
110.3571319217
 31
0.0
  0
LWPOLYLINE
  5
228
100
AcDbEntity
  8
RACCORDO
100
AcDbPolyline
 62
7
  6
CONTINUOUS
 90
9
 70
0
 10
57.2766912186
 20
59.9706559933
 10
57.3627644553
 20
58.5389252961
 10
57.4581793659
 20
57.1133142594
 10
57.5629312566
 20
55.6938963557
 10
57.6770148754
 20
54.2807460908
 10
57.8004245721
 20
52.8739368256
 10
57.9331541453
 20
51.4735429503
 10
58.0751970864
 20
50.0796364979
 10
58.2196366148
 20
48.7536810492
  0
LINE
  5
229
100
AcDbEntity
  8
RACCORDO
100
AcDbLine
 62
7
  6
CONTINUOUS
 10
57.1963266805
 20
61.4813835028
 30
0.0
 11
57.2766912186
 21
59.9706559933
 31
0.0
  0
LINE
  5
22A
100
AcDbEntity
  8
RACCORDO
100
AcDbLine
 62
250
  6
CONTINUOUS
 10
57.2728397131
 20
61.2401602248
 30
0.0
 11
57.260368403
 21
61.4845997786
 31
0.0
  0
LWPOLYLINE
  5
22B
100
AcDbEntity
  8
RACCORDO
100
AcDbPolyline
 62
7
  6
CONTINUOUS
 90
10
 70
0
 10
56.8111737482
 20
79.4963362408
 10
56.816420732
 20
77.2643308586
 10
56.8322267038
 20
75.0416924865
 10
56.8578363957
 20
72.8884143584
 10
56.892470557
 20
70.8041078726
 10
56.9355565178
 20
68.7884457847
 10
56.9873595025
 20
66.8416011545
 10
57.0484663889
 20
64.9639975698
 10
57.1191628407
 20
63.1559064653
 10
57.1963266663
 20
61.4813837883
  0
LWPOLYLINE
  5
22C
100
AcDbEntity
  8
RACCORDO
100
AcDbPolyline
 62
7
  6
CONTINUOUS
 90
34
 70
0
 10
58.2522906868
 20
48.4639394109
 10
58.2620003736
 20
48.384850893
 10
58.2832556547
 20
48.2455285169
 10
58.3099458661
 20
48.1040705379
 10
58.3419121475
 20
47.9608654697
 10
58.3790081734
 20
47.8161738082
 10
58.4211152123
 20
47.6701450771
 10
58.4680901039
 20
47.5230740775
 10
58.5197749555
 20
47.3752743476
 10
58.5760495232
 20
47.2269424254
 10
58.6367628535
 20
47.0783877941
 10
58.7017465127
 20
46.9299310719
 10
58.7708670026
 20
46.7817966649
 10
58.8439564062
 20
46.6342995935
 10
58.9208327334
 20
46.4877529755
 10
59.0013536876
 20
46.3423859197
 10
59.0853356971
 20
46.198514
 10
59.1725823243
 20
46.0564457777
 10
59.262945911
 20
45.9164063478
 10
59.3562306094
 20
45.7787040982
 10
59.4522268114
 20
45.6436401633
 10
59.550780913
 20
45.511436499
 10
59.6516851009
 20
45.3823932731
 10
59.7547212177
 20
45.2567970997
 10
59.8597354763
 20
45.1348589253
 10
59.9665079145
 20
45.0168696027
 10
60.0748177331
 20
44.9030972543
 10
60.1845280944
 20
44.7937299446
 10
60.2954197107
 20
44.6890436968
 10
60.4072873292
 20
44.5892851278
 10
60.5200405063
 20
44.494612132
 10
60.633504711
 20
44.4052585748
 10
60.7473959149
 20
44.3215293724
 10
60.80808488
 20
44.2793668809
  0
LINE
  5
22D
100
AcDbEntity
  8
RACCORDO
100
AcDbLine
 62
7
  6
CONTINUOUS
 10
58.2196367057
 20
48.75368024
 30
0.0
 11
58.252315477
 21
48.4637227912
 31
0.0
  0
LINE
  5
22E
100
AcDbEntity
  8
RACCORDO
100
AcDbLine
 62
250
  6
CONTINUOUS
 10
58.3005560558
 20
48.5481117164
 30
0.0
 11
58.2767719594
 21
48.7599030666
 31
0.0
  0
LWPOLYLINE
  5
22F
100
AcDbEntity
  8
RACCORDO
100
AcDbPolyline
 62
7
  6
CONTINUOUS
 90
17
 70
0
 10
142.0098668994
 20
-2.6056683489
 10
142.0826156614
 20
-2.6404010221
 10
142.2118391056
 20
-2.6975528543
 10
142.3396964425
 20
-2.7482896019
 10
142.465927124
 20
-2.7925593668
 10
142.5903365479
 20
-2.8303479586
 10
142.7128130778
 20
-2.8616812916
 10
142.8331979029
 20
-2.8865585651
 10
142.9513243277
 20
-2.9049778756
 10
143.0670919407
 20
-2.9169584408
 10
143.1803666525
 20
-2.9225007442
 10
143.2909599633
 20
-2.9215985396
 10
143.3986978376
 20
-2.9142700666
 10
143.5034426432
 20
-2.9005319978
 10
143.6049811894
 20
-2.880407093
 10
143.7030154001
 20
-2.8539754019
 10
143.7770196958
 20
-2.8290020491
  0
LINE
  5
230
100
AcDbEntity
  8
RACCORDO
100
AcDbLine
 62
250
  6
CONTINUOUS
 10
141.9498026355
 20
-2.5003411591
 30
0.0
 11
141.905418302
 21
-2.4785942732
 31
0.0
  0
LINE
  5
231
100
AcDbEntity
  8
RACCORDO
100
AcDbLine
 62
7
  6
CONTINUOUS
 10
83.0467286295
 20
81.4933134105
 30
0.0
 11
83.0463527308
 21
81.4931106928
 31
0.0
  0
LWPOLYLINE
  5
232
100
AcDbEntity
  8
RACCORDO
100
AcDbPolyline
 62
7
  6
CONTINUOUS
 90
9
 70
0
 10
111.6744222895
 20
13.2449397999
 10
115.5804710986
 20
11.0985301444
 10
119.4492287267
 20
9.0013916339
 10
123.2795164892
 20
6.9529831575
 10
127.0719164718
 20
4.953843747
 10
130.8273978249
 20
3.0048450985
 10
134.5465712812
 20
1.1066907475
 10
138.2287494564
 20
-0.7407736011
 10
142.0098894873
 20
-2.6056778581
  0
LINE
  5
233
100
AcDbEntity
  8
RACCORDO
100
AcDbLine
 62
7
  6
CONTINUOUS
 10
107.7553411637
 20
15.4286111679
 30
0.0
 11
111.6744222895
 21
13.2449397999
 31
0.0
  0
LINE
  5
234
100
AcDbEntity
  8
RACCORDO
100
AcDbLine
 62
250
  6
CONTINUOUS
 10
107.8161712959
 20
15.4661047146
 30
0.0
 11
107.6949922506
 21
15.53397472
 31
0.0
  0
LINE
  5
235
100
AcDbEntity
  8
RACCORDO
100
AcDbLine
 62
7
  6
CONTINUOUS
 10
106.0208743291
 20
16.4048679281
 30
0.0
 11
107.7553411643
 21
15.4286111676
 31
0.0
  0
LINE
  5
236
100
AcDbEntity
  8
RACCORDO
100
AcDbLine
 62
7
  6
CONTINUOUS
 10
104.2342339212
 20
17.4168895812
 30
0.0
 11
106.0208743291
 21
16.4048679281
 31
0.0
  0
LINE
  5
237
100
AcDbEntity
  8
RACCORDO
100
AcDbLine
 62
7
  6
CONTINUOUS
 10
102.4532452113
 20
18.4322334439
 30
0.0
 11
104.2342339212
 21
17.4168895812
 31
0.0
  0
LINE
  5
238
100
AcDbEntity
  8
RACCORDO
100
AcDbLine
 62
7
  6
CONTINUOUS
 10
100.6779255556
 20
19.4508896417
 30
0.0
 11
102.4532452113
 21
18.4322334439
 31
0.0
  0
LINE
  5
239
100
AcDbEntity
  8
RACCORDO
100
AcDbLine
 62
250
  6
CONTINUOUS
 10
99.8752116767
 20
19.9842382547
 30
0.0
 11
99.7845082998
 21
20.0365260872
 31
0.0
  0
LINE
  5
23A
100
AcDbEntity
  8
RACCORDO
100
AcDbLine
 62
7
  6
CONTINUOUS
 10
99.0173939448
 20
20.4096515551
 30
0.0
 11
100.6779255556
 21
19.4508896417
 31
0.0
  0
LINE
  5
23B
100
AcDbEntity
  8
RACCORDO
100
AcDbLine
 62
7
  6
CONTINUOUS
 10
97.2531143072
 20
21.4346981206
 30
0.0
 11
99.0173939448
 21
20.4096515551
 31
0.0
  0
LINE
  5
23C
100
AcDbEntity
  8
RACCORDO
100
AcDbLine
 62
7
  6
CONTINUOUS
 10
95.4945590313
 20
22.4630251642
 30
0.0
 11
97.2531143072
 21
21.4346981206
 31
0.0
  0
LINE
  5
23D
100
AcDbEntity
  8
RACCORDO
100
AcDbLine
 62
7
  6
CONTINUOUS
 10
93.7417452601
 20
23.4946226842
 30
0.0
 11
95.4945590313
 21
22.4630251642
 31
0.0
  0
LINE
  5
23E
100
AcDbEntity
  8
RACCORDO
100
AcDbLine
 62
7
  6
CONTINUOUS
 10
92.0167523511
 20
24.516370534
 30
0.0
 11
93.7417452601
 21
23.4946226842
 31
0.0
  0
LINE
  5
23F
100
AcDbEntity
  8
RACCORDO
100
AcDbLine
 62
250
  6
CONTINUOUS
 10
92.0767449137
 20
24.5503247182
 30
0.0
 11
91.9568316114
 21
24.6214861092
 31
0.0
  0
LWPOLYLINE
  5
240
100
AcDbEntity
  8
RACCORDO
100
AcDbPolyline
 62
7
  6
CONTINUOUS
 90
9
 70
0
 10
64.0437583735
 20
42.0923323755
 10
67.2448713027
 20
39.9654333064
 10
70.5335276864
 20
37.8173781405
 10
73.9098723442
 20
35.6485638531
 10
77.3727479903
 20
33.458666061
 10
80.9206030689
 20
31.247043521
 10
84.5526152223
 20
29.0134322705
 10
88.2696210368
 20
26.758440733
 10
92.0167528279
 20
24.5163702507
  0
LINE
  5
241
100
AcDbEntity
  8
RACCORDO
100
AcDbLine
 62
250
  6
CONTINUOUS
 10
60.7687062269
 20
44.3706750047
 30
0.0
 11
60.7499928775
 21
44.3834113226
 31
0.0
  0
LINE
  5
242
100
AcDbEntity
  8
RACCORDO
100
AcDbLine
 62
7
  6
CONTINUOUS
 10
60.8080448127
 20
44.2793958351
 30
0.0
 11
64.0437583735
 21
42.0923323755
 31
0.0
  0
LINE
  5
243
100
AcDbEntity
  8
RACCORDO
100
AcDbLine
 62
250
  6
CONTINUOUS
 10
61.0067030693
 20
44.2087925244
 30
0.0
 11
60.9000256443
 21
44.2812575087
 31
0.0
  0
LINE
  5
244
100
AcDbEntity
  8
RACCORDO
100
AcDbLine
 62
7
  6
CONTINUOUS
 10
85.9027063875
 20
79.2820984123
 30
0.0
 11
84.8476432489
 21
78.736763575
 31
0.0
  0
LINE
  5
245
100
AcDbEntity
  8
RACCORDO
100
AcDbLine
 62
250
  6
CONTINUOUS
 10
86.0116357247
 20
79.2767830175
 30
0.0
 11
84.8476432489
 21
78.6751454243
 31
0.0
  0
LINE
  5
246
100
AcDbEntity
  8
SMUSSO
100
AcDbLine
 62
7
  6
CONTINUOUS
 10
86.5066104715
 20
78.9909908022
 30
0.0
 11
86.4702860672
 21
78.9722156575
 31
0.0
  0
LINE
  5
247
100
AcDbEntity
  8
DRAFT
100
AcDbLine
 62
7
  6
CONTINUOUS
 10
86.2581540328
 20
78.8625700977
 30
0.0
 11
86.1167326766
 21
78.7894730578
 31
0.0
  0
LINE
  5
248
100
AcDbEntity
  8
DRAFT
100
AcDbLine
 62
7
  6
CONTINUOUS
 10
85.9046006422
 20
78.6798274981
 30
0.0
 11
85.763179286
 21
78.6067304582
 31
0.0
  0
LINE
  5
249
100
AcDbEntity
  8
DRAFT
100
AcDbLine
 62
7
  6
CONTINUOUS
 10
85.5510472516
 20
78.4970848984
 30
0.0
 11
85.4096258954
 21
78.4239878586
 31
0.0
  0
LINE
  5
24A
100
AcDbEntity
  8
DRAFT
100
AcDbLine
 62
7
  6
CONTINUOUS
 10
85.197493861
 20
78.3143422988
 30
0.0
 11
85.0560725048
 21
78.2412452589
 31
0.0
  0
LINE
  5
24B
100
AcDbEntity
  8
RACCORDO
100
AcDbLine
 62
7
  6
CONTINUOUS
 10
86.5066104715
 20
74.129060984
 30
0.0
 11
87.0713268312
 21
74.8494081497
 31
0.0
  0
LINE
  5
24C
100
AcDbEntity
  8
SMUSSO
100
AcDbLine
 62
7
  6
CONTINUOUS
 10
86.5066104715
 20
74.129060984
 30
0.0
 11
86.4702860672
 21
74.1058896171
 31
0.0
  0
LINE
  5
24D
100
AcDbEntity
  8
DRAFT
100
AcDbLine
 62
7
  6
CONTINUOUS
 10
86.2581540328
 20
73.9705704209
 30
0.0
 11
86.1167326766
 21
73.8803576234
 31
0.0
  0
LINE
  5
24E
100
AcDbEntity
  8
DRAFT
100
AcDbLine
 62
7
  6
CONTINUOUS
 10
85.9046006422
 20
73.7450384272
 30
0.0
 11
85.763179286
 21
73.6548256297
 31
0.0
  0
LINE
  5
24F
100
AcDbEntity
  8
DRAFT
100
AcDbLine
 62
7
  6
CONTINUOUS
 10
85.5510472516
 20
73.5195064335
 30
0.0
 11
85.4096258954
 21
73.429293636
 31
0.0
  0
LINE
  5
250
100
AcDbEntity
  8
DRAFT
100
AcDbLine
 62
7
  6
CONTINUOUS
 10
85.197493861
 20
73.2939744398
 30
0.0
 11
85.0560725048
 21
73.2037616423
 31
0.0
  0
LINE
  5
251
100
AcDbEntity
  8
RACCORDO
100
AcDbLine
 62
7
  6
CONTINUOUS
 10
110.9754313699
 20
33.4462846222
 30
0.0
 11
110.0692414361
 21
33.3173870357
 31
0.0
  0
LINE
  5
252
100
AcDbEntity
  8
RACCORDO
100
AcDbLine
 62
250
  6
CONTINUOUS
 10
105.6302286202
 20
31.0552245806
 30
0.0
 11
106.3890947806
 21
30.62907641
 31
0.0
  0
LINE
  5
253
100
AcDbEntity
  8
0
100
AcDbLine
 62
7
  6
CONTINUOUS
 10
102.0458170346
 20
28.93606848
 30
0.0
 11
101.6888466313
 21
29.1397876069
 31
0.0
  0
LINE
  5
254
100
AcDbEntity
  8
0
100
AcDbLine
 62
7
  6
CONTINUOUS
 10
101.2662014891
 20
30.1184949689
 30
0.0
 11
101.0674496769
 21
30.232186467
 31
0.0
  0
LINE
  5
255
100
AcDbEntity
  8
0
100
AcDbLine
 62
7
  6
CONTINUOUS
 10
101.0335574886
 20
30.5610052647
 30
0.0
 11
101.2453974264
 21
30.4398244762
 31
0.0
  0
LINE
  5
256
100
AcDbEntity
  8
0
100
AcDbLine
 62
7
  6
CONTINUOUS
 10
101.121006696
 20
29.4643907002
 30
0.0
 11
100.7520034081
 21
29.675687995
 31
0.0
  0
LINE
  5
257
100
AcDbEntity
  8
0
100
AcDbLine
 62
7
  6
CONTINUOUS
 10
100.643255446
 20
29.7380126384
 30
0.0
 11
100.2531144249
 21
29.9618096889
 31
0.0
  0
LINE
  5
258
100
AcDbEntity
  8
0
100
AcDbLine
 62
7
  6
CONTINUOUS
 10
100.1296015934
 20
30.4083175813
 30
0.0
 11
99.6259901931
 21
30.697774435
 31
0.0
  0
LINE
  5
259
100
AcDbEntity
  8
0
100
AcDbLine
 62
7
  6
CONTINUOUS
 10
99.6806887131
 20
30.9574839292
 30
0.0
 11
100.0347505622
 21
30.753983168
 31
0.0
  0
LINE
  5
25A
100
AcDbEntity
  8
0
100
AcDbLine
 62
7
  6
CONTINUOUS
 10
99.6100414211
 20
32.220856828
 30
0.0
 11
99.9677920439
 21
32.0152463947
 31
0.0
  0
LINE
  5
25B
100
AcDbEntity
  8
0
100
AcDbLine
 62
7
  6
CONTINUOUS
 10
99.5516648441
 20
30.3649810553
 30
0.0
 11
99.1862292326
 21
30.5754294595
 31
0.0
  0
LINE
  5
25C
100
AcDbEntity
  8
0
100
AcDbLine
 62
7
  6
CONTINUOUS
 10
99.1282384788
 20
30.6088511023
 30
0.0
 11
98.7671002224
 21
30.8171435628
 31
0.0
  0
LINE
  5
25D
100
AcDbEntity
  8
0
100
AcDbLine
 62
7
  6
CONTINUOUS
 10
98.4662617234
 20
32.8800191177
 30
0.0
 11
98.8314000179
 21
32.6692912605
 31
0.0
  0
LINE
  5
25E
100
AcDbEntity
  8
0
100
AcDbLine
 62
7
  6
CONTINUOUS
 10
98.2527317596
 20
31.1142870958
 30
0.0
 11
98.2010243136
 21
31.1441885675
 31
0.0
  0
LINE
  5
25F
100
AcDbEntity
  8
0
100
AcDbLine
 62
7
  6
CONTINUOUS
 10
97.364789155
 20
33.5173988617
 30
0.0
 11
97.7327945552
 21
33.3041636618
 31
0.0
  0
LINE
  5
260
100
AcDbEntity
  8
0
100
AcDbLine
 62
7
  6
CONTINUOUS
 10
97.6892231527
 20
31.4404578637
 30
0.0
 11
97.336977649
 21
31.6446856537
 31
0.0
  0
LINE
  5
261
100
AcDbEntity
  8
RACCORDO
100
AcDbLine
 62
250
  6
CONTINUOUS
 10
96.8171758253
 20
36.0923297026
 30
0.0
 11
96.8251440868
 21
36.0877065059
 31
0.0
  0
LINE
  5
262
100
AcDbEntity
  8
0
100
AcDbLine
 62
7
  6
CONTINUOUS
 10
97.1388652396
 20
31.7596642446
 30
0.0
 11
96.7710430713
 21
31.9733579899
 31
0.0
  0
LINE
  5
263
100
AcDbEntity
  8
0
100
AcDbLine
 62
7
  6
CONTINUOUS
 10
96.6396039393
 20
33.9385492961
 30
0.0
 11
97.0074261079
 21
33.7248555472
 31
0.0
  0
LINE
  5
264
100
AcDbEntity
  8
0
100
AcDbLine
 62
7
  6
CONTINUOUS
 10
96.1359432169
 20
34.2315133478
 30
0.0
 11
96.5031743723
 21
34.0177698607
 31
0.0
  0
LINE
  5
265
100
AcDbEntity
  8
0
100
AcDbLine
 62
7
  6
CONTINUOUS
 10
96.0688186501
 20
32.3821276847
 30
0.0
 11
95.7452979903
 21
32.5708047382
 31
0.0
  0
LINE
  5
266
100
AcDbEntity
  8
0
100
AcDbLine
 62
7
  6
CONTINUOUS
 10
95.0567664475
 20
34.8613020519
 30
0.0
 11
95.4551861036
 21
34.6285016061
 31
0.0
  0
LINE
  5
267
100
AcDbEntity
  8
RACCORDO
100
AcDbLine
 62
250
  6
CONTINUOUS
 10
89.7704707508
 20
40.2397973983
 30
0.0
 11
90.6206135601
 21
39.7335998412
 31
0.0
  0
LINE
  5
268
100
AcDbEntity
  8
RACCORDO
100
AcDbLine
 62
250
  6
CONTINUOUS
 10
82.224936095
 20
53.085634122
 30
0.0
 11
82.226987752
 21
52.9961702595
 31
0.0
  0
LINE
  5
269
100
AcDbEntity
  8
RACCORDO
100
AcDbLine
 62
250
  6
CONTINUOUS
 10
82.1189697541
 20
61.357510132
 30
0.0
 11
82.119093401
 21
61.3267801768
 31
0.0
  0
LINE
  5
26A
100
AcDbEntity
  8
RACCORDO
100
AcDbLine
 62
7
  6
CONTINUOUS
 10
84.8476432489
 20
80.4171096342
 30
0.0
 11
84.8476432489
 21
46.3722592918
 31
0.0
  0
LINE
  5
26B
100
AcDbEntity
  8
DRAFT
100
AcDbLine
 62
7
  6
CONTINUOUS
 10
85.0560725048
 20
78.2412452589
 30
0.0
 11
85.0560725048
 21
73.2037616423
 31
0.0
  0
LINE
  5
26C
100
AcDbEntity
  8
DRAFT
100
AcDbLine
 62
7
  6
CONTINUOUS
 10
85.0560725048
 20
59.8706640311
 30
0.0
 11
85.0560725048
 21
54.8331804145
 31
0.0
  0
LINE
  5
26D
100
AcDbEntity
  8
DRAFT
100
AcDbLine
 62
7
  6
CONTINUOUS
 10
85.197493861
 20
78.4304062677
 30
0.0
 11
85.197493861
 21
73.2939744398
 31
0.0
  0
LINE
  5
26E
100
AcDbEntity
  8
DRAFT
100
AcDbLine
 62
7
  6
CONTINUOUS
 10
85.197493861
 20
60.0598250398
 30
0.0
 11
85.197493861
 21
54.923393212
 31
0.0
  0
LINE
  5
26F
100
AcDbEntity
  8
DRAFT
100
AcDbLine
 62
7
  6
CONTINUOUS
 10
85.4096258954
 20
78.4239878586
 30
0.0
 11
85.4096258954
 21
73.429293636
 31
0.0
  0
LINE
  5
270
100
AcDbEntity
  8
DRAFT
100
AcDbLine
 62
7
  6
CONTINUOUS
 10
85.4096258954
 20
60.0534066307
 30
0.0
 11
85.4096258954
 21
55.0587124082
 31
0.0
  0
LINE
  5
271
100
AcDbEntity
  8
DRAFT
100
AcDbLine
 62
7
  6
CONTINUOUS
 10
85.5510472516
 20
78.6131488673
 30
0.0
 11
85.5510472516
 21
73.5195064335
 31
0.0
  0
LINE
  5
272
100
AcDbEntity
  8
DRAFT
100
AcDbLine
 62
7
  6
CONTINUOUS
 10
85.5510472516
 20
60.2425676395
 30
0.0
 11
85.5510472516
 21
55.1489252057
 31
0.0
  0
LINE
  5
273
100
AcDbEntity
  8
DRAFT
100
AcDbLine
 62
7
  6
CONTINUOUS
 10
85.763179286
 20
78.6067304582
 30
0.0
 11
85.763179286
 21
73.6548256297
 31
0.0
  0
LINE
  5
274
100
AcDbEntity
  8
DRAFT
100
AcDbLine
 62
7
  6
CONTINUOUS
 10
85.763179286
 20
60.2361492304
 30
0.0
 11
85.763179286
 21
55.2842444019
 31
0.0
  0
LINE
  5
275
100
AcDbEntity
  8
DRAFT
100
AcDbLine
 62
7
  6
CONTINUOUS
 10
85.9046006422
 20
78.7958914669
 30
0.0
 11
85.9046006422
 21
73.7450384272
 31
0.0
  0
LINE
  5
276
100
AcDbEntity
  8
DRAFT
100
AcDbLine
 62
7
  6
CONTINUOUS
 10
85.9046006422
 20
60.4253102391
 30
0.0
 11
85.9046006422
 21
55.3744571994
 31
0.0
  0
LINE
  5
277
100
AcDbEntity
  8
DRAFT
100
AcDbLine
 62
7
  6
CONTINUOUS
 10
86.1167326766
 20
78.7894730578
 30
0.0
 11
86.1167326766
 21
73.8803576234
 31
0.0
  0
LINE
  5
278
100
AcDbEntity
  8
DRAFT
100
AcDbLine
 62
7
  6
CONTINUOUS
 10
86.1167326766
 20
60.41889183
 30
0.0
 11
86.1167326766
 21
55.5097763956
 31
0.0
  0
LINE
  5
279
100
AcDbEntity
  8
DRAFT
100
AcDbLine
 62
7
  6
CONTINUOUS
 10
86.2581540328
 20
78.9786340666
 30
0.0
 11
86.2581540328
 21
73.9705704209
 31
0.0
  0
LINE
  5
27A
100
AcDbEntity
  8
DRAFT
100
AcDbLine
 62
7
  6
CONTINUOUS
 10
86.2581540328
 20
60.6080528387
 30
0.0
 11
86.2581540328
 21
55.5999891931
 31
0.0
  0
LINE
  5
27B
100
AcDbEntity
  8
DRAFT
100
AcDbLine
 62
7
  6
CONTINUOUS
 10
86.4702860672
 20
78.9722156575
 30
0.0
 11
86.4702860672
 21
74.1058896171
 31
0.0
  0
LINE
  5
27C
100
AcDbEntity
  8
DRAFT
100
AcDbLine
 62
7
  6
CONTINUOUS
 10
86.4702860672
 20
60.6016344296
 30
0.0
 11
86.4702860672
 21
55.7353083893
 31
0.0
  0
LINE
  5
27D
100
AcDbEntity
  8
RACCORDO
100
AcDbLine
 62
7
  6
CONTINUOUS
 10
85.2011427916
 20
45.759980124
 30
0.0
 11
114.6288179736
 21
28.7688092893
 31
0.0
  0
LINE
  5
27E
100
AcDbEntity
  8
DRAFT
100
AcDbLine
 62
7
  6
CONTINUOUS
 10
92.6327814191
 20
41.7099356344
 30
0.0
 11
96.9955107513
 21
39.1909503959
 31
0.0
  0
LINE
  5
27F
100
AcDbEntity
  8
DRAFT
100
AcDbLine
 62
7
  6
CONTINUOUS
 10
108.5426839958
 20
32.5237572845
 30
0.0
 11
112.905413328
 21
30.004772046
 31
0.0
  0
LINE
  5
280
100
AcDbEntity
  8
DRAFT
100
AcDbLine
 62
7
  6
CONTINUOUS
 10
92.7816143546
 20
41.7873112001
 30
0.0
 11
97.230027861
 21
39.2188648297
 31
0.0
  0
LINE
  5
281
100
AcDbEntity
  8
DRAFT
100
AcDbLine
 62
7
  6
CONTINUOUS
 10
108.6915169313
 20
32.6011328502
 30
0.0
 11
113.1399304377
 21
30.0326864798
 31
0.0
  0
LINE
  5
282
100
AcDbEntity
  8
DRAFT
100
AcDbLine
 62
7
  6
CONTINUOUS
 10
93.0048637577
 20
41.9033745487
 30
0.0
 11
97.3305351938
 21
39.4057860749
 31
0.0
  0
LINE
  5
283
100
AcDbEntity
  8
DRAFT
100
AcDbLine
 62
7
  6
CONTINUOUS
 10
108.9147663344
 20
32.7171961988
 30
0.0
 11
113.2404377705
 21
30.219607725
 31
0.0
  0
LINE
  5
284
100
AcDbEntity
  8
DRAFT
100
AcDbLine
 62
7
  6
CONTINUOUS
 10
93.1536966932
 20
41.9807501144
 30
0.0
 11
97.5650523036
 21
39.4337005087
 31
0.0
  0
LINE
  5
285
100
AcDbEntity
  8
DRAFT
100
AcDbLine
 62
7
  6
CONTINUOUS
 10
109.0635992699
 20
32.7945717645
 30
0.0
 11
113.4749548803
 21
30.2475221588
 31
0.0
  0
LINE
  5
286
100
AcDbEntity
  8
DRAFT
100
AcDbLine
 62
7
  6
CONTINUOUS
 10
93.3769460964
 20
42.096813463
 30
0.0
 11
97.6655596363
 21
39.620621754
 31
0.0
  0
LINE
  5
287
100
AcDbEntity
  8
DRAFT
100
AcDbLine
 62
7
  6
CONTINUOUS
 10
109.2868486731
 20
32.9106351131
 30
0.0
 11
113.575462213
 21
30.4344434041
 31
0.0
  0
LINE
  5
288
100
AcDbEntity
  8
DRAFT
100
AcDbLine
 62
7
  6
CONTINUOUS
 10
93.5257790319
 20
42.1741890287
 30
0.0
 11
97.9000767461
 21
39.6485361878
 31
0.0
  0
LINE
  5
289
100
AcDbEntity
  8
DRAFT
100
AcDbLine
 62
7
  6
CONTINUOUS
 10
109.4356816086
 20
32.9880106788
 30
0.0
 11
113.8099793228
 21
30.4623578379
 31
0.0
  0
LINE
  5
28A
100
AcDbEntity
  8
DRAFT
100
AcDbLine
 62
7
  6
CONTINUOUS
 10
93.7490284351
 20
42.2902523772
 30
0.0
 11
98.0005840789
 21
39.835457433
 31
0.0
  0
LINE
  5
28B
100
AcDbEntity
  8
DRAFT
100
AcDbLine
 62
7
  6
CONTINUOUS
 10
109.6589310118
 20
33.1040740274
 30
0.0
 11
113.9104866556
 21
30.6492790831
 31
0.0
  0
LINE
  5
28C
100
AcDbEntity
  8
DRAFT
100
AcDbLine
 62
7
  6
CONTINUOUS
 10
93.8978613705
 20
42.3676279429
 30
0.0
 11
98.2351011886
 21
39.8633718668
 31
0.0
  0
LINE
  5
28D
100
AcDbEntity
  8
DRAFT
100
AcDbLine
 62
7
  6
CONTINUOUS
 10
109.8077639472
 20
33.1814495931
 30
0.0
 11
114.1450037653
 21
30.6771935169
 31
0.0
  0
LINE
  5
28E
100
AcDbEntity
  8
DRAFT
100
AcDbLine
 62
7
  6
CONTINUOUS
 10
94.1211107737
 20
42.4836912915
 30
0.0
 11
98.3356085214
 21
40.0502931121
 31
0.0
  0
LINE
  5
28F
100
AcDbEntity
  8
DRAFT
100
AcDbLine
 62
7
  6
CONTINUOUS
 10
110.0310133504
 20
33.2975129416
 30
0.0
 11
114.2455110981
 21
30.8641147622
 31
0.0
  0
LINE
  5
290
100
AcDbEntity
  8
RACCORDO
100
AcDbLine
 62
250
  6
CONTINUOUS
 10
95.0655287932
 20
42.6324629721
 30
0.0
 11
98.5932720299
 21
40.5955882402
 31
0.0
  0
LINE
  5
291
100
AcDbEntity
  8
RACCORDO
100
AcDbLine
 62
250
  6
CONTINUOUS
 10
110.9754313699
 20
33.4462846222
 30
0.0
 11
114.5031746066
 21
31.4094098903
 31
0.0
  0
LINE
  5
292
100
AcDbEntity
  8
RACCORDO
100
AcDbLine
 62
7
  6
CONTINUOUS
 10
95.2260047039
 20
42.6074559646
 30
0.0
 11
98.6328057833
 21
40.6404117187
 31
0.0
  0
LINE
  5
293
100
AcDbEntity
  8
RACCORDO
100
AcDbLine
 62
7
  6
CONTINUOUS
 10
111.1359072806
 20
33.4212776148
 30
0.0
 11
114.535662008
 21
31.4583018441
 31
0.0
  0
LINE
  5
294
100
AcDbEntity
  8
RACCORDO
100
AcDbLine
 62
250
  6
CONTINUOUS
 10
87.0713268312
 20
78.9227639335
 30
0.0
 11
87.0713268312
 21
74.8494081497
 31
0.0
  0
LINE
  5
295
100
AcDbEntity
  8
RACCORDO
100
AcDbLine
 62
250
  6
CONTINUOUS
 10
87.0713268312
 20
60.5521827057
 30
0.0
 11
87.0713268312
 21
56.4788269219
 31
0.0
  0
LINE
  5
296
100
AcDbEntity
  8
RACCORDO
100
AcDbLine
 62
7
  6
CONTINUOUS
 10
87.129905475
 20
78.9345984883
 30
0.0
 11
87.129905475
 21
75.0008834322
 31
0.0
  0
LINE
  5
297
100
AcDbEntity
  8
RACCORDO
100
AcDbLine
 62
7
  6
CONTINUOUS
 10
87.129905475
 20
60.5640172605
 30
0.0
 11
87.129905475
 21
56.6303022044
 31
0.0
  0
LINE
  5
298
100
AcDbEntity
  8
RACCORDO
100
AcDbLine
 62
7
  6
CONTINUOUS
 10
86.5066104715
 20
55.7584797562
 30
0.0
 11
87.0713268312
 21
56.4788269219
 31
0.0
  0
LINE
  5
299
100
AcDbEntity
  8
SMUSSO
100
AcDbLine
 62
7
  6
CONTINUOUS
 10
86.5066104715
 20
60.6204095744
 30
0.0
 11
86.4702860672
 21
60.6016344296
 31
0.0
  0
LINE
  5
29A
100
AcDbEntity
  8
DRAFT
100
AcDbLine
 62
7
  6
CONTINUOUS
 10
86.2581540328
 20
60.4919888698
 30
0.0
 11
86.1167326766
 21
60.41889183
 31
0.0
  0
LINE
  5
29B
100
AcDbEntity
  8
DRAFT
100
AcDbLine
 62
7
  6
CONTINUOUS
 10
85.9046006422
 20
60.3092462702
 30
0.0
 11
85.763179286
 21
60.2361492304
 31
0.0
  0
LINE
  5
29C
100
AcDbEntity
  8
DRAFT
100
AcDbLine
 62
7
  6
CONTINUOUS
 10
85.5510472516
 20
60.1265036706
 30
0.0
 11
85.4096258954
 21
60.0534066307
 31
0.0
  0
LINE
  5
29D
100
AcDbEntity
  8
DRAFT
100
AcDbLine
 62
7
  6
CONTINUOUS
 10
85.197493861
 20
59.9437610709
 30
0.0
 11
85.0560725048
 21
59.8706640311
 31
0.0
  0
LINE
  5
29E
100
AcDbEntity
  8
RACCORDO
100
AcDbLine
 62
7
  6
CONTINUOUS
 10
85.8978333155
 20
60.9158917726
 30
0.0
 11
84.8476432489
 21
60.3830177027
 31
0.0
  0
LINE
  5
29F
100
AcDbEntity
  8
RACCORDO
100
AcDbLine
 62
250
  6
CONTINUOUS
 10
86.0054141481
 20
60.9097940501
 30
0.0
 11
84.8476432489
 21
60.3223326841
 31
0.0
  0
LINE
  5
2A0
100
AcDbEntity
  8
RACCORDO
100
AcDbLine
 62
7
  6
CONTINUOUS
 10
95.0655287932
 20
42.6324629721
 30
0.0
 11
94.1593388594
 21
42.5035653856
 31
0.0
  0
LINE
  5
2A1
100
AcDbEntity
  8
SMUSSO
100
AcDbLine
 62
7
  6
CONTINUOUS
 10
86.5066104715
 20
55.7584797562
 30
0.0
 11
86.4702860672
 21
55.7353083893
 31
0.0
  0
LINE
  5
2A2
100
AcDbEntity
  8
DRAFT
100
AcDbLine
 62
7
  6
CONTINUOUS
 10
86.2581540328
 20
55.5999891931
 30
0.0
 11
86.1167326766
 21
55.5097763956
 31
0.0
  0
LINE
  5
2A3
100
AcDbEntity
  8
DRAFT
100
AcDbLine
 62
7
  6
CONTINUOUS
 10
85.9046006422
 20
55.3744571994
 30
0.0
 11
85.763179286
 21
55.2842444019
 31
0.0
  0
LINE
  5
2A4
100
AcDbEntity
  8
DRAFT
100
AcDbLine
 62
7
  6
CONTINUOUS
 10
85.5510472516
 20
55.1489252057
 30
0.0
 11
85.4096258954
 21
55.0587124082
 31
0.0
  0
LINE
  5
2A5
100
AcDbEntity
  8
DRAFT
100
AcDbLine
 62
7
  6
CONTINUOUS
 10
85.197493861
 20
54.923393212
 30
0.0
 11
85.0560725048
 21
54.8331804145
 31
0.0
  0
LINE
  5
2A6
100
AcDbEntity
  8
0
100
AcDbLine
 62
7
  6
CONTINUOUS
 10
100.7520033257
 20
29.6756880485
 30
0.0
 11
100.7449902271
 21
29.7739542728
 31
0.0
  0
LINE
  5
2A7
100
AcDbEntity
  8
0
100
AcDbLine
 62
7
  6
CONTINUOUS
 10
101.6406788698
 20
30.0581563815
 30
0.0
 11
101.6414586931
 21
30.0465463487
 31
0.0
  0
LINE
  5
2A8
100
AcDbEntity
  8
0
100
AcDbLine
 62
7
  6
CONTINUOUS
 10
100.9984179836
 20
31.1009993869
 30
0.0
 11
101.0335574629
 21
30.5610052832
 31
0.0
  0
LINE
  5
2A9
100
AcDbEntity
  8
RACCORDO
100
AcDbLine
 62
7
  6
CONTINUOUS
 10
98.3700292444
 20
39.4936525094
 30
0.0
 11
98.3700292444
 21
40.0723655296
 31
0.0
  0
LINE
  5
2AA
100
AcDbEntity
  8
RACCORDO
100
AcDbLine
 62
7
  6
CONTINUOUS
 10
98.6491784987
 20
40.154358034
 30
0.0
 11
98.6491784987
 21
40.5633243278
 31
0.0
  0
LINE
  5
2AB
100
AcDbEntity
  8
DRAFT
100
AcDbLine
 62
7
  6
CONTINUOUS
 10
92.5211567175
 20
41.5294334186
 30
0.0
 11
92.6327814191
 21
41.7099356344
 31
0.0
  0
LINE
  5
2AC
100
AcDbEntity
  8
DRAFT
100
AcDbLine
 62
7
  6
CONTINUOUS
 10
85.0560725048
 20
54.8331804145
 30
0.0
 11
84.8439404705
 21
54.8267620054
 31
0.0
  0
LINE
  5
2AD
100
AcDbEntity
  8
DRAFT
100
AcDbLine
 62
7
  6
CONTINUOUS
 10
85.4096258954
 20
55.0587124082
 30
0.0
 11
85.197493861
 21
55.0522939991
 31
0.0
  0
LINE
  5
2AE
100
AcDbEntity
  8
DRAFT
100
AcDbLine
 62
7
  6
CONTINUOUS
 10
85.763179286
 20
55.2842444019
 30
0.0
 11
85.5510472516
 21
55.2778259928
 31
0.0
  0
LINE
  5
2AF
100
AcDbEntity
  8
DRAFT
100
AcDbLine
 62
7
  6
CONTINUOUS
 10
86.1167326766
 20
55.5097763956
 30
0.0
 11
85.9046006422
 21
55.5033579865
 31
0.0
  0
LINE
  5
2B0
100
AcDbEntity
  8
DRAFT
100
AcDbLine
 62
7
  6
CONTINUOUS
 10
86.4702860672
 20
55.7353083893
 30
0.0
 11
86.2581540328
 21
55.7288899802
 31
0.0
  0
LINE
  5
2B1
100
AcDbEntity
  8
RACCORDO
100
AcDbLine
 62
7
  6
CONTINUOUS
 10
86.5066104715
 20
60.6204095744
 30
0.0
 11
86.0054141481
 21
60.9097940501
 31
0.0
  0
LINE
  5
2B2
100
AcDbEntity
  8
RACCORDO
100
AcDbLine
 62
7
  6
CONTINUOUS
 10
87.0713268312
 20
60.6167516375
 30
0.0
 11
86.7171402211
 21
60.8212545472
 31
0.0
  0
LINE
  5
2B3
100
AcDbEntity
  8
0
100
AcDbLine
 62
7
  6
CONTINUOUS
 10
99.6578633483
 20
30.6195463174
 30
0.0
 11
99.6697379517
 21
30.6726080711
 31
0.0
  0
LINE
  5
2B4
100
AcDbEntity
  8
0
100
AcDbLine
 62
7
  6
CONTINUOUS
 10
99.1862292325
 20
30.5754294614
 30
0.0
 11
99.2018820877
 21
30.6373033064
 31
0.0
  0
LINE
  5
2B5
100
AcDbEntity
  8
RACCORDO
100
AcDbLine
 62
250
  6
CONTINUOUS
 10
98.3700292444
 20
39.4929897172
 30
0.0
 11
98.6491784987
 21
40.154358034
 31
0.0
  0
LINE
  5
2B6
100
AcDbEntity
  8
RACCORDO
100
AcDbLine
 62
7
  6
CONTINUOUS
 10
98.6406272971
 20
40.1074860536
 30
0.0
 11
98.3607335218
 21
39.4443537967
 31
0.0
  0
LINE
  5
2B7
100
AcDbEntity
  8
RACCORDO
100
AcDbLine
 62
7
  6
CONTINUOUS
 10
98.3700292444
 20
40.0723655296
 30
0.0
 11
98.5932720299
 21
40.5955882402
 31
0.0
  0
LINE
  5
2B8
100
AcDbEntity
  8
DRAFT
100
AcDbLine
 62
7
  6
CONTINUOUS
 10
96.8950034185
 20
39.0040291506
 30
0.0
 11
96.9955107513
 21
39.1909503959
 31
0.0
  0
LINE
  5
2B9
100
AcDbEntity
  8
DRAFT
100
AcDbLine
 62
7
  6
CONTINUOUS
 10
97.230027861
 20
39.2188648297
 30
0.0
 11
97.3305351938
 21
39.4057860749
 31
0.0
  0
LINE
  5
2BA
100
AcDbEntity
  8
DRAFT
100
AcDbLine
 62
7
  6
CONTINUOUS
 10
97.5650523036
 20
39.4337005087
 30
0.0
 11
97.6655596363
 21
39.620621754
 31
0.0
  0
LINE
  5
2BB
100
AcDbEntity
  8
DRAFT
100
AcDbLine
 62
7
  6
CONTINUOUS
 10
97.9000767461
 20
39.6485361878
 30
0.0
 11
98.0005840789
 21
39.835457433
 31
0.0
  0
LINE
  5
2BC
100
AcDbEntity
  8
DRAFT
100
AcDbLine
 62
7
  6
CONTINUOUS
 10
98.2351011886
 20
39.8633718668
 30
0.0
 11
98.3356085214
 21
40.0502931121
 31
0.0
  0
LINE
  5
2BD
100
AcDbEntity
  8
DRAFT
100
AcDbLine
 62
7
  6
CONTINUOUS
 10
92.8932390562
 20
41.7228723329
 30
0.0
 11
93.0048637577
 21
41.9033745487
 31
0.0
  0
LINE
  5
2BE
100
AcDbEntity
  8
DRAFT
100
AcDbLine
 62
7
  6
CONTINUOUS
 10
93.2653213948
 20
41.9163112472
 30
0.0
 11
93.3769460964
 21
42.096813463
 31
0.0
  0
LINE
  5
2BF
100
AcDbEntity
  8
DRAFT
100
AcDbLine
 62
7
  6
CONTINUOUS
 10
93.6374037335
 20
42.1097501614
 30
0.0
 11
93.7490284351
 21
42.2902523772
 31
0.0
  0
LINE
  5
2C0
100
AcDbEntity
  8
DRAFT
100
AcDbLine
 62
7
  6
CONTINUOUS
 10
94.0094860721
 20
42.3031890757
 30
0.0
 11
94.1211107737
 21
42.4836912915
 31
0.0
  0
LINE
  5
2C1
100
AcDbEntity
  8
DRAFT
100
AcDbLine
 62
7
  6
CONTINUOUS
 10
85.0560725048
 20
59.8706640311
 30
0.0
 11
84.8439404705
 21
59.8770824402
 31
0.0
  0
LINE
  5
2C2
100
AcDbEntity
  8
DRAFT
100
AcDbLine
 62
7
  6
CONTINUOUS
 10
85.4096258954
 20
60.0534066307
 30
0.0
 11
85.197493861
 21
60.0598250398
 31
0.0
  0
LINE
  5
2C3
100
AcDbEntity
  8
DRAFT
100
AcDbLine
 62
7
  6
CONTINUOUS
 10
85.763179286
 20
60.2361492304
 30
0.0
 11
85.5510472516
 21
60.2425676395
 31
0.0
  0
LINE
  5
2C4
100
AcDbEntity
  8
DRAFT
100
AcDbLine
 62
7
  6
CONTINUOUS
 10
86.1167326766
 20
60.41889183
 30
0.0
 11
85.9046006422
 21
60.4253102391
 31
0.0
  0
LINE
  5
2C5
100
AcDbEntity
  8
DRAFT
100
AcDbLine
 62
7
  6
CONTINUOUS
 10
86.4702860672
 20
60.6016344296
 30
0.0
 11
86.2581540328
 21
60.6080528387
 31
0.0
  0
LINE
  5
2C6
100
AcDbEntity
  8
RACCORDO
100
AcDbLine
 62
7
  6
CONTINUOUS
 10
87.0713268312
 20
60.5521827057
 30
0.0
 11
86.5066104715
 21
60.6204095744
 31
0.0
  0
LINE
  5
2C7
100
AcDbEntity
  8
RACCORDO
100
AcDbLine
 62
250
  6
CONTINUOUS
 10
86.7171402211
 20
60.8212545472
 30
0.0
 11
86.0048401347
 21
60.9101254782
 31
0.0
  0
LINE
  5
2C8
100
AcDbEntity
  8
RACCORDO
100
AcDbLine
 62
7
  6
CONTINUOUS
 10
85.9580557066
 20
60.9263977922
 30
0.0
 11
86.6722568752
 21
60.8372896705
 31
0.0
  0
LINE
  5
2C9
100
AcDbEntity
  8
RACCORDO
100
AcDbLine
 62
250
  6
CONTINUOUS
 10
97.3781585188
 20
38.7291238569
 30
0.0
 11
97.5120967578
 21
38.8697926691
 31
0.0
  0
LINE
  5
2CA
100
AcDbEntity
  8
RACCORDO
100
AcDbLine
 62
7
  6
CONTINUOUS
 10
97.3917024326
 20
38.7213037708
 30
0.0
 11
97.5674346326
 21
38.9058667456
 31
0.0
  0
LINE
  5
2CB
100
AcDbEntity
  8
SMUSSO
100
AcDbLine
 62
7
  6
CONTINUOUS
 10
94.1593388594
 20
42.5035653856
 30
0.0
 11
94.1211107737
 21
42.4836912915
 31
0.0
  0
LINE
  5
2CC
100
AcDbEntity
  8
DRAFT
100
AcDbLine
 62
7
  6
CONTINUOUS
 10
93.8978613705
 20
42.3676279429
 30
0.0
 11
93.7490284351
 21
42.2902523772
 31
0.0
  0
LINE
  5
2CD
100
AcDbEntity
  8
DRAFT
100
AcDbLine
 62
7
  6
CONTINUOUS
 10
93.5257790319
 20
42.1741890287
 30
0.0
 11
93.3769460964
 21
42.096813463
 31
0.0
  0
LINE
  5
2CE
100
AcDbEntity
  8
DRAFT
100
AcDbLine
 62
7
  6
CONTINUOUS
 10
93.1536966932
 20
41.9807501144
 30
0.0
 11
93.0048637577
 21
41.9033745487
 31
0.0
  0
LINE
  5
2CF
100
AcDbEntity
  8
DRAFT
100
AcDbLine
 62
7
  6
CONTINUOUS
 10
92.7816143546
 20
41.7873112001
 30
0.0
 11
92.6327814191
 21
41.7099356344
 31
0.0
  0
LINE
  5
2D0
100
AcDbEntity
  8
RACCORDO
100
AcDbLine
 62
250
  6
CONTINUOUS
 10
85.0365799284
 20
60.4788855466
 30
0.0
 11
84.8476432489
 21
60.433188704
 31
0.0
  0
LINE
  5
2D1
100
AcDbEntity
  8
RACCORDO
100
AcDbLine
 62
7
  6
CONTINUOUS
 10
85.0954957764
 20
60.5087798759
 30
0.0
 11
84.8476432489
 21
60.4488334539
 31
0.0
  0
LWPOLYLINE
  5
2D2
100
AcDbEntity
  8
RACCORDO
100
AcDbPolyline
 62
7
  6
CONTINUOUS
 90
9
 70
0
 10
114.7170432152
 20
26.7197911246
 10
114.7174912427
 20
26.7017841658
 10
114.7170514042
 20
26.6842981155
 10
114.7158140986
 20
26.6689625091
 10
114.7139674294
 20
26.6558625077
 10
114.7117322762
 20
26.6450985572
 10
114.7094116846
 20
26.6368719261
 10
114.7073433622
 20
26.6312214964
 10
114.7069880813
 20
26.6303886545
  0
LWPOLYLINE
  5
2D3
100
AcDbEntity
  8
RACCORDO
100
AcDbPolyline
 62
7
  6
CONTINUOUS
 90
10
 70
0
 10
114.3498184161
 20
44.5110394945
 10
114.3548371633
 20
42.3072864266
 10
114.3699627243
 20
40.1120712243
 10
114.3944662491
 20
37.9853852384
 10
114.4276167859
 20
35.9268433678
 10
114.4688031766
 20
33.9361010919
 10
114.5182389077
 20
32.013295677
 10
114.5764565604
 20
30.1588359297
 10
114.6437282754
 20
28.3729888648
 10
114.7170424801
 20
26.7198064805
  0
LINE
  5
2D4
100
AcDbEntity
  8
RACCORDO
100
AcDbLine
 62
7
  6
CONTINUOUS
 10
114.2799318211
 20
30.3074741596
 30
0.0
 11
114.2799318211
 21
30.8861871797
 31
0.0
  0
LWPOLYLINE
  5
2D5
100
AcDbEntity
  8
RACCORDO
100
AcDbPolyline
 62
7
  6
CONTINUOUS
 90
10
 70
0
 10
114.7170065255
 20
62.7402175404
 10
114.643485673
 20
60.9940539945
 10
114.5762564613
 20
59.1280056683
 10
114.5180766055
 20
57.2041287131
 10
114.4686700528
 20
55.222364371
 10
114.4275193269
 20
53.182501173
 10
114.3943898154
 20
51.0844213578
 10
114.3699118447
 20
48.9285242662
 10
114.3548122429
 20
46.7152948824
 10
114.3498184161
 20
44.5110385662
  0
LINE
  5
2D6
100
AcDbEntity
  8
RACCORDO
100
AcDbLine
 62
250
  6
CONTINUOUS
 10
97.2822154825
 20
38.7845201636
 30
0.0
 11
98.3700292444
 21
39.4936525094
 31
0.0
  0
LINE
  5
2D7
100
AcDbEntity
  8
RACCORDO
100
AcDbLine
 62
7
  6
CONTINUOUS
 10
98.3215278336
 20
39.3974507826
 30
0.0
 11
97.3347539714
 21
38.7541850986
 31
0.0
  0
LINE
  5
2D8
100
AcDbEntity
  8
SMUSSO
100
AcDbLine
 62
7
  6
CONTINUOUS
 10
98.3700292444
 20
40.0723655296
 30
0.0
 11
98.3356085214
 21
40.0502931121
 31
0.0
  0
LINE
  5
2D9
100
AcDbEntity
  8
DRAFT
100
AcDbLine
 62
7
  6
CONTINUOUS
 10
98.1345938559
 20
39.9213917046
 30
0.0
 11
98.0005840789
 21
39.835457433
 31
0.0
  0
LINE
  5
2DA
100
AcDbEntity
  8
DRAFT
100
AcDbLine
 62
7
  6
CONTINUOUS
 10
97.7995694133
 20
39.7065560256
 30
0.0
 11
97.6655596363
 21
39.620621754
 31
0.0
  0
LINE
  5
2DB
100
AcDbEntity
  8
DRAFT
100
AcDbLine
 62
7
  6
CONTINUOUS
 10
97.4645449708
 20
39.4917203465
 30
0.0
 11
97.3305351938
 21
39.4057860749
 31
0.0
  0
LINE
  5
2DC
100
AcDbEntity
  8
DRAFT
100
AcDbLine
 62
7
  6
CONTINUOUS
 10
97.1295205283
 20
39.2768846675
 30
0.0
 11
96.9955107513
 21
39.1909503959
 31
0.0
  0
LINE
  5
2DD
100
AcDbEntity
  8
0
100
AcDbLine
 62
7
  6
CONTINUOUS
 10
95.0567664481
 20
34.8613020422
 30
0.0
 11
95.1134675097
 21
34.8940405245
 31
0.0
  0
LINE
  5
2DE
100
AcDbEntity
  8
RACCORDO
100
AcDbLine
 62
7
  6
CONTINUOUS
 10
112.5933354343
 20
64.3990701782
 30
0.0
 11
114.3224905169
 21
63.4518009565
 31
0.0
  0
LINE
  5
2DF
100
AcDbEntity
  8
RACCORDO
100
AcDbLine
 62
7
  6
CONTINUOUS
 10
110.8134221226
 20
65.3800714553
 30
0.0
 11
112.5933354343
 21
64.3990701782
 31
0.0
  0
LINE
  5
2E0
100
AcDbEntity
  8
RACCORDO
100
AcDbLine
 62
7
  6
CONTINUOUS
 10
109.041344782
 20
66.3627954167
 30
0.0
 11
110.8134221226
 21
65.3800714553
 31
0.0
  0
LINE
  5
2E1
100
AcDbEntity
  8
RACCORDO
100
AcDbLine
 62
7
  6
CONTINUOUS
 10
107.2771122726
 20
67.3472286966
 30
0.0
 11
109.041344782
 21
66.3627954167
 31
0.0
  0
LINE
  5
2E2
100
AcDbEntity
  8
RACCORDO
100
AcDbLine
 62
250
  6
CONTINUOUS
 10
106.5008798202
 20
67.8993687302
 30
0.0
 11
106.3890947806
 21
67.9620275425
 31
0.0
  0
LINE
  5
2E3
100
AcDbEntity
  8
RACCORDO
100
AcDbLine
 62
7
  6
CONTINUOUS
 10
105.6085407817
 20
68.2839127753
 30
0.0
 11
107.2771122726
 21
67.3472286966
 31
0.0
  0
LINE
  5
2E4
100
AcDbEntity
  8
RACCORDO
100
AcDbLine
 62
7
  6
CONTINUOUS
 10
103.8123277823
 20
69.2984318351
 30
0.0
 11
105.6085407817
 21
68.2839127753
 31
0.0
  0
LINE
  5
2E5
100
AcDbEntity
  8
RACCORDO
100
AcDbLine
 62
7
  6
CONTINUOUS
 10
102.0217940898
 20
70.3161810865
 30
0.0
 11
103.8123277823
 21
69.2984318351
 31
0.0
  0
LWPOLYLINE
  5
2E6
100
AcDbEntity
  8
RACCORDO
100
AcDbPolyline
 62
7
  6
CONTINUOUS
 90
18
 70
0
 10
114.3225133107
 20
63.4517885108
 10
114.3371236848
 20
63.4434395065
 10
114.357966812
 20
63.4302845003
 10
114.3797867512
 20
63.4149751586
 10
114.4022457639
 20
63.3975797596
 10
114.4251542085
 20
63.3781018921
 10
114.4483334426
 20
63.3565588108
 10
114.4714815241
 20
63.3331155458
 10
114.4944204799
 20
63.3078582904
 10
114.5169789064
 20
63.2808895316
 10
114.5388996656
 20
63.2524506469
 10
114.5600249291
 20
63.2227039838
 10
114.5802261515
 20
63.1917972363
 10
114.5993302346
 20
63.159978663
 10
114.6172301807
 20
63.1274297929
 10
114.6338275156
 20
63.0943461103
 10
114.6490001953
 20
63.061015433
 10
114.6585089279
 20
63.038225633
  0
LINE
  5
2E7
100
AcDbEntity
  8
RACCORDO
100
AcDbLine
 62
7
  6
CONTINUOUS
 10
100.2369572641
 20
71.3371505716
 30
0.0
 11
102.0217940898
 21
70.3161810865
 31
0.0
  0
LINE
  5
2E8
100
AcDbEntity
  8
RACCORDO
100
AcDbLine
 62
7
  6
CONTINUOUS
 10
98.5101140636
 20
72.3311420997
 30
0.0
 11
100.2369572641
 21
71.3371505716
 31
0.0
  0
LINE
  5
2E9
100
AcDbEntity
  8
RACCORDO
100
AcDbLine
 62
250
  6
CONTINUOUS
 10
98.560327168
 20
72.4182443457
 30
0.0
 11
98.4483427604
 21
72.4828016333
 31
0.0
  0
LINE
  5
2EA
100
AcDbEntity
  8
RACCORDO
100
AcDbLine
 62
7
  6
CONTINUOUS
 10
86.5066104715
 20
78.9909908022
 30
0.0
 11
86.0116357247
 21
79.2767830175
 31
0.0
  0
LINE
  5
2EB
100
AcDbEntity
  8
RACCORDO
100
AcDbLine
 62
7
  6
CONTINUOUS
 10
87.0713268312
 20
78.9873328654
 30
0.0
 11
86.7177734406
 21
79.191470162
 31
0.0
  0
LINE
  5
2EC
100
AcDbEntity
  8
RACCORDO
100
AcDbLine
 62
7
  6
CONTINUOUS
 10
96.7933705459
 20
73.3254176522
 30
0.0
 11
98.510114064
 21
72.3311420995
 31
0.0
  0
LINE
  5
2ED
100
AcDbEntity
  8
RACCORDO
100
AcDbLine
 62
7
  6
CONTINUOUS
 10
95.0253819451
 20
74.3557878308
 30
0.0
 11
96.7933705459
 21
73.3254176522
 31
0.0
  0
LINE
  5
2EE
100
AcDbEntity
  8
RACCORDO
100
AcDbLine
 62
7
  6
CONTINUOUS
 10
93.2631644426
 20
75.3893354816
 30
0.0
 11
95.0253819451
 21
74.3557878308
 31
0.0
  0
LINE
  5
2EF
100
AcDbEntity
  8
RACCORDO
100
AcDbLine
 62
7
  6
CONTINUOUS
 10
91.5067353145
 20
76.426050494
 30
0.0
 11
93.2631644426
 21
75.3893354816
 31
0.0
  0
LINE
  5
2F0
100
AcDbEntity
  8
RACCORDO
100
AcDbLine
 62
250
  6
CONTINUOUS
 10
90.7326857497
 20
77.0000966602
 30
0.0
 11
90.6206135601
 21
77.0665509737
 31
0.0
  0
LINE
  5
2F1
100
AcDbEntity
  8
RACCORDO
100
AcDbLine
 62
7
  6
CONTINUOUS
 10
89.8852384483
 20
77.3889950673
 30
0.0
 11
91.5067353145
 21
76.426050494
 31
0.0
  0
LINE
  5
2F2
100
AcDbEntity
  8
RACCORDO
100
AcDbLine
 62
7
  6
CONTINUOUS
 10
88.1812645452
 20
78.4070445306
 30
0.0
 11
89.8852384483
 21
77.3889950673
 31
0.0
  0
LINE
  5
2F3
100
AcDbEntity
  8
RACCORDO
100
AcDbLine
 62
7
  6
CONTINUOUS
 10
86.4804337966
 20
79.4295183578
 30
0.0
 11
88.1812645452
 21
78.4070445306
 31
0.0
  0
LINE
  5
2F4
100
AcDbEntity
  8
RACCORDO
100
AcDbLine
 62
7
  6
CONTINUOUS
 10
84.7827698662
 20
80.4564112122
 30
0.0
 11
86.4804337966
 21
79.4295183578
 31
0.0
  0
LINE
  5
2F5
100
AcDbEntity
  8
RACCORDO
100
AcDbLine
 62
250
  6
CONTINUOUS
 10
83.1897428774
 20
81.5398426172
 30
0.0
 11
83.0776946626
 21
81.6081369211
 31
0.0
  0
LINE
  5
2F6
100
AcDbEntity
  8
RACCORDO
100
AcDbLine
 62
7
  6
CONTINUOUS
 10
83.1390779391
 20
81.4567183217
 30
0.0
 11
84.7827698662
 21
80.4564112122
 31
0.0
  0
LWPOLYLINE
  5
2F7
100
AcDbEntity
  8
RACCORDO
100
AcDbPolyline
 62
7
  6
CONTINUOUS
 90
12
 70
0
 10
114.6585100002
 20
63.0382229667
 10
114.6685545336
 20
63.0121174973
 10
114.679693222
 20
62.979977355
 10
114.6894227678
 20
62.9480384585
 10
114.6976781351
 20
62.9166196738
 10
114.7044611234
 20
62.8858890626
 10
114.7097841652
 20
62.8560301673
 10
114.7136580253
 20
62.8273812268
 10
114.7161519964
 20
62.8000801307
 10
114.7173490003
 20
62.7742753918
 10
114.7173528886
 20
62.7502942784
 10
114.7170072212
 20
62.7402329009
  0
LINE
  5
2F8
100
AcDbEntity
  8
DRAFT
100
AcDbLine
 62
7
  6
CONTINUOUS
 10
108.4310592942
 20
32.3432550687
 30
0.0
 11
108.5426839958
 21
32.5237572845
 31
0.0
  0
LINE
  5
2F9
100
AcDbEntity
  8
DRAFT
100
AcDbLine
 62
7
  6
CONTINUOUS
 10
108.8031416328
 20
32.536693983
 30
0.0
 11
108.9147663344
 21
32.7171961988
 31
0.0
  0
LINE
  5
2FA
100
AcDbEntity
  8
DRAFT
100
AcDbLine
 62
7
  6
CONTINUOUS
 10
109.1752239715
 20
32.7301328973
 30
0.0
 11
109.2868486731
 21
32.9106351131
 31
0.0
  0
LINE
  5
2FB
100
AcDbEntity
  8
DRAFT
100
AcDbLine
 62
7
  6
CONTINUOUS
 10
109.5473063102
 20
32.9235718116
 30
0.0
 11
109.6589310118
 21
33.1040740274
 31
0.0
  0
LINE
  5
2FC
100
AcDbEntity
  8
DRAFT
100
AcDbLine
 62
7
  6
CONTINUOUS
 10
109.9193886488
 20
33.1170107258
 30
0.0
 11
110.0310133504
 21
33.2975129416
 31
0.0
  0
LINE
  5
2FD
100
AcDbEntity
  8
0
100
AcDbLine
 62
7
  6
CONTINUOUS
 10
95.455186103
 20
34.6285016152
 30
0.0
 11
95.5118869231
 21
34.6612399581
 31
0.0
  0
LINE
  5
2FE
100
AcDbEntity
  8
0
100
AcDbLine
 62
7
  6
CONTINUOUS
 10
96.1359432172
 20
34.2315133417
 30
0.0
 11
96.1926436994
 21
34.2642514895
 31
0.0
  0
LINE
  5
2FF
100
AcDbEntity
  8
0
100
AcDbLine
 62
7
  6
CONTINUOUS
 10
96.503174372
 20
34.0177698663
 30
0.0
 11
96.5598747105
 21
34.0505079311
 31
0.0
  0
LINE
  5
300
100
AcDbEntity
  8
0
100
AcDbLine
 62
7
  6
CONTINUOUS
 10
96.6396039396
 20
33.9385492914
 30
0.0
 11
96.6963042294
 21
33.9712873281
 31
0.0
  0
LINE
  5
301
100
AcDbEntity
  8
0
100
AcDbLine
 62
7
  6
CONTINUOUS
 10
97.0074261076
 20
33.7248555515
 30
0.0
 11
97.0641262892
 21
33.7575935257
 31
0.0
  0
LINE
  5
302
100
AcDbEntity
  8
0
100
AcDbLine
 62
7
  6
CONTINUOUS
 10
97.3647891552
 20
33.5173988589
 30
0.0
 11
97.4214892575
 21
33.5501367874
 31
0.0
  0
LINE
  5
303
100
AcDbEntity
  8
0
100
AcDbLine
 62
7
  6
CONTINUOUS
 10
96.0688186496
 20
32.3821276918
 30
0.0
 11
96.1255548568
 21
32.4148864668
 31
0.0
  0
LINE
  5
304
100
AcDbEntity
  8
0
100
AcDbLine
 62
7
  6
CONTINUOUS
 10
97.7327945551
 20
33.3041636642
 30
0.0
 11
97.7894945975
 21
33.336901558
 31
0.0
  0
LINE
  5
305
100
AcDbEntity
  8
0
100
AcDbLine
 62
7
  6
CONTINUOUS
 10
98.4662617234
 20
32.8800191177
 30
0.0
 11
98.5229617153
 21
32.9127569824
 31
0.0
  0
LINE
  5
306
100
AcDbEntity
  8
0
100
AcDbLine
 62
7
  6
CONTINUOUS
 10
97.1388652396
 20
31.7596642446
 30
0.0
 11
97.1956010597
 21
31.7924227961
 31
0.0
  0
LINE
  5
307
100
AcDbEntity
  8
0
100
AcDbLine
 62
7
  6
CONTINUOUS
 10
98.831400018
 20
32.66929126
 30
0.0
 11
98.8881000174
 21
32.702029129
 31
0.0
  0
LINE
  5
308
100
AcDbEntity
  8
0
100
AcDbLine
 62
7
  6
CONTINUOUS
 10
97.6892231525
 20
31.4404578668
 30
0.0
 11
97.7459588571
 21
31.4732163516
 31
0.0
  0
LINE
  5
309
100
AcDbEntity
  8
0
100
AcDbLine
 62
7
  6
CONTINUOUS
 10
99.6100414209
 20
32.2208568311
 30
0.0
 11
99.6667415102
 21
32.2535947521
 31
0.0
  0
LINE
  5
30A
100
AcDbEntity
  8
0
100
AcDbLine
 62
7
  6
CONTINUOUS
 10
98.2527317595
 20
31.114287096
 30
0.0
 11
98.3094674008
 21
31.1470455442
 31
0.0
  0
LINE
  5
30B
100
AcDbEntity
  8
0
100
AcDbLine
 62
7
  6
CONTINUOUS
 10
99.9677920441
 20
32.0152463912
 30
0.0
 11
100.02449221
 21
32.0479843564
 31
0.0
  0
LINE
  5
30C
100
AcDbEntity
  8
DRAFT
100
AcDbLine
 62
7
  6
CONTINUOUS
 10
85.0560725048
 20
73.2037616423
 30
0.0
 11
84.8439404705
 21
73.1973432332
 31
0.0
  0
LINE
  5
30D
100
AcDbEntity
  8
DRAFT
100
AcDbLine
 62
7
  6
CONTINUOUS
 10
85.4096258954
 20
73.429293636
 30
0.0
 11
85.197493861
 21
73.4228752269
 31
0.0
  0
LINE
  5
30E
100
AcDbEntity
  8
DRAFT
100
AcDbLine
 62
7
  6
CONTINUOUS
 10
85.763179286
 20
73.6548256297
 30
0.0
 11
85.5510472516
 21
73.6484072206
 31
0.0
  0
LINE
  5
30F
100
AcDbEntity
  8
DRAFT
100
AcDbLine
 62
7
  6
CONTINUOUS
 10
86.1167326766
 20
73.8803576234
 30
0.0
 11
85.9046006422
 21
73.8739392143
 31
0.0
  0
LINE
  5
310
100
AcDbEntity
  8
DRAFT
100
AcDbLine
 62
7
  6
CONTINUOUS
 10
86.4702860672
 20
74.1058896171
 30
0.0
 11
86.2581540328
 21
74.099471208
 31
0.0
  0
LINE
  5
311
100
AcDbEntity
  8
RACCORDO
100
AcDbLine
 62
7
  6
CONTINUOUS
 10
87.0713268312
 20
78.9227639335
 30
0.0
 11
86.5066104715
 21
78.9909908022
 31
0.0
  0
LINE
  5
312
100
AcDbEntity
  8
RACCORDO
100
AcDbLine
 62
250
  6
CONTINUOUS
 10
114.2799318211
 20
30.3068113674
 30
0.0
 11
114.551604652
 21
30.9504663303
 31
0.0
  0
LINE
  5
313
100
AcDbEntity
  8
RACCORDO
100
AcDbLine
 62
7
  6
CONTINUOUS
 10
114.5505298738
 20
30.9213077037
 30
0.0
 11
114.2706360985
 21
30.2581754468
 31
0.0
  0
LINE
  5
314
100
AcDbEntity
  8
RACCORDO
100
AcDbLine
 62
7
  6
CONTINUOUS
 10
114.2799318211
 20
30.8861871797
 30
0.0
 11
114.5031746066
 21
31.4094098903
 31
0.0
  0
LWPOLYLINE
  5
315
100
AcDbEntity
  8
RACCORDO
100
AcDbPolyline
 62
7
  6
CONTINUOUS
 90
4
 70
0
 10
114.7069880813
 20
26.6303886545
 10
114.705876659
 20
26.6280535458
 10
114.7054872704
 20
26.6273517672
 10
114.7066915835
 20
26.6289256368
  0
LINE
  5
316
100
AcDbEntity
  8
DRAFT
100
AcDbLine
 62
7
  6
CONTINUOUS
 10
112.8049059952
 20
29.8178508007
 30
0.0
 11
112.905413328
 21
30.004772046
 31
0.0
  0
LINE
  5
317
100
AcDbEntity
  8
DRAFT
100
AcDbLine
 62
7
  6
CONTINUOUS
 10
113.1399304377
 20
30.0326864798
 30
0.0
 11
113.2404377705
 21
30.219607725
 31
0.0
  0
LINE
  5
318
100
AcDbEntity
  8
DRAFT
100
AcDbLine
 62
7
  6
CONTINUOUS
 10
113.4749548803
 20
30.2475221588
 30
0.0
 11
113.575462213
 21
30.4344434041
 31
0.0
  0
LINE
  5
319
100
AcDbEntity
  8
DRAFT
100
AcDbLine
 62
7
  6
CONTINUOUS
 10
113.8099793228
 20
30.4623578379
 30
0.0
 11
113.9104866556
 21
30.6492790831
 31
0.0
  0
LINE
  5
31A
100
AcDbEntity
  8
DRAFT
100
AcDbLine
 62
7
  6
CONTINUOUS
 10
114.1450037653
 20
30.6771935169
 30
0.0
 11
114.2455110981
 21
30.8641147622
 31
0.0
  0
LINE
  5
31B
100
AcDbEntity
  8
0
100
AcDbLine
 62
7
  6
CONTINUOUS
 10
100.6220043878
 20
31.617742811
 30
0.0
 11
100.6787051408
 21
31.6504811152
 31
0.0
  0
LINE
  5
31C
100
AcDbEntity
  8
0
100
AcDbLine
 62
7
  6
CONTINUOUS
 10
99.6806887128
 20
30.9574839324
 30
0.0
 11
99.7374111403
 21
30.9902347512
 31
0.0
  0
LINE
  5
31D
100
AcDbEntity
  8
0
100
AcDbLine
 62
7
  6
CONTINUOUS
 10
99.1282384789
 20
30.6088511012
 30
0.0
 11
99.1849741256
 21
30.6416095525
 31
0.0
  0
LINE
  5
31E
100
AcDbEntity
  8
0
100
AcDbLine
 62
7
  6
CONTINUOUS
 10
99.5516648441
 20
30.3649810553
 30
0.0
 11
99.6084005387
 21
30.3977395343
 31
0.0
  0
LINE
  5
31F
100
AcDbEntity
  8
0
100
AcDbLine
 62
250
  6
CONTINUOUS
 10
101.5380701633
 20
31.0737050822
 30
0.0
 11
101.5947716841
 21
31.1064438297
 31
0.0
  0
LINE
  5
320
100
AcDbEntity
  8
0
100
AcDbLine
 62
7
  6
CONTINUOUS
 10
101.0335574883
 20
30.5610052687
 30
0.0
 11
101.0902731534
 21
30.5937521829
 31
0.0
  0
LINE
  5
321
100
AcDbEntity
  8
0
100
AcDbLine
 62
250
  6
CONTINUOUS
 10
101.2453974267
 20
30.4398244721
 30
0.0
 11
101.3021131885
 21
30.4725714421
 31
0.0
  0
LINE
  5
322
100
AcDbEntity
  8
0
100
AcDbLine
 62
7
  6
CONTINUOUS
 10
100.643255446
 20
29.7380126384
 30
0.0
 11
100.6999914093
 21
29.7707712725
 31
0.0
  0
LINE
  5
323
100
AcDbEntity
  8
0
100
AcDbLine
 62
7
  6
CONTINUOUS
 10
101.6414586931
 20
30.0465463487
 30
0.0
 11
101.6546628313
 21
30.0541702526
 31
0.0
  0
LINE
  5
324
100
AcDbEntity
  8
0
100
AcDbLine
 62
7
  6
CONTINUOUS
 10
101.121006696
 20
29.4643907002
 30
0.0
 11
101.1777428464
 21
29.4971494424
 31
0.0
  0
LINE
  5
325
100
AcDbEntity
  8
0
100
AcDbLine
 62
250
  6
CONTINUOUS
 10
101.8816029125
 20
29.5392548274
 30
0.0
 11
101.9383292357
 21
29.5720078955
 31
0.0
  0
LINE
  5
326
100
AcDbEntity
  8
0
100
AcDbLine
 62
7
  6
CONTINUOUS
 10
102.0458170352
 20
28.9360684705
 30
0.0
 11
102.102553675
 21
28.9688274952
 31
0.0
  0
LINE
  5
327
100
AcDbEntity
  8
SMUSSO
100
AcDbLine
 62
7
  6
CONTINUOUS
 10
110.0692414361
 20
33.3173870357
 30
0.0
 11
110.0310133504
 21
33.2975129416
 31
0.0
  0
LINE
  5
328
100
AcDbEntity
  8
DRAFT
100
AcDbLine
 62
7
  6
CONTINUOUS
 10
109.8077639472
 20
33.1814495931
 30
0.0
 11
109.6589310118
 21
33.1040740274
 31
0.0
  0
LINE
  5
329
100
AcDbEntity
  8
DRAFT
100
AcDbLine
 62
7
  6
CONTINUOUS
 10
109.4356816086
 20
32.9880106788
 30
0.0
 11
109.2868486731
 21
32.9106351131
 31
0.0
  0
LINE
  5
32A
100
AcDbEntity
  8
DRAFT
100
AcDbLine
 62
7
  6
CONTINUOUS
 10
109.0635992699
 20
32.7945717645
 30
0.0
 11
108.9147663344
 21
32.7171961988
 31
0.0
  0
LINE
  5
32B
100
AcDbEntity
  8
DRAFT
100
AcDbLine
 62
7
  6
CONTINUOUS
 10
108.6915169313
 20
32.6011328502
 30
0.0
 11
108.5426839958
 21
32.5237572845
 31
0.0
  0
LINE
  5
32C
100
AcDbEntity
  8
RACCORDO
100
AcDbLine
 62
250
  6
CONTINUOUS
 10
85.0912931074
 20
78.8626998826
 30
0.0
 11
84.8476432489
 21
78.8037699319
 31
0.0
  0
LINE
  5
32D
100
AcDbEntity
  8
RACCORDO
100
AcDbLine
 62
7
  6
CONTINUOUS
 10
85.1481808605
 20
78.8921036903
 30
0.0
 11
84.8476432489
 21
78.8194146818
 31
0.0
  0
LINE
  5
32E
100
AcDbEntity
  8
DRAFT
100
AcDbLine
 62
7
  6
CONTINUOUS
 10
85.0560725048
 20
78.2412452589
 30
0.0
 11
84.8439404705
 21
78.247663668
 31
0.0
  0
LINE
  5
32F
100
AcDbEntity
  8
DRAFT
100
AcDbLine
 62
7
  6
CONTINUOUS
 10
85.4096258954
 20
78.4239878586
 30
0.0
 11
85.197493861
 21
78.4304062677
 31
0.0
  0
LINE
  5
330
100
AcDbEntity
  8
DRAFT
100
AcDbLine
 62
7
  6
CONTINUOUS
 10
85.763179286
 20
78.6067304582
 30
0.0
 11
85.5510472516
 21
78.6131488673
 31
0.0
  0
LINE
  5
331
100
AcDbEntity
  8
DRAFT
100
AcDbLine
 62
7
  6
CONTINUOUS
 10
86.1167326766
 20
78.7894730578
 30
0.0
 11
85.9046006422
 21
78.7958914669
 31
0.0
  0
LINE
  5
332
100
AcDbEntity
  8
DRAFT
100
AcDbLine
 62
7
  6
CONTINUOUS
 10
86.4702860672
 20
78.9722156575
 30
0.0
 11
86.2581540328
 21
78.9786340666
 31
0.0
  0
LINE
  5
333
100
AcDbEntity
  8
RACCORDO
100
AcDbLine
 62
250
  6
CONTINUOUS
 10
86.7177734406
 20
79.191470162
 30
0.0
 11
86.0116357247
 21
79.2767830175
 31
0.0
  0
LINE
  5
334
100
AcDbEntity
  8
RACCORDO
100
AcDbLine
 62
7
  6
CONTINUOUS
 10
85.9640489944
 20
79.2931602309
 30
0.0
 11
86.6724459252
 21
79.2075744257
 31
0.0
  0
LINE
  5
335
100
AcDbEntity
  8
RACCORDO
100
AcDbLine
 62
250
  6
CONTINUOUS
 10
113.2880610955
 20
29.542945507
 30
0.0
 11
113.4219993345
 21
29.6836143192
 31
0.0
  0
LINE
  5
336
100
AcDbEntity
  8
RACCORDO
100
AcDbLine
 62
7
  6
CONTINUOUS
 10
113.3016050093
 20
29.535125421
 30
0.0
 11
113.4773372093
 21
29.7196883958
 31
0.0
  0
LINE
  5
337
100
AcDbEntity
  8
RACCORDO
100
AcDbLine
 62
250
  6
CONTINUOUS
 10
113.1921180592
 20
29.5983418138
 30
0.0
 11
114.2799318211
 21
30.3074741596
 31
0.0
  0
LINE
  5
338
100
AcDbEntity
  8
RACCORDO
100
AcDbLine
 62
7
  6
CONTINUOUS
 10
114.2314304103
 20
30.2112724328
 30
0.0
 11
113.2446565481
 21
29.5680067487
 31
0.0
  0
LINE
  5
339
100
AcDbEntity
  8
SMUSSO
100
AcDbLine
 62
7
  6
CONTINUOUS
 10
114.2799318211
 20
30.8861871797
 30
0.0
 11
114.2455110981
 21
30.8641147622
 31
0.0
  0
LINE
  5
33A
100
AcDbEntity
  8
DRAFT
100
AcDbLine
 62
7
  6
CONTINUOUS
 10
114.0444964326
 20
30.7352133548
 30
0.0
 11
113.9104866556
 21
30.6492790831
 31
0.0
  0
LINE
  5
33B
100
AcDbEntity
  8
DRAFT
100
AcDbLine
 62
7
  6
CONTINUOUS
 10
113.70947199
 20
30.5203776757
 30
0.0
 11
113.575462213
 21
30.4344434041
 31
0.0
  0
LINE
  5
33C
100
AcDbEntity
  8
DRAFT
100
AcDbLine
 62
7
  6
CONTINUOUS
 10
113.3744475475
 20
30.3055419966
 30
0.0
 11
113.2404377705
 21
30.219607725
 31
0.0
  0
LINE
  5
33D
100
AcDbEntity
  8
DRAFT
100
AcDbLine
 62
7
  6
CONTINUOUS
 10
113.039423105
 20
30.0907063176
 30
0.0
 11
112.905413328
 21
30.004772046
 31
0.0
  0
LWPOLYLINE
  5
33E
100
AcDbEntity
  8
RACCORDO
100
AcDbPolyline
 62
7
  6
CONTINUOUS
 90
11
 70
0
 10
83.0428668668
 20
81.4917757451
 10
83.0436750359
 20
81.491862172
 10
83.0471122754
 20
81.4919484436
 10
83.0529466492
 20
81.4915397824
 10
83.0612334294
 20
81.4902252511
 10
83.0719917774
 20
81.4876144639
 10
83.0848977904
 20
81.483439242
 10
83.0994317917
 20
81.4776112647
 10
83.1152719009
 20
81.4700848518
 10
83.1322550443
 20
81.4607891905
 10
83.1389595849
 20
81.4567906712
  0
LINE
  5
33F
100
AcDbEntity
  8
RACCORDO
100
AcDbLine
 62
250
  6
CONTINUOUS
 10
107.6949922506
 20
84.6341850186
 30
0.0
 11
107.7253128319
 21
84.6171723867
 31
0.0
  0
LINE
  5
340
100
AcDbEntity
  8
RACCORDO
100
AcDbLine
 62
250
  6
CONTINUOUS
 10
91.9568316114
 20
93.7216958179
 30
0.0
 11
91.986295945
 21
93.7041893892
 31
0.0
  0
LINE
  5
341
100
AcDbEntity
  8
RACCORDO
100
AcDbLine
 62
250
  6
CONTINUOUS
 10
92.1400530526
 20
94.0338609303
 30
0.0
 11
92.1695077215
 21
94.0163602449
 31
0.0
  0
LWPOLYLINE
  5
342
100
AcDbEntity
  8
RACCORDO
100
AcDbPolyline
 62
7
  6
CONTINUOUS
 90
8
 70
0
 10
64.5189809225
 20
115.1197904822
 10
64.4659207342
 20
115.1497189644
 10
64.3594346348
 20
115.204698635
 10
64.2536396911
 20
115.2525259904
 10
64.1488234308
 20
115.2931668308
 10
64.0452133465
 20
115.3266375942
 10
63.9429847247
 20
115.352955392
 10
63.926312172
 20
115.3565996938
  0
LINE
  5
343
100
AcDbEntity
  8
RACCORDO
100
AcDbLine
 62
250
  6
CONTINUOUS
 10
145.5120825512
 20
68.3505990693
 30
0.0
 11
145.6765166335
 21
68.2562450345
 31
0.0
  0
LINE
  5
344
100
AcDbEntity
  8
RACCORDO
100
AcDbLine
 62
7
  6
CONTINUOUS
 10
145.6947043664
 20
68.2499451368
 30
0.0
 11
139.1184888778
 21
72.0367067414
 31
0.0
  0
LINE
  5
345
100
AcDbEntity
  8
RACCORDO
100
AcDbLine
 62
7
  6
CONTINUOUS
 10
139.1184888778
 20
72.0367067414
 30
0.0
 11
132.2026119951
 21
76.0239409823
 31
0.0
  0
LINE
  5
346
100
AcDbEntity
  8
RACCORDO
100
AcDbLine
 62
250
  6
CONTINUOUS
 10
112.9466341742
 20
87.1154314522
 30
0.0
 11
112.9816154331
 21
87.09524251
 31
0.0
  0
LINE
  5
347
100
AcDbEntity
  8
RACCORDO
100
AcDbLine
 62
7
  6
CONTINUOUS
 10
132.2026119951
 20
76.0239409823
 30
0.0
 11
120.9801313454
 21
82.4986877375
 31
0.0
  0
LINE
  5
348
100
AcDbEntity
  8
RACCORDO
100
AcDbLine
 62
250
  6
CONTINUOUS
 10
105.0623763557
 20
91.6665332566
 30
0.0
 11
105.0977003066
 21
91.6461376825
 31
0.0
  0
LINE
  5
349
100
AcDbEntity
  8
RACCORDO
100
AcDbLine
 62
7
  6
CONTINUOUS
 10
120.9801313454
 20
82.4986877375
 30
0.0
 11
103.2358721032
 21
92.7418195708
 31
0.0
  0
LINE
  5
34A
100
AcDbEntity
  8
RACCORDO
100
AcDbLine
 62
250
  6
CONTINUOUS
 10
97.1797912075
 20
96.2190089763
 30
0.0
 11
97.2147606454
 21
96.1988093924
 31
0.0
  0
LINE
  5
34B
100
AcDbEntity
  8
RACCORDO
100
AcDbLine
 62
7
  6
CONTINUOUS
 10
103.2358721032
 20
92.7418195708
 30
0.0
 11
81.6343237991
 21
105.2194007122
 31
0.0
  0
LINE
  5
34C
100
AcDbEntity
  8
RACCORDO
100
AcDbLine
 62
7
  6
CONTINUOUS
 10
81.6343237991
 20
105.2194007122
 30
0.0
 11
74.4917980065
 21
109.3480294954
 31
0.0
  0
LINE
  5
34D
100
AcDbEntity
  8
RACCORDO
100
AcDbLine
 62
7
  6
CONTINUOUS
 10
74.4917980065
 20
109.3480294954
 30
0.0
 11
67.8009994766
 21
113.2188677565
 31
0.0
  0
LINE
  5
34E
100
AcDbEntity
  8
RACCORDO
100
AcDbLine
 62
7
  6
CONTINUOUS
 10
67.8009994766
 20
113.2188677565
 30
0.0
 11
64.5189785031
 21
115.1197918851
 31
0.0
  0
LINE
  5
34F
100
AcDbEntity
  8
RACCORDO
100
AcDbLine
 62
250
  6
CONTINUOUS
 10
64.5006422361
 20
115.1261558714
 30
0.0
 11
64.6809421455
 21
115.0214542408
 31
0.0
  0
LINE
  5
350
100
AcDbEntity
  8
RACCORDO
100
AcDbLine
 62
250
  6
CONTINUOUS
 10
143.118114295
 20
11.8019101635
 30
0.0
 11
143.124679152
 21
11.670384109
 31
0.0
  0
LINE
  5
351
100
AcDbEntity
  8
RACCORDO
100
AcDbLine
 62
250
  6
CONTINUOUS
 10
143.1246727575
 20
48.4115496233
 30
0.0
 11
143.1181205604
 21
48.272436448
 31
0.0
  0
LWPOLYLINE
  5
352
100
AcDbEntity
  8
RACCORDO
100
AcDbPolyline
 62
7
  6
CONTINUOUS
 90
31
 70
0
 10
147.5827860824
 20
64.976937204
 10
147.5822534977
 20
65.0369033918
 10
147.5768993498
 20
65.1610839504
 10
147.5658508533
 20
65.2873331015
 10
147.5492292848
 20
65.4152348284
 10
147.5271659513
 20
65.5444738015
 10
147.4997629416
 20
65.6748124528
 10
147.4671298506
 20
65.8059063234
 10
147.4293887143
 20
65.9373951133
 10
147.3866412968
 20
66.0690108181
 10
147.3390204444
 20
66.2004043193
 10
147.2866786563
 20
66.33121008
 10
147.2297502952
 20
66.4611281898
 10
147.1684066524
 20
66.5897996414
 10
147.1028237189
 20
66.7168762569
 10
147.0331534914
 20
66.8420748701
 10
146.9595884022
 20
66.9650489751
 10
146.8823276304
 20
67.0854563193
 10
146.8015395146
 20
67.2030219256
 10
146.7174322197
 20
67.3174122018
 10
146.6302322037
 20
67.4282981781
 10
146.5401263578
 20
67.5354069107
 10
146.4473556922
 20
67.6384205975
 10
146.3521565282
 20
67.7370407689
 10
146.254710448
 20
67.8310402807
 10
146.1552681153
 20
67.920129476
 10
146.0540747769
 20
68.0040327207
 10
145.9512862251
 20
68.0825345272
 10
145.8471217446
 20
68.1553481148
 10
145.7418882434
 20
68.2221549794
 10
145.6947031772
 20
68.2499458205
  0
LINE
  5
353
100
AcDbEntity
  8
RACCORDO
100
AcDbLine
 62
250
  6
CONTINUOUS
 10
147.5768120954
 20
1.5599977461
 30
0.0
 11
147.5779560123
 21
1.2704533178
 31
0.0
  0
LINE
  5
354
100
AcDbEntity
  8
RACCORDO
100
AcDbLine
 62
7
  6
CONTINUOUS
 10
147.5827861116
 20
1.2923265229
 30
0.0
 11
147.5748187381
 21
6.9688110038
 31
0.0
  0
LINE
  5
355
100
AcDbEntity
  8
RACCORDO
100
AcDbLine
 62
250
  6
CONTINUOUS
 10
147.5532838569
 20
14.7764175744
 30
0.0
 11
147.5533151603
 21
14.7387572133
 31
0.0
  0
LINE
  5
356
100
AcDbEntity
  8
RACCORDO
100
AcDbLine
 62
7
  6
CONTINUOUS
 10
147.5748187381
 20
6.9688110038
 30
0.0
 11
147.5691057214
 21
13.175369027
 31
0.0
  0
LINE
  5
357
100
AcDbEntity
  8
RACCORDO
100
AcDbLine
 62
7
  6
CONTINUOUS
 10
147.5691057214
 20
13.175369027
 30
0.0
 11
147.5656054984
 21
24.3511088799
 31
0.0
  0
LINE
  5
358
100
AcDbEntity
  8
RACCORDO
100
AcDbLine
 62
250
  6
CONTINUOUS
 10
147.5473001434
 20
33.1449197753
 30
0.0
 11
147.547300119
 21
33.1041305341
 31
0.0
  0
LINE
  5
359
100
AcDbEntity
  8
RACCORDO
100
AcDbLine
 62
7
  6
CONTINUOUS
 10
147.5656054984
 20
24.3511088799
 30
0.0
 11
147.565139063
 21
37.6421447142
 31
0.0
  0
LINE
  5
35A
100
AcDbEntity
  8
RACCORDO
100
AcDbLine
 62
7
  6
CONTINUOUS
 10
147.565139063
 20
37.6421447142
 30
0.0
 11
147.5675262045
 21
49.7771712914
 31
0.0
  0
LINE
  5
35B
100
AcDbEntity
  8
RACCORDO
100
AcDbLine
 62
250
  6
CONTINUOUS
 10
147.55334665
 20
51.5096410106
 30
0.0
 11
147.5533151603
 21
51.4719676927
 31
0.0
  0
LINE
  5
35C
100
AcDbEntity
  8
RACCORDO
100
AcDbLine
 62
7
  6
CONTINUOUS
 10
147.5675262045
 20
49.7771712914
 30
0.0
 11
147.5716379914
 21
56.3076576407
 31
0.0
  0
LINE
  5
35D
100
AcDbEntity
  8
RACCORDO
100
AcDbLine
 62
7
  6
CONTINUOUS
 10
147.5716379914
 20
56.3076576407
 30
0.0
 11
147.5827861078
 21
64.9769465643
 31
0.0
  0
LINE
  5
35E
100
AcDbEntity
  8
RACCORDO
100
AcDbLine
 62
250
  6
CONTINUOUS
 10
147.5779045295
 20
64.9551052462
 30
0.0
 11
147.5768916424
 21
64.6873443026
 31
0.0
  0
LINE
  5
35F
100
AcDbEntity
  8
RACCORDO
100
AcDbLine
 62
7
  6
CONTINUOUS
 10
63.9263160019
 20
115.3565990395
 30
0.0
 11
63.9263590491
 21
115.3565898678
 31
0.0
  0
LINE
  5
360
100
AcDbEntity
  8
SUPERFICI
100
AcDbLine
 62
7
  6
CONTINUOUS
 10
62.6387124124
 20
115.632963991
 30
0.0
 11
63.9263592523
 21
115.3565898246
 31
0.0
  0
LWPOLYLINE
  5
361
100
AcDbEntity
  8
SUPERFICI
100
AcDbPolyline
 62
7
  6
CONTINUOUS
 90
3
 70
0
 10
146.8987620297
 20
-1.1421849256
 10
146.8982878432
 20
-1.1437842193
 10
146.8977237606
 20
-1.1452615294
  0
LWPOLYLINE
  5
362
100
AcDbEntity
  8
RACCORDO
100
AcDbPolyline
 62
7
  6
CONTINUOUS
 90
8
 70
0
 10
147.4759399955
 20
0.6127174828
 10
147.4977257884
 20
0.6779372538
 10
147.5259838195
 20
0.7803005607
 10
147.5486863685
 20
0.8874862259
 10
147.5657270901
 20
0.9993439548
 10
147.5769762301
 20
1.1156787662
 10
147.5823200538
 20
1.2362173217
 10
147.5827861052
 20
1.2923289489
  0
LINE
  5
363
100
AcDbEntity
  8
SUPERFICI
100
AcDbLine
 62
7
  6
CONTINUOUS
 10
146.8988130943
 20
-1.1422279025
 30
0.0
 11
146.8977734572
 21
-1.1453034894
 31
0.0
  0
LWPOLYLINE
  5
364
100
AcDbEntity
  8
SUPERFICI
100
AcDbPolyline
 62
7
  6
CONTINUOUS
 90
3
 70
0
 10
147.4758605428
 20
0.6124939134
 10
147.4333952187
 20
0.4939639718
 10
146.9795418271
 20
-0.7852634134
  0
LINE
  5
365
100
AcDbEntity
  8
RACCORDO
100
AcDbLine
 62
7
  6
CONTINUOUS
 10
147.4759397385
 20
0.612714777
 30
0.0
 11
147.4758603627
 21
0.6124934113
 31
0.0
  0
LINE
  5
366
100
AcDbEntity
  8
RACCORDO
100
AcDbLine
 62
7
  6
CONTINUOUS
 10
143.7769302455
 20
-2.8290379141
 30
0.0
 11
143.775805742
 21
-2.8294520176
 31
0.0
  0
LINE
  5
367
100
AcDbEntity
  8
SUPERFICI
100
AcDbLine
 62
7
  6
CONTINUOUS
 10
146.1276320222
 20
-1.9647202902
 30
0.0
 11
143.7758107529
 21
-2.8294501752
 31
0.0
  0
ARC
  5
368
100
AcDbEntity
  8
0
100
AcDbCircle
 62
7
  6
CONTINUOUS
 10
297.8324312061
 20
33.410974616
 30
0.0
 40
200.1529082133
100
AcDbArc
 50
180.2102805067
 51
180.5640893161
  0
ARC
  5
369
100
AcDbEntity
  8
0
100
AcDbCircle
 62
7
  6
CONTINUOUS
 10
297.2470982035
 20
33.44293863
 30
0.0
 40
199.5108628782
100
AcDbArc
 50
180.2692456368
 51
180.565676501
  0
ARC
  5
36A
100
AcDbEntity
  8
0
100
AcDbCircle
 62
7
  6
CONTINUOUS
 10
295.1251072138
 20
29.6439139337
 30
0.0
 40
197.798248941
100
AcDbArc
 50
178.8779044964
 51
179.4204310165
  0
ARC
  5
36B
100
AcDbEntity
  8
0
100
AcDbCircle
 62
7
  6
CONTINUOUS
 10
284.8185662128
 20
-30.7829272737
 30
0.0
 40
196.926768449
100
AcDbArc
 50
161.1384565279
 51
161.4085452878
  0
ARC
  5
36C
100
AcDbEntity
  8
0
100
AcDbCircle
 62
7
  6
CONTINUOUS
 10
283.6099627576
 20
-31.9070862506
 30
0.0
 40
195.7779266969
100
AcDbArc
 50
160.9338772615
 51
161.2219903827
  0
ARC
  5
36D
100
AcDbEntity
  8
0
100
AcDbCircle
 62
7
  6
CONTINUOUS
 10
282.9606232646
 20
-31.6289293366
 30
0.0
 40
195.0304396346
100
AcDbArc
 50
160.9460846201
 51
161.2234737803
  0
ARC
  5
36E
100
AcDbEntity
  8
0
100
AcDbCircle
 62
7
  6
CONTINUOUS
 10
280.5341636727
 20
-15.728384691
 30
0.0
 40
190.6360011023
100
AcDbArc
 50
164.8736572509
 51
165.3822906847
  0
ARC
  5
36F
100
AcDbEntity
  8
0
100
AcDbCircle
 62
7
  6
CONTINUOUS
 10
283.6482409514
 20
-16.0591826523
 30
0.0
 40
190.265659274
100
AcDbArc
 50
165.3004306068
 51
165.7928820433
  0
ARC
  5
370
100
AcDbEntity
  8
0
100
AcDbCircle
 62
7
  6
CONTINUOUS
 10
285.0800274193
 20
-9.0296501392
 30
0.0
 40
189.662557412
100
AcDbArc
 50
167.6360473536
 51
167.8288248656
  0
ARC
  5
371
100
AcDbEntity
  8
0
100
AcDbCircle
 62
7
  6
CONTINUOUS
 10
279.6473423969
 20
-15.4416695655
 30
0.0
 40
189.6588950121
100
AcDbArc
 50
164.8733451899
 51
165.3845902481
  0
ARC
  5
372
100
AcDbEntity
  8
0
100
AcDbCircle
 62
7
  6
CONTINUOUS
 10
284.7175935477
 20
-8.9025217527
 30
0.0
 40
189.2329250024
100
AcDbArc
 50
167.6788335901
 51
167.8300009079
  0
ARC
  5
373
100
AcDbEntity
  8
0
100
AcDbCircle
 62
7
  6
CONTINUOUS
 10
280.5254105265
 20
-7.5056403537
 30
0.0
 40
189.054134187
100
AcDbArc
 50
167.2458389546
 51
167.6036470382
  0
ARC
  5
374
100
AcDbEntity
  8
RACCORDO
100
AcDbCircle
 62
250
  6
CONTINUOUS
 10
286.0140177396
 20
48.1139369313
 30
0.0
 40
142.5716750503
100
AcDbArc
 50
174.2070664621
 51
174.3395754568
  0
ARC
  5
375
100
AcDbEntity
  8
RACCORDO
100
AcDbCircle
 62
250
  6
CONTINUOUS
 10
284.0402465089
 20
48.3038173545
 30
0.0
 40
140.2157974004
100
AcDbArc
 50
174.2007876041
 51
174.3351623921
  0
ARC
  5
376
100
AcDbEntity
  8
RACCORDO
100
AcDbCircle
 62
250
  6
CONTINUOUS
 10
253.5130879909
 20
11.3283175063
 30
0.0
 40
110.0592620545
100
AcDbArc
 50
186.3897513223
 51
186.5418520731
  0
ARC
  5
377
100
AcDbEntity
  8
RACCORDO
100
AcDbCircle
 62
250
  6
CONTINUOUS
 10
251.9419261413
 20
11.1396525555
 30
0.0
 40
108.1053941499
100
AcDbArc
 50
186.3950652933
 51
186.5494903181
  0
ARC
  5
378
100
AcDbEntity
  8
SUPERFICI
100
AcDbCircle
 62
7
  6
CONTINUOUS
 10
86.9436323285
 20
69.2483815583
 30
0.0
 40
60.3104785364
100
AcDbArc
 50
354.2506494439
 51
354.5742020502
  0
ARC
  5
379
100
AcDbEntity
  8
SUPERFICI
100
AcDbCircle
 62
7
  6
CONTINUOUS
 10
104.9473076542
 20
-4.6240064532
 30
0.0
 40
42.2750716614
100
AcDbArc
 50
6.0888465543
 51
6.4988119289
  0
ARC
  5
37A
100
AcDbEntity
  8
SUPERFICI
100
AcDbCircle
 62
7
  6
CONTINUOUS
 10
128.9439366812
 20
37.6704913201
 30
0.0
 40
34.4414970481
100
AcDbArc
 50
63.5708890677
 51
63.9449305801
  0
ARC
  5
37B
100
AcDbEntity
  8
SUPERFICI
100
AcDbCircle
 62
7
  6
CONTINUOUS
 10
47.9379886904
 20
92.7796940106
 30
0.0
 40
27.2156654881
100
AcDbArc
 50
55.7124572062
 51
56.1500576303
  0
ARC
  5
37C
100
AcDbEntity
  8
0
100
AcDbCircle
 62
7
  6
CONTINUOUS
 10
116.4266992886
 20
32.9613702042
 30
0.0
 40
14.8701561809
100
AcDbArc
 50
195.316693115
 51
195.5746506966
  0
ARC
  5
37D
100
AcDbEntity
  8
RACCORDO
100
AcDbCircle
 62
250
  6
CONTINUOUS
 10
143.5296879505
 20
0.7224634426
 30
0.0
 40
3.5892209613
100
AcDbArc
 50
243.8849530288
 51
245.4703457563
  0
ARC
  5
37E
100
AcDbEntity
  8
RACCORDO
100
AcDbCircle
 62
250
  6
CONTINUOUS
 10
143.4819669255
 20
0.6182082158
 30
0.0
 40
3.4745630754
100
AcDbArc
 50
245.4725060152
 51
246.140618237
  0
ARC
  5
37F
100
AcDbEntity
  8
RACCORDO
100
AcDbCircle
 62
250
  6
CONTINUOUS
 10
144.3447111077
 20
65.9384255598
 30
0.0
 40
2.6731929893
100
AcDbArc
 50
57.4706777847
 51
59.2619640614
  0
ARC
  5
380
100
AcDbEntity
  8
RACCORDO
100
AcDbCircle
 62
250
  6
CONTINUOUS
 10
144.9675971931
 20
64.9654114525
 30
0.0
 40
2.6103276822
100
AcDbArc
 50
359.7737817898
 51
1.2041165504
  0
ARC
  5
381
100
AcDbEntity
  8
RACCORDO
100
AcDbCircle
 62
250
  6
CONTINUOUS
 10
144.3865822386
 20
66.0084335152
 30
0.0
 40
2.5916193336
100
AcDbArc
 50
59.2665353167
 51
60.1511701987
  0
ARC
  5
382
100
AcDbEntity
  8
RACCORDO
100
AcDbCircle
 62
250
  6
CONTINUOUS
 10
63.2436173975
 20
112.962957723
 30
0.0
 40
2.5019068076
100
AcDbArc
 50
59.8393190054
 51
61.0749459755
  0
ARC
  5
383
100
AcDbEntity
  8
SUPERFICI
100
AcDbCircle
 62
7
  6
CONTINUOUS
 10
61.8337796603
 20
113.858042086
 30
0.0
 40
1.9470933542
100
AcDbArc
 50
77.0097285436
 51
77.2419892297
  0
ARC
  5
384
100
AcDbEntity
  8
RACCORDO
100
AcDbCircle
 62
250
  6
CONTINUOUS
 10
63.543415279
 20
113.6238505361
 30
0.0
 40
1.7749613702
100
AcDbArc
 50
71.0656854039
 51
73.0567263072
  0
ARC
  5
385
100
AcDbEntity
  8
RACCORDO
100
AcDbCircle
 62
250
  6
CONTINUOUS
 10
63.5634996622
 20
113.6890516223
 30
0.0
 40
1.706737345
100
AcDbArc
 50
73.0638225585
 51
73.9849274376
  0
ARC
  5
386
100
AcDbEntity
  8
RACCORDO
100
AcDbCircle
 62
250
  6
CONTINUOUS
 10
63.5904847251
 20
113.7862727732
 30
0.0
 40
1.6058447581
100
AcDbArc
 50
73.9533647879
 51
77.1978887247
  0
ARC
  5
387
100
AcDbEntity
  8
RACCORDO
100
AcDbCircle
 62
250
  6
CONTINUOUS
 10
63.6062077407
 20
113.8542428569
 30
0.0
 40
1.5360803783
100
AcDbArc
 50
77.2079988083
 51
77.9701629652
  0
ARC
  5
388
100
AcDbEntity
  8
RACCORDO
100
AcDbCircle
 62
250
  6
CONTINUOUS
 10
113.5449823898
 20
62.5603688371
 30
0.0
 40
1.2789336711
100
AcDbArc
 50
24.2834918936
 51
26.6183918462
  0
ARC
  5
389
100
AcDbEntity
  8
RACCORDO
100
AcDbCircle
 62
250
  6
CONTINUOUS
 10
113.5659963029
 20
62.5697794754
 30
0.0
 40
1.2559088913
100
AcDbArc
 50
21.8942357237
 51
24.2864119322
  0
ARC
  5
38A
100
AcDbEntity
  8
0
100
AcDbCircle
 62
7
  6
CONTINUOUS
 10
101.2648418226
 20
29.6687834276
 30
0.0
 40
0.5335115147
100
AcDbArc
 50
39.3928167802
 51
42.2255281019
  0
ARC
  5
38B
100
AcDbEntity
  8
0
100
AcDbCircle
 62
7
  6
CONTINUOUS
 10
101.3507836134
 20
29.7279120355
 30
0.0
 40
0.4941397875
100
AcDbArc
 50
41.9533030269
 51
43.3554261843
  0
ARC
  5
38C
100
AcDbEntity
  8
0
100
AcDbCircle
 62
7
  6
CONTINUOUS
 10
101.311775689
 20
29.7115215402
 30
0.0
 40
0.4700345791
100
AcDbArc
 50
42.2126236285
 51
45.4604372775
  0
ARC
  5
38D
100
AcDbEntity
  8
RACCORDO
100
AcDbCircle
 62
250
  6
CONTINUOUS
 10
549.5145972284
 20
63.0497126393
 30
0.0
 40
467.3987288929
100
AcDbArc
 50
179.999857562
 51
180.2074406598
  0
ARC
  5
38E
100
AcDbEntity
  8
RACCORDO
100
AcDbCircle
 62
250
  6
CONTINUOUS
 10
529.210302337
 20
62.950245739
 30
0.0
 40
447.0942057308
100
AcDbArc
 50
180.2080535021
 51
181.2642671561
  0
ARC
  5
38F
100
AcDbEntity
  8
0
100
AcDbCircle
 62
7
  6
CONTINUOUS
 10
374.2013500042
 20
124.9484307782
 30
0.0
 40
291.2619677318
100
AcDbArc
 50
198.3394142119
 51
198.6097249125
  0
ARC
  5
390
100
AcDbEntity
  8
0
100
AcDbCircle
 62
7
  6
CONTINUOUS
 10
373.5535180718
 20
125.4750691267
 30
0.0
 40
291.0623830829
100
AcDbArc
 50
198.5920276239
 51
198.9105504218
  0
ARC
  5
391
100
AcDbEntity
  8
0
100
AcDbCircle
 62
7
  6
CONTINUOUS
 10
374.0327013721
 20
124.91067556
 30
0.0
 40
291.0258843713
100
AcDbArc
 50
198.3402001833
 51
198.596629529
  0
ARC
  5
392
100
AcDbEntity
  8
0
100
AcDbCircle
 62
7
  6
CONTINUOUS
 10
360.3286634306
 20
113.3542305332
 30
0.0
 40
276.6411378515
100
AcDbArc
 50
196.4832818176
 51
196.9786435542
  0
ARC
  5
393
100
AcDbEntity
  8
0
100
AcDbCircle
 62
7
  6
CONTINUOUS
 10
362.9870701803
 20
108.7921139258
 30
0.0
 40
273.9960365766
100
AcDbArc
 50
196.2728340007
 51
196.7695383472
  0
ARC
  5
394
100
AcDbEntity
  8
0
100
AcDbCircle
 62
7
  6
CONTINUOUS
 10
362.5936575558
 20
108.6961745861
 30
0.0
 40
273.5278992276
100
AcDbArc
 50
196.2733795762
 51
196.7709320088
  0
ARC
  5
395
100
AcDbEntity
  8
0
100
AcDbCircle
 62
7
  6
CONTINUOUS
 10
353.5260906892
 20
104.3744585124
 30
0.0
 40
267.3295537299
100
AcDbArc
 50
195.1233997931
 51
195.4676488274
  0
ARC
  5
396
100
AcDbEntity
  8
0
100
AcDbCircle
 62
7
  6
CONTINUOUS
 10
353.303024156
 20
104.3352196438
 30
0.0
 40
267.0406970503
100
AcDbArc
 50
195.1241521629
 51
195.4465771734
  0
ARC
  5
397
100
AcDbEntity
  8
0
100
AcDbCircle
 62
7
  6
CONTINUOUS
 10
353.3220069237
 20
98.1027520113
 30
0.0
 40
262.0883265241
100
AcDbArc
 50
194.7033236226
 51
194.8903328438
  0
ARC
  5
398
100
AcDbEntity
  8
0
100
AcDbCircle
 62
7
  6
CONTINUOUS
 10
323.1658063051
 20
63.936550469
 30
0.0
 40
226.5029080225
100
AcDbArc
 50
187.9346490859
 51
188.4612372799
  0
ARC
  5
399
100
AcDbEntity
  8
0
100
AcDbCircle
 62
7
  6
CONTINUOUS
 10
322.6541906845
 20
63.8916119723
 30
0.0
 40
225.929310649
100
AcDbArc
 50
187.9350344534
 51
188.4629557004
  0
ARC
  5
39A
100
AcDbEntity
  8
0
100
AcDbCircle
 62
7
  6
CONTINUOUS
 10
317.4623837039
 20
58.535443486
 30
0.0
 40
220.4448483582
100
AcDbArc
 50
186.8775776708
 51
187.223377798
  0
ARC
  5
39B
100
AcDbEntity
  8
0
100
AcDbCircle
 62
7
  6
CONTINUOUS
 10
311.2527409764
 20
44.5447795814
 30
0.0
 40
210.6250081233
100
AcDbArc
 50
183.6663266403
 51
183.7978425946
  0
ARC
  5
39C
100
AcDbEntity
  8
0
100
AcDbCircle
 62
7
  6
CONTINUOUS
 10
306.9763199229
 20
46.7813584058
 30
0.0
 40
210.374448685
100
AcDbArc
 50
183.558243857
 51
184.0946642786
  0
ARC
  5
39D
100
AcDbEntity
  8
0
100
AcDbCircle
 62
7
  6
CONTINUOUS
 10
310.1176454969
 20
44.6656820377
 30
0.0
 40
209.9015777229
100
AcDbArc
 50
183.5639282228
 51
184.068337927
  0
ARC
  5
39E
100
AcDbEntity
  8
0
100
AcDbCircle
 62
7
  6
CONTINUOUS
 10
306.0552865022
 20
46.9580542179
 30
0.0
 40
209.8200077205
100
AcDbArc
 50
183.5575358997
 51
184.0953738061
  0
ARC
  5
39F
100
AcDbEntity
  8
0
100
AcDbCircle
 62
7
  6
CONTINUOUS
 10
306.402801269
 20
46.7758840309
 30
0.0
 40
209.7430731394
100
AcDbArc
 50
183.5585101234
 51
184.0965403281
  0
ARC
  5
3A0
100
AcDbEntity
  8
0
100
AcDbCircle
 62
7
  6
CONTINUOUS
 10
309.7818281162
 20
44.4051157927
 30
0.0
 40
209.1950374116
100
AcDbArc
 50
183.884755367
 51
184.0955556496
  0
ARC
  5
3A1
100
AcDbEntity
  8
0
100
AcDbCircle
 62
7
  6
CONTINUOUS
 10
309.5849552267
 20
44.4242976151
 30
0.0
 40
208.9411063546
100
AcDbArc
 50
183.9044037652
 51
184.0968089855
  0
ARC
  5
3A2
100
AcDbEntity
  8
RACCORDO
100
AcDbCircle
 62
250
  6
CONTINUOUS
 10
487.2038475899
 20
746.4306278786
 30
0.0
 40
778.0356851198
100
AcDbArc
 50
240.704557663
 51
241.3577258101
  0
ARC
  5
3A3
100
AcDbEntity
  8
RACCORDO
100
AcDbCircle
 62
250
  6
CONTINUOUS
 10
476.460778887
 20
727.2290280143
 30
0.0
 40
756.0330874297
100
AcDbArc
 50
240.0101517389
 51
240.6928426411
  0
ARC
  5
3A4
100
AcDbEntity
  8
RACCORDO
100
AcDbCircle
 62
250
  6
CONTINUOUS
 10
471.3720586552
 20
681.5018589583
 30
0.0
 40
746.2224487248
100
AcDbArc
 50
240.7180658514
 51
241.4086699655
  0
ARC
  5
3A5
100
AcDbEntity
  8
RACCORDO
100
AcDbCircle
 62
250
  6
CONTINUOUS
 10
471.4500332672
 20
681.6555766523
 30
0.0
 40
745.9621423864
100
AcDbArc
 50
240.7180415004
 51
241.4086222949
  0
ARC
  5
3A6
100
AcDbEntity
  8
RACCORDO
100
AcDbCircle
 62
250
  6
CONTINUOUS
 10
470.5142020622
 20
662.1678969417
 30
0.0
 40
741.4669300624
100
AcDbArc
 50
240.0084236539
 51
240.7036944418
  0
ARC
  5
3A7
100
AcDbEntity
  8
RACCORDO
100
AcDbCircle
 62
250
  6
CONTINUOUS
 10
468.3077524582
 20
713.0729424172
 30
0.0
 40
739.6970402885
100
AcDbArc
 50
239.3064802721
 51
239.9990260194
  0
ARC
  5
3A8
100
AcDbEntity
  8
RACCORDO
100
AcDbCircle
 62
250
  6
CONTINUOUS
 10
469.6243619461
 20
729.6931753041
 30
0.0
 40
739.6580085393
100
AcDbArc
 50
239.9990295617
 51
240.7041107882
  0
ARC
  5
3A9
100
AcDbEntity
  8
RACCORDO
100
AcDbCircle
 62
250
  6
CONTINUOUS
 10
469.6837137371
 20
729.7967540054
 30
0.0
 40
739.4154138468
100
AcDbArc
 50
239.9990295065
 51
240.7041100911
  0
ARC
  5
3AA
100
AcDbEntity
  8
0
100
AcDbCircle
 62
7
  6
CONTINUOUS
 10
471.4902429917
 20
730.8258417413
 30
0.0
 40
738.758952651
100
AcDbArc
 50
240.0002929382
 51
240.7060086798
  0
ARC
  5
3AB
100
AcDbEntity
  8
RACCORDO
100
AcDbCircle
 62
250
  6
CONTINUOUS
 10
462.0868584749
 20
702.5533188545
 30
0.0
 40
727.4756820026
100
AcDbArc
 50
238.6115008253
 51
239.2946242615
  0
ARC
  5
3AC
100
AcDbEntity
  8
RACCORDO
100
AcDbCircle
 62
250
  6
CONTINUOUS
 10
462.0829004038
 20
664.9753469268
 30
0.0
 40
726.8317190025
100
AcDbArc
 50
239.9990331512
 51
240.7189717577
  0
ARC
  5
3AD
100
AcDbEntity
  8
RACCORDO
100
AcDbCircle
 62
250
  6
CONTINUOUS
 10
461.7021599408
 20
664.2942307628
 30
0.0
 40
726.4839015595
100
AcDbArc
 50
239.9989193442
 51
240.6508394656
  0
ARC
  5
3AE
100
AcDbEntity
  8
RACCORDO
100
AcDbCircle
 62
250
  6
CONTINUOUS
 10
462.6802568773
 20
648.5657219207
 30
0.0
 40
725.7701250057
100
AcDbArc
 50
239.2938685329
 51
239.9990258782
  0
ARC
  5
3AF
100
AcDbEntity
  8
RACCORDO
100
AcDbCircle
 62
250
  6
CONTINUOUS
 10
461.7519603681
 20
716.0910733306
 30
0.0
 40
723.942041802
100
AcDbArc
 50
239.2850709817
 51
240.0003261472
  0
ARC
  5
3B0
100
AcDbEntity
  8
RACCORDO
100
AcDbCircle
 62
250
  6
CONTINUOUS
 10
461.8145985924
 20
716.2003302311
 30
0.0
 40
723.7060077909
100
AcDbArc
 50
239.2850723797
 51
240.0003259656
  0
ARC
  5
3B1
100
AcDbEntity
  8
0
100
AcDbCircle
 62
7
  6
CONTINUOUS
 10
462.3307336818
 20
714.9621412282
 30
0.0
 40
720.4408303568
100
AcDbArc
 50
239.2818548313
 51
240.0003415421
  0
ARC
  5
3B2
100
AcDbEntity
  8
RACCORDO
100
AcDbCircle
 62
250
  6
CONTINUOUS
 10
457.9190728805
 20
657.7310645605
 30
0.0
 40
718.9084894917
100
AcDbArc
 50
239.8489806751
 51
239.998482878
  0
ARC
  5
3B3
100
AcDbEntity
  8
RACCORDO
100
AcDbCircle
 62
250
  6
CONTINUOUS
 10
454.4636372214
 20
651.8112702689
 30
0.0
 40
711.6216625169
100
AcDbArc
 50
239.2701690345
 51
240.0003359125
  0
ARC
  5
3B4
100
AcDbEntity
  8
RACCORDO
100
AcDbCircle
 62
250
  6
CONTINUOUS
 10
455.070581787
 20
704.8803738274
 30
0.0
 40
710.8913596837
100
AcDbArc
 50
237.9922026217
 51
239.2837638631
  0
ARC
  5
3B5
100
AcDbEntity
  8
RACCORDO
100
AcDbCircle
 62
250
  6
CONTINUOUS
 10
453.7159561954
 20
650.5247881392
 30
0.0
 40
710.5660444645
100
AcDbArc
 50
239.2699041932
 51
239.8494377949
  0
ARC
  5
3B6
100
AcDbEntity
  8
RACCORDO
100
AcDbCircle
 62
250
  6
CONTINUOUS
 10
449.5324765583
 20
643.5183803061
 30
0.0
 40
701.9734311747
100
AcDbArc
 50
238.5516125958
 51
239.270264541
  0
ARC
  5
3B7
100
AcDbEntity
  8
RACCORDO
100
AcDbCircle
 62
250
  6
CONTINUOUS
 10
449.304500813
 20
643.1174635148
 30
0.0
 40
701.9445840483
100
AcDbArc
 50
238.5515114281
 51
239.1897066715
  0
SPLINE
  5
3B8
100
AcDbEntity
  8
SUPERFICI
100
AcDbSpline
 62
7
  6
CONTINUOUS
 70
0
 71
3
 72
9
 73
5
 74
0
 42
0.0000001
 43
0.0000001
 44
0.0000000001
 40
0.0
 40
0.0
 40
0.0
 40
0.0
 40
0.2734104851
 40
1.0
 40
1.0
 40
1.0
 40
1.0
 10
146.9838891496
 20
-0.1398681587
 30
0.0
 10
146.993621992
 20
-0.2314044634
 30
0.0
 10
147.0154001466
 20
-0.5669844372
 30
0.0
 10
146.976926441
 20
-0.9104050877
 30
0.0
 10
146.8988130943
 20
-1.1422279025
 30
0.0
  0
SPLINE
  5
3B9
100
AcDbEntity
  8
SUPERFICI
100
AcDbSpline
 62
7
  6
CONTINUOUS
 70
0
 71
3
 72
11
 73
7
 74
0
 42
0.0000001
 43
0.0000001
 44
0.0000000001
 40
0.0
 40
0.0
 40
0.0
 40
0.0
 40
0.2627209152
 40
0.5111212978
 40
0.7537073327
 40
1.0
 40
1.0
 40
1.0
 40
1.0
 10
146.8977734572
 20
-1.1453034894
 30
0.0
 10
146.8650834667
 20
-1.2417038878
 30
0.0
 10
146.7840961196
 20
-1.4241544831
 30
0.0
 10
146.609358141
 20
-1.6612339402
 30
0.0
 10
146.3886639048
 20
-1.8467762473
 30
0.0
 10
146.2171978865
 20
-1.9317882519
 30
0.0
 10
146.1276331549
 20
-1.9647198737
 30
0.0
  0
SPLINE
  5
3BA
100
AcDbEntity
  8
SUPERFICI
100
AcDbSpline
 62
7
  6
CONTINUOUS
 70
0
 71
3
 72
9
 73
5
 74
0
 42
0.0000001
 43
0.0000001
 44
0.0000000001
 40
0.0
 40
0.0
 40
0.0
 40
0.0
 40
0.5041925865
 40
1.0
 40
1.0
 40
1.0
 40
1.0
 10
145.5303940831
 20
30.8636510084
 30
0.0
 10
145.5303940831
 20
27.8376203167
 30
0.0
 10
145.5878080611
 20
21.8359078559
 30
0.0
 10
145.7688496129
 20
15.8358315436
 30
0.0
 10
145.9180635
 20
12.8638698931
 30
0.0
  0
SPLINE
  5
3BB
100
AcDbEntity
  8
SUPERFICI
100
AcDbSpline
 62
7
  6
CONTINUOUS
 70
0
 71
3
 72
9
 73
5
 74
0
 42
0.0000001
 43
0.0000001
 44
0.0000000001
 40
0.0
 40
0.0
 40
0.0
 40
0.0
 40
0.253367319
 40
1.0
 40
1.0
 40
1.0
 40
1.0
 10
145.9180635
 20
12.8638698931
 30
0.0
 10
145.9720428741
 20
11.7887378627
 30
0.0
 10
146.2172026454
 20
7.5470597097
 30
0.0
 10
146.5924266581
 20
3.3127282316
 30
0.0
 10
146.9507282792
 20
0.1607965496
 30
0.0
  0
SPLINE
  5
3BC
100
AcDbEntity
  8
SUPERFICI
100
AcDbSpline
 62
7
  6
CONTINUOUS
 70
0
 71
3
 72
13
 73
9
 74
0
 42
0.0000001
 43
0.0000001
 44
0.0000000001
 40
0.0
 40
0.0
 40
0.0
 40
0.0
 40
0.2333801938
 40
0.3542188248
 40
0.4778263713
 40
0.6042168625
 40
0.7334007077
 40
1.0
 40
1.0
 40
1.0
 40
1.0
 10
144.0718412139
 20
68.6117780315
 30
0.0
 10
141.3822542556
 20
69.926961677
 30
0.0
 10
137.3146873436
 20
71.9532422997
 30
0.0
 10
131.8593692034
 20
74.7487023909
 30
0.0
 10
127.6422023255
 20
76.9504620667
 30
0.0
 10
123.3460160486
 20
79.2319126432
 30
0.0
 10
117.4500343429
 20
82.4116337527
 30
0.0
 10
113.0048420054
 20
84.8655027414
 30
0.0
 10
110.0221406739
 20
86.5389482469
 30
0.0
  0
SPLINE
  5
3BD
100
AcDbEntity
  8
SUPERFICI
100
AcDbSpline
 62
7
  6
CONTINUOUS
 70
0
 71
3
 72
13
 73
9
 74
0
 42
0.0000001
 43
0.0000001
 44
0.0000000001
 40
0.0
 40
0.0
 40
0.0
 40
0.0
 40
0.2428317777
 40
0.3722990837
 40
0.5038047846
 40
0.6347599959
 40
0.7626193779
 40
1.0
 40
1.0
 40
1.0
 40
1.0
 10
146.9838891496
 20
63.5456298963
 30
0.0
 10
147.0293098146
 20
64.02537048
 30
0.0
 10
146.9604834001
 20
64.7774604423
 30
0.0
 10
146.6657611143
 20
65.7341260402
 30
0.0
 10
146.3381446643
 20
66.44238526
 30
0.0
 10
145.9207480461
 20
67.0980321704
 30
0.0
 10
145.283495248
 20
67.8502300279
 30
0.0
 10
144.6953336085
 20
68.3026694618
 30
0.0
 10
144.2735100573
 20
68.5123605731
 30
0.0
  0
SPLINE
  5
3BE
100
AcDbEntity
  8
SUPERFICI
100
AcDbSpline
 62
7
  6
CONTINUOUS
 70
0
 71
3
 72
9
 73
5
 74
0
 42
0.0000001
 43
0.0000001
 44
0.0000000001
 40
0.0
 40
0.0
 40
0.0
 40
0.0
 40
0.4975554147
 40
1.0
 40
1.0
 40
1.0
 40
1.0
 10
145.5303940831
 20
30.8636510084
 30
0.0
 10
145.5303940831
 20
33.9240626273
 30
0.0
 10
145.5896309115
 20
40.0749619804
 30
0.0
 10
145.7715669236
 20
46.2240927519
 30
0.0
 10
145.9180635
 20
49.3111030491
 30
0.0
  0
SPLINE
  5
3BF
100
AcDbEntity
  8
SUPERFICI
100
AcDbSpline
 62
7
  6
CONTINUOUS
 70
0
 71
3
 72
9
 73
5
 74
0
 42
0.0000001
 43
0.0000001
 44
0.0000000001
 40
0.0
 40
0.0
 40
0.0
 40
0.0
 40
0.2471908839
 40
1.0
 40
1.0
 40
1.0
 40
1.0
 10
145.9180635
 20
49.3111030491
 30
0.0
 10
145.9724903152
 20
50.4579976915
 30
0.0
 10
146.2243124365
 20
55.0961679458
 30
0.0
 10
146.6011148947
 20
59.7274446013
 30
0.0
 10
146.9507282792
 20
63.2066717949
 30
0.0
  0
SPLINE
  5
3C0
100
AcDbEntity
  8
SUPERFICI
100
AcDbSpline
 62
7
  6
CONTINUOUS
 70
0
 71
3
 72
13
 73
9
 74
0
 42
0.0000001
 43
0.0000001
 44
0.0000000001
 40
0.0
 40
0.0
 40
0.0
 40
0.0
 40
0.2270857395
 40
0.3463039424
 40
0.4693741878
 40
0.5962834794
 40
0.7270150084
 40
1.0
 40
1.0
 40
1.0
 40
1.0
 10
63.2698365727
 20
115.2658428244
 30
0.0
 10
65.5686233645
 20
113.6986133558
 30
0.0
 10
69.0953095569
 20
111.3392841935
 30
0.0
 10
73.915798828
 20
108.2034446834
 30
0.0
 10
77.7283275689
 20
105.7692013503
 30
0.0
 10
81.6788778353
 20
103.2892879365
 30
0.0
 10
87.2088424003
 20
99.8710746653
 30
0.0
 10
91.4433515695
 20
97.3144495251
 30
0.0
 10
94.318605793
 20
95.6059724756
 30
0.0
  0
SPLINE
  5
3C1
100
AcDbEntity
  8
0
100
AcDbSpline
 62
7
  6
CONTINUOUS
 70
0
 71
3
 72
11
 73
7
 74
0
 42
0.0000001
 43
0.0000001
 44
0.0000000001
 40
0.0
 40
0.0
 40
0.0
 40
0.0
 40
0.2112563222
 40
0.4443746853
 40
0.7068440387
 40
1.0
 40
1.0
 40
1.0
 40
1.0
 10
101.4534760273
 20
30.3971099576
 30
0.0
 10
101.4657951486
 20
30.4041731231
 30
0.0
 10
101.4874384911
 20
30.4265600948
 30
0.0
 10
101.5060892612
 20
30.4708434932
 30
0.0
 10
101.5151245558
 20
30.5234232942
 30
0.0
 10
101.5149559502
 20
30.5609584861
 30
0.0
 10
101.5134274596
 20
30.5806046009
 30
0.0
  0
SPLINE
  5
3C2
100
AcDbEntity
  8
0
100
AcDbSpline
 62
7
  6
CONTINUOUS
 70
0
 71
3
 72
13
 73
9
 74
0
 42
0.0000001
 43
0.0000001
 44
0.0000000001
 40
0.0
 40
0.0
 40
0.0
 40
0.0
 40
0.2359032625
 40
0.4739681683
 40
0.5939982701
 40
0.7163369878
 40
0.8480407154
 40
1.0
 40
1.0
 40
1.0
 40
1.0
 10
101.7465755042
 20
30.0842249608
 30
0.0
 10
101.7389148287
 20
30.0797961278
 30
0.0
 10
101.7229606123
 20
30.071871127
 30
0.0
 10
101.7022979313
 20
30.0634964283
 30
0.0
 10
101.6853385846
 20
30.0574180894
 30
0.0
 10
101.671776588
 20
30.0536158296
 30
0.0
 10
101.6563673074
 20
30.0530132087
 30
0.0
 10
101.645910481
 20
30.0558935615
 30
0.0
 10
101.6406788698
 20
30.0581563815
 30
0.0
  0
SPLINE
  5
3C3
100
AcDbEntity
  8
RACCORDO
100
AcDbSpline
 62
7
  6
CONTINUOUS
 70
0
 71
3
 72
9
 73
5
 74
0
 42
0.0000001
 43
0.0000001
 44
0.0000000001
 40
0.0
 40
0.0
 40
0.0
 40
0.0
 40
0.7462736492
 40
1.0
 40
1.0
 40
1.0
 40
1.0
 10
85.8978310266
 20
60.9158849009
 30
0.0
 10
85.9115075055
 20
60.9228289099
 30
0.0
 10
85.9323244018
 20
60.928153863
 30
0.0
 10
85.9528847123
 20
60.9270454842
 30
0.0
 10
85.9580592788
 20
60.9263981048
 30
0.0
  0
SPLINE
  5
3C4
100
AcDbEntity
  8
RACCORDO
100
AcDbSpline
 62
7
  6
CONTINUOUS
 70
0
 71
3
 72
9
 73
5
 74
0
 42
0.0000001
 43
0.0000001
 44
0.0000000001
 40
0.0
 40
0.0
 40
0.0
 40
0.0
 40
0.5013976288
 40
1.0
 40
1.0
 40
1.0
 40
1.0
 10
85.9640489848
 20
79.2931604915
 30
0.0
 10
85.9535874043
 20
79.2944232639
 30
0.0
 10
85.932211921
 20
79.293912384
 30
0.0
 10
85.9120161111
 20
79.2869080713
 30
0.0
 10
85.9027064886
 20
79.2820981267
 30
0.0
  0
SPLINE
  5
3C5
100
AcDbEntity
  8
RACCORDO
100
AcDbSpline
 62
7
  6
CONTINUOUS
 70
0
 71
3
 72
9
 73
5
 74
0
 42
0.0000001
 43
0.0000001
 44
0.0000000001
 40
0.0
 40
0.0
 40
0.0
 40
0.0
 40
0.253726338
 40
1.0
 40
1.0
 40
1.0
 40
1.0
 10
114.2706381398
 20
30.258178361
 30
0.0
 10
114.2686119336
 20
30.2533732845
 30
0.0
 10
114.2592932651
 20
30.2350129355
 30
0.0
 10
114.2442745239
 20
30.2196466645
 30
0.0
 10
114.2314233167
 20
30.2112738826
 30
0.0
  0
SPLINE
  5
3C6
100
AcDbEntity
  8
RACCORDO
100
AcDbSpline
 62
7
  6
CONTINUOUS
 70
0
 71
3
 72
9
 73
5
 74
0
 42
0.0000001
 43
0.0000001
 44
0.0000000001
 40
0.0
 40
0.0
 40
0.0
 40
0.0
 40
0.253726338
 40
1.0
 40
1.0
 40
1.0
 40
1.0
 10
98.3607355631
 20
39.4443567109
 30
0.0
 10
98.3587093569
 20
39.4395516344
 30
0.0
 10
98.3493906884
 20
39.4211912854
 30
0.0
 10
98.3343719472
 20
39.4058250144
 30
0.0
 10
98.32152074
 20
39.3974522325
 30
0.0
  0
SPLINE
  5
3C7
100
AcDbEntity
  8
SUPERFICI
100
AcDbSpline
 62
7
  6
CONTINUOUS
 70
0
 71
3
 72
11
 73
7
 74
0
 42
0.0000001
 43
0.0000001
 44
0.0000000001
 40
0.0
 40
0.0
 40
0.0
 40
0.0
 40
0.2470486287
 40
0.4900756517
 40
0.7383376557
 40
1.0
 40
1.0
 40
1.0
 40
1.0
 10
60.9380227807
 20
115.462570196
 30
0.0
 10
61.0269850116
 20
115.5367310347
 30
0.0
 10
61.2207752872
 20
115.6647771958
 30
0.0
 10
61.5504618473
 20
115.780910974
 30
0.0
 10
61.9050011786
 20
115.814991298
 30
0.0
 10
62.1441218247
 20
115.7841541301
 30
0.0
 10
62.2637636841
 20
115.7570645369
 30
0.0
  0
SPLINE
  5
3C8
100
AcDbEntity
  8
SUPERFICI
100
AcDbSpline
 62
7
  6
CONTINUOUS
 70
0
 71
3
 72
9
 73
5
 74
0
 42
0.0000001
 43
0.0000001
 44
0.0000000001
 40
0.0
 40
0.0
 40
0.0
 40
0.0
 40
0.2345455251
 40
1.0
 40
1.0
 40
1.0
 40
1.0
 10
62.2714582234
 20
115.7553059067
 30
0.0
 10
62.3407385887
 20
115.7393237683
 30
0.0
 10
62.6323933175
 20
115.6550417189
 30
0.0
 10
62.904936916
 20
115.5115248732
 30
0.0
 10
63.0976515771
 20
115.3822838871
 30
0.0
  0
SPLINE
  5
3C9
100
AcDbEntity
  8
0
100
AcDbSpline
 62
7
  6
CONTINUOUS
 70
0
 71
3
 72
11
 73
7
 74
0
 42
0.0000001
 43
0.0000001
 44
0.0000000001
 40
0.0
 40
0.0
 40
0.0
 40
0.0
 40
0.2314332705
 40
0.4908120805
 40
0.7546843593
 40
1.0
 40
1.0
 40
1.0
 40
1.0
 10
101.5134274749
 20
30.5806045923
 30
0.0
 10
101.5107859121
 20
30.6145573335
 30
0.0
 10
101.492916325
 20
30.6855224828
 30
0.0
 10
101.4443507559
 20
30.7861380011
 30
0.0
 10
101.3743005585
 20
30.8758888685
 30
0.0
 10
101.3177326277
 20
30.9258957192
 30
0.0
 10
101.2880845799
 20
30.9464886394
 30
0.0
  0
SPLINE
  5
3CA
100
AcDbEntity
  8
0
100
AcDbSpline
 62
7
  6
CONTINUOUS
 70
0
 71
3
 72
10
 73
6
 74
0
 42
0.0000001
 43
0.0000001
 44
0.0000000001
 40
0.0
 40
0.0
 40
0.0
 40
0.0
 40
0.5205292294
 40
0.7650857382
 40
1.0
 40
1.0
 40
1.0
 40
1.0
 10
101.2880845799
 20
30.9464886393
 30
0.0
 10
101.2411975732
 20
30.9790553837
 30
0.0
 10
101.1696653348
 20
31.0234284384
 30
0.0
 10
101.0711282689
 20
31.0717377844
 30
0.0
 10
101.0224388779
 20
31.0916851654
 30
0.0
 10
100.9984179586
 20
31.1009994012
 30
0.0
  0
SPLINE
  5
3CB
100
AcDbEntity
  8
0
100
AcDbSpline
 62
7
  6
CONTINUOUS
 70
0
 71
3
 72
9
 73
5
 74
0
 42
0.0000001
 43
0.0000001
 44
0.0000000001
 40
0.0
 40
0.0
 40
0.0
 40
0.0
 40
0.4981076161
 40
1.0
 40
1.0
 40
1.0
 40
1.0
 10
101.6888466306
 20
29.1397876159
 30
0.0
 10
101.6557569805
 20
29.2541828426
 30
0.0
 10
101.588136812
 20
29.4834404289
 30
0.0
 10
101.5237172141
 20
29.7138557947
 30
0.0
 10
101.4848553506
 20
29.8273779196
 30
0.0
  0
SPLINE
  5
3CC
100
AcDbEntity
  8
0
100
AcDbSpline
 62
7
  6
CONTINUOUS
 70
0
 71
3
 72
11
 73
7
 74
0
 42
0.0000001
 43
0.0000001
 44
0.0000000001
 40
0.0
 40
0.0
 40
0.0
 40
0.0
 40
0.2512722242
 40
0.5125611933
 40
0.7687958891
 40
1.0
 40
1.0
 40
1.0
 40
1.0
 10
101.48485537
 20
29.8273779169
 30
0.0
 10
101.4747872126
 20
29.85678872
 30
0.0
 10
101.4496546527
 20
29.9152576632
 30
0.0
 10
101.4006805367
 20
29.997186133
 30
0.0
 10
101.3397647673
 20
30.0677368309
 30
0.0
 10
101.2910321951
 20
30.1042962307
 30
0.0
 10
101.2662014894
 20
30.1184949649
 30
0.0
  0
LINE
  5
3CD
100
AcDbEntity
  8
0
100
AcDbLine
 62
7
  6
CONTINUOUS
 10
100.2531144245
 20
29.9618096943
 30
0.0
 11
100.1296015934
 21
30.4083175813
 31
0.0
  0
LINE
  5
3CE
100
AcDbEntity
  8
0
100
AcDbLine
 62
7
  6
CONTINUOUS
 10
101.3021131885
 20
30.4725714421
 30
0.0
 11
101.0902731534
 21
30.5937521829
 31
0.0
  0
SPLINE
  5
3CF
100
AcDbEntity
  8
RACCORDO
100
AcDbSpline
 62
250
  6
CONTINUOUS
 70
0
 71
3
 72
11
 73
7
 74
0
 42
0.0000001
 43
0.0000001
 44
0.0000000001
 40
0.0
 40
0.0
 40
0.0
 40
0.0
 40
0.2991635572
 40
0.557192462
 40
0.7834082664
 40
1.0
 40
1.0
 40
1.0
 40
1.0
 10
114.2605923786
 20
26.2772076862
 30
0.0
 10
114.3052112614
 20
26.252888576
 30
0.0
 10
114.3929254744
 20
26.2150119418
 30
0.0
 10
114.5265212111
 20
26.1950395374
 30
0.0
 10
114.6461930724
 20
26.2204833077
 30
0.0
 10
114.7077421189
 20
26.2686974767
 30
0.0
 10
114.7313212255
 20
26.2969384564
 30
0.0
  0
SPLINE
  5
3D0
100
AcDbEntity
  8
RACCORDO
100
AcDbSpline
 62
250
  6
CONTINUOUS
 70
0
 71
3
 72
9
 73
5
 74
0
 42
0.0000001
 43
0.0000001
 44
0.0000000001
 40
0.0
 40
0.0
 40
0.0
 40
0.0
 40
0.2532982322
 40
1.0
 40
1.0
 40
1.0
 40
1.0
 10
143.1246727575
 20
11.6703871676
 30
0.0
 10
143.1780537234
 20
10.6051291309
 30
0.0
 10
143.4198701912
 20
6.4012151095
 30
0.0
 10
143.7875111431
 20
2.2043810431
 30
0.0
 10
144.1375314547
 20
-0.9203067579
 30
0.0
  0
SPLINE
  5
3D1
100
AcDbEntity
  8
RACCORDO
100
AcDbSpline
 62
250
  6
CONTINUOUS
 70
0
 71
3
 72
18
 73
14
 74
0
 42
0.0000001
 43
0.0000001
 44
0.0000000001
 40
0.0
 40
0.0
 40
0.0
 40
0.0
 40
0.1403064193
 40
0.2645545916
 40
0.3217419953
 40
0.3764827117
 40
0.4297425203
 40
0.4826338767
 40
0.5363142381
 40
0.5918703669
 40
0.7117806359
 40
0.8473965199
 40
1.0
 40
1.0
 40
1.0
 40
1.0
 10
144.1704327321
 20
-1.2106180517
 30
0.0
 10
144.187920805
 20
-1.3607378568
 30
0.0
 10
144.1982430234
 20
-1.6473955571
 30
0.0
 10
144.1341178697
 20
-1.9921326261
 30
0.0
 10
144.0343103733
 20
-2.227138468
 30
0.0
 10
143.9394432532
 20
-2.378636064
 30
0.0
 10
143.8232348635
 20
-2.5084032987
 30
0.0
 10
143.6867993903
 20
-2.6148977014
 30
0.0
 10
143.5316109362
 20
-2.6968982663
 30
0.0
 10
143.2962128577
 20
-2.7744783949
 30
0.0
 10
142.9574453211
 20
-2.8022418943
 30
0.0
 10
142.5205440003
 20
-2.7316953633
 30
0.0
 10
142.2268639714
 20
-2.6259097879
 30
0.0
 10
142.0765292663
 20
-2.5594219626
 30
0.0
  0
LINE
  5
3D2
100
AcDbEntity
  8
RACCORDO
100
AcDbLine
 62
250
  6
CONTINUOUS
 10
141.905418302
 20
-2.4785942732
 30
0.0
 11
141.7504925048
 21
-2.4027413793
 31
0.0
  0
SPLINE
  5
3D3
100
AcDbEntity
  8
RACCORDO
100
AcDbSpline
 62
250
  6
CONTINUOUS
 70
0
 71
3
 72
13
 73
9
 74
0
 42
0.0000001
 43
0.0000001
 44
0.0000000001
 40
0.0
 40
0.0
 40
0.0
 40
0.0
 40
0.2531233833
 40
0.3788224088
 40
0.5039814302
 40
0.6286506366
 40
0.7528739047
 40
1.0
 40
1.0
 40
1.0
 40
1.0
 10
141.7504925048
 20
-2.4027413793
 30
0.0
 10
138.8435847751
 20
-0.980255462
 30
0.0
 10
134.5098559828
 20
1.1830873748
 30
0.0
 10
128.7799221559
 20
4.1307402672
 30
0.0
 10
124.5271527198
 20
6.3593375268
 30
0.0
 10
120.3063577081
 20
8.6080369384
 30
0.0
 10
114.7276422244
 20
11.6241270726
 30
0.0
 10
110.5718482927
 20
13.9204490566
 30
0.0
 10
107.8160768192
 20
15.466048573
 30
0.0
  0
SPLINE
  5
3D4
100
AcDbEntity
  8
RACCORDO
100
AcDbSpline
 62
250
  6
CONTINUOUS
 70
0
 71
3
 72
9
 73
5
 74
0
 42
0.0000001
 43
0.0000001
 44
0.0000000001
 40
0.0
 40
0.0
 40
0.0
 40
0.0
 40
0.5033913224
 40
1.0
 40
1.0
 40
1.0
 40
1.0
 10
142.73385707
 20
29.814853533
 30
0.0
 10
142.73385707
 20
26.7914043364
 30
0.0
 10
142.790968846
 20
20.7852632061
 30
0.0
 10
142.970725245
 20
14.7807510125
 30
0.0
 10
143.1185440842
 20
11.8017045654
 30
0.0
  0
SPLINE
  5
3D5
100
AcDbEntity
  8
RACCORDO
100
AcDbSpline
 62
250
  6
CONTINUOUS
 70
0
 71
3
 72
9
 73
5
 74
0
 42
0.0000001
 43
0.0000001
 44
0.0000000001
 40
0.0
 40
0.0
 40
0.0
 40
0.0
 40
0.456767926
 40
1.0
 40
1.0
 40
1.0
 40
1.0
 10
114.7313212255
 20
26.2969384564
 30
0.0
 10
114.7619401787
 20
26.3336156393
 30
0.0
 10
114.8072495067
 20
26.4321982291
 30
0.0
 10
114.8138936438
 20
26.538183035
 30
0.0
 10
114.8111819867
 20
26.5949404441
 30
0.0
  0
SPLINE
  5
3D6
100
AcDbEntity
  8
RACCORDO
100
AcDbSpline
 62
250
  6
CONTINUOUS
 70
0
 71
3
 72
9
 73
5
 74
0
 42
0.0000001
 43
0.0000001
 44
0.0000000001
 40
0.0
 40
0.0
 40
0.0
 40
0.0
 40
0.4966343796
 40
1.0
 40
1.0
 40
1.0
 40
1.0
 10
114.8111819867
 20
26.5949404441
 30
0.0
 10
114.6705370356
 20
29.5374493995
 30
0.0
 10
114.4988162905
 20
35.4675741274
 30
0.0
 10
114.4439962198
 20
41.3992229291
 30
0.0
 10
114.4439963083
 20
44.3850186739
 30
0.0
  0
LINE
  5
3D7
100
AcDbEntity
  8
RACCORDO
100
AcDbLine
 62
250
  6
CONTINUOUS
 10
141.9156203409
 20
67.0168973152
 30
0.0
 11
142.1145908291
 21
66.9197166147
 31
0.0
  0
SPLINE
  5
3D8
100
AcDbEntity
  8
RACCORDO
100
AcDbSpline
 62
250
  6
CONTINUOUS
 70
0
 71
3
 72
13
 73
9
 74
0
 42
0.0000001
 43
0.0000001
 44
0.0000000001
 40
0.0
 40
0.0
 40
0.0
 40
0.0
 40
0.2471152961
 40
0.3713355522
 40
0.4960036488
 40
0.6211629045
 40
0.7468643192
 40
1.0
 40
1.0
 40
1.0
 40
1.0
 10
107.9033531984
 20
84.9323289866
 30
0.0
 10
110.6652793718
 20
83.3827240224
 30
0.0
 10
114.830419691
 20
81.0804845506
 30
0.0
 10
120.4217511552
 20
78.0566231738
 30
0.0
 10
124.6521932107
 20
75.802103537
 30
0.0
 10
128.9147672301
 20
73.567733148
 30
0.0
 10
134.6579547952
 20
70.6121423707
 30
0.0
 10
139.0018649371
 20
68.443145947
 30
0.0
 10
141.9156203409
 20
67.0168973152
 30
0.0
  0
SPLINE
  5
3D9
100
AcDbEntity
  8
RACCORDO
100
AcDbSpline
 62
250
  6
CONTINUOUS
 70
0
 71
3
 72
13
 73
9
 74
0
 42
0.0000001
 43
0.0000001
 44
0.0000000001
 40
0.0
 40
0.0
 40
0.0
 40
0.0
 40
0.2379403901
 40
0.3663593282
 40
0.4978031845
 40
0.6295508986
 40
0.758858274
 40
1.0
 40
1.0
 40
1.0
 40
1.0
 10
142.1145909811
 20
66.9197190148
 30
0.0
 10
142.4936244868
 20
66.7319685502
 30
0.0
 10
143.0226896387
 20
66.3260166369
 30
0.0
 10
143.5952977542
 20
65.649838139
 30
0.0
 10
143.9693931731
 20
65.0598426119
 30
0.0
 10
144.2617113123
 20
64.423698595
 30
0.0
 10
144.5221972977
 20
63.568570235
 30
0.0
 10
144.5822959206
 20
62.8984026162
 30
0.0
 10
144.5421160943
 20
62.4716134149
 30
0.0
  0
SPLINE
  5
3DA
100
AcDbEntity
  8
RACCORDO
100
AcDbSpline
 62
250
  6
CONTINUOUS
 70
0
 71
3
 72
9
 73
5
 74
0
 42
0.0000001
 43
0.0000001
 44
0.0000000001
 40
0.0
 40
0.0
 40
0.0
 40
0.0
 40
0.5032016265
 40
1.0
 40
1.0
 40
1.0
 40
1.0
 10
143.4909289452
 20
48.2550746091
 30
0.0
 10
143.3461372475
 20
45.1636194915
 30
0.0
 10
143.1658847795
 20
39.0150588226
 30
0.0
 10
143.1070782003
 20
32.8647467942
 30
0.0
 10
143.1070798458
 20
29.8092847605
 30
0.0
  0
SPLINE
  5
3DB
100
AcDbEntity
  8
RACCORDO
100
AcDbSpline
 62
250
  6
CONTINUOUS
 70
0
 71
3
 72
9
 73
5
 74
0
 42
0.0000001
 43
0.0000001
 44
0.0000000001
 40
0.0
 40
0.0
 40
0.0
 40
0.0
 40
0.2527497752
 40
1.0
 40
1.0
 40
1.0
 40
1.0
 10
144.5092160827
 20
62.1443877484
 30
0.0
 10
144.3946111378
 20
60.9883865676
 30
0.0
 10
143.9696790754
 20
56.4119206174
 30
0.0
 10
143.6599373953
 20
51.8246571726
 30
0.0
 10
143.4974741855
 20
48.3940504637
 30
0.0
  0
SPLINE
  5
3DC
100
AcDbEntity
  8
RACCORDO
100
AcDbSpline
 62
7
  6
CONTINUOUS
 70
0
 71
3
 72
9
 73
5
 74
0
 42
0.0000001
 43
0.0000001
 44
0.0000000001
 40
0.0
 40
0.0
 40
0.0
 40
0.0
 40
0.2415442695
 40
1.0
 40
1.0
 40
1.0
 40
1.0
 10
85.9580592788
 20
60.9263981048
 30
0.0
 10
85.9620316075
 20
60.9259011349
 30
0.0
 10
85.9783602118
 20
60.9229269663
 30
0.0
 10
85.9939539731
 20
60.9164110114
 30
0.0
 10
86.0048401347
 20
60.9101254782
 30
0.0
  0
LINE
  5
3DD
100
AcDbEntity
  8
RACCORDO
100
AcDbLine
 62
250
  6
CONTINUOUS
 10
143.4974741855
 20
48.3940504637
 30
0.0
 11
143.4909289452
 21
48.2550746091
 31
0.0
  0
SPLINE
  5
3DE
100
AcDbEntity
  8
RACCORDO
100
AcDbSpline
 62
250
  6
CONTINUOUS
 70
0
 71
3
 72
9
 73
5
 74
0
 42
0.0000001
 43
0.0000001
 44
0.0000000001
 40
0.0
 40
0.0
 40
0.0
 40
0.0
 40
0.5000201453
 40
1.0
 40
1.0
 40
1.0
 40
1.0
 10
147.5533151603
 20
51.4719676927
 30
0.0
 10
147.5507718831
 20
48.4173374787
 30
0.0
 10
147.5481234668
 20
42.3083212705
 30
0.0
 10
147.5473037949
 20
36.1993049125
 30
0.0
 10
147.5473001434
 20
33.1449197753
 30
0.0
  0
SPLINE
  5
3DF
100
AcDbEntity
  8
RACCORDO
100
AcDbSpline
 62
250
  6
CONTINUOUS
 70
0
 71
3
 72
11
 73
7
 74
0
 42
0.0000001
 43
0.0000001
 44
0.0000000001
 40
0.0
 40
0.0
 40
0.0
 40
0.0
 40
0.2500801907
 40
0.5000913907
 40
0.750067166
 40
1.0
 40
1.0
 40
1.0
 40
1.0
 10
147.5768916424
 20
64.6873443026
 30
0.0
 10
147.5730341971
 20
63.5888550249
 30
0.0
 10
147.5691221126
 20
61.3921679362
 30
0.0
 10
147.5625139985
 20
58.0974487172
 30
0.0
 10
147.5567373795
 20
54.8033743271
 30
0.0
 10
147.5542677378
 20
52.6074893996
 30
0.0
 10
147.55334665
 20
51.5096410106
 30
0.0
  0
SPLINE
  5
3E0
100
AcDbEntity
  8
RACCORDO
100
AcDbSpline
 62
250
  6
CONTINUOUS
 70
0
 71
3
 72
15
 73
11
 74
0
 42
0.0000001
 43
0.0000001
 44
0.0000000001
 40
0.0
 40
0.0
 40
0.0
 40
0.0
 40
0.1158976956
 40
0.239749446
 40
0.3692054992
 40
0.5014702938
 40
0.6335327547
 40
0.7623958314
 40
0.8853120128
 40
1.0
 40
1.0
 40
1.0
 40
1.0
 10
145.7821702741
 20
68.1922383079
 30
0.0
 10
145.9050102868
 20
68.1139102678
 30
0.0
 10
146.1464439395
 20
67.9315327914
 30
0.0
 10
146.4783691737
 20
67.6056552385
 30
0.0
 10
146.7830473418
 20
67.2273619645
 30
0.0
 10
147.0500817781
 20
66.8094339735
 30
0.0
 10
147.2705207544
 20
66.365989013
 30
0.0
 10
147.4369104655
 20
65.9119518403
 30
0.0
 10
147.5437989007
 20
65.4627596748
 30
0.0
 10
147.5743303419
 20
65.1644011429
 30
0.0
 10
147.5773484529
 20
65.0202655347
 30
0.0
  0
SPLINE
  5
3E1
100
AcDbEntity
  8
RACCORDO
100
AcDbSpline
 62
250
  6
CONTINUOUS
 70
0
 71
3
 72
9
 73
5
 74
0
 42
0.0000001
 43
0.0000001
 44
0.0000000001
 40
0.0
 40
0.0
 40
0.0
 40
0.0
 40
0.4999150765
 40
1.0
 40
1.0
 40
1.0
 40
1.0
 10
112.9816154331
 20
87.09524251
 30
0.0
 10
118.4002941466
 20
83.9679316149
 30
0.0
 10
129.2406691035
 20
77.7142889325
 30
0.0
 10
140.0850314272
 20
71.4675469362
 30
0.0
 10
145.5121256204
 20
68.3505928451
 30
0.0
  0
SPLINE
  5
3E2
100
AcDbEntity
  8
RACCORDO
100
AcDbSpline
 62
250
  6
CONTINUOUS
 70
0
 71
3
 72
9
 73
5
 74
0
 42
0.0000001
 43
0.0000001
 44
0.0000000001
 40
0.0
 40
0.0
 40
0.0
 40
0.0
 40
0.2517739043
 40
1.0
 40
1.0
 40
1.0
 40
1.0
 10
105.0977003066
 20
91.6461376825
 30
0.0
 10
105.7564085813
 20
91.2658089899
 30
0.0
 10
108.3727356029
 20
89.7553132315
 30
0.0
 10
110.9892779017
 20
88.2451903289
 30
0.0
 10
112.9472047189
 20
87.1155570554
 30
0.0
  0
SPLINE
  5
3E3
100
AcDbEntity
  8
RACCORDO
100
AcDbSpline
 62
250
  6
CONTINUOUS
 70
0
 71
3
 72
13
 73
9
 74
0
 42
0.0000001
 43
0.0000001
 44
0.0000000001
 40
0.0
 40
0.0
 40
0.0
 40
0.0
 40
0.2921853247
 40
0.5463783551
 40
0.6629331656
 40
0.7753309498
 40
0.8866163563
 40
1.0
 40
1.0
 40
1.0
 40
1.0
 10
144.5421160929
 20
-1.1909749455
 30
0.0
 10
144.5620234485
 20
-1.3800202293
 30
0.0
 10
144.5670687189
 20
-1.7386466918
 30
0.0
 10
144.4581805228
 20
-2.1638485843
 30
0.0
 10
144.3008899803
 20
-2.4380207365
 30
0.0
 10
144.1547086749
 20
-2.6062519144
 30
0.0
 10
143.9789838893
 20
-2.7399099119
 30
0.0
 10
143.8461445182
 20
-2.8035129455
 30
0.0
 10
143.77693447
 20
-2.8290335271
 30
0.0
  0
SPLINE
  5
3E4
100
AcDbEntity
  8
RACCORDO
100
AcDbSpline
 62
250
  6
CONTINUOUS
 70
0
 71
3
 72
9
 73
5
 74
0
 42
0.0000001
 43
0.0000001
 44
0.0000000001
 40
0.0
 40
0.0
 40
0.0
 40
0.0
 40
0.5033736055
 40
1.0
 40
1.0
 40
1.0
 40
1.0
 10
143.1070798458
 20
29.8092847605
 30
0.0
 10
143.1070810512
 20
26.787909461
 30
0.0
 10
143.1640690578
 20
20.7856759977
 30
0.0
 10
143.3434828029
 20
14.7850694184
 30
0.0
 10
143.4909289452
 20
11.807841453
 30
0.0
  0
SPLINE
  5
3E5
100
AcDbEntity
  8
RACCORDO
100
AcDbSpline
 62
250
  6
CONTINUOUS
 70
0
 71
3
 72
13
 73
9
 74
0
 42
0.0000001
 43
0.0000001
 44
0.0000000001
 40
0.0
 40
0.0
 40
0.0
 40
0.0
 40
0.2471148956
 40
0.3713350378
 40
0.4960030973
 40
0.6211624034
 40
0.7468639485
 40
1.0
 40
1.0
 40
1.0
 40
1.0
 10
107.7253128319
 20
84.6171723867
 30
0.0
 10
110.4882809793
 20
83.0669804406
 30
0.0
 10
114.6549972083
 20
80.763874672
 30
0.0
 10
120.2484449767
 20
77.7388735772
 30
0.0
 10
124.4804928975
 20
75.4835043898
 30
0.0
 10
128.7446881831
 20
73.2482915795
 30
0.0
 10
134.4900635992
 20
70.2915833496
 30
0.0
 10
138.8356289021
 20
68.121765562
 30
0.0
 10
141.7504925051
 20
66.6949716597
 30
0.0
  0
LINE
  5
3E6
100
AcDbEntity
  8
RACCORDO
100
AcDbLine
 62
250
  6
CONTINUOUS
 10
141.7504925051
 20
66.6949716597
 30
0.0
 11
141.9498026355
 21
66.5976010809
 31
0.0
  0
SPLINE
  5
3E7
100
AcDbEntity
  8
RACCORDO
100
AcDbSpline
 62
250
  6
CONTINUOUS
 70
0
 71
3
 72
13
 73
9
 74
0
 42
0.0000001
 43
0.0000001
 44
0.0000000001
 40
0.0
 40
0.0
 40
0.0
 40
0.0
 40
0.2380178332
 40
0.3663476082
 40
0.4976727992
 40
0.6293148514
 40
0.7585755623
 40
1.0
 40
1.0
 40
1.0
 40
1.0
 10
141.9498026355
 20
66.5976010809
 30
0.0
 10
142.2998430183
 20
66.4269172641
 30
0.0
 10
142.7886433462
 20
66.0550972499
 30
0.0
 10
143.3158514497
 20
65.4331107147
 30
0.0
 10
143.6589735348
 20
64.8898594203
 30
0.0
 10
143.9255764428
 20
64.303669424
 30
0.0
 10
144.1608613475
 20
63.5149847544
 30
0.0
 10
144.2109978336
 20
62.8971310463
 30
0.0
 10
144.1704327321
 20
62.5042086055
 30
0.0
  0
SPLINE
  5
3E8
100
AcDbEntity
  8
RACCORDO
100
AcDbSpline
 62
250
  6
CONTINUOUS
 70
0
 71
3
 72
9
 73
5
 74
0
 42
0.0000001
 43
0.0000001
 44
0.0000000001
 40
0.0
 40
0.0
 40
0.0
 40
0.0
 40
0.2527503246
 40
1.0
 40
1.0
 40
1.0
 40
1.0
 10
144.1375314547
 20
62.1761261664
 30
0.0
 10
144.0227999846
 20
61.0189256797
 30
0.0
 10
143.5973995614
 20
56.4377214328
 30
0.0
 10
143.2873155631
 20
51.845707143
 30
0.0
 10
143.1246727575
 20
48.4115496233
 30
0.0
  0
SPLINE
  5
3E9
100
AcDbEntity
  8
RACCORDO
100
AcDbSpline
 62
250
  6
CONTINUOUS
 70
0
 71
3
 72
9
 73
5
 74
0
 42
0.0000001
 43
0.0000001
 44
0.0000000001
 40
0.0
 40
0.0
 40
0.0
 40
0.0
 40
0.2570897043
 40
1.0
 40
1.0
 40
1.0
 40
1.0
 10
114.6883624705
 20
63.1333900636
 30
0.0
 10
114.6707761101
 20
63.1684839754
 30
0.0
 10
114.596172122
 20
63.301700622
 30
0.0
 10
114.4974250028
 20
63.4221263841
 30
0.0
 10
114.4119755277
 20
63.4967259273
 30
0.0
  0
SPLINE
  5
3EA
100
AcDbEntity
  8
RACCORDO
100
AcDbSpline
 62
250
  6
CONTINUOUS
 70
0
 71
3
 72
9
 73
5
 74
0
 42
0.0000001
 43
0.0000001
 44
0.0000000001
 40
0.0
 40
0.0
 40
0.0
 40
0.0
 40
0.2596483
 40
1.0
 40
1.0
 40
1.0
 40
1.0
 10
114.4119755277
 20
63.4967259273
 30
0.0
 10
114.3998835851
 20
63.5072824977
 30
0.0
 10
114.3523351696
 20
63.5467885698
 30
0.0
 10
114.3007595961
 20
63.5815815221
 30
0.0
 10
114.2605923786
 20
63.6035225934
 30
0.0
  0
SPLINE
  5
3EB
100
AcDbEntity
  8
RACCORDO
100
AcDbSpline
 62
250
  6
CONTINUOUS
 70
0
 71
3
 72
9
 73
5
 74
0
 42
0.0000001
 43
0.0000001
 44
0.0000000001
 40
0.0
 40
0.0
 40
0.0
 40
0.0
 40
0.4968106937
 40
1.0
 40
1.0
 40
1.0
 40
1.0
 10
114.4439963083
 20
44.3850186739
 30
0.0
 10
114.4439963204
 20
47.4046205358
 30
0.0
 10
114.5005647289
 20
53.4825997765
 30
0.0
 10
114.673044202
 20
59.5589441584
 30
0.0
 10
114.8111819867
 20
62.6141938188
 30
0.0
  0
SPLINE
  5
3EC
100
AcDbEntity
  8
RACCORDO
100
AcDbSpline
 62
250
  6
CONTINUOUS
 70
0
 71
3
 72
9
 73
5
 74
0
 42
0.0000001
 43
0.0000001
 44
0.0000000001
 40
0.0
 40
0.0
 40
0.0
 40
0.0
 40
0.4790688561
 40
1.0
 40
1.0
 40
1.0
 40
1.0
 10
114.8111819867
 20
62.6141938188
 30
0.0
 10
114.814309815
 20
62.6833894396
 30
0.0
 10
114.8014165992
 20
62.8288938563
 30
0.0
 10
114.7593987294
 20
62.9682110171
 30
0.0
 10
114.7313212255
 20
63.038100912
 30
0.0
  0
SPLINE
  5
3ED
100
AcDbEntity
  8
RACCORDO
100
AcDbSpline
 62
250
  6
CONTINUOUS
 70
0
 71
3
 72
9
 73
5
 74
0
 42
0.0000001
 43
0.0000001
 44
0.0000000001
 40
0.0
 40
0.0
 40
0.0
 40
0.0
 40
0.5031757285
 40
1.0
 40
1.0
 40
1.0
 40
1.0
 10
143.1185247685
 20
48.2722388642
 30
0.0
 10
142.9733582999
 20
45.1790120262
 30
0.0
 10
142.7927516033
 20
39.0265862485
 30
0.0
 10
142.7338377494
 20
32.8724062227
 30
0.0
 10
142.7338377494
 20
29.8148628711
 30
0.0
  0
SPLINE
  5
3EE
100
AcDbEntity
  8
RACCORDO
100
AcDbSpline
 62
250
  6
CONTINUOUS
 70
0
 71
3
 72
11
 73
7
 74
0
 42
0.0000001
 43
0.0000001
 44
0.0000000001
 40
0.0
 40
0.0
 40
0.0
 40
0.0
 40
0.2161523446
 40
0.4486227325
 40
0.7088075065
 40
1.0
 40
1.0
 40
1.0
 40
1.0
 10
114.3498322704
 20
44.5110385673
 30
0.0
 10
114.3498352307
 20
44.4991790707
 30
0.0
 10
114.3543772249
 20
44.4743872441
 30
0.0
 10
114.3738487444
 20
44.4400698534
 30
0.0
 10
114.4044758324
 20
44.4093243392
 30
0.0
 10
114.4299647385
 20
44.3926586391
 30
0.0
 10
114.4439963083
 20
44.3850186587
 30
0.0
  0
LINE
  5
3EF
100
AcDbEntity
  8
RACCORDO
100
AcDbLine
 62
250
  6
CONTINUOUS
 10
143.4909289452
 20
11.807841453
 30
0.0
 11
143.4974741855
 21
11.6764495521
 31
0.0
  0
SPLINE
  5
3F0
100
AcDbEntity
  8
RACCORDO
100
AcDbSpline
 62
250
  6
CONTINUOUS
 70
0
 71
3
 72
9
 73
5
 74
0
 42
0.0000001
 43
0.0000001
 44
0.0000000001
 40
0.0
 40
0.0
 40
0.0
 40
0.0
 40
0.2532973392
 40
1.0
 40
1.0
 40
1.0
 40
1.0
 10
143.4974741855
 20
11.6764495521
 30
0.0
 10
143.5507963898
 20
10.6122749935
 30
0.0
 10
143.7923472981
 20
6.4126216902
 30
0.0
 10
144.1595833103
 20
2.2200399632
 30
0.0
 10
144.5092160827
 20
-0.9014874968
 30
0.0
  0
SPLINE
  5
3F1
100
AcDbEntity
  8
RACCORDO
100
AcDbSpline
 62
250
  6
CONTINUOUS
 70
0
 71
3
 72
9
 73
5
 74
0
 42
0.0000001
 43
0.0000001
 44
0.0000000001
 40
0.0
 40
0.0
 40
0.0
 40
0.0
 40
0.24610257
 40
1.0
 40
1.0
 40
1.0
 40
1.0
 10
83.0463532892
 20
81.4931115175
 30
0.0
 10
83.041571523
 20
81.4905248515
 30
0.0
 10
83.0226187692
 20
81.4791430101
 30
0.0
 10
83.0057737395
 20
81.46434616
 30
0.0
 10
82.9946561355
 20
81.4519463097
 30
0.0
  0
SPLINE
  5
3F2
100
AcDbEntity
  8
RACCORDO
100
AcDbSpline
 62
250
  6
CONTINUOUS
 70
0
 71
3
 72
9
 73
5
 74
0
 42
0.0000001
 43
0.0000001
 44
0.0000000001
 40
0.0
 40
0.0
 40
0.0
 40
0.0
 40
0.5000200647
 40
1.0
 40
1.0
 40
1.0
 40
1.0
 10
147.547300119
 20
33.1041305341
 30
0.0
 10
147.5473001154
 20
30.0493889109
 30
0.0
 10
147.5481134496
 20
23.940150875
 30
0.0
 10
147.5507501373
 20
17.8309129872
 30
0.0
 10
147.5532838569
 20
14.7764175744
 30
0.0
  0
SPLINE
  5
3F3
100
AcDbEntity
  8
RACCORDO
100
AcDbSpline
 62
250
  6
CONTINUOUS
 70
0
 71
3
 72
11
 73
7
 74
0
 42
0.0000001
 43
0.0000001
 44
0.0000000001
 40
0.0
 40
0.0
 40
0.0
 40
0.0
 40
0.216151428
 40
0.4486844773
 40
0.7087767814
 40
1.0
 40
1.0
 40
1.0
 40
1.0
 10
90.6822213355
 20
76.9149907105
 30
0.0
 10
90.6716054563
 20
76.9212917131
 30
0.0
 10
90.6518776441
 20
76.938618293
 30
0.0
 10
90.6317065571
 20
76.9743991057
 30
0.0
 10
90.6208128031
 20
77.0182519636
 30
0.0
 10
90.6197971854
 20
77.0499384379
 30
0.0
 10
90.6206135601
 20
77.0665509737
 30
0.0
  0
SPLINE
  5
3F4
100
AcDbEntity
  8
RACCORDO
100
AcDbSpline
 62
250
  6
CONTINUOUS
 70
0
 71
3
 72
11
 73
7
 74
0
 42
0.0000001
 43
0.0000001
 44
0.0000000001
 40
0.0
 40
0.0
 40
0.0
 40
0.0
 40
0.2146346597
 40
0.4464847523
 40
0.7070995876
 40
1.0
 40
1.0
 40
1.0
 40
1.0
 10
98.5101146209
 20
72.3311430651
 30
0.0
 10
98.4994778892
 20
72.337280457
 30
0.0
 10
98.4796595275
 20
72.3544211741
 30
0.0
 10
98.4594499116
 20
72.3901706982
 30
0.0
 10
98.4485428303
 20
72.4341951261
 30
0.0
 10
98.4475283792
 20
72.4660630615
 30
0.0
 10
98.4483427604
 20
72.4828016333
 30
0.0
  0
SPLINE
  5
3F5
100
AcDbEntity
  8
RACCORDO
100
AcDbSpline
 62
250
  6
CONTINUOUS
 70
0
 71
3
 72
11
 73
7
 74
0
 42
0.0000001
 43
0.0000001
 44
0.0000000001
 40
0.0
 40
0.0
 40
0.0
 40
0.0
 40
0.2130707355
 40
0.4442240565
 40
0.7053821104
 40
1.0
 40
1.0
 40
1.0
 40
1.0
 10
106.4509635131
 20
67.8103166677
 30
0.0
 10
106.440316795
 20
67.8162887759
 30
0.0
 10
106.4204261992
 20
67.8332402003
 30
0.0
 10
106.4002023257
 20
67.8689479991
 30
0.0
 10
106.389295049
 20
67.913128789
 30
0.0
 10
106.3882831259
 20
67.9451677202
 30
0.0
 10
106.3890947806
 20
67.9620275425
 30
0.0
  0
SPLINE
  5
3F6
100
AcDbEntity
  8
RACCORDO
100
AcDbSpline
 62
250
  6
CONTINUOUS
 70
0
 71
3
 72
13
 73
9
 74
0
 42
0.0000001
 43
0.0000001
 44
0.0000000001
 40
0.0
 40
0.0
 40
0.0
 40
0.0
 40
0.1166874578
 40
0.2312366491
 40
0.3462055829
 40
0.464115152
 40
0.7162958793
 40
1.0
 40
1.0
 40
1.0
 40
1.0
 10
59.0158668366
 20
113.8602157792
 30
0.0
 10
59.077935708
 20
113.9118677701
 30
0.0
 10
59.2101584752
 20
114.003821811
 30
0.0
 10
59.4301262997
 20
114.1021895177
 30
0.0
 10
59.6656295242
 20
114.1573522772
 30
0.0
 10
60.0026638412
 20
114.1727235901
 30
0.0
 10
60.4522239161
 20
114.0731290257
 30
0.0
 10
60.7822234142
 20
113.8955793906
 30
0.0
 10
60.9451012102
 20
113.7859651159
 30
0.0
  0
SPLINE
  5
3F7
100
AcDbEntity
  8
RACCORDO
100
AcDbSpline
 62
250
  6
CONTINUOUS
 70
0
 71
3
 72
11
 73
7
 74
0
 42
0.0000001
 43
0.0000001
 44
0.0000000001
 40
0.0
 40
0.0
 40
0.0
 40
0.0
 40
0.2500670269
 40
0.5000911313
 40
0.7500796045
 40
1.0
 40
1.0
 40
1.0
 40
1.0
 10
147.5533151603
 20
14.7387572133
 30
0.0
 10
147.5542302758
 20
13.6402313356
 30
0.0
 10
147.5566863122
 20
11.4433686026
 30
0.0
 10
147.5624523423
 20
8.1483282306
 30
0.0
 10
147.5690732588
 20
4.8539344781
 30
0.0
 10
147.5729779654
 20
2.6578731688
 30
0.0
 10
147.5768120954
 20
1.5599977461
 30
0.0
  0
SPLINE
  5
3F8
100
AcDbEntity
  8
RACCORDO
100
AcDbSpline
 62
250
  6
CONTINUOUS
 70
0
 71
3
 72
9
 73
5
 74
0
 42
0.0000001
 43
0.0000001
 44
0.0000000001
 40
0.0
 40
0.0
 40
0.0
 40
0.0
 40
0.2681974166
 40
1.0
 40
1.0
 40
1.0
 40
1.0
 10
147.5779045295
 20
1.2703389168
 30
0.0
 10
147.5781455696
 20
1.2106858032
 30
0.0
 10
147.5713043323
 20
0.9884851148
 30
0.0
 10
147.5308671121
 20
0.7659381657
 30
0.0
 10
147.4759392972
 20
0.6127154228
 30
0.0
  0
SPLINE
  5
3F9
100
AcDbEntity
  8
0
100
AcDbSpline
 62
7
  6
CONTINUOUS
 70
0
 71
3
 72
9
 73
5
 74
0
 42
0.0000001
 43
0.0000001
 44
0.0000000001
 40
0.0
 40
0.0
 40
0.0
 40
0.0
 40
0.2345157611
 40
1.0
 40
1.0
 40
1.0
 40
1.0
 10
101.4790632233
 20
30.4195609689
 30
0.0
 10
101.4744560813
 20
30.4189051918
 30
0.0
 10
101.4546177661
 20
30.4174126999
 30
0.0
 10
101.4346922347
 20
30.4204335905
 30
0.0
 10
101.4199044221
 20
30.4239048823
 30
0.0
  0
SPLINE
  5
3FA
100
AcDbEntity
  8
0
100
AcDbSpline
 62
7
  6
CONTINUOUS
 70
0
 71
3
 72
9
 73
5
 74
0
 42
0.0000001
 43
0.0000001
 44
0.0000000001
 40
0.0
 40
0.0
 40
0.0
 40
0.0
 40
0.4789498211
 40
1.0
 40
1.0
 40
1.0
 40
1.0
 10
101.4199044221
 20
30.4239048823
 30
0.0
 10
101.4000535609
 20
30.4285646744
 30
0.0
 10
101.3597091849
 20
30.4429024606
 30
0.0
 10
101.3215665792
 20
30.4619109796
 30
0.0
 10
101.3021132553
 20
30.4725714038
 30
0.0
  0
SPLINE
  5
3FB
100
AcDbEntity
  8
0
100
AcDbSpline
 62
7
  6
CONTINUOUS
 70
0
 71
3
 72
18
 73
14
 74
0
 42
0.0000001
 43
0.0000001
 44
0.0000000001
 40
0.0
 40
0.0
 40
0.0
 40
0.0
 40
0.0411394116
 40
0.0836417625
 40
0.1288943482
 40
0.1776756824
 40
0.2868796253
 40
0.4108725958
 40
0.5483254241
 40
0.6966838997
 40
0.8496825045
 40
0.9258174836
 40
1.0
 40
1.0
 40
1.0
 40
1.0
 10
101.8032952005
 20
30.116969073
 30
0.0
 10
101.8165285578
 20
30.1246083125
 30
0.0
 10
101.8418608902
 20
30.1432800001
 30
0.0
 10
101.8716266751
 20
30.1813777186
 30
0.0
 10
101.8941048503
 20
30.2271470947
 30
0.0
 10
101.9153807789
 20
30.2999031589
 30
0.0
 10
101.9221897695
 20
30.4055006279
 30
0.0
 10
101.9063190918
 20
30.5427200698
 30
0.0
 10
101.8653361486
 20
30.6900049328
 30
0.0
 10
101.7976052867
 20
30.8388745402
 30
0.0
 10
101.7223780783
 20
30.9577564935
 30
0.0
 10
101.6527005834
 20
31.0463495069
 30
0.0
 10
101.6147743029
 20
31.0874947143
 30
0.0
 10
101.5947717914
 20
31.1064437111
 30
0.0
  0
LINE
  5
3FC
100
AcDbEntity
  8
0
100
AcDbLine
 62
7
  6
CONTINUOUS
 10
96.5598747105
 20
34.0505079311
 30
0.0
 11
96.1926436994
 21
34.2642514895
 31
0.0
  0
LINE
  5
3FD
100
AcDbEntity
  8
0
100
AcDbLine
 62
7
  6
CONTINUOUS
 10
95.5118869231
 20
34.6612399581
 30
0.0
 11
95.1134675097
 21
34.8940405245
 31
0.0
  0
LINE
  5
3FE
100
AcDbEntity
  8
0
100
AcDbLine
 62
7
  6
CONTINUOUS
 10
97.0641262892
 20
33.7575935257
 30
0.0
 11
96.6963042294
 21
33.9712873281
 31
0.0
  0
LINE
  5
3FF
100
AcDbEntity
  8
0
100
AcDbLine
 62
7
  6
CONTINUOUS
 10
98.5771955429
 20
32.881439959
 30
0.0
 11
98.5229617153
 21
32.9127569824
 31
0.0
  0
LINE
  5
400
100
AcDbEntity
  8
0
100
AcDbLine
 62
7
  6
CONTINUOUS
 10
97.7894945975
 20
33.336901558
 30
0.0
 11
97.4214892575
 21
33.5501367874
 31
0.0
  0
SPLINE
  5
401
100
AcDbEntity
  8
RACCORDO
100
AcDbSpline
 62
250
  6
CONTINUOUS
 70
0
 71
3
 72
10
 73
6
 74
0
 42
0.0000001
 43
0.0000001
 44
0.0000000001
 40
0.0
 40
0.0
 40
0.0
 40
0.0
 40
0.5241783884
 40
0.7733099191
 40
1.0
 40
1.0
 40
1.0
 40
1.0
 10
82.6051429167
 20
44.8461911763
 30
0.0
 10
82.6596890497
 20
44.7281027017
 30
0.0
 10
82.7635482624
 20
44.5631993854
 30
0.0
 10
82.9352968228
 20
44.3833798841
 30
0.0
 10
83.0297048935
 20
44.3111738224
 30
0.0
 10
83.0776946626
 20
44.281822014
 30
0.0
  0
SPLINE
  5
402
100
AcDbEntity
  8
RACCORDO
100
AcDbSpline
 62
250
  6
CONTINUOUS
 70
0
 71
3
 72
9
 73
5
 74
0
 42
0.0000001
 43
0.0000001
 44
0.0000000001
 40
0.0
 40
0.0
 40
0.0
 40
0.0
 40
0.2409485029
 40
1.0
 40
1.0
 40
1.0
 40
1.0
 10
64.1193617966
 20
115.3027708662
 30
0.0
 10
64.1472230726
 20
115.2932179681
 30
0.0
 10
64.2618898425
 20
115.2507742686
 30
0.0
 10
64.3724875952
 20
115.1976307241
 30
0.0
 10
64.4537025438
 20
115.1527594521
 30
0.0
  0
SPLINE
  5
403
100
AcDbEntity
  8
RACCORDO
100
AcDbSpline
 62
250
  6
CONTINUOUS
 70
0
 71
3
 72
13
 73
9
 74
0
 42
0.0000001
 43
0.0000001
 44
0.0000000001
 40
0.0
 40
0.0
 40
0.0
 40
0.0
 40
0.2531300451
 40
0.3789868882
 40
0.5043599539
 40
0.6291985047
 40
0.753443246
 40
1.0
 40
1.0
 40
1.0
 40
1.0
 10
91.9568316114
 20
24.6214861092
 30
0.0
 10
89.2995774818
 20
26.2004527085
 30
0.0
 10
85.3363783186
 20
28.5902933591
 30
0.0
 10
80.0935513735
 20
31.8219064932
 30
0.0
 10
76.2002195094
 20
34.2571541675
 30
0.0
 10
72.3416806218
 20
36.7106956869
 30
0.0
 10
67.2617574217
 20
40.0008270455
 30
0.0
 10
63.49509772
 20
42.514178384
 30
0.0
 10
61.0065373322
 20
44.2087109555
 30
0.0
  0
LINE
  5
404
100
AcDbEntity
  8
RACCORDO
100
AcDbLine
 62
250
  6
CONTINUOUS
 10
60.9000256409
 20
44.2812574634
 30
0.0
 11
60.7687062269
 21
44.3706750047
 31
0.0
  0
SPLINE
  5
405
100
AcDbEntity
  8
RACCORDO
100
AcDbSpline
 62
250
  6
CONTINUOUS
 70
0
 71
3
 72
15
 73
11
 74
0
 42
0.0000001
 43
0.0000001
 44
0.0000000001
 40
0.0
 40
0.0
 40
0.0
 40
0.0
 40
0.1125900924
 40
0.2363661104
 40
0.3679115409
 40
0.5032040615
 40
0.6379902605
 40
0.7681099637
 40
0.8898026371
 40
1.0
 40
1.0
 40
1.0
 40
1.0
 10
60.7499928775
 20
44.3834113226
 30
0.0
 10
60.6019231119
 20
44.4841875809
 30
0.0
 10
60.3069012211
 20
44.7193418992
 30
0.0
 10
59.893164428
 20
45.1346786347
 30
0.0
 10
59.4996031037
 20
45.6167881432
 30
0.0
 10
59.1418489151
 20
46.1471700424
 30
0.0
 10
58.8338367315
 20
46.7053247797
 30
0.0
 10
58.5873988726
 20
47.2698809736
 30
0.0
 10
58.4115796822
 20
47.8193456449
 30
0.0
 10
58.3415276056
 20
48.1829089566
 30
0.0
 10
58.3221004067
 20
48.3571331007
 30
0.0
  0
SPLINE
  5
406
100
AcDbEntity
  8
RACCORDO
100
AcDbSpline
 62
250
  6
CONTINUOUS
 70
0
 71
3
 72
9
 73
5
 74
0
 42
0.0000001
 43
0.0000001
 44
0.0000000001
 40
0.0
 40
0.0
 40
0.0
 40
0.0
 40
0.5032415131
 40
1.0
 40
1.0
 40
1.0
 40
1.0
 10
82.542525464
 20
63.0451123678
 30
0.0
 10
82.5425254898
 20
60.0609410303
 30
0.0
 10
82.5992943465
 20
54.1310583051
 30
0.0
 10
82.7769591091
 20
48.2028092687
 30
0.0
 10
82.9224428462
 20
45.2606763934
 30
0.0
  0
SPLINE
  5
407
100
AcDbEntity
  8
RACCORDO
100
AcDbSpline
 62
250
  6
CONTINUOUS
 70
0
 71
3
 72
9
 73
5
 74
0
 42
0.0000001
 43
0.0000001
 44
0.0000000001
 40
0.0
 40
0.0
 40
0.0
 40
0.0
 40
0.5030873125
 40
1.0
 40
1.0
 40
1.0
 40
1.0
 10
82.9224428462
 20
81.2532144234
 30
0.0
 10
82.7794635092
 20
78.2022884967
 30
0.0
 10
82.6010089141
 20
72.1329692036
 30
0.0
 10
82.5425252776
 20
66.0619002339
 30
0.0
 10
82.542525464
 20
63.0451123678
 30
0.0
  0
LINE
  5
408
100
AcDbEntity
  8
RACCORDO
100
AcDbLine
 62
250
  6
CONTINUOUS
 10
58.3221004067
 20
48.3571331007
 30
0.0
 11
58.3005560558
 21
48.5481117164
 31
0.0
  0
SPLINE
  5
409
100
AcDbEntity
  8
RACCORDO
100
AcDbSpline
 62
250
  6
CONTINUOUS
 70
0
 71
3
 72
9
 73
5
 74
0
 42
0.0000001
 43
0.0000001
 44
0.0000000001
 40
0.0
 40
0.0
 40
0.0
 40
0.0
 40
0.2467706881
 40
1.0
 40
1.0
 40
1.0
 40
1.0
 10
58.2767719594
 20
48.7599030666
 30
0.0
 10
58.162320203
 20
49.7835182759
 30
0.0
 10
57.7314721505
 20
53.9351970718
 30
0.0
 10
57.4307427323
 20
58.1002274093
 30
0.0
 10
57.2728450694
 20
61.2401564985
 30
0.0
  0
SPLINE
  5
40A
100
AcDbEntity
  8
RACCORDO
100
AcDbSpline
 62
250
  6
CONTINUOUS
 70
0
 71
3
 72
9
 73
5
 74
0
 42
0.0000001
 43
0.0000001
 44
0.0000000001
 40
0.0
 40
0.0
 40
0.0
 40
0.0
 40
0.2513395375
 40
1.0
 40
1.0
 40
1.0
 40
1.0
 10
82.2269436865
 20
52.9961441731
 30
0.0
 10
82.2415801233
 20
52.3472093959
 30
0.0
 10
82.306190532
 20
49.7654662679
 30
0.0
 10
82.4006212577
 20
47.184358457
 30
0.0
 10
82.4961129215
 20
45.2532563194
 30
0.0
  0
SPLINE
  5
40B
100
AcDbEntity
  8
RACCORDO
100
AcDbSpline
 62
250
  6
CONTINUOUS
 70
0
 71
3
 72
9
 73
5
 74
0
 42
0.0000001
 43
0.0000001
 44
0.0000000001
 40
0.0
 40
0.0
 40
0.0
 40
0.0
 40
0.473166011
 40
1.0
 40
1.0
 40
1.0
 40
1.0
 10
82.4961129215
 20
45.2532563194
 30
0.0
 10
82.4994104145
 20
45.1865789347
 30
0.0
 10
82.5244409601
 20
45.0464765719
 30
0.0
 10
82.5739755063
 20
44.9136720726
 30
0.0
 10
82.6051429167
 20
44.8461911763
 30
0.0
  0
SPLINE
  5
40C
100
AcDbEntity
  8
RACCORDO
100
AcDbSpline
 62
250
  6
CONTINUOUS
 70
0
 71
3
 72
9
 73
5
 74
0
 42
0.0000001
 43
0.0000001
 44
0.0000000001
 40
0.0
 40
0.0
 40
0.0
 40
0.0
 40
0.4966422354
 40
1.0
 40
1.0
 40
1.0
 40
1.0
 10
57.260368403
 20
61.4845997786
 30
0.0
 10
57.1149410107
 20
64.4452698544
 30
0.0
 10
56.9377103421
 20
70.4122091754
 30
0.0
 10
56.8812440438
 20
76.3807528412
 30
0.0
 10
56.8812440438
 20
79.3850744911
 30
0.0
  0
LINE
  5
40D
100
AcDbEntity
  8
RACCORDO
100
AcDbLine
 62
250
  6
CONTINUOUS
 10
60.9451011007
 20
113.7859626913
 30
0.0
 11
61.1136156996
 21
113.6709621081
 31
0.0
  0
SPLINE
  5
40E
100
AcDbEntity
  8
RACCORDO
100
AcDbSpline
 62
250
  6
CONTINUOUS
 70
0
 71
3
 72
13
 73
9
 74
0
 42
0.0000001
 43
0.0000001
 44
0.0000000001
 40
0.0
 40
0.0
 40
0.0
 40
0.0
 40
0.2465372155
 40
0.3707764498
 40
0.4956148509
 40
0.6209909226
 40
0.7468529478
 40
1.0
 40
1.0
 40
1.0
 40
1.0
 10
61.1136156996
 20
113.6709621081
 30
0.0
 10
63.6079807245
 20
111.9720840278
 30
0.0
 10
67.3835298706
 20
109.4523281939
 30
0.0
 10
72.4756015155
 20
106.153849513
 30
0.0
 10
76.3435872381
 20
103.6940442462
 30
0.0
 10
80.2466355334
 20
101.2526217134
 30
0.0
 10
85.5026945692
 20
98.0127154741
 30
0.0
 10
89.4759906208
 20
95.616816428
 30
0.0
 10
92.1400530526
 20
94.0338609303
 30
0.0
  0
LINE
  5
40F
100
AcDbEntity
  8
0
100
AcDbLine
 62
7
  6
CONTINUOUS
 10
98.8881000174
 20
32.702029129
 30
0.0
 11
98.5771955429
 21
32.881439959
 31
0.0
  0
LINE
  5
410
100
AcDbEntity
  8
0
100
AcDbLine
 62
7
  6
CONTINUOUS
 10
99.6084005387
 20
30.3977395343
 30
0.0
 11
99.6578633483
 21
30.6195463174
 31
0.0
  0
SPLINE
  5
411
100
AcDbEntity
  8
RACCORDO
100
AcDbSpline
 62
250
  6
CONTINUOUS
 70
0
 71
3
 72
9
 73
5
 74
0
 42
0.0000001
 43
0.0000001
 44
0.0000000001
 40
0.0
 40
0.0
 40
0.0
 40
0.0
 40
0.4999152136
 40
1.0
 40
1.0
 40
1.0
 40
1.0
 10
64.6809414463
 20
115.0214540319
 30
0.0
 10
70.092045023
 20
111.8805593188
 30
0.0
 10
80.9241601325
 20
105.6116186178
 30
0.0
 10
91.7602399913
 20
99.3495499897
 30
0.0
 10
97.1797912075
 20
96.2190089763
 30
0.0
  0
SPLINE
  5
412
100
AcDbEntity
  8
RACCORDO
100
AcDbSpline
 62
250
  6
CONTINUOUS
 70
0
 71
3
 72
9
 73
5
 74
0
 42
0.0000001
 43
0.0000001
 44
0.0000000001
 40
0.0
 40
0.0
 40
0.0
 40
0.0
 40
0.2453054299
 40
1.0
 40
1.0
 40
1.0
 40
1.0
 10
97.2153004237
 20
96.1989278831
 30
0.0
 10
97.8568789066
 20
95.8282113207
 30
0.0
 10
100.472374522
 20
94.3170849708
 30
0.0
 10
103.0881347786
 20
92.8064166888
 30
0.0
 10
105.062352833
 20
91.6665279284
 30
0.0
  0
SPLINE
  5
413
100
AcDbEntity
  8
RACCORDO
100
AcDbSpline
 62
250
  6
CONTINUOUS
 70
0
 71
3
 72
11
 73
7
 74
0
 42
0.0000001
 43
0.0000001
 44
0.0000000001
 40
0.0
 40
0.0
 40
0.0
 40
0.0
 40
0.2883984427
 40
0.5409630207
 40
0.7706255036
 40
1.0
 40
1.0
 40
1.0
 40
1.0
 10
83.0776946626
 20
81.6081369211
 30
0.0
 10
83.0354667721
 20
81.6339107709
 30
0.0
 10
82.9507128315
 20
81.6743576965
 30
0.0
 10
82.8176750741
 20
81.6951508379
 30
0.0
 10
82.6953611038
 20
81.6669344249
 30
0.0
 10
82.6311910386
 20
81.6168440845
 30
0.0
 10
82.6051429167
 20
81.5873536319
 30
0.0
  0
SPLINE
  5
414
100
AcDbEntity
  8
RACCORDO
100
AcDbSpline
 62
250
  6
CONTINUOUS
 70
0
 71
3
 72
9
 73
5
 74
0
 42
0.0000001
 43
0.0000001
 44
0.0000000001
 40
0.0
 40
0.0
 40
0.0
 40
0.0
 40
0.2472539144
 40
1.0
 40
1.0
 40
1.0
 40
1.0
 10
57.2728450694
 20
97.9813189542
 30
0.0
 10
57.3268537702
 20
99.1174707172
 30
0.0
 10
57.5759887899
 20
103.7110533027
 30
0.0
 10
57.9464316558
 20
108.2979562534
 30
0.0
 10
58.2893917427
 20
111.7437661062
 30
0.0
  0
LINE
  5
415
100
AcDbEntity
  8
RACCORDO
100
AcDbLine
 62
250
  6
CONTINUOUS
 10
58.2893917427
 20
111.7437661062
 30
0.0
 11
58.3221004067
 21
112.0719597579
 31
0.0
  0
SPLINE
  5
416
100
AcDbEntity
  8
RACCORDO
100
AcDbSpline
 62
250
  6
CONTINUOUS
 70
0
 71
3
 72
19
 73
15
 74
0
 42
0.0000001
 43
0.0000001
 44
0.0000000001
 40
0.0
 40
0.0
 40
0.0
 40
0.0
 40
0.1505281159
 40
0.2205889997
 40
0.2871014465
 40
0.4099615385
 40
0.4673811645
 40
0.5228952225
 40
0.5773466206
 40
0.6316751023
 40
0.6868354157
 40
0.7437131305
 40
0.8651280516
 40
1.0
 40
1.0
 40
1.0
 40
1.0
 10
58.3221004067
 20
112.0719597579
 30
0.0
 10
58.3395917124
 20
112.2499923195
 30
0.0
 10
58.3844970568
 20
112.5099750979
 30
0.0
 10
58.4899892948
 20
112.8350193568
 30
0.0
 10
58.6150603446
 20
113.1171703043
 30
0.0
 10
58.7795072878
 20
113.3647381424
 30
0.0
 10
58.9821179186
 20
113.5596752606
 30
0.0
 10
59.1457329421
 20
113.6743317866
 30
0.0
 10
59.3226164811
 20
113.7591166488
 30
0.0
 10
59.5108106777
 20
113.8129632908
 30
0.0
 10
59.7081560693
 20
113.8352227783
 30
0.0
 10
59.986326984
 20
113.8224378206
 30
0.0
 10
60.3496490873
 20
113.7216785175
 30
0.0
 10
60.6176613584
 20
113.5717927281
 30
0.0
 10
60.7499928775
 20
113.4813535625
 30
0.0
  0
LINE
  5
417
100
AcDbEntity
  8
RACCORDO
100
AcDbLine
 62
250
  6
CONTINUOUS
 10
60.7499928775
 20
113.4813535625
 30
0.0
 11
60.9188312831
 21
113.3661597906
 31
0.0
  0
SPLINE
  5
418
100
AcDbEntity
  8
RACCORDO
100
AcDbSpline
 62
250
  6
CONTINUOUS
 70
0
 71
3
 72
9
 73
5
 74
0
 42
0.0000001
 43
0.0000001
 44
0.0000000001
 40
0.0
 40
0.0
 40
0.0
 40
0.0
 40
0.4971441183
 40
1.0
 40
1.0
 40
1.0
 40
1.0
 10
60.9188312831
 20
113.3661597906
 30
0.0
 10
63.7557559901
 20
111.4339699349
 30
0.0
 10
69.5041707629
 20
107.6086469906
 30
0.0
 10
75.3297206163
 20
103.9021940202
 30
0.0
 10
78.2735144607
 20
102.0615823757
 30
0.0
  0
SPLINE
  5
419
100
AcDbEntity
  8
RACCORDO
100
AcDbSpline
 62
250
  6
CONTINUOUS
 70
0
 71
3
 72
9
 73
5
 74
0
 42
0.0000001
 43
0.0000001
 44
0.0000000001
 40
0.0
 40
0.0
 40
0.0
 40
0.0
 40
0.4968242716
 40
1.0
 40
1.0
 40
1.0
 40
1.0
 10
56.8812278707
 20
79.3850856465
 30
0.0
 10
56.8812278707
 20
82.442628981
 30
0.0
 10
56.940141724
 20
88.5968089721
 30
0.0
 10
57.1207484183
 20
94.7492347152
 30
0.0
 10
57.2659148849
 20
97.8424615356
 30
0.0
  0
SPLINE
  5
41A
100
AcDbEntity
  8
RACCORDO
100
AcDbSpline
 62
250
  6
CONTINUOUS
 70
0
 71
3
 72
11
 73
7
 74
0
 42
0.0000001
 43
0.0000001
 44
0.0000000001
 40
0.0
 40
0.0
 40
0.0
 40
0.0
 40
0.2940390333
 40
0.5560821264
 40
0.7885547007
 40
1.0
 40
1.0
 40
1.0
 40
1.0
 10
114.4625939684
 20
26.6597857829
 30
0.0
 10
114.4847024793
 20
26.6478932144
 30
0.0
 10
114.5282339087
 20
26.6283240014
 30
0.0
 10
114.5941532873
 20
26.6124340322
 30
0.0
 10
114.6551148353
 20
26.6124553523
 30
0.0
 10
114.6920351925
 20
26.6241015551
 30
0.0
 10
114.7080055236
 20
26.6325184235
 30
0.0
  0
SPLINE
  5
41B
100
AcDbEntity
  8
RACCORDO
100
AcDbSpline
 62
250
  6
CONTINUOUS
 70
0
 71
3
 72
10
 73
6
 74
0
 42
0.0000001
 43
0.0000001
 44
0.0000000001
 40
0.0
 40
0.0
 40
0.0
 40
0.0
 40
0.5243263185
 40
0.7735993832
 40
1.0
 40
1.0
 40
1.0
 40
1.0
 10
82.9946562201
 20
45.008895791
 30
0.0
 10
83.0297100186
 20
44.9355718819
 30
0.0
 10
83.0955299695
 20
44.8332590405
 30
0.0
 10
83.2030567643
 20
44.7212152604
 30
0.0
 10
83.2618478597
 20
44.6759676787
 30
0.0
 10
83.2916772937
 20
44.6574823324
 30
0.0
  0
SPLINE
  5
41C
100
AcDbEntity
  8
RACCORDO
100
AcDbSpline
 62
250
  6
CONTINUOUS
 70
0
 71
3
 72
9
 73
5
 74
0
 42
0.0000001
 43
0.0000001
 44
0.0000000001
 40
0.0
 40
0.0
 40
0.0
 40
0.0
 40
0.4719558088
 40
1.0
 40
1.0
 40
1.0
 40
1.0
 10
82.9224428462
 20
45.2606763934
 30
0.0
 10
82.9253484246
 20
45.2193980005
 30
0.0
 10
82.9426285539
 20
45.132681206
 30
0.0
 10
82.9746881258
 20
45.0506666778
 30
0.0
 10
82.9946562201
 20
45.008895791
 30
0.0
  0
SPLINE
  5
41D
100
AcDbEntity
  8
RACCORDO
100
AcDbSpline
 62
250
  6
CONTINUOUS
 70
0
 71
3
 72
9
 73
5
 74
0
 42
0.0000001
 43
0.0000001
 44
0.0000000001
 40
0.0
 40
0.0
 40
0.0
 40
0.0
 40
0.2241149765
 40
1.0
 40
1.0
 40
1.0
 40
1.0
 10
82.9946561355
 20
81.4519463097
 30
0.0
 10
82.9839954288
 20
81.4400550024
 30
0.0
 10
82.9424225051
 20
81.3815348049
 30
0.0
 10
82.9260433821
 20
81.308386534
 30
0.0
 10
82.9224428462
 20
81.2532144234
 30
0.0
  0
SPLINE
  5
41E
100
AcDbEntity
  8
RACCORDO
100
AcDbSpline
 62
250
  6
CONTINUOUS
 70
0
 71
3
 72
9
 73
5
 74
0
 42
0.0000001
 43
0.0000001
 44
0.0000000001
 40
0.0
 40
0.0
 40
0.0
 40
0.0
 40
0.460758073
 40
1.0
 40
1.0
 40
1.0
 40
1.0
 10
82.6051429167
 20
81.5873536319
 30
0.0
 10
82.5707909246
 20
81.548457183
 30
0.0
 10
82.5165607451
 20
81.4459020864
 30
0.0
 10
82.4989570776
 20
81.3331765629
 30
0.0
 10
82.4961129215
 20
81.2725096941
 30
0.0
  0
SPLINE
  5
41F
100
AcDbEntity
  8
RACCORDO
100
AcDbSpline
 62
250
  6
CONTINUOUS
 70
0
 71
3
 72
9
 73
5
 74
0
 42
0.0000001
 43
0.0000001
 44
0.0000000001
 40
0.0
 40
0.0
 40
0.0
 40
0.0
 40
0.5030874633
 40
1.0
 40
1.0
 40
1.0
 40
1.0
 10
82.4961129215
 20
81.2725096941
 30
0.0
 10
82.3530245521
 20
78.2193152114
 30
0.0
 10
82.1744017303
 20
72.1454857913
 30
0.0
 10
82.1158682421
 20
66.0699039397
 30
0.0
 10
82.115868337
 20
63.0508745979
 30
0.0
  0
LINE
  5
420
100
AcDbEntity
  8
0
100
AcDbLine
 62
7
  6
CONTINUOUS
 10
100.02449221
 20
32.0479843564
 30
0.0
 11
99.6667415102
 21
32.2535947521
 31
0.0
  0
SPLINE
  5
421
100
AcDbEntity
  8
RACCORDO
100
AcDbSpline
 62
250
  6
CONTINUOUS
 70
0
 71
3
 72
9
 73
5
 74
0
 42
0.0000001
 43
0.0000001
 44
0.0000000001
 40
0.0
 40
0.0
 40
0.0
 40
0.0
 40
0.4756983164
 40
1.0
 40
1.0
 40
1.0
 40
1.0
 10
112.990262007
 20
87.1102272861
 30
0.0
 10
112.9841213642
 20
87.1137726818
 30
0.0
 10
112.9694318136
 20
87.1183728695
 30
0.0
 10
112.9542670612
 20
87.1171092951
 30
0.0
 10
112.9466341742
 20
87.1154314522
 30
0.0
  0
SPLINE
  5
422
100
AcDbEntity
  8
0
100
AcDbSpline
 62
7
  6
CONTINUOUS
 70
0
 71
3
 72
11
 73
7
 74
0
 42
0.0000001
 43
0.0000001
 44
0.0000000001
 40
0.0
 40
0.0
 40
0.0
 40
0.0
 40
0.2893926928
 40
0.5568683463
 40
0.7944462414
 40
1.0
 40
1.0
 40
1.0
 40
1.0
 10
101.2453974267
 20
30.4398244721
 30
0.0
 10
101.2639878406
 20
30.4296369218
 30
0.0
 10
101.300517448
 20
30.411321662
 30
0.0
 10
101.3553816782
 20
30.3914139632
 30
0.0
 10
101.4071408259
 20
30.3824858892
 30
0.0
 10
101.4404133849
 20
30.3896204944
 30
0.0
 10
101.4534760273
 20
30.3971099576
 30
0.0
  0
LINE
  5
423
100
AcDbEntity
  8
0
100
AcDbLine
 62
7
  6
CONTINUOUS
 10
100.0127730546
 20
30.8319450513
 30
0.0
 11
99.7374111403
 21
30.9902347512
 31
0.0
  0
SPLINE
  5
424
100
AcDbEntity
  8
0
100
AcDbSpline
 62
7
  6
CONTINUOUS
 70
0
 71
3
 72
11
 73
7
 74
0
 42
0.0000001
 43
0.0000001
 44
0.0000000001
 40
0.0
 40
0.0
 40
0.0
 40
0.0
 40
0.2313611493
 40
0.4720673893
 40
0.7263448409
 40
1.0
 40
1.0
 40
1.0
 40
1.0
 10
100.6220043878
 20
31.617742811
 30
0.0
 10
100.6983043198
 20
31.5861651916
 30
0.0
 10
100.8529997097
 20
31.5192440353
 30
0.0
 10
101.0843199642
 20
31.4016482986
 30
0.0
 10
101.3180776658
 20
31.2575476268
 30
0.0
 10
101.467183165
 20
31.1408970586
 30
0.0
 10
101.5380701633
 20
31.0737050822
 30
0.0
  0
SPLINE
  5
425
100
AcDbEntity
  8
0
100
AcDbSpline
 62
7
  6
CONTINUOUS
 70
0
 71
3
 72
18
 73
14
 74
0
 42
0.0000001
 43
0.0000001
 44
0.0000000001
 40
0.0
 40
0.0
 40
0.0
 40
0.0
 40
0.074186865
 40
0.1503078561
 40
0.3033133138
 40
0.4516518518
 40
0.5890923744
 40
0.7131005724
 40
0.8223134398
 40
0.8710952721
 40
0.9163532244
 40
0.9588583356
 40
1.0
 40
1.0
 40
1.0
 40
1.0
 10
101.5380701633
 20
31.0737050822
 30
0.0
 10
101.5580738286
 20
31.0547547755
 30
0.0
 10
101.5959998573
 20
31.0136136728
 30
0.0
 10
101.6656698133
 20
30.9250157697
 30
0.0
 10
101.7409099718
 20
30.8061527646
 30
0.0
 10
101.8086115016
 20
30.6572777499
 30
0.0
 10
101.8495853482
 20
30.5099985916
 30
0.0
 10
101.8654826734
 20
30.3727783048
 30
0.0
 10
101.8586795816
 20
30.2671672409
 30
0.0
 10
101.8373865274
 20
30.1944108818
 30
0.0
 10
101.814919097
 20
30.1486334421
 30
0.0
 10
101.7851464174
 20
30.1105317194
 30
0.0
 10
101.7598047499
 20
30.091873127
 30
0.0
 10
101.7465755042
 20
30.0842249608
 30
0.0
  0
SPLINE
  5
426
100
AcDbEntity
  8
0
100
AcDbSpline
 62
7
  6
CONTINUOUS
 70
0
 71
3
 72
12
 73
8
 74
0
 42
0.0000001
 43
0.0000001
 44
0.0000000001
 40
0.0
 40
0.0
 40
0.0
 40
0.0
 40
0.262820453
 40
0.455613408
 40
0.6421606938
 40
0.8228933686
 40
1.0
 40
1.0
 40
1.0
 40
1.0
 10
101.6771465337
 20
30.0073677768
 30
0.0
 10
101.7057604252
 20
29.9725552899
 30
0.0
 10
101.7481622286
 20
29.906226607
 30
0.0
 10
101.7953403568
 20
29.8066757529
 30
0.0
 10
101.8296240116
 20
29.7168740105
 30
0.0
 10
101.8575422585
 20
29.6277681579
 30
0.0
 10
101.8735002856
 20
29.5685203635
 30
0.0
 10
101.8816029125
 20
29.5392548274
 30
0.0
  0
SPLINE
  5
427
100
AcDbEntity
  8
0
100
AcDbSpline
 62
7
  6
CONTINUOUS
 70
0
 71
3
 72
9
 73
5
 74
0
 42
0.0000001
 43
0.0000001
 44
0.0000000001
 40
0.0
 40
0.0
 40
0.0
 40
0.0
 40
0.5003774388
 40
1.0
 40
1.0
 40
1.0
 40
1.0
 10
101.8816029127
 20
29.5392548273
 30
0.0
 10
101.9094246941
 20
29.438766509
 30
0.0
 10
101.9640091894
 20
29.2376621188
 30
0.0
 10
102.0178514285
 20
29.0363535641
 30
0.0
 10
102.0458170352
 20
28.9360684705
 30
0.0
  0
LINE
  5
428
100
AcDbEntity
  8
0
100
AcDbLine
 62
7
  6
CONTINUOUS
 10
99.6259901928
 20
30.6977744396
 30
0.0
 11
99.5516648441
 21
30.3649810553
 31
0.0
  0
LINE
  5
429
100
AcDbEntity
  8
0
100
AcDbLine
 62
7
  6
CONTINUOUS
 10
98.603794601
 20
32.137543123
 30
0.0
 11
98.5719782934
 21
32.0455594114
 31
0.0
  0
SPLINE
  5
42A
100
AcDbEntity
  8
0
100
AcDbSpline
 62
7
  6
CONTINUOUS
 70
0
 71
3
 72
9
 73
5
 74
0
 42
0.0000001
 43
0.0000001
 44
0.0000000001
 40
0.0
 40
0.0
 40
0.0
 40
0.0
 40
0.249744459
 40
1.0
 40
1.0
 40
1.0
 40
1.0
 10
102.0847236476
 20
29.0333580406
 30
0.0
 10
102.0724425097
 20
29.0781739793
 30
0.0
 10
102.023930957
 20
29.257801805
 30
0.0
 10
101.9755794116
 20
29.4374749154
 30
0.0
 10
101.9383292204
 20
29.5720079512
 30
0.0
  0
SPLINE
  5
42B
100
AcDbEntity
  8
0
100
AcDbSpline
 62
7
  6
CONTINUOUS
 70
0
 71
3
 72
11
 73
7
 74
0
 42
0.0000001
 43
0.0000001
 44
0.0000000001
 40
0.0
 40
0.0
 40
0.0
 40
0.0
 40
0.2364974824
 40
0.4815059905
 40
0.7378547655
 40
1.0
 40
1.0
 40
1.0
 40
1.0
 10
101.9383292204
 20
29.5720079512
 30
0.0
 10
101.9270085753
 20
29.6128936673
 30
0.0
 10
101.9045544495
 20
29.6963201623
 30
0.0
 10
101.8606675874
 20
29.8213957343
 30
0.0
 10
101.8025307601
 20
29.9456594796
 30
0.0
 10
101.7497121152
 20
30.02328878
 30
0.0
 10
101.7182703977
 20
30.0582566934
 30
0.0
  0
SPLINE
  5
42C
100
AcDbEntity
  8
0
100
AcDbSpline
 62
7
  6
CONTINUOUS
 70
0
 71
3
 72
11
 73
7
 74
0
 42
0.0000001
 43
0.0000001
 44
0.0000000001
 40
0.0
 40
0.0
 40
0.0
 40
0.0
 40
0.2736554404
 40
0.5279331102
 40
0.7686392292
 40
1.0
 40
1.0
 40
1.0
 40
1.0
 10
101.5947717914
 20
31.1064437111
 30
0.0
 10
101.5238843121
 20
31.1736353738
 30
0.0
 10
101.3747782488
 20
31.2902855525
 30
0.0
 10
101.1410201882
 20
31.4343860515
 30
0.0
 10
100.9097000758
 20
31.5519820157
 30
0.0
 10
100.7550049094
 20
31.6189033813
 30
0.0
 10
100.6787051408
 20
31.6504811152
 30
0.0
  0
SPLINE
  5
42D
100
AcDbEntity
  8
RACCORDO
100
AcDbSpline
 62
7
  6
CONTINUOUS
 70
0
 71
3
 72
9
 73
5
 74
0
 42
0.0000001
 43
0.0000001
 44
0.0000000001
 40
0.0
 40
0.0
 40
0.0
 40
0.0
 40
0.2598332153
 40
1.0
 40
1.0
 40
1.0
 40
1.0
 10
86.0116357247
 20
79.2767830175
 30
0.0
 10
86.0078468665
 20
79.2789706567
 30
0.0
 10
85.9929021805
 20
79.2867280091
 30
0.0
 10
85.9764220885
 20
79.2916669874
 30
0.0
 10
85.9640489848
 20
79.2931604915
 30
0.0
  0
SPLINE
  5
42E
100
AcDbEntity
  8
RACCORDO
100
AcDbSpline
 62
7
  6
CONTINUOUS
 70
0
 71
3
 72
9
 73
5
 74
0
 42
0.0000001
 43
0.0000001
 44
0.0000000001
 40
0.0
 40
0.0
 40
0.0
 40
0.0
 40
0.2606386521
 40
1.0
 40
1.0
 40
1.0
 40
1.0
 10
114.2799318211
 20
30.3068113674
 30
0.0
 10
114.2799318211
 20
30.3024940438
 30
0.0
 10
114.2792128913
 20
30.2859466953
 30
0.0
 10
114.2753967207
 20
30.2694631674
 30
0.0
 10
114.2706381398
 20
30.258178361
 30
0.0
  0
SPLINE
  5
42F
100
AcDbEntity
  8
RACCORDO
100
AcDbSpline
 62
7
  6
CONTINUOUS
 70
0
 71
3
 72
9
 73
5
 74
0
 42
0.0000001
 43
0.0000001
 44
0.0000000001
 40
0.0
 40
0.0
 40
0.0
 40
0.0
 40
0.2606386521
 40
1.0
 40
1.0
 40
1.0
 40
1.0
 10
98.3700292444
 20
39.4929897172
 30
0.0
 10
98.3700292444
 20
39.4886723936
 30
0.0
 10
98.3693103146
 20
39.4721250452
 30
0.0
 10
98.365494144
 20
39.4556415173
 30
0.0
 10
98.3607355631
 20
39.4443567109
 30
0.0
  0
ELLIPSE
  5
430
100
AcDbEntity
  8
RACCORDO
100
AcDbEllipse
 62
7
  6
CONTINUOUS
 10
86.7177788257
 20
60.6300594249
 30
0.0
 11
-0.084166101
 21
0.2024625928
 31
0.0
 40
0.5613658173
 41
-0.6329014256
 42
-0.3097068111
  0
ELLIPSE
  5
431
100
AcDbEntity
  8
RACCORDO
100
AcDbEllipse
 62
7
  6
CONTINUOUS
 10
86.7177734406
 20
79.000643762
 30
0.0
 11
-0.083754884
 21
0.2021201047
 31
0.0
 40
0.563784925
 41
-0.6338316006
 42
-0.3075595894
  0
ELLIPSE
  5
432
100
AcDbEntity
  8
RACCORDO
100
AcDbEllipse
 62
7
  6
CONTINUOUS
 10
98.4839126644
 20
40.2505178288
 30
0.0
 11
-0.1332649222
 21
0.1741174035
 31
0.0
 40
0.5613497546
 41
-2.8318719573
 42
-2.5087796435
  0
ELLIPSE
  5
433
100
AcDbEntity
  8
RACCORDO
100
AcDbEllipse
 62
7
  6
CONTINUOUS
 10
86.929905475
 20
74.9310630684
 30
0.0
 11
0.1659657471
 21
0.1613385141
 31
0.0
 40
0.6917358397
 41
-1.3773937918
 42
-0.5919952067
  0
ELLIPSE
  5
434
100
AcDbEntity
  8
RACCORDO
100
AcDbEllipse
 62
7
  6
CONTINUOUS
 10
86.929905475
 20
56.5604818405
 30
0.0
 11
0.1659657471
 21
0.1613385141
 31
0.0
 40
0.6917358397
 41
-1.3773937918
 42
-0.5919952067
  0
ELLIPSE
  5
435
100
AcDbEntity
  8
RACCORDO
100
AcDbEllipse
 62
7
  6
CONTINUOUS
 10
110.9754313699
 20
33.2829905668
 30
0.0
 11
0.2227039483
 21
0.0630673801
 31
0.0
 40
0.6916967922
 41
0.5919174155
 42
1.3773643225
  0
ELLIPSE
  5
436
100
AcDbEntity
  8
RACCORDO
100
AcDbEllipse
 62
7
  6
CONTINUOUS
 10
95.0655287932
 20
42.4691689167
 30
0.0
 11
0.2227039483
 21
0.0630673801
 31
0.0
 40
0.6916967922
 41
0.5919174155
 42
1.3773643225
  0
ELLIPSE
  5
437
100
AcDbEntity
  8
RACCORDO
100
AcDbEllipse
 62
7
  6
CONTINUOUS
 10
85.2012504956
 20
46.1682152611
 30
0.0
 11
-0.2500120911
 21
0.4330057209
 31
0.0
 40
0.5775075436
 41
0.7855021057
 42
2.355993846
  0
ELLIPSE
  5
438
100
AcDbEntity
  8
RACCORDO
100
AcDbEllipse
 62
7
  6
CONTINUOUS
 10
114.5031746066
 20
31.2461158349
 30
0.0
 11
0.0365055561
 21
0.2092349662
 31
0.0
 40
0.2023676368
 41
0.0886100741
 42
0.7115065359
  0
ELLIPSE
  5
439
100
AcDbEntity
  8
RACCORDO
100
AcDbEllipse
 62
7
  6
CONTINUOUS
 10
98.5932720299
 20
40.4322941848
 30
0.0
 11
0.0365055561
 21
0.2092349662
 31
0.0
 40
0.2023676368
 41
5.4238955163
 42
6.9946918431
  0
ELLIPSE
  5
43A
100
AcDbEntity
  8
RACCORDO
100
AcDbEllipse
 62
7
  6
CONTINUOUS
 10
86.929905475
 20
79.0044188522
 30
0.0
 11
0.1994533289
 21
-0.0730029731
 31
0.0
 40
0.2024209805
 41
-0.7114441032
 42
0.8593522236
  0
ELLIPSE
  5
43B
100
AcDbEntity
  8
RACCORDO
100
AcDbEllipse
 62
7
  6
CONTINUOUS
 10
86.929905475
 20
60.6338376244
 30
0.0
 11
0.1994533289
 21
-0.0730029731
 31
0.0
 40
0.2024209805
 41
-0.7114441032
 42
0.8593522236
  0
ENDSEC
  0
SECTION
  2
OBJECTS
  0
DICTIONARY
  5
C
100
AcDbDictionary
280
0
281
1
  3
ACAD_GROUP
350
D
  3
ACAD_MLINESTYLE
350
17
  3
ACAD_LAYOUT
350
1A
  3
ACAD_PLOTSETTINGS
350
19
  3
ACAD_PLOTSTYLENAME
350
E
  0
DICTIONARY
  5
D
102
{ACAD_REACTORS
330
C
102
}
100
AcDbDictionary
280
0
281
1
  0
ACDBDICTIONARYWDFLT
  5
E
102
{ACAD_REACTORS
330
C
102
}
100
AcDbDictionary
281
1
  3
Normal
350
F
100
AcDbDictionaryWithDefault
340
F
  0
DICTIONARY
  5
17
102
{ACAD_REACTORS
330
C
102
}
100
AcDbDictionary
280
0
281
1
  3
Standard
350
18
  0
DICTIONARY
  5
19
102
{ACAD_REACTORS
330
C
102
}
100
AcDbDictionary
281
1
  0
DICTIONARY
  5
1A
102
{ACAD_REACTORS
330
C
102
}
100
AcDbDictionary
281
1
  3
Model
350
43C
  3
Layout1
350
43D
  0
ACDBPLACEHOLDER
  5
F
102
{ACAD_REACTORS
330
E
102
}
  0
MLINESTYLE
  5
18
102
{ACAD_REACTORS
330
17
102
}
100
AcDbMlineStyle
  2
STANDARD
 70
0
  3

 62
256
 51
90.0
 52
90.0
 71
2
 49
0.5
 62
256
  6
BYLAYER
 49
-0.5
 62
256
  6
BYLAYER
  0
LAYOUT
  5
43C
102
{ACAD_REACTORS
330
1A
102
}
100
AcDbPlotSettings
  1

  2
none_device
  4
ISO_A4_(297.00_x_210.00_MM)
  6

 40
0.0
 41
0.0
 42
0.0
 43
0.0
 44
297.0
 45
210.0
 46
0.0
 47
0.0
 48
0.0
 49
0.0
140
0.0
141
0.0
142
1.0
143
1.0
 70
1024
 72
1
 73
0
 74
0
  7

 75
0
147
1.0
148
0.0
149
0.0
100
AcDbLayout
  1
Model
 70
0
 71
0
 10
0.0
 20
0.0
 11
297.0
 21
210.0
 12
0.0
 22
0.0
 32
0.0
 14
0.0
 24
0.0
 34
0.0
 15
0.0
 25
0.0
 35
0.0
146
0.0
 13
0.0
 23
0.0
 33
0.0
 16
1.0
 26
0.0
 36
0.0
 17
0.0
 27
1.0
 37
0.0
 76
0
330
219
345
0
346
0
  0
LAYOUT
  5
43D
102
{ACAD_REACTORS
330
1A
102
}
100
AcDbPlotSettings
  1

  2
none_device
  4
ISO_A4_(297.00_x_210.00_MM)
  6

 40
0.0
 41
0.0
 42
0.0
 43
0.0
 44
297.0
 45
210.0
 46
0.0
 47
0.0
 48
0.0
 49
0.0
140
0.0
141
0.0
142
1.0
143
1.0
 70
0
 72
1
 73
0
 74
0
  7

 75
0
147
1.0
148
0.0
149
0.0
100
AcDbLayout
  1
Layout1
 70
0
 71
1
 10
0.0
 20
0.0
 11
297.0
 21
210.0
 12
0.0
 22
0.0
 32
0.0
 14
0.0
 24
0.0
 34
0.0
 15
0.0
 25
0.0
 35
0.0
146
0.0
 13
0.0
 23
0.0
 33
0.0
 16
1.0
 26
0.0
 36
0.0
 17
0.0
 27
1.0
 37
0.0
 76
0
330
21A
345
0
346
0
  0
ENDSEC
  0
EOF
