  0
SECTION
  2
HEADER
  9
$ACADVER
  1
AC1032
  9
$ACADMAINTVER
 90
      155
  9
$DWGCODEPAGE
  3
ANSI_1252
  9
$REQUIREDVERSIONS
160
                 0
  9
$INSBASE
 10
0.0
 20
0.0
 30
0.0
  9
$EXTMIN
 10
1.000000000000000E+20
 20
1.000000000000000E+20
 30
1.000000000000000E+20
  9
$EXTMAX
 10
-1.000000000000000E+20
 20
-1.000000000000000E+20
 30
-1.000000000000000E+20
  9
$LIMMIN
 10
0.0
 20
0.0
  9
$LIMMAX
 10
12.0
 20
9.0
  9
$ORTHOMODE
 70
     0
  9
$REGENMODE
 70
     1
  9
$FILLMODE
 70
     1
  9
$QTEXTMODE
 70
     0
  9
$MIRRTEXT
 70
     0
  9
$LTSCALE
 40
1.0
  9
$ATTMODE
 70
     1
  9
$TEXTSIZE
 40
0.2
  9
$TRACEWID
 40
0.05
  9
$TEXTSTYLE
  7
Standard
  9
$CLAYER
  8
0
  9
$CELTYPE
  6
ByLayer
  9
$CECOLOR
 62
   256
  9
$CELTSCALE
 40
1.0
  9
$DISPSILH
 70
     0
  9
$DIMSCALE
 40
1.0
  9
$DIMASZ
 40
0.18
  9
$DIMEXO
 40
0.0625
  9
$DIMDLI
 40
0.38
  9
$DIMRND
 40
0.0
  9
$DIMDLE
 40
0.0
  9
$DIMEXE
 40
0.18
  9
$DIMTP
 40
0.0
  9
$DIMTM
 40
0.0
  9
$DIMTXT
 40
0.18
  9
$DIMCEN
 40
0.09
  9
$DIMTSZ
 40
0.0
  9
$DIMTOL
 70
     0
  9
$DIMLIM
 70
     0
  9
$DIMTIH
 70
     1
  9
$DIMTOH
 70
     1
  9
$DIMSE1
 70
     0
  9
$DIMSE2
 70
     0
  9
$DIMTAD
 70
     0
  9
$DIMZIN
 70
     0
  9
$DIMBLK
  1

  9
$DIMASO
 70
     1
  9
$DIMSHO
 70
     1
  9
$DIMPOST
  1

  9
$DIMAPOST
  1

  9
$DIMALT
 70
     0
  9
$DIMALTD
 70
     2
  9
$DIMALTF
 40
25.4
  9
$DIMLFAC
 40
1.0
  9
$DIMTOFL
 70
     0
  9
$DIMTVP
 40
0.0
  9
$DIMTIX
 70
     0
  9
$DIMSOXD
 70
     0
  9
$DIMSAH
 70
     0
  9
$DIMBLK1
  1

  9
$DIMBLK2
  1

  9
$DIMSTYLE
  2
Standard
  9
$DIMCLRD
 70
     0
  9
$DIMCLRE
 70
     0
  9
$DIMCLRT
 70
     0
  9
$DIMTFAC
 40
1.0
  9
$DIMGAP
 40
0.09
  9
$DIMJUST
 70
     0
  9
$DIMSD1
 70
     0
  9
$DIMSD2
 70
     0
  9
$DIMTOLJ
 70
     1
  9
$DIMTZIN
 70
     0
  9
$DIMALTZ
 70
     0
  9
$DIMALTTZ
 70
     0
  9
$DIMUPT
 70
     0
  9
$DIMDEC
 70
     4
  9
$DIMTDEC
 70
     4
  9
$DIMALTU
 70
     2
  9
$DIMALTTD
 70
     2
  9
$DIMTXSTY
  7
Standard
  9
$DIMAUNIT
 70
     0
  9
$DIMADEC
 70
     0
  9
$DIMALTRND
 40
0.0
  9
$DIMAZIN
 70
     0
  9
$DIMDSEP
 70
    46
  9
$DIMATFIT
 70
     3
  9
$DIMFRAC
 70
     0
  9
$DIMLDRBLK
  1

  9
$DIMLUNIT
 70
     2
  9
$DIMLWD
 70
    -2
  9
$DIMLWE
 70
    -2
  9
$DIMTMOVE
 70
     0
  9
$DIMFXL
 40
1.0
  9
$DIMFXLON
 70
     0
  9
$DIMJOGANG
 40
0.7853981633974483
  9
$DIMTFILL
 70
     0
  9
$DIMTFILLCLR
 70
     0
  9
$DIMARCSYM
 70
     0
  9
$DIMLTYPE
  6

  9
$DIMLTEX1
  6

  9
$DIMLTEX2
  6

  9
$DIMTXTDIRECTION
 70
     0
  9
$LUNITS
 70
     2
  9
$LUPREC
 70
     4
  9
$SKETCHINC
 40
0.1
  9
$FILLETRAD
 40
0.0
  9
$AUNITS
 70
     0
  9
$AUPREC
 70
     0
  9
$MENU
  1
.
  9
$ELEVATION
 40
0.0
  9
$PELEVATION
 40
0.0
  9
$THICKNESS
 40
0.0
  9
$LIMCHECK
 70
     0
  9
$CHAMFERA
 40
0.0
  9
$CHAMFERB
 40
0.0
  9
$CHAMFERC
 40
0.0
  9
$CHAMFERD
 40
0.0
  9
$SKPOLY
 70
     0
  9
$TDCREATE
 40
2459975.484641204
  9
$TDUCREATE
 40
2459975.442974537
  9
$TDUPDATE
 40
2459975.484641204
  9
$TDUUPDATE
 40
2459975.442974537
  9
$TDINDWG
 40
0.0000000000
  9
$TDUSRTIMER
 40
0.0000000000
  9
$USRTIMER
 70
     1
  9
$ANGBASE
 50
0.0
  9
$ANGDIR
 70
     0
  9
$PDMODE
 70
     0
  9
$PDSIZE
 40
0.0
  9
$PLINEWID
 40
0.0
  9
$SPLFRAME
 70
     0
  9
$SPLINETYPE
 70
     6
  9
$SPLINESEGS
 70
     8
  9
$HANDSEED
  5
2FC
  9
$SURFTAB1
 70
     6
  9
$SURFTAB2
 70
     6
  9
$SURFTYPE
 70
     6
  9
$SURFU
 70
     6
  9
$SURFV
 70
     6
  9
$UCSBASE
  2

  9
$UCSNAME
  2

  9
$UCSORG
 10
0.0
 20
0.0
 30
0.0
  9
$UCSXDIR
 10
1.0
 20
0.0
 30
0.0
  9
$UCSYDIR
 10
0.0
 20
1.0
 30
0.0
  9
$UCSORTHOREF
  2

  9
$UCSORTHOVIEW
 70
     0
  9
$UCSORGTOP
 10
0.0
 20
0.0
 30
0.0
  9
$UCSORGBOTTOM
 10
0.0
 20
0.0
 30
0.0
  9
$UCSORGLEFT
 10
0.0
 20
0.0
 30
0.0
  9
$UCSORGRIGHT
 10
0.0
 20
0.0
 30
0.0
  9
$UCSORGFRONT
 10
0.0
 20
0.0
 30
0.0
  9
$UCSORGBACK
 10
0.0
 20
0.0
 30
0.0
  9
$PUCSBASE
  2

  9
$PUCSNAME
  2

  9
$PUCSORG
 10
0.0
 20
0.0
 30
0.0
  9
$PUCSXDIR
 10
1.0
 20
0.0
 30
0.0
  9
$PUCSYDIR
 10
0.0
 20
1.0
 30
0.0
  9
$PUCSORTHOREF
  2

  9
$PUCSORTHOVIEW
 70
     0
  9
$PUCSORGTOP
 10
0.0
 20
0.0
 30
0.0
  9
$PUCSORGBOTTOM
 10
0.0
 20
0.0
 30
0.0
  9
$PUCSORGLEFT
 10
0.0
 20
0.0
 30
0.0
  9
$PUCSORGRIGHT
 10
0.0
 20
0.0
 30
0.0
  9
$PUCSORGFRONT
 10
0.0
 20
0.0
 30
0.0
  9
$PUCSORGBACK
 10
0.0
 20
0.0
 30
0.0
  9
$USERI1
 70
     0
  9
$USERI2
 70
     0
  9
$USERI3
 70
     0
  9
$USERI4
 70
     0
  9
$USERI5
 70
     0
  9
$USERR1
 40
0.0
  9
$USERR2
 40
0.0
  9
$USERR3
 40
0.0
  9
$USERR4
 40
0.0
  9
$USERR5
 40
0.0
  9
$WORLDVIEW
 70
     1
  9
$SHADEDGE
 70
     3
  9
$SHADEDIF
 70
    70
  9
$TILEMODE
 70
     1
  9
$MAXACTVP
 70
    64
  9
$PINSBASE
 10
0.0
 20
0.0
 30
0.0
  9
$PLIMCHECK
 70
     0
  9
$PEXTMIN
 10
1.000000000000000E+20
 20
1.000000000000000E+20
 30
1.000000000000000E+20
  9
$PEXTMAX
 10
-1.000000000000000E+20
 20
-1.000000000000000E+20
 30
-1.000000000000000E+20
  9
$PLIMMIN
 10
0.0
 20
0.0
  9
$PLIMMAX
 10
12.0
 20
9.0
  9
$UNITMODE
 70
     0
  9
$VISRETAIN
 70
     1
  9
$PLINEGEN
 70
     0
  9
$PSLTSCALE
 70
     1
  9
$TREEDEPTH
 70
  3020
  9
$CMLSTYLE
  2
Standard
  9
$CMLJUST
 70
     0
  9
$CMLSCALE
 40
1.0
  9
$PROXYGRAPHICS
 70
     1
  9
$MEASUREMENT
 70
     0
  9
$CELWEIGHT
370
    -1
  9
$ENDCAPS
280
     0
  9
$JOINSTYLE
280
     0
  9
$LWDISPLAY
290
     1
  9
$INSUNITS
 70
     4
  9
$HYPERLINKBASE
  1

  9
$STYLESHEET
  1

  9
$XEDIT
290
     1
  9
$CEPSNTYPE
380
     0
  9
$PSTYLEMODE
290
     1
  9
$FINGERPRINTGUID
  2
{D630F161-1301-1640-BC51-8129FE74B351}
  9
$VERSIONGUID
  2
{117D8718-C260-B842-8900-5EDBE127F1E0}
  9
$EXTNAMES
290
     1
  9
$PSVPSCALE
 40
0.0
  9
$OLESTARTUP
290
     0
  9
$SORTENTS
280
   127
  9
$INDEXCTL
280
     0
  9
$HIDETEXT
280
     1
  9
$XCLIPFRAME
280
     2
  9
$HALOGAP
280
     0
  9
$OBSCOLOR
 70
   257
  9
$OBSLTYPE
280
     0
  9
$INTERSECTIONDISPLAY
280
     0
  9
$INTERSECTIONCOLOR
 70
   257
  9
$DIMASSOC
280
     2
  9
$PROJECTNAME
  1

  9
$CAMERADISPLAY
290
     0
  9
$LENSLENGTH
 40
50.0
  9
$CAMERAHEIGHT
 40
0.0
  9
$STEPSPERSEC
 40
2.0
  9
$STEPSIZE
 40
6.0
  9
$3DDWFPREC
 40
2.0
  9
$PSOLWIDTH
 40
0.25
  9
$PSOLHEIGHT
 40
4.0
  9
$LOFTANG1
 40
1.570796326794896
  9
$LOFTANG2
 40
1.570796326794896
  9
$LOFTMAG1
 40
0.0
  9
$LOFTMAG2
 40
0.0
  9
$LOFTPARAM
 70
     7
  9
$LOFTNORMALS
280
     1
  9
$LATITUDE
 40
37.795
  9
$LONGITUDE
 40
-122.394
  9
$NORTHDIRECTION
 40
0.0
  9
$TIMEZONE
 70
 -8000
  9
$LIGHTGLYPHDISPLAY
280
     1
  9
$TILEMODELIGHTSYNCH
280
     1
  9
$CMATERIAL
347
11
  9
$SOLIDHIST
280
     0
  9
$SHOWHIST
280
     1
  9
$DWFFRAME
280
     2
  9
$DGNFRAME
280
     0
  9
$REALWORLDSCALE
290
     1
  9
$INTERFERECOLOR
 62
     1
  9
$INTERFEREOBJVS
345
33
  9
$INTERFEREVPVS
346
30
  9
$CSHADOW
280
     0
  9
$SHADOWPLANELOCATION
 40
0.0
  0
ENDSEC
  0
SECTION
  2
CLASSES
  0
CLASS
  1
ACDBDICTIONARYWDFLT
  2
AcDbDictionaryWithDefault
  3
ObjectDBX Classes
 90
        0
 91
        1
280
     0
281
     0
  0
CLASS
  1
MATERIAL
  2
AcDbMaterial
  3
ObjectDBX Classes
 90
     1153
 91
        3
280
     0
281
     0
  0
CLASS
  1
VISUALSTYLE
  2
AcDbVisualStyle
  3
ObjectDBX Classes
 90
     4095
 91
       24
280
     0
281
     0
  0
CLASS
  1
SCALE
  2
AcDbScale
  3
ObjectDBX Classes
 90
     1153
 91
       17
280
     0
281
     0
  0
CLASS
  1
TABLESTYLE
  2
AcDbTableStyle
  3
ObjectDBX Classes
 90
     4095
 91
        1
280
     0
281
     0
  0
CLASS
  1
MLEADERSTYLE
  2
AcDbMLeaderStyle
  3
ACDB_MLEADERSTYLE_CLASS
 90
     4095
 91
        1
280
     0
281
     0
  0
CLASS
  1
ACDBSECTIONVIEWSTYLE
  2
AcDbSectionViewStyle
  3
ObjectDBX Classes
 90
     1025
 91
        1
280
     0
281
     0
  0
CLASS
  1
ACDBDETAILVIEWSTYLE
  2
AcDbDetailViewStyle
  3
ObjectDBX Classes
 90
     1025
 91
        1
280
     0
281
     0
  0
CLASS
  1
DICTIONARYVAR
  2
AcDbDictionaryVar
  3
ObjectDBX Classes
 90
        0
 91
        5
280
     0
281
     0
  0
CLASS
  1
CELLSTYLEMAP
  2
AcDbCellStyleMap
  3
ObjectDBX Classes
 90
     1152
 91
        1
280
     0
281
     0
  0
ENDSEC
  0
SECTION
  2
TABLES
  0
TABLE
  2
VPORT
  5
8
330
0
100
AcDbSymbolTable
 70
     1
  0
VPORT
  5
57
330
8
100
AcDbSymbolTableRecord
100
AcDbViewportTableRecord
  2
*Active
 70
     0
 10
0.0
 20
0.0
 11
1.0
 21
1.0
 12
0.0
 22
0.0
 13
0.0
 23
0.0
 14
1.0
 24
1.0
 15
0.0
 25
0.0
 16
0.0
 26
0.0
 36
1.0
 17
82.90430988488969
 27
176.4238695709918
 37
0.0
 40
359.9046939248234
 41
0.7204004470376506
 42
50.0
 43
0.0
 44
0.0
 50
0.0
 51
0.0
 71
     0
 72
   100
 73
     1
 74
     0
 75
     1
 76
     0
 77
     0
 78
     0
281
     0
 65
     1
110
0.0
120
0.0
130
0.0
111
1.0
121
0.0
131
0.0
112
0.0
122
1.0
132
0.0
 79
     0
146
0.0
 60
     3
 61
     5
292
     1
282
     1
141
0.0
142
0.0
 63
   250
421
  3355443
  0
ENDTAB
  0
TABLE
  2
LTYPE
  5
5
330
0
100
AcDbSymbolTable
 70
     1
  0
LTYPE
  5
5B
330
5
100
AcDbSymbolTableRecord
100
AcDbLinetypeTableRecord
  2
ByBlock
 70
     0
  3

 72
    65
 73
     0
 40
0.0
  0
LTYPE
  5
5C
330
5
100
AcDbSymbolTableRecord
100
AcDbLinetypeTableRecord
  2
ByLayer
 70
     0
  3

 72
    65
 73
     0
 40
0.0
  0
LTYPE
  5
5D
330
5
100
AcDbSymbolTableRecord
100
AcDbLinetypeTableRecord
  2
Continuous
 70
     0
  3
Solid line
 72
    65
 73
     0
 40
0.0
  0
ENDTAB
  0
TABLE
  2
LAYER
  5
2
330
0
100
AcDbSymbolTable
 70
     3
  0
LAYER
  5
54
330
2
100
AcDbSymbolTableRecord
100
AcDbLayerTableRecord
  2
0
 70
     0
 62
     7
  6
Continuous
370
     0
390
F
347
21
348
0
  0
LAYER
  5
28B
330
2
100
AcDbSymbolTableRecord
100
AcDbLayerTableRecord
  2
RACCORDO
 70
     0
 62
     7
  6
Continuous
370
     0
390
F
347
21
348
0
  0
LAYER
  5
2C8
330
2
100
AcDbSymbolTableRecord
100
AcDbLayerTableRecord
  2
DRAFT
 70
     0
 62
     7
  6
Continuous
370
     0
390
F
347
21
348
0
  0
ENDTAB
  0
TABLE
  2
STYLE
  5
3
330
0
100
AcDbSymbolTable
 70
     2
  0
STYLE
  5
55
330
3
100
AcDbSymbolTableRecord
100
AcDbTextStyleTableRecord
  2
Standard
 70
     0
 40
0.0
 41
1.0
 50
0.0
 71
     0
 42
0.2
  3
txt
  4

  0
STYLE
  5
5A
330
3
100
AcDbSymbolTableRecord
100
AcDbTextStyleTableRecord
  2
Annotative
 70
     0
 40
0.0
 41
1.0
 50
0.0
 71
     0
 42
0.2
  3
txt
  4

1001
AcadAnnotative
1000
AnnotativeData
1002
{
1070
     1
1070
     1
1002
}
  0
ENDTAB
  0
TABLE
  2
VIEW
  5
6
330
0
100
AcDbSymbolTable
 70
     0
  0
ENDTAB
  0
TABLE
  2
UCS
  5
7
330
0
100
AcDbSymbolTable
 70
     0
  0
ENDTAB
  0
TABLE
  2
APPID
  5
9
330
0
100
AcDbSymbolTable
 70
     2
  0
APPID
  5
56
330
9
100
AcDbSymbolTableRecord
100
AcDbRegAppTableRecord
  2
ACAD
 70
     0
  0
APPID
  5
5E
330
9
100
AcDbSymbolTableRecord
100
AcDbRegAppTableRecord
  2
AcadAnnotative
 70
     0
  0
ENDTAB
  0
TABLE
  2
DIMSTYLE
  5
A
330
0
100
AcDbSymbolTable
 70
     2
100
AcDbDimStyleTable
 71
     0
  0
DIMSTYLE
105
58
330
A
100
AcDbSymbolTableRecord
100
AcDbDimStyleTableRecord
  2
Standard
 70
     0
340
55
  0
DIMSTYLE
105
59
330
A
100
AcDbSymbolTableRecord
100
AcDbDimStyleTableRecord
  2
Annotative
 70
     0
340
55
1001
AcadAnnotative
1000
AnnotativeData
1002
{
1070
     1
1070
     1
1002
}
  0
ENDTAB
  0
TABLE
  2
BLOCK_RECORD
  5
1
330
0
100
AcDbSymbolTable
 70
     1
  0
BLOCK_RECORD
  5
70
330
1
100
AcDbSymbolTableRecord
100
AcDbBlockTableRecord
  2
*Model_Space
340
73
 70
     0
280
     1
281
     0
  0
BLOCK_RECORD
  5
6C
330
1
100
AcDbSymbolTableRecord
100
AcDbBlockTableRecord
  2
*Paper_Space
340
6F
 70
     0
280
     1
281
     0
  0
BLOCK_RECORD
  5
74
330
1
100
AcDbSymbolTableRecord
100
AcDbBlockTableRecord
  2
*Paper_Space0
340
77
 70
     0
280
     1
281
     0
  0
ENDTAB
  0
ENDSEC
  0
SECTION
  2
BLOCKS
  0
BLOCK
  5
71
330
70
100
AcDbEntity
  8
0
100
AcDbBlockBegin
  2
*Model_Space
 70
     0
 10
0.0
 20
0.0
 30
0.0
  3
*Model_Space
  1

  0
ENDBLK
  5
72
330
70
100
AcDbEntity
  8
0
100
AcDbBlockEnd
  0
BLOCK
  5
6D
330
6C
100
AcDbEntity
 67
     1
  8
0
100
AcDbBlockBegin
  2
*Paper_Space
 70
     0
 10
0.0
 20
0.0
 30
0.0
  3
*Paper_Space
  1

  0
ENDBLK
  5
6E
330
6C
100
AcDbEntity
 67
     1
  8
0
100
AcDbBlockEnd
  0
BLOCK
  5
75
330
74
100
AcDbEntity
 67
     1
  8
0
100
AcDbBlockBegin
  2
*Paper_Space0
 70
     0
 10
0.0
 20
0.0
 30
0.0
  3
*Paper_Space0
  1

  0
ENDBLK
  5
76
330
74
100
AcDbEntity
 67
     1
  8
0
100
AcDbBlockEnd
  0
ENDSEC
  0
SECTION
  2
ENTITIES
  0
LWPOLYLINE
  5
78
330
70
100
AcDbEntity
  8
0
 62
    18
420
        0
370
    25
100
AcDbPolyline
 90
       12
 70
     0
 43
0.0
 10
-43.15936345056499
 20
350.7757368917834
 10
-43.25644590816496
 20
350.7132474246836
 10
-43.37143046196508
 20
350.6260555039834
 10
-43.47995145106483
 20
350.5282353888834
 10
-43.58126004076501
 20
350.4200363501836
 10
-43.67493952976488
 20
350.3012303535834
 10
-43.76015743006479
 20
350.1719474256836
 10
-43.83609029336479
 20
350.0325141929835
 10
-43.90229102656495
 20
349.8829588034835
 10
-43.95807785556502
 20
349.7237231504835
 10
-44.00273973896482
 20
349.5555955162833
 10
-44.0108222798648
 20
349.5184270386835
  0
LWPOLYLINE
  5
79
330
70
100
AcDbEntity
  8
0
 62
   250
420
  3355443
370
    25
100
AcDbPolyline
 90
       16
 70
     0
 43
0.0
 10
-41.723713547365
 20
350.6492390739833
 10
-41.78317013066478
 20
350.6128556967835
 10
-41.84162283806506
 20
350.5708361730835
 10
-41.89883132166487
 20
350.5234003790835
 10
-41.95467448096509
 20
350.4706622761835
 10
-42.00880897376497
 20
350.4129097319835
 10
-42.06073258366502
 20
350.3506789360836
 10
-42.10996360226506
 20
350.2845956210834
 10
-42.15618953976484
 20
350.2150939781834
 10
-42.19911596016491
 20
350.1426080568835
 10
-42.23834386946484
 20
350.0677350360835
 10
-42.27347895106498
 20
349.9911280436835
 10
-42.30431094306506
 20
349.9132867520835
 10
-42.3306808130648
 20
349.8346691615835
 10
-42.35246479626498
 20
349.7556656984834
 10
-42.3695097474648
 20
349.6767096727833
  0
LINE
  5
7A
330
70
100
AcDbEntity
  8
0
 62
    18
420
        0
370
    25
100
AcDbLine
 10
-43.159402741365
 20
350.7756956107834
 30
0.0
 11
-40.10255612946485
 21
352.5664407609834
 31
0.0
  0
LINE
  5
7B
330
70
100
AcDbEntity
  8
0
 62
   250
420
  3355443
370
    25
100
AcDbLine
 10
-38.71481217386479
 20
352.5174851192836
 30
0.0
 11
-41.88291715916498
 21
350.7301026731836
 31
0.0
  0
LINE
  5
7C
330
70
100
AcDbEntity
  8
0
 62
   250
420
  3355443
370
    25
100
AcDbLine
 10
-43.15300341386484
 20
350.7794764143835
 30
0.0
 11
-43.08417600606483
 21
350.8163701535834
 31
0.0
  0
LWPOLYLINE
  5
7D
330
70
100
AcDbEntity
  8
0
 62
    18
420
        0
370
    25
100
AcDbPolyline
 90
       12
 70
     0
 43
0.0
 10
-40.10268436586486
 20
352.5662798610836
 10
-39.98812110776502
 20
352.6247775725836
 10
-39.87703896246492
 20
352.6668062672836
 10
-39.76093025216508
 20
352.6971084021835
 10
-39.63985855756491
 20
352.7158323082835
 10
-39.51536835216494
 20
352.7227391419836
 10
-39.38741674066497
 20
352.7176778819832
 10
-39.25604661836489
 20
352.7007995496835
 10
-39.12293114386491
 20
352.6723183647833
 10
-38.98862803666489
 20
352.6323057340834
 10
-38.85257957736508
 20
352.5806902509836
 10
-38.71478576596486
 20
352.5174719153834
  0
LWPOLYLINE
  5
7E
330
70
100
AcDbEntity
  8
0
 62
   250
420
  3355443
370
    25
100
AcDbPolyline
 90
       29
 70
     0
 43
0.0
 10
-43.3708728443648
 20
349.7176277185834
 10
-43.330641418265
 20
349.7381144271835
 10
-43.29085066326497
 20
349.7556246875835
 10
-43.25167136826482
 20
349.7704134258834
 10
-43.21338608346509
 20
349.7827813233834
 10
-43.17602587786509
 20
349.7929315729834
 10
-43.13936968816483
 20
349.8009205941834
 10
-43.103525234165
 20
349.8068750221833
 10
-43.06867044786483
 20
349.8110812676835
 10
-43.03465687546487
 20
349.8137564326835
 10
-43.00151337366493
 20
349.8149830167835
 10
-42.96934714776489
 20
349.8149801403836
 10
-42.93805973916481
 20
349.8141035495836
 10
-42.90769732446499
 20
349.8125849883834
 10
-42.87826341676492
 20
349.8104115130833
 10
-42.84959640346494
 20
349.8075353227836
 10
-42.82173318846505
 20
349.8040104440836
 10
-42.79475471146483
 20
349.7999660653834
 10
-42.76855317576496
 20
349.7954408951835
 10
-42.74307264496488
 20
349.7904451432834
 10
-42.71836206226495
 20
349.7851055433835
 10
-42.69442869896491
 20
349.7796164947834
 10
-42.67116478866484
 20
349.7741224112833
 10
-42.64848689116487
 20
349.7685249653834
 10
-42.62640983226484
 20
349.7626418048834
 10
-42.604908494665
 20
349.7565013259834
 10
-42.58407850006486
 20
349.7501435589834
 10
-42.56417737956507
 20
349.7434233986836
 10
-42.52646850456498
 20
349.7291152531837
  0
LWPOLYLINE
  5
7F
330
70
100
AcDbEntity
  8
0
 62
   250
420
  3355443
370
    25
100
AcDbPolyline
 90
       10
 70
     0
 43
0.0
 10
-43.08417600606483
 20
350.8163701535834
 10
-42.96914895486477
 20
350.8641186347834
 10
-42.84790581156508
 20
350.8981019489833
 10
-42.72038900636489
 20
350.9180514464835
 10
-42.58614400076483
 20
350.9235126988836
 10
-42.44682259166488
 20
350.9138549466836
 10
-42.3056907059649
 20
350.8890844041834
 10
-42.16450212246503
 20
350.8498473030834
 10
-42.02329461456488
 20
350.7966500550835
 10
-41.88290587096499
 20
350.7300951239836
  0
LWPOLYLINE
  5
80
330
70
100
AcDbEntity
  8
0
 62
    18
420
        0
370
    25
100
AcDbPolyline
 90
        6
 70
     0
 43
0.0
 10
-44.01050355976495
 20
349.5198364062834
 10
-44.03300623686507
 20
349.3925092266835
 10
-44.05043377726488
 20
349.2410308848834
 10
-44.06026669136486
 20
349.0882815209837
 10
-44.06478774916496
 20
348.9344227961834
 10
-44.06585408726479
 20
348.7791120553835
  0
LINE
  5
81
330
70
100
AcDbEntity
  8
0
 62
   250
420
  3355443
370
    25
100
AcDbLine
 10
-44.0142565550648
 20
349.4995698259836
 30
0.0
 11
-44.01080375936498
 21
349.5184162180835
 31
0.0
  0
LINE
  5
82
330
70
100
AcDbEntity
  8
0
 62
    18
420
        0
370
    25
100
AcDbLine
 10
-44.01080375936498
 20
349.5184162180835
 30
0.0
 11
-44.01050355976495
 21
349.5198364062834
 31
0.0
  0
LWPOLYLINE
  5
83
330
70
100
AcDbEntity
  8
0
 62
   250
420
  3355443
370
    25
100
AcDbPolyline
 90
       10
 70
     0
 43
0.0
 10
-43.8239272826648
 20
349.0434388979835
 10
-43.7960271132648
 20
349.1452710163835
 10
-43.76199132446507
 20
349.2411456821836
 10
-43.72202594986491
 20
349.3308610881834
 10
-43.67635204416489
 20
349.4141052919835
 10
-43.62522179846506
 20
349.4901879341834
 10
-43.56886374096478
 20
349.5587936909834
 10
-43.50751572046494
 20
349.6196672737835
 10
-43.44144156636505
 20
349.6726535012836
 10
-43.3708728443648
 20
349.7176277185834
  0
LWPOLYLINE
  5
84
330
70
100
AcDbEntity
  8
0
 62
   250
420
  3355443
370
    25
100
AcDbPolyline
 90
        8
 70
     0
 43
0.0
 10
-44.06652462216486
 20
316.9212724234836
 10
-44.0659554972648
 20
316.9044403611835
 10
-44.05944449026507
 20
316.8620464569836
 10
-44.04569602016489
 20
316.8200670362834
 10
-44.02492854966499
 20
316.7789774832833
 10
-43.99739748756483
 20
316.7390813868836
 10
-43.96323660696503
 20
316.7005038491834
 10
-43.92261747816482
 20
316.6634617896834
  0
LINE
  5
85
330
70
100
AcDbEntity
  8
0
 62
   250
420
  3355443
370
    25
100
AcDbLine
 10
-43.87897702166489
 20
284.8917315944835
 30
0.0
 11
-43.87639589036488
 21
284.6877428213833
 31
0.0
  0
LWPOLYLINE
  5
86
330
70
100
AcDbEntity
  8
0
 62
   250
420
  3355443
370
    25
100
AcDbPolyline
 90
        3
 70
     0
 43
0.0
 10
-43.88774792256481
 20
286.6872407024833
 10
-43.87887347406495
 20
285.7494592367832
 10
-43.87788042316496
 20
285.5277817530832
  0
LINE
  5
87
330
70
100
AcDbEntity
  8
0
 62
    18
420
        0
370
    25
100
AcDbLine
 10
-44.06585408726479
 20
348.7791120553835
 30
0.0
 11
-44.06285220566504
 21
348.3035543291834
 31
0.0
  0
LWPOLYLINE
  5
88
330
70
100
AcDbEntity
  8
0
 62
    18
420
        0
370
    25
100
AcDbPolyline
 90
        6
 70
     0
 43
0.0
 10
-44.06579820256495
 20
285.0939115959834
 10
-44.06518727116497
 20
284.9401412973837
 10
-44.06147193326482
 20
284.7853702887833
 10
-44.05308302896481
 20
284.6300182041832
 10
-44.03823560976497
 20
284.4754070566832
 10
-44.01699684606508
 20
284.3313062952833
  0
LINE
  5
89
330
70
100
AcDbEntity
  8
0
 62
   250
420
  3355443
370
    25
100
AcDbLine
 10
-43.90838266546479
 20
295.3392237187837
 30
0.0
 11
-43.88761724236502
 21
286.6869822281835
 31
0.0
  0
LINE
  5
8A
330
70
100
AcDbEntity
  8
0
 62
   250
420
  3355443
370
    25
100
AcDbLine
 10
-43.92273161136496
 20
311.8338846067836
 30
0.0
 11
-43.90816657146485
 21
295.3393053174838
 31
0.0
  0
LWPOLYLINE
  5
8B
330
70
100
AcDbEntity
  8
0
 62
    18
420
        0
370
    25
100
AcDbPolyline
 90
        3
 70
     0
 43
0.0
 10
-44.06582333096479
 20
294.7657389960836
 10
-44.0651938730648
 20
287.3040728046833
 10
-44.06267783016496
 20
285.7202109016834
  0
LINE
  5
8C
330
70
100
AcDbEntity
  8
0
 62
   250
420
  3355443
370
    25
100
AcDbLine
 10
-43.91186833616489
 20
335.6539103299835
 30
0.0
 11
-43.92273161136496
 21
311.8338846067836
 31
0.0
  0
LWPOLYLINE
  5
8D
330
70
100
AcDbEntity
  8
0
 62
    18
420
        0
370
    25
100
AcDbPolyline
 90
        3
 70
     0
 43
0.0
 10
-44.06285220566504
 20
348.3035543291834
 10
-44.06344306476493
 20
347.8035037651834
 10
-44.06582333096479
 20
294.7657389960836
  0
LINE
  5
8E
330
70
100
AcDbEntity
  8
0
 62
   250
420
  3355443
370
    25
100
AcDbLine
 10
-43.88774787926489
 20
346.5901076445836
 30
0.0
 11
-43.91186833616489
 21
335.6539103299835
 31
0.0
  0
LWPOLYLINE
  5
8F
330
70
100
AcDbEntity
  8
0
 62
    18
420
        0
370
    25
100
AcDbPolyline
 90
        3
 70
     0
 43
0.0
 10
-44.06267783016496
 20
285.7202109016834
 10
-44.06345642046501
 20
285.4013131539836
 10
-44.06579820256495
 20
285.0939115959834
  0
LINE
  5
90
330
70
100
AcDbEntity
  8
0
 62
   250
420
  3355443
370
    25
100
AcDbLine
 10
-43.87788042316496
 20
285.5277817530832
 30
0.0
 11
-43.87897702166489
 21
284.8917315944835
 31
0.0
  0
LINE
  5
91
330
70
100
AcDbEntity
  8
0
 62
   250
420
  3355443
370
    25
100
AcDbLine
 10
-43.87787860096493
 20
347.7385543887835
 30
0.0
 11
-43.88079044756504
 21
347.2927039720834
 31
0.0
  0
LINE
  5
92
330
70
100
AcDbEntity
  8
0
 62
   250
420
  3355443
370
    25
100
AcDbLine
 10
-43.88079044756504
 20
347.2927039720834
 30
0.0
 11
-43.88774783186483
 21
346.5901076623834
 31
0.0
  0
LWPOLYLINE
  5
93
330
70
100
AcDbEntity
  8
0
 62
   250
420
  3355443
370
    25
100
AcDbPolyline
 90
        3
 70
     0
 43
0.0
 10
-43.87639579356489
 20
348.5762116965835
 10
-43.87897618596483
 20
348.3752556309836
 10
-43.87787860096493
 20
347.7385543887835
  0
LWPOLYLINE
  5
94
330
70
100
AcDbEntity
  8
0
 62
   250
420
  3355443
370
    25
100
AcDbPolyline
 90
       10
 70
     0
 43
0.0
 10
-43.87668237026489
 20
348.5761089794836
 10
-43.87362893776479
 20
348.6330830636834
 10
-43.87014615936492
 20
348.6890562925834
 10
-43.86608442016502
 20
348.7436480877836
 10
-43.86142810816486
 20
348.7972395812836
 10
-43.85602793146496
 20
348.8497005316834
 10
-43.84962576416485
 20
348.9003285212834
 10
-43.84213224076488
 20
348.9491238266836
 10
-43.83357842766485
 20
348.9967232652836
 10
-43.82392727276499
 20
349.0434389016835
  0
LWPOLYLINE
  5
95
330
70
100
AcDbEntity
  8
0
 62
    18
420
        0
370
    25
100
AcDbPolyline
 90
        4
 70
     0
 43
0.0
 10
21.24380673793506
 20
258.4319683572833
 10
21.22863992753496
 20
258.4280590760833
 10
21.21322198493479
 20
258.4248844203832
 10
21.19757205903513
 20
258.4224353759832
  0
LWPOLYLINE
  5
96
330
70
100
AcDbEntity
  8
0
 62
    18
420
        0
370
    25
100
AcDbPolyline
 90
        9
 70
     0
 43
0.0
 10
-43.4647187850649
 20
282.9479670767835
 10
-43.36373510966509
 20
282.8007283048832
 10
-43.26087257576495
 20
282.6647277570831
 10
-43.1565317883648
 20
282.5392218251833
 10
-43.05058561416485
 20
282.4232216715834
 10
-42.94376326656508
 20
282.3168291196834
 10
-42.83670385056479
 20
282.2195453842832
 10
-42.72929840566484
 20
282.1301243825832
 10
-42.6211535958648
 20
282.0484500067835
  0
LINE
  5
97
330
70
100
AcDbEntity
  8
0
 62
    18
420
        0
370
    25
100
AcDbLine
 10
-43.56246440226505
 20
283.1061676912835
 30
0.0
 11
-43.4647187850649
 21
282.9479670767835
 31
0.0
  0
LWPOLYLINE
  5
98
330
70
100
AcDbEntity
  8
0
 62
   250
420
  3355443
370
    25
100
AcDbPolyline
 90
       10
 70
     0
 43
0.0
 10
-43.37087294546481
 20
283.0506962241832
 10
-43.44181695686489
 20
283.1655582835834
 10
-43.50804827136505
 20
283.2836202128837
 10
-43.56937044626498
 20
283.4045195726837
 10
-43.62547000876493
 20
283.5276341614833
 10
-43.67625758596489
 20
283.6526780037835
 10
-43.72176201366486
 20
283.7797617077832
 10
-43.76175436186501
 20
283.9082246103832
 10
-43.79589272336501
 20
284.0373840960833
 10
-43.82392738096508
 20
284.1668861667834
  0
LWPOLYLINE
  5
99
330
70
100
AcDbEntity
  8
0
 62
    18
420
        0
370
    25
100
AcDbPolyline
 90
        6
 70
     0
 43
0.0
 10
-43.9553962203649
 20
284.0497984969836
 10
-43.89590499106501
 20
283.8470716121835
 10
-43.82481823766488
 20
283.6482046462833
 10
-43.74372316346493
 20
283.4560413551833
 10
-43.65564183016496
 20
283.2750562595833
 10
-43.56246440226505
 20
283.1061676912835
  0
LINE
  5
9A
330
70
100
AcDbEntity
  8
0
 62
    18
420
        0
370
    25
100
AcDbLine
 10
-44.00310936776481
 20
284.2573626739837
 30
0.0
 11
-43.9553962203649
 21
284.0497984969836
 31
0.0
  0
LWPOLYLINE
  5
9B
330
70
100
AcDbEntity
  8
0
 62
   250
420
  3355443
370
    25
100
AcDbPolyline
 90
        8
 70
     0
 43
0.0
 10
-44.01699684606508
 20
284.3313062952833
 10
-44.01514455376478
 20
284.3224714252831
 10
-44.003029459265
 20
284.2911614811833
 10
-43.98266107886508
 20
284.2617310806833
 10
-43.95431589576489
 20
284.2344261302831
 10
-43.91827903536485
 20
284.2094272170831
 10
-43.87474251556484
 20
284.1868605594836
 10
-43.82392737106495
 20
284.1668861709833
  0
LINE
  5
9C
330
70
100
AcDbEntity
  8
0
 62
    18
420
        0
370
    25
100
AcDbLine
 10
-44.01693600666481
 20
284.3313983618831
 30
0.0
 11
-44.00310936776481
 21
284.2573626739837
 31
0.0
  0
LINE
  5
9D
330
70
100
AcDbEntity
  8
0
 62
    18
420
        0
370
    25
100
AcDbLine
 10
-44.01701103056502
 20
284.3313883824832
 30
0.0
 11
-44.01699684606508
 21
284.3313062952833
 31
0.0
  0
LWPOLYLINE
  5
9E
330
70
100
AcDbEntity
  8
0
 62
   250
420
  3355443
370
    25
100
AcDbPolyline
 90
       10
 70
     0
 43
0.0
 10
-43.82392737106495
 20
284.1668861709833
 10
-43.83377767266487
 20
284.2240537682831
 10
-43.84243315736477
 20
284.2808153218836
 10
-43.84995316006491
 20
284.3375172122833
 10
-43.85632395456487
 20
284.3946885434835
 10
-43.86165918076506
 20
284.4524573224834
 10
-43.86624210756479
 20
284.5105411504833
 10
-43.870235411365
 20
284.5689941179834
 10
-43.87366360296485
 20
284.6281086898835
 10
-43.87668246706487
 20
284.6876380706837
  0
LWPOLYLINE
  5
9F
330
70
100
AcDbEntity
  8
0
 62
   250
420
  3355443
370
    25
100
AcDbPolyline
 90
       33
 70
     0
 43
0.0
 10
-28.35207994336494
 20
327.4157179398834
 10
-28.37245624046495
 20
327.3709112173835
 10
-28.39159965756481
 20
327.3253417846833
 10
-28.40946647276483
 20
327.2791086748835
 10
-28.4260533653649
 20
327.2322295037836
 10
-28.44126785006487
 20
327.1848965857836
 10
-28.45495802516501
 20
327.1374795503836
 10
-28.46708028966494
 20
327.0901815150833
 10
-28.4776451656649
 20
327.0430285470836
 10
-28.48660901896492
 20
326.9961274434834
 10
-28.49394704686496
 20
326.9495981609834
 10
-28.49964608656482
 20
326.9035510069835
 10
-28.50367835936483
 20
326.8580793219834
 10
-28.50602053776494
 20
326.8132494220836
 10
-28.50664950696491
 20
326.7692310898835
 10
-28.5055507053649
 20
326.7262664516835
 10
-28.50270960276502
 20
326.6843801657833
 10
-28.49812100686485
 20
326.6437690539833
 10
-28.49184708186485
 20
326.6048898212833
 10
-28.48397293656497
 20
326.5679847450836
 10
-28.474514311765
 20
326.5329222105835
 10
-28.46345048946484
 20
326.4995778022836
 10
-28.45084580996486
 20
326.4681312809835
 10
-28.43668472586504
 20
326.4385259572833
 10
-28.420766759765
 20
326.4103438230836
 10
-28.40300787176503
 20
326.3835142103835
 10
-28.383523171265
 20
326.3582873742834
 10
-28.36237339056494
 20
326.3347780982834
 10
-28.33952941076489
 20
326.3130019754835
 10
-28.31509810466482
 20
326.2931096951834
 10
-28.28939681676493
 20
326.2753511645835
 10
-28.26261717996494
 20
326.2597990898835
 10
-28.25434829516488
 20
326.2555429730834
  0
LWPOLYLINE
  5
A0
330
70
100
AcDbEntity
  8
0
 62
   250
420
  3355443
370
    25
100
AcDbPolyline
 90
       10
 70
     0
 43
0.0
 10
-28.35357092006507
 20
327.4174770042835
 10
-28.27270204046494
 20
327.5842833835834
 10
-28.198324427765
 20
327.7550705134836
 10
-28.13093603866481
 20
327.9291908839834
 10
-28.07113069166502
 20
328.1064875689834
 10
-28.01944543296486
 20
328.2857701672834
 10
-27.97596523736501
 20
328.4647711894835
 10
-27.94063743096483
 20
328.6422586471834
 10
-27.91367304466484
 20
328.8180719275836
 10
-27.89517792676492
 20
328.9915271851835
  0
LWPOLYLINE
  5
A1
330
70
100
AcDbEntity
  8
0
 62
   250
420
  3355443
370
    25
100
AcDbPolyline
 90
       18
 70
     0
 43
0.0
 10
-30.1611771973649
 20
328.5027476412836
 10
-30.08544556696481
 20
328.6365305948836
 10
-30.00122126566507
 20
328.7580596559835
 10
-29.90923204196495
 20
328.8675343895836
 10
-29.81035269486492
 20
328.9645799861833
 10
-29.70506287176485
 20
329.0493999111836
 10
-29.59299427246478
 20
329.1216712082836
 10
-29.47455896506487
 20
329.1815443835834
 10
-29.35046756806478
 20
329.2291069339835
 10
-29.22165968596509
 20
329.2637388760834
 10
-29.08843371516488
 20
329.2857020069836
 10
-28.95068622866483
 20
329.2951035759833
 10
-28.80838165886499
 20
329.2912931720835
 10
-28.66203609976485
 20
329.2744923297834
 10
-28.51250513786483
 20
329.2447324798835
 10
-28.36101263266502
 20
329.2014374387833
 10
-28.20758639476489
 20
329.1444751699835
 10
-28.05185876866504
 20
329.0742738437836
  0
LINE
  5
A2
330
70
100
AcDbEntity
  8
0
 62
    18
420
        0
370
    25
100
AcDbLine
 10
-28.02558231256493
 20
326.1191869018833
 30
0.0
 11
-28.00337824136484
 21
326.1300579341833
 31
0.0
  0
LINE
  5
A3
330
70
100
AcDbEntity
  8
0
 62
   250
420
  3355443
370
    25
100
AcDbLine
 10
-28.05975846046507
 20
326.1034342491836
 30
0.0
 11
-28.025516923865
 21
326.1191538727836
 31
0.0
  0
LWPOLYLINE
  5
A4
330
70
100
AcDbEntity
  8
0
 62
    18
420
        0
370
    25
100
AcDbPolyline
 90
        3
 70
     0
 43
0.0
 10
21.19757205903513
 20
258.4224353759832
 10
21.18170903733537
 20
258.4207022531835
 10
21.16565152573488
 20
258.4196747223833
  0
LINE
  5
A5
330
70
100
AcDbEntity
  8
0
 62
    18
420
        0
370
    25
100
AcDbLine
 10
21.16565152573488
 20
258.4196747223833
 30
0.0
 11
21.14941783123474
 21
258.4193418483836
 31
0.0
  0
LWPOLYLINE
  5
A6
330
70
100
AcDbEntity
  8
0
 62
   250
420
  3355443
370
    25
100
AcDbPolyline
 90
        6
 70
     0
 43
0.0
 10
38.19155523453484
 20
241.8485344679836
 10
38.15391458863495
 20
241.8628767279833
 10
38.13573618433501
 20
241.8691885683832
 10
38.11812028123487
 20
241.8745112394837
 10
38.10146109813508
 20
241.8793640724834
 10
38.08616655443536
 20
241.8839867182837
  0
LINE
  5
A7
330
70
100
AcDbEntity
  8
0
 62
   250
420
  3355443
370
    25
100
AcDbLine
 10
-30.40118750766478
 20
327.6826614161835
 30
0.0
 11
-30.39853567536479
 21
327.7030378465834
 31
0.0
  0
LINE
  5
A8
330
70
100
AcDbEntity
  8
0
 62
   250
420
  3355443
370
    25
100
AcDbLine
 10
-30.39853567536479
 20
327.7030378465834
 30
0.0
 11
-30.395784752365
 21
327.7234425978836
 31
0.0
  0
LINE
  5
A9
330
70
100
AcDbEntity
  8
0
 62
   250
420
  3355443
370
    25
100
AcDbLine
 10
-30.395784752365
 20
327.7234425978836
 30
0.0
 11
-30.39291997246497
 21
327.7438976199834
 31
0.0
  0
LWPOLYLINE
  5
AA
330
70
100
AcDbEntity
  8
0
 62
   250
420
  3355443
370
    25
100
AcDbPolyline
 90
        3
 70
     0
 43
0.0
 10
-30.39291997246497
 20
327.7438976199834
 10
-30.38990923486501
 20
327.7644025332833
 10
-30.38834754106499
 20
327.7746859064834
  0
LWPOLYLINE
  5
AB
330
70
100
AcDbEntity
  8
0
 62
   250
420
  3355443
370
    25
100
AcDbPolyline
 90
       10
 70
     0
 43
0.0
 10
-29.70003800586482
 20
326.7166311145835
 10
-29.70449704676489
 20
326.6869964715835
 10
-29.70849924166496
 20
326.6566580020833
 10
-29.71202659156503
 20
326.6256086166834
 10
-29.71506246646489
 20
326.5938376479836
 10
-29.71758642496494
 20
326.5613417649833
 10
-29.7195755516649
 20
326.5281271100834
 10
-29.72101079706494
 20
326.4941938103834
 10
-29.72187563776486
 20
326.4595338570834
 10
-29.72215183616491
 20
326.4241435095834
  0
LWPOLYLINE
  5
AC
330
70
100
AcDbEntity
  8
0
 62
   250
420
  3355443
370
    25
100
AcDbPolyline
 90
       10
 70
     0
 43
0.0
 10
-30.38834754106499
 20
327.7746859064834
 10
-30.37322837726489
 20
327.8639604025835
 10
-30.35554707976492
 20
327.9514256561835
 10
-30.33532002376493
 20
328.0368821906835
 10
-30.31252985586484
 20
328.1202924417834
 10
-30.28719631006485
 20
328.2015109099835
 10
-30.25937107656502
 20
328.2804030342835
 10
-30.22911752736498
 20
328.3569255140836
 10
-30.19639397736497
 20
328.4311133564833
 10
-30.16117851716496
 20
328.5027496506836
  0
LWPOLYLINE
  5
AD
330
70
100
AcDbEntity
  8
0
 62
   250
420
  3355443
370
    25
100
AcDbPolyline
 90
        5
 70
     0
 43
0.0
 10
-28.21549470046491
 20
326.0462796935834
 10
-28.17381393106495
 20
326.0596013820835
 10
-28.13392253756491
 20
326.0736295300835
 10
-28.09590484166505
 20
326.0882381379833
 10
-28.05975846046507
 20
326.1034342491836
  0
LWPOLYLINE
  5
AE
330
70
100
AcDbEntity
  8
0
 62
   250
420
  3355443
370
    25
100
AcDbPolyline
 90
       10
 70
     0
 43
0.0
 10
20.49646221123522
 20
262.7426496231831
 10
20.68187151973495
 20
262.7307125663836
 10
20.8690472919351
 20
262.7119841065834
 10
21.057961448235
 20
262.6865286244836
 10
21.24942762503511
 20
262.6529831484834
 10
21.43997227123504
 20
262.6119492619833
 10
21.62332700703532
 20
262.5667895978836
 10
21.79756439803481
 20
262.5189766952831
 10
21.96408031603513
 20
262.4674875794837
 10
22.12262621033497
 20
262.4124945557833
  0
LWPOLYLINE
  5
AF
330
70
100
AcDbEntity
  8
0
 62
   250
420
  3355443
370
    25
100
AcDbPolyline
 90
       31
 70
     0
 43
0.0
 10
20.4958580147349
 20
262.7409786219834
 10
20.44610490803524
 20
262.7447683857831
 10
20.39656220733481
 20
262.7496965332832
 10
20.34740739843513
 20
262.7557507097837
 10
20.29884801713496
 20
262.7628786036835
 10
20.25102176413476
 20
262.7711104122834
 10
20.20399895203523
 20
262.7805566406836
 10
20.15791626203488
 20
262.7912348660833
 10
20.11292031283499
 20
262.8030678741834
 10
20.0690882578349
 20
262.8160204237831
 10
20.02650938343487
 20
262.8300349751831
 10
19.98537705243491
 20
262.8451225095834
 10
19.94590883593535
 20
262.8613318351832
 10
19.90813742993515
 20
262.8787156775834
 10
19.87222347303526
 20
262.8970930242835
 10
19.83850219693519
 20
262.9161284236832
 10
19.80708633953496
 20
262.9356406594836
 10
19.77793851783501
 20
262.9556879645832
 10
19.75109770163534
 20
262.9762741912831
 10
19.72662310213495
 20
262.9972981725836
 10
19.70442902413485
 20
263.0186994072836
 10
19.68436050913521
 20
263.0405457567834
 10
19.66645139383524
 20
263.0627747142835
 10
19.65072995083496
 20
263.0853400142834
 10
19.63710987173485
 20
263.1083572822832
 10
19.6256373402353
 20
263.1317879209835
 10
19.61637450983513
 20
263.1555697014832
 10
19.60934170603506
 20
263.1797918946836
 10
19.60462530963495
 20
263.2044697751832
 10
19.60234082853521
 20
263.2294791734836
 10
19.60218578453538
 20
263.2343550461836
  0
LWPOLYLINE
  5
B0
330
70
100
AcDbEntity
  8
0
 62
    18
420
        0
370
    25
100
AcDbPolyline
 90
        5
 70
     0
 43
0.0
 10
20.8599522888348
 20
258.9318262121834
 10
20.88530278863495
 20
258.9278248271835
 10
20.910233768635
 20
258.9274907548833
 10
20.93430253463484
 20
258.9312599529835
 10
20.95749050073496
 20
258.9397587364833
  0
LINE
  5
B1
330
70
100
AcDbEntity
  8
0
 62
    18
420
        0
370
    25
100
AcDbLine
 10
20.89795487793512
 20
258.9395146894832
 30
0.0
 11
20.87554772683503
 21
258.9439046325836
 31
0.0
  0
LINE
  5
B2
330
70
100
AcDbEntity
  8
0
 62
   250
420
  3355443
370
    25
100
AcDbLine
 10
36.95814440273522
 20
242.4130621652834
 30
0.0
 11
37.58268037753513
 21
242.1191606873834
 31
0.0
  0
LWPOLYLINE
  5
B3
330
70
100
AcDbEntity
  8
0
 62
   250
420
  3355443
370
    25
100
AcDbPolyline
 90
        4
 70
     0
 43
0.0
 10
37.58268037753513
 20
242.1191606873834
 10
37.727327163835
 20
242.0505103313836
 10
37.86760321433477
 20
241.9828193351833
 10
38.00312264623491
 20
241.9182888719832
  0
LWPOLYLINE
  5
B4
330
70
100
AcDbEntity
  8
0
 62
    18
420
        0
370
    25
100
AcDbPolyline
 90
       36
 70
     0
 43
0.0
 10
38.40321577913518
 20
241.4988754041837
 10
38.43660844713522
 20
241.4829437260834
 10
38.47132365893526
 20
241.4669740923833
 10
38.50730683653491
 20
241.4511570165837
 10
38.54445920433493
 20
241.4355828932832
 10
38.58227766163508
 20
241.4204996743834
 10
38.62050855773531
 20
241.4060259081832
 10
38.65935602453479
 20
241.3921003877834
 10
38.69893907623526
 20
241.3787072116835
 10
38.73928232323528
 20
241.3658830662836
 10
38.780340133335
 20
241.3537096042833
 10
38.82213746503481
 20
241.3422513194836
 10
38.86477247853499
 20
241.3315611141834
 10
38.90812794843531
 20
241.3217312455832
 10
38.95189259903526
 20
241.3128428272837
 10
38.99585958253496
 20
241.3049256613835
 10
39.04020788093491
 20
241.2979348430834
 10
39.08519558653524
 20
241.2918510259837
 10
39.13088861043507
 20
241.2867318539837
 10
39.17718259123495
 20
241.2826603162836
 10
39.22407720663511
 20
241.2797070422834
 10
39.27157242923501
 20
241.2779409011836
 10
39.31960996593499
 20
241.2774273761833
 10
39.36809788873512
 20
241.2782269053835
 10
39.417003172235
 20
241.2803957407837
 10
39.466290755835
 20
241.2839850089836
 10
39.51586065633529
 20
241.2890354200837
 10
39.56566957363524
 20
241.2955888229836
 10
39.61568821533516
 20
241.3036883010834
 10
39.66583606333495
 20
241.3133625525836
 10
39.71605592533503
 20
241.3246382065833
 10
39.76632641583511
 20
241.3375490502836
 10
39.81661605363477
 20
241.3521284851833
 10
39.86687704813514
 20
241.3684067211836
 10
39.917051736335
 20
241.3864115799837
 10
39.96532863223498
 20
241.4054482032838
  0
LWPOLYLINE
  5
B5
330
70
100
AcDbEntity
  8
0
 62
   250
420
  3355443
370
    25
100
AcDbPolyline
 90
        3
 70
     0
 43
0.0
 10
34.70549078303525
 20
243.5034427048832
 10
35.18637546443478
 20
243.2741698393836
 10
35.41419111623504
 20
243.1645108018832
  0
LINE
  5
B6
330
70
100
AcDbEntity
  8
0
 62
   250
420
  3355443
370
    25
100
AcDbLine
 10
36.61327169643523
 20
242.5781163513834
 30
0.0
 11
36.95814440273522
 21
242.4130621652834
 31
0.0
  0
LINE
  5
B7
330
70
100
AcDbEntity
  8
0
 62
    18
420
        0
370
    25
100
AcDbLine
 10
38.31284610223539
 20
241.5429900431836
 30
0.0
 11
38.40321577913518
 21
241.4988754041837
 31
0.0
  0
LINE
  5
B8
330
70
100
AcDbEntity
  8
0
 62
   250
420
  3355443
370
    25
100
AcDbLine
 10
35.41419111623504
 20
243.1645108018832
 30
0.0
 11
36.61327169643523
 21
242.5781163513834
 31
0.0
  0
LINE
  5
B9
330
70
100
AcDbEntity
  8
0
 62
    18
420
        0
370
    25
100
AcDbLine
 10
38.24119595833524
 20
241.5786192755836
 30
0.0
 11
38.31284610223539
 21
241.5429900431836
 31
0.0
  0
LINE
  5
BA
330
70
100
AcDbEntity
  8
0
 62
   250
420
  3355443
370
    25
100
AcDbLine
 10
-40.93601812956491
 20
281.3522652312834
 30
0.0
 11
-40.36781792626491
 21
281.0616885736834
 31
0.0
  0
LINE
  5
BB
330
70
100
AcDbEntity
  8
0
 62
   250
420
  3355443
370
    25
100
AcDbLine
 10
-39.95746006666482
 20
280.8529459153835
 30
0.0
 11
-39.51487870026506
 21
280.6246148075833
 31
0.0
  0
LINE
  5
BC
330
70
100
AcDbEntity
  8
0
 62
   250
420
  3355443
370
    25
100
AcDbLine
 10
-41.2880429230649
 20
281.5355170827837
 30
0.0
 11
-40.93601812956491
 21
281.3522652312834
 31
0.0
  0
LWPOLYLINE
  5
BD
330
70
100
AcDbEntity
  8
0
 62
   250
420
  3355443
370
    25
100
AcDbPolyline
 90
        3
 70
     0
 43
0.0
 10
-42.36976059296498
 20
282.1047324110832
 10
-42.22876980856479
 20
282.0309272434832
 10
-42.08312116016493
 20
281.9555259946834
  0
LINE
  5
BE
330
70
100
AcDbEntity
  8
0
 62
   250
420
  3355443
370
    25
100
AcDbLine
 10
-39.51487870026506
 20
280.6246148075833
 30
0.0
 11
-39.03814842296495
 21
280.3752639822835
 31
0.0
  0
LWPOLYLINE
  5
BF
330
70
100
AcDbEntity
  8
0
 62
   250
420
  3355443
370
    25
100
AcDbPolyline
 90
        4
 70
     0
 43
0.0
 10
-42.08312116016493
 20
281.9555259946834
 10
-41.77882589966503
 20
281.7947881917838
 10
-41.6201124927648
 20
281.7104517846836
 10
-41.2880429230649
 20
281.5355170827837
  0
LWPOLYLINE
  5
C0
330
70
100
AcDbEntity
  8
0
 62
   250
420
  3355443
370
    25
100
AcDbPolyline
 90
        9
 70
     0
 43
0.0
 10
-42.13257363196482
 20
281.7655190809833
 10
-42.1567747711648
 20
281.7789077753833
 10
-42.19985584326488
 20
281.8090855622835
 10
-42.23902784776504
 20
281.8452238079833
 10
-42.27408943166495
 20
281.8870294727836
 10
-42.30478834466494
 20
281.9341653652836
 10
-42.33098403136501
 20
281.9863540847837
 10
-42.35258590636486
 20
282.0433558626837
 10
-42.36950987236478
 20
282.1049322644835
  0
LWPOLYLINE
  5
C1
330
70
100
AcDbEntity
  8
0
 62
   250
420
  3355443
370
    25
100
AcDbPolyline
 90
       29
 70
     0
 43
0.0
 10
-42.52646766606487
 20
282.2030697776835
 10
-42.5641850956649
 20
282.2264076292836
 10
-42.58409145626493
 20
282.2394446730836
 10
-42.60492717366481
 20
282.2536474453831
 10
-42.62643359126482
 20
282.2687042811837
 10
-42.64851494846491
 20
282.2845758540834
 10
-42.67119677236505
 20
282.3013198287833
 10
-42.69446421786502
 20
282.3188040737837
 10
-42.71840080196484
 20
282.3370421602833
 10
-42.74311423876498
 20
282.3562459454837
 10
-42.76859714626494
 20
282.3765627208832
 10
-42.79480073686481
 20
282.3980533364833
 10
-42.8217807741649
 20
282.4207921644833
 10
-42.84964446216501
 20
282.4449264599838
 10
-42.87831092736481
 20
282.4704938710835
 10
-42.90774323416503
 20
282.4975199419835
 10
-42.93810238446482
 20
282.5261478692837
 10
-42.96938404116477
 20
282.5563852286833
 10
-43.00154296136488
 20
282.5883850086834
 10
-43.03467955876485
 20
282.6225455180837
 10
-43.06868700456505
 20
282.6589595563834
 10
-43.10353606516502
 20
282.6976943647835
 10
-43.13937596296498
 20
282.7391100989834
 10
-43.17602911526498
 20
282.7832947042834
 10
-43.21338739336502
 20
282.8302822248833
 10
-43.25167147446505
 20
282.8803962752833
 10
-43.29085014156492
 20
282.9338221064836
 10
-43.33064091276496
 20
282.9905609617837
 10
-43.37087294546481
 20
283.0506962241832
  0
LWPOLYLINE
  5
C2
330
70
100
AcDbEntity
  8
0
 62
   250
420
  3355443
370
    25
100
AcDbPolyline
 90
       10
 70
     0
 43
0.0
 10
-42.45476517686502
 20
282.1545444911836
 10
-42.44467717316495
 20
282.1477457168835
 10
-42.43474457916481
 20
282.1412774454833
 10
-42.42496903726507
 20
282.1351315883834
 10
-42.41534861986504
 20
282.1292965009832
 10
-42.40588757186478
 20
282.1237688822833
 10
-42.39659638906483
 20
282.1185535435833
 10
-42.38747918506501
 20
282.1136480016832
 10
-42.37853365986483
 20
282.1090426911834
 10
-42.36976059296498
 20
282.1047324110832
  0
LWPOLYLINE
  5
C3
330
70
100
AcDbEntity
  8
0
 62
    18
420
        0
370
    25
100
AcDbPolyline
 90
        6
 70
     0
 43
0.0
 10
-42.6211535958648
 20
282.0484500067835
 10
-42.51297443896486
 20
281.9747472797834
 10
-42.40723718266503
 20
281.9096384518838
 10
-42.30577994766507
 20
281.8537285449832
 10
-42.2078044188648
 20
281.8033519574835
 10
-42.13257363196482
 20
281.7655190809833
  0
LWPOLYLINE
  5
C4
330
70
100
AcDbEntity
  8
0
 62
   250
420
  3355443
370
    25
100
AcDbPolyline
 90
        5
 70
     0
 43
0.0
 10
-42.45483561246501
 20
282.1544897251833
 10
-42.47122501266481
 20
282.1657085429834
 10
-42.48906969606506
 20
282.1781074271831
 10
-42.50773410356479
 20
282.1909251507831
 10
-42.52646766606487
 20
282.2030697776835
  0
LWPOLYLINE
  5
C5
330
70
100
AcDbEntity
  8
0
 62
   250
420
  3355443
370
    25
100
AcDbPolyline
 90
       10
 70
     0
 43
0.0
 10
-30.40118744116487
 20
288.2008260614831
 10
-30.40718462666495
 20
288.2601051995834
 10
-30.41220553726494
 20
288.3178904278835
 10
-30.41629524886489
 20
288.3742434365837
 10
-30.4194990713649
 20
288.4291819487836
 10
-30.42184467206502
 20
288.4827810186836
 10
-30.42333081366491
 20
288.5351641847833
 10
-30.42395872876481
 20
288.5863742097832
 10
-30.42374011836487
 20
288.6363768649832
 10
-30.42273049926507
 20
288.6851814852837
  0
LINE
  5
C6
330
70
100
AcDbEntity
  8
0
 62
   250
420
  3355443
370
    25
100
AcDbLine
 10
-30.42753013606502
 20
289.3534317873833
 30
0.0
 11
-30.45087199786508
 21
290.3472132866834
 31
0.0
  0
LWPOLYLINE
  5
C7
330
70
100
AcDbEntity
  8
0
 62
   250
420
  3355443
370
    25
100
AcDbPolyline
 90
       10
 70
     0
 43
0.0
 10
-30.42273044086501
 20
327.2157600976834
 10
-30.42374198716509
 20
327.2657977377834
 10
-30.42396756246501
 20
327.3163796428836
 10
-30.42334539986493
 20
327.3674532124835
 10
-30.42185340236505
 20
327.4190595540835
 10
-30.41948632776485
 20
327.4711384274833
 10
-30.41626125516501
 20
327.5235353593835
 10
-30.41216512386477
 20
327.5762146144836
 10
-30.40715332556504
 20
327.6292489561833
 10
-30.40118738136494
 20
327.6826617484835
  0
LINE
  5
C8
330
70
100
AcDbEntity
  8
0
 62
   250
420
  3355443
370
    25
100
AcDbLine
 10
-30.45087199786508
 20
290.3472132866834
 30
0.0
 11
-30.46284159886488
 21
291.0349581515835
 31
0.0
  0
LINE
  5
C9
330
70
100
AcDbEntity
  8
0
 62
   250
420
  3355443
370
    25
100
AcDbLine
 10
-30.46284159886488
 20
291.0349581515835
 30
0.0
 11
-30.46888615236488
 21
291.4981570170837
 31
0.0
  0
LWPOLYLINE
  5
CA
330
70
100
AcDbEntity
  8
0
 62
   250
420
  3355443
370
    25
100
AcDbPolyline
 90
        3
 70
     0
 43
0.0
 10
-30.49122776016499
 20
293.3435629162835
 10
-30.47210206936486
 20
291.8685303663831
 10
-30.46896951136482
 20
291.4979601296837
  0
LINE
  5
CB
330
70
100
AcDbEntity
  8
0
 62
   250
420
  3355443
370
    25
100
AcDbLine
 10
-30.49405463576488
 20
294.7982958148833
 30
0.0
 11
-30.53135496046503
 21
299.1465243132833
 31
0.0
  0
LWPOLYLINE
  5
CC
330
70
100
AcDbEntity
  8
0
 62
   250
420
  3355443
370
    25
100
AcDbPolyline
 90
       10
 70
     0
 43
0.0
 10
-29.72215189466508
 20
287.8499847759833
 10
-29.72187573436495
 20
287.8147054302835
 10
-29.72101098866504
 20
287.7795395584831
 10
-29.7195758661648
 20
287.7445015740838
 10
-29.71758686186509
 20
287.7095924179837
 10
-29.71506299726486
 20
287.6748386821835
 10
-29.71202715886484
 20
287.6402918423832
 10
-29.70849975986485
 20
287.6059764492833
 10
-29.70449740426505
 20
287.5718909138837
 10
-29.70003806516487
 20
287.5380460904832
  0
LINE
  5
CD
330
70
100
AcDbEntity
  8
0
 62
   250
420
  3355443
370
    25
100
AcDbLine
 10
-30.53135496046503
 20
299.1465243132833
 30
0.0
 11
-30.55029265396493
 21
302.0537321976834
 31
0.0
  0
LWPOLYLINE
  5
CE
330
70
100
AcDbEntity
  8
0
 62
   250
420
  3355443
370
    25
100
AcDbPolyline
 90
        4
 70
     0
 43
0.0
 10
-30.49405498316502
 20
321.1862903273835
 10
-30.49604590666497
 20
321.5480312300836
 10
-30.49627983246508
 20
321.9099129864834
 10
-30.49481558136494
 20
322.2718914715833
  0
LWPOLYLINE
  5
CF
330
70
100
AcDbEntity
  8
0
 62
   250
420
  3355443
370
    25
100
AcDbPolyline
 90
        3
 70
     0
 43
0.0
 10
-30.42210211566489
 20
326.9750330782834
 10
-30.42282496746498
 20
327.1370753170834
 10
-30.42273044086501
 20
327.2157600976834
  0
LINE
  5
D0
330
70
100
AcDbEntity
  8
0
 62
   250
420
  3355443
370
    25
100
AcDbLine
 10
-30.55029265396493
 20
302.0537321976834
 30
0.0
 11
-30.56309160496498
 21
305.0112919594836
 31
0.0
  0
LWPOLYLINE
  5
D1
330
70
100
AcDbEntity
  8
0
 62
   250
420
  3355443
370
    25
100
AcDbPolyline
 90
        3
 70
     0
 43
0.0
 10
-30.4961074271649
 20
294.0737849722837
 10
-30.49479637156484
 20
293.7094541894835
 10
-30.49122776016499
 20
293.3435629162835
  0
LINE
  5
D2
330
70
100
AcDbEntity
  8
0
 62
   250
420
  3355443
370
    25
100
AcDbLine
 10
-30.56309160496498
 20
305.0112919594836
 30
0.0
 11
-30.5691444041648
 21
308.0303986830835
 31
0.0
  0
LINE
  5
D3
330
70
100
AcDbEntity
  8
0
 62
   250
420
  3355443
370
    25
100
AcDbLine
 10
-30.42273049926507
 20
288.6851814852837
 30
0.0
 11
-30.42282483296486
 21
288.7637077448838
 31
0.0
  0
LINE
  5
D4
330
70
100
AcDbEntity
  8
0
 62
   250
420
  3355443
370
    25
100
AcDbLine
 10
-29.7152804195648
 20
323.6145522316834
 30
0.0
 11
-29.71881547926483
 21
326.4244427848833
 31
0.0
  0
LINE
  5
D5
330
70
100
AcDbEntity
  8
0
 62
   250
420
  3355443
370
    25
100
AcDbLine
 10
-29.71529050076484
 20
323.6145996170833
 30
0.0
 11
-29.71524934276502
 21
287.8501022991832
 31
0.0
  0
LINE
  5
D6
330
70
100
AcDbEntity
  8
0
 62
   250
420
  3355443
370
    25
100
AcDbLine
 10
-28.02558230376499
 20
287.5480605283837
 30
0.0
 11
-28.02558231256493
 21
326.1191869018833
 31
0.0
  0
LINE
  5
D7
330
70
100
AcDbEntity
  8
0
 62
   250
420
  3355443
370
    25
100
AcDbLine
 10
-30.5691444041648
 20
308.0303986834836
 30
0.0
 11
-30.56308895016492
 21
311.0444529467833
 31
0.0
  0
LINE
  5
D8
330
70
100
AcDbEntity
  8
0
 62
   250
420
  3355443
370
    25
100
AcDbLine
 10
-30.49405200796496
 20
294.7983411911832
 30
0.0
 11
-30.4961074271649
 21
294.0737849722837
 31
0.0
  0
LINE
  5
D9
330
70
100
AcDbEntity
  8
0
 62
   250
420
  3355443
370
    25
100
AcDbLine
 10
-30.56308895016492
 20
311.0444529467833
 30
0.0
 11
-30.55028719656486
 21
313.9900318797832
 31
0.0
  0
LWPOLYLINE
  5
DA
330
70
100
AcDbEntity
  8
0
 62
   250
420
  3355443
370
    25
100
AcDbPolyline
 90
        6
 70
     0
 43
0.0
 10
-30.42282483296486
 20
288.7637077448838
 10
-30.4221021257649
 20
288.9249382051834
 10
-30.42219095096485
 20
289.0078663927832
 10
-30.42303417576504
 20
289.0923482859833
 10
-30.42429289226485
 20
289.1781057859836
 10
-30.42753013606502
 20
289.3534317873833
  0
LINE
  5
DB
330
70
100
AcDbEntity
  8
0
 62
   250
420
  3355443
370
    25
100
AcDbLine
 10
-30.55028719656486
 20
313.9900318797832
 30
0.0
 11
-30.53134809956488
 21
316.8782334844835
 31
0.0
  0
LINE
  5
DC
330
70
100
AcDbEntity
  8
0
 62
   250
420
  3355443
370
    25
100
AcDbLine
 10
-30.53134809956488
 20
316.8782334844835
 30
0.0
 11
-30.49405459786485
 21
321.1862916352833
 31
0.0
  0
LWPOLYLINE
  5
DD
330
70
100
AcDbEntity
  8
0
 62
   250
420
  3355443
370
    25
100
AcDbPolyline
 90
        3
 70
     0
 43
0.0
 10
-30.42303434756487
 20
326.8090573309835
 10
-30.4221909704648
 20
326.8923789611836
 10
-30.42210211566489
 20
326.9750330782834
  0
LINE
  5
DE
330
70
100
AcDbEntity
  8
0
 62
   250
420
  3355443
370
    25
100
AcDbLine
 10
-30.49481558136494
 20
322.2718914715833
 30
0.0
 11
-30.46608651106483
 21
324.6870052359834
 31
0.0
  0
LINE
  5
DF
330
70
100
AcDbEntity
  8
0
 62
   250
420
  3355443
370
    25
100
AcDbLine
 10
-30.42574638186483
 20
326.6398150523835
 30
0.0
 11
-30.42303434756487
 21
326.8090573309835
 31
0.0
  0
LINE
  5
E0
330
70
100
AcDbEntity
  8
0
 62
   250
420
  3355443
370
    25
100
AcDbLine
 10
-30.46608651106483
 20
324.6870052359834
 30
0.0
 11
-30.4552455001648
 21
325.3648468593837
 31
0.0
  0
LINE
  5
E1
330
70
100
AcDbEntity
  8
0
 62
   250
420
  3355443
370
    25
100
AcDbLine
 10
-30.4552455001648
 20
325.3648468593837
 30
0.0
 11
-30.44086822976497
 21
326.0300300057833
 31
0.0
  0
LINE
  5
E2
330
70
100
AcDbEntity
  8
0
 62
   250
420
  3355443
370
    25
100
AcDbLine
 10
-30.44086822976497
 20
326.0300300057833
 30
0.0
 11
-30.42574638186483
 21
326.6398150523835
 31
0.0
  0
LINE
  5
E3
330
70
100
AcDbEntity
  8
0
 62
   250
420
  3355443
370
    25
100
AcDbLine
 10
-28.02545715646501
 20
326.1191239041835
 30
0.0
 11
-28.02488653296508
 21
326.1408120809834
 31
0.0
  0
LWPOLYLINE
  5
E4
330
70
100
AcDbEntity
  8
0
 62
    18
420
        0
370
    25
100
AcDbPolyline
 90
        6
 70
     0
 43
0.0
 10
20.87554772683503
 20
258.9439046325836
 10
20.86700773913534
 20
258.9462145539836
 10
20.85851305423535
 20
258.9488671477836
 10
20.85007538853535
 20
258.9518442222832
 10
20.84170569683516
 20
258.9551276176831
 10
20.83341418203528
 20
258.9586992571834
  0
LINE
  5
E5
330
70
100
AcDbEntity
  8
0
 62
   250
420
  3355443
370
    25
100
AcDbLine
 10
29.6820245416349
 20
246.0076309168831
 30
0.0
 11
34.70546750633499
 21
243.5034634451833
 31
0.0
  0
LINE
  5
E6
330
70
100
AcDbEntity
  8
0
 62
    18
420
        0
370
    25
100
AcDbLine
 10
30.73855439173536
 20
245.3271727621836
 30
0.0
 11
38.24251114703475
 21
241.5779652699835
 31
0.0
  0
LINE
  5
E7
330
70
100
AcDbEntity
  8
0
 62
   250
420
  3355443
370
    25
100
AcDbLine
 10
24.51663656543526
 20
248.5924369713832
 30
0.0
 11
29.6820245416349
 21
246.0076309168831
 31
0.0
  0
LINE
  5
E8
330
70
100
AcDbEntity
  8
0
 62
    18
420
        0
370
    25
100
AcDbLine
 10
-42.13057973496499
 20
281.7645092048837
 30
0.0
 11
30.73855439173536
 21
245.3271727621836
 31
0.0
  0
LWPOLYLINE
  5
E9
330
70
100
AcDbEntity
  8
0
 62
   250
420
  3355443
370
    25
100
AcDbPolyline
 90
        3
 70
     0
 43
0.0
 10
-39.03812860776481
 20
280.3752632638835
 10
-37.37506541326509
 20
279.5400825899837
 10
24.51663656543526
 20
248.5924369713832
  0
LINE
  5
EA
330
70
100
AcDbEntity
  8
0
 62
   250
420
  3355443
370
    25
100
AcDbLine
 10
-40.36781792626491
 20
281.0616885736834
 30
0.0
 11
-39.95746006666482
 21
280.8529459153835
 31
0.0
  0
LWPOLYLINE
  5
EB
330
70
100
AcDbEntity
  8
0
 62
   250
420
  3355443
370
    25
100
AcDbPolyline
 90
       10
 70
     0
 43
0.0
 10
38.00312264623491
 20
241.9182888719832
 10
38.01203661933494
 20
241.9137536594833
 10
38.02103738333503
 20
241.9093841410832
 10
38.03012394113503
 20
241.9051864550833
 10
38.03930042293515
 20
241.9011668982832
 10
38.04856039543496
 20
241.8973334390834
 10
38.05788691813532
 20
241.8936953614835
 10
38.06727342873499
 20
241.8902614540833
 10
38.07672363973502
 20
241.8870404332835
 10
38.08623563773516
 20
241.8840421604833
  0
LWPOLYLINE
  5
EC
330
70
100
AcDbEntity
  8
0
 62
   250
420
  3355443
370
    25
100
AcDbPolyline
 90
        9
 70
     0
 43
0.0
 10
38.24119595833524
 20
241.5786192755836
 10
38.215425064635
 20
241.5927927108835
 10
38.17288024923479
 20
241.6225430167837
 10
38.1339884342348
 20
241.6583561775833
 10
38.09909703053529
 20
241.6999499291835
 10
38.06841650263534
 20
241.7470349624837
 10
38.04212311313488
 20
241.7993209247835
 10
38.02038227373476
 20
241.8565619777837
 10
38.00337104833479
 20
241.9184899162832
  0
LWPOLYLINE
  5
ED
330
70
100
AcDbEntity
  8
0
 62
   250
420
  3355443
370
    25
100
AcDbPolyline
 90
       46
 70
     0
 43
0.0
 10
-28.27270628536505
 20
285.4087026616835
 10
-28.37660671746507
 20
285.5177341083836
 10
-28.39659656306489
 20
285.5432923622834
 10
-28.41529413646503
 20
285.5710245194837
 10
-28.432643519965
 20
285.6008845050835
 10
-28.44852233426506
 20
285.6327603421835
 10
-28.46276098386494
 20
285.6664597438832
 10
-28.47529720266495
 20
285.7018408112834
 10
-28.48611842596495
 20
285.7388187526834
 10
-28.49516295976499
 20
285.7772702391832
 10
-28.5023733655648
 20
285.8170738707837
 10
-28.50775515796485
 20
285.8581307562837
 10
-28.51134668116506
 20
285.9003482162837
 10
-28.51320170636499
 20
285.9436681698831
 10
-28.513262209565
 20
285.9878965856835
 10
-28.51144317636486
 20
286.0327234951837
 10
-28.5077050110651
 20
286.0780722245837
 10
-28.50215146556499
 20
286.1237801445835
 10
-28.49498612816505
 20
286.1693881126835
 10
-28.48639191466503
 20
286.2145394892836
 10
-28.476373099265
 20
286.2593278481833
 10
-28.46487475416482
 20
286.3039679784833
 10
-28.45198255806506
 20
286.3481893755836
 10
-28.4377259525649
 20
286.3920625909832
 10
-28.42186341746488
 20
286.4363208303836
 10
-28.40427079836497
 20
286.4811372208836
 10
-28.38503565166506
 20
286.5261110702837
 10
-28.36416436076484
 20
286.5710972205833
 10
-28.34157619236496
 20
286.6161179462836
 10
-28.31734669756504
 20
286.6608742824832
 10
-28.29177794376491
 20
286.7047609554833
 10
-28.26503136296508
 20
286.7475215636837
 10
-28.23709117626487
 20
286.7891953052837
 10
-28.20804264806503
 20
286.8296502893835
 10
-28.17795532206485
 20
286.8687778772835
 10
-28.1469057792649
 20
286.9064746845832
 10
-28.11499785196484
 20
286.9426277473833
 10
-28.08224524436509
 20
286.9772206520837
 10
-28.04880248356501
 20
287.0100875777837
 10
-28.0149998185648
 20
287.0409317894835
 10
-27.98096854266501
 20
287.0697393823835
 10
-27.94676823136488
 20
287.0964538752837
 10
-27.91265183196508
 20
287.1208091908833
 10
-27.87877796826505
 20
287.1427671735836
 10
-27.8451868925648
 20
287.1624593550836
 10
-27.81195614226502
 20
287.1799284234833
  0
LWPOLYLINE
  5
EE
330
70
100
AcDbEntity
  8
0
 62
   250
420
  3355443
370
    25
100
AcDbPolyline
 90
        8
 70
     0
 43
0.0
 10
-29.06020144636488
 20
286.0864064409837
 10
-28.96770839156504
 20
285.9778678193833
 10
-28.87149544846487
 20
285.8763244899837
 10
-28.7721638349649
 20
285.7824586438834
 10
-28.67038427206497
 20
285.6969085786836
 10
-28.56674028576484
 20
285.6201815056837
 10
-28.461631270865
 20
285.5526022264837
 10
-28.35541092916481
 20
285.4944294338835
  0
LINE
  5
EF
330
70
100
AcDbEntity
  8
0
 62
   250
420
  3355443
370
    25
100
AcDbLine
 10
-29.09821718996504
 20
286.1344500382834
 30
0.0
 11
-29.06020144636488
 21
286.0864064409837
 31
0.0
  0
LINE
  5
F0
330
70
100
AcDbEntity
  8
0
 62
    18
420
        0
370
    25
100
AcDbLine
 10
-29.10315981046484
 20
286.1408540906833
 30
0.0
 11
-29.09821718996504
 21
286.1344500382834
 31
0.0
  0
LWPOLYLINE
  5
F1
330
70
100
AcDbEntity
  8
0
 62
   250
420
  3355443
370
    25
100
AcDbPolyline
 90
       10
 70
     0
 43
0.0
 10
-30.1611785934649
 20
287.1474438968835
 10
-30.19639405076507
 20
287.2536974234835
 10
-30.22911759766503
 20
287.3599928739836
 10
-30.25937114376502
 20
287.4661311639833
 10
-30.28719637366493
 20
287.5721888029831
 10
-30.31252991586498
 20
287.6780606978832
 10
-30.33532008096502
 20
287.7835683379833
 10
-30.35554713506494
 20
287.8885522386832
 10
-30.37322843146503
 20
287.9929872873832
 10
-30.38834759476494
 20
288.0966598518835
  0
LWPOLYLINE
  5
F2
330
70
100
AcDbEntity
  8
0
 62
    18
420
        0
370
    25
100
AcDbPolyline
 90
        9
 70
     0
 43
0.0
 10
-29.6197158248649
 20
287.1633566024836
 10
-29.56905152336497
 20
287.0043991484832
 10
-29.51315329236486
 20
286.8566996034833
 10
-29.44975049836479
 20
286.7117951141834
 10
-29.37899895056501
 20
286.5700022188837
 10
-29.3013152017649
 20
286.4322893253836
 10
-29.21685818896497
 20
286.2990555041833
 10
-29.12582740906485
 20
286.1707005293837
 10
-29.10315981046484
 20
286.1408540906833
  0
LWPOLYLINE
  5
F3
330
70
100
AcDbEntity
  8
0
 62
   250
420
  3355443
370
    25
100
AcDbPolyline
 90
       46
 70
     0
 43
0.0
 10
-29.71524934276502
 20
287.8501022991832
 10
-29.70762928326505
 20
287.8259115119838
 10
-29.69754089066487
 20
287.8017704000834
 10
-29.6850137509649
 20
287.7777316606832
 10
-29.67005331796496
 20
287.7538037079834
 10
-29.65271151076491
 20
287.7300893800832
 10
-29.63312322126508
 20
287.7067793953837
 10
-29.61139444346502
 20
287.6839629858832
 10
-29.5875627431651
 20
287.6616524461837
 10
-29.5616924124648
 20
287.6399174897835
 10
-29.53385331096479
 20
287.6188126075831
 10
-29.5041107365649
 20
287.5983869547836
 10
-29.47251918776478
 20
287.5787034849833
 10
-29.4391063504648
 20
287.5597964047834
 10
-29.40397238366498
 20
287.5417398476837
 10
-29.36729322426483
 20
287.5246501751832
 10
-29.32907266706487
 20
287.5085485196832
 10
-29.2894603698649
 20
287.4935077702835
 10
-29.24890222316504
 20
287.4796862355831
 10
-29.20770957526505
 20
287.4671601040835
 10
-29.16580050986487
 20
287.4558683438833
 10
-29.12304335016504
 20
287.4457495612835
 10
-29.07967269176502
 20
287.4368531170834
 10
-29.03562144386493
 20
287.4291650981833
 10
-28.9902715926649
 20
287.4225714653835
 10
-28.94344620016488
 20
287.4170663329832
 10
-28.89551106086487
 20
287.4127191320832
 10
-28.84665192896503
 20
287.4095602323835
 10
-28.7968465961648
 20
287.4076092052832
 10
-28.74636053356502
 20
287.4068902816832
 10
-28.6958297141648
 20
287.4073977176835
 10
-28.64558083766502
 20
287.4091051518833
 10
-28.59555926766489
 20
287.4119921431836
 10
-28.54583367136507
 20
287.4160295853834
 10
-28.4965338118648
 20
287.4211934417835
 10
-28.44779414626484
 20
287.4274802143838
 10
-28.39969191756495
 20
287.4349001794834
 10
-28.3522510091649
 20
287.4434605832833
 10
-28.30571840376508
 20
287.4531396668832
 10
-28.26049093796477
 20
287.4638883443832
 10
-28.21665183636485
 20
287.4756882931832
 10
-28.17434062126484
 20
287.4885012723833
 10
-28.13398280456482
 20
287.5022039137838
 10
-28.09574400546509
 20
287.5167095254834
 10
-28.05956590396504
 20
287.5319962503832
 10
-28.02549232426494
 20
287.5480146817832
  0
LINE
  5
F4
330
70
100
AcDbEntity
  8
0
 62
    18
420
        0
370
    25
100
AcDbLine
 10
-29.62216831316482
 20
287.1719174817832
 30
0.0
 11
-29.6197158248649
 21
287.1633566024836
 31
0.0
  0
LINE
  5
F5
330
70
100
AcDbEntity
  8
0
 62
   250
420
  3355443
370
    25
100
AcDbLine
 10
-29.64630840006485
 20
287.2622765573837
 30
0.0
 11
-29.62216831316482
 21
287.1719174817832
 31
0.0
  0
LWPOLYLINE
  5
F6
330
70
100
AcDbEntity
  8
0
 62
   250
420
  3355443
370
    25
100
AcDbPolyline
 90
        3
 70
     0
 43
0.0
 10
-29.70003806516487
 20
287.5380460904832
 10
-29.67709592906481
 20
287.4007900740834
 10
-29.64630840006485
 20
287.2622765573837
  0
LINE
  5
F7
330
70
100
AcDbEntity
  8
0
 62
   250
420
  3355443
370
    25
100
AcDbLine
 10
-30.38834759476494
 20
288.0966598518835
 30
0.0
 11
-30.39143591586493
 21
288.1201511982833
 31
0.0
  0
LINE
  5
F8
330
70
100
AcDbEntity
  8
0
 62
   250
420
  3355443
370
    25
100
AcDbLine
 10
-30.39143591586493
 20
288.1201511982833
 30
0.0
 11
-30.3943735712648
 21
288.1434147072837
 31
0.0
  0
LWPOLYLINE
  5
F9
330
70
100
AcDbEntity
  8
0
 62
   250
420
  3355443
370
    25
100
AcDbPolyline
 90
        9
 70
     0
 43
0.0
 10
-27.89517799436502
 20
284.3888707947836
 10
-27.91367430876479
 20
284.5408782614833
 10
-27.94064038656483
 20
284.6869827883836
 10
-27.97597002736503
 20
284.8266898706836
 10
-28.01945187066481
 20
284.9596968991833
 10
-28.07113823996505
 20
285.0852844585834
 10
-28.13094378536502
 20
285.2023673748834
 10
-28.1983311560651
 20
285.3102767996834
 10
-28.27270628536505
 20
285.4087026616835
  0
LINE
  5
FA
330
70
100
AcDbEntity
  8
0
 62
   250
420
  3355443
370
    25
100
AcDbLine
 10
-30.3943735712648
 20
288.1434147072837
 30
0.0
 11
-30.39853836816497
 21
288.1779675495837
 31
0.0
  0
LINE
  5
FB
330
70
100
AcDbEntity
  8
0
 62
   250
420
  3355443
370
    25
100
AcDbLine
 10
-30.39853836816497
 20
288.1779675495837
 30
0.0
 11
-30.40118756746504
 21
288.2008264187837
 31
0.0
  0
LINE
  5
FC
330
70
100
AcDbEntity
  8
0
 62
    18
420
        0
370
    25
100
AcDbLine
 10
-26.12915643676491
 20
288.4883453149832
 30
0.0
 11
-26.1291563917648
 21
325.1929469198835
 31
0.0
  0
LWPOLYLINE
  5
FD
330
70
100
AcDbEntity
  8
0
 62
   250
420
  3355443
370
    25
100
AcDbPolyline
 90
        3
 70
     0
 43
0.0
 10
19.91934007683536
 20
260.4896706855833
 10
19.76138944273502
 20
260.5587605075833
 10
19.60212674493505
 20
260.6402160818837
  0
LWPOLYLINE
  5
FE
330
70
100
AcDbEntity
  8
0
 62
   250
420
  3355443
370
    25
100
AcDbPolyline
 90
       19
 70
     0
 43
0.0
 10
19.13454674703477
 20
261.7494494349835
 10
19.24089930393532
 20
261.7013339774834
 10
19.34610904433512
 20
261.6637497017832
 10
19.44982262213503
 20
261.6367931953835
 10
19.55164625193481
 20
261.6205384057833
 10
19.65099196953497
 20
261.6150653275835
 10
19.74717444333505
 20
261.6204134833834
 10
19.83957737013509
 20
261.6365100994836
 10
19.92769388813477
 20
261.6632484762835
 10
20.01102523303514
 20
261.7004611163832
 10
20.08909655623497
 20
261.7479095233837
 10
20.16140671653522
 20
261.8053560790837
 10
20.22754052983502
 20
261.8724246516832
 10
20.28713158483485
 20
261.9486662509834
 10
20.33985838743538
 20
262.0335849473836
 10
20.38541677273533
 20
262.1266694124835
 10
20.4235013962353
 20
262.2274256683834
 10
20.45388573153536
 20
262.3353305436836
 10
20.4764068950351
 20
262.4498223990836
  0
LWPOLYLINE
  5
FF
330
70
100
AcDbEntity
  8
0
 62
    18
420
        0
370
    25
100
AcDbPolyline
 90
        7
 70
     0
 43
0.0
 10
20.80384585993502
 20
258.9518589704837
 10
20.81302930783511
 20
258.9475799181833
 10
20.8222984631348
 20
258.9436468446836
 10
20.83164008723512
 20
258.9400823237837
 10
20.84103993883482
 20
258.9369089867835
 10
20.85048276393537
 20
258.9341494454836
 10
20.8599522888348
 20
258.9318262121834
  0
LINE
  5
100
330
70
100
AcDbEntity
  8
0
 62
   250
420
  3355443
370
    25
100
AcDbLine
 10
19.27997530903513
 20
260.7994692413832
 30
0.0
 11
18.7376164540351
 21
261.0522141771832
 31
0.0
  0
LINE
  5
101
330
70
100
AcDbEntity
  8
0
 62
    18
420
        0
370
    25
100
AcDbLine
 10
20.83341418203528
 20
258.9586992571834
 30
0.0
 11
20.82521030733496
 21
258.9625411941836
 31
0.0
  0
LINE
  5
102
330
70
100
AcDbEntity
  8
0
 62
    18
420
        0
370
    25
100
AcDbLine
 10
20.41300184903524
 20
260.1210591252832
 30
0.0
 11
20.76916416373506
 21
259.9534144397835
 31
0.0
  0
LINE
  5
103
330
70
100
AcDbEntity
  8
0
 62
    18
420
        0
370
    25
100
AcDbLine
 10
20.79047973903521
 20
259.9640722273832
 30
0.0
 11
20.43437195093504
 21
260.1317000773837
 31
0.0
  0
LINE
  5
104
330
70
100
AcDbEntity
  8
0
 62
   250
420
  3355443
370
    25
100
AcDbLine
 10
18.7376164540351
 20
261.0522141771832
 30
0.0
 11
18.37494073043519
 21
261.2231696087834
 31
0.0
  0
LWPOLYLINE
  5
105
330
70
100
AcDbEntity
  8
0
 62
   250
420
  3355443
370
    25
100
AcDbPolyline
 90
        6
 70
     0
 43
0.0
 10
16.08536585683516
 20
263.2762823607835
 10
16.00968571903482
 20
263.3124387749833
 10
15.92546176873514
 20
263.3532742883832
 10
15.8365258896352
 20
263.3968849570832
 10
15.74832900193536
 20
263.4406976966836
 10
-2.020407583464974
 20
272.3252309926837
  0
LINE
  5
106
330
70
100
AcDbEntity
  8
0
 62
    18
420
        0
370
    25
100
AcDbLine
 10
20.19179027443486
 20
260.2265953184834
 30
0.0
 11
20.41300184903524
 21
260.1210591252832
 31
0.0
  0
LINE
  5
107
330
70
100
AcDbEntity
  8
0
 62
    18
420
        0
370
    25
100
AcDbLine
 10
20.43437195093504
 20
260.1317000773837
 30
0.0
 11
20.21315506083479
 21
260.2372467464837
 31
0.0
  0
LINE
  5
108
330
70
100
AcDbEntity
  8
0
 62
   250
420
  3355443
370
    25
100
AcDbLine
 10
18.37494073043519
 20
261.2231696087834
 30
0.0
 11
18.08246999023528
 21
261.3633937773832
 31
0.0
  0
LINE
  5
109
330
70
100
AcDbEntity
  8
0
 62
    18
420
        0
370
    25
100
AcDbLine
 10
20.74803560723523
 20
259.5351356843835
 30
0.0
 11
20.4569028362349
 21
259.6745376754833
 31
0.0
  0
LINE
  5
10A
330
70
100
AcDbEntity
  8
0
 62
    18
420
        0
370
    25
100
AcDbLine
 10
21.6995699189353
 20
257.2263266401833
 30
0.0
 11
21.2288186677349
 21
257.4529013480836
 31
0.0
  0
LINE
  5
10B
330
70
100
AcDbEntity
  8
0
 62
    18
420
        0
370
    25
100
AcDbLine
 10
19.98327748543515
 20
260.3272135481836
 30
0.0
 11
20.19179027443486
 21
260.2265953184834
 31
0.0
  0
LINE
  5
10C
330
70
100
AcDbEntity
  8
0
 62
    18
420
        0
370
    25
100
AcDbLine
 10
20.21315506083479
 20
260.2372467464837
 30
0.0
 11
20.00463398433498
 21
260.3378781082833
 31
0.0
  0
LINE
  5
10D
330
70
100
AcDbEntity
  8
0
 62
    18
420
        0
370
    25
100
AcDbLine
 10
20.71179044903516
 20
258.5765134702835
 30
0.0
 11
20.34887322983498
 21
258.7530202957832
 31
0.0
  0
LINE
  5
10E
330
70
100
AcDbEntity
  8
0
 62
    18
420
        0
370
    25
100
AcDbLine
 10
20.4569028362349
 20
259.6745376754833
 30
0.0
 11
20.23963037673519
 21
259.7799270108833
 31
0.0
  0
LINE
  5
10F
330
70
100
AcDbEntity
  8
0
 62
    18
420
        0
370
    25
100
AcDbLine
 10
20.44791875043496
 20
257.8314660764832
 30
0.0
 11
20.03264836293537
 21
258.0339733218837
 31
0.0
  0
LINE
  5
110
330
70
100
AcDbEntity
  8
0
 62
   250
420
  3355443
370
    25
100
AcDbLine
 10
18.08246999023528
 20
261.3633937773832
 30
0.0
 11
17.01262846583533
 21
261.8824590099837
 31
0.0
  0
LWPOLYLINE
  5
111
330
70
100
AcDbEntity
  8
0
 62
   250
420
  3355443
370
    25
100
AcDbPolyline
 90
       19
 70
     0
 43
0.0
 10
-27.89517905416499
 20
284.3888701157833
 10
-28.05194945356495
 20
284.4654396587836
 10
-28.2076738482648
 20
284.5531927653831
 10
-28.36100697956503
 20
284.6514109286833
 10
-28.51229989416497
 20
284.7608059594834
 10
-28.66155179306492
 20
284.8812824391832
 10
-28.80760760426509
 20
285.0112128104833
 10
-28.94961615376508
 20
285.1497766039837
 10
-29.08706884636477
 20
285.2966682323837
 10
-29.22006570706493
 20
285.4514515355834
 10
-29.34870499716484
 20
285.6143413274834
 10
-29.4726926488649
 20
285.7852953881834
 10
-29.59114150856479
 20
285.9629000782831
 10
-29.70332814926496
 20
286.1465478398832
 10
-29.80880994876495
 20
286.3359693306833
 10
-29.907976147165
 20
286.5313298326835
 10
-30.00034622696498
 20
286.7324272296833
 10
-30.08500244396507
 20
286.9379801813837
 10
-30.16117726016478
 20
287.1474440548833
  0
LINE
  5
112
330
70
100
AcDbEntity
  8
0
 62
    18
420
        0
370
    25
100
AcDbLine
 10
20.82521013983483
 20
258.9625428423831
 30
0.0
 11
20.31944663623499
 21
259.2086493755834
 31
0.0
  0
LINE
  5
113
330
70
100
AcDbEntity
  8
0
 62
    18
420
        0
370
    25
100
AcDbLine
 10
20.29808487063522
 20
259.1979684927835
 30
0.0
 11
20.80384602743515
 21
258.9518607862834
 31
0.0
  0
LINE
  5
114
330
70
100
AcDbEntity
  8
0
 62
    18
420
        0
370
    25
100
AcDbLine
 10
19.78738972613481
 20
260.4229302577835
 30
0.0
 11
19.98327748543515
 21
260.3272135481836
 31
0.0
  0
LINE
  5
115
330
70
100
AcDbEntity
  8
0
 62
    18
420
        0
370
    25
100
AcDbLine
 10
20.00463398433498
 20
260.3378781082833
 30
0.0
 11
19.80874281763519
 21
260.4336068034834
 31
0.0
  0
LINE
  5
116
330
70
100
AcDbEntity
  8
0
 62
   250
420
  3355443
370
    25
100
AcDbLine
 10
17.01262846583533
 20
261.8824590099837
 30
0.0
 11
16.55293062513492
 21
262.1076839278836
 31
0.0
  0
LINE
  5
117
330
70
100
AcDbEntity
  8
0
 62
    18
420
        0
370
    25
100
AcDbLine
 10
19.75608095453533
 20
258.1691053253834
 30
0.0
 11
19.34196691443515
 21
258.3721976727836
 31
0.0
  0
LINE
  5
118
330
70
100
AcDbEntity
  8
0
 62
    18
420
        0
370
    25
100
AcDbLine
 10
18.97821690063503
 20
259.4455443604835
 30
0.0
 11
18.60747141253531
 21
259.6281818880832
 31
0.0
  0
LINE
  5
119
330
70
100
AcDbEntity
  8
0
 62
    18
420
        0
370
    25
100
AcDbLine
 10
18.58611319363501
 20
259.6175027785834
 30
0.0
 11
18.98662062783474
 21
259.4202253059833
 31
0.0
  0
LINE
  5
11A
330
70
100
AcDbEntity
  8
0
 62
    18
420
        0
370
    25
100
AcDbLine
 10
18.4294787138353
 20
258.8226511421837
 30
0.0
 11
18.01710338783502
 21
259.0265940402837
 31
0.0
  0
LINE
  5
11B
330
70
100
AcDbEntity
  8
0
 62
    18
420
        0
370
    25
100
AcDbLine
 10
19.15966752203501
 20
258.9044420073836
 30
0.0
 11
18.50745502153493
 21
259.2260773883834
 31
0.0
  0
LINE
  5
11C
330
70
100
AcDbEntity
  8
0
 62
    18
420
        0
370
    25
100
AcDbLine
 10
17.74225616423511
 20
259.1625937715834
 30
0.0
 11
17.33011340413479
 21
259.3666598809832
 31
0.0
  0
LINE
  5
11D
330
70
100
AcDbEntity
  8
0
 62
   250
420
  3355443
370
    25
100
AcDbLine
 10
16.55293062513492
 20
262.1076839278836
 30
0.0
 11
13.02888135443528
 21
263.8503077226837
 31
0.0
  0
LINE
  5
11E
330
70
100
AcDbEntity
  8
0
 62
    18
420
        0
370
    25
100
AcDbLine
 10
16.94062661333519
 20
259.5596880446835
 30
0.0
 11
16.52884279583519
 21
259.7639167976837
 31
0.0
  0
LINE
  5
11F
330
70
100
AcDbEntity
  8
0
 62
    18
420
        0
370
    25
100
AcDbLine
 10
16.13957293563492
 20
259.9570415486837
 30
0.0
 11
15.72785993833499
 21
260.1613225394837
 31
0.0
  0
LINE
  5
120
330
70
100
AcDbEntity
  8
0
 62
    18
420
        0
370
    25
100
AcDbLine
 10
15.31623712813502
 20
260.3656380172832
 30
0.0
 11
14.90473430573474
 21
260.5700180332835
 31
0.0
  0
LINE
  5
121
330
70
100
AcDbEntity
  8
0
 62
    18
420
        0
370
    25
100
AcDbLine
 10
13.97039523123519
 20
261.0346876525832
 30
0.0
 11
13.55935270913518
 21
261.2393126680832
 31
0.0
  0
LINE
  5
122
330
70
100
AcDbEntity
  8
0
 62
   250
420
  3355443
370
    25
100
AcDbLine
 10
13.02888135443528
 20
263.8503077226837
 30
0.0
 11
7.077494705734764
 21
266.8073722043835
 31
0.0
  0
LINE
  5
123
330
70
100
AcDbEntity
  8
0
 62
    18
420
        0
370
    25
100
AcDbLine
 10
18.44283186233535
 20
261.0926466583832
 30
0.0
 11
18.85351142243503
 21
260.8878291500834
 31
0.0
  0
LINE
  5
124
330
70
100
AcDbEntity
  8
0
 62
    18
420
        0
370
    25
100
AcDbLine
 10
18.87484994343488
 20
260.8984984105836
 30
0.0
 11
18.46416021353482
 21
261.1033108340834
 31
0.0
  0
LINE
  5
125
330
70
100
AcDbEntity
  8
0
 62
    18
420
        0
370
    25
100
AcDbLine
 10
16.88979972343532
 20
261.8679700601831
 30
0.0
 11
17.51018420533537
 21
261.5581449124835
 31
0.0
  0
LINE
  5
126
330
70
100
AcDbEntity
  8
0
 62
    18
420
        0
370
    25
100
AcDbLine
 10
17.53149768393524
 20
261.5688016516837
 30
0.0
 11
16.91110717093501
 21
261.8786237839837
 31
0.0
  0
LINE
  5
127
330
70
100
AcDbEntity
  8
0
 62
    18
420
        0
370
    25
100
AcDbLine
 10
15.50336195023485
 20
262.5606606656832
 30
0.0
 11
16.12360622183487
 21
262.2507654128833
 31
0.0
  0
LINE
  5
128
330
70
100
AcDbEntity
  8
0
 62
    18
420
        0
370
    25
100
AcDbLine
 10
13.99910649433529
 20
263.3123574353832
 30
0.0
 11
14.40937196253474
 21
263.1073477303834
 31
0.0
  0
LINE
  5
129
330
70
100
AcDbEntity
  8
0
 62
    18
420
        0
370
    25
100
AcDbLine
 10
16.14490841873484
 20
262.2614165112832
 30
0.0
 11
15.52466039053495
 21
262.5713098858834
 31
0.0
  0
LINE
  5
12A
330
70
100
AcDbEntity
  8
0
 62
    18
420
        0
370
    25
100
AcDbLine
 10
14.43066534113528
 20
263.1179944196834
 30
0.0
 11
14.02039784603509
 21
263.3230031112832
 31
0.0
  0
LINE
  5
12B
330
70
100
AcDbEntity
  8
0
 62
    18
420
        0
370
    25
100
AcDbLine
 10
14.68286867893539
 20
262.9706734525832
 30
0.0
 11
15.09311378143489
 21
262.7656585144834
 31
0.0
  0
LINE
  5
12C
330
70
100
AcDbEntity
  8
0
 62
    18
420
        0
370
    25
100
AcDbLine
 10
12.68193049653512
 20
263.9706044956834
 30
0.0
 11
13.09215821883495
 21
263.7655759175833
 31
0.0
  0
LINE
  5
12D
330
70
100
AcDbEntity
  8
0
 62
    18
420
        0
370
    25
100
AcDbLine
 10
15.11441020423514
 20
262.7763067257832
 30
0.0
 11
14.70416332153481
 21
262.9813207738836
 31
0.0
  0
LINE
  5
12E
330
70
100
AcDbEntity
  8
0
 62
    18
420
        0
370
    25
100
AcDbLine
 10
13.11344560333502
 20
263.7762196098837
 30
0.0
 11
12.70321660363508
 21
263.9812475491833
 31
0.0
  0
LINE
  5
12F
330
70
100
AcDbEntity
  8
0
 62
   250
420
  3355443
370
    25
100
AcDbLine
 10
7.077494705734764
 20
266.8073722043835
 30
0.0
 11
2.358331050835039
 21
269.1623184056835
 31
0.0
  0
LINE
  5
130
330
70
100
AcDbEntity
  8
0
 62
   250
420
  3355443
370
    25
100
AcDbLine
 10
2.358331050835039
 20
269.1623184056835
 30
0.0
 11
-5.214964066765004
 21
272.9461477536832
 31
0.0
  0
LINE
  5
131
330
70
100
AcDbEntity
  8
0
 62
   250
420
  3355443
370
    25
100
AcDbLine
 10
-5.214964066765004
 20
272.9461477536832
 30
0.0
 11
-14.13459342666503
 21
277.4113622654831
 31
0.0
  0
LWPOLYLINE
  5
132
330
70
100
AcDbEntity
  8
0
 62
    18
420
        0
370
    25
100
AcDbPolyline
 90
       34
 70
     0
 43
0.0
 10
20.76916428693486
 20
259.9534161355836
 10
20.81275629973488
 20
259.9314898474834
 10
20.85630847833486
 20
259.9064082278837
 10
20.89963722963516
 20
259.8783088729836
 10
20.94237475833521
 20
259.8474995943836
 10
20.98454242773502
 20
259.8140108384837
 10
21.02651334073513
 20
259.7774625202837
 10
21.06815531803503
 20
259.7378415989833
 10
21.10916810613486
 20
259.6953221029833
 10
21.14959473873516
 20
259.6496648339835
 10
21.18919906213506
 20
259.6009247506837
 10
21.22765700563517
 20
259.5492795911834
 10
21.26479936453505
 20
259.4946455440831
 10
21.30051378963492
 20
259.4368430430832
 10
21.33418027643529
 20
259.3764748601834
 10
21.36495638613485
 20
259.3147321985837
 10
21.39268805783531
 20
259.2518551599833
 10
21.41709099563527
 20
259.1883757782834
 10
21.43751500403488
 20
259.1260080924832
 10
21.45393569783538
 20
259.0655167857832
 10
21.46659630893537
 20
259.0068458849834
 10
21.47554576803525
 20
258.9504170694835
 10
21.48093065063521
 20
258.8967169913837
 10
21.4829911516353
 20
258.8456923580836
 10
21.48186220273528
 20
258.7969451007837
 10
21.47764923893497
 20
258.7506473585833
 10
21.47046645043532
 20
258.7070059320831
 10
21.46029046783494
 20
258.6657707237834
 10
21.44715855333484
 20
258.6270704110836
 10
21.43115298353497
 20
258.5912059832832
 10
21.41223685853506
 20
258.5582576772834
 10
21.390435061235
 20
258.5283612298834
 10
21.36589575003518
 20
258.5017794659836
 10
21.33879773373509
 20
258.4787437721837
  0
LINE
  5
133
330
70
100
AcDbEntity
  8
0
 62
   250
420
  3355443
370
    25
100
AcDbLine
 10
-14.13459342666503
 20
277.4113622654831
 30
0.0
 11
-18.16032248726483
 21
279.4327869302835
 31
0.0
  0
LINE
  5
134
330
70
100
AcDbEntity
  8
0
 62
   250
420
  3355443
370
    25
100
AcDbLine
 10
-18.16032248726483
 20
279.4327869302835
 30
0.0
 11
-24.04042600846477
 21
282.3995376861836
 31
0.0
  0
LINE
  5
135
330
70
100
AcDbEntity
  8
0
 62
   250
420
  3355443
370
    25
100
AcDbLine
 10
-24.04042600846477
 20
282.3995376861836
 30
0.0
 11
-25.14523961206478
 21
282.9597237268836
 31
0.0
  0
LWPOLYLINE
  5
136
330
70
100
AcDbEntity
  8
0
 62
   250
420
  3355443
370
    25
100
AcDbPolyline
 90
        3
 70
     0
 43
0.0
 10
-25.042145424565
 20
283.8362215849836
 10
-25.22335850306491
 20
283.9289618688834
 10
-25.3055812695648
 20
283.9717569124831
  0
LINE
  5
137
330
70
100
AcDbEntity
  8
0
 62
   250
420
  3355443
370
    25
100
AcDbLine
 10
-25.14523961206478
 20
282.9597237268836
 30
0.0
 11
-26.05749301016502
 21
283.4281412792833
 31
0.0
  0
LWPOLYLINE
  5
138
330
70
100
AcDbEntity
  8
0
 62
   250
420
  3355443
370
    25
100
AcDbPolyline
 90
        5
 70
     0
 43
0.0
 10
-27.56641942966479
 20
284.2225076456835
 10
-27.68309758876484
 20
284.2832681974836
 10
-27.77210251896478
 20
284.3284723724833
 10
-27.84277872836508
 20
284.3637268860832
 10
-27.89517959166494
 20
284.3888697716837
  0
LWPOLYLINE
  5
139
330
70
100
AcDbEntity
  8
0
 62
   250
420
  3355443
370
    25
100
AcDbPolyline
 90
        5
 70
     0
 43
0.0
 10
19.60212621103503
 20
260.6402157360837
 10
19.55065455093505
 20
260.6670627049835
 10
19.48131446053504
 20
260.7018400196832
 10
19.39404694763504
 20
260.7447914998832
 10
19.27997530903513
 20
260.7994692413832
  0
LINE
  5
13A
330
70
100
AcDbEntity
  8
0
 62
   250
420
  3355443
370
    25
100
AcDbLine
 10
-26.05749301016502
 20
283.4281412792833
 30
0.0
 11
-26.65817509636492
 21
283.7396031645836
 31
0.0
  0
LINE
  5
13B
330
70
100
AcDbEntity
  8
0
 62
   250
420
  3355443
370
    25
100
AcDbLine
 10
-26.65817509636492
 20
283.7396031645836
 30
0.0
 11
-27.02097661336494
 21
283.9313022204835
 31
0.0
  0
LINE
  5
13C
330
70
100
AcDbEntity
  8
0
 62
   250
420
  3355443
370
    25
100
AcDbLine
 10
-27.02097661336494
 20
283.9313022204835
 30
0.0
 11
-27.56641942966479
 21
284.2225076456835
 31
0.0
  0
LWPOLYLINE
  5
13D
330
70
100
AcDbEntity
  8
0
 62
   250
420
  3355443
370
    25
100
AcDbPolyline
 90
       16
 70
     0
 43
0.0
 10
39.4320540915351
 20
242.5388934513835
 10
39.50619796193486
 20
242.4963825588832
 10
39.58456102003488
 20
242.4580217102833
 10
39.66660856283498
 20
242.4240138917834
 10
39.75189912253489
 20
242.3945325857836
 10
39.83983622713523
 20
242.3698247508833
 10
39.92968103613528
 20
242.3501519542835
 10
40.02055361273526
 20
242.3357159693835
 10
40.11161601743491
 20
242.3266753856831
 10
40.20208233683524
 20
242.3231108680835
 10
40.29106843693514
 20
242.3250308658833
 10
40.3777266369349
 20
242.3324030528836
 10
40.46142730443476
 20
242.3451244188834
 10
40.54159905993535
 20
242.3630822045836
 10
40.61774578973525
 20
242.3861877315832
 10
40.68931271363518
 20
242.4143475835836
  0
LWPOLYLINE
  5
13E
330
70
100
AcDbEntity
  8
0
 62
   250
420
  3355443
370
    25
100
AcDbPolyline
 90
       10
 70
     0
 43
0.0
 10
-30.42269674246508
 20
288.6851572985836
 10
-30.29502925426488
 20
288.5968430147833
 10
-30.17914366476485
 20
288.5069004540834
 10
-30.07528249936486
 20
288.4155698178834
 10
-29.98328607376508
 20
288.3234665601833
 10
-29.903945495565
 20
288.2305122903833
 10
-29.83819877076495
 20
288.1362307214834
 10
-29.78565038086491
 20
288.0410474703834
 10
-29.74573329406484
 20
287.9457440861831
 10
-29.718815537765
 20
287.8502896901837
  0
LINE
  5
13F
330
70
100
AcDbEntity
  8
0
 62
   250
420
  3355443
370
    25
100
AcDbLine
 10
-27.24035690096501
 20
284.9436625544832
 30
0.0
 11
-28.35356653416508
 21
285.4971728037837
 31
0.0
  0
LINE
  5
140
330
70
100
AcDbEntity
  8
0
 62
   250
420
  3355443
370
    25
100
AcDbLine
 10
-25.30311439886494
 20
283.9760653739832
 30
0.0
 11
-27.24035690096501
 21
284.9436625544832
 31
0.0
  0
LINE
  5
141
330
70
100
AcDbEntity
  8
0
 62
   250
420
  3355443
370
    25
100
AcDbLine
 10
19.60717461043495
 20
263.4703594118834
 30
0.0
 11
-27.81195599826487
 21
287.1799255523832
 31
0.0
  0
LINE
  5
142
330
70
100
AcDbEntity
  8
0
 62
    18
420
        0
370
    25
100
AcDbLine
 10
-25.9250046861648
 20
288.1363509758834
 30
0.0
 11
19.60717461043495
 21
265.3702613275837
 31
0.0
  0
LINE
  5
143
330
70
100
AcDbEntity
  8
0
 62
   250
420
  3355443
370
    25
100
AcDbLine
 10
-2.020407583464974
 20
272.3252309926837
 30
0.0
 11
-24.95295296266498
 21
283.7913396433834
 31
0.0
  0
LINE
  5
144
330
70
100
AcDbEntity
  8
0
 62
   250
420
  3355443
370
    25
100
AcDbLine
 10
-24.95295296266498
 20
283.7913396433834
 30
0.0
 11
-25.042145424565
 21
283.8362215849836
 31
0.0
  0
LINE
  5
145
330
70
100
AcDbEntity
  8
0
 62
   250
420
  3355443
370
    25
100
AcDbLine
 10
19.13638883213518
 20
261.7521939864833
 30
0.0
 11
16.08783186353474
 21
263.2805912543832
 31
0.0
  0
LWPOLYLINE
  5
146
330
70
100
AcDbEntity
  8
0
 62
   250
420
  3355443
370
    25
100
AcDbPolyline
 90
       13
 70
     0
 43
0.0
 10
-27.81195629436502
 20
287.1799423317831
 10
-27.84078130486488
 20
287.1956272047832
 10
-27.86900796896505
 20
287.2156835576834
 10
-27.89615416646492
 20
287.2397580889834
 10
-27.92177728916492
 20
287.2674495386832
 10
-27.94540443306507
 20
287.2982543167834
 10
-27.96655719376477
 20
287.3315521488832
 10
-27.98486776596479
 20
287.3667496590837
 10
-28.00004220586486
 20
287.4032170015835
 10
-28.011823723965
 20
287.4402140248837
 10
-28.020044988965
 20
287.4770681988831
 10
-28.02460429696508
 20
287.5131931515833
 10
-28.0254574947649
 20
287.5479965552838
  0
LWPOLYLINE
  5
147
330
70
100
AcDbEntity
  8
0
 62
    18
420
        0
370
    25
100
AcDbPolyline
 90
       13
 70
     0
 43
0.0
 10
-25.92452301056506
 20
288.1361101380837
 10
-25.95160819216502
 20
288.1532256223833
 10
-25.97735920236492
 20
288.1733149917835
 10
-26.00177604106497
 20
288.1963782461837
 10
-26.02518296956486
 20
288.2228485563837
 10
-26.04725572656491
 20
288.2522927516837
 10
-26.0670215286649
 20
288.2834113192834
 10
-26.08438086586508
 20
288.3162974163832
 10
-26.09943324806509
 20
288.3508578857832
 10
-26.11150442166503
 20
288.3855137432835
 10
-26.12036963536492
 20
288.4197386606837
 10
-26.12625364036495
 20
288.4540589661836
 10
-26.12915643676491
 20
288.4884746597836
  0
LWPOLYLINE
  5
148
330
70
100
AcDbEntity
  8
0
 62
   250
420
  3355443
370
    25
100
AcDbPolyline
 90
       10
 70
     0
 43
0.0
 10
-29.71881547926483
 20
326.4244427848833
 10
-29.74520483446488
 20
326.5158898148834
 10
-29.78454463366498
 20
326.6085362579835
 10
-29.83674547186509
 20
326.7023483961834
 10
-29.90292287956505
 20
326.7985382539835
 10
-29.98353925556506
 20
326.8945362733833
 10
-30.07667154296507
 20
326.9848071597836
 10
-30.18082804206491
 20
327.0676605068834
 10
-30.29631874466489
 20
327.1446622294835
 10
-30.4226966841648
 20
327.2157392300834
  0
LWPOLYLINE
  5
149
330
70
100
AcDbEntity
  8
0
 62
   250
420
  3355443
370
    25
100
AcDbPolyline
 90
       41
 70
     0
 43
0.0
 10
-29.72215183616491
 20
326.4241435095834
 10
-29.71538048336494
 20
326.3988628696833
 10
-29.70605717466492
 20
326.3738250271835
 10
-29.69422143976491
 20
326.3491113144836
 10
-29.67992305116505
 20
326.3248529248836
 10
-29.663193542165
 20
326.3010727449834
 10
-29.64403202236498
 20
326.2776958709836
 10
-29.62248507506487
 20
326.2547497747836
 10
-29.59862408726496
 20
326.2323492864835
 10
-29.57247990876499
 20
326.2105527988836
 10
-29.54407535596486
 20
326.1894510870834
 10
-29.51349886106493
 20
326.1690856347835
 10
-29.48089488356503
 20
326.1494441897834
 10
-29.44630588796487
 20
326.1304691421835
 10
-29.40989103966492
 20
326.1123422410835
 10
-29.37204328106506
 20
326.0953700827834
 10
-29.33299041746498
 20
326.0796763497834
 10
-29.29278593716482
 20
326.0651573736835
 10
-29.25160905226484
 20
326.0517391809835
 10
-29.20972384316483
 20
326.0394205040833
 10
-29.16715752796493
 20
326.0282053873836
 10
-29.12371191336492
 20
326.0180475870836
 10
-29.07949528706496
 20
326.0089723843836
 10
-29.03461057106489
 20
326.0009887200834
 10
-28.988813555365
 20
325.9940599196834
 10
-28.94217405026486
 20
325.9882127667835
 10
-28.894820912365
 20
325.9834761390834
 10
-28.84658047776497
 20
325.9798577603834
 10
-28.79742318056497
 20
325.9774003291833
 10
-28.74759183226506
 20
325.9761643632836
 10
-28.69732631876507
 20
325.9761865464835
 10
-28.64667805186491
 20
325.9774899764835
 10
-28.59585685216486
 20
325.9801039961834
 10
-28.54534462206487
 20
325.9840328889834
 10
-28.49530562216484
 20
325.9892621504834
 10
-28.4458410218649
 20
325.9957862301836
 10
-28.39732073216499
 20
326.0035640317834
 10
-28.34988020146481
 20
326.0125446042833
 10
-28.3036086179648
 20
326.0226881843834
 10
-28.25878011456508
 20
326.0339319420833
 10
-28.21549470046491
 20
326.0462796935834
  0
LWPOLYLINE
  5
14A
330
70
100
AcDbEntity
  8
0
 62
   250
420
  3355443
370
    25
100
AcDbPolyline
 90
       10
 70
     0
 43
0.0
 10
19.13638459493482
 20
261.7521987908833
 10
19.21471079313486
 20
261.6649899797836
 10
19.287067354735
 20
261.5675699604833
 10
19.35327443963493
 20
261.4602473430835
 10
19.4134856047348
 20
261.3429589180831
 10
19.46717964703529
 20
261.2163659642833
 10
19.51317452393529
 20
261.0821024725836
 10
19.55095791793491
 20
260.9411706130836
 10
19.58067205993536
 20
260.7936965953832
 10
19.60212779773537
 20
260.6402167643833
  0
LINE
  5
14B
330
70
100
AcDbEntity
  8
0
 62
    18
420
        0
370
    25
100
AcDbLine
 10
-25.9250046861648
 20
288.1363509758834
 30
0.0
 11
-27.81195599826487
 21
287.1799255523832
 31
0.0
  0
LWPOLYLINE
  5
14C
330
70
100
AcDbEntity
  8
0
 62
    18
420
        0
370
    25
100
AcDbPolyline
 90
        3
 70
     0
 43
0.0
 10
-28.02558230376499
 20
287.5480605283837
 10
-27.71736316006479
 20
287.6999947121835
 10
-26.12915643676491
 20
288.4883453149832
  0
LWPOLYLINE
  5
14D
330
70
100
AcDbEntity
  8
0
 62
   250
420
  3355443
370
    25
100
AcDbPolyline
 90
        9
 70
     0
 43
0.0
 10
-43.82392727276499
 20
349.0434389016835
 10
-43.87471220536503
 20
349.0973824457834
 10
-43.91821818746496
 20
349.1529801931835
 10
-43.95423027436483
 20
349.2098690854833
 10
-43.98256267396508
 20
349.2677571318834
 10
-44.00293725896489
 20
349.3262224336835
 10
-44.01508450506478
 20
349.3847347496835
 10
-44.0188764959648
 20
349.4426867086835
 10
-44.014402183165
 20
349.4977767765835
  0
LINE
  5
14E
330
70
100
AcDbEntity
  8
0
 62
    18
420
        0
370
    25
100
AcDbLine
 10
21.72096685073524
 20
257.2370251060835
 30
0.0
 11
21.41118491873486
 21
257.9055998851832
 31
0.0
  0
LINE
  5
14F
330
70
100
AcDbEntity
  8
0
 62
    18
420
        0
370
    25
100
AcDbLine
 10
21.38995843693512
 20
257.8945776810838
 30
0.0
 11
21.6995699189353
 21
257.2263266401833
 31
0.0
  0
LINE
  5
150
330
70
100
AcDbEntity
  8
0
 62
    18
420
        0
370
    25
100
AcDbLine
 10
21.2288186677349
 20
257.4529013480836
 30
0.0
 11
20.9387218580349
 21
258.0805304755832
 31
0.0
  0
LINE
  5
151
330
70
100
AcDbEntity
  8
0
 62
    18
420
        0
370
    25
100
AcDbLine
 10
21.14941783123474
 20
258.4193418483836
 30
0.0
 11
21.38995843693512
 21
257.8945776810838
 31
0.0
  0
LINE
  5
152
330
70
100
AcDbEntity
  8
0
 62
    18
420
        0
370
    25
100
AcDbLine
 10
21.41118491873486
 20
257.9055998851832
 30
0.0
 11
21.17523521453523
 21
258.4202879889832
 31
0.0
  0
LINE
  5
153
330
70
100
AcDbEntity
  8
0
 62
    18
420
        0
370
    25
100
AcDbLine
 10
20.9387218580349
 20
258.0805304755832
 30
0.0
 11
20.71179044903516
 21
258.5765134702835
 31
0.0
  0
LINE
  5
154
330
70
100
AcDbEntity
  8
0
 62
    18
420
        0
370
    25
100
AcDbLine
 10
13.55935270913518
 20
261.2393126680832
 30
0.0
 11
13.46128603763536
 21
261.5274536066835
 31
0.0
  0
LINE
  5
155
330
70
100
AcDbEntity
  8
0
 62
    18
420
        0
370
    25
100
AcDbLine
 10
13.46128603763536
 20
261.5274536066835
 30
0.0
 11
13.26550831913481
 21
262.1152083230836
 31
0.0
  0
LINE
  5
156
330
70
100
AcDbEntity
  8
0
 62
    18
420
        0
370
    25
100
AcDbLine
 10
13.55352659883498
 20
262.2873372197836
 30
0.0
 11
13.68641082893491
 21
261.8799907730835
 31
0.0
  0
LINE
  5
157
330
70
100
AcDbEntity
  8
0
 62
    18
420
        0
370
    25
100
AcDbLine
 10
13.69601531473526
 20
261.9265038310834
 30
0.0
 11
13.57479452623475
 21
262.2982228759834
 31
0.0
  0
LINE
  5
158
330
70
100
AcDbEntity
  8
0
 62
    18
420
        0
370
    25
100
AcDbLine
 10
13.26550831913481
 20
262.1152083230836
 30
0.0
 11
13.07013733473502
 21
262.7182342836836
 31
0.0
  0
LINE
  5
159
330
70
100
AcDbEntity
  8
0
 62
    18
420
        0
370
    25
100
AcDbLine
 10
13.4210742896354
 20
262.7013383082832
 30
0.0
 11
13.55352659883498
 21
262.2873372197836
 31
0.0
  0
LINE
  5
15A
330
70
100
AcDbEntity
  8
0
 62
    18
420
        0
370
    25
100
AcDbLine
 10
13.57479452623475
 20
262.2982228759834
 30
0.0
 11
13.44229778783492
 21
262.7123098972833
 31
0.0
  0
LINE
  5
15B
330
70
100
AcDbEntity
  8
0
 62
    18
420
        0
370
    25
100
AcDbLine
 10
16.52884279583519
 20
259.7639167976837
 30
0.0
 11
16.40679096243497
 21
260.1459432769833
 31
0.0
  0
LINE
  5
15C
330
70
100
AcDbEntity
  8
0
 62
    18
420
        0
370
    25
100
AcDbLine
 10
13.07013733473502
 20
262.7182342836836
 30
0.0
 11
12.87557767773506
 21
263.3366867370833
 31
0.0
  0
LINE
  5
15D
330
70
100
AcDbEntity
  8
0
 62
    18
420
        0
370
    25
100
AcDbLine
 10
13.28908186263515
 20
263.1220044323833
 30
0.0
 11
13.4210742896354
 21
262.7013383082832
 31
0.0
  0
LINE
  5
15E
330
70
100
AcDbEntity
  8
0
 62
    18
420
        0
370
    25
100
AcDbLine
 10
13.44229778783492
 20
262.7123098972833
 30
0.0
 11
13.31030206783477
 21
263.1329387882833
 31
0.0
  0
LINE
  5
15F
330
70
100
AcDbEntity
  8
0
 62
    18
420
        0
370
    25
100
AcDbLine
 10
16.40679096243497
 20
260.1459432769833
 30
0.0
 11
16.28494294623509
 21
260.5344611046835
 31
0.0
  0
LINE
  5
160
330
70
100
AcDbEntity
  8
0
 62
    18
420
        0
370
    25
100
AcDbLine
 10
16.28494294623509
 20
260.5344611046835
 30
0.0
 11
16.1633115106352
 21
260.9294706765833
 31
0.0
  0
LWPOLYLINE
  5
161
330
70
100
AcDbEntity
  8
0
 62
    18
420
        0
370
    25
100
AcDbPolyline
 90
        3
 70
     0
 43
0.0
 10
13.31030206783477
 20
263.1329387882833
 10
13.17891644543523
 20
263.5601489858834
 10
13.11344560333502
 20
263.7762196098837
  0
LINE
  5
162
330
70
100
AcDbEntity
  8
0
 62
    18
420
        0
370
    25
100
AcDbLine
 10
16.65459878953496
 20
260.5450492114832
 30
0.0
 11
16.55047496733521
 21
260.8852560375833
 31
0.0
  0
LINE
  5
163
330
70
100
AcDbEntity
  8
0
 62
    18
420
        0
370
    25
100
AcDbLine
 10
12.87557767773506
 20
263.3366867370833
 30
0.0
 11
12.68193049653512
 21
263.9706044956834
 31
0.0
  0
LWPOLYLINE
  5
164
330
70
100
AcDbEntity
  8
0
 62
    18
420
        0
370
    25
100
AcDbPolyline
 90
        3
 70
     0
 43
0.0
 10
13.09215821883495
 20
263.7655759175833
 10
13.15766116193538
 20
263.5493771685831
 10
13.28908186263515
 20
263.1220044323833
  0
LWPOLYLINE
  5
165
330
70
100
AcDbEntity
  8
0
 62
    18
420
        0
370
    25
100
AcDbPolyline
 90
        3
 70
     0
 43
0.0
 10
16.47091082573526
 20
261.0672077518835
 10
16.52913226853514
 20
260.8745828733832
 10
16.64586788843515
 20
260.4933153735836
  0
LWPOLYLINE
  5
166
330
70
100
AcDbEntity
  8
0
 62
    18
420
        0
370
    25
100
AcDbPolyline
 90
        3
 70
     0
 43
0.0
 10
16.1633115106352
 20
260.9294706765833
 10
16.04194770943484
 20
261.3309735770835
 10
15.98136298093519
 20
261.5341599265832
  0
LWPOLYLINE
  5
167
330
70
100
AcDbEntity
  8
0
 62
   250
420
  3355443
370
    25
100
AcDbPolyline
 90
       16
 70
     0
 43
0.0
 10
38.64513376663507
 20
310.4650048369836
 10
38.58600289373518
 20
310.4280304791836
 10
38.52778793723496
 20
310.3855383396835
 10
38.47078095173484
 20
310.3377402171835
 10
38.41531871943516
 20
310.2849073905834
 10
38.36168143613534
 20
310.2272825652833
 10
38.31014320873482
 20
310.1651044764833
 10
38.26103371713531
 20
310.0986180332833
 10
38.2148959424349
 20
310.0284218288835
 10
38.17224988963534
 20
309.9553804807834
 10
38.13338398053509
 20
309.8802232792834
 10
38.09851237083495
 20
309.8034510181836
 10
38.06791771413534
 20
309.7256683411834
 10
38.04178153573514
 20
309.6473136893834
 10
38.02022251723516
 20
309.5687314649834
 10
38.00337104473485
 20
309.4902673441835
  0
LINE
  5
168
330
70
100
AcDbEntity
  8
0
 62
   250
420
  3355443
370
    25
100
AcDbLine
 10
38.80649890603537
 20
310.3853926725834
 30
0.0
 11
41.97462822363525
 21
312.1727649222836
 31
0.0
  0
LINE
  5
169
330
70
100
AcDbEntity
  8
0
 62
   250
420
  3355443
370
    25
100
AcDbLine
 10
40.73311797183524
 20
307.0640475579833
 30
0.0
 11
44.06652462213502
 21
308.5646748128834
 31
0.0
  0
LWPOLYLINE
  5
16A
330
70
100
AcDbEntity
  8
0
 62
   250
420
  3355443
370
    25
100
AcDbPolyline
 90
       31
 70
     0
 43
0.0
 10
20.49608987733527
 20
301.3185870580835
 10
20.44726823743528
 20
301.3221770559834
 10
20.39864620963496
 20
301.3270513511833
 10
20.3503291887349
 20
301.3331951506836
 10
20.30234888923484
 20
301.3406131708836
 10
20.25489610143521
 20
301.3492720090834
 10
20.20830760123489
 20
301.3590818890835
 10
20.16276112933493
 20
301.3699894519834
 10
20.11828199873531
 20
301.3819762768833
 10
20.0749671472349
 20
301.3949889732834
 10
20.03292385113501
 20
301.4089917583833
 10
19.99225212643526
 20
301.4239528362834
 10
19.95304050953481
 20
301.4398262720835
 10
19.91535439373487
 20
301.4565967130834
 10
19.87934506573532
 20
301.4742155895833
 10
19.84521693593527
 20
301.4925807766834
 10
19.81299959733511
 20
301.5116840412834
 10
19.78285149983508
 20
301.5314568903833
 10
19.75509896403537
 20
301.5516812300835
 10
19.72988585213496
 20
301.5721971291833
 10
19.70709861503513
 20
301.5930498029833
 10
19.68664971213497
 20
301.6143227133834
 10
19.66864650643508
 20
301.6359028832835
 10
19.6530525304351
 20
301.6578195373834
 10
19.63964902863537
 20
301.6803863440833
 10
19.62842858563496
 20
301.7036939503834
 10
19.61952570773529
 20
301.7275572809836
 10
19.612997390235
 20
301.7518815868836
 10
19.60887252643482
 20
301.7766728472835
 10
19.60720982753533
 20
301.8018034515835
 10
19.60717462103518
 20
301.8060486274833
  0
LINE
  5
16B
330
70
100
AcDbEntity
  8
0
 62
    18
420
        0
370
    25
100
AcDbLine
 10
19.34196691443515
 20
258.3721976727836
 30
0.0
 11
19.22043290023522
 21
258.7256764984831
 31
0.0
  0
LINE
  5
16C
330
70
100
AcDbEntity
  8
0
 62
    18
420
        0
370
    25
100
AcDbLine
 10
19.77747791383528
 20
258.1798038050835
 30
0.0
 11
19.56277525513479
 21
258.8081019126834
 31
0.0
  0
LINE
  5
16D
330
70
100
AcDbEntity
  8
0
 62
    18
420
        0
370
    25
100
AcDbLine
 10
19.54188807643532
 20
258.7959644466835
 30
0.0
 11
19.75608095453533
 21
258.1691053253834
 31
0.0
  0
LINE
  5
16E
330
70
100
AcDbEntity
  8
0
 62
    18
420
        0
370
    25
100
AcDbLine
 10
19.22043290023522
 20
258.7256764984831
 30
0.0
 11
19.15966752203501
 21
258.9044420073836
 31
0.0
  0
LINE
  5
16F
330
70
100
AcDbEntity
  8
0
 62
    18
420
        0
370
    25
100
AcDbLine
 10
19.56277525513479
 20
258.8081019126834
 30
0.0
 11
19.35659900713502
 21
259.4228787967836
 31
0.0
  0
LINE
  5
170
330
70
100
AcDbEntity
  8
0
 62
    18
420
        0
370
    25
100
AcDbLine
 10
19.33593045253512
 20
259.4101308808833
 30
0.0
 11
19.54188807643532
 21
258.7959644466835
 31
0.0
  0
LINE
  5
171
330
70
100
AcDbEntity
  8
0
 62
    18
420
        0
370
    25
100
AcDbLine
 10
18.98662062783474
 20
259.4202253059833
 30
0.0
 11
18.7756933965349
 21
260.0607216291835
 31
0.0
  0
LINE
  5
172
330
70
100
AcDbEntity
  8
0
 62
    18
420
        0
370
    25
100
AcDbLine
 10
19.0413777733349
 20
260.3069310385836
 30
0.0
 11
19.33593045253512
 21
259.4101308808833
 31
0.0
  0
LINE
  5
173
330
70
100
AcDbEntity
  8
0
 62
    18
420
        0
370
    25
100
AcDbLine
 10
19.35659900713502
 20
259.4228787967836
 30
0.0
 11
19.0622472690349
 21
260.3190470932836
 31
0.0
  0
LINE
  5
174
330
70
100
AcDbEntity
  8
0
 62
    18
420
        0
370
    25
100
AcDbLine
 10
18.7756933965349
 20
260.0607216291835
 30
0.0
 11
18.71658242593521
 21
260.2422164727832
 31
0.0
  0
LINE
  5
175
330
70
100
AcDbEntity
  8
0
 62
    18
420
        0
370
    25
100
AcDbLine
 10
18.85351142243503
 20
260.8878291500834
 30
0.0
 11
19.0413777733349
 21
260.3069310385836
 31
0.0
  0
LINE
  5
176
330
70
100
AcDbEntity
  8
0
 62
    18
420
        0
370
    25
100
AcDbLine
 10
19.0622472690349
 20
260.3190470932836
 30
0.0
 11
18.87484994343488
 21
260.8984984105836
 31
0.0
  0
LINE
  5
177
330
70
100
AcDbEntity
  8
0
 62
    18
420
        0
370
    25
100
AcDbLine
 10
16.55047496733521
 20
260.8852560375833
 30
0.0
 11
16.43411728293524
 21
261.2718300031833
 31
0.0
  0
LINE
  5
178
330
70
100
AcDbEntity
  8
0
 62
    18
420
        0
370
    25
100
AcDbLine
 10
16.35476253253498
 20
261.4564447592837
 30
0.0
 11
16.47091082573526
 21
261.0672077518835
 31
0.0
  0
LINE
  5
179
330
70
100
AcDbEntity
  8
0
 62
    18
420
        0
370
    25
100
AcDbLine
 10
16.43411728293524
 20
261.2718300031833
 30
0.0
 11
16.31814940753511
 21
261.6637083460832
 31
0.0
  0
LINE
  5
17A
330
70
100
AcDbEntity
  8
0
 62
    18
420
        0
370
    25
100
AcDbLine
 10
16.23899526043495
 20
261.8509664761834
 30
0.0
 11
16.35476253253498
 21
261.4564447592837
 31
0.0
  0
LWPOLYLINE
  5
17B
330
70
100
AcDbEntity
  8
0
 62
    18
420
        0
370
    25
100
AcDbPolyline
 90
        3
 70
     0
 43
0.0
 10
16.31814940753511
 20
261.6637083460832
 10
16.20256026933531
 20
262.0608606901833
 10
16.14490841873484
 20
262.2614165112832
  0
LINE
  5
17C
330
70
100
AcDbEntity
  8
0
 62
    18
420
        0
370
    25
100
AcDbLine
 10
16.12360622183487
 20
262.2507654128833
 30
0.0
 11
16.23899526043495
 21
261.8509664761834
 31
0.0
  0
LINE
  5
17D
330
70
100
AcDbEntity
  8
0
 62
    18
420
        0
370
    25
100
AcDbLine
 10
17.31095900903483
 20
259.5365099804833
 30
0.0
 11
17.27367226053506
 21
259.8801740389833
 31
0.0
  0
LINE
  5
17E
330
70
100
AcDbEntity
  8
0
 62
    18
420
        0
370
    25
100
AcDbLine
 10
16.08365701223478
 20
260.4704897754835
 30
0.0
 11
16.12058429463486
 21
260.1268284436835
 31
0.0
  0
LINE
  5
17F
330
70
100
AcDbEntity
  8
0
 62
    18
420
        0
370
    25
100
AcDbLine
 10
16.14197146153496
 20
260.1375186029835
 30
0.0
 11
16.10502785653481
 21
260.4811676775837
 31
0.0
  0
LINE
  5
180
330
70
100
AcDbEntity
  8
0
 62
    18
420
        0
370
    25
100
AcDbLine
 10
17.73287790463505
 20
259.4487006381836
 30
0.0
 11
17.67523562683476
 21
259.9925833580831
 31
0.0
  0
LINE
  5
181
330
70
100
AcDbEntity
  8
0
 62
    18
420
        0
370
    25
100
AcDbLine
 10
17.65406944623492
 20
259.9799779973833
 30
0.0
 11
17.7115813032352
 21
259.4371509440834
 31
0.0
  0
LINE
  5
182
330
70
100
AcDbEntity
  8
0
 62
    18
420
        0
370
    25
100
AcDbLine
 10
15.69971663123523
 20
260.4156627243835
 30
0.0
 11
15.64581421803524
 21
260.9335413182835
 31
0.0
  0
LINE
  5
183
330
70
100
AcDbEntity
  8
0
 62
    18
420
        0
370
    25
100
AcDbLine
 10
17.27367226053506
 20
259.8801740389833
 30
0.0
 11
17.23775994133518
 21
260.2291329068835
 31
0.0
  0
LINE
  5
184
330
70
100
AcDbEntity
  8
0
 62
    18
420
        0
370
    25
100
AcDbLine
 10
15.23446973563529
 20
261.1378984121832
 30
0.0
 11
15.28816005383476
 21
260.6199698801832
 31
0.0
  0
LINE
  5
185
330
70
100
AcDbEntity
  8
0
 62
    18
420
        0
370
    25
100
AcDbLine
 10
16.04812322423507
 20
260.8196022134837
 30
0.0
 11
16.08365701223478
 21
260.4704897754835
 31
0.0
  0
LINE
  5
186
330
70
100
AcDbEntity
  8
0
 62
    18
420
        0
370
    25
100
AcDbLine
 10
16.10502785653481
 20
260.4811676775837
 30
0.0
 11
16.06947844103497
 21
260.8302720398835
 31
0.0
  0
LINE
  5
187
330
70
100
AcDbEntity
  8
0
 62
    18
420
        0
370
    25
100
AcDbLine
 10
15.28227002873487
 20
260.8880898380838
 30
0.0
 11
15.23019795823526
 21
261.4121971918837
 31
0.0
  0
LINE
  5
188
330
70
100
AcDbEntity
  8
0
 62
    18
420
        0
370
    25
100
AcDbLine
 10
17.23775994133518
 20
260.2291329068835
 30
0.0
 11
17.20315180913514
 21
260.5833286041835
 31
0.0
  0
LINE
  5
189
330
70
100
AcDbEntity
  8
0
 62
    18
420
        0
370
    25
100
AcDbLine
 10
17.60182678623487
 20
260.5144231738833
 30
0.0
 11
17.65406944623492
 21
259.9799779973833
 31
0.0
  0
LINE
  5
18A
330
70
100
AcDbEntity
  8
0
 62
    18
420
        0
370
    25
100
AcDbLine
 10
17.67523562683476
 20
259.9925833580831
 30
0.0
 11
17.62296809793539
 21
260.5272225505832
 31
0.0
  0
LINE
  5
18B
330
70
100
AcDbEntity
  8
0
 62
    18
420
        0
370
    25
100
AcDbLine
 10
16.06947844103497
 20
260.8302720398835
 30
0.0
 11
16.03536231243474
 21
261.1848244378837
 31
0.0
  0
LINE
  5
18C
330
70
100
AcDbEntity
  8
0
 62
    18
420
        0
370
    25
100
AcDbLine
 10
16.01402196123478
 20
261.1741594556834
 30
0.0
 11
16.04812322423507
 21
260.8196022134837
 31
0.0
  0
LINE
  5
18D
330
70
100
AcDbEntity
  8
0
 62
    18
420
        0
370
    25
100
AcDbLine
 10
15.64581421803524
 20
260.9335413182835
 30
0.0
 11
15.59507730543504
 21
261.4636917828832
 31
0.0
  0
LINE
  5
18E
330
70
100
AcDbEntity
  8
0
 62
    18
420
        0
370
    25
100
AcDbLine
 10
15.18406420253508
 20
261.6681906818834
 30
0.0
 11
15.23446973563529
 21
261.1378984121832
 31
0.0
  0
LINE
  5
18F
330
70
100
AcDbEntity
  8
0
 62
    18
420
        0
370
    25
100
AcDbLine
 10
14.82314942033537
 20
261.3421279283837
 30
0.0
 11
14.77302260713511
 21
261.8725272494832
 31
0.0
  0
LINE
  5
190
330
70
100
AcDbEntity
  8
0
 62
    18
420
        0
370
    25
100
AcDbLine
 10
17.20315180913514
 20
260.5833286041835
 30
0.0
 11
17.16983030353529
 21
260.9427466356834
 31
0.0
  0
LINE
  5
191
330
70
100
AcDbEntity
  8
0
 62
    18
420
        0
370
    25
100
AcDbLine
 10
15.98136298093519
 20
261.5341599265832
 30
0.0
 11
16.01402196123478
 21
261.1741594556834
 31
0.0
  0
LINE
  5
192
330
70
100
AcDbEntity
  8
0
 62
    18
420
        0
370
    25
100
AcDbLine
 10
16.03536231243474
 20
261.1848244378837
 30
0.0
 11
16.01318646543483
 21
261.4274317492832
 31
0.0
  0
LINE
  5
193
330
70
100
AcDbEntity
  8
0
 62
    18
420
        0
370
    25
100
AcDbLine
 10
17.55394106113495
 20
261.0404794014836
 30
0.0
 11
17.60182678623487
 21
260.5144231738833
 31
0.0
  0
LINE
  5
194
330
70
100
AcDbEntity
  8
0
 62
    18
420
        0
370
    25
100
AcDbLine
 10
17.62296809793539
 20
260.5272225505832
 30
0.0
 11
17.57513390163538
 21
261.0526278459836
 31
0.0
  0
LINE
  5
195
330
70
100
AcDbEntity
  8
0
 62
    18
420
        0
370
    25
100
AcDbLine
 10
15.23019795823526
 20
261.4121971918837
 30
0.0
 11
15.18141515113509
 21
261.9486397643832
 31
0.0
  0
LINE
  5
196
330
70
100
AcDbEntity
  8
0
 62
    18
420
        0
370
    25
100
AcDbLine
 10
15.59507730543504
 20
261.4636917828832
 30
0.0
 11
15.54758649903489
 21
262.0060686847832
 31
0.0
  0
LINE
  5
197
330
70
100
AcDbEntity
  8
0
 62
    18
420
        0
370
    25
100
AcDbLine
 10
15.13694538983491
 20
262.2107827138837
 30
0.0
 11
15.18406420253508
 21
261.6681906818834
 31
0.0
  0
LINE
  5
198
330
70
100
AcDbEntity
  8
0
 62
    18
420
        0
370
    25
100
AcDbLine
 10
14.77302260713511
 20
261.8725272494832
 30
0.0
 11
14.72626584583482
 21
262.4153819738834
 31
0.0
  0
LINE
  5
199
330
70
100
AcDbEntity
  8
0
 62
    18
420
        0
370
    25
100
AcDbLine
 10
17.51018420533537
 20
261.5581449124835
 30
0.0
 11
17.55394106113495
 21
261.0404794014836
 31
0.0
  0
LINE
  5
19A
330
70
100
AcDbEntity
  8
0
 62
    18
420
        0
370
    25
100
AcDbLine
 10
17.57513390163538
 20
261.0526278459836
 30
0.0
 11
17.53149768393524
 21
261.5688016516837
 31
0.0
  0
LWPOLYLINE
  5
19B
330
70
100
AcDbEntity
  8
0
 62
    18
420
        0
370
    25
100
AcDbPolyline
 90
        3
 70
     0
 43
0.0
 10
15.18141515113509
 20
261.9486397643832
 10
15.13592265283523
 20
262.4973483514832
 10
15.11441020423514
 20
262.7763067257832
  0
LINE
  5
19C
330
70
100
AcDbEntity
  8
0
 62
    18
420
        0
370
    25
100
AcDbLine
 10
15.54758649903489
 20
262.0060686847832
 30
0.0
 11
15.50336195023485
 21
262.5606606656832
 31
0.0
  0
LINE
  5
19D
330
70
100
AcDbEntity
  8
0
 62
    18
420
        0
370
    25
100
AcDbLine
 10
15.09311378143489
 20
262.7656585144834
 30
0.0
 11
15.13694538983491
 21
262.2107827138837
 31
0.0
  0
LINE
  5
19E
330
70
100
AcDbEntity
  8
0
 62
    18
420
        0
370
    25
100
AcDbLine
 10
14.72626584583482
 20
262.4153819738834
 30
0.0
 11
14.68286867893539
 21
262.9706734525832
 31
0.0
  0
LWPOLYLINE
  5
19F
330
70
100
AcDbEntity
  8
0
 62
   250
420
  3355443
370
    25
100
AcDbPolyline
 90
       33
 70
     0
 43
0.0
 10
19.13454670263497
 20
303.6734075385834
 10
19.11260674303535
 20
303.6285349926834
 10
19.09205721293517
 20
303.5827070530833
 10
19.07297578793496
 20
303.5360853984834
 10
19.0554436705351
 20
303.4887846634835
 10
19.03953603453508
 20
303.4410156017834
 10
19.02531193123534
 20
303.3930848239834
 10
19.01282231533525
 20
303.3451908397834
 10
19.00208468373515
 20
303.2974334713835
 10
18.9930889993348
 20
303.2499618761836
 10
18.98583306243482
 20
303.2029250735835
 10
18.98038144273499
 20
303.1564514822836
 10
18.97681275083495
 20
303.1106539147834
 10
18.97517042433476
 20
303.0655852853835
 10
18.97538813343503
 20
303.0214354724834
 10
18.97734724703478
 20
302.9784976362834
 10
18.98097451743525
 20
302.9368316243834
 10
18.9863192021349
 20
302.8965728192835
 10
18.99337158473479
 20
302.8580737108834
 10
19.00202554043496
 20
302.8215464184834
 10
19.01217095443488
 20
302.7868401736834
 10
19.02377037223496
 20
302.7537489241833
 10
19.0367100933353
 20
302.7224434850836
 10
19.05099668173506
 20
302.6928418658834
 10
19.06688554663478
 20
302.6644593256835
 10
19.08450401013526
 20
302.6372484755834
 10
19.10376200403504
 20
302.6115211955834
 10
19.12465623403479
 20
302.5874178046835
 10
19.14726810583527
 20
302.5649970979835
 10
19.17152110873534
 20
302.5444820094833
 10
19.19711322913488
 20
302.5261757723835
 10
19.22388180413496
 20
302.5101727407835
 10
19.2319436966348
 20
302.5059191674836
  0
LWPOLYLINE
  5
1A0
330
70
100
AcDbEntity
  8
0
 62
   250
420
  3355443
370
    25
100
AcDbPolyline
 90
       16
 70
     0
 43
0.0
 10
39.43205409623491
 20
307.4154462461836
 10
39.50623289943478
 20
307.4070406750835
 10
39.58458255613485
 20
307.4018284764836
 10
39.66666393423527
 20
307.3998232573834
 10
39.75209531313507
 20
307.4010372110836
 10
39.84025961523512
 20
307.4054710004835
 10
39.93018428243509
 20
307.4130742086834
 10
40.02095289073531
 20
307.4237695044836
 10
40.11185986243525
 20
307.4374948249835
 10
40.20221402143519
 20
307.4541488900834
 10
40.29128872803535
 20
307.4735708764834
 10
40.37818686933507
 20
307.4955548724836
 10
40.46199286943497
 20
307.5198726930834
 10
40.54210443813519
 20
307.5463502719836
 10
40.61811369273477
 20
307.5748621272833
 10
40.68957292593506
 20
307.6052702591834
  0
LWPOLYLINE
  5
1A1
330
70
100
AcDbEntity
  8
0
 62
   250
420
  3355443
370
    25
100
AcDbPolyline
 90
       10
 70
     0
 43
0.0
 10
22.12262622073498
 20
300.9430765110833
 10
21.9623460216348
 20
301.0150844399835
 10
21.79494876673533
 20
301.0792711688835
 10
21.62080913963495
 20
301.1354625756834
 10
21.43942728713498
 20
301.1828731217835
 10
21.25209445963523
 20
301.2218312691833
 10
21.06264087473508
 20
301.2542594107836
 10
20.87357509343479
 20
301.2811839690833
 10
20.68485610433484
 20
301.3020864054833
 10
20.4964622218348
 20
301.3168027418833
  0
LINE
  5
1A2
330
70
100
AcDbEntity
  8
0
 62
   250
420
  3355443
370
    25
100
AcDbLine
 10
-4.610606231164855
 20
315.5432168893836
 30
0.0
 11
-3.260133453665053
 21
314.8825819220836
 31
0.0
  0
LINE
  5
1A3
330
70
100
AcDbEntity
  8
0
 62
   250
420
  3355443
370
    25
100
AcDbLine
 10
17.45764231953508
 20
304.5095620758834
 30
0.0
 11
17.55283160133485
 21
304.4629727909833
 31
0.0
  0
LINE
  5
1A4
330
70
100
AcDbEntity
  8
0
 62
   250
420
  3355443
370
    25
100
AcDbLine
 10
19.04684666063483
 20
303.7165188133836
 30
0.0
 11
19.13645763673482
 21
303.6726469434835
 31
0.0
  0
LINE
  5
1A5
330
70
100
AcDbEntity
  8
0
 62
   250
420
  3355443
370
    25
100
AcDbLine
 10
15.57490109363514
 20
305.4702191582833
 30
0.0
 11
15.74865073333501
 21
305.3847783246836
 31
0.0
  0
LINE
  5
1A6
330
70
100
AcDbEntity
  8
0
 62
   250
420
  3355443
370
    25
100
AcDbLine
 10
18.02679510273505
 20
304.2255733519833
 30
0.0
 11
18.16776048183487
 21
304.1557945792833
 31
0.0
  0
LWPOLYLINE
  5
1A7
330
70
100
AcDbEntity
  8
0
 62
   250
420
  3355443
370
    25
100
AcDbPolyline
 90
        3
 70
     0
 43
0.0
 10
-3.260133453665053
 20
314.8825819220836
 10
-1.990008229764871
 20
314.2530835927833
 10
15.57490109363514
 20
305.4702191582833
  0
LINE
  5
1A8
330
70
100
AcDbEntity
  8
0
 62
   250
420
  3355443
370
    25
100
AcDbLine
 10
17.55283160133485
 20
304.4629727909833
 30
0.0
 11
17.64785073923512
 21
304.4158455407833
 31
0.0
  0
LINE
  5
1A9
330
70
100
AcDbEntity
  8
0
 62
    18
420
        0
370
    25
100
AcDbLine
 10
-28.25434829516488
 20
326.2555429730834
 30
0.0
 11
19.23455267563477
 21
302.5110913535836
 31
0.0
  0
LINE
  5
1AA
330
70
100
AcDbEntity
  8
0
 62
   250
420
  3355443
370
    25
100
AcDbLine
 10
16.0878318730351
 20
305.1945624487834
 30
0.0
 11
17.4576789849348
 21
304.5096354551834
 31
0.0
  0
LINE
  5
1AB
330
70
100
AcDbEntity
  8
0
 62
   250
420
  3355443
370
    25
100
AcDbLine
 10
-24.77985959296484
 20
325.6476003458834
 30
0.0
 11
-7.184755074265101
 21
316.8504567221833
 31
0.0
  0
LINE
  5
1AC
330
70
100
AcDbEntity
  8
0
 62
   250
420
  3355443
370
    25
100
AcDbLine
 10
-25.30315362156495
 20
325.8897646384836
 30
0.0
 11
-28.35207994336494
 21
327.4157179398834
 31
0.0
  0
LWPOLYLINE
  5
1AD
330
70
100
AcDbEntity
  8
0
 62
   250
420
  3355443
370
    25
100
AcDbPolyline
 90
        3
 70
     0
 43
0.0
 10
18.16776048183487
 20
304.1557945792833
 10
18.95313034343524
 20
303.7630209555836
 10
19.04684666063483
 20
303.7165188133836
  0
LINE
  5
1AE
330
70
100
AcDbEntity
  8
0
 62
   250
420
  3355443
370
    25
100
AcDbLine
 10
17.64785073923512
 20
304.4158455407833
 30
0.0
 11
17.88485426983526
 21
304.2972479700833
 31
0.0
  0
LINE
  5
1AF
330
70
100
AcDbEntity
  8
0
 62
    18
420
        0
370
    25
100
AcDbLine
 10
19.2319436966348
 20
302.5059191674836
 30
0.0
 11
19.23526934783494
 21
302.5042363214834
 31
0.0
  0
LINE
  5
1B0
330
70
100
AcDbEntity
  8
0
 62
   250
420
  3355443
370
    25
100
AcDbLine
 10
-7.184755074265101
 20
316.8504567221833
 30
0.0
 11
-5.929502465964815
 21
316.2172659146834
 31
0.0
  0
LINE
  5
1B1
330
70
100
AcDbEntity
  8
0
 62
   250
420
  3355443
370
    25
100
AcDbLine
 10
17.88485426983526
 20
304.2972479700833
 30
0.0
 11
18.02679510273505
 21
304.2255733519833
 31
0.0
  0
LINE
  5
1B2
330
70
100
AcDbEntity
  8
0
 62
   250
420
  3355443
370
    25
100
AcDbLine
 10
-5.929502465964815
 20
316.2172659146834
 30
0.0
 11
-4.610606275764863
 21
315.5432169116836
 31
0.0
  0
LWPOLYLINE
  5
1B3
330
70
100
AcDbEntity
  8
0
 62
   250
420
  3355443
370
    25
100
AcDbPolyline
 90
        5
 70
     0
 43
0.0
 10
15.74865073333501
 20
305.3847783246836
 10
15.83676336623524
 20
305.3393564688835
 10
15.9256108785352
 20
305.2907931772834
 10
16.00975333583478
 20
305.2425046313836
 10
16.08536586783517
 20
305.1964044710836
  0
LWPOLYLINE
  5
1B4
330
70
100
AcDbEntity
  8
0
 62
    18
420
        0
370
    25
100
AcDbPolyline
 90
       23
 70
     0
 43
0.0
 10
19.23624133723525
 20
302.5037391739834
 10
19.24338325783535
 20
302.4996972759833
 10
19.25515063133478
 20
302.4920919808835
 10
19.2708364808352
 20
302.4806422428836
 10
19.28984296823505
 20
302.4651254356834
 10
19.31161911683476
 20
302.4453836017833
 10
19.33577820013531
 20
302.4211617806833
 10
19.36193079593505
 20
302.3922176825835
 10
19.38930590783505
 20
302.3587866775835
 10
19.41703216683492
 20
302.3213956073836
 10
19.44455313713513
 20
302.2803290261833
 10
19.47120280353533
 20
302.2361464077834
 10
19.49607757013482
 20
302.1900851497834
 10
19.51875127773535
 20
302.1429502266834
 10
19.53896220553478
 20
302.0954003350835
 10
19.55632899183505
 20
302.0486053235835
 10
19.57071399013492
 20
302.0034539522835
 10
19.58216558013477
 20
301.9605143226836
 10
19.59078256983515
 20
301.9204679016834
 10
19.59676614183513
 20
301.8838699310833
 10
19.60037213583509
 20
301.8513477992834
 10
19.60194878173512
 20
301.8236452687836
 10
19.60212419183532
 20
301.8116057173834
  0
LINE
  5
1B5
330
70
100
AcDbEntity
  8
0
 62
    18
420
        0
370
    25
100
AcDbLine
 10
17.33011340413479
 20
259.3666598809832
 30
0.0
 11
17.31095900903483
 21
259.5365099804833
 31
0.0
  0
LINE
  5
1B6
330
70
100
AcDbEntity
  8
0
 62
    18
420
        0
370
    25
100
AcDbLine
 10
16.12058429463486
 20
260.1268284436835
 30
0.0
 11
16.13957293563492
 21
259.9570415486837
 31
0.0
  0
LINE
  5
1B7
330
70
100
AcDbEntity
  8
0
 62
    18
420
        0
370
    25
100
AcDbLine
 10
16.16096852873517
 20
259.9677393452836
 30
0.0
 11
16.14197146153496
 21
260.1375186029835
 31
0.0
  0
LINE
  5
1B8
330
70
100
AcDbEntity
  8
0
 62
    18
420
        0
370
    25
100
AcDbLine
 10
17.7115813032352
 20
259.4371509440834
 30
0.0
 11
17.74225616423511
 21
259.1625937715834
 31
0.0
  0
LINE
  5
1B9
330
70
100
AcDbEntity
  8
0
 62
    18
420
        0
370
    25
100
AcDbLine
 10
17.76365573593485
 20
259.1732935574836
 30
0.0
 11
17.73287790463505
 21
259.4487006381836
 31
0.0
  0
LINE
  5
1BA
330
70
100
AcDbEntity
  8
0
 62
    18
420
        0
370
    25
100
AcDbLine
 10
15.72785993833499
 20
260.1613225394837
 30
0.0
 11
15.69971663123523
 21
260.4156627243835
 31
0.0
  0
LINE
  5
1BB
330
70
100
AcDbEntity
  8
0
 62
    18
420
        0
370
    25
100
AcDbLine
 10
15.28816005383476
 20
260.6199698801832
 30
0.0
 11
15.31623712813502
 21
260.3656380172832
 31
0.0
  0
LWPOLYLINE
  5
1BC
330
70
100
AcDbEntity
  8
0
 62
    18
420
        0
370
    25
100
AcDbPolyline
 90
        3
 70
     0
 43
0.0
 10
15.33763110123523
 20
260.3763350037837
 10
15.30953942883497
 20
260.6306690767837
 10
15.28227002873487
 20
260.8880898380838
  0
LWPOLYLINE
  5
1BD
330
70
100
AcDbEntity
  8
0
 62
    18
420
        0
370
    25
100
AcDbPolyline
 90
        4
 70
     0
 43
0.0
 10
14.90473430573474
 20
260.5700180332835
 10
14.87668811623535
 20
260.8242586065837
 10
14.84949315443535
 20
261.0816285715833
 10
14.82314942033537
 20
261.3421279283837
  0
LINE
  5
1BE
330
70
100
AcDbEntity
  8
0
 62
    18
420
        0
370
    25
100
AcDbLine
 10
20.00049374393515
 20
258.3225926814835
 30
0.0
 11
19.95925473553481
 21
258.7066832665834
 31
0.0
  0
LINE
  5
1BF
330
70
100
AcDbEntity
  8
0
 62
    18
420
        0
370
    25
100
AcDbLine
 10
20.43467128883496
 20
258.1526679323832
 30
0.0
 11
20.3910969331348
 21
258.5615707162836
 31
0.0
  0
LINE
  5
1C0
330
70
100
AcDbEntity
  8
0
 62
    18
420
        0
370
    25
100
AcDbLine
 10
20.36973132373532
 20
258.5508358459831
 30
0.0
 11
20.41329319263506
 21
258.1419100688832
 31
0.0
  0
LINE
  5
1C1
330
70
100
AcDbEntity
  8
0
 62
    18
420
        0
370
    25
100
AcDbLine
 10
20.3910969331348
 20
258.5615707162836
 30
0.0
 11
20.37251676853502
 21
258.7415116425833
 31
0.0
  0
LINE
  5
1C2
330
70
100
AcDbEntity
  8
0
 62
    18
420
        0
370
    25
100
AcDbLine
 10
20.34887322983498
 20
258.7530202957832
 30
0.0
 11
20.36973132373532
 21
258.5508358459831
 31
0.0
  0
LINE
  5
1C3
330
70
100
AcDbEntity
  8
0
 62
    18
420
        0
370
    25
100
AcDbLine
 10
19.95925473553481
 20
258.7066832665834
 30
0.0
 11
19.910144167335
 21
259.1876622863834
 31
0.0
  0
LINE
  5
1C4
330
70
100
AcDbEntity
  8
0
 62
    18
420
        0
370
    25
100
AcDbLine
 10
20.23963037673519
 20
259.7799270108833
 30
0.0
 11
20.29808487063522
 21
259.1979684927835
 31
0.0
  0
LINE
  5
1C5
330
70
100
AcDbEntity
  8
0
 62
    18
420
        0
370
    25
100
AcDbLine
 10
19.910144167335
 20
259.1876622863834
 30
0.0
 11
19.78738972613481
 21
260.4229302577835
 31
0.0
  0
LINE
  5
1C6
330
70
100
AcDbEntity
  8
0
 62
    18
420
        0
370
    25
100
AcDbLine
 10
20.31944663623499
 20
259.2086493755834
 30
0.0
 11
20.26320920223486
 21
259.7684316564834
 31
0.0
  0
LINE
  5
1C7
330
70
100
AcDbEntity
  8
0
 62
    18
420
        0
370
    25
100
AcDbLine
 10
19.60717462103518
 20
301.8060486274833
 30
0.0
 11
19.60723437103485
 21
301.8115855407834
 31
0.0
  0
LWPOLYLINE
  5
1C8
330
70
100
AcDbEntity
  8
0
 62
   250
420
  3355443
370
    25
100
AcDbPolyline
 90
       10
 70
     0
 43
0.0
 10
19.60212780993535
 20
305.2428731824834
 10
19.58067068933488
 20
305.0708889990835
 10
19.55095475833525
 20
304.8964434687833
 10
19.51316951513482
 20
304.7201789460836
 10
19.46717306533487
 20
304.5424327730835
 10
19.41347803393488
 20
304.3641545157833
 10
19.35326674553511
 20
304.1870631848833
 10
19.28706068883533
 20
304.0123570484835
 10
19.21470658983482
 20
303.8405665741835
 10
19.13638455193521
 20
303.6724981301834
  0
LINE
  5
1C9
330
70
100
AcDbEntity
  8
0
 62
    18
420
        0
370
    25
100
AcDbLine
 10
-0.7994261545648341
 20
276.6547475549832
 30
0.0
 11
-1.937274548564859
 21
276.1424859070833
 31
0.0
  0
LWPOLYLINE
  5
1CA
330
70
100
AcDbEntity
  8
0
 62
   250
420
  3355443
370
    25
100
AcDbPolyline
 90
        6
 70
     0
 43
0.0
 10
-25.30558120546484
 20
325.8918789961835
 10
-25.22329085716487
 20
325.8590276871836
 10
-25.13412607776484
 20
325.8206625884836
 10
-25.041907957465
 20
325.7786930404835
 10
-24.95263125606508
 20
325.7354202078835
 10
-24.77985959296484
 20
325.6476003458834
  0
LWPOLYLINE
  5
1CB
330
70
100
AcDbEntity
  8
0
 62
   250
420
  3355443
370
    25
100
AcDbPolyline
 90
       19
 70
     0
 43
0.0
 10
-28.35541087376501
 20
327.4183874649835
 10
-28.46161233316487
 20
327.4665784784833
 10
-28.56670900446487
 20
327.5042192970833
 10
-28.6703470736649
 20
327.5312135671834
 10
-28.7721280017651
 20
327.5474897176833
 10
-28.871466785665
 20
327.5529662732836
 10
-28.96768918336503
 20
327.5475981659834
 10
-29.06019356896501
 20
327.5314508308834
 10
-29.14845690586484
 20
327.5046390545835
 10
-29.23194570936494
 20
327.4673476939836
 10
-29.31015787946489
 20
327.4198288717834
 10
-29.38261934066485
 20
327.3623066731835
 10
-29.4489622561649
 20
327.2951335562833
 10
-29.50885024866491
 20
327.2187434951834
 10
-29.56193251886493
 20
327.1336470709834
 10
-29.60786339906486
 20
327.0403763600835
 10
-29.6463240823648
 20
326.9394320711835
 10
-29.67710288916489
 20
326.8313299542834
 10
-29.70003800586482
 20
326.7166311145835
  0
LINE
  5
1CC
330
70
100
AcDbEntity
  8
0
 62
   250
420
  3355443
370
    25
100
AcDbLine
 10
-27.12651876986504
 20
328.6269698917836
 30
0.0
 11
-26.7941451788649
 21
328.4725306411833
 31
0.0
  0
LWPOLYLINE
  5
1CD
330
70
100
AcDbEntity
  8
0
 62
   250
420
  3355443
370
    25
100
AcDbPolyline
 90
       19
 70
     0
 43
0.0
 10
19.54919737893519
 20
305.2677515084835
 10
19.76148019243498
 20
305.1675947800834
 10
19.91942761703522
 20
305.0809531884836
 10
20.07457629633529
 20
304.9836427991833
 10
20.22722256383486
 20
304.8749244448834
 10
20.37743159373537
 20
304.7549265306835
 10
20.52418248923491
 20
304.6253437015836
 10
20.66663292383526
 20
304.4870008505836
 10
20.80425827303506
 20
304.3401955505833
 10
20.937263753235
 20
304.1854165571836
 10
21.06575071773488
 20
304.0224506025834
 10
21.18939851613486
 20
303.8513266153836
 10
21.30736488113536
 20
303.6734806780833
 10
21.41892971073509
 20
303.4895220110836
 10
21.52364921403501
 20
303.2997193723835
 10
21.62194763263515
 20
303.1039249807833
 10
21.7133543430348
 20
302.9023458992834
 10
21.79693904433535
 20
302.6962571900833
 10
21.87192141333492
 20
302.4861970933836
  0
LINE
  5
1CE
330
70
100
AcDbEntity
  8
0
 62
   250
420
  3355443
370
    25
100
AcDbLine
 10
-26.7941451788649
 20
328.4725306411833
 30
0.0
 11
-26.52160187406487
 21
328.3437015390833
 31
0.0
  0
LINE
  5
1CF
330
70
100
AcDbEntity
  8
0
 62
   250
420
  3355443
370
    25
100
AcDbLine
 10
-26.52160187406487
 20
328.3437015390833
 30
0.0
 11
-25.4508611155649
 21
327.8273170398833
 31
0.0
  0
LINE
  5
1D0
330
70
100
AcDbEntity
  8
0
 62
   250
420
  3355443
370
    25
100
AcDbLine
 10
-25.4508611155649
 20
327.8273170398833
 30
0.0
 11
-24.83801829246492
 21
327.5280412465835
 31
0.0
  0
LINE
  5
1D1
330
70
100
AcDbEntity
  8
0
 62
   250
420
  3355443
370
    25
100
AcDbLine
 10
-24.83801829246492
 20
327.5280412465835
 30
0.0
 11
-20.90893587826494
 21
325.5861398599833
 31
0.0
  0
LINE
  5
1D2
330
70
100
AcDbEntity
  8
0
 62
   250
420
  3355443
370
    25
100
AcDbLine
 10
-20.90893587826494
 20
325.5861398599833
 30
0.0
 11
-17.94982029226502
 21
324.1188707155834
 31
0.0
  0
LINE
  5
1D3
330
70
100
AcDbEntity
  8
0
 62
   250
420
  3355443
370
    25
100
AcDbLine
 10
-17.94999004256493
 20
324.1194839340835
 30
0.0
 11
-10.64054439166508
 21
320.4747870223835
 31
0.0
  0
LINE
  5
1D4
330
70
100
AcDbEntity
  8
0
 62
   250
420
  3355443
370
    25
100
AcDbLine
 10
-10.64054439166508
 20
320.4747870223835
 30
0.0
 11
4.945751738435178
 21
312.6799333306835
 31
0.0
  0
LINE
  5
1D5
330
70
100
AcDbEntity
  8
0
 62
   250
420
  3355443
370
    25
100
AcDbLine
 10
4.945751738435178
 20
312.6799333306835
 30
0.0
 11
9.667290937734842
 21
310.3108427843833
 31
0.0
  0
LINE
  5
1D6
330
70
100
AcDbEntity
  8
0
 62
   250
420
  3355443
370
    25
100
AcDbLine
 10
9.667062990434841
 20
310.3104284181833
 30
0.0
 11
13.59484989353528
 21
308.3296097515833
 31
0.0
  0
LINE
  5
1D7
330
70
100
AcDbEntity
  8
0
 62
   250
420
  3355443
370
    25
100
AcDbLine
 10
13.59484989353528
 20
308.3296097515833
 30
0.0
 11
16.70657673863481
 21
306.7541735245835
 31
0.0
  0
LINE
  5
1D8
330
70
100
AcDbEntity
  8
0
 62
   250
420
  3355443
370
    25
100
AcDbLine
 10
16.70657673863481
 20
306.7541735245835
 30
0.0
 11
17.4687323893348
 21
306.3629837900835
 31
0.0
  0
LINE
  5
1D9
330
70
100
AcDbEntity
  8
0
 62
   250
420
  3355443
370
    25
100
AcDbLine
 10
17.4687323893348
 20
306.3629837900835
 30
0.0
 11
18.23001575273485
 21
305.9679917070833
 31
0.0
  0
LWPOLYLINE
  5
1DA
330
70
100
AcDbEntity
  8
0
 62
   250
420
  3355443
370
    25
100
AcDbPolyline
 90
        4
 70
     0
 43
0.0
 10
19.27330429953501
 20
305.4092038580835
 10
19.38942294183505
 20
305.3481635481836
 10
19.47831370413498
 20
305.3029022893835
 10
19.54919737893519
 20
305.2677515084835
  0
LINE
  5
1DB
330
70
100
AcDbEntity
  8
0
 62
   250
420
  3355443
370
    25
100
AcDbLine
 10
18.23001575273485
 20
305.9679917070833
 30
0.0
 11
18.49967135393483
 21
305.8257996636833
 31
0.0
  0
LWPOLYLINE
  5
1DC
330
70
100
AcDbEntity
  8
0
 62
   250
420
  3355443
370
    25
100
AcDbPolyline
 90
        6
 70
     0
 43
0.0
 10
-28.05185876866504
 20
329.0742738437836
 10
-27.84424100996478
 20
328.9644130794835
 10
-27.77511556986507
 20
328.9295284395835
 10
-27.6877431026649
 20
328.8866294362835
 10
-27.57312579626509
 20
328.8322245284835
 10
-27.12651876986504
 20
328.6269698917836
  0
LINE
  5
1DD
330
70
100
AcDbEntity
  8
0
 62
   250
420
  3355443
370
    25
100
AcDbLine
 10
18.49967135393483
 20
305.8257996636833
 30
0.0
 11
18.82830641653527
 21
305.6498639824836
 31
0.0
  0
LINE
  5
1DE
330
70
100
AcDbEntity
  8
0
 62
   250
420
  3355443
370
    25
100
AcDbLine
 10
18.82830641653527
 20
305.6498639824836
 30
0.0
 11
19.27330429953501
 21
305.4092038580835
 31
0.0
  0
LWPOLYLINE
  5
1DF
330
70
100
AcDbEntity
  8
0
 62
    18
420
        0
370
    25
100
AcDbPolyline
 90
       17
 70
     0
 43
0.0
 10
21.03021434813502
 20
259.1241502627836
 10
21.02453139383503
 20
259.1617994894837
 10
21.01536457023495
 20
259.1993268191838
 10
21.00309696773476
 20
259.2362642933836
 10
20.98840419843528
 20
259.2718137130833
 10
20.97191103423506
 20
259.3053643384835
 10
20.95401048153478
 20
259.3367577728831
 10
20.93502899793478
 20
259.3660157550835
 10
20.91541488473526
 20
259.3928963230833
 10
20.8954459219351
 20
259.4174007539836
 10
20.87503043023508
 20
259.4399250877833
 10
20.85443661183508
 20
259.4603529187835
 10
20.83382697033482
 20
259.4787152667836
 10
20.812803854535
 20
259.4954645825833
 10
20.79130603733524
 20
259.5106085416834
 10
20.76966754563486
 20
259.5238655213833
 10
20.74803545773475
 20
259.5351338775836
  0
LINE
  5
1E0
330
70
100
AcDbEntity
  8
0
 62
    18
420
        0
370
    25
100
AcDbLine
 10
20.03264836293537
 20
258.0339733218837
 30
0.0
 11
20.00049374393515
 21
258.3225926814835
 31
0.0
  0
LINE
  5
1E1
330
70
100
AcDbEntity
  8
0
 62
    18
420
        0
370
    25
100
AcDbLine
 10
20.41329319263506
 20
258.1419100688832
 30
0.0
 11
20.44791875043496
 21
257.8314660764832
 31
0.0
  0
LINE
  5
1E2
330
70
100
AcDbEntity
  8
0
 62
    18
420
        0
370
    25
100
AcDbLine
 10
20.46931764143512
 20
257.8421655219833
 30
0.0
 11
20.43467128883496
 21
258.1526679323832
 31
0.0
  0
LINE
  5
1E3
330
70
100
AcDbEntity
  8
0
 62
   250
420
  3355443
370
    25
100
AcDbLine
 10
22.10271519173498
 20
301.4523899332835
 30
0.0
 11
22.10521753993476
 21
301.4294576384833
 31
0.0
  0
LWPOLYLINE
  5
1E4
330
70
100
AcDbEntity
  8
0
 62
   250
420
  3355443
370
    25
100
AcDbPolyline
 90
       10
 70
     0
 43
0.0
 10
22.10521751483535
 20
301.4294580463835
 10
22.11077228443508
 20
301.3699577003835
 10
22.11535272653475
 20
301.3119522376833
 10
22.11900109383519
 20
301.2553785567833
 10
22.12176044073494
 20
301.2002178067836
 10
22.12365558653515
 20
301.1463935093836
 10
22.12468328613488
 20
301.0937811222836
 10
22.12484519883503
 20
301.0423380959835
 10
22.12415559663504
 20
300.9920999447834
 10
22.1226712867349
 20
300.9430579790833
  0
LWPOLYLINE
  5
1E5
330
70
100
AcDbEntity
  8
0
 62
   250
420
  3355443
370
    25
100
AcDbPolyline
 90
       10
 70
     0
 43
0.0
 10
22.12267127613531
 20
262.4124793426835
 10
22.1241560102351
 20
262.3626782960834
 10
22.12485198083539
 20
262.3123315882836
 10
22.12469614243525
 20
262.2614911804833
 10
22.12366451613535
 20
262.2101150235832
 10
22.12175068463536
 20
262.1582627712836
 10
22.11897163593491
 20
262.1060888522832
 10
22.11531653883505
 20
262.0536301174832
 10
22.11074373133495
 20
262.0008152757836
 10
22.10521750563531
 20
261.9476223487832
  0
LINE
  5
1E6
330
70
100
AcDbEntity
  8
0
 62
   250
420
  3355443
370
    25
100
AcDbLine
 10
22.12888732013479
 20
300.2755158743834
 30
0.0
 11
22.1512011178353
 21
299.5110081708836
 31
0.0
  0
LINE
  5
1E7
330
70
100
AcDbEntity
  8
0
 62
   250
420
  3355443
370
    25
100
AcDbLine
 10
22.1512011178353
 20
299.5110081708836
 30
0.0
 11
22.16208012513531
 21
299.0561828565834
 31
0.0
  0
LINE
  5
1E8
330
70
100
AcDbEntity
  8
0
 62
   250
420
  3355443
370
    25
100
AcDbLine
 10
22.16208012513531
 20
299.0561828565834
 30
0.0
 11
22.17471860873525
 21
298.3666014454835
 31
0.0
  0
LINE
  5
1E9
330
70
100
AcDbEntity
  8
0
 62
   250
420
  3355443
370
    25
100
AcDbLine
 10
22.20309678613526
 20
296.2906406617831
 30
0.0
 11
22.17471860873525
 21
298.3666014454835
 31
0.0
  0
LINE
  5
1EA
330
70
100
AcDbEntity
  8
0
 62
   250
420
  3355443
370
    25
100
AcDbLine
 10
22.24692701313499
 20
290.3156766949834
 30
0.0
 11
22.20632052173526
 21
294.8360621286834
 31
0.0
  0
LINE
  5
1EB
330
70
100
AcDbEntity
  8
0
 62
   250
420
  3355443
370
    25
100
AcDbLine
 10
22.26553747603492
 20
287.3894630577835
 30
0.0
 11
22.24692701313499
 21
290.3156766949834
 31
0.0
  0
LWPOLYLINE
  5
1EC
330
70
100
AcDbEntity
  8
0
 62
   250
420
  3355443
370
    25
100
AcDbPolyline
 90
        3
 70
     0
 43
0.0
 10
22.20853682153495
 20
295.5606987889833
 10
22.20706303893535
 20
295.9249482087833
 10
22.20309678613526
 20
296.2906406617831
  0
LWPOLYLINE
  5
1ED
330
70
100
AcDbEntity
  8
0
 62
   250
420
  3355443
370
    25
100
AcDbPolyline
 90
        5
 70
     0
 43
0.0
 10
22.12172192863512
 20
300.7031407665834
 10
22.1219982030348
 20
300.6203063033833
 10
22.12315820873541
 20
300.5359828005835
 10
22.12478715943495
 20
300.4504104174836
 10
22.12888732013479
 20
300.2755158743834
  0
LINE
  5
1EE
330
70
100
AcDbEntity
  8
0
 62
   250
420
  3355443
370
    25
100
AcDbLine
 10
22.12172201133537
 20
262.6530458925834
 30
0.0
 11
22.12267127613531
 21
262.4124793426835
 31
0.0
  0
LWPOLYLINE
  5
1EF
330
70
100
AcDbEntity
  8
0
 62
   250
420
  3355443
370
    25
100
AcDbPolyline
 90
        3
 70
     0
 43
0.0
 10
22.28252558923482
 20
281.6045606904832
 10
22.2808092095348
 20
283.0446197814832
 10
22.26553747603492
 20
287.3894630577835
  0
LINE
  5
1F0
330
70
100
AcDbEntity
  8
0
 62
    18
420
        0
370
    25
100
AcDbLine
 10
19.60717462103518
 20
301.8060486274833
 30
0.0
 11
19.60717461043495
 21
263.2343750619837
 31
0.0
  0
LINE
  5
1F1
330
70
100
AcDbEntity
  8
0
 62
   250
420
  3355443
370
    25
100
AcDbLine
 10
22.20631771973522
 20
268.4481101641833
 30
0.0
 11
22.20676405263516
 21
267.7436323487835
 31
0.0
  0
LINE
  5
1F2
330
70
100
AcDbEntity
  8
0
 62
   250
420
  3355443
370
    25
100
AcDbLine
 10
22.27735280673495
 20
278.7257842558836
 30
0.0
 11
22.28252558923482
 21
281.6045611918838
 31
0.0
  0
LWPOLYLINE
  5
1F3
330
70
100
AcDbEntity
  8
0
 62
   250
420
  3355443
370
    25
100
AcDbPolyline
 90
       10
 70
     0
 43
0.0
 10
20.49596673663526
 20
262.7057807344832
 10
20.49596676883507
 20
301.3506091770836
 10
20.49545919583521
 20
301.3859536352835
 10
20.49435344243486
 20
301.4211563042834
 10
20.49265843353507
 20
301.4562124580834
 10
20.4904006210348
 20
301.4910992200834
 10
20.48762533763501
 20
301.5257763372836
 10
20.48436045083496
 20
301.5602229861835
 10
20.48061501303485
 20
301.5944369802834
 10
20.47640694813505
 20
301.6284074401834
  0
LINE
  5
1F4
330
70
100
AcDbEntity
  8
0
 62
   250
420
  3355443
370
    25
100
AcDbLine
 10
22.20632052173526
 20
294.8360621286834
 30
0.0
 11
22.20853682153495
 21
295.5606987889833
 31
0.0
  0
LINE
  5
1F5
330
70
100
AcDbEntity
  8
0
 62
   250
420
  3355443
370
    25
100
AcDbLine
 10
22.1226712867349
 20
300.9430579790833
 30
0.0
 11
22.12172192863512
 21
300.7031407665834
 31
0.0
  0
LINE
  5
1F6
330
70
100
AcDbEntity
  8
0
 62
   250
420
  3355443
370
    25
100
AcDbLine
 10
22.25727991003523
 20
274.3918098421836
 30
0.0
 11
22.27735280673495
 21
278.7257842558836
 31
0.0
  0
LWPOLYLINE
  5
1F7
330
70
100
AcDbEntity
  8
0
 62
    18
420
        0
370
    25
100
AcDbPolyline
 90
        4
 70
     0
 43
0.0
 10
19.60212418553512
 20
263.2398621680831
 10
19.60209873543486
 20
263.2354928595834
 10
19.60148414533519
 20
263.2188958835836
 10
19.60042599473534
 20
263.2074711686832
  0
LINE
  5
1F8
330
70
100
AcDbEntity
  8
0
 62
   250
420
  3355443
370
    25
100
AcDbLine
 10
22.20676405263516
 20
267.7436323487835
 30
0.0
 11
22.20242268823496
 21
267.0259487027834
 31
0.0
  0
LWPOLYLINE
  5
1F9
330
70
100
AcDbEntity
  8
0
 62
   250
420
  3355443
370
    25
100
AcDbPolyline
 90
        3
 70
     0
 43
0.0
 10
22.20632051453475
 20
268.4481536713833
 10
22.2209482477354
 20
269.9573117424835
 10
22.25727991003523
 20
274.3918098421836
  0
LWPOLYLINE
  5
1FA
330
70
100
AcDbEntity
  8
0
 62
   250
420
  3355443
370
    25
100
AcDbPolyline
 90
        3
 70
     0
 43
0.0
 10
22.12315851083512
 20
262.8192737738836
 10
22.12199833393498
 20
262.7357937436831
 10
22.12172201133537
 20
262.6530458925834
  0
LINE
  5
1FB
330
70
100
AcDbEntity
  8
0
 62
   250
420
  3355443
370
    25
100
AcDbLine
 10
22.20242268823496
 20
267.0259487027834
 30
0.0
 11
22.17471859593527
 21
264.9455798375835
 31
0.0
  0
LINE
  5
1FC
330
70
100
AcDbEntity
  8
0
 62
   250
420
  3355443
370
    25
100
AcDbLine
 10
22.17471859593527
 20
264.9455798375835
 30
0.0
 11
22.16208011653526
 21
264.2668394742833
 31
0.0
  0
LINE
  5
1FD
330
70
100
AcDbEntity
  8
0
 62
   250
420
  3355443
370
    25
100
AcDbLine
 10
22.16208011653526
 20
264.2668394742833
 30
0.0
 11
22.15120111173531
 21
263.8212105113833
 31
0.0
  0
LWPOLYLINE
  5
1FE
330
70
100
AcDbEntity
  8
0
 62
   250
420
  3355443
370
    25
100
AcDbPolyline
 90
        3
 70
     0
 43
0.0
 10
22.12888752303489
 20
263.0752308759832
 10
22.1266453521348
 20
262.9889034561834
 10
22.12315851083512
 20
262.8192737738836
  0
LINE
  5
1FF
330
70
100
AcDbEntity
  8
0
 62
   250
420
  3355443
370
    25
100
AcDbLine
 10
22.15120111173531
 20
263.8212105113833
 30
0.0
 11
22.12888752303489
 21
263.0752308759832
 31
0.0
  0
LINE
  5
200
330
70
100
AcDbEntity
  8
0
 62
    18
420
        0
370
    25
100
AcDbLine
 10
19.60042599473534
 20
263.2074711686832
 30
0.0
 11
19.60016747323477
 21
263.2055227728833
 31
0.0
  0
LINE
  5
201
330
70
100
AcDbEntity
  8
0
 62
    18
420
        0
370
    25
100
AcDbLine
 10
16.98840669623517
 20
259.8652318538837
 30
0.0
 11
16.94062661333519
 21
259.5596880446835
 31
0.0
  0
LINE
  5
202
330
70
100
AcDbEntity
  8
0
 62
    18
420
        0
370
    25
100
AcDbLine
 10
16.96202465973492
 20
259.5703870678833
 30
0.0
 11
17.00987272803513
 21
259.8764552278835
 31
0.0
  0
LINE
  5
203
330
70
100
AcDbEntity
  8
0
 62
    18
420
        0
370
    25
100
AcDbLine
 10
17.03807562893476
 20
260.1718653591836
 30
0.0
 11
16.98840669623517
 21
259.8652318538837
 31
0.0
  0
LINE
  5
204
330
70
100
AcDbEntity
  8
0
 62
    18
420
        0
370
    25
100
AcDbLine
 10
17.00987272803513
 20
259.8764552278835
 30
0.0
 11
17.05956537423503
 21
260.1833109768834
 31
0.0
  0
LINE
  5
205
330
70
100
AcDbEntity
  8
0
 62
    18
420
        0
370
    25
100
AcDbLine
 10
17.08957479853524
 20
260.4795481385832
 30
0.0
 11
17.03807562893476
 21
260.1718653591836
 31
0.0
  0
LINE
  5
206
330
70
100
AcDbEntity
  8
0
 62
    18
420
        0
370
    25
100
AcDbLine
 10
17.05956537423503
 20
260.1833109768834
 30
0.0
 11
17.111041983435
 21
260.4909127335835
 31
0.0
  0
LINE
  5
207
330
70
100
AcDbEntity
  8
0
 62
    18
420
        0
370
    25
100
AcDbLine
 10
16.64586788843515
 20
260.4933153735836
 30
0.0
 11
16.69876602643489
 21
260.8046853464836
 31
0.0
  0
LINE
  5
208
330
70
100
AcDbEntity
  8
0
 62
    18
420
        0
370
    25
100
AcDbLine
 10
17.111041983435
 20
260.4909127335835
 30
0.0
 11
17.16406009663533
 21
260.7990941731837
 31
0.0
  0
LWPOLYLINE
  5
209
330
70
100
AcDbEntity
  8
0
 62
    18
420
        0
370
    25
100
AcDbPolyline
 90
        3
 70
     0
 43
0.0
 10
17.16983030353529
 20
260.9427466356834
 10
17.14266975343536
 20
260.7881185032833
 10
17.08957479853524
 20
260.4795481385832
  0
LINE
  5
20A
330
70
100
AcDbEntity
  8
0
 62
    18
420
        0
370
    25
100
AcDbLine
 10
17.16406009663533
 20
260.7990941731837
 30
0.0
 11
17.17649459363536
 21
260.8698953487837
 31
0.0
  0
LINE
  5
20B
330
70
100
AcDbEntity
  8
0
 62
    18
420
        0
370
    25
100
AcDbLine
 10
16.69876602643489
 20
260.8046853464836
 30
0.0
 11
16.75253039523531
 21
261.1127614845837
 31
0.0
  0
LINE
  5
20C
330
70
100
AcDbEntity
  8
0
 62
    18
420
        0
370
    25
100
AcDbLine
 10
16.75253039523531
 20
261.1127614845837
 30
0.0
 11
16.83452406193506
 21
261.5685298120834
 31
0.0
  0
LINE
  5
20D
330
70
100
AcDbEntity
  8
0
 62
    18
420
        0
370
    25
100
AcDbLine
 10
16.83452406193506
 20
261.5685298120834
 30
0.0
 11
16.88979972343532
 21
261.8679700601831
 31
0.0
  0
LWPOLYLINE
  5
20E
330
70
100
AcDbEntity
  8
0
 62
    18
420
        0
370
    25
100
AcDbPolyline
 90
        4
 70
     0
 43
0.0
 10
13.99178832953533
 20
261.0453842017836
 10
14.03437117943482
 20
261.2651902964836
 10
14.07851349493482
 20
261.4876283255832
 10
14.12421527603535
 20
261.7126982889836
  0
LWPOLYLINE
  5
20F
330
70
100
AcDbEntity
  8
0
 62
    18
420
        0
370
    25
100
AcDbPolyline
 90
        4
 70
     0
 43
0.0
 10
14.10285705993478
 20
261.7019970811835
 10
14.05714363553501
 20
261.4769253472835
 10
14.01298969263515
 20
261.2544888711835
 10
13.97039523123519
 20
261.0346876525832
  0
LINE
  5
210
330
70
100
AcDbEntity
  8
0
 62
    18
420
        0
370
    25
100
AcDbLine
 10
13.68641082893491
 20
261.8799907730835
 30
0.0
 11
13.75159251003534
 21
262.1933378476837
 31
0.0
  0
LINE
  5
211
330
70
100
AcDbEntity
  8
0
 62
    18
420
        0
370
    25
100
AcDbLine
 10
14.12421527603535
 20
261.7126982889836
 30
0.0
 11
14.22033496823516
 21
262.1707632243832
 31
0.0
  0
LINE
  5
212
330
70
100
AcDbEntity
  8
0
 62
    18
420
        0
370
    25
100
AcDbLine
 10
14.19900048293511
 20
262.1600774452836
 30
0.0
 11
14.10285705993478
 21
261.7019970811835
 31
0.0
  0
LINE
  5
213
330
70
100
AcDbEntity
  8
0
 62
    18
420
        0
370
    25
100
AcDbLine
 10
13.75159251003534
 20
262.1933378476837
 30
0.0
 11
13.81929347013477
 21
262.5095594672832
 31
0.0
  0
LINE
  5
214
330
70
100
AcDbEntity
  8
0
 62
    18
420
        0
370
    25
100
AcDbLine
 10
14.22033496823516
 20
262.1707632243832
 30
0.0
 11
14.3225038566349
 21
262.6392098705832
 31
0.0
  0
LINE
  5
215
330
70
100
AcDbEntity
  8
0
 62
    18
420
        0
370
    25
100
AcDbLine
 10
14.30119118213526
 20
262.6285432232836
 30
0.0
 11
14.19900048293511
 21
262.1600774452836
 31
0.0
  0
LINE
  5
216
330
70
100
AcDbEntity
  8
0
 62
    18
420
        0
370
    25
100
AcDbLine
 10
13.81929347013477
 20
262.5095594672832
 30
0.0
 11
13.88947403423482
 21
262.8286270542834
 31
0.0
  0
LINE
  5
217
330
70
100
AcDbEntity
  8
0
 62
    18
420
        0
370
    25
100
AcDbLine
 10
13.88947403423482
 20
262.8286270542834
 30
0.0
 11
13.96197550243508
 21
263.1504262978834
 31
0.0
  0
LINE
  5
218
330
70
100
AcDbEntity
  8
0
 62
    18
420
        0
370
    25
100
AcDbLine
 10
14.40937196253474
 20
263.1073477303834
 30
0.0
 11
14.30119118213526
 21
262.6285432232836
 31
0.0
  0
LINE
  5
219
330
70
100
AcDbEntity
  8
0
 62
    18
420
        0
370
    25
100
AcDbLine
 10
14.3225038566349
 20
262.6392098705832
 30
0.0
 11
14.43066534113528
 21
263.1179944196834
 31
0.0
  0
LINE
  5
21A
330
70
100
AcDbEntity
  8
0
 62
    18
420
        0
370
    25
100
AcDbLine
 10
13.96197550243508
 20
263.1504262978834
 30
0.0
 11
13.99910649433529
 21
263.3123574353832
 31
0.0
  0
LINE
  5
21B
330
70
100
AcDbEntity
  8
0
 62
    18
420
        0
370
    25
100
AcDbLine
 10
3.352073169734988
 20
274.5789978927835
 30
0.0
 11
2.327549874035374
 21
274.0100736957835
 31
0.0
  0
LINE
  5
21C
330
70
100
AcDbEntity
  8
0
 62
    18
420
        0
370
    25
100
AcDbLine
 10
3.352073169734988
 20
273.6696712187836
 30
0.0
 11
3.18922075633491
 21
273.5792382545837
 31
0.0
  0
LWPOLYLINE
  5
21D
330
70
100
AcDbEntity
  8
0
 62
   250
420
  3355443
370
    25
100
AcDbPolyline
 90
       10
 70
     0
 43
0.0
 10
21.87192326413484
 20
302.4861975143834
 10
21.90654049373488
 20
302.3796448749834
 10
21.93864809963486
 20
302.2730414542834
 10
21.96826390793504
 20
302.1665842950834
 10
21.99542942153533
 20
302.0601967963836
 10
22.02008284763531
 20
301.9539848412833
 10
22.04218023623502
 20
301.8481308107834
 10
22.06170760193512
 20
301.7427970642834
 10
22.07867739663532
 20
301.6380062632833
 10
22.09307546473525
 20
301.5339731497834
  0
LWPOLYLINE
  5
21E
330
70
100
AcDbEntity
  8
0
 62
   250
420
  3355443
370
    25
100
AcDbPolyline
 90
       19
 70
     0
 43
0.0
 10
20.47640694813505
 20
301.6284074401834
 10
20.45387889553475
 20
301.7658704981833
 10
20.42348593003521
 20
301.9045812965833
 10
20.38539260513477
 20
302.0438157865835
 10
20.33982761543493
 20
302.1828373236834
 10
20.28709751273539
 20
302.3208345851833
 10
20.22750593723486
 20
302.4569551711834
 10
20.16137506593521
 20
302.5903527457834
 10
20.08907187093537
 20
302.7202424974835
 10
20.01100952033535
 20
302.8458850762834
 10
19.92768905763488
 20
302.9665691595833
 10
19.83958519653529
 20
303.0815545228835
 10
19.74719357903527
 20
303.1901438627833
 10
19.65102055853496
 20
303.2917071530834
 10
19.55168202183517
 20
303.3855695371834
 10
19.449859758135
 20
303.4710982514833
 10
19.34614025073502
 20
303.5477875634835
 10
19.24091815313488
 20
303.6153103008835
 10
19.13454670263497
 20
303.6734075385834
  0
LINE
  5
21F
330
70
100
AcDbEntity
  8
0
 62
   250
420
  3355443
370
    25
100
AcDbLine
 10
22.09307546473525
 20
301.5339731497834
 30
0.0
 11
22.09600232203501
 21
301.5104010748836
 31
0.0
  0
LINE
  5
220
330
70
100
AcDbEntity
  8
0
 62
   250
420
  3355443
370
    25
100
AcDbLine
 10
22.09600232203501
 20
301.5104010748836
 30
0.0
 11
22.09878134343501
 21
301.4870582501833
 31
0.0
  0
LINE
  5
221
330
70
100
AcDbEntity
  8
0
 62
   250
420
  3355443
370
    25
100
AcDbLine
 10
22.09878134343501
 20
301.4870582501833
 30
0.0
 11
22.10271519173498
 21
301.4523899332835
 31
0.0
  0
LINE
  5
222
330
70
100
AcDbEntity
  8
0
 62
   250
420
  3355443
370
    25
100
AcDbLine
 10
22.10521753073537
 20
261.9476226302837
 30
0.0
 11
22.10271269503482
 21
261.9273196880834
 31
0.0
  0
LINE
  5
223
330
70
100
AcDbEntity
  8
0
 62
   250
420
  3355443
370
    25
100
AcDbLine
 10
22.10271269503482
 20
261.9273196880834
 30
0.0
 11
22.10011420173533
 21
261.9069911474837
 31
0.0
  0
LINE
  5
224
330
70
100
AcDbEntity
  8
0
 62
   250
420
  3355443
370
    25
100
AcDbLine
 10
22.10011420173533
 20
261.9069911474837
 30
0.0
 11
22.09740714563512
 21
261.8866149884837
 31
0.0
  0
LWPOLYLINE
  5
225
330
70
100
AcDbEntity
  8
0
 62
   250
420
  3355443
370
    25
100
AcDbPolyline
 90
        3
 70
     0
 43
0.0
 10
22.09740714563512
 20
261.8866149884837
 10
22.09455604893526
 20
261.8661899013835
 10
22.09307544623506
 20
261.8559470782837
  0
LWPOLYLINE
  5
226
330
70
100
AcDbEntity
  8
0
 62
   250
420
  3355443
370
    25
100
AcDbPolyline
 90
        9
 70
     0
 43
0.0
 10
20.4764068950351
 20
262.4498223990836
 10
20.48061469963482
 20
262.4793314116836
 10
20.48436000473477
 20
262.5095414271834
 10
20.48762486053499
 20
262.5404595597832
 10
20.49040018693503
 20
262.5721002523836
 10
20.49265809003486
 20
262.6044631086835
 10
20.49435321423514
 20
262.6375307632834
 10
20.49545908143503
 20
262.6712993739833
 10
20.49596673663526
 20
262.7057807344832
  0
LWPOLYLINE
  5
227
330
70
100
AcDbEntity
  8
0
 62
   250
420
  3355443
370
    25
100
AcDbPolyline
 90
       10
 70
     0
 43
0.0
 10
22.09307544623506
 20
261.8559470782837
 10
22.07867737893534
 20
261.7670331309836
 10
22.06170758573478
 20
261.6799236286837
 10
22.04218022233517
 20
261.5948169384831
 10
22.02008283703508
 20
261.5117530748832
 10
21.99542941503493
 20
261.4308746632837
 10
21.96826390533487
 20
261.3523123952837
 10
21.93864810023484
 20
261.2761087820833
 10
21.90654049743492
 20
261.2022289074833
 10
21.87192327033494
 20
261.1308917240838
  0
LINE
  5
228
330
70
100
AcDbEntity
  8
0
 62
    18
420
        0
370
    25
100
AcDbLine
 10
18.01710338783502
 20
259.0265940402837
 30
0.0
 11
18.06788621983518
 21
259.2904280889831
 31
0.0
  0
LINE
  5
229
330
70
100
AcDbEntity
  8
0
 62
    18
420
        0
370
    25
100
AcDbLine
 10
18.4810594235353
 20
259.0911933476834
 30
0.0
 11
18.4294787138353
 21
258.8226511421837
 31
0.0
  0
LWPOLYLINE
  5
22A
330
70
100
AcDbEntity
  8
0
 62
    18
420
        0
370
    25
100
AcDbPolyline
 90
        3
 70
     0
 43
0.0
 10
18.45088048173525
 20
258.8333520260836
 10
18.51557795283498
 20
259.1692135582835
 10
18.52503077783518
 20
259.2173838468836
  0
LINE
  5
22B
330
70
100
AcDbEntity
  8
0
 62
    18
420
        0
370
    25
100
AcDbLine
 10
18.50745502153493
 20
259.2260773883834
 30
0.0
 11
18.4810594235353
 21
259.0911933476834
 31
0.0
  0
LINE
  5
22C
330
70
100
AcDbEntity
  8
0
 62
    18
420
        0
370
    25
100
AcDbLine
 10
18.06788621983518
 20
259.2904280889831
 30
0.0
 11
18.14868834923483
 21
259.6980016536835
 31
0.0
  0
LINE
  5
22D
330
70
100
AcDbEntity
  8
0
 62
    18
420
        0
370
    25
100
AcDbLine
 10
18.14868834923483
 20
259.6980016536835
 30
0.0
 11
18.2054085069349
 21
259.9756493112833
 31
0.0
  0
LINE
  5
22E
330
70
100
AcDbEntity
  8
0
 62
    18
420
        0
370
    25
100
AcDbLine
 10
18.60747141253531
 20
259.6281818880832
 30
0.0
 11
18.69460884133479
 21
260.0472819234838
 31
0.0
  0
LINE
  5
22F
330
70
100
AcDbEntity
  8
0
 62
    18
420
        0
370
    25
100
AcDbLine
 10
18.68773027783538
 20
260.1054238823835
 30
0.0
 11
18.58611319363501
 21
259.6175027785834
 31
0.0
  0
LINE
  5
230
330
70
100
AcDbEntity
  8
0
 62
    18
420
        0
370
    25
100
AcDbLine
 10
18.69460884133479
 20
260.0472819234838
 30
0.0
 11
18.72815684553489
 21
260.2066355883836
 31
0.0
  0
LINE
  5
231
330
70
100
AcDbEntity
  8
0
 62
    18
420
        0
370
    25
100
AcDbLine
 10
18.71658242593521
 20
260.2422164727832
 30
0.0
 11
18.68773027783538
 21
260.1054238823835
 31
0.0
  0
LINE
  5
232
330
70
100
AcDbEntity
  8
0
 62
    18
420
        0
370
    25
100
AcDbLine
 10
18.2054085069349
 20
259.9756493112833
 30
0.0
 11
18.29375646153536
 21
260.3966640670832
 31
0.0
  0
LINE
  5
233
330
70
100
AcDbEntity
  8
0
 62
    18
420
        0
370
    25
100
AcDbLine
 10
18.29375646153536
 20
260.3966640670832
 30
0.0
 11
18.44283186233535
 21
261.0926466583832
 31
0.0
  0
LWPOLYLINE
  5
234
330
70
100
AcDbEntity
  8
0
 62
    18
420
        0
370
    25
100
AcDbPolyline
 90
        4
 70
     0
 43
0.0
 10
21.02232102573506
 20
259.0214940785834
 10
21.0293129814352
 20
259.0529240065832
 10
21.03193999423482
 20
259.0873513105832
 10
21.03021434813502
 20
259.1241502627836
  0
LWPOLYLINE
  5
235
330
70
100
AcDbEntity
  8
0
 62
   250
420
  3355443
370
    25
100
AcDbPolyline
 90
        6
 70
     0
 43
0.0
 10
38.80649890603537
 20
310.3853926725834
 10
38.78869522213527
 20
310.3938181697833
 10
38.77090624513526
 20
310.4023553997834
 10
38.75313197503532
 20
310.4110043624836
 10
38.73543850153479
 20
310.4197757257835
 10
38.69989740593508
 20
310.4376216469833
  0
LINE
  5
236
330
70
100
AcDbEntity
  8
0
 62
   250
420
  3355443
370
    25
100
AcDbLine
 10
-35.70003193006505
 20
346.4508413136833
 30
0.0
 11
-39.03812850606481
 21
348.1084749865835
 31
0.0
  0
LINE
  5
237
330
70
100
AcDbEntity
  8
0
 62
   250
420
  3355443
370
    25
100
AcDbLine
 10
29.67827824863478
 20
313.7643326969835
 30
0.0
 11
19.21441489973485
 21
318.9893407590836
 31
0.0
  0
LINE
  5
238
330
70
100
AcDbEntity
  8
0
 62
   250
420
  3355443
370
    25
100
AcDbLine
 10
19.21389566183488
 20
318.9896014404834
 30
0.0
 11
-4.56671986056506
 21
330.8774460451834
 31
0.0
  0
LWPOLYLINE
  5
239
330
70
100
AcDbEntity
  8
0
 62
   250
420
  3355443
370
    25
100
AcDbPolyline
 90
        4
 70
     0
 43
0.0
 10
-4.56671986056506
 20
330.8774460451834
 10
-30.58073076626488
 20
343.8917962024835
 10
-32.30168269916485
 20
344.7542984104835
 10
-35.70003193006505
 20
346.4508413136833
  0
LWPOLYLINE
  5
23A
330
70
100
AcDbEntity
  8
0
 62
   250
420
  3355443
370
    25
100
AcDbPolyline
 90
        3
 70
     0
 43
0.0
 10
34.70546752343498
 20
311.2366752095835
 10
33.04551177683511
 20
312.0734096040836
 10
29.67827824863478
 20
313.7643326969835
  0
LINE
  5
23B
330
70
100
AcDbEntity
  8
0
 62
   250
420
  3355443
370
    25
100
AcDbLine
 10
-41.84838822906482
 20
350.7121312097834
 30
0.0
 11
-41.81329207586483
 21
350.6941948244834
 31
0.0
  0
LWPOLYLINE
  5
23C
330
70
100
AcDbEntity
  8
0
 62
   250
420
  3355443
370
    25
100
AcDbPolyline
 90
        5
 70
     0
 43
0.0
 10
35.61121886263491
 20
310.7522025002834
 10
35.39632012783516
 20
310.8644073349835
 10
35.17357759983506
 20
310.9830036588834
 10
34.94331839133525
 20
311.1070847106834
 10
34.70549100493478
 20
311.2366763242834
  0
LINE
  5
23D
330
70
100
AcDbEntity
  8
0
 62
   250
420
  3355443
370
    25
100
AcDbLine
 10
-41.88291715916498
 20
350.7301026731836
 30
0.0
 11
-41.84838822906482
 21
350.7121312097834
 31
0.0
  0
LWPOLYLINE
  5
23E
330
70
100
AcDbEntity
  8
0
 62
   250
420
  3355443
370
    25
100
AcDbPolyline
 90
       10
 70
     0
 43
0.0
 10
-42.36976049056489
 20
349.6766611444834
 10
-42.37852898406478
 20
349.6812805541833
 10
-42.38747108616506
 20
349.6856855253834
 10
-42.39658601686487
 20
349.6898698620835
 10
-42.4058760805648
 20
349.6938250999836
 10
-42.41533715716493
 20
349.6975453615836
 10
-42.42495873206491
 20
349.7010276025833
 10
-42.43473655246499
 20
349.7042649641834
 10
-42.44467254856478
 20
349.7072464601834
 10
-42.45476507446493
 20
349.7099620599834
  0
LWPOLYLINE
  5
23F
330
70
100
AcDbEntity
  8
0
 62
   250
420
  3355443
370
    25
100
AcDbPolyline
 90
        4
 70
     0
 43
0.0
 10
36.76056178253526
 20
310.1563390926836
 10
36.58376379793511
 20
310.2498766224834
 10
36.4015324136353
 20
310.3448712802834
 10
35.61121886263491
 20
310.7522025002834
  0
LINE
  5
240
330
70
100
AcDbEntity
  8
0
 62
   250
420
  3355443
370
    25
100
AcDbLine
 10
38.00312266483521
 20
309.4902176473836
 30
0.0
 11
37.71837052683532
 21
309.6403677105833
 31
0.0
  0
LINE
  5
241
330
70
100
AcDbEntity
  8
0
 62
   250
420
  3355443
370
    25
100
AcDbLine
 10
37.71837052683532
 20
309.6403677105833
 30
0.0
 11
37.56963990013519
 21
309.7198716125836
 31
0.0
  0
LWPOLYLINE
  5
242
330
70
100
AcDbEntity
  8
0
 62
   250
420
  3355443
370
    25
100
AcDbPolyline
 90
        6
 70
     0
 43
0.0
 10
-39.03814818746493
 20
348.1084975244835
 10
-39.28764580876486
 20
348.2223893581835
 10
-39.52781131856493
 20
348.3333811662835
 10
-39.75870046506503
 20
348.4415034568836
 10
-39.9796851262648
 20
348.5472300316836
 10
-40.59276373626505
 20
348.8447890229835
  0
LWPOLYLINE
  5
243
330
70
100
AcDbEntity
  8
0
 62
   250
420
  3355443
370
    25
100
AcDbPolyline
 90
        4
 70
     0
 43
0.0
 10
-41.94627105816495
 20
349.4773129101836
 10
-42.09215565666485
 20
349.5453443602835
 10
-42.23341389766486
 20
349.6125442615835
 10
-42.36976049056489
 20
349.6766611444834
  0
LWPOLYLINE
  5
244
330
70
100
AcDbEntity
  8
0
 62
   250
420
  3355443
370
    25
100
AcDbPolyline
 90
        4
 70
     0
 43
0.0
 10
-40.96582205736503
 20
349.0238774038835
 10
-41.143351803965
 20
349.1074068379834
 10
-41.31470685646507
 20
349.1869255443835
 10
-41.94627105816495
 20
349.4773129101836
  0
LINE
  5
245
330
70
100
AcDbEntity
  8
0
 62
   250
420
  3355443
370
    25
100
AcDbLine
 10
-40.59276373626505
 20
348.8447890229835
 30
0.0
 11
-40.96582205736503
 21
349.0238774038835
 31
0.0
  0
LINE
  5
246
330
70
100
AcDbEntity
  8
0
 62
   250
420
  3355443
370
    25
100
AcDbLine
 10
-41.77766687796498
 20
350.6762800426835
 30
0.0
 11
-1.539313547564854
 21
330.5571186531836
 31
0.0
  0
LINE
  5
247
330
70
100
AcDbEntity
  8
0
 62
   250
420
  3355443
370
    25
100
AcDbLine
 10
-1.539313547564854
 20
330.5571186531836
 30
0.0
 11
38.69989740593508
 21
310.4376216469833
 31
0.0
  0
LINE
  5
248
330
70
100
AcDbEntity
  8
0
 62
    18
420
        0
370
    25
100
AcDbLine
 10
41.9746134491354
 20
312.1727723095836
 30
0.0
 11
-38.71478576596486
 21
352.5174719153834
 31
0.0
  0
LINE
  5
249
330
70
100
AcDbEntity
  8
0
 62
   250
420
  3355443
370
    25
100
AcDbLine
 10
-41.81329207586483
 20
350.6941948244834
 30
0.0
 11
-41.77766687796498
 21
350.6762800426835
 31
0.0
  0
LWPOLYLINE
  5
24A
330
70
100
AcDbEntity
  8
0
 62
   250
420
  3355443
370
    25
100
AcDbPolyline
 90
        3
 70
     0
 43
0.0
 10
37.56963990013519
 20
309.7198716125836
 10
37.25998237413507
 20
309.8877521769833
 10
36.76056178253526
 20
310.1563390926836
  0
LWPOLYLINE
  5
24B
330
70
100
AcDbEntity
  8
0
 62
   250
420
  3355443
370
    25
100
AcDbPolyline
 90
        6
 70
     0
 43
0.0
 10
38.1915628387352
 20
309.3655502651836
 10
38.21132145523532
 20
309.3524393493833
 10
38.23188328693517
 20
309.3380996342834
 10
38.25308163483494
 20
309.3228887636834
 10
38.27483713493537
 20
309.3068542622833
 10
38.29717911583502
 20
309.2899403661834
  0
LWPOLYLINE
  5
24C
330
70
100
AcDbEntity
  8
0
 62
   250
420
  3355443
370
    25
100
AcDbPolyline
 90
       10
 70
     0
 43
0.0
 10
38.08623565633481
 20
309.4394597711835
 10
38.07672270433482
 20
309.4465460713836
 10
38.06727412693499
 20
309.4532563509834
 10
38.05789183843521
 20
309.4595988347835
 10
38.04857525353538
 20
309.4655858383833
 10
38.03932781223515
 20
309.4712202603834
 10
38.03015706503496
 20
309.4764958168835
 10
38.02106629983511
 20
309.4814145781833
 10
38.01205450353529
 20
309.4859867530833
 10
38.00312266483521
 20
309.4902176473836
  0
LWPOLYLINE
  5
24D
330
70
100
AcDbEntity
  8
0
 62
   250
420
  3355443
370
    25
100
AcDbPolyline
 90
        6
 70
     0
 43
0.0
 10
38.08616657303501
 20
309.4394447777835
 10
38.10145787303527
 20
309.4276769098835
 10
38.1181158341354
 20
309.4146846646833
 10
38.13573248863495
 20
309.4013430646833
 10
38.15391362853511
 20
309.3889222263834
 10
38.1915628387352
 20
309.3655502651836
  0
LWPOLYLINE
  5
24E
330
70
100
AcDbEntity
  8
0
 62
   250
420
  3355443
370
    25
100
AcDbPolyline
 90
       22
 70
     0
 43
0.0
 10
38.29717911583502
 20
309.2899403661834
 10
38.34388525863489
 20
309.2539690912835
 10
38.36842878153524
 20
309.2346803492833
 10
38.39374105163513
 20
309.2142782551834
 10
38.4197560591351
 20
309.1926933479835
 10
38.44653811943535
 20
309.1698555315833
 10
38.47419603603535
 20
309.1456183503833
 10
38.50263853453515
 20
309.1199389559835
 10
38.53183701973531
 20
309.0927959743833
 10
38.56198230073483
 20
309.0640611124834
 10
38.59309493773519
 20
309.0337392432833
 10
38.62509652333525
 20
309.0016607959833
 10
38.65802976953514
 20
308.9673986109834
 10
38.69176833703527
 20
308.9308501336835
 10
38.72629695783521
 20
308.8919551053836
 10
38.76175857773512
 20
308.8503502322833
 10
38.79795456723503
 20
308.8059370456833
 10
38.83479224793537
 20
308.7586892263835
 10
38.87253876463534
 20
308.7083063937834
 10
38.91117611733487
 20
308.6546099053836
 10
38.95040474613504
 20
308.5975899789835
 10
38.9900530022353
 20
308.5371628283834
  0
LWPOLYLINE
  5
24F
330
70
100
AcDbEntity
  8
0
 62
   250
420
  3355443
370
    25
100
AcDbPolyline
 90
       17
 70
     0
 43
0.0
 10
21.87192140193514
 20
261.1308934812835
 10
21.79737660753493
 20
260.9977039451836
 10
21.7142198900352
 20
260.8767086754833
 10
21.62319175233506
 20
260.7677144844831
 10
21.5251798377349
 20
260.6711026038832
 10
21.42065339013515
 20
260.5866643662837
 10
21.30920827263491
 20
260.5147048097837
 10
21.19125801443494
 20
260.4550741587837
 10
21.06750972893518
 20
260.4076831637833
 10
20.93885682133513
 20
260.3731287084835
 10
20.80562396203531
 20
260.3511621330834
 10
20.66770510333524
 20
260.3416748775833
 10
20.52495933953528
 20
260.3452646841834
 10
20.37791817213492
 20
260.3617177219834
 10
20.22742879613498
 20
260.3909983643831
 10
20.07458206283537
 20
260.4336162910832
 10
19.91934007683536
 20
260.4896706855833
  0
LWPOLYLINE
  5
250
330
70
100
AcDbEntity
  8
0
 62
   250
420
  3355443
370
    25
100
AcDbPolyline
 90
       41
 70
     0
 43
0.0
 10
19.50827842403525
 20
263.3251161583834
 10
19.47411932673537
 20
263.2963723919834
 10
19.44028473863477
 20
263.2655437753838
 10
19.40681729483494
 20
263.2326887421836
 10
19.37404025633492
 20
263.1981081428836
 10
19.3421059237351
 20
263.1619694523838
 10
19.31103088633531
 20
263.1242871945836
 10
19.28091850763523
 20
263.0851736950834
 10
19.25184660653513
 20
263.0447312710834
 10
19.22388500993503
 20
263.0030688108836
 10
19.19711656213509
 20
262.9603197698834
 10
19.17152458293501
 20
262.9164454403833
 10
19.14727170703488
 20
262.8717015757835
 10
19.12466003663485
 20
262.8266936698831
 10
19.10376632593519
 20
262.7817208160837
 10
19.08450883863498
 20
262.7367604860837
 10
19.06689023233528
 20
262.6919577335832
 10
19.05100033773512
 20
262.6477109191837
 10
19.03671240353526
 20
262.6038495214837
 10
19.02377162383493
 20
262.5596487642833
 10
19.01217186533501
 20
262.5150562981834
 10
19.00202641473515
 20
262.4703284316836
 10
18.99337174553495
 20
262.4252051594833
 10
18.98631663183507
 20
262.3795408066837
 10
18.98096804283504
 20
262.3337297708833
 10
18.97733812803518
 20
262.2883268192832
 10
18.9753791721349
 20
262.2435704392832
 10
18.97516323763535
 20
262.1994812406836
 10
18.97680752123483
 20
262.1562675159831
 10
18.98037808223476
 20
262.1140610825833
 10
18.98583178813476
 20
262.0729686766832
 10
18.99308926213494
 20
262.0331418919833
 10
19.00208536033492
 20
261.9947149540832
 10
19.0128226991348
 20
261.9577792323834
 10
19.0253120171351
 20
261.9224218681836
 10
19.03953609193506
 20
261.8887300305833
 10
19.05544370963511
 20
261.8568400225835
 10
19.07297580013494
 20
261.8268887572833
 10
19.09205720193516
 20
261.7989646127835
 10
19.11260673813534
 20
261.7731263767835
 10
19.13454674703477
 20
261.7494494349835
  0
LINE
  5
251
330
70
100
AcDbEntity
  8
0
 62
    18
420
        0
370
    25
100
AcDbLine
 10
12.68193049653512
 20
263.9706044956834
 30
0.0
 11
12.70321660363508
 21
263.9812475491833
 31
0.0
  0
LINE
  5
252
330
70
100
AcDbEntity
  8
0
 62
    18
420
        0
370
    25
100
AcDbLine
 10
13.09215821883495
 20
263.7655759175833
 30
0.0
 11
13.11344560333502
 21
263.7762196098837
 31
0.0
  0
LINE
  5
253
330
70
100
AcDbEntity
  8
0
 62
    18
420
        0
370
    25
100
AcDbLine
 10
13.99910649433529
 20
263.3123574353832
 30
0.0
 11
14.02039784603509
 21
263.3230031112832
 31
0.0
  0
LINE
  5
254
330
70
100
AcDbEntity
  8
0
 62
    18
420
        0
370
    25
100
AcDbLine
 10
14.40937196253474
 20
263.1073477303834
 30
0.0
 11
14.43066534113528
 21
263.1179944196834
 31
0.0
  0
LINE
  5
255
330
70
100
AcDbEntity
  8
0
 62
    18
420
        0
370
    25
100
AcDbLine
 10
14.68286867893539
 20
262.9706734525832
 30
0.0
 11
14.70416332153481
 21
262.9813207738836
 31
0.0
  0
LINE
  5
256
330
70
100
AcDbEntity
  8
0
 62
    18
420
        0
370
    25
100
AcDbLine
 10
15.09311378143489
 20
262.7656585144834
 30
0.0
 11
15.11441020423514
 21
262.7763067257832
 31
0.0
  0
LINE
  5
257
330
70
100
AcDbEntity
  8
0
 62
    18
420
        0
370
    25
100
AcDbLine
 10
15.50336195023485
 20
262.5606606656832
 30
0.0
 11
15.52466039053495
 21
262.5713098858834
 31
0.0
  0
LINE
  5
258
330
70
100
AcDbEntity
  8
0
 62
    18
420
        0
370
    25
100
AcDbLine
 10
16.12360622183487
 20
262.2507654128833
 30
0.0
 11
16.14490841873484
 21
262.2614165112832
 31
0.0
  0
LINE
  5
259
330
70
100
AcDbEntity
  8
0
 62
    18
420
        0
370
    25
100
AcDbLine
 10
13.97039523123519
 20
261.0346876525832
 30
0.0
 11
13.99178832953533
 21
261.0453842017836
 31
0.0
  0
LWPOLYLINE
  5
25A
330
70
100
AcDbEntity
  8
0
 62
   250
420
  3355443
370
    25
100
AcDbPolyline
 90
        5
 70
     0
 43
0.0
 10
-42.52646850456498
 20
349.7291152531837
 10
-42.50773781086484
 20
349.7230795574834
 10
-42.48907426966492
 20
349.7182807052835
 10
-42.47122831606505
 20
349.7140212573836
 10
-42.45483551006492
 20
349.7099477427833
  0
LWPOLYLINE
  5
25B
330
70
100
AcDbEntity
  8
0
 62
   250
420
  3355443
370
    25
100
AcDbPolyline
 90
        9
 70
     0
 43
0.0
 10
39.48568042653489
 20
306.8951683471835
 10
39.47758080373515
 20
307.0148055780834
 10
39.4732404505352
 20
307.0737453641836
 10
39.46843637713526
 20
307.1320546083834
 10
39.46311944863538
 20
307.1897376172836
 10
39.45680782953498
 20
307.2469485344833
 10
39.44938064613485
 20
307.3037077877834
 10
39.44111705283513
 20
307.3598933932836
 10
39.43207596303511
 20
307.4154592586835
  0
LWPOLYLINE
  5
25C
330
70
100
AcDbEntity
  8
0
 62
   250
420
  3355443
370
    25
100
AcDbPolyline
 90
        4
 70
     0
 43
0.0
 10
39.49907739783537
 20
304.8966930561835
 10
39.49034007003497
 20
305.6067408415833
 10
39.48841813083511
 20
305.8335821137833
 10
39.48761978733492
 20
306.0553569514834
  0
LINE
  5
25D
330
70
100
AcDbEntity
  8
0
 62
   250
420
  3355443
370
    25
100
AcDbLine
 10
39.54028686613506
 20
289.2596908147834
 30
0.0
 11
39.49855983473524
 21
304.8967580890835
 31
0.0
  0
LWPOLYLINE
  5
25E
330
70
100
AcDbEntity
  8
0
 62
   250
420
  3355443
370
    25
100
AcDbPolyline
 90
        3
 70
     0
 43
0.0
 10
39.48867217893488
 20
243.4152008269835
 10
39.48761810943504
 20
243.8445843107833
 10
39.48841461813478
 20
244.0653707710832
  0
LINE
  5
25F
330
70
100
AcDbEntity
  8
0
 62
   250
420
  3355443
370
    25
100
AcDbLine
 10
39.54905738683536
 20
277.3490085747836
 30
0.0
 11
39.54028686613506
 21
289.2596908147834
 31
0.0
  0
LINE
  5
260
330
70
100
AcDbEntity
  8
0
 62
   250
420
  3355443
370
    25
100
AcDbLine
 10
39.54346380623496
 20
262.9549275146832
 30
0.0
 11
39.54905738683536
 21
277.3490085747836
 31
0.0
  0
LINE
  5
261
330
70
100
AcDbEntity
  8
0
 62
   250
420
  3355443
370
    25
100
AcDbLine
 10
39.52518905733493
 20
253.0266818898837
 30
0.0
 11
39.54346380623496
 21
262.9549275146832
 31
0.0
  0
LWPOLYLINE
  5
262
330
70
100
AcDbEntity
  8
0
 62
   250
420
  3355443
370
    25
100
AcDbPolyline
 90
        4
 70
     0
 43
0.0
 10
39.48761978733492
 20
306.0553569514834
 10
39.4886710293349
 20
306.4838303278835
 10
39.48853575263527
 20
306.6913167942833
 10
39.48568355213477
 20
306.8951700329833
  0
LINE
  5
263
330
70
100
AcDbEntity
  8
0
 62
   250
420
  3355443
370
    25
100
AcDbLine
 10
40.73044148453507
 20
242.9050415702837
 30
0.0
 11
40.73311797183524
 21
307.0640475579833
 31
0.0
  0
LINE
  5
264
330
70
100
AcDbEntity
  8
0
 62
   250
420
  3355443
370
    25
100
AcDbLine
 10
39.49907735293504
 20
244.9938260389835
 30
0.0
 11
39.52518905733493
 21
253.0266818898837
 31
0.0
  0
LWPOLYLINE
  5
265
330
70
100
AcDbEntity
  8
0
 62
   250
420
  3355443
370
    25
100
AcDbPolyline
 90
       10
 70
     0
 43
0.0
 10
40.73311946063476
 20
242.9062586169834
 10
40.73272959033535
 20
242.8484986455833
 10
40.73121888703479
 20
242.7913704895833
 10
40.728587778335
 20
242.7349090627837
 10
40.72485066453484
 20
242.6790566013838
 10
40.71999182373511
 20
242.6239422669832
 10
40.71398684833533
 20
242.5698688239835
 10
40.70685121063491
 20
242.5169449639835
 10
40.69861878803479
 20
242.4650986271834
 10
40.68931275483482
 20
242.4143473254833
  0
LWPOLYLINE
  5
266
330
70
100
AcDbEntity
  8
0
 62
   250
420
  3355443
370
    25
100
AcDbPolyline
 90
        3
 70
     0
 43
0.0
 10
39.48841461813478
 20
244.0653707710832
 10
39.49577382363486
 20
244.7544854181834
 10
39.49907738133536
 20
244.9938260590835
  0
LWPOLYLINE
  5
267
330
70
100
AcDbEntity
  8
0
 62
   250
420
  3355443
370
    25
100
AcDbPolyline
 90
        3
 70
     0
 43
0.0
 10
39.48568353453488
 20
243.0067011181832
 10
39.48853483923508
 20
243.2077926401832
 10
39.48867217893488
 20
243.4152008269835
  0
LWPOLYLINE
  5
268
330
70
100
AcDbEntity
  8
0
 62
   250
420
  3355443
370
    25
100
AcDbPolyline
 90
       10
 70
     0
 43
0.0
 10
39.48547606663492
 20
243.0065568129835
 10
39.48174424213535
 20
242.9490142765831
 10
39.47774266203526
 20
242.8926281401835
 10
39.47332106863512
 20
242.8377712655835
 10
39.46850684053526
 20
242.7840670892837
 10
39.46312547143518
 20
242.7316267867835
 10
39.45682905013527
 20
242.6811113729836
 10
39.44951201183477
 20
242.6325104940833
 10
39.44125923413493
 20
242.5852059492837
 10
39.4320540915351
 20
242.5388934513835
  0
LWPOLYLINE
  5
269
330
70
100
AcDbEntity
  8
0
 62
    18
420
        0
370
    25
100
AcDbPolyline
 90
       33
 70
     0
 43
0.0
 10
21.3819750902349
 20
258.5075085655834
 10
21.4063744613349
 20
258.5326104227832
 10
21.42827754963477
 20
258.5609757905832
 10
21.44753508133478
 20
258.5924280943835
 10
21.46407424163532
 20
258.6268499240836
 10
21.47792190283489
 20
258.6642811816836
 10
21.48895226163483
 20
258.7045214526835
 10
21.49706807293495
 20
258.7474570259832
 10
21.50224505683479
 20
258.7933349511837
 10
21.50432270333504
 20
258.8421615609837
 10
21.50312204473485
 20
258.8936259647837
 10
21.49853562173512
 20
258.9475178990833
 10
21.49040539253499
 20
259.0037572900832
 10
21.47864022953539
 20
259.0619256437836
 10
21.46335466983527
 20
259.1212285343833
 10
21.44457351863507
 20
259.1813204949837
 10
21.42234414323494
 20
259.2418538732837
 10
21.39702269353532
 20
259.3019851938833
 10
21.36885884843492
 20
259.3612072089835
 10
21.33796727633524
 20
259.4193470661835
 10
21.30461154983491
 20
259.4760831742835
 10
21.26910553723524
 20
259.5309549775837
 10
21.23156830303498
 20
259.5838559601832
 10
21.19192998413524
 20
259.6349784180834
 10
21.15007403333533
 20
259.6843545283832
 10
21.10645633953505
 20
259.7313277737835
 10
21.06189128273507
 20
259.7751226784833
 10
21.01683912063516
 20
259.8154274781836
 10
20.97136885603528
 20
259.8522982880837
 10
20.92576171603501
 20
259.8856539778833
 10
20.88026698193506
 20
259.9154298947834
 10
20.83510078733493
 20
259.9415764753836
 10
20.79047961583477
 20
259.9640738000835
  0
LWPOLYLINE
  5
26A
330
70
100
AcDbEntity
  8
0
 62
   250
420
  3355443
370
    25
100
AcDbPolyline
 90
        4
 70
     0
 43
0.0
 10
19.60717461043495
 20
263.3964470016835
 10
19.57660401823476
 20
263.3761815673838
 10
19.54260591593481
 20
263.3517670841834
 10
19.50827842403525
 20
263.3251161583834
  0
LINE
  5
26B
330
70
100
AcDbEntity
  8
0
 62
    18
420
        0
370
    25
100
AcDbLine
 10
16.88979972343532
 20
261.8679700601831
 30
0.0
 11
16.91110717093501
 21
261.8786237839837
 31
0.0
  0
LINE
  5
26C
330
70
100
AcDbEntity
  8
0
 62
    18
420
        0
370
    25
100
AcDbLine
 10
17.51018420533537
 20
261.5581449124835
 30
0.0
 11
17.53149768393524
 21
261.5688016516837
 31
0.0
  0
LINE
  5
26D
330
70
100
AcDbEntity
  8
0
 62
    18
420
        0
370
    25
100
AcDbLine
 10
15.31623712813502
 20
260.3656380172832
 30
0.0
 11
15.33763110123523
 21
260.3763350037837
 31
0.0
  0
LINE
  5
26E
330
70
100
AcDbEntity
  8
0
 62
    18
420
        0
370
    25
100
AcDbLine
 10
16.13957293563492
 20
259.9570415486837
 30
0.0
 11
16.16096852873517
 21
259.9677393452836
 31
0.0
  0
LINE
  5
26F
330
70
100
AcDbEntity
  8
0
 62
    18
420
        0
370
    25
100
AcDbLine
 10
18.44283186233535
 20
261.0926466583832
 30
0.0
 11
18.46416021353482
 21
261.1033108340834
 31
0.0
  0
LINE
  5
270
330
70
100
AcDbEntity
  8
0
 62
    18
420
        0
370
    25
100
AcDbLine
 10
18.85351142243503
 20
260.8878291500834
 30
0.0
 11
18.87484994343488
 21
260.8984984105836
 31
0.0
  0
LINE
  5
271
330
70
100
AcDbEntity
  8
0
 62
    18
420
        0
370
    25
100
AcDbLine
 10
16.94062661333519
 20
259.5596880446835
 30
0.0
 11
16.96202465973492
 21
259.5703870678833
 31
0.0
  0
LINE
  5
272
330
70
100
AcDbEntity
  8
0
 62
    18
420
        0
370
    25
100
AcDbLine
 10
19.78738972613481
 20
260.4229302577835
 30
0.0
 11
19.80874281763519
 21
260.4336068034834
 31
0.0
  0
LINE
  5
273
330
70
100
AcDbEntity
  8
0
 62
    18
420
        0
370
    25
100
AcDbLine
 10
18.58611319363501
 20
259.6175027785834
 30
0.0
 11
18.60747141253531
 21
259.6281818880832
 31
0.0
  0
LINE
  5
274
330
70
100
AcDbEntity
  8
0
 62
    18
420
        0
370
    25
100
AcDbLine
 10
17.74225616423511
 20
259.1625937715834
 30
0.0
 11
17.76365573593485
 21
259.1732935574836
 31
0.0
  0
LINE
  5
275
330
70
100
AcDbEntity
  8
0
 62
    18
420
        0
370
    25
100
AcDbLine
 10
18.4294787138353
 20
258.8226511421837
 30
0.0
 11
18.45088048173525
 21
258.8333520260836
 31
0.0
  0
LINE
  5
276
330
70
100
AcDbEntity
  8
0
 62
    18
420
        0
370
    25
100
AcDbLine
 10
20.76916416373506
 20
259.9534144397835
 30
0.0
 11
20.79047973903521
 21
259.9640722273832
 31
0.0
  0
LINE
  5
277
330
70
100
AcDbEntity
  8
0
 62
    18
420
        0
370
    25
100
AcDbLine
 10
20.29808487063522
 20
259.1979684927835
 30
0.0
 11
20.31944663623499
 21
259.2086493755834
 31
0.0
  0
LWPOLYLINE
  5
278
330
70
100
AcDbEntity
  8
0
 62
   250
420
  3355443
370
    25
100
AcDbPolyline
 90
       10
 70
     0
 43
0.0
 10
39.43207596303511
 20
307.4154592586835
 10
39.40497215243525
 20
307.5447223439836
 10
39.37207395853524
 20
307.6737119331836
 10
39.33352685113521
 20
307.8020292709834
 10
39.28953812553538
 20
307.9292528031834
 10
39.24019355623528
 20
308.0550789655835
 10
39.18542810853497
 20
308.1793147693833
 10
39.1252903619349
 20
308.3016215426836
 10
39.06009882803534
 20
308.4210934496834
 10
38.99006940603533
 20
308.5371648747834
  0
LWPOLYLINE
  5
279
330
70
100
AcDbEntity
  8
0
 62
   250
420
  3355443
370
    25
100
AcDbPolyline
 90
       19
 70
     0
 43
0.0
 10
40.68931277273502
 20
307.6053132046834
 10
40.65334722053529
 20
307.7936039573835
 10
40.60759238033536
 20
307.9816358977836
 10
40.55254704673521
 20
308.1683669248834
 10
40.48893214143484
 20
308.3523584779836
 10
40.41717107973509
 20
308.5331273610834
 10
40.33717310533485
 20
308.7110953372835
 10
40.24942796713516
 20
308.8852497136835
 10
40.15437086803498
 20
309.0548223299836
 10
40.05149647283537
 20
309.2204533936833
 10
39.94136599203486
 20
309.3809378773836
 10
39.8242377606351
 20
309.5354844842835
 10
39.69881643343533
 20
309.6848967128833
 10
39.56455689003477
 20
309.8288605363836
 10
39.42279998213482
 20
309.9646798376834
 10
39.27514624723488
 20
310.0895065981835
 10
39.12275363743502
 20
310.2017546474836
 10
38.96619987933497
 20
310.3007576962836
 10
38.80645068383488
 20
310.3854149226833
  0
LWPOLYLINE
  5
27A
330
70
100
AcDbEntity
  8
0
 62
   250
420
  3355443
370
    25
100
AcDbPolyline
 90
       10
 70
     0
 43
0.0
 10
40.68931277273502
 20
307.6053132046834
 10
40.69861596163479
 20
307.5446568478834
 10
40.70684687793497
 20
307.4839432622833
 10
40.71398208543522
 20
307.4232131812833
 10
40.71998747923497
 20
307.3623865052835
 10
40.72484725733497
 20
307.3016294701834
 10
40.72858547913504
 20
307.2413464648833
 10
40.73121764813533
 20
307.1816929886835
 10
40.73272919183511
 20
307.1225837964834
 10
40.73311947873517
 20
307.0640543406835
  0
LWPOLYLINE
  5
27B
330
70
100
AcDbEntity
  8
0
 62
    18
420
        0
370
    25
100
AcDbPolyline
 90
       25
 70
     0
 43
0.0
 10
44.06652462213502
 20
308.5646381514834
 10
44.06189590413492
 20
308.7357151482834
 10
44.04850554623481
 20
308.9090358553833
 10
44.02635354853476
 20
309.0846002727837
 10
43.99527041763525
 20
309.2631762360834
 10
43.95542564683506
 20
309.4439959096833
 10
43.90732771603514
 20
309.6247557860834
 10
43.85087095653528
 20
309.8054561536835
 10
43.78616103713514
 20
309.9860967240833
 10
43.71402344433476
 20
310.1643731241836
 10
43.63436302093523
 20
310.3402550653835
 10
43.54727492423495
 20
310.5137728363833
 10
43.45387011233514
 20
310.6827129299835
 10
43.35406766123476
 20
310.8470166995835
 10
43.24794849503497
 20
311.0067427918834
 10
43.13686634433497
 20
311.1598536392835
 10
43.02075762843503
 20
311.3062644914835
 10
42.89968592803486
 20
311.4460600986835
 10
42.77519571673511
 20
311.5774571438836
 10
42.64724408593508
 20
311.7003475092834
 10
42.51587394423483
 20
311.8148393127835
 10
42.38275848983511
 20
311.9194735907836
 10
42.24845545553499
 20
312.0137640223833
 10
42.11240710863487
 20
312.0981969286834
 10
41.9746134491354
 20
312.1727723095836
  0
LWPOLYLINE
  5
27C
330
70
100
AcDbEntity
  8
0
 62
    18
420
        0
370
    25
100
AcDbPolyline
 90
       16
 70
     0
 43
0.0
 10
44.06652462213502
 20
244.4069332216832
 10
44.06189590473491
 20
244.2404849501833
 10
44.04850554733532
 20
244.0805546064833
 10
44.02635354993495
 20
243.9271421904837
 10
43.9952704191349
 20
243.7796493592833
 10
43.95542564823525
 20
243.6386744557835
 10
43.90732771743532
 20
243.5060125094832
 10
43.85087095793482
 20
243.3817689012833
 10
43.78616103843522
 20
243.2658382502836
 10
43.71402344563484
 20
243.1596994428832
 10
43.63436302223532
 20
243.0634779249834
 10
43.54727492543491
 20
242.9770482506835
 10
43.45387011353511
 20
242.9015129689835
 10
43.35406766233528
 20
242.8370116503837
 10
43.24794849613485
 20
242.7834047242837
 10
43.2305759176351
 20
242.7759272835833
  0
LWPOLYLINE
  5
27D
330
70
100
AcDbEntity
  8
0
 62
    18
420
        0
370
    25
100
AcDbPolyline
 90
        3
 70
     0
 43
0.0
 10
21.33879773373509
 20
258.4787437721837
 10
21.30931716983525
 20
258.4593825659833
 10
21.29529224223492
 20
258.4518777552833
  0
LWPOLYLINE
  5
27E
330
70
100
AcDbEntity
  8
0
 62
    18
420
        0
370
    25
100
AcDbPolyline
 90
        5
 70
     0
 43
0.0
 10
20.95749050073496
 20
258.9397587364833
 10
20.97795006473506
 20
258.9527240597833
 10
20.99610665813512
 20
258.9707564975836
 10
21.01108549083504
 20
258.9937472044833
 10
21.02232102573506
 20
259.0214940785834
  0
LINE
  5
27F
330
70
100
AcDbEntity
  8
0
 62
    18
420
        0
370
    25
100
AcDbLine
 10
20.80384602743515
 20
258.9518607862834
 30
0.0
 11
20.82521013983483
 21
258.9625428423831
 31
0.0
  0
LINE
  5
280
330
70
100
AcDbEntity
  8
0
 62
    18
420
        0
370
    25
100
AcDbLine
 10
19.75608095453533
 20
258.1691053253834
 30
0.0
 11
19.77747791383528
 21
258.1798038050835
 31
0.0
  0
LINE
  5
281
330
70
100
AcDbEntity
  8
0
 62
    18
420
        0
370
    25
100
AcDbLine
 10
21.31643565753527
 20
258.4624494617835
 30
0.0
 11
21.29504593393486
 21
258.4517545999833
 31
0.0
  0
LINE
  5
282
330
70
100
AcDbEntity
  8
0
 62
    18
420
        0
370
    25
100
AcDbLine
 10
20.44791875043496
 20
257.8314660764832
 30
0.0
 11
20.46931764143512
 21
257.8421655219833
 31
0.0
  0
LINE
  5
283
330
70
100
AcDbEntity
  8
0
 62
    18
420
        0
370
    25
100
AcDbLine
 10
21.6995699189353
 20
257.2263266401833
 30
0.0
 11
21.72096685073524
 21
257.2370251060835
 31
0.0
  0
LINE
  5
284
330
70
100
AcDbEntity
  8
0
 62
    18
420
        0
370
    25
100
AcDbLine
 10
21.29529224223492
 20
258.4518777552833
 30
0.0
 11
21.27759661433511
 21
258.4437657437835
 31
0.0
  0
LINE
  5
285
330
70
100
AcDbEntity
  8
0
 62
    18
420
        0
370
    25
100
AcDbLine
 10
21.27759661433511
 20
258.4437657437835
 30
0.0
 11
21.24380673793506
 21
258.4319683572833
 31
0.0
  0
LWPOLYLINE
  5
286
330
70
100
AcDbEntity
  8
0
 62
   250
420
  3355443
370
    25
100
AcDbPolyline
 90
       11
 70
     0
 43
0.0
 10
40.68931275483482
 20
242.4143473254833
 10
40.65294966353484
 20
242.2617366250834
 10
40.60628797913508
 20
242.1184935652836
 10
40.54965747493525
 20
241.9853656797836
 10
40.48348368733519
 20
241.8630830677834
 10
40.40816174943526
 20
241.7522055356837
 10
40.324023139235
 20
241.6531591478833
 10
40.23162135913511
 20
241.5665052431833
 10
40.13145104933491
 20
241.4926139083833
 10
40.02372314033533
 20
241.4316723239833
 10
39.97142348843509
 20
241.4079543387836
  0
LWPOLYLINE
  5
287
330
70
100
AcDbEntity
  8
0
 62
   250
420
  3355443
370
    25
100
AcDbPolyline
 90
       10
 70
     0
 43
0.0
 10
39.43205408373525
 20
242.5388934460837
 10
39.40481060033531
 20
242.4370190957835
 10
39.37168691483475
 20
242.3414825972834
 10
39.33287518663483
 20
242.2524168318834
 10
39.28865614923512
 20
242.1701929606836
 10
39.23920543433501
 20
242.0952691958832
 10
39.18447500413524
 20
242.0275731424835
 10
39.12453327853495
 20
241.9673114749833
 10
39.05966763933476
 20
241.9148054338836
 10
38.99005298393533
 20
241.8702312925837
  0
LWPOLYLINE
  5
288
330
70
100
AcDbEntity
  8
0
 62
   250
420
  3355443
370
    25
100
AcDbPolyline
 90
       28
 70
     0
 43
0.0
 10
38.99005298393533
 20
241.8702312925837
 10
38.95040532403508
 20
241.8500364669832
 10
38.91117671203523
 20
241.8328072778837
 10
38.87253874153482
 20
241.8182892017834
 10
38.834791039935
 20
241.8061900957834
 10
38.79795145733496
 20
241.7963001574833
 10
38.76175245853479
 20
241.7885397316834
 10
38.72628630953526
 20
241.7827744560833
 10
38.69175198863504
 20
241.7787284430836
 10
38.65800731933489
 20
241.7761877296837
 10
38.6250671929348
 20
241.7750628330836
 10
38.5930583263351
 20
241.7751443890831
 10
38.56193997193489
 20
241.7761055068831
 10
38.53179149793529
 20
241.7777310382835
 10
38.5025915003352
 20
241.7800214685834
 10
38.47414849823513
 20
241.7830096644832
 10
38.4464910057353
 20
241.7866374043835
 10
38.41971041033513
 20
241.7907807237836
 10
38.39369740243482
 20
241.7954001577834
 10
38.36838754103506
 20
241.8004812443833
 10
38.34384694493494
 20
241.8059058375838
 10
38.32012278403516
 20
241.8114994871835
 10
38.2971476298353
 20
241.8171379487833
 10
38.27480956573504
 20
241.8229053112836
 10
38.25305832843492
 20
241.8289513825837
 10
38.23186496993513
 20
241.8352458509836
 10
38.21130871893524
 20
241.8417404896837
 10
38.19155523453484
 20
241.8485344679836
  0
LINE
  5
289
330
70
100
AcDbEntity
  8
0
 62
   250
420
  3355443
370
    25
100
AcDbLine
 10
40.73044148453507
 20
242.9050415702837
 30
0.0
 11
44.06652462213502
 21
244.4068889615835
 31
0.0
  0
LINE
  5
28A
330
70
100
AcDbEntity
  8
0
 62
    18
420
        0
370
    25
100
AcDbLine
 10
43.23079168543535
 20
242.7759454068833
 30
0.0
 11
39.96524207143533
 21
241.4053821917832
 31
0.0
  0
LWPOLYLINE
  5
28C
330
70
100
AcDbEntity
  8
RACCORDO
 62
    18
420
        0
370
    25
100
AcDbPolyline
 90
        5
 70
     0
 43
0.0
 10
15.1182657361352
 20
268.9195720108833
 10
15.13856339163506
 20
268.9242854055834
 10
15.15978938643528
 20
268.9256337012837
 10
15.18140904713533
 20
268.9236915648832
 10
15.20282532013511
 20
268.9182877926835
  0
LWPOLYLINE
  5
28D
330
70
100
AcDbEntity
  8
RACCORDO
 62
    18
420
        0
370
    25
100
AcDbPolyline
 90
        5
 70
     0
 43
0.0
 10
-0.7916368405650469
 20
276.6580169482835
 10
-0.7707808138647897
 20
276.6631350196836
 10
-0.7496688201648511
 20
276.6644006935833
 10
-0.7284935295649201
 20
276.6621365022833
 10
-0.7072483080648215
 20
276.6566087613834
  0
LINE
  5
28E
330
70
100
AcDbEntity
  8
RACCORDO
 62
    18
420
        0
370
    25
100
AcDbLine
 10
-0.7072483080648215
 20
276.6566087613834
 30
0.0
 11
-0.6861115396650528
 21
276.6483008194834
 31
0.0
  0
LINE
  5
28F
330
70
100
AcDbEntity
  8
RACCORDO
 62
    18
420
        0
370
    25
100
AcDbLine
 10
15.20282532013511
 20
268.9182877926835
 30
0.0
 11
15.22378129373494
 21
268.9098488207833
 31
0.0
  0
LINE
  5
290
330
70
100
AcDbEntity
  8
RACCORDO
 62
    18
420
        0
370
    25
100
AcDbLine
 10
-0.6861115396650528
 20
276.6483008194834
 30
0.0
 11
-0.6773235512649352
 21
276.6440971931838
 31
0.0
  0
LINE
  5
291
330
70
100
AcDbEntity
  8
RACCORDO
 62
    18
420
        0
370
    25
100
AcDbLine
 10
15.22378129373494
 20
268.9098488207833
 30
0.0
 11
15.23251472513491
 21
268.9056056544834
 31
0.0
  0
LINE
  5
292
330
70
100
AcDbEntity
  8
RACCORDO
 62
   250
420
  3355443
370
    25
100
AcDbLine
 10
-0.7994261545648341
 20
276.6547475549832
 30
0.0
 11
3.352073169734988
 21
274.5789978927835
 31
0.0
  0
LINE
  5
293
330
70
100
AcDbEntity
  8
RACCORDO
 62
    18
420
        0
370
    25
100
AcDbLine
 10
-0.676981992464846
 20
276.6439271908835
 30
0.0
 11
3.408514445835299
 21
274.6011789717835
 31
0.0
  0
LINE
  5
294
330
70
100
AcDbEntity
  8
RACCORDO
 62
   250
420
  3355443
370
    25
100
AcDbLine
 10
-16.70932873126508
 20
284.8262051942832
 30
0.0
 11
-12.55782940696494
 21
282.7504555320835
 31
0.0
  0
LINE
  5
295
330
70
100
AcDbEntity
  8
RACCORDO
 62
   250
420
  3355443
370
    25
100
AcDbLine
 10
15.11047642213477
 20
268.9163026175836
 30
0.0
 11
19.26197574643523
 21
266.8405529553833
 31
0.0
  0
LINE
  5
296
330
70
100
AcDbEntity
  8
RACCORDO
 62
    18
420
        0
370
    25
100
AcDbLine
 10
-16.58688456916509
 20
284.8153848301836
 30
0.0
 11
-12.50138813086494
 21
282.7726366109835
 31
0.0
  0
LINE
  5
297
330
70
100
AcDbEntity
  8
RACCORDO
 62
    18
420
        0
370
    25
100
AcDbLine
 10
15.23292058423476
 20
268.9054822534833
 30
0.0
 11
19.3184170225349
 21
266.8627340342831
 31
0.0
  0
LWPOLYLINE
  5
298
330
70
100
AcDbEntity
  8
RACCORDO
 62
    18
420
        0
370
    25
100
AcDbPolyline
 90
        3
 70
     0
 43
0.0
 10
-12.50040530876507
 20
282.7720656713836
 10
-12.4995932724649
 20
282.7713074675835
 10
-12.49944511336476
 20
282.7706012421833
  0
LINE
  5
299
330
70
100
AcDbEntity
  8
RACCORDO
 62
    18
420
        0
370
    25
100
AcDbLine
 10
-16.61697983326506
 20
284.8281903693831
 30
0.0
 11
-16.59602385966491
 21
284.8197513973835
 31
0.0
  0
LINE
  5
29A
330
70
100
AcDbEntity
  8
RACCORDO
 62
    18
420
        0
370
    25
100
AcDbLine
 10
-16.59602385966491
 20
284.8197513973835
 30
0.0
 11
-16.58729042826493
 21
284.8155082311837
 31
0.0
  0
LINE
  5
29B
330
70
100
AcDbEntity
  8
RACCORDO
 62
   250
420
  3355443
370
    25
100
AcDbLine
 10
-12.55081587716502
 20
281.6287545356834
 30
0.0
 11
-12.55081587716502
 21
282.7541128175831
 31
0.0
  0
LINE
  5
29C
330
70
100
AcDbEntity
  8
RACCORDO
 62
    18
420
        0
370
    25
100
AcDbLine
 10
-12.49944484226488
 20
281.7467141820834
 30
0.0
 11
-12.49944484226488
 21
282.7699792923835
 31
0.0
  0
LWPOLYLINE
  5
29D
330
70
100
AcDbEntity
  8
RACCORDO
 62
    18
420
        0
370
    25
100
AcDbPolyline
 90
        3
 70
     0
 43
0.0
 10
-12.50145870136483
 20
281.7159140925836
 10
-12.4995932724649
 20
281.7376821065833
 10
-12.49944511336476
 20
281.7464215880836
  0
LWPOLYLINE
  5
29E
330
70
100
AcDbEntity
  8
RACCORDO
 62
    18
420
        0
370
    25
100
AcDbPolyline
 90
        3
 70
     0
 43
0.0
 10
19.3193998446351
 20
266.8621630946832
 10
19.32021188093527
 20
266.8614048908832
 10
19.32036004003509
 20
266.8606986655832
  0
LWPOLYLINE
  5
29F
330
70
100
AcDbEntity
  8
RACCORDO
 62
    18
420
        0
370
    25
100
AcDbPolyline
 90
        3
 70
     0
 43
0.0
 10
3.4094329676351
 20
274.6007189337835
 10
3.410309304235021
 20
274.5998498282834
 10
3.41054381813498
 20
274.5989946627838
  0
LWPOLYLINE
  5
2A0
330
70
100
AcDbEntity
  8
RACCORDO
 62
    18
420
        0
370
    25
100
AcDbPolyline
 90
        5
 70
     0
 43
0.0
 10
-16.70153941726497
 20
284.8294745875835
 10
-16.68124176176479
 20
284.8341879822836
 10
-16.66001576696489
 20
284.8355362779833
 10
-16.63839610626484
 20
284.8335941415834
 10
-16.61697983326506
 20
284.8281903693831
  0
LINE
  5
2A1
330
70
100
AcDbEntity
  8
RACCORDO
 62
   250
420
  3355443
370
    25
100
AcDbLine
 10
42.90168480513483
 20
272.8807248480837
 30
0.0
 11
42.59918036383502
 21
273.0319770687834
 31
0.0
  0
LINE
  5
2A2
330
70
100
AcDbEntity
  8
RACCORDO
 62
   250
420
  3355443
370
    25
100
AcDbLine
 10
42.57816164993531
 20
273.7129928886835
 30
0.0
 11
43.74300146693486
 21
273.1305729801837
 31
0.0
  0
LINE
  5
2A3
330
70
100
AcDbEntity
  8
RACCORDO
 62
    18
420
        0
370
    25
100
AcDbLine
 10
42.57816164993531
 20
273.7965536870837
 30
0.0
 11
43.92957841533498
 21
273.1208453043835
 31
0.0
  0
LINE
  5
2A4
330
70
100
AcDbEntity
  8
RACCORDO
 62
   250
420
  3355443
370
    25
100
AcDbLine
 10
3.359086699535222
 20
274.5826551782837
 30
0.0
 11
3.359086699535222
 21
273.6738032473833
 31
0.0
  0
LINE
  5
2A5
330
70
100
AcDbEntity
  8
RACCORDO
 62
    18
420
        0
370
    25
100
AcDbLine
 10
3.410457734435361
 20
274.5985216530834
 30
0.0
 11
3.410457734435361
 21
273.7917628937834
 31
0.0
  0
LWPOLYLINE
  5
2A6
330
70
100
AcDbEntity
  8
RACCORDO
 62
    18
420
        0
370
    25
100
AcDbPolyline
 90
        6
 70
     0
 43
0.0
 10
-12.55081587716502
 20
281.6287545356834
 10
-12.53478978626495
 20
281.6422030141836
 10
-12.52201808586486
 20
281.6578535660837
 10
-12.51235144216492
 20
281.6754388546833
 10
-12.50560777586497
 20
281.6949225965835
 10
-12.50145870136483
 20
281.7159140925836
  0
LINE
  5
2A7
330
70
100
AcDbEntity
  8
RACCORDO
 62
    18
420
        0
370
    25
100
AcDbLine
 10
-16.70932873126508
 20
284.8262051942832
 30
0.0
 11
-16.96978636826491
 21
284.7089466393836
 31
0.0
  0
LWPOLYLINE
  5
2A8
330
70
100
AcDbEntity
  8
RACCORDO
 62
    18
420
        0
370
    25
100
AcDbPolyline
 90
        3
 70
     0
 43
0.0
 10
3.408443875335089
 20
273.7609628042835
 10
3.410309304235021
 20
273.7827308182833
 10
3.410457463334843
 20
273.7914702997835
  0
LINE
  5
2A9
330
70
100
AcDbEntity
  8
RACCORDO
 62
    18
420
        0
370
    25
100
AcDbLine
 10
-12.55782940696494
 20
282.7504555320835
 30
0.0
 11
-12.79234651676506
 21
282.6202267135836
 31
0.0
  0
LINE
  5
2AA
330
70
100
AcDbEntity
  8
RACCORDO
 62
    18
420
        0
370
    25
100
AcDbLine
 10
-12.55782940696494
 20
281.6246225071832
 30
0.0
 11
-12.72068182036501
 21
281.5341895429832
 31
0.0
  0
LWPOLYLINE
  5
2AB
330
70
100
AcDbEntity
  8
RACCORDO
 62
    18
420
        0
370
    25
100
AcDbPolyline
 90
        7
 70
     0
 43
0.0
 10
-12.55081587716502
 20
282.7541128175831
 10
-12.53478978626495
 20
282.7609619944833
 10
-12.52201808586486
 20
282.7665374374835
 10
-12.51235144216492
 20
282.7705718095833
 10
-12.50560777586497
 20
282.7725043405834
 10
-12.50145870136483
 20
282.7724688182834
 10
-12.50040530876507
 20
282.7720656713836
  0
LINE
  5
2AC
330
70
100
AcDbEntity
  8
RACCORDO
 62
   250
420
  3355443
370
    25
100
AcDbLine
 10
19.26898927623483
 20
265.7188519589831
 30
0.0
 11
19.26898927623483
 21
266.8442102408835
 31
0.0
  0
LINE
  5
2AD
330
70
100
AcDbEntity
  8
RACCORDO
 62
    18
420
        0
370
    25
100
AcDbLine
 10
19.32036031113496
 20
265.8368116053832
 30
0.0
 11
19.32036031113496
 21
266.8600767156832
 31
0.0
  0
LWPOLYLINE
  5
2AE
330
70
100
AcDbEntity
  8
RACCORDO
 62
    18
420
        0
370
    25
100
AcDbPolyline
 90
        3
 70
     0
 43
0.0
 10
19.31834645203533
 20
265.8060115158833
 10
19.32021188093527
 20
265.8277795298831
 10
19.32036004003509
 20
265.8365190113833
  0
LWPOLYLINE
  5
2AF
330
70
100
AcDbEntity
  8
RACCORDO
 62
    18
420
        0
370
    25
100
AcDbPolyline
 90
        6
 70
     0
 43
0.0
 10
3.359086699535222
 20
273.6738032473833
 10
3.375112790435297
 20
273.6872517258835
 10
3.387884490835379
 20
273.7029022777837
 10
3.397551134535326
 20
273.7204875663832
 10
3.404294800835276
 20
273.7399713082834
 10
3.408443875335089
 20
273.7609628042835
  0
LWPOLYLINE
  5
2B0
330
70
100
AcDbEntity
  8
RACCORDO
 62
    18
420
        0
370
    25
100
AcDbPolyline
 90
        7
 70
     0
 43
0.0
 10
3.359086699535222
 20
274.5826551782837
 10
3.3745544191348
 20
274.5904674031832
 10
3.387440120734947
 20
274.5958462230832
 10
3.397551134535326
 20
274.5991141702833
 10
3.404465852335285
 20
274.6007516811832
 10
3.408434132134943
 20
274.6010279836835
 10
3.4094329676351
 20
274.6007189337835
  0
LINE
  5
2B1
330
70
100
AcDbEntity
  8
RACCORDO
 62
    18
420
        0
370
    25
100
AcDbLine
 10
15.11047642213477
 20
268.9163026175836
 30
0.0
 11
14.85001878513494
 21
268.7990440626834
 31
0.0
  0
LWPOLYLINE
  5
2B2
330
70
100
AcDbEntity
  8
RACCORDO
 62
    18
420
        0
370
    25
100
AcDbPolyline
 90
        6
 70
     0
 43
0.0
 10
19.26898927623483
 20
265.7188519589831
 10
19.2850153671349
 20
265.7323004374833
 10
19.29778706753498
 20
265.7479509893835
 10
19.30745371123493
 20
265.7655362779837
 10
19.31419737753488
 20
265.7850200198832
 10
19.31834645203533
 20
265.8060115158833
  0
LINE
  5
2B3
330
70
100
AcDbEntity
  8
RACCORDO
 62
    18
420
        0
370
    25
100
AcDbLine
 10
43.74300146693486
 20
279.5496758952833
 30
0.0
 11
42.90168480513483
 21
279.0420352155836
 31
0.0
  0
LINE
  5
2B4
330
70
100
AcDbEntity
  8
RACCORDO
 62
    18
420
        0
370
    25
100
AcDbLine
 10
19.26197574643523
 20
266.8405529553833
 30
0.0
 11
19.02745863663479
 21
266.7103241368834
 31
0.0
  0
LINE
  5
2B5
330
70
100
AcDbEntity
  8
RACCORDO
 62
    18
420
        0
370
    25
100
AcDbLine
 10
19.26197574643523
 20
265.7147199304836
 30
0.0
 11
19.09912333303515
 21
265.6242869662836
 31
0.0
  0
LWPOLYLINE
  5
2B6
330
70
100
AcDbEntity
  8
RACCORDO
 62
    18
420
        0
370
    25
100
AcDbPolyline
 90
        7
 70
     0
 43
0.0
 10
19.26898927623483
 20
266.8442102408835
 10
19.2850153671349
 20
266.8510594177837
 10
19.29778706753498
 20
266.8566348607833
 10
19.30745371123493
 20
266.8606692328837
 10
19.31419737753488
 20
266.8626017638832
 10
19.31834645203533
 20
266.8625662415838
 10
19.3193998446351
 20
266.8621630946832
  0
LINE
  5
2B7
330
70
100
AcDbEntity
  8
RACCORDO
 62
    18
420
        0
370
    25
100
AcDbLine
 10
42.90168480513483
 20
272.8807248480837
 30
0.0
 11
43.74300146693486
 21
273.1305729801837
 31
0.0
  0
LINE
  5
2B8
330
70
100
AcDbEntity
  8
RACCORDO
 62
    18
420
        0
370
    25
100
AcDbLine
 10
42.57816164993531
 20
278.4670831621834
 30
0.0
 11
42.57816164993531
 21
273.1643892311837
 31
0.0
  0
LINE
  5
2B9
330
70
100
AcDbEntity
  8
RACCORDO
 62
    18
420
        0
370
    25
100
AcDbLine
 10
44.06652462213502
 20
244.4069332216832
 30
0.0
 11
44.06652462213502
 21
272.8469085971832
 31
0.0
  0
LINE
  5
2BA
330
70
100
AcDbEntity
  8
RACCORDO
 62
    18
420
        0
370
    25
100
AcDbLine
 10
44.06652462213502
 20
280.1246279486835
 30
0.0
 11
44.06652462213502
 21
308.5646381514834
 31
0.0
  0
SPLINE
  5
2BB
330
70
100
AcDbEntity
  8
RACCORDO
 62
    18
420
        0
370
    25
100
AcDbSpline
210
0.0
220
0.0
230
1.0
 70
     8
 71
     3
 72
     8
 73
     4
 74
     0
 42
0.0000000001
 43
0.0000000001
 40
0.0
 40
0.0
 40
0.0
 40
0.0
 40
1.0
 40
1.0
 40
1.0
 40
1.0
 10
43.74300146701957
 20
279.5496758952814
 30
0.0
 10
43.92813071279223
 20
279.6613807270742
 30
0.0
 10
44.06652462218443
 20
279.907328694382
 30
0.0
 10
44.06652462216518
 20
280.1246279486944
 30
0.0
  0
SPLINE
  5
2BC
330
70
100
AcDbEntity
  8
RACCORDO
 62
    18
420
        0
370
    25
100
AcDbSpline
210
0.0
220
0.0
230
1.0
 70
     8
 71
     3
 72
     8
 73
     4
 74
     0
 42
0.0000000001
 43
0.0000000001
 40
0.0
 40
0.0
 40
0.0
 40
0.0
 40
1.0
 40
1.0
 40
1.0
 40
1.0
 10
-16.70153941722358
 20
284.8294745875957
 30
0.0
 10
-16.70413363020246
 20
284.8284648882451
 30
0.0
 10
-16.70673095809084
 20
284.8273747169447
 30
0.0
 10
-16.70932873122754
 20
284.8262051942255
 30
0.0
  0
SPLINE
  5
2BD
330
70
100
AcDbEntity
  8
RACCORDO
 62
    18
420
        0
370
    25
100
AcDbSpline
210
0.0
220
0.0
230
1.0
 70
     8
 71
     3
 72
     8
 73
     4
 74
     0
 42
0.0000000001
 43
0.0000000001
 40
0.0
 40
0.0
 40
0.0
 40
0.0
 40
1.0
 40
1.0
 40
1.0
 40
1.0
 10
-0.7916368405236572
 20
276.6580169482956
 30
0.0
 10
-0.7942310535025401
 20
276.657007248945
 30
0.0
 10
-0.7968283813909113
 20
276.6559170776446
 30
0.0
 10
-0.7994261545276155
 20
276.6547475549254
 30
0.0
  0
SPLINE
  5
2BE
330
70
100
AcDbEntity
  8
RACCORDO
 62
    18
420
        0
370
    25
100
AcDbSpline
210
0.0
220
0.0
230
1.0
 70
     8
 71
     3
 72
     8
 73
     4
 74
     0
 42
0.0000000001
 43
0.0000000001
 40
0.0
 40
0.0
 40
0.0
 40
0.0
 40
1.0
 40
1.0
 40
1.0
 40
1.0
 10
15.11826573617627
 20
268.9195720108961
 30
0.0
 10
15.11567152319738
 20
268.9185623115448
 30
0.0
 10
15.11307419530933
 20
268.9174721402443
 30
0.0
 10
15.11047642217263
 20
268.9163026175259
 30
0.0
  0
SPLINE
  5
2BF
330
70
100
AcDbEntity
  8
RACCORDO
 62
    18
420
        0
370
    25
100
AcDbSpline
210
0.0
220
0.0
230
1.0
 70
     8
 71
     3
 72
     8
 73
     4
 74
     0
 42
0.0000000001
 43
0.0000000001
 40
0.0
 40
0.0
 40
0.0
 40
0.0
 40
1.0
 40
1.0
 40
1.0
 40
1.0
 10
-12.55782940693991
 20
281.6246225071081
 30
0.0
 10
-12.55549036150124
 20
281.6259213936771
 30
0.0
 10
-12.55315171696662
 20
281.6272992085881
 30
0.0
 10
-12.55081587710855
 20
281.6287545356558
 30
0.0
  0
SPLINE
  5
2C0
330
70
100
AcDbEntity
  8
RACCORDO
 62
    18
420
        0
370
    25
100
AcDbSpline
210
0.0
220
0.0
230
1.0
 70
     8
 71
     3
 72
     8
 73
     4
 74
     0
 42
0.0000000001
 43
0.0000000001
 40
0.0
 40
0.0
 40
0.0
 40
0.0
 40
1.0
 40
1.0
 40
1.0
 40
1.0
 10
19.26197574646026
 20
265.7147199304085
 30
0.0
 10
19.2643147918986
 20
265.7160188169775
 30
0.0
 10
19.26665343643355
 20
265.7173966318886
 30
0.0
 10
19.2689892762913
 20
265.7188519589562
 30
0.0
  0
SPLINE
  5
2C1
330
70
100
AcDbEntity
  8
RACCORDO
 62
    18
420
        0
370
    25
100
AcDbSpline
210
0.0
220
0.0
230
1.0
 70
     8
 71
     3
 72
     8
 73
     4
 74
     0
 42
0.0000000001
 43
0.0000000001
 40
0.0
 40
0.0
 40
0.0
 40
0.0
 40
1.0
 40
1.0
 40
1.0
 40
1.0
 10
3.352073169760014
 20
273.669671218808
 30
0.0
 10
3.354412215198359
 20
273.670970105377
 30
0.0
 10
3.356750859733304
 20
273.6723479202881
 30
0.0
 10
3.359086699591049
 20
273.6738032473557
 30
0.0
  0
SPLINE
  5
2C2
330
70
100
AcDbEntity
  8
RACCORDO
 62
    18
420
        0
370
    25
100
AcDbSpline
210
0.0
220
0.0
230
1.0
 70
     8
 71
     3
 72
     8
 73
     4
 74
     0
 42
0.0000000001
 43
0.0000000001
 40
0.0
 40
0.0
 40
0.0
 40
0.0
 40
1.0
 40
1.0
 40
1.0
 40
1.0
 10
42.90168480514703
 20
279.0420352155836
 30
0.0
 10
42.71655555937436
 20
278.9303303837881
 30
0.0
 10
42.57816164998408
 20
278.6843824164797
 30
0.0
 10
42.57816165000526
 20
278.4670831621686
 30
0.0
  0
SPLINE
  5
2C3
330
70
100
AcDbEntity
  8
RACCORDO
 62
    18
420
        0
370
    25
100
AcDbSpline
210
0.0
220
0.0
230
1.0
 70
     8
 71
     3
 72
     8
 73
     4
 74
     0
 42
0.0000000001
 43
0.0000000001
 40
0.0
 40
0.0
 40
0.0
 40
0.0
 40
1.0
 40
1.0
 40
1.0
 40
1.0
 10
44.06652462216518
 20
272.8469085972031
 30
0.0
 10
44.06652462214208
 20
273.0642078515136
 30
0.0
 10
43.9281307127133
 20
273.1855513235081
 30
0.0
 10
43.7430014669355
 20
273.1305729801837
 30
0.0
  0
SPLINE
  5
2C4
330
70
100
AcDbEntity
  8
RACCORDO
 62
    18
420
        0
370
    25
100
AcDbSpline
210
0.0
220
0.0
230
1.0
 70
     8
 71
     3
 72
     8
 73
     4
 74
     0
 42
0.0000000001
 43
0.0000000001
 40
0.0
 40
0.0
 40
0.0
 40
0.0
 40
1.0
 40
1.0
 40
1.0
 40
1.0
 10
-12.55081587716021
 20
282.7541128175177
 30
0.0
 10
-12.55315171701828
 20
282.7529739316052
 30
0.0
 10
-12.5554903615529
 20
282.7517544186269
 30
0.0
 10
-12.55782940699156
 20
282.7504555320579
 30
0.0
  0
SPLINE
  5
2C5
330
70
100
AcDbEntity
  8
RACCORDO
 62
    18
420
        0
370
    25
100
AcDbSpline
210
0.0
220
0.0
230
1.0
 70
     8
 71
     3
 72
     8
 73
     4
 74
     0
 42
0.0000000001
 43
0.0000000001
 40
0.0
 40
0.0
 40
0.0
 40
0.0
 40
1.0
 40
1.0
 40
1.0
 40
1.0
 10
3.359086699539714
 20
274.5826551783177
 30
0.0
 10
3.356750859681969
 20
274.5815162924052
 30
0.0
 10
3.354412215147023
 20
274.5802967794269
 30
0.0
 10
3.352073169708678
 20
274.578997892858
 30
0.0
  0
SPLINE
  5
2C6
330
70
100
AcDbEntity
  8
RACCORDO
 62
    18
420
        0
370
    25
100
AcDbSpline
210
0.0
220
0.0
230
1.0
 70
     8
 71
     3
 72
     8
 73
     4
 74
     0
 42
0.0000000001
 43
0.0000000001
 40
0.0
 40
0.0
 40
0.0
 40
0.0
 40
1.0
 40
1.0
 40
1.0
 40
1.0
 10
19.26898927623996
 20
266.8442102409175
 30
0.0
 10
19.26665343638157
 20
266.843071355005
 30
0.0
 10
19.26431479184727
 20
266.8418518420268
 30
0.0
 10
19.26197574640828
 20
266.8405529554577
 30
0.0
  0
SPLINE
  5
2C7
330
70
100
AcDbEntity
  8
RACCORDO
 62
    18
420
        0
370
    25
100
AcDbSpline
210
0.0
220
0.0
230
1.0
 70
     8
 71
     3
 72
     8
 73
     4
 74
     0
 42
0.0000000001
 43
0.0000000001
 40
0.0
 40
0.0
 40
0.0
 40
0.0
 40
1.0
 40
1.0
 40
1.0
 40
1.0
 10
42.57816165000526
 20
273.1643892310682
 30
0.0
 10
42.57816165002643
 20
272.9470899767571
 30
0.0
 10
42.71655555945328
 20
272.8257465047601
 30
0.0
 10
42.90168480523109
 20
272.8807248480818
 30
0.0
  0
LINE
  5
2C9
330
70
100
AcDbEntity
  8
DRAFT
 62
    18
420
        0
370
    25
100
AcDbLine
 10
18.15639508603522
 20
266.2266170965837
 30
0.0
 11
13.88260470463507
 21
268.3635122873836
 31
0.0
  0
LINE
  5
2CA
330
70
100
AcDbEntity
  8
DRAFT
 62
    18
420
        0
370
    25
100
AcDbLine
 10
-17.93720044876477
 20
284.2734148640832
 30
0.0
 11
-13.66341006726484
 21
282.1365196732833
 31
0.0
  0
LINE
  5
2CB
330
70
100
AcDbEntity
  8
DRAFT
 62
    18
420
        0
370
    25
100
AcDbLine
 10
18.3574097516353
 20
266.3382417981836
 30
0.0
 11
14.10585410783481
 21
268.4640196200835
 31
0.0
  0
LINE
  5
2CC
330
70
100
AcDbEntity
  8
DRAFT
 62
    18
420
        0
370
    25
100
AcDbLine
 10
-17.71395104556504
 20
284.3739221967831
 30
0.0
 11
-13.46239540176487
 21
282.2481443748832
 31
0.0
  0
LINE
  5
2CD
330
70
100
AcDbEntity
  8
DRAFT
 62
    18
420
        0
370
    25
100
AcDbLine
 10
18.49141952863507
 20
266.4126582659833
 30
0.0
 11
14.25468704323477
 21
268.5310245085837
 31
0.0
  0
LINE
  5
2CE
330
70
100
AcDbEntity
  8
DRAFT
 62
    18
420
        0
370
    25
100
AcDbLine
 10
-17.56511811016508
 20
284.4409270852833
 30
0.0
 11
-13.32838562476478
 21
282.3225608426836
 31
0.0
  0
LINE
  5
2CF
330
70
100
AcDbEntity
  8
DRAFT
 62
    18
420
        0
370
    25
100
AcDbLine
 10
-17.34186870696503
 20
284.5414344180834
 30
0.0
 11
-13.1273709592648
 21
282.4341855442835
 31
0.0
  0
LINE
  5
2D0
330
70
100
AcDbEntity
  8
DRAFT
 62
    18
420
        0
370
    25
100
AcDbLine
 10
18.69243419413504
 20
266.5242829675833
 30
0.0
 11
14.47793644643514
 21
268.6315318413838
 31
0.0
  0
LINE
  5
2D1
330
70
100
AcDbEntity
  8
DRAFT
 62
    18
420
        0
370
    25
100
AcDbLine
 10
18.82644397113481
 20
266.5986994352835
 30
0.0
 11
14.62676938193521
 21
268.6985367298833
 31
0.0
  0
LINE
  5
2D2
330
70
100
AcDbEntity
  8
DRAFT
 62
    18
420
        0
370
    25
100
AcDbLine
 10
-17.19303577146496
 20
284.6084393065836
 30
0.0
 11
-12.99336118226504
 21
282.5086020119832
 31
0.0
  0
LINE
  5
2D3
330
70
100
AcDbEntity
  8
DRAFT
 62
    18
420
        0
370
    25
100
AcDbLine
 10
-16.96978636826491
 20
284.7089466393836
 30
0.0
 11
-12.79234651676506
 21
282.6202267135836
 31
0.0
  0
LINE
  5
2D4
330
70
100
AcDbEntity
  8
DRAFT
 62
    18
420
        0
370
    25
100
AcDbLine
 10
19.02745863663479
 20
266.7103241368834
 30
0.0
 11
14.85001878513494
 21
268.7990440626834
 31
0.0
  0
LINE
  5
2D5
330
70
100
AcDbEntity
  8
DRAFT
 62
    18
420
        0
370
    25
100
AcDbLine
 10
-13.66341006726484
 20
282.1365196732833
 30
0.0
 11
-13.56290273456491
 21
282.0624282135833
 31
0.0
  0
LINE
  5
2D6
330
70
100
AcDbEntity
  8
DRAFT
 62
    18
420
        0
370
    25
100
AcDbLine
 10
-13.32838562476478
 20
282.3225608426836
 30
0.0
 11
-13.22787829206484
 21
282.2484693828835
 31
0.0
  0
LINE
  5
2D7
330
70
100
AcDbEntity
  8
DRAFT
 62
    18
420
        0
370
    25
100
AcDbLine
 10
-12.99336118226504
 20
282.5086020119832
 30
0.0
 11
-12.892853849465
 21
282.4345105521837
 31
0.0
  0
LINE
  5
2D8
330
70
100
AcDbEntity
  8
DRAFT
 62
    18
420
        0
370
    25
100
AcDbLine
 10
18.15639508603522
 20
266.2266170965837
 30
0.0
 11
18.25690241883526
 21
266.1525256368837
 31
0.0
  0
LINE
  5
2D9
330
70
100
AcDbEntity
  8
DRAFT
 62
    18
420
        0
370
    25
100
AcDbLine
 10
18.49141952863507
 20
266.4126582659833
 30
0.0
 11
18.591926861335
 21
266.3385668061832
 31
0.0
  0
LINE
  5
2DA
330
70
100
AcDbEntity
  8
DRAFT
 62
    18
420
        0
370
    25
100
AcDbLine
 10
18.82644397113481
 20
266.5986994352835
 30
0.0
 11
18.92695130393485
 21
266.5246079754834
 31
0.0
  0
LINE
  5
2DB
330
70
100
AcDbEntity
  8
DRAFT
 62
    18
420
        0
370
    25
100
AcDbLine
 10
-13.56290273456491
 20
282.0624282135833
 30
0.0
 11
-13.46239540176487
 21
282.2481443748832
 31
0.0
  0
LINE
  5
2DC
330
70
100
AcDbEntity
  8
DRAFT
 62
    18
420
        0
370
    25
100
AcDbLine
 10
-13.22787829206484
 20
282.2484693828835
 30
0.0
 11
-13.1273709592648
 21
282.4341855442835
 31
0.0
  0
LINE
  5
2DD
330
70
100
AcDbEntity
  8
DRAFT
 62
    18
420
        0
370
    25
100
AcDbLine
 10
-12.892853849465
 20
282.4345105521837
 30
0.0
 11
-12.79234651676506
 21
282.6202267135836
 31
0.0
  0
LINE
  5
2DE
330
70
100
AcDbEntity
  8
DRAFT
 62
    18
420
        0
370
    25
100
AcDbLine
 10
-17.81429936246509
 20
284.2119643208836
 30
0.0
 11
-17.71395104556504
 21
284.3739221967831
 31
0.0
  0
LINE
  5
2DF
330
70
100
AcDbEntity
  8
DRAFT
 62
    18
420
        0
370
    25
100
AcDbLine
 10
-17.44221702376497
 20
284.3794765421833
 30
0.0
 11
-17.34186870696503
 21
284.5414344180834
 31
0.0
  0
LINE
  5
2E0
330
70
100
AcDbEntity
  8
DRAFT
 62
    18
420
        0
370
    25
100
AcDbLine
 10
-17.07013468516496
 20
284.5469887633834
 30
0.0
 11
-16.96978636826491
 21
284.7089466393836
 31
0.0
  0
LINE
  5
2E1
330
70
100
AcDbEntity
  8
DRAFT
 62
    18
420
        0
370
    25
100
AcDbLine
 10
-17.19303577146496
 20
284.6084393065836
 30
0.0
 11
-17.34186870696503
 21
284.5414344180834
 31
0.0
  0
LINE
  5
2E2
330
70
100
AcDbEntity
  8
DRAFT
 62
    18
420
        0
370
    25
100
AcDbLine
 10
-17.56511811016508
 20
284.4409270852833
 30
0.0
 11
-17.71395104556504
 21
284.3739221967831
 31
0.0
  0
LINE
  5
2E3
330
70
100
AcDbEntity
  8
DRAFT
 62
    18
420
        0
370
    25
100
AcDbLine
 10
-17.93720044876477
 20
284.2734148640832
 30
0.0
 11
-18.07503009326502
 21
284.2113636793832
 31
0.0
  0
LINE
  5
2E4
330
70
100
AcDbEntity
  8
DRAFT
 62
    18
420
        0
370
    25
100
AcDbLine
 10
-12.99336118226504
 20
282.5086020119832
 30
0.0
 11
-13.1273709592648
 21
282.4341855442835
 31
0.0
  0
LINE
  5
2E5
330
70
100
AcDbEntity
  8
DRAFT
 62
    18
420
        0
370
    25
100
AcDbLine
 10
-13.32838562476478
 20
282.3225608426836
 30
0.0
 11
-13.46239540176487
 21
282.2481443748832
 31
0.0
  0
LINE
  5
2E6
330
70
100
AcDbEntity
  8
DRAFT
 62
    18
420
        0
370
    25
100
AcDbLine
 10
-13.66341006726484
 20
282.1365196732833
 30
0.0
 11
-13.78751243656483
 21
282.0676048510837
 31
0.0
  0
LINE
  5
2E7
330
70
100
AcDbEntity
  8
DRAFT
 62
    18
420
        0
370
    25
100
AcDbLine
 10
14.0055057909354
 20
268.3020617441834
 30
0.0
 11
14.10585410783481
 21
268.4640196200835
 31
0.0
  0
LINE
  5
2E8
330
70
100
AcDbEntity
  8
DRAFT
 62
    18
420
        0
370
    25
100
AcDbLine
 10
14.3775881296352
 20
268.4695739654836
 30
0.0
 11
14.47793644643514
 21
268.6315318413838
 31
0.0
  0
LINE
  5
2E9
330
70
100
AcDbEntity
  8
DRAFT
 62
    18
420
        0
370
    25
100
AcDbLine
 10
14.74967046823489
 20
268.6370861866831
 30
0.0
 11
14.85001878513494
 21
268.7990440626834
 31
0.0
  0
LINE
  5
2EA
330
70
100
AcDbEntity
  8
DRAFT
 62
    18
420
        0
370
    25
100
AcDbLine
 10
18.25690241883526
 20
266.1525256368837
 30
0.0
 11
18.3574097516353
 21
266.3382417981836
 31
0.0
  0
LINE
  5
2EB
330
70
100
AcDbEntity
  8
DRAFT
 62
    18
420
        0
370
    25
100
AcDbLine
 10
18.591926861335
 20
266.3385668061832
 30
0.0
 11
18.69243419413504
 21
266.5242829675833
 31
0.0
  0
LINE
  5
2EC
330
70
100
AcDbEntity
  8
DRAFT
 62
    18
420
        0
370
    25
100
AcDbLine
 10
18.92695130393485
 20
266.5246079754834
 30
0.0
 11
19.02745863663479
 21
266.7103241368834
 31
0.0
  0
LINE
  5
2ED
330
70
100
AcDbEntity
  8
DRAFT
 62
    18
420
        0
370
    25
100
AcDbLine
 10
14.62676938193521
 20
268.6985367298833
 30
0.0
 11
14.47793644643514
 21
268.6315318413838
 31
0.0
  0
LINE
  5
2EE
330
70
100
AcDbEntity
  8
DRAFT
 62
    18
420
        0
370
    25
100
AcDbLine
 10
14.25468704323477
 20
268.5310245085837
 30
0.0
 11
14.10585410783481
 21
268.4640196200835
 31
0.0
  0
LINE
  5
2EF
330
70
100
AcDbEntity
  8
DRAFT
 62
    18
420
        0
370
    25
100
AcDbLine
 10
13.88260470463507
 20
268.3635122873836
 30
0.0
 11
13.74477506013515
 21
268.3014611026836
 31
0.0
  0
LINE
  5
2F0
330
70
100
AcDbEntity
  8
DRAFT
 62
    18
420
        0
370
    25
100
AcDbLine
 10
18.82644397113481
 20
266.5986994352835
 30
0.0
 11
18.69243419413504
 21
266.5242829675833
 31
0.0
  0
LINE
  5
2F1
330
70
100
AcDbEntity
  8
DRAFT
 62
    18
420
        0
370
    25
100
AcDbLine
 10
18.49141952863507
 20
266.4126582659833
 30
0.0
 11
18.3574097516353
 21
266.3382417981836
 31
0.0
  0
LINE
  5
2F2
330
70
100
AcDbEntity
  8
DRAFT
 62
    18
420
        0
370
    25
100
AcDbLine
 10
18.15639508603522
 20
266.2266170965837
 30
0.0
 11
18.03229271683534
 21
266.1577022743835
 31
0.0
  0
ENDSEC
  0
SECTION
  2
OBJECTS
  0
DICTIONARY
  5
C
330
0
100
AcDbDictionary
281
     1
  3
ACAD_COLOR
350
63
  3
ACAD_DETAILVIEWSTYLE
350
6A
  3
ACAD_GROUP
350
D
  3
ACAD_LAYOUT
350
62
  3
ACAD_MATERIAL
350
10
  3
ACAD_MLEADERSTYLE
350
66
  3
ACAD_MLINESTYLE
350
5F
  3
ACAD_PLOTSETTINGS
350
61
  3
ACAD_PLOTSTYLENAME
350
E
  3
ACAD_SCALELIST
350
42
  3
ACAD_SECTIONVIEWSTYLE
350
68
  3
ACAD_TABLESTYLE
350
64
  3
ACAD_VISUALSTYLE
350
29
  3
ACDB_RECOMPOSE_DATA
350
2FB
  3
AcDbVariableDictionary
350
2F3
  0
DICTIONARY
  5
63
102
{ACAD_REACTORS
330
C
102
}
330
C
100
AcDbDictionary
281
     1
  0
DICTIONARY
  5
6A
102
{ACAD_REACTORS
330
C
102
}
330
C
100
AcDbDictionary
281
     1
  3
Imperial24
350
6B
  0
DICTIONARY
  5
D
102
{ACAD_REACTORS
330
C
102
}
330
C
100
AcDbDictionary
281
     1
  0
DICTIONARY
  5
62
102
{ACAD_REACTORS
330
C
102
}
330
C
100
AcDbDictionary
281
     1
  3
Layout1
350
6F
  3
Layout2
350
77
  3
Model
350
73
  0
DICTIONARY
  5
10
102
{ACAD_REACTORS
330
C
102
}
330
C
100
AcDbDictionary
281
     1
  3
ByBlock
350
19
  3
ByLayer
350
11
  3
Global
350
21
  0
DICTIONARY
  5
66
102
{ACAD_REACTORS
330
C
102
}
330
C
100
AcDbDictionary
281
     1
  3
Standard
350
67
  0
DICTIONARY
  5
5F
102
{ACAD_REACTORS
330
C
102
}
330
C
100
AcDbDictionary
281
     1
  3
Standard
350
60
  0
DICTIONARY
  5
61
102
{ACAD_REACTORS
330
C
102
}
330
C
100
AcDbDictionary
281
     1
  0
ACDBDICTIONARYWDFLT
  5
E
102
{ACAD_REACTORS
330
C
102
}
330
C
100
AcDbDictionary
281
     1
  3
Normal
350
F
100
AcDbDictionaryWithDefault
340
F
  0
DICTIONARY
  5
42
102
{ACAD_REACTORS
330
C
102
}
330
C
100
AcDbDictionary
281
     1
  3
A0
350
43
  3
A1
350
44
  3
A2
350
45
  3
A3
350
46
  3
A4
350
47
  3
A5
350
48
  3
A6
350
49
  3
A7
350
4A
  3
A8
350
4B
  3
A9
350
4C
  3
B0
350
4D
  3
B1
350
4E
  3
B2
350
4F
  3
B3
350
50
  3
B4
350
51
  3
B5
350
52
  3
B6
350
53
  0
DICTIONARY
  5
68
102
{ACAD_REACTORS
330
C
102
}
330
C
100
AcDbDictionary
281
     1
  3
Imperial24
350
69
  0
DICTIONARY
  5
64
102
{ACAD_REACTORS
330
C
102
}
330
C
100
AcDbDictionary
281
     1
  3
Standard
350
65
  0
DICTIONARY
  5
29
102
{ACAD_REACTORS
330
C
102
}
330
C
100
AcDbDictionary
281
     1
  3
2dWireframe
350
2F
  3
Basic
350
2E
  3
Brighten
350
35
  3
ColorChange
350
39
  3
Conceptual
350
32
  3
Dim
350
34
  3
EdgeColorOff
350
41
  3
Facepattern
350
38
  3
Flat
350
2A
  3
FlatWithEdges
350
2B
  3
Gouraud
350
2C
  3
GouraudWithEdges
350
2D
  3
Hidden
350
31
  3
JitterOff
350
3F
  3
Linepattern
350
37
  3
OverhangOff
350
40
  3
Realistic
350
33
  3
Shaded
350
3E
  3
Shaded with edges
350
3D
  3
Shades of Gray
350
3A
  3
Sketchy
350
3B
  3
Thicken
350
36
  3
Wireframe
350
30
  3
X-Ray
350
3C
  0
XRECORD
  5
2FB
102
{ACAD_REACTORS
330
C
102
}
330
C
100
AcDbXrecord
280
     1
 90
        1
330
65
  0
DICTIONARY
  5
2F3
102
{ACAD_REACTORS
330
C
102
}
330
C
100
AcDbDictionary
281
     1
  3
CANNOSCALE
350
2F8
  3
CMLEADERSTYLE
350
2F5
  3
CTABLESTYLE
350
2F4
  3
CVIEWDETAILSTYLE
350
2F6
  3
CVIEWSECTIONSTYLE
350
2F7
  0
ACDBDETAILVIEWSTYLE
  5
6B
102
{ACAD_REACTORS
330
6A
102
}
330
6A
100
AcDbModelDocViewStyle
 70
     0
  3
Imperial24
290
     1
300
Imperial24
 90
        0
100
AcDbDetailViewStyle
 70
     0
 71
     0
 90
        3
 71
     1
340
55
 62
   256
 40
0.24
340
0
 62
   256
 40
0.24
300

 40
0.36
280
     3
 71
     2
340
5D
 90
       25
 62
   256
 71
     3
340
55
 62
   256
 40
0.24
 90
        1
 40
0.75
 90
        1
300
%<\AcVar ViewType \f "%tc1">% %<\AcVar ViewDetailId>%\PSCALE %<\AcVar ViewScale \f "%sn">%
 71
     4
340
5D
 90
       25
 62
   256
340
5D
 90
       25
 62
   256
280
     0
  0
LAYOUT
  5
6F
102
{ACAD_REACTORS
330
62
102
}
330
62
100
AcDbPlotSettings
  1

  2

  4

  6

 40
0.0
 41
0.0
 42
0.0
 43
0.0
 44
0.0
 45
0.0
 46
0.0
 47
0.0
 48
0.0
 49
0.0
140
0.0
141
0.0
142
1.0
143
1.0
 70
   688
 72
     0
 73
     0
 74
     5
  7

 75
    16
147
1.0
 76
     0
 77
     2
 78
   300
148
0.0
149
0.0
100
AcDbLayout
  1
Layout1
 70
     1
 71
     1
 10
0.0
 20
0.0
 11
12.0
 21
9.0
 12
0.0
 22
0.0
 32
0.0
 14
0.0
 24
0.0
 34
0.0
 15
0.0
 25
0.0
 35
0.0
146
0.0
 13
0.0
 23
0.0
 33
0.0
 16
1.0
 26
0.0
 36
0.0
 17
0.0
 27
1.0
 37
0.0
 76
     0
330
6C
  0
LAYOUT
  5
77
102
{ACAD_REACTORS
330
62
102
}
330
62
100
AcDbPlotSettings
  1

  2

  4

  6

 40
0.0
 41
0.0
 42
0.0
 43
0.0
 44
0.0
 45
0.0
 46
0.0
 47
0.0
 48
0.0
 49
0.0
140
0.0
141
0.0
142
1.0
143
1.0
 70
   688
 72
     0
 73
     0
 74
     5
  7

 75
    16
147
1.0
 76
     0
 77
     2
 78
   300
148
0.0
149
0.0
100
AcDbLayout
  1
Layout2
 70
     1
 71
     2
 10
0.0
 20
0.0
 11
12.0
 21
9.0
 12
0.0
 22
0.0
 32
0.0
 14
0.0
 24
0.0
 34
0.0
 15
0.0
 25
0.0
 35
0.0
146
0.0
 13
0.0
 23
0.0
 33
0.0
 16
1.0
 26
0.0
 36
0.0
 17
0.0
 27
1.0
 37
0.0
 76
     0
330
74
  0
LAYOUT
  5
73
102
{ACAD_REACTORS
330
62
102
}
330
62
100
AcDbPlotSettings
  1

  2

  4

  6

 40
0.0
 41
0.0
 42
0.0
 43
0.0
 44
0.0
 45
0.0
 46
0.0
 47
0.0
 48
0.0
 49
0.0
140
0.0
141
0.0
142
1.0
143
1.0
 70
  1712
 72
     0
 73
     0
 74
     0
  7

 75
     0
147
1.0
 76
     0
 77
     2
 78
   300
148
0.0
149
0.0
100
AcDbLayout
  1
Model
 70
     1
 71
     0
 10
0.0
 20
0.0
 11
12.0
 21
9.0
 12
0.0
 22
0.0
 32
0.0
 14
0.0
 24
0.0
 34
0.0
 15
0.0
 25
0.0
 35
0.0
146
0.0
 13
0.0
 23
0.0
 33
0.0
 16
1.0
 26
0.0
 36
0.0
 17
0.0
 27
1.0
 37
0.0
 76
     0
330
70
  0
MATERIAL
  5
19
102
{ACAD_XDICTIONARY
360
1A
102
}
102
{ACAD_REACTORS
330
10
102
}
330
10
100
AcDbMaterial
  1
ByBlock
 72
     0
 43
0.0208333333333333
 43
0.0
 43
0.0
 43
0.0
 43
0.0
 43
0.0208333333333333
 43
0.0
 43
0.0
 43
0.0
 43
0.0
 43
1.0
 43
0.0
 43
0.0
 43
0.0
 43
0.0
 43
1.0
 77
     0
 47
0.0208333333333333
 47
0.0
 47
0.0
 47
0.0
 47
0.0
 47
0.0208333333333333
 47
0.0
 47
0.0
 47
0.0
 47
0.0
 47
1.0
 47
0.0
 47
0.0
 47
0.0
 47
0.0
 47
1.0
171
     0
 49
0.0208333333333333
 49
0.0
 49
0.0
 49
0.0
 49
0.0
 49
0.0208333333333333
 49
0.0
 49
0.0
 49
0.0
 49
0.0
 49
1.0
 49
0.0
 49
0.0
 49
0.0
 49
0.0
 49
1.0
175
     0
142
0.0208333333333333
142
0.0
142
0.0
142
0.0
142
0.0
142
0.0208333333333333
142
0.0
142
0.0
142
0.0
142
0.0
142
1.0
142
0.0
142
0.0
142
0.0
142
0.0
142
1.0
179
     0
144
0.0208333333333333
144
0.0
144
0.0
144
0.0
144
0.0
144
0.0208333333333333
144
0.0
144
0.0
144
0.0
144
0.0
144
1.0
144
0.0
144
0.0
144
0.0
144
0.0
144
1.0
147
0.0208333333333333
147
0.0
147
0.0
147
0.0
147
0.0
147
0.0208333333333333
147
0.0
147
0.0
147
0.0
147
0.0
147
1.0
147
0.0
147
0.0
147
0.0
147
0.0
147
1.0
  0
MATERIAL
  5
11
102
{ACAD_XDICTIONARY
360
12
102
}
102
{ACAD_REACTORS
330
10
102
}
330
10
100
AcDbMaterial
  1
ByLayer
 72
     0
 43
0.0208333333333333
 43
0.0
 43
0.0
 43
0.0
 43
0.0
 43
0.0208333333333333
 43
0.0
 43
0.0
 43
0.0
 43
0.0
 43
1.0
 43
0.0
 43
0.0
 43
0.0
 43
0.0
 43
1.0
 77
     0
 47
0.0208333333333333
 47
0.0
 47
0.0
 47
0.0
 47
0.0
 47
0.0208333333333333
 47
0.0
 47
0.0
 47
0.0
 47
0.0
 47
1.0
 47
0.0
 47
0.0
 47
0.0
 47
0.0
 47
1.0
171
     0
 49
0.0208333333333333
 49
0.0
 49
0.0
 49
0.0
 49
0.0
 49
0.0208333333333333
 49
0.0
 49
0.0
 49
0.0
 49
0.0
 49
1.0
 49
0.0
 49
0.0
 49
0.0
 49
0.0
 49
1.0
175
     0
142
0.0208333333333333
142
0.0
142
0.0
142
0.0
142
0.0
142
0.0208333333333333
142
0.0
142
0.0
142
0.0
142
0.0
142
1.0
142
0.0
142
0.0
142
0.0
142
0.0
142
1.0
179
     0
144
0.0208333333333333
144
0.0
144
0.0
144
0.0
144
0.0
144
0.0208333333333333
144
0.0
144
0.0
144
0.0
144
0.0
144
1.0
144
0.0
144
0.0
144
0.0
144
0.0
144
1.0
147
0.0208333333333333
147
0.0
147
0.0
147
0.0
147
0.0
147
0.0208333333333333
147
0.0
147
0.0
147
0.0
147
0.0
147
1.0
147
0.0
147
0.0
147
0.0
147
0.0
147
1.0
  0
MATERIAL
  5
21
102
{ACAD_XDICTIONARY
360
22
102
}
102
{ACAD_REACTORS
330
10
102
}
330
10
100
AcDbMaterial
  1
Global
 72
     0
 43
0.0208333333333333
 43
0.0
 43
0.0
 43
0.0
 43
0.0
 43
0.0208333333333333
 43
0.0
 43
0.0
 43
0.0
 43
0.0
 43
1.0
 43
0.0
 43
0.0
 43
0.0
 43
0.0
 43
1.0
 77
     0
 47
0.0208333333333333
 47
0.0
 47
0.0
 47
0.0
 47
0.0
 47
0.0208333333333333
 47
0.0
 47
0.0
 47
0.0
 47
0.0
 47
1.0
 47
0.0
 47
0.0
 47
0.0
 47
0.0
 47
1.0
171
     0
 49
0.0208333333333333
 49
0.0
 49
0.0
 49
0.0
 49
0.0
 49
0.0208333333333333
 49
0.0
 49
0.0
 49
0.0
 49
0.0
 49
1.0
 49
0.0
 49
0.0
 49
0.0
 49
0.0
 49
1.0
175
     0
142
0.0208333333333333
142
0.0
142
0.0
142
0.0
142
0.0
142
0.0208333333333333
142
0.0
142
0.0
142
0.0
142
0.0
142
1.0
142
0.0
142
0.0
142
0.0
142
0.0
142
1.0
179
     0
144
0.0208333333333333
144
0.0
144
0.0
144
0.0
144
0.0
144
0.0208333333333333
144
0.0
144
0.0
144
0.0
144
0.0
144
1.0
144
0.0
144
0.0
144
0.0
144
0.0
144
1.0
147
0.0208333333333333
147
0.0
147
0.0
147
0.0
147
0.0
147
0.0208333333333333
147
0.0
147
0.0
147
0.0
147
0.0
147
1.0
147
0.0
147
0.0
147
0.0
147
0.0
147
1.0
  0
MLEADERSTYLE
  5
67
102
{ACAD_REACTORS
330
66
102
}
330
66
100
AcDbMLeaderStyle
179
     2
170
     2
171
     1
172
     0
 90
        2
 40
0.0
 41
0.0
173
     1
 91
-1056964608
340
5B
 92
       -2
290
     1
 42
0.09
291
     1
 43
0.36
  3
Standard
 44
0.18
300

342
55
174
     1
178
     6
175
     1
176
     0
 93
-1056964608
 45
0.18
292
     0
297
     0
 46
0.18
 94
-1056964608
 47
1.0
 49
1.0
140
1.0
293
     1
141
0.0
294
     1
177
     0
142
1.0
295
     1
296
     0
143
0.125
271
     0
272
     9
273
     9
298
     1
  0
MLINESTYLE
  5
60
102
{ACAD_REACTORS
330
5F
102
}
330
5F
100
AcDbMlineStyle
  2
STANDARD
 70
     0
  3

 62
   256
 51
90.0
 52
90.0
 71
     2
 49
0.5
 62
   256
  6
BYLAYER
 49
-0.5
 62
   256
  6
BYLAYER
  0
ACDBPLACEHOLDER
  5
F
102
{ACAD_REACTORS
330
E
102
}
330
E
  0
SCALE
  5
43
102
{ACAD_REACTORS
330
42
102
}
330
42
100
AcDbScale
 70
     0
300
1:1
140
1.0
141
1.0
290
     1
  0
SCALE
  5
44
102
{ACAD_REACTORS
330
42
102
}
330
42
100
AcDbScale
 70
     0
300
1/128" = 1'-0"
140
0.0078125
141
12.0
290
     0
  0
SCALE
  5
45
102
{ACAD_REACTORS
330
42
102
}
330
42
100
AcDbScale
 70
     0
300
1/64" = 1'-0"
140
0.015625
141
12.0
290
     0
  0
SCALE
  5
46
102
{ACAD_REACTORS
330
42
102
}
330
42
100
AcDbScale
 70
     0
300
1/32" = 1'-0"
140
0.03125
141
12.0
290
     0
  0
SCALE
  5
47
102
{ACAD_REACTORS
330
42
102
}
330
42
100
AcDbScale
 70
     0
300
1/16" = 1'-0"
140
0.0625
141
12.0
290
     0
  0
SCALE
  5
48
102
{ACAD_REACTORS
330
42
102
}
330
42
100
AcDbScale
 70
     0
300
3/32" = 1'-0"
140
0.09375
141
12.0
290
     0
  0
SCALE
  5
49
102
{ACAD_REACTORS
330
42
102
}
330
42
100
AcDbScale
 70
     0
300
1/8" = 1'-0"
140
0.125
141
12.0
290
     0
  0
SCALE
  5
4A
102
{ACAD_REACTORS
330
42
102
}
330
42
100
AcDbScale
 70
     0
300
3/16" = 1'-0"
140
0.1875
141
12.0
290
     0
  0
SCALE
  5
4B
102
{ACAD_REACTORS
330
42
102
}
330
42
100
AcDbScale
 70
     0
300
1/4" = 1'-0"
140
0.25
141
12.0
290
     0
  0
SCALE
  5
4C
102
{ACAD_REACTORS
330
42
102
}
330
42
100
AcDbScale
 70
     0
300
3/8" = 1'-0"
140
0.375
141
12.0
290
     0
  0
SCALE
  5
4D
102
{ACAD_REACTORS
330
42
102
}
330
42
100
AcDbScale
 70
     0
300
1/2" = 1'-0"
140
0.5
141
12.0
290
     0
  0
SCALE
  5
4E
102
{ACAD_REACTORS
330
42
102
}
330
42
100
AcDbScale
 70
     0
300
3/4" = 1'-0"
140
0.75
141
12.0
290
     0
  0
SCALE
  5
4F
102
{ACAD_REACTORS
330
42
102
}
330
42
100
AcDbScale
 70
     0
300
1" = 1'-0"
140
1.0
141
12.0
290
     0
  0
SCALE
  5
50
102
{ACAD_REACTORS
330
42
102
}
330
42
100
AcDbScale
 70
     0
300
1-1/2" = 1'-0"
140
1.5
141
12.0
290
     0
  0
SCALE
  5
51
102
{ACAD_REACTORS
330
42
102
}
330
42
100
AcDbScale
 70
     0
300
3" = 1'-0"
140
3.0
141
12.0
290
     0
  0
SCALE
  5
52
102
{ACAD_REACTORS
330
42
102
}
330
42
100
AcDbScale
 70
     0
300
6" = 1'-0"
140
6.0
141
12.0
290
     0
  0
SCALE
  5
53
102
{ACAD_REACTORS
330
42
102
}
330
42
100
AcDbScale
 70
     0
300
1'-0" = 1'-0"
140
12.0
141
12.0
290
     0
  0
ACDBSECTIONVIEWSTYLE
  5
69
102
{ACAD_REACTORS
330
68
102
}
330
68
100
AcDbModelDocViewStyle
 70
     0
  3
Imperial24
290
     1
300
Imperial24
 90
        0
100
AcDbSectionViewStyle
 70
     0
 71
     0
 90
       78
 71
     1
340
55
 62
   256
 40
0.24
340
0
340
0
 62
   256
 40
0.24
300
I, O, Q, S, X, Z
 40
0.48
 90
        3
 40
0.18
 90
        1
 71
     2
340
5D
 90
       25
 62
   256
340
5D
 90
       50
 62
   256
 40
0.24
 40
0.0
 40
0.24
 71
     3
340
55
 62
   256
 40
0.24
 90
        1
 40
0.75
 90
        1
300
%<\AcVar ViewType \f "%tc1">% %<\AcVar ViewSectionStartId>%-%<\AcVar ViewSectionEndId>%\PSCALE %<\AcVar ViewScale \f "%sn">%
 71
     4
 62
   256
 62
   257
300
ANSI31
 40
1.0
 90
        0
290
     0
290
     0
 90
        6
 40
0.0
 40
1.570796326794896
 40
0.2617993877991494
 40
1.308996938995747
 40
-0.2617993877991494
 40
1.832595714594046
  0
TABLESTYLE
  5
65
102
{ACAD_XDICTIONARY
360
2F9
102
}
102
{ACAD_REACTORS
330
64
102
}
330
64
100
AcDbTableStyle
280
     0
  3
Standard
 70
     0
 71
     0
 40
0.06
 41
0.06
280
     0
281
     0
  7
Standard
140
0.18
170
     2
 62
     0
 63
     7
283
     0
 90
      512
 91
        0
  1

274
    -2
284
     1
 64
     0
275
    -2
285
     1
 65
     0
276
    -2
286
     1
 66
     0
277
    -2
287
     1
 67
     0
278
    -2
288
     1
 68
     0
279
    -2
289
     1
 69
     0
  7
Standard
140
0.25
170
     5
 62
     0
 63
     7
283
     0
 90
      512
 91
        0
  1

274
    -2
284
     1
 64
     0
275
    -2
285
     1
 65
     0
276
    -2
286
     1
 66
     0
277
    -2
287
     1
 67
     0
278
    -2
288
     1
 68
     0
279
    -2
289
     1
 69
     0
  7
Standard
140
0.18
170
     5
 62
     0
 63
     7
283
     0
 90
      512
 91
        0
  1

274
    -2
284
     1
 64
     0
275
    -2
285
     1
 65
     0
276
    -2
286
     1
 66
     0
277
    -2
287
     1
 67
     0
278
    -2
288
     1
 68
     0
279
    -2
289
     1
 69
     0
  0
VISUALSTYLE
  5
2F
102
{ACAD_REACTORS
330
29
102
}
330
29
100
AcDbVisualStyle
  2
2dWireframe
 70
     4
177
     3
291
     0
 70
    58
 90
        0
176
     1
 90
        2
176
     1
 90
        0
176
     1
 90
        0
176
     1
 40
0.6
176
     1
 40
30.0
176
     1
 62
     7
420
 16777215
176
     1
 90
        1
176
     1
 90
        4
176
     1
 62
     7
176
     1
 62
   257
176
     1
 90
        1
176
     1
 90
        1
176
     1
 40
1.0
176
     1
 90
        0
176
     1
 62
   257
176
     1
 40
1.0
176
     1
 90
        1
176
     1
 90
        6
176
     1
 90
        2
176
     1
 62
     7
176
     1
 90
        5
176
     1
 90
        0
176
     1
 90
        0
176
     1
290
     0
176
     1
 90
        1
176
     1
 40
0.0
176
     1
 90
        0
176
     1
290
     1
176
     1
290
     1
176
     1
290
     0
176
     1
290
     0
176
     1
290
     0
176
     1
290
     0
176
     1
290
     0
176
     1
290
     0
176
     1
290
     0
176
     1
 90
       50
176
     1
 40
0.0
176
     1
 40
1.0
176
     1
 90
        0
176
     1
 62
    18
420
        0
176
     1
 90
       50
176
     1
 90
        3
176
     1
 62
     5
420
      255
176
     1
290
     0
176
     1
 90
       50
176
     1
 90
       50
176
     1
 90
       50
176
     1
290
     0
176
     1
 90
       50
176
     1
 62
   256
176
     0
 40
1.0
176
     0
 90
        2
176
     1
  1
strokes_ogs.tif
176
     1
290
     0
176
     1
 40
1.0
176
     1
 40
1.0
176
     1
  0
VISUALSTYLE
  5
2E
102
{ACAD_REACTORS
330
29
102
}
330
29
100
AcDbVisualStyle
  2
Basic
 70
     7
177
     3
291
     1
 70
    58
 90
        1
176
     1
 90
        0
176
     1
 90
        1
176
     1
 90
        0
176
     1
 40
0.6
176
     1
 40
30.0
176
     1
 62
     7
420
 16777215
176
     1
 90
        0
176
     1
 90
        4
176
     1
 62
     7
176
     1
 62
   257
176
     1
 90
        1
176
     1
 90
        1
176
     1
 40
1.0
176
     1
 90
        8
176
     1
 62
     7
176
     1
 40
1.0
176
     1
 90
        1
176
     1
 90
        6
176
     1
 90
        2
176
     1
 62
     7
176
     1
 90
        5
176
     1
 90
        0
176
     1
 90
        0
176
     1
290
     0
176
     1
 90
        1
176
     1
 40
0.0
176
     1
 90
        0
176
     1
290
     0
176
     1
290
     1
176
     1
290
     1
176
     1
290
     0
176
     1
290
     0
176
     1
290
     0
176
     1
290
     0
176
     1
290
     0
176
     1
290
     0
176
     1
 90
       50
176
     1
 40
0.0
176
     1
 40
1.0
176
     1
 90
        0
176
     1
 62
    18
420
        0
176
     1
 90
       50
176
     1
 90
        3
176
     1
 62
     5
420
      255
176
     1
290
     0
176
     1
 90
       50
176
     1
 90
       50
176
     1
 90
       50
176
     1
290
     0
176
     1
 90
       50
176
     1
 62
   256
176
     0
 40
1.0
176
     0
 90
        2
176
     1
  1
strokes_ogs.tif
176
     1
290
     0
176
     1
 40
1.0
176
     1
 40
1.0
176
     1
  0
VISUALSTYLE
  5
35
102
{ACAD_REACTORS
330
29
102
}
330
29
100
AcDbVisualStyle
  2
Brighten
 70
    12
177
     3
291
     1
 70
    58
 90
        2
176
     1
 90
        2
176
     1
 90
        0
176
     1
 90
        0
176
     1
 40
0.6
176
     1
 40
30.0
176
     1
 62
     7
420
 16777215
176
     1
 90
        1
176
     1
 90
        4
176
     1
 62
     7
176
     1
 62
   257
176
     1
 90
        1
176
     1
 90
        1
176
     1
 40
1.0
176
     1
 90
        8
176
     1
 62
     7
176
     1
 40
1.0
176
     1
 90
        1
176
     1
 90
        6
176
     1
 90
        2
176
     1
 62
     7
176
     1
 90
        5
176
     1
 90
        0
176
     1
 90
        0
176
     1
290
     0
176
     1
 90
        1
176
     1
 40
50.0
176
     1
 90
        0
176
     1
290
     0
176
     1
290
     1
176
     1
290
     1
176
     1
290
     0
176
     1
290
     0
176
     1
290
     0
176
     1
290
     0
176
     1
290
     0
176
     1
290
     0
176
     1
 90
       50
176
     1
 40
0.0
176
     1
 40
1.0
176
     1
 90
        0
176
     1
 62
    18
420
        0
176
     1
 90
       50
176
     1
 90
        3
176
     1
 62
     5
420
      255
176
     1
290
     0
176
     1
 90
       50
176
     1
 90
       50
176
     1
 90
       50
176
     1
290
     0
176
     1
 90
       50
176
     1
 62
   256
176
     0
 40
1.0
176
     0
 90
        2
176
     1
  1
strokes_ogs.tif
176
     1
290
     0
176
     1
 40
1.0
176
     1
 40
1.0
176
     1
  0
VISUALSTYLE
  5
39
102
{ACAD_REACTORS
330
29
102
}
330
29
100
AcDbVisualStyle
  2
ColorChange
 70
    16
177
     3
291
     1
 70
    58
 90
        2
176
     1
 90
        2
176
     1
 90
        3
176
     1
 90
        0
176
     1
 40
0.6
176
     1
 40
30.0
176
     1
 62
     8
420
  8421504
176
     1
 90
        1
176
     1
 90
        4
176
     1
 62
     7
176
     1
 62
   257
176
     1
 90
        1
176
     1
 90
        1
176
     1
 40
1.0
176
     1
 90
        8
176
     1
 62
     8
420
  8421504
176
     1
 40
1.0
176
     1
 90
        1
176
     1
 90
        6
176
     1
 90
        2
176
     1
 62
     7
176
     1
 90
        5
176
     1
 90
        0
176
     1
 90
        0
176
     1
290
     0
176
     1
 90
        1
176
     1
 40
0.0
176
     1
 90
        0
176
     1
290
     0
176
     1
290
     1
176
     1
290
     1
176
     1
290
     0
176
     1
290
     0
176
     1
290
     0
176
     1
290
     0
176
     1
290
     0
176
     1
290
     0
176
     1
 90
       50
176
     1
 40
0.0
176
     1
 40
1.0
176
     1
 90
        0
176
     1
 62
    18
420
        0
176
     1
 90
       50
176
     1
 90
        3
176
     1
 62
     5
420
      255
176
     1
290
     0
176
     1
 90
       50
176
     1
 90
       50
176
     1
 90
       50
176
     1
290
     0
176
     1
 90
       50
176
     1
 62
   256
176
     0
 40
1.0
176
     0
 90
        2
176
     1
  1
strokes_ogs.tif
176
     1
290
     0
176
     1
 40
1.0
176
     1
 40
1.0
176
     1
  0
VISUALSTYLE
  5
32
102
{ACAD_REACTORS
330
29
102
}
330
29
100
AcDbVisualStyle
  2
Conceptual
 70
     9
177
     3
291
     0
 70
    58
 90
        3
176
     1
 90
        2
176
     1
 90
        0
176
     1
 90
        0
176
     1
 40
0.6
176
     1
 40
30.0
176
     1
 62
     7
420
 16777215
176
     1
 90
        2
176
     1
 90
        2
176
     1
 62
     7
176
     1
 62
   257
176
     1
 90
        1
176
     1
 90
        1
176
     1
 40
179.0
176
     1
 90
        8
176
     1
 62
     7
176
     1
 40
1.0
176
     1
 90
        1
176
     1
 90
        6
176
     1
 90
        2
176
     1
 62
     7
176
     1
 90
        3
176
     1
 90
        0
176
     1
 90
        0
176
     1
290
     0
176
     1
 90
        1
176
     1
 40
0.0
176
     1
 90
        0
176
     1
290
     0
176
     1
290
     1
176
     1
290
     1
176
     1
290
     0
176
     1
290
     0
176
     1
290
     0
176
     1
290
     0
176
     1
290
     0
176
     1
290
     0
176
     1
 90
       50
176
     1
 40
0.0
176
     1
 40
1.0
176
     1
 90
        0
176
     1
 62
    18
420
        0
176
     1
 90
       50
176
     1
 90
        3
176
     1
 62
     5
420
      255
176
     1
290
     0
176
     1
 90
       50
176
     1
 90
       50
176
     1
 90
       50
176
     1
290
     0
176
     1
 90
       50
176
     1
 62
   256
176
     0
 40
1.0
176
     0
 90
        2
176
     1
  1
strokes_ogs.tif
176
     1
290
     0
176
     1
 40
1.0
176
     1
 40
1.0
176
     1
  0
VISUALSTYLE
  5
34
102
{ACAD_REACTORS
330
29
102
}
330
29
100
AcDbVisualStyle
  2
Dim
 70
    11
177
     3
291
     1
 70
    58
 90
        2
176
     1
 90
        2
176
     1
 90
        0
176
     1
 90
        0
176
     1
 40
0.6
176
     1
 40
30.0
176
     1
 62
     7
420
 16777215
176
     1
 90
        1
176
     1
 90
        4
176
     1
 62
     7
176
     1
 62
   257
176
     1
 90
        1
176
     1
 90
        1
176
     1
 40
1.0
176
     1
 90
        8
176
     1
 62
     7
176
     1
 40
1.0
176
     1
 90
        1
176
     1
 90
        6
176
     1
 90
        2
176
     1
 62
     7
176
     1
 90
        5
176
     1
 90
        0
176
     1
 90
        0
176
     1
290
     0
176
     1
 90
        1
176
     1
 40
-50.0
176
     1
 90
        0
176
     1
290
     0
176
     1
290
     1
176
     1
290
     1
176
     1
290
     0
176
     1
290
     0
176
     1
290
     0
176
     1
290
     0
176
     1
290
     0
176
     1
290
     0
176
     1
 90
       50
176
     1
 40
0.0
176
     1
 40
1.0
176
     1
 90
        0
176
     1
 62
    18
420
        0
176
     1
 90
       50
176
     1
 90
        3
176
     1
 62
     5
420
      255
176
     1
290
     0
176
     1
 90
       50
176
     1
 90
       50
176
     1
 90
       50
176
     1
290
     0
176
     1
 90
       50
176
     1
 62
   256
176
     0
 40
1.0
176
     0
 90
        2
176
     1
  1
strokes_ogs.tif
176
     1
290
     0
176
     1
 40
1.0
176
     1
 40
1.0
176
     1
  0
VISUALSTYLE
  5
41
102
{ACAD_REACTORS
330
29
102
}
330
29
100
AcDbVisualStyle
  2
EdgeColorOff
 70
    22
177
     3
291
     1
 70
    58
 90
        2
176
     0
 90
        2
176
     0
 90
        0
176
     0
 90
        0
176
     0
 40
0.6
176
     0
 40
30.0
176
     0
 62
     7
420
 16777215
176
     0
 90
        1
176
     0
 90
        4
176
     0
 62
     7
176
     0
 62
   257
176
     0
 90
        1
176
     0
 90
        1
176
     0
 40
1.0
176
     0
 90
        8
176
     2
 62
     7
176
     0
 40
1.0
176
     0
 90
        1
176
     0
 90
        6
176
     0
 90
        2
176
     0
 62
     7
176
     0
 90
        5
176
     0
 90
        0
176
     0
 90
        0
176
     0
290
     0
176
     0
 90
        1
176
     0
 40
0.0
176
     0
 90
        0
176
     0
290
     0
176
     0
290
     1
176
     0
290
     1
176
     0
290
     0
176
     0
290
     0
176
     0
290
     0
176
     0
290
     0
176
     0
290
     0
176
     0
290
     0
176
     0
 90
       50
176
     0
 40
0.0
176
     0
 40
1.0
176
     0
 90
        0
176
     0
 62
    18
420
        0
176
     0
 90
       50
176
     0
 90
        3
176
     0
 62
     5
420
      255
176
     0
290
     0
176
     0
 90
       50
176
     0
 90
       50
176
     0
 90
       50
176
     0
290
     0
176
     0
 90
       50
176
     0
 62
   256
176
     0
 40
1.0
176
     0
 90
        2
176
     0
  1
strokes_ogs.tif
176
     0
290
     0
176
     0
 40
1.0
176
     0
 40
1.0
176
     0
  0
VISUALSTYLE
  5
38
102
{ACAD_REACTORS
330
29
102
}
330
29
100
AcDbVisualStyle
  2
Facepattern
 70
    15
177
     3
291
     1
 70
    58
 90
        2
176
     1
 90
        2
176
     1
 90
        0
176
     1
 90
        0
176
     1
 40
0.6
176
     1
 40
30.0
176
     1
 62
     7
420
 16777215
176
     1
 90
        1
176
     1
 90
        4
176
     1
 62
     7
176
     1
 62
   257
176
     1
 90
        1
176
     1
 90
        1
176
     1
 40
1.0
176
     1
 90
        8
176
     1
 62
     7
176
     1
 40
1.0
176
     1
 90
        1
176
     1
 90
        6
176
     1
 90
        2
176
     1
 62
     7
176
     1
 90
        5
176
     1
 90
        0
176
     1
 90
        0
176
     1
290
     0
176
     1
 90
        1
176
     1
 40
0.0
176
     1
 90
        0
176
     1
290
     0
176
     1
290
     1
176
     1
290
     1
176
     1
290
     0
176
     1
290
     0
176
     1
290
     0
176
     1
290
     0
176
     1
290
     0
176
     1
290
     0
176
     1
 90
       50
176
     1
 40
0.0
176
     1
 40
1.0
176
     1
 90
        0
176
     1
 62
    18
420
        0
176
     1
 90
       50
176
     1
 90
        3
176
     1
 62
     5
420
      255
176
     1
290
     0
176
     1
 90
       50
176
     1
 90
       50
176
     1
 90
       50
176
     1
290
     0
176
     1
 90
       50
176
     1
 62
   256
176
     0
 40
1.0
176
     0
 90
        2
176
     1
  1
strokes_ogs.tif
176
     1
290
     0
176
     1
 40
1.0
176
     1
 40
1.0
176
     1
  0
VISUALSTYLE
  5
2A
102
{ACAD_REACTORS
330
29
102
}
330
29
100
AcDbVisualStyle
  2
Flat
 70
     0
177
     3
291
     1
 70
    58
 90
        2
176
     1
 90
        1
176
     1
 90
        1
176
     1
 90
        2
176
     1
 40
0.6
176
     1
 40
30.0
176
     1
 62
     7
420
 16777215
176
     1
 90
        0
176
     1
 90
        0
176
     1
 62
     7
176
     1
 62
   257
176
     1
 90
        1
176
     1
 90
        1
176
     1
 40
1.0
176
     1
 90
        8
176
     1
 62
     7
176
     1
 40
1.0
176
     1
 90
        1
176
     1
 90
        6
176
     1
 90
        2
176
     1
 62
     7
176
     1
 90
        5
176
     1
 90
        0
176
     1
 90
        0
176
     1
290
     0
176
     1
 90
       13
176
     1
 40
0.0
176
     1
 90
        0
176
     1
290
     0
176
     1
290
     1
176
     1
290
     1
176
     1
290
     0
176
     1
290
     0
176
     1
290
     0
176
     1
290
     0
176
     1
290
     0
176
     1
290
     0
176
     1
 90
       50
176
     1
 40
0.0
176
     1
 40
1.0
176
     1
 90
        0
176
     1
 62
    18
420
        0
176
     1
 90
       50
176
     1
 90
        3
176
     1
 62
     5
420
      255
176
     1
290
     0
176
     1
 90
       50
176
     1
 90
       50
176
     1
 90
       50
176
     1
290
     0
176
     1
 90
       50
176
     1
 62
   256
176
     0
 40
1.0
176
     0
 90
        2
176
     1
  1
strokes_ogs.tif
176
     1
290
     0
176
     1
 40
1.0
176
     1
 40
1.0
176
     1
  0
VISUALSTYLE
  5
2B
102
{ACAD_REACTORS
330
29
102
}
330
29
100
AcDbVisualStyle
  2
FlatWithEdges
 70
     1
177
     3
291
     1
 70
    58
 90
        2
176
     1
 90
        1
176
     1
 90
        1
176
     1
 90
        2
176
     1
 40
0.6
176
     1
 40
30.0
176
     1
 62
     7
420
 16777215
176
     1
 90
        1
176
     1
 90
        0
176
     1
 62
     7
176
     1
 62
   257
176
     1
 90
        1
176
     1
 90
        1
176
     1
 40
1.0
176
     1
 90
        0
176
     1
 62
   257
176
     1
 40
1.0
176
     1
 90
        1
176
     1
 90
        6
176
     1
 90
        2
176
     1
 62
     7
176
     1
 90
        5
176
     1
 90
        0
176
     1
 90
        0
176
     1
290
     0
176
     1
 90
       13
176
     1
 40
0.0
176
     1
 90
        0
176
     1
290
     0
176
     1
290
     1
176
     1
290
     1
176
     1
290
     0
176
     1
290
     0
176
     1
290
     0
176
     1
290
     0
176
     1
290
     0
176
     1
290
     0
176
     1
 90
       50
176
     1
 40
0.0
176
     1
 40
1.0
176
     1
 90
        0
176
     1
 62
    18
420
        0
176
     1
 90
       50
176
     1
 90
        3
176
     1
 62
     5
420
      255
176
     1
290
     0
176
     1
 90
       50
176
     1
 90
       50
176
     1
 90
       50
176
     1
290
     0
176
     1
 90
       50
176
     1
 62
   256
176
     0
 40
1.0
176
     0
 90
        2
176
     1
  1
strokes_ogs.tif
176
     1
290
     0
176
     1
 40
1.0
176
     1
 40
1.0
176
     1
  0
VISUALSTYLE
  5
2C
102
{ACAD_REACTORS
330
29
102
}
330
29
100
AcDbVisualStyle
  2
Gouraud
 70
     2
177
     3
291
     1
 70
    58
 90
        2
176
     1
 90
        2
176
     1
 90
        1
176
     1
 90
        2
176
     1
 40
0.6
176
     1
 40
30.0
176
     1
 62
     7
420
 16777215
176
     1
 90
        0
176
     1
 90
        0
176
     1
 62
     7
176
     1
 62
   257
176
     1
 90
        1
176
     1
 90
        1
176
     1
 40
1.0
176
     1
 90
        0
176
     1
 62
     7
176
     1
 40
1.0
176
     1
 90
        1
176
     1
 90
        6
176
     1
 90
        2
176
     1
 62
     7
176
     1
 90
        5
176
     1
 90
        0
176
     1
 90
        0
176
     1
290
     0
176
     1
 90
       13
176
     1
 40
0.0
176
     1
 90
        0
176
     1
290
     0
176
     1
290
     1
176
     1
290
     1
176
     1
290
     0
176
     1
290
     0
176
     1
290
     0
176
     1
290
     0
176
     1
290
     0
176
     1
290
     0
176
     1
 90
       50
176
     1
 40
0.0
176
     1
 40
1.0
176
     1
 90
        0
176
     1
 62
    18
420
        0
176
     1
 90
       50
176
     1
 90
        3
176
     1
 62
     5
420
      255
176
     1
290
     0
176
     1
 90
       50
176
     1
 90
       50
176
     1
 90
       50
176
     1
290
     0
176
     1
 90
       50
176
     1
 62
   256
176
     0
 40
1.0
176
     0
 90
        2
176
     1
  1
strokes_ogs.tif
176
     1
290
     0
176
     1
 40
1.0
176
     1
 40
1.0
176
     1
  0
VISUALSTYLE
  5
2D
102
{ACAD_REACTORS
330
29
102
}
330
29
100
AcDbVisualStyle
  2
GouraudWithEdges
 70
     3
177
     3
291
     1
 70
    58
 90
        2
176
     1
 90
        2
176
     1
 90
        1
176
     1
 90
        2
176
     1
 40
0.6
176
     1
 40
30.0
176
     1
 62
     7
420
 16777215
176
     1
 90
        1
176
     1
 90
        0
176
     1
 62
     7
176
     1
 62
   257
176
     1
 90
        1
176
     1
 90
        1
176
     1
 40
1.0
176
     1
 90
        0
176
     1
 62
   257
176
     1
 40
1.0
176
     1
 90
        1
176
     1
 90
        6
176
     1
 90
        2
176
     1
 62
     7
176
     1
 90
        5
176
     1
 90
        0
176
     1
 90
        0
176
     1
290
     0
176
     1
 90
       13
176
     1
 40
0.0
176
     1
 90
        0
176
     1
290
     0
176
     1
290
     1
176
     1
290
     1
176
     1
290
     0
176
     1
290
     0
176
     1
290
     0
176
     1
290
     0
176
     1
290
     0
176
     1
290
     0
176
     1
 90
       50
176
     1
 40
0.0
176
     1
 40
1.0
176
     1
 90
        0
176
     1
 62
    18
420
        0
176
     1
 90
       50
176
     1
 90
        3
176
     1
 62
     5
420
      255
176
     1
290
     0
176
     1
 90
       50
176
     1
 90
       50
176
     1
 90
       50
176
     1
290
     0
176
     1
 90
       50
176
     1
 62
   256
176
     0
 40
1.0
176
     0
 90
        2
176
     1
  1
strokes_ogs.tif
176
     1
290
     0
176
     1
 40
1.0
176
     1
 40
1.0
176
     1
  0
VISUALSTYLE
  5
31
102
{ACAD_REACTORS
330
29
102
}
330
29
100
AcDbVisualStyle
  2
Hidden
 70
     6
177
     3
291
     0
 70
    58
 90
        1
176
     1
 90
        2
176
     1
 90
        2
176
     1
 90
        0
176
     1
 40
0.6
176
     1
 40
30.0
176
     1
 62
     7
420
 16777215
176
     1
 90
        2
176
     1
 90
        2
176
     1
 62
     7
176
     1
 62
   257
176
     1
 90
        2
176
     1
 90
        1
176
     1
 40
40.0
176
     1
 90
        0
176
     1
 62
   257
176
     1
 40
1.0
176
     1
 90
        1
176
     1
 90
        6
176
     1
 90
        2
176
     1
 62
     7
176
     1
 90
        3
176
     1
 90
        0
176
     1
 90
        0
176
     1
290
     0
176
     1
 90
        1
176
     1
 40
0.0
176
     1
 90
        0
176
     1
290
     0
176
     1
290
     1
176
     1
290
     1
176
     1
290
     0
176
     1
290
     0
176
     1
290
     0
176
     1
290
     0
176
     1
290
     0
176
     1
290
     0
176
     1
 90
       50
176
     1
 40
0.0
176
     1
 40
1.0
176
     1
 90
        0
176
     1
 62
    18
420
        0
176
     1
 90
       50
176
     1
 90
        3
176
     1
 62
     5
420
      255
176
     1
290
     0
176
     1
 90
       50
176
     1
 90
       50
176
     1
 90
       50
176
     1
290
     0
176
     1
 90
       50
176
     1
 62
   256
176
     0
 40
1.0
176
     0
 90
        2
176
     1
  1
strokes_ogs.tif
176
     1
290
     0
176
     1
 40
1.0
176
     1
 40
1.0
176
     1
  0
VISUALSTYLE
  5
3F
102
{ACAD_REACTORS
330
29
102
}
330
29
100
AcDbVisualStyle
  2
JitterOff
 70
    20
177
     3
291
     1
 70
    58
 90
        2
176
     0
 90
        2
176
     0
 90
        0
176
     0
 90
        0
176
     0
 40
0.6
176
     0
 40
30.0
176
     0
 62
     7
420
 16777215
176
     0
 90
        1
176
     0
 90
        4
176
     0
 62
     7
176
     0
 62
   257
176
     0
 90
        1
176
     0
 90
        1
176
     0
 40
1.0
176
     0
 90
       10
176
     2
 62
     7
176
     0
 40
1.0
176
     0
 90
        1
176
     0
 90
        6
176
     0
 90
        2
176
     0
 62
     7
176
     0
 90
        5
176
     0
 90
        0
176
     0
 90
        0
176
     0
290
     0
176
     0
 90
        1
176
     0
 40
0.0
176
     0
 90
        0
176
     0
290
     0
176
     0
290
     1
176
     0
290
     1
176
     0
290
     0
176
     0
290
     0
176
     0
290
     0
176
     0
290
     0
176
     0
290
     0
176
     0
290
     0
176
     0
 90
       50
176
     0
 40
0.0
176
     0
 40
1.0
176
     0
 90
        0
176
     0
 62
    18
420
        0
176
     0
 90
       50
176
     0
 90
        3
176
     0
 62
     5
420
      255
176
     0
290
     0
176
     0
 90
       50
176
     0
 90
       50
176
     0
 90
       50
176
     0
290
     0
176
     0
 90
       50
176
     0
 62
   256
176
     0
 40
1.0
176
     0
 90
        2
176
     0
  1
strokes_ogs.tif
176
     0
290
     0
176
     0
 40
1.0
176
     0
 40
1.0
176
     0
  0
VISUALSTYLE
  5
37
102
{ACAD_REACTORS
330
29
102
}
330
29
100
AcDbVisualStyle
  2
Linepattern
 70
    14
177
     3
291
     1
 70
    58
 90
        2
176
     1
 90
        2
176
     1
 90
        0
176
     1
 90
        0
176
     1
 40
0.6
176
     1
 40
30.0
176
     1
 62
     7
420
 16777215
176
     1
 90
        1
176
     1
 90
        4
176
     1
 62
     7
176
     1
 62
   257
176
     1
 90
        7
176
     1
 90
        7
176
     1
 40
1.0
176
     1
 90
        8
176
     1
 62
     7
176
     1
 40
1.0
176
     1
 90
        1
176
     1
 90
        6
176
     1
 90
        2
176
     1
 62
     7
176
     1
 90
        5
176
     1
 90
        0
176
     1
 90
        0
176
     1
290
     0
176
     1
 90
        1
176
     1
 40
0.0
176
     1
 90
        0
176
     1
290
     0
176
     1
290
     1
176
     1
290
     1
176
     1
290
     0
176
     1
290
     0
176
     1
290
     0
176
     1
290
     0
176
     1
290
     0
176
     1
290
     0
176
     1
 90
       50
176
     1
 40
0.0
176
     1
 40
1.0
176
     1
 90
        0
176
     1
 62
    18
420
        0
176
     1
 90
       50
176
     1
 90
        3
176
     1
 62
     5
420
      255
176
     1
290
     0
176
     1
 90
       50
176
     1
 90
       50
176
     1
 90
       50
176
     1
290
     0
176
     1
 90
       50
176
     1
 62
   256
176
     0
 40
1.0
176
     0
 90
        2
176
     1
  1
strokes_ogs.tif
176
     1
290
     0
176
     1
 40
1.0
176
     1
 40
1.0
176
     1
  0
VISUALSTYLE
  5
40
102
{ACAD_REACTORS
330
29
102
}
330
29
100
AcDbVisualStyle
  2
OverhangOff
 70
    21
177
     3
291
     1
 70
    58
 90
        2
176
     0
 90
        2
176
     0
 90
        0
176
     0
 90
        0
176
     0
 40
0.6
176
     0
 40
30.0
176
     0
 62
     7
420
 16777215
176
     0
 90
        1
176
     0
 90
        4
176
     0
 62
     7
176
     0
 62
   257
176
     0
 90
        1
176
     0
 90
        1
176
     0
 40
1.0
176
     0
 90
        9
176
     2
 62
     7
176
     0
 40
1.0
176
     0
 90
        1
176
     0
 90
        6
176
     0
 90
        2
176
     0
 62
     7
176
     0
 90
        5
176
     0
 90
        0
176
     0
 90
        0
176
     0
290
     0
176
     0
 90
        1
176
     0
 40
0.0
176
     0
 90
        0
176
     0
290
     0
176
     0
290
     1
176
     0
290
     1
176
     0
290
     0
176
     0
290
     0
176
     0
290
     0
176
     0
290
     0
176
     0
290
     0
176
     0
290
     0
176
     0
 90
       50
176
     0
 40
0.0
176
     0
 40
1.0
176
     0
 90
        0
176
     0
 62
    18
420
        0
176
     0
 90
       50
176
     0
 90
        3
176
     0
 62
     5
420
      255
176
     0
290
     0
176
     0
 90
       50
176
     0
 90
       50
176
     0
 90
       50
176
     0
290
     0
176
     0
 90
       50
176
     0
 62
   256
176
     0
 40
1.0
176
     0
 90
        2
176
     0
  1
strokes_ogs.tif
176
     0
290
     0
176
     0
 40
1.0
176
     0
 40
1.0
176
     0
  0
VISUALSTYLE
  5
33
102
{ACAD_REACTORS
330
29
102
}
330
29
100
AcDbVisualStyle
  2
Realistic
 70
     8
177
     3
291
     0
 70
    58
 90
        2
176
     1
 90
        3
176
     1
 90
        0
176
     1
 90
        2
176
     1
 40
0.6
176
     1
 40
30.0
176
     1
 62
     7
420
 16777215
176
     1
 90
        0
176
     1
 90
        0
176
     1
 62
     7
176
     1
 62
   257
176
     1
 90
        1
176
     1
 90
        1
176
     1
 40
1.0
176
     1
 90
        8
176
     1
 62
   257
176
     1
 40
1.0
176
     1
 90
        1
176
     1
 90
        6
176
     1
 90
        2
176
     1
 62
     7
176
     1
 90
        3
176
     1
 90
        0
176
     1
 90
        0
176
     1
290
     0
176
     1
 90
       13
176
     1
 40
0.0
176
     1
 90
        0
176
     1
290
     0
176
     1
290
     1
176
     1
290
     1
176
     1
290
     0
176
     1
290
     0
176
     1
290
     0
176
     1
290
     0
176
     1
290
     0
176
     1
290
     0
176
     1
 90
       50
176
     1
 40
0.0
176
     1
 40
1.0
176
     1
 90
        0
176
     1
 62
    18
420
        0
176
     1
 90
       50
176
     1
 90
        3
176
     1
 62
     5
420
      255
176
     1
290
     0
176
     1
 90
       50
176
     1
 90
       50
176
     1
 90
       50
176
     1
290
     0
176
     1
 90
       50
176
     1
 62
   256
176
     0
 40
1.0
176
     0
 90
        2
176
     1
  1
strokes_ogs.tif
176
     1
290
     0
176
     1
 40
1.0
176
     1
 40
1.0
176
     1
  0
VISUALSTYLE
  5
3E
102
{ACAD_REACTORS
330
29
102
}
330
29
100
AcDbVisualStyle
  2
Shaded
 70
    27
177
     3
291
     0
 70
    58
 90
        2
176
     1
 90
        2
176
     1
 90
        1
176
     1
 90
        2
176
     1
 40
0.6
176
     1
 40
30.0
176
     1
 62
     7
420
 16777215
176
     1
 90
        0
176
     1
 90
        4
176
     1
 62
     7
176
     1
 62
   257
176
     1
 90
        1
176
     1
 90
        1
176
     1
 40
1.0
176
     1
 90
        8
176
     1
 62
   257
176
     1
 40
1.0
176
     1
 90
        1
176
     1
 90
        6
176
     1
 90
        2
176
     1
 62
     8
420
  7895160
176
     1
 90
        3
176
     1
 90
        0
176
     1
 90
        0
176
     1
290
     0
176
     1
 90
        5
176
     1
 40
0.0
176
     1
 90
        0
176
     1
290
     0
176
     1
290
     1
176
     1
290
     1
176
     1
290
     0
176
     1
290
     0
176
     1
290
     0
176
     1
290
     0
176
     1
290
     0
176
     1
290
     0
176
     1
 90
       50
176
     1
 40
0.0
176
     1
 40
1.0
176
     1
 90
        0
176
     1
 62
    18
420
        0
176
     1
 90
       50
176
     1
 90
        3
176
     1
 62
     5
420
      255
176
     1
290
     0
176
     1
 90
       50
176
     1
 90
       50
176
     1
 90
       50
176
     1
290
     0
176
     1
 90
       50
176
     1
 62
   256
176
     0
 40
1.0
176
     0
 90
        2
176
     1
  1
strokes_ogs.tif
176
     1
290
     0
176
     1
 40
1.0
176
     1
 40
1.0
176
     1
  0
VISUALSTYLE
  5
3D
102
{ACAD_REACTORS
330
29
102
}
330
29
100
AcDbVisualStyle
  2
Shaded with edges
 70
    26
177
     3
291
     0
 70
    58
 90
        2
176
     1
 90
        2
176
     1
 90
        1
176
     1
 90
        2
176
     1
 40
0.6
176
     1
 40
30.0
176
     1
 62
     7
420
 16777215
176
     1
 90
        1
176
     1
 90
        2
176
     1
 62
     7
176
     1
 62
   257
176
     1
 90
        2
176
     1
 90
        1
176
     1
 40
1.0
176
     1
 90
        8
176
     1
 62
   257
176
     1
 40
1.0
176
     1
 90
        1
176
     1
 90
        6
176
     1
 90
        2
176
     1
 62
     7
176
     1
 90
        3
176
     1
 90
        0
176
     1
 90
        0
176
     1
290
     0
176
     1
 90
        5
176
     1
 40
0.0
176
     1
 90
        0
176
     1
290
     0
176
     1
290
     1
176
     1
290
     1
176
     1
290
     0
176
     1
290
     0
176
     1
290
     0
176
     1
290
     0
176
     1
290
     0
176
     1
290
     0
176
     1
 90
       50
176
     1
 40
0.0
176
     1
 40
1.0
176
     1
 90
        0
176
     1
 62
    18
420
        0
176
     1
 90
       50
176
     1
 90
        3
176
     1
 62
     5
420
      255
176
     1
290
     0
176
     1
 90
       50
176
     1
 90
       50
176
     1
 90
       50
176
     1
290
     0
176
     1
 90
       50
176
     1
 62
   256
176
     0
 40
1.0
176
     0
 90
        2
176
     1
  1
strokes_ogs.tif
176
     1
290
     0
176
     1
 40
1.0
176
     1
 40
1.0
176
     1
  0
VISUALSTYLE
  5
3A
102
{ACAD_REACTORS
330
29
102
}
330
29
100
AcDbVisualStyle
  2
Shades of Gray
 70
    23
177
     3
291
     0
 70
    58
 90
        2
176
     1
 90
        2
176
     1
 90
        3
176
     1
 90
        0
176
     1
 40
0.6
176
     1
 40
30.0
176
     1
 62
     7
420
 16777215
176
     1
 90
        2
176
     1
 90
        2
176
     1
 62
     7
176
     1
 62
     7
176
     1
 90
        1
176
     1
 90
        1
176
     1
 40
40.0
176
     1
 90
        8
176
     1
 62
     7
176
     1
 40
1.0
176
     1
 90
        1
176
     1
 90
        6
176
     1
 90
        2
176
     1
 62
     7
176
     1
 90
        3
176
     1
 90
        0
176
     1
 90
        0
176
     1
290
     0
176
     1
 90
        1
176
     1
 40
0.0
176
     1
 90
        0
176
     1
290
     0
176
     1
290
     1
176
     1
290
     1
176
     1
290
     0
176
     1
290
     0
176
     1
290
     0
176
     1
290
     0
176
     1
290
     0
176
     1
290
     0
176
     1
 90
       50
176
     1
 40
0.0
176
     1
 40
1.0
176
     1
 90
        0
176
     1
 62
    18
420
        0
176
     1
 90
       50
176
     1
 90
        3
176
     1
 62
     5
420
      255
176
     1
290
     0
176
     1
 90
       50
176
     1
 90
       50
176
     1
 90
       50
176
     1
290
     0
176
     1
 90
       50
176
     1
 62
   256
176
     0
 40
1.0
176
     0
 90
        2
176
     1
  1
strokes_ogs.tif
176
     1
290
     0
176
     1
 40
1.0
176
     1
 40
1.0
176
     1
  0
VISUALSTYLE
  5
3B
102
{ACAD_REACTORS
330
29
102
}
330
29
100
AcDbVisualStyle
  2
Sketchy
 70
    24
177
     3
291
     0
 70
    58
 90
        1
176
     1
 90
        2
176
     1
 90
        2
176
     1
 90
        0
176
     1
 40
0.6
176
     1
 40
30.0
176
     1
 62
     7
420
 16777215
176
     1
 90
        2
176
     1
 90
        2
176
     1
 62
     7
176
     1
 62
     7
176
     1
 90
        1
176
     1
 90
        1
176
     1
 40
40.0
176
     1
 90
       11
176
     1
 62
     7
176
     1
 40
1.0
176
     1
 90
        1
176
     1
 90
        6
176
     1
 90
        2
176
     1
 62
     7
176
     1
 90
        6
176
     1
 90
        0
176
     1
 90
        0
176
     1
290
     0
176
     1
 90
        1
176
     1
 40
0.0
176
     1
 90
        0
176
     1
290
     0
176
     1
290
     1
176
     1
290
     1
176
     1
290
     0
176
     1
290
     0
176
     1
290
     0
176
     1
290
     0
176
     1
290
     0
176
     1
290
     0
176
     1
 90
       50
176
     1
 40
0.0
176
     1
 40
1.0
176
     1
 90
        0
176
     1
 62
    18
420
        0
176
     1
 90
       50
176
     1
 90
        3
176
     1
 62
     5
420
      255
176
     1
290
     0
176
     1
 90
       50
176
     1
 90
       50
176
     1
 90
       50
176
     1
290
     0
176
     1
 90
       50
176
     1
 62
   256
176
     0
 40
1.0
176
     0
 90
        2
176
     1
  1
strokes_ogs.tif
176
     1
290
     0
176
     1
 40
1.0
176
     1
 40
1.0
176
     1
  0
VISUALSTYLE
  5
36
102
{ACAD_REACTORS
330
29
102
}
330
29
100
AcDbVisualStyle
  2
Thicken
 70
    13
177
     3
291
     1
 70
    58
 90
        2
176
     1
 90
        2
176
     1
 90
        0
176
     1
 90
        0
176
     1
 40
0.6
176
     1
 40
30.0
176
     1
 62
     7
420
 16777215
176
     1
 90
        1
176
     1
 90
        4
176
     1
 62
     7
176
     1
 62
   257
176
     1
 90
        1
176
     1
 90
        1
176
     1
 40
1.0
176
     1
 90
       12
176
     1
 62
     7
176
     1
 40
1.0
176
     1
 90
        1
176
     1
 90
        6
176
     1
 90
        2
176
     1
 62
     7
176
     1
 90
        5
176
     1
 90
        0
176
     1
 90
        0
176
     1
290
     0
176
     1
 90
        1
176
     1
 40
0.0
176
     1
 90
        0
176
     1
290
     0
176
     1
290
     1
176
     1
290
     1
176
     1
290
     0
176
     1
290
     0
176
     1
290
     0
176
     1
290
     0
176
     1
290
     0
176
     1
290
     0
176
     1
 90
       50
176
     1
 40
0.0
176
     1
 40
1.0
176
     1
 90
        0
176
     1
 62
    18
420
        0
176
     1
 90
       50
176
     1
 90
        3
176
     1
 62
     5
420
      255
176
     1
290
     0
176
     1
 90
       50
176
     1
 90
       50
176
     1
 90
       50
176
     1
290
     0
176
     1
 90
       50
176
     1
 62
   256
176
     0
 40
1.0
176
     0
 90
        2
176
     1
  1
strokes_ogs.tif
176
     1
290
     0
176
     1
 40
1.0
176
     1
 40
1.0
176
     1
  0
VISUALSTYLE
  5
30
102
{ACAD_REACTORS
330
29
102
}
330
29
100
AcDbVisualStyle
  2
Wireframe
 70
     5
177
     3
291
     0
 70
    58
 90
        0
176
     1
 90
        2
176
     1
 90
        0
176
     1
 90
        0
176
     1
 40
0.6
176
     1
 40
30.0
176
     1
 62
     7
420
 16777215
176
     1
 90
        1
176
     1
 90
        4
176
     1
 62
     7
176
     1
 62
   257
176
     1
 90
        1
176
     1
 90
        1
176
     1
 40
1.0
176
     1
 90
        0
176
     1
 62
   257
176
     1
 40
1.0
176
     1
 90
        1
176
     1
 90
        6
176
     1
 90
        2
176
     1
 62
     7
176
     1
 90
        3
176
     1
 90
        0
176
     1
 90
        0
176
     1
290
     0
176
     1
 90
        1
176
     1
 40
0.0
176
     1
 90
        0
176
     1
290
     0
176
     1
290
     1
176
     1
290
     1
176
     1
290
     0
176
     1
290
     0
176
     1
290
     0
176
     1
290
     0
176
     1
290
     0
176
     1
290
     0
176
     1
 90
       50
176
     1
 40
0.0
176
     1
 40
1.0
176
     1
 90
        0
176
     1
 62
    18
420
        0
176
     1
 90
       50
176
     1
 90
        3
176
     1
 62
     5
420
      255
176
     1
290
     0
176
     1
 90
       50
176
     1
 90
       50
176
     1
 90
       50
176
     1
290
     0
176
     1
 90
       50
176
     1
 62
   256
176
     0
 40
1.0
176
     0
 90
        2
176
     1
  1
strokes_ogs.tif
176
     1
290
     0
176
     1
 40
1.0
176
     1
 40
1.0
176
     1
  0
VISUALSTYLE
  5
3C
102
{ACAD_REACTORS
330
29
102
}
330
29
100
AcDbVisualStyle
  2
X-Ray
 70
    25
177
     3
291
     0
 70
    58
 90
        2
176
     1
 90
        2
176
     1
 90
        1
176
     1
 90
        1
176
     1
 40
0.5
176
     1
 40
30.0
176
     1
 62
     7
420
 16777215
176
     1
 90
        1
176
     1
 90
        0
176
     1
 62
     7
176
     1
 62
   257
176
     1
 90
        1
176
     1
 90
        1
176
     1
 40
1.0
176
     1
 90
        8
176
     1
 62
     7
176
     1
 40
1.0
176
     1
 90
        1
176
     1
 90
        6
176
     1
 90
        2
176
     1
 62
     7
176
     1
 90
        3
176
     1
 90
        0
176
     1
 90
        0
176
     1
290
     0
176
     1
 90
       13
176
     1
 40
0.0
176
     1
 90
        0
176
     1
290
     0
176
     1
290
     1
176
     1
290
     1
176
     1
290
     0
176
     1
290
     0
176
     1
290
     0
176
     1
290
     0
176
     1
290
     0
176
     1
290
     0
176
     1
 90
       50
176
     1
 40
0.0
176
     1
 40
1.0
176
     1
 90
        0
176
     1
 62
    18
420
        0
176
     1
 90
       50
176
     1
 90
        3
176
     1
 62
     5
420
      255
176
     1
290
     0
176
     1
 90
       50
176
     1
 90
       50
176
     1
 90
       50
176
     1
290
     0
176
     1
 90
       50
176
     1
 62
   256
176
     0
 40
1.0
176
     0
 90
        2
176
     1
  1
strokes_ogs.tif
176
     1
290
     0
176
     1
 40
1.0
176
     1
 40
1.0
176
     1
  0
DICTIONARYVAR
  5
2F8
102
{ACAD_REACTORS
330
2F3
102
}
330
2F3
100
DictionaryVariables
280
     0
  1
1:1
  0
DICTIONARYVAR
  5
2F5
102
{ACAD_REACTORS
330
2F3
102
}
330
2F3
100
DictionaryVariables
280
     0
  1
STANDARD
  0
DICTIONARYVAR
  5
2F4
102
{ACAD_REACTORS
330
2F3
102
}
330
2F3
100
DictionaryVariables
280
     0
  1
STANDARD
  0
DICTIONARYVAR
  5
2F6
102
{ACAD_REACTORS
330
2F3
102
}
330
2F3
100
DictionaryVariables
280
     0
  1
Imperial24
  0
DICTIONARYVAR
  5
2F7
102
{ACAD_REACTORS
330
2F3
102
}
330
2F3
100
DictionaryVariables
280
     0
  1
Imperial24
  0
DICTIONARY
  5
1A
330
19
100
AcDbDictionary
280
     1
281
     1
  3
BUMPTILE
360
1C
  3
DIFFUSETILE
360
1B
  3
OPACITYTILE
360
1F
  3
REFLECTIONTILE
360
1E
  3
REFRACTIONTILE
360
20
  3
SPECULARTILE
360
1D
  0
DICTIONARY
  5
12
330
11
100
AcDbDictionary
280
     1
281
     1
  3
BUMPTILE
360
14
  3
DIFFUSETILE
360
13
  3
OPACITYTILE
360
17
  3
REFLECTIONTILE
360
16
  3
REFRACTIONTILE
360
18
  3
SPECULARTILE
360
15
  0
DICTIONARY
  5
22
330
21
100
AcDbDictionary
280
     1
281
     1
  3
BUMPTILE
360
24
  3
DIFFUSETILE
360
23
  3
OPACITYTILE
360
27
  3
REFLECTIONTILE
360
26
  3
REFRACTIONTILE
360
28
  3
SPECULARTILE
360
25
  0
DICTIONARY
  5
2F9
330
65
100
AcDbDictionary
280
     1
281
     1
  3
ACAD_ROUNDTRIP_2008_TABLESTYLE_CELLSTYLEMAP
360
2FA
  0
XRECORD
  5
1C
102
{ACAD_REACTORS
330
1A
102
}
330
1A
100
AcDbXrecord
280
     1
270
     1
271
     1
  0
XRECORD
  5
1B
102
{ACAD_REACTORS
330
1A
102
}
330
1A
100
AcDbXrecord
280
     1
270
     1
271
     1
  0
XRECORD
  5
1F
102
{ACAD_REACTORS
330
1A
102
}
330
1A
100
AcDbXrecord
280
     1
270
     1
271
     1
  0
XRECORD
  5
1E
102
{ACAD_REACTORS
330
1A
102
}
330
1A
100
AcDbXrecord
280
     1
270
     1
271
     1
  0
XRECORD
  5
20
102
{ACAD_REACTORS
330
1A
102
}
330
1A
100
AcDbXrecord
280
     1
270
     1
271
     1
  0
XRECORD
  5
1D
102
{ACAD_REACTORS
330
1A
102
}
330
1A
100
AcDbXrecord
280
     1
270
     1
271
     1
  0
XRECORD
  5
14
102
{ACAD_REACTORS
330
12
102
}
330
12
100
AcDbXrecord
280
     1
270
     1
271
     1
  0
XRECORD
  5
13
102
{ACAD_REACTORS
330
12
102
}
330
12
100
AcDbXrecord
280
     1
270
     1
271
     1
  0
XRECORD
  5
17
102
{ACAD_REACTORS
330
12
102
}
330
12
100
AcDbXrecord
280
     1
270
     1
271
     1
  0
XRECORD
  5
16
102
{ACAD_REACTORS
330
12
102
}
330
12
100
AcDbXrecord
280
     1
270
     1
271
     1
  0
XRECORD
  5
18
102
{ACAD_REACTORS
330
12
102
}
330
12
100
AcDbXrecord
280
     1
270
     1
271
     1
  0
XRECORD
  5
15
102
{ACAD_REACTORS
330
12
102
}
330
12
100
AcDbXrecord
280
     1
270
     1
271
     1
  0
XRECORD
  5
24
102
{ACAD_REACTORS
330
22
102
}
330
22
100
AcDbXrecord
280
     1
270
     1
271
     1
  0
XRECORD
  5
23
102
{ACAD_REACTORS
330
22
102
}
330
22
100
AcDbXrecord
280
     1
270
     1
271
     1
  0
XRECORD
  5
27
102
{ACAD_REACTORS
330
22
102
}
330
22
100
AcDbXrecord
280
     1
270
     1
271
     1
  0
XRECORD
  5
26
102
{ACAD_REACTORS
330
22
102
}
330
22
100
AcDbXrecord
280
     1
270
     1
271
     1
  0
XRECORD
  5
28
102
{ACAD_REACTORS
330
22
102
}
330
22
100
AcDbXrecord
280
     1
270
     1
271
     1
  0
XRECORD
  5
25
102
{ACAD_REACTORS
330
22
102
}
330
22
100
AcDbXrecord
280
     1
270
     1
271
     1
  0
CELLSTYLEMAP
  5
2FA
102
{ACAD_REACTORS
330
2F9
102
}
330
2F9
100
AcDbCellStyleMap
 90
        3
300
CELLSTYLE
  1
TABLEFORMAT_BEGIN
 90
        5
170
     1
 91
        0
 92
    32768
 62
   257
 93
        1
300
CONTENTFORMAT
  1
CONTENTFORMAT_BEGIN
 90
        0
 91
        0
 92
      512
 93
        0
300

 40
0.0
140
1.0
 94
        5
 62
     0
340
55
144
0.25
309
CONTENTFORMAT_END
171
     0
 94
        0
309
TABLEFORMAT_END
  1
CELLSTYLE_BEGIN
 90
        1
 91
        1
300
_TITLE
309
CELLSTYLE_END
300
CELLSTYLE
  1
TABLEFORMAT_BEGIN
 90
        5
170
     1
 91
        0
 92
        0
 62
   257
 93
        1
300
CONTENTFORMAT
  1
CONTENTFORMAT_BEGIN
 90
        0
 91
        0
 92
      512
 93
        0
300

 40
0.0
140
1.0
 94
        5
 62
     0
340
55
144
0.18
309
CONTENTFORMAT_END
171
     0
 94
        0
309
TABLEFORMAT_END
  1
CELLSTYLE_BEGIN
 90
        2
 91
        1
300
_HEADER
309
CELLSTYLE_END
300
CELLSTYLE
  1
TABLEFORMAT_BEGIN
 90
        5
170
     1
 91
        0
 92
        0
 62
   257
 93
        1
300
CONTENTFORMAT
  1
CONTENTFORMAT_BEGIN
 90
        0
 91
        0
 92
      512
 93
        0
300

 40
0.0
140
1.0
 94
        2
 62
     0
340
55
144
0.18
309
CONTENTFORMAT_END
171
     0
 94
        0
309
TABLEFORMAT_END
  1
CELLSTYLE_BEGIN
 90
        3
 91
        2
300
_DATA
309
CELLSTYLE_END
  0
ENDSEC
  0
EOF
