  0
SECTION
  2
HEADER
  9
$ACADVER
  1
AC1024
  9
$DWGCODEPAGE
  3
ANSI_1252
  9
$EXTMAX
 10
558.8
 20
431.8
 30
0.0
  9
$EXTMIN
 10
0.0
 20
0.0
 30
0.0
  9
$LIMMIN
 10
0.0
 20
0.0
  9
$LIMMAX
 10
558.8
 20
431.8
  9
$VIEWCTR
 10
279.4
 20
215.9
  9
$VIEWSIZE
 40
431.8
  9
$CLAYER
  8
0
  9
$LTSCALE
 40
30.734
  9
$CELTYPE
  6
BYLAYER
  9
$DIMSCALE
 40
1.0
  9
$DIMASZ
 40
3.0
  9
$DIMEXO
 40
0.5
  9
$DIMDLI
 40
21.2344
  9
$DIMEXE
 40
1.5
  9
$DIMCEN
 40
5.0292
  9
$DIMLFAC
 40
1.0
  9
$DIMBLK
  1
_FILLED
  9
$DIMALT
 70
0
  9
$DIMALTF
 40
0.0393700787
  9
$DIMTXT
 40
3.0
  9
$DIMTOL
 70
1
  9
$DIMLIM
 70
0
  9
$DIMTFAC
 40
1.0
  9
$DIMTP
 40
0.01
  9
$DIMTM
 40
0.01
  9
$DIMGAP
 40
0.625
  9
$DIMDSEP
 70
44
  9
$AUNITS
 70
0
  9
$PDMODE
 70
3
  9
$PDSIZE
 40
3.0
  9
$HANDSEED
  5
54C
  9
$TILEMODE
 70
1
  9
$MEASUREMENT
 70
1
  9
$INSUNITS
 70
4
  0
ENDSEC
  0
SECTION
  2
CLASSES
  0
CLASS
  1
ACDBDICTIONARYWDFLT
  2
AcDbDictionaryWithDefault
  3
AutoCAD 2000
 90
0
 91
1
280
0
281
0
  0
CLASS
  1
ACDBPLACEHOLDER
  2
AcDbPlaceHolder
  3
AutoCAD 2000
 90
0
 91
1
280
0
281
0
  0
CLASS
  1
LAYOUT
  2
AcDbLayout
  3
AutoCAD 2000
 90
0
 91
0
280
0
281
0
  0
ENDSEC
  0
SECTION
  2
TABLES
  0
TABLE
  2
VPORT
  5
8
100
AcDbSymbolTable
 70
2
  0
VPORT
  5
1F4
100
AcDbSymbolTableRecord
100
AcDbViewportTableRecord
  2
*ACTIVE
 70
0
 10
0.0
 20
0.0
 11
1.0
 21
1.0
 12
279.4
 22
215.9
 13
0.0
 23
0.0
 14
1.0
 24
1.0
 15
0.0
 25
0.0
 16
0.0
 26
0.0
 36
1.0
 17
0.0
 27
0.0
 37
0.0
 40
431.8
 41
1.2941176471
 42
50.0
 43
0.0
 44
0.0
 50
0.0
 51
0.0
 71
0
 72
100
 73
1
 74
1
 75
0
 76
0
 77
0
 78
0
  0
ENDTAB
  0
TABLE
  2
LTYPE
  5
5
100
AcDbSymbolTable
 70
6
  0
LTYPE
  5
14
100
AcDbSymbolTableRecord
100
AcDbLinetypeTableRecord
  2
BYBLOCK
 70
0
  3

 72
65
 73
0
 40
0.0
  0
LTYPE
  5
15
100
AcDbSymbolTableRecord
100
AcDbLinetypeTableRecord
  2
BYLAYER
 70
0
  3

 72
65
 73
0
 40
0.0
  0
LTYPE
  5
16
100
AcDbSymbolTableRecord
100
AcDbLinetypeTableRecord
  2
CONTINUOUS
 70
64
  3
Solid line
 72
65
 73
0
 40
0.0
  0
LTYPE
  5
1F5
100
AcDbSymbolTableRecord
100
AcDbLinetypeTableRecord
  2
CENTER
 70
64
  3
____ _ ____ _ ____ _ ____ _ ____ _ ____ _ ____
 72
65
 73
4
 40
0.6
 49
0.375
 74
0
 49
-0.075
 74
0
 49
0.075
 74
0
 49
-0.075
 74
0
  0
LTYPE
  5
1F6
100
AcDbSymbolTableRecord
100
AcDbLinetypeTableRecord
  2
HIDDEN
 70
64
  3
- - - - - - - - - - - - - - - - - - - -
 72
65
 73
2
 40
0.2
 49
0.1
 74
0
 49
-0.1
 74
0
  0
LTYPE
  5
1F7
100
AcDbSymbolTableRecord
100
AcDbLinetypeTableRecord
  2
PHANTOM
 70
64
  3
_____ _ _ _____ _ _ _____ _ _ _____
 72
65
 73
6
 40
0.8
 49
0.45
 74
0
 49
-0.05
 74
0
 49
0.1
 74
0
 49
-0.05
 74
0
 49
0.1
 74
0
 49
-0.05
 74
0
  0
LTYPE
  5
1F8
100
AcDbSymbolTableRecord
100
AcDbLinetypeTableRecord
  2
DOT
 70
64
  3
. . . . . . . . . . . . . . . . . . . .
 72
65
 73
2
 40
0.2
 49
0.1
 74
0
 49
-0.1
 74
0
  0
LTYPE
  5
1F9
100
AcDbSymbolTableRecord
100
AcDbLinetypeTableRecord
  2
DASHED
 70
64
  3
- - - - - - - - - - - - - - - - - - - -
 72
65
 73
2
 40
0.2
 49
0.1
 74
0
 49
-0.1
 74
0
  0
ENDTAB
  0
TABLE
  2
LAYER
  5
2
100
AcDbSymbolTable
 70
36
  0
LAYER
  5
10
100
AcDbSymbolTableRecord
100
AcDbLayerTableRecord
  2
0
 70
0
 62
7
  6
CONTINUOUS
370
-3
390
F
  0
LAYER
  5
1FA
100
AcDbSymbolTableRecord
100
AcDbLayerTableRecord
  2
DEFAULT_1
 70
0
 62
7
  6
CENTER
370
-3
390
F
  0
LAYER
  5
1FB
100
AcDbSymbolTableRecord
100
AcDbLayerTableRecord
  2
DEFAULT_2
 70
0
 62
7
  6
HIDDEN
370
-3
390
F
  0
LAYER
  5
1FC
100
AcDbSymbolTableRecord
100
AcDbLayerTableRecord
  2
DEFAULT_3
 70
0
 62
7
  6
PHANTOM
370
-3
390
F
  0
LAYER
  5
1FD
100
AcDbSymbolTableRecord
100
AcDbLayerTableRecord
  2
ASSI
 70
0
 62
7
  6
CONTINUOUS
370
-3
390
F
  0
LAYER
  5
1FE
100
AcDbSymbolTableRecord
100
AcDbLayerTableRecord
  2
COORDINATE
 70
0
 62
7
  6
CONTINUOUS
370
-3
390
F
  0
LAYER
  5
1FF
100
AcDbSymbolTableRecord
100
AcDbLayerTableRecord
  2
COORD_ORIGINE
 70
0
 62
7
  6
CONTINUOUS
370
-3
390
F
  0
LAYER
  5
200
100
AcDbSymbolTableRecord
100
AcDbLayerTableRecord
  2
CURVE
 70
0
 62
7
  6
CONTINUOUS
370
-3
390
F
  0
LAYER
  5
201
100
AcDbSymbolTableRecord
100
AcDbLayerTableRecord
  2
DRAFT
 70
0
 62
7
  6
CONTINUOUS
370
-3
390
F
  0
LAYER
  5
202
100
AcDbSymbolTableRecord
100
AcDbLayerTableRecord
  2
IGES
 70
0
 62
7
  6
CONTINUOUS
370
-3
390
F
  0
LAYER
  5
203
100
AcDbSymbolTableRecord
100
AcDbLayerTableRecord
  2
IGES-SCRITTE
 70
0
 62
7
  6
CONTINUOUS
370
-3
390
F
  0
LAYER
  5
204
100
AcDbSymbolTableRecord
100
AcDbLayerTableRecord
  2
PIANI
 70
0
 62
7
  6
CONTINUOUS
370
-3
390
F
  0
LAYER
  5
205
100
AcDbSymbolTableRecord
100
AcDbLayerTableRecord
  2
PIANI_ORIGINE
 70
0
 62
7
  6
CONTINUOUS
370
-3
390
F
  0
LAYER
  5
206
100
AcDbSymbolTableRecord
100
AcDbLayerTableRecord
  2
PIANI_RIF
 70
0
 62
7
  6
CONTINUOUS
370
-3
390
F
  0
LAYER
  5
207
100
AcDbSymbolTableRecord
100
AcDbLayerTableRecord
  2
PPP
 70
0
 62
7
  6
CONTINUOUS
370
-3
390
F
  0
LAYER
  5
208
100
AcDbSymbolTableRecord
100
AcDbLayerTableRecord
  2
RACCORDO
 70
0
 62
7
  6
CONTINUOUS
370
-3
390
F
  0
LAYER
  5
209
100
AcDbSymbolTableRecord
100
AcDbLayerTableRecord
  2
SNAPLINE
 70
0
 62
7
  6
CONTINUOUS
370
-3
390
F
  0
LAYER
  5
20A
100
AcDbSymbolTableRecord
100
AcDbLayerTableRecord
  2
SUPERFICI
 70
0
 62
7
  6
CONTINUOUS
370
-3
390
F
  0
LAYER
  5
20B
100
AcDbSymbolTableRecord
100
AcDbLayerTableRecord
  2
TRASH
 70
0
 62
7
  6
CONTINUOUS
370
-3
390
F
  0
LAYER
  5
20C
100
AcDbSymbolTableRecord
100
AcDbLayerTableRecord
  2
___SHELL
 70
0
 62
7
  6
CONTINUOUS
370
-3
390
F
  0
ENDTAB
  0
TABLE
  2
STYLE
  5
3
100
AcDbSymbolTable
 70
1
  0
STYLE
  5
11
100
AcDbSymbolTableRecord
100
AcDbTextStyleTableRecord
  2
STANDARD
 70
0
 40
0.0
 41
0.8
 50
0.0
 71
0
 42
0.2
  3
txt
  4

  0
STYLE
  5
20D
100
AcDbSymbolTableRecord
100
AcDbTextStyleTableRecord
  2
TEXTSTYLE_1
 70
0
 40
0.0
 41
0.8
 50
0.0
 71
0
 42
0.2
  3
gdt
  4

  0
ENDTAB
  0
TABLE
  2
VIEW
  5
6
100
AcDbSymbolTable
 70
0
  0
ENDTAB
  0
TABLE
  2
UCS
  5
7
100
AcDbSymbolTable
 70
0
  0
ENDTAB
  0
TABLE
  2
APPID
  5
9
100
AcDbSymbolTable
 70
1
  0
APPID
  5
20E
100
AcDbSymbolTableRecord
100
AcDbRegAppTableRecord
  2
ACAD
 70
0
  0
ENDTAB
  0
TABLE
  2
BLOCK_RECORD
  5
1
100
AcDbSymbolTable
 70
0
  0
BLOCK_RECORD
  5
20F
100
AcDbSymbolTableRecord
100
AcDbBlockTableRecord
  2
*Model_Space
  0
BLOCK_RECORD
  5
210
100
AcDbSymbolTableRecord
100
AcDbBlockTableRecord
  2
*Paper_Space
  0
BLOCK_RECORD
  5
211
100
AcDbSymbolTableRecord
100
AcDbBlockTableRecord
  2
_FILLED
  0
ENDTAB
  0
TABLE
  2
DIMSTYLE
  5
A
100
AcDbSymbolTable
 70
1
100
AcDbDimStyleTable
 71
0
  0
DIMSTYLE
105
212
100
AcDbSymbolTableRecord
100
AcDbDimStyleTableRecord
  2
STANDARD
 70
0
  3

  4

 40
1.0
 41
3.0
 42
0.5
 43
0.38
 44
1.5
 45
0.0
 46
0.0
 47
0.01
 48
0.01
140
3.0
141
0.09
142
0.0
143
25.4
144
1.0
145
0.0
146
1.0
147
0.625
 71
1.0
 72
0.0
 73
0
 74
0
 75
0
 76
0
 77
1
 78
8
 79
2
170
0
171
1
172
0
173
0
174
0
175
0
176
0
177
0
178
0
270
2
179
2
271
2
272
2
273
2
274
2
275
0
280
0
281
0
282
0
283
1
284
8
285
0
286
0
287
3
288
0
340
11
278
44
341
211
342
211
343
211
344
211
  0
ENDTAB
  0
ENDSEC
  0
SECTION
  2
BLOCKS
  0
BLOCK
  5
20
100
AcDbEntity
  8
0
100
AcDbBlockBegin
  2
*Model_Space
 70
0
 10
0.0
 20
0.0
 30
0.0
  3
*Model_Space
  1

  0
ENDBLK
  5
21
100
AcDbEntity
  8
0
100
AcDbBlockEnd
  0
BLOCK
  5
1C
100
AcDbEntity
  8
0
100
AcDbBlockBegin
  2
*Paper_Space
 70
0
 10
0.0
 20
0.0
 30
0.0
  3
*Paper_Space
  1

  0
ENDBLK
  5
1D
100
AcDbEntity
  8
0
100
AcDbBlockEnd
  0
BLOCK
  5
213
100
AcDbEntity
  8
0
100
AcDbBlockBegin
  2
_FILLED
 70
64
 10
0.0
 20
0.0
  3
_FILLED
  1

  0
SOLID
  5
214
100
AcDbEntity
  8
0
  6
BYBLOCK
 62
0
100
AcDbTrace
 10
0.0
 20
0.0
 11
-1.0
 21
0.3166666667
 12
-1.0
 22
-0.3166666667
 13
-1.0
 23
-0.3166666667
  0
ENDBLK
  5
215
100
AcDbEntity
  8
0
  6
BYBLOCK
 62
0
100
AcDbBlockEnd
  0
ENDSEC
  0
SECTION
  2
ENTITIES
  0
LWPOLYLINE
  5
216
100
AcDbEntity
  8
0
100
AcDbPolyline
 62
7
  6
CONTINUOUS
 90
12
 70
0
 10
-43.159648013
 20
53.7756570308
 10
-43.2567304706
 20
53.7131675637
 10
-43.3717150244
 20
53.625975643
 10
-43.4802360135
 20
53.5281555279
 10
-43.5815446032
 20
53.4199564892
 10
-43.6752240922
 20
53.3011504926
 10
-43.7604419925
 20
53.1718675647
 10
-43.8363748558
 20
53.032434332
 10
-43.902575589
 20
52.8828789425
 10
-43.958362418
 20
52.7236432895
 10
-44.0030243014
 20
52.5555156553
 10
-44.0111068423
 20
52.5183471777
  0
LWPOLYLINE
  5
217
100
AcDbEntity
  8
0
100
AcDbPolyline
 62
250
  6
CONTINUOUS
 90
16
 70
0
 10
-41.7239981098
 20
53.649159213
 10
-41.7834546931
 20
53.6127758358
 10
-41.8419074005
 20
53.5707563121
 10
-41.8991158841
 20
53.5233205181
 10
-41.9549590434
 20
53.4705824152
 10
-42.0090935362
 20
53.412829871
 10
-42.0610171461
 20
53.3505990751
 10
-42.1102481647
 20
53.2845157601
 10
-42.1564741022
 20
53.2150141172
 10
-42.1994005226
 20
53.1425281959
 10
-42.2386284319
 20
53.0676551751
 10
-42.2737635135
 20
52.9910481827
 10
-42.3045955055
 20
52.9132068911
 10
-42.3309653755
 20
52.8345893006
 10
-42.3527493587
 20
52.7555858375
 10
-42.3697943099
 20
52.6766298118
  0
LINE
  5
218
100
AcDbEntity
  8
0
100
AcDbLine
 62
7
  6
CONTINUOUS
 10
-43.1596873038
 20
53.7756157498
 11
-40.1028406919
 21
55.5663609
  0
LINE
  5
219
100
AcDbEntity
  8
0
100
AcDbLine
 62
250
  6
CONTINUOUS
 10
-38.7150967363
 20
55.5174052583
 11
-41.8832017216
 21
53.7300228122
  0
LINE
  5
21A
100
AcDbEntity
  8
0
100
AcDbLine
 62
250
  6
CONTINUOUS
 10
-43.1532879763
 20
53.7793965534
 11
-43.0844605685
 21
53.8162902926
  0
LWPOLYLINE
  5
21B
100
AcDbEntity
  8
0
100
AcDbPolyline
 62
7
  6
CONTINUOUS
 90
12
 70
0
 10
-40.1029689283
 20
55.5662000001
 10
-39.9884056702
 20
55.6246977116
 10
-39.8773235249
 20
55.6667264063
 10
-39.7612148146
 20
55.6970285412
 10
-39.64014312
 20
55.7157524473
 10
-39.5156529146
 20
55.722659281
 10
-39.3877013031
 20
55.717598021
 10
-39.2563311808
 20
55.7007196887
 10
-39.1232157063
 20
55.6722385038
 10
-38.9889125991
 20
55.6322258731
 10
-38.8528641398
 20
55.58061039
 10
-38.7150703284
 20
55.5173920544
  0
LWPOLYLINE
  5
21C
100
AcDbEntity
  8
0
100
AcDbPolyline
 62
250
  6
CONTINUOUS
 90
29
 70
0
 10
-43.3711574068
 20
52.7175478576
 10
-43.3309259807
 20
52.7380345662
 10
-43.2911352257
 20
52.7555448266
 10
-43.2519559307
 20
52.7703335649
 10
-43.2136706459
 20
52.7827014624
 10
-43.1763104403
 20
52.792851712
 10
-43.1396542506
 20
52.8008407332
 10
-43.1038097966
 20
52.8067951612
 10
-43.0689550103
 20
52.8110014067
 10
-43.0349414379
 20
52.8136765717
 10
-43.0017979361
 20
52.8149031558
 10
-42.9696317102
 20
52.8149002794
 10
-42.9383443016
 20
52.8140236886
 10
-42.9079818869
 20
52.8125051274
 10
-42.8785479792
 20
52.8103316521
 10
-42.8498809659
 20
52.8074554618
 10
-42.8220177509
 20
52.8039305831
 10
-42.7950392739
 20
52.7998862044
 10
-42.7688377382
 20
52.7953610342
 10
-42.7433572074
 20
52.7903652823
 10
-42.7186466247
 20
52.7850256824
 10
-42.6947132614
 20
52.7795366338
 10
-42.6714493511
 20
52.7740425503
 10
-42.6487714536
 20
52.7684451044
 10
-42.6266943947
 20
52.7625619439
 10
-42.6051930571
 20
52.756421465
 10
-42.5843630625
 20
52.750063698
 10
-42.564461942
 20
52.7433435377
 10
-42.526753067
 20
52.7290353922
  0
LWPOLYLINE
  5
21D
100
AcDbEntity
  8
0
100
AcDbPolyline
 62
250
  6
CONTINUOUS
 90
10
 70
0
 10
-43.0844605685
 20
53.8162902926
 10
-42.9694335173
 20
53.8640387738
 10
-42.848190374
 20
53.898022088
 10
-42.7206735688
 20
53.9179715855
 10
-42.5864285632
 20
53.9234328379
 10
-42.4471071541
 20
53.9137750857
 10
-42.3059752684
 20
53.8890045432
 10
-42.1647866849
 20
53.8497674421
 10
-42.023579177
 20
53.7965701941
 10
-41.8831904334
 20
53.730015263
  0
LWPOLYLINE
  5
21E
100
AcDbEntity
  8
0
100
AcDbPolyline
 62
250
  6
CONTINUOUS
 90
10
 70
0
 10
-39.1213336016
 20
45.2756922687
 10
-39.2006861
 20
45.2063529112
 10
-39.2786640158
 20
45.1303653334
 10
-39.3547645137
 20
45.0477924794
 10
-39.4289768436
 20
44.9583325424
 10
-39.5012372558
 20
44.8618255267
 10
-39.5712751003
 20
44.7580490084
 10
-39.638420325
 20
44.6470347319
 10
-39.702955887
 20
44.528850594
 10
-39.7640465001
 20
44.4032118795
  0
LWPOLYLINE
  5
21F
100
AcDbEntity
  8
0
100
AcDbPolyline
 62
7
  6
CONTINUOUS
 90
6
 70
0
 10
-44.0107881222
 20
52.5197565453
 10
-44.0332907993
 20
52.3924293657
 10
-44.0507183397
 20
52.2409510239
 10
-44.0605512538
 20
52.08820166
 10
-44.0650723116
 20
51.9343429352
 10
-44.0661386497
 20
51.7790321944
  0
LINE
  5
220
100
AcDbEntity
  8
0
100
AcDbLine
 62
250
  6
CONTINUOUS
 10
-44.0145411175
 20
52.499489965
 11
-44.0110883218
 21
52.5183363571
  0
LINE
  5
221
100
AcDbEntity
  8
0
100
AcDbLine
 62
7
  6
CONTINUOUS
 10
-44.0110883218
 20
52.5183363571
 11
-44.0107881222
 21
52.5197565453
  0
LWPOLYLINE
  5
222
100
AcDbEntity
  8
0
100
AcDbPolyline
 62
250
  6
CONTINUOUS
 90
10
 70
0
 10
-43.8242118451
 20
52.043359037
 10
-43.7963116757
 20
52.1451911554
 10
-43.7622758869
 20
52.2410658212
 10
-43.7223105123
 20
52.3307812272
 10
-43.6766366066
 20
52.414025431
 10
-43.6255063609
 20
52.4901080732
 10
-43.5691483034
 20
52.55871383
 10
-43.5078002829
 20
52.6195874128
 10
-43.4417261288
 20
52.6725736403
 10
-43.3711574068
 20
52.7175478576
  0
LWPOLYLINE
  5
223
100
AcDbEntity
  8
0
100
AcDbPolyline
 62
250
  6
CONTINUOUS
 90
10
 70
0
 10
-40.1813829209
 20
42.9631047671
 10
-40.1424078382
 20
43.1485622555
 10
-40.1013927795
 20
43.3276088486
 10
-40.0593637002
 20
43.5010989855
 10
-40.0166425689
 20
43.6692437642
 10
-39.9722480414
 20
43.8311622778
 10
-39.9251743718
 20
43.9860101346
 10
-39.8748000562
 20
44.1331581971
 10
-39.8210765232
 20
44.2722901753
 10
-39.7640528347
 20
44.4032208988
  0
LWPOLYLINE
  5
224
100
AcDbEntity
  8
0
100
AcDbPolyline
 62
250
  6
CONTINUOUS
 90
8
 70
0
 10
-44.0668091846
 20
19.9211925625
 10
-44.0662400597
 20
19.9043605002
 10
-44.0597290527
 20
19.861966596
 10
-44.0459805826
 20
19.8199871753
 10
-44.0252131121
 20
19.7788976223
 10
-43.99768205
 20
19.7390015259
 10
-43.9635211694
 20
19.7004239882
 10
-43.9229020406
 20
19.6633819287
  0
LINE
  5
225
100
AcDbEntity
  8
0
100
AcDbLine
 62
250
  6
CONTINUOUS
 10
-43.8792615841
 20
-12.1083482665
 11
-43.8766804528
 21
-12.3123370396
  0
LWPOLYLINE
  5
226
100
AcDbEntity
  8
0
100
AcDbPolyline
 62
250
  6
CONTINUOUS
 90
3
 70
0
 10
-43.888032485
 20
-10.3128391585
 10
-43.8791580365
 20
-11.2506206242
 10
-43.8781649856
 20
-11.4722981079
  0
LINE
  5
227
100
AcDbEntity
  8
0
100
AcDbLine
 62
7
  6
CONTINUOUS
 10
-44.0661386497
 20
51.7790321944
 11
-44.0631367681
 21
51.3034744682
  0
LWPOLYLINE
  5
228
100
AcDbEntity
  8
0
100
AcDbPolyline
 62
7
  6
CONTINUOUS
 90
6
 70
0
 10
-44.066082765
 20
-11.906168265
 10
-44.0654718336
 20
-12.0599385636
 10
-44.0617564957
 20
-12.2147095722
 10
-44.0533675914
 20
-12.3700616568
 10
-44.0385201722
 20
-12.5246728043
 10
-44.0172814085
 20
-12.6687735657
  0
LINE
  5
229
100
AcDbEntity
  8
0
100
AcDbLine
 62
250
  6
CONTINUOUS
 10
-43.9086672279
 20
-1.6608561422
 11
-43.8879018048
 21
-10.3130976328
  0
LINE
  5
22A
100
AcDbEntity
  8
0
100
AcDbLine
 62
250
  6
CONTINUOUS
 10
-43.9230161738
 20
14.8338047458
 11
-43.9084511339
 21
-1.6607745435
  0
LWPOLYLINE
  5
22B
100
AcDbEntity
  8
0
100
AcDbPolyline
 62
7
  6
CONTINUOUS
 90
3
 70
0
 10
-44.0661078934
 20
-2.2343408649
 10
-44.0654784355
 20
-9.6960070563
 10
-44.0629623926
 20
-11.2798689593
  0
LINE
  5
22C
100
AcDbEntity
  8
0
100
AcDbLine
 62
250
  6
CONTINUOUS
 10
-43.9121528986
 20
38.653830469
 11
-43.9230161738
 21
14.8338047458
  0
LWPOLYLINE
  5
22D
100
AcDbEntity
  8
0
100
AcDbPolyline
 62
7
  6
CONTINUOUS
 90
3
 70
0
 10
-44.0631367681
 20
51.3034744682
 10
-44.0637276272
 20
50.8034239042
 10
-44.0661078934
 20
-2.2343408649
  0
LINE
  5
22E
100
AcDbEntity
  8
0
100
AcDbLine
 62
250
  6
CONTINUOUS
 10
-43.8880324417
 20
49.5900277836
 11
-43.9121528986
 21
38.653830469
  0
LWPOLYLINE
  5
22F
100
AcDbEntity
  8
0
100
AcDbPolyline
 62
7
  6
CONTINUOUS
 90
3
 70
0
 10
-44.0629623926
 20
-11.2798689593
 10
-44.0637409829
 20
-11.598766707
 10
-44.066082765
 20
-11.906168265
  0
LINE
  5
230
100
AcDbEntity
  8
0
100
AcDbLine
 62
250
  6
CONTINUOUS
 10
-43.8781649856
 20
-11.4722981079
 11
-43.8792615841
 21
-12.1083482665
  0
LINE
  5
231
100
AcDbEntity
  8
0
100
AcDbLine
 62
250
  6
CONTINUOUS
 10
-43.8781631634
 20
50.7384745278
 11
-43.88107501
 21
50.2926241111
  0
LINE
  5
232
100
AcDbEntity
  8
0
100
AcDbLine
 62
250
  6
CONTINUOUS
 10
-43.88107501
 20
50.2926241111
 11
-43.8880323943
 21
49.5900278014
  0
LWPOLYLINE
  5
233
100
AcDbEntity
  8
0
100
AcDbPolyline
 62
250
  6
CONTINUOUS
 90
3
 70
0
 10
-43.876680356
 20
51.5761318356
 10
-43.8792607484
 20
51.37517577
 10
-43.8781631634
 20
50.7384745278
  0
LWPOLYLINE
  5
234
100
AcDbEntity
  8
0
100
AcDbPolyline
 62
250
  6
CONTINUOUS
 90
10
 70
0
 10
-43.8769669327
 20
51.5760291185
 10
-43.8739135002
 20
51.6330032027
 10
-43.8704307218
 20
51.6889764316
 10
-43.8663689826
 20
51.7435682268
 10
-43.8617126706
 20
51.7971597203
 10
-43.8563124939
 20
51.8496206707
 10
-43.8499103266
 20
51.9002486603
 10
-43.8424168032
 20
51.9490439657
 10
-43.8338629901
 20
51.9966434043
 10
-43.8242118352
 20
52.0433590407
  0
LWPOLYLINE
  5
235
100
AcDbEntity
  8
0
100
AcDbPolyline
 62
250
  6
CONTINUOUS
 90
10
 70
0
 10
-40.8493281609
 20
35.8454923032
 10
-40.9756206798
 20
33.8612851436
 10
-41.0870624765
 20
31.8688537157
 10
-41.1836513135
 20
29.8683192119
 10
-41.2653866694
 20
27.859756465
 10
-41.3322639353
 20
25.8433322863
 10
-41.384277826
 20
23.8193073395
 10
-41.4214285294
 20
21.7878507646
 10
-41.4437182952
 20
19.7490383064
 10
-41.4511480186
 20
17.7029919636
  0
LINE
  5
236
100
AcDbEntity
  8
0
100
AcDbLine
 62
250
  6
CONTINUOUS
 10
-40.745961908
 20
37.3120641493
 11
-40.8493294985
 21
35.845491941
  0
LINE
  5
237
100
AcDbEntity
  8
0
100
AcDbLine
 62
250
  6
CONTINUOUS
 10
-40.6332547297
 20
38.7879337302
 11
-40.745961908
 21
37.3120641493
  0
LINE
  5
238
100
AcDbEntity
  8
0
100
AcDbLine
 62
250
  6
CONTINUOUS
 10
-40.5110841859
 20
40.2735784564
 11
-40.6332547297
 21
38.7879337302
  0
LWPOLYLINE
  5
239
100
AcDbEntity
  8
0
100
AcDbPolyline
 62
250
  6
CONTINUOUS
 90
10
 70
0
 10
-40.5110905976
 20
40.2735182899
 10
-40.4824434509
 20
40.6013549336
 10
-40.4525094251
 20
40.9224531143
 10
-40.4210753562
 20
41.2366851787
 10
-40.3879156178
 20
41.543902388
 10
-40.3526798666
 20
41.8438407927
 10
-40.3149599683
 20
42.1361829455
 10
-40.274354571
 20
42.4206078077
 10
-40.2302834306
 20
42.6966311078
 10
-40.1813782726
 20
42.9630972967
  0
LWPOLYLINE
  5
23A
100
AcDbEntity
  8
0
100
AcDbPolyline
 62
7
  6
CONTINUOUS
 90
4
 70
0
 10
21.2435221755
 20
-38.5681115037
 10
21.2283553651
 20
-38.5720207849
 10
21.2129374225
 20
-38.5751954406
 10
21.1972874966
 20
-38.577644485
  0
LWPOLYLINE
  5
23B
100
AcDbEntity
  8
0
100
AcDbPolyline
 62
7
  6
CONTINUOUS
 90
9
 70
0
 10
-43.4650033475
 20
-14.0521127842
 10
-43.3640196721
 20
-14.1993515561
 10
-43.2611571382
 20
-14.3353521039
 10
-43.1568163508
 20
-14.4608580358
 10
-43.0508701766
 20
-14.5768581894
 10
-42.944047829
 20
-14.6832507413
 10
-42.836988413
 20
-14.7805344767
 10
-42.7295829681
 20
-14.8699554784
 10
-42.6214381583
 20
-14.9516298542
  0
LINE
  5
23C
100
AcDbEntity
  8
0
100
AcDbLine
 62
7
  6
CONTINUOUS
 10
-43.5627489647
 20
-13.8939121697
 11
-43.4650033475
 21
-14.0521127842
  0
LWPOLYLINE
  5
23D
100
AcDbEntity
  8
0
100
AcDbPolyline
 62
250
  6
CONTINUOUS
 90
10
 70
0
 10
-43.3711575079
 20
-13.9493836368
 10
-43.4421015193
 20
-13.8345215774
 10
-43.5083328338
 20
-13.7164596481
 10
-43.5696550087
 20
-13.5955602883
 10
-43.6257545712
 20
-13.4724456995
 10
-43.6765421484
 20
-13.3474018572
 10
-43.7220465761
 20
-13.2203181532
 10
-43.7620389243
 20
-13.0918552506
 10
-43.7961772858
 20
-12.9626957649
 10
-43.8242119434
 20
-12.8331936942
  0
LWPOLYLINE
  5
23E
100
AcDbEntity
  8
0
100
AcDbPolyline
 62
7
  6
CONTINUOUS
 90
6
 70
0
 10
-43.9556807828
 20
-12.950281364
 10
-43.8961895535
 20
-13.1530082488
 10
-43.8251028001
 20
-13.3518752147
 10
-43.7440077259
 20
-13.5440385058
 10
-43.6559263926
 20
-13.7250236014
 10
-43.5627489647
 20
-13.8939121697
  0
LINE
  5
23F
100
AcDbEntity
  8
0
100
AcDbLine
 62
7
  6
CONTINUOUS
 10
-44.0033939302
 20
-12.742717187
 11
-43.9556807828
 21
-12.950281364
  0
LWPOLYLINE
  5
240
100
AcDbEntity
  8
0
100
AcDbPolyline
 62
250
  6
CONTINUOUS
 90
8
 70
0
 10
-44.0172814085
 20
-12.6687735657
 10
-44.0154291162
 20
-12.6776084357
 10
-44.0033140217
 20
-12.7089183798
 10
-43.9829456413
 20
-12.7383487803
 10
-43.9546004582
 20
-12.7656537307
 10
-43.9185635978
 20
-12.7906526439
 10
-43.875027078
 20
-12.8132193015
 10
-43.8242119335
 20
-12.83319369
  0
LINE
  5
241
100
AcDbEntity
  8
0
100
AcDbLine
 62
7
  6
CONTINUOUS
 10
-44.0172205691
 20
-12.6686814991
 11
-44.0033939302
 21
-12.742717187
  0
LINE
  5
242
100
AcDbEntity
  8
0
100
AcDbLine
 62
7
  6
CONTINUOUS
 10
-44.017295593
 20
-12.6686914785
 11
-44.0172814085
 21
-12.6687735657
  0
LWPOLYLINE
  5
243
100
AcDbEntity
  8
0
100
AcDbPolyline
 62
250
  6
CONTINUOUS
 90
10
 70
0
 10
-43.8242119335
 20
-12.83319369
 10
-43.8340622351
 20
-12.7760260927
 10
-43.8427177198
 20
-12.7192645391
 10
-43.8502377225
 20
-12.6625626487
 10
-43.856608517
 20
-12.6053913175
 10
-43.8619437432
 20
-12.5476225385
 10
-43.86652667
 20
-12.4895387105
 10
-43.8705199738
 20
-12.431085743
 10
-43.8739481654
 20
-12.3719711711
 10
-43.8769670295
 20
-12.3124417903
  0
LWPOLYLINE
  5
244
100
AcDbEntity
  8
0
100
AcDbPolyline
 62
250
  6
CONTINUOUS
 90
9
 70
0
 10
-40.4823634157
 20
-6.1654310164
 10
-40.4524488214
 20
-6.5174957764
 10
-40.4207894562
 20
-6.8640304938
 10
-40.3872316129
 20
-7.2051878691
 10
-40.3519507689
 20
-7.5407642939
 10
-40.3144386838
 20
-7.8705828037
 10
-40.2740515931
 20
-8.1947163455
 10
-40.2301251664
 20
-8.5133742078
 10
-40.1814156124
 20
-8.8267244927
  0
LINE
  5
245
100
AcDbEntity
  8
0
100
AcDbLine
 62
250
  6
CONTINUOUS
 10
-40.5935879863
 20
-4.7336273039
 11
-40.4823634157
 21
-6.1654310164
  0
LINE
  5
246
100
AcDbEntity
  8
0
100
AcDbLine
 62
250
  6
CONTINUOUS
 10
-40.7094361124
 20
-3.1386956054
 11
-40.5935879863
 21
-4.7336273039
  0
LINE
  5
247
100
AcDbEntity
  8
0
100
AcDbLine
 62
250
  6
CONTINUOUS
 10
-40.8159066663
 20
-1.5625604964
 11
-40.7094361124
 21
-3.1386956054
  0
LINE
  5
248
100
AcDbEntity
  8
0
100
AcDbLine
 62
250
  6
CONTINUOUS
 10
-40.9756119146
 20
1.0690202625
 11
-40.8159066663
 21
-1.5625604964
  0
LWPOLYLINE
  5
249
100
AcDbEntity
  8
0
100
AcDbPolyline
 62
250
  6
CONTINUOUS
 90
9
 70
0
 10
-41.4511480186
 20
17.7029919641
 10
-41.4437172007
 20
15.649363713
 10
-41.4214246898
 20
13.5881467957
 10
-41.3842704164
 20
11.519462624
 10
-41.3322529555
 20
9.4433849704
 10
-41.2653729437
 20
7.3600830838
 10
-41.1836364921
 20
5.2698232294
 10
-41.0870490345
 20
3.172777097
 10
-40.9756119146
 20
1.0690202625
  0
LWPOLYLINE
  5
24A
100
AcDbEntity
  8
0
100
AcDbPolyline
 62
250
  6
CONTINUOUS
 90
33
 70
0
 10
-28.3523645058
 20
30.4156380789
 10
-28.3727408029
 20
30.3708313564
 10
-28.39188422
 20
30.3252619237
 10
-28.4097510352
 20
30.2790288139
 10
-28.4263379278
 20
30.2321496428
 10
-28.4415524125
 20
30.1848167248
 10
-28.4552425876
 20
30.1373996894
 10
-28.4673648521
 20
30.0901016541
 10
-28.4779297281
 20
30.0429486861
 10
-28.4868935814
 20
29.9960475825
 10
-28.4942316093
 20
29.9495183
 10
-28.499930649
 20
29.903471146
 10
-28.5039629218
 20
29.857999461
 10
-28.5063051002
 20
29.8131695611
 10
-28.5069340694
 20
29.7691512289
 10
-28.5058352678
 20
29.7261865907
 10
-28.5029941652
 20
29.6843003048
 10
-28.4984055693
 20
29.643689193
 10
-28.4921316443
 20
29.6048099603
 10
-28.484257499
 20
29.5679048841
 10
-28.4747988742
 20
29.5328423496
 10
-28.4637350519
 20
29.4994979413
 10
-28.4511303724
 20
29.46805142
 10
-28.4369692883
 20
29.4384460963
 10
-28.4210513222
 20
29.4102639621
 10
-28.4032924342
 20
29.3834343494
 10
-28.3838077337
 20
29.3582075133
 10
-28.362657953
 20
29.3346982373
 10
-28.3398139732
 20
29.3129221145
 10
-28.3153826671
 20
29.2930298342
 10
-28.2896813792
 20
29.2752713036
 10
-28.2629017424
 20
29.2597192289
 10
-28.2546328576
 20
29.2554631121
  0
LWPOLYLINE
  5
24B
100
AcDbEntity
  8
0
100
AcDbPolyline
 62
250
  6
CONTINUOUS
 90
10
 70
0
 10
-28.3538554825
 20
30.4173971433
 10
-28.2729866029
 20
30.5842035226
 10
-28.1986089902
 20
30.7549906525
 10
-28.1312206011
 20
30.929111023
 10
-28.0714152541
 20
31.106407708
 10
-28.0197299954
 20
31.2856903063
 10
-27.9762497998
 20
31.4646913285
 10
-27.9409219934
 20
31.6421787862
 10
-27.9139576071
 20
31.8179920666
 10
-27.8954624892
 20
31.9914473242
  0
LWPOLYLINE
  5
24C
100
AcDbEntity
  8
0
100
AcDbPolyline
 62
250
  6
CONTINUOUS
 90
18
 70
0
 10
-30.1614617598
 20
31.5026677803
 10
-30.0857301294
 20
31.6364507339
 10
-30.0015058281
 20
31.757979795
 10
-29.9095166044
 20
31.8674545286
 10
-29.8106372573
 20
31.9645001252
 10
-29.7053474342
 20
32.0493200502
 10
-29.5932788349
 20
32.1215913473
 10
-29.4748435275
 20
32.1814645226
 10
-29.3507521305
 20
32.229027073
 10
-29.2219442484
 20
32.2636590151
 10
-29.0887182776
 20
32.285622146
 10
-28.9509707911
 20
32.295023715
 10
-28.8086662213
 20
32.2912133111
 10
-28.6623206622
 20
32.2744124688
 10
-28.5127897003
 20
32.2446526189
 10
-28.3612971951
 20
32.2013575778
 10
-28.2078709572
 20
32.144395309
 10
-28.0521433311
 20
32.0741939828
  0
LINE
  5
24D
100
AcDbEntity
  8
0
100
AcDbLine
 62
7
  6
CONTINUOUS
 10
-28.025866875
 20
29.1191070409
 11
-28.0036628038
 21
29.1299780732
  0
LINE
  5
24E
100
AcDbEntity
  8
0
100
AcDbLine
 62
250
  6
CONTINUOUS
 10
-28.0600430229
 20
29.1033543882
 11
-28.0258014863
 21
29.1190740118
  0
LWPOLYLINE
  5
24F
100
AcDbEntity
  8
0
100
AcDbPolyline
 62
7
  6
CONTINUOUS
 90
3
 70
0
 10
21.1972874966
 20
-38.577644485
 10
21.1814244749
 20
-38.5793776078
 10
21.1653669633
 20
-38.5804051386
  0
LINE
  5
250
100
AcDbEntity
  8
0
100
AcDbLine
 62
7
  6
CONTINUOUS
 10
21.1653669633
 20
-38.5804051386
 11
21.1491332688
 21
-38.5807380126
  0
LWPOLYLINE
  5
251
100
AcDbEntity
  8
0
100
AcDbPolyline
 62
250
  6
CONTINUOUS
 90
6
 70
0
 10
38.1912706721
 20
-55.151545393
 10
38.1536300262
 20
-55.137203133
 10
38.1354516219
 20
-55.1308912926
 10
38.1178357188
 20
-55.1255686215
 10
38.1011765357
 20
-55.1207157885
 10
38.085881992
 20
-55.1160931427
  0
LWPOLYLINE
  5
252
100
AcDbEntity
  8
0
100
AcDbPolyline
 62
250
  6
CONTINUOUS
 90
16
 70
0
 10
-39.1213096559
 20
-12.19951113
 10
-38.9737500989
 20
-12.4572593806
 10
-38.8128837465
 20
-12.7149623346
 10
-38.6381277865
 20
-12.9715432805
 10
-38.4510317502
 20
-13.2231808301
 10
-38.251634752
 20
-13.4695135879
 10
-38.0376753997
 20
-13.7139358118
 10
-37.8087200595
 20
-13.9568374842
 10
-37.5656433208
 20
-14.1970329043
 10
-37.3083062884
 20
-14.4351686052
 10
-37.0372300888
 20
-14.6712851195
 10
-36.7533529912
 20
-14.9053970649
 10
-36.4565246635
 20
-15.1376924269
 10
-36.1465204533
 20
-15.3679366255
 10
-35.8239613503
 20
-15.5956017418
 10
-35.4895636663
 20
-15.8203443153
  0
LWPOLYLINE
  5
253
100
AcDbEntity
  8
0
100
AcDbPolyline
 62
250
  6
CONTINUOUS
 90
10
 70
0
 10
-39.1213344414
 20
-12.1995175346
 10
-39.2004927361
 20
-12.0510472249
 10
-39.2784010649
 20
-11.8971617192
 10
-39.3547622172
 20
-11.7381056091
 10
-39.4293033715
 20
-11.5739993595
 10
-39.5016847702
 20
-11.4050205728
 10
-39.5715447993
 20
-11.231358702
 10
-39.6387070885
 20
-11.0531803181
 10
-39.7031546796
 20
-10.8706499785
 10
-39.7640469082
 20
-10.6843261338
  0
LWPOLYLINE
  5
254
100
AcDbEntity
  8
0
100
AcDbPolyline
 62
250
  6
CONTINUOUS
 90
10
 70
0
 10
-39.7640529181
 20
-10.6843278937
 10
-39.8213174528
 20
-10.4955458656
 10
-39.8752083331
 20
-10.3019879117
 10
-39.9256878544
 20
-10.1038904572
 10
-39.9728431997
 20
-9.9014109419
 10
-40.0172870828
 20
-9.694664547
 10
-40.0599744718
 20
-9.4838180753
 10
-40.1018715925
 20
-9.268879297
 10
-40.1426741918
 20
-9.0498471355
 10
-40.1813829994
 20
-8.8268863562
  0
LINE
  5
255
100
AcDbEntity
  8
0
100
AcDbLine
 62
250
  6
CONTINUOUS
 10
-30.4014720701
 20
30.6825815552
 11
-30.3988202378
 21
30.7029579856
  0
LINE
  5
256
100
AcDbEntity
  8
0
100
AcDbLine
 62
250
  6
CONTINUOUS
 10
-30.3988202378
 20
30.7029579856
 11
-30.3960693148
 21
30.7233627369
  0
LINE
  5
257
100
AcDbEntity
  8
0
100
AcDbLine
 62
250
  6
CONTINUOUS
 10
-30.3960693148
 20
30.7233627369
 11
-30.3932045349
 21
30.743817759
  0
LWPOLYLINE
  5
258
100
AcDbEntity
  8
0
100
AcDbPolyline
 62
250
  6
CONTINUOUS
 90
3
 70
0
 10
-30.3932045349
 20
30.743817759
 10
-30.3901937973
 20
30.7643226723
 10
-30.3886321035
 20
30.7746060455
  0
LWPOLYLINE
  5
259
100
AcDbEntity
  8
0
100
AcDbPolyline
 62
250
  6
CONTINUOUS
 90
10
 70
0
 10
-29.7003225683
 20
29.7165512536
 10
-29.7047816092
 20
29.6869166106
 10
-29.7087838041
 20
29.6565781411
 10
-29.712311154
 20
29.6255287557
 10
-29.7153470289
 20
29.593757787
 10
-29.7178709874
 20
29.561261904
 10
-29.7198601141
 20
29.5280472491
 10
-29.7212953595
 20
29.4941139494
 10
-29.7221602002
 20
29.4594539961
 10
-29.7224363986
 20
29.4240636486
  0
LWPOLYLINE
  5
25A
100
AcDbEntity
  8
0
100
AcDbPolyline
 62
250
  6
CONTINUOUS
 90
10
 70
0
 10
-30.3886321035
 20
30.7746060455
 10
-30.3735129397
 20
30.8638805416
 10
-30.3558316422
 20
30.9513457952
 10
-30.3356045862
 20
31.0368023297
 10
-30.3128144183
 20
31.1202125808
 10
-30.2874808725
 20
31.201431049
 10
-30.259655639
 20
31.2803231733
 10
-30.2294020898
 20
31.3568456531
 10
-30.1966785398
 20
31.4310334955
 10
-30.1614630796
 20
31.5026697897
  0
LWPOLYLINE
  5
25B
100
AcDbEntity
  8
0
100
AcDbPolyline
 62
250
  6
CONTINUOUS
 90
5
 70
0
 10
-28.2157792629
 20
29.0461998326
 10
-28.1740984935
 20
29.0595215211
 10
-28.1342071
 20
29.0735496691
 10
-28.0961894041
 20
29.088158277
 10
-28.0600430229
 20
29.1033543882
  0
LWPOLYLINE
  5
25C
100
AcDbEntity
  8
0
100
AcDbPolyline
 62
250
  6
CONTINUOUS
 90
10
 70
0
 10
20.4961776488
 20
-34.2574302378
 10
20.6815869573
 20
-34.2693672946
 10
20.8687627295
 20
-34.2880957544
 10
21.0576768858
 20
-34.3135512365
 10
21.2491430626
 20
-34.3470967125
 10
21.4396877088
 20
-34.388130599
 10
21.6230424446
 20
-34.4332902631
 10
21.7972798356
 20
-34.4811031657
 10
21.9637957536
 20
-34.5325922815
 10
22.1223416479
 20
-34.5875853052
  0
LWPOLYLINE
  5
25D
100
AcDbEntity
  8
0
100
AcDbPolyline
 62
250
  6
CONTINUOUS
 90
31
 70
0
 10
20.4955734523
 20
-34.259101239
 10
20.4458203456
 20
-34.2553114752
 10
20.3962776449
 20
-34.2503833277
 10
20.347122836
 20
-34.2443291512
 10
20.2985634547
 20
-34.2372012573
 10
20.2507372017
 20
-34.2289694487
 10
20.2037143896
 20
-34.2195232203
 10
20.1576316996
 20
-34.2088449949
 10
20.1126357504
 20
-34.1970119868
 10
20.0688036954
 20
-34.1840594372
 10
20.026224821
 20
-34.1700448858
 10
19.98509249
 20
-34.1549573514
 10
19.9456242735
 20
-34.1387480258
 10
19.9078528675
 20
-34.1213641834
 10
19.8719389106
 20
-34.1029868367
 10
19.8382176345
 20
-34.0839514373
 10
19.8068017771
 20
-34.0644392015
 10
19.7776539554
 20
-34.0443918964
 10
19.7508131392
 20
-34.0238056697
 10
19.7263385397
 20
-34.0027816884
 10
19.7041444617
 20
-33.9813804537
 10
19.6840759467
 20
-33.9595341042
 10
19.6661668314
 20
-33.9373051467
 10
19.6504453884
 20
-33.9147398467
 10
19.6368253093
 20
-33.8917225787
 10
19.6253527778
 20
-33.86829194
 10
19.6160899474
 20
-33.8445101595
 10
19.6090571436
 20
-33.8202879663
 10
19.6043407472
 20
-33.7956100858
 10
19.6020562661
 20
-33.7706006875
 10
19.6019012221
 20
-33.7657248148
  0
LWPOLYLINE
  5
25E
100
AcDbEntity
  8
0
100
AcDbPolyline
 62
7
  6
CONTINUOUS
 90
5
 70
0
 10
20.8596677264
 20
-38.0682536488
 10
20.8850182262
 20
-38.0722550338
 10
20.9099492062
 20
-38.0725891061
 10
20.9340179722
 20
-38.068819908
 10
20.9572059383
 20
-38.0603211245
  0
LINE
  5
25F
100
AcDbEntity
  8
0
100
AcDbLine
 62
7
  6
CONTINUOUS
 10
20.8976703155
 20
-38.0605651715
 11
20.8752631644
 21
-38.0561752284
  0
LWPOLYLINE
  5
260
100
AcDbEntity
  8
0
100
AcDbPolyline
 62
250
  6
CONTINUOUS
 90
16
 70
0
 10
29.6660337252
 20
-48.3981642135
 10
29.9930270115
 20
-48.5053952775
 10
30.3102636339
 20
-48.599005279
 10
30.6170986939
 20
-48.6784854122
 10
30.9131714888
 20
-48.7436288185
 10
31.1983610107
 20
-48.7945132385
 10
31.4718206177
 20
-48.8306279548
 10
31.7325032289
 20
-48.8507052511
 10
31.9798509972
 20
-48.8540064965
 10
32.213067725
 20
-48.8399304831
 10
32.4318607637
 20
-48.8086311643
 10
32.6359258969
 20
-48.7599723086
 10
32.8249126676
 20
-48.6936846482
 10
32.9981755126
 20
-48.6113378169
 10
33.1554895049
 20
-48.5156980563
 10
33.2977777052
 20
-48.4090764274
  0
LINE
  5
261
100
AcDbEntity
  8
0
100
AcDbLine
 62
250
  6
CONTINUOUS
 10
36.9578598403
 20
-54.5870176957
 11
37.5823958151
 21
-54.8809191736
  0
LWPOLYLINE
  5
262
100
AcDbEntity
  8
0
100
AcDbPolyline
 62
250
  6
CONTINUOUS
 90
4
 70
0
 10
37.5823958151
 20
-54.8809191736
 10
37.7270426014
 20
-54.9495695296
 10
37.8673186519
 20
-55.0172605258
 10
38.0028380838
 20
-55.081790989
  0
LWPOLYLINE
  5
263
100
AcDbEntity
  8
0
100
AcDbPolyline
 62
7
  6
CONTINUOUS
 90
36
 70
0
 10
38.4029312167
 20
-55.5012044568
 10
38.4363238847
 20
-55.5171361349
 10
38.4710390965
 20
-55.5331057686
 10
38.5070222741
 20
-55.5489228444
 10
38.5441746419
 20
-55.5644969677
 10
38.5819930992
 20
-55.5795801866
 10
38.6202239953
 20
-55.5940539528
 10
38.6590714621
 20
-55.6079794732
 10
38.6986545138
 20
-55.6213726493
 10
38.7389977608
 20
-55.6341967947
 10
38.7800555709
 20
-55.6463702567
 10
38.8218529026
 20
-55.6578285415
 10
38.8644879161
 20
-55.6685187468
 10
38.907843386
 20
-55.6783486154
 10
38.9516080366
 20
-55.6872370337
 10
38.9955750201
 20
-55.6951541996
 10
39.0399233185
 20
-55.7021450179
 10
39.0849110241
 20
-55.708228835
 10
39.130604048
 20
-55.713348007
 10
39.1768980288
 20
-55.7174195447
 10
39.2237926442
 20
-55.7203728187
 10
39.2712878668
 20
-55.7221389598
 10
39.3193254035
 20
-55.7226524848
 10
39.3678133263
 20
-55.7218529556
 10
39.4167186098
 20
-55.7196841202
 10
39.4660061934
 20
-55.716094852
 10
39.5155760939
 20
-55.7110444409
 10
39.5653850112
 20
-55.704491038
 10
39.6154036529
 20
-55.6963915599
 10
39.6655515009
 20
-55.6867173084
 10
39.7157713629
 20
-55.6754416544
 10
39.7660418534
 20
-55.6625308107
 10
39.8163314912
 20
-55.6479513758
 10
39.8665924857
 20
-55.6316731398
 10
39.9167671739
 20
-55.613668281
 10
39.9650440698
 20
-55.5946316577
  0
LWPOLYLINE
  5
264
100
AcDbEntity
  8
0
100
AcDbPolyline
 62
250
  6
CONTINUOUS
 90
3
 70
0
 10
34.7052062206
 20
-53.4966371561
 10
35.186090902
 20
-53.7259100216
 10
35.4139065538
 20
-53.8355690591
  0
LINE
  5
265
100
AcDbEntity
  8
0
100
AcDbLine
 62
250
  6
CONTINUOUS
 10
36.612987134
 20
-54.4219635096
 11
36.9578598403
 21
-54.5870176957
  0
LINE
  5
266
100
AcDbEntity
  8
0
100
AcDbLine
 62
7
  6
CONTINUOUS
 10
38.3125615398
 20
-55.4570898178
 11
38.4029312167
 21
-55.5012044568
  0
LINE
  5
267
100
AcDbEntity
  8
0
100
AcDbLine
 62
250
  6
CONTINUOUS
 10
35.4139065538
 20
-53.8355690591
 11
36.612987134
 21
-54.4219635096
  0
LINE
  5
268
100
AcDbEntity
  8
0
100
AcDbLine
 62
7
  6
CONTINUOUS
 10
38.2409113959
 20
-55.4214605854
 11
38.3125615398
 21
-55.4570898178
  0
LINE
  5
269
100
AcDbEntity
  8
0
100
AcDbLine
 62
250
  6
CONTINUOUS
 10
-40.936302692
 20
-15.6478146297
 11
-40.3681024887
 21
-15.9383912873
  0
LINE
  5
26A
100
AcDbEntity
  8
0
100
AcDbLine
 62
250
  6
CONTINUOUS
 10
-39.9577446291
 20
-16.1471339456
 11
-39.5151632627
 21
-16.3754650534
  0
LINE
  5
26B
100
AcDbEntity
  8
0
100
AcDbLine
 62
250
  6
CONTINUOUS
 10
-41.2883274855
 20
-15.4645627782
 11
-40.936302692
 21
-15.6478146297
  0
LWPOLYLINE
  5
26C
100
AcDbEntity
  8
0
100
AcDbPolyline
 62
250
  6
CONTINUOUS
 90
3
 70
0
 10
-42.3700451554
 20
-14.8953474499
 10
-42.229054371
 20
-14.9691526175
 10
-42.0834057226
 20
-15.0445538663
  0
LINE
  5
26D
100
AcDbEntity
  8
0
100
AcDbLine
 62
250
  6
CONTINUOUS
 10
-39.5151632627
 20
-16.3754650534
 11
-39.0384329854
 21
-16.6248158787
  0
LWPOLYLINE
  5
26E
100
AcDbEntity
  8
0
100
AcDbPolyline
 62
250
  6
CONTINUOUS
 90
4
 70
0
 10
-42.0834057226
 20
-15.0445538663
 10
-41.7791104621
 20
-15.2052916692
 10
-41.6203970552
 20
-15.2896280763
 10
-41.2883274855
 20
-15.4645627782
  0
LWPOLYLINE
  5
26F
100
AcDbEntity
  8
0
100
AcDbPolyline
 62
250
  6
CONTINUOUS
 90
9
 70
0
 10
-42.1328581944
 20
-15.23456078
 10
-42.1570593336
 20
-15.2211720856
 10
-42.2001404057
 20
-15.1909942987
 10
-42.2393124102
 20
-15.154856053
 10
-42.2743739941
 20
-15.1130503882
 10
-42.3050729071
 20
-15.0659144957
 10
-42.3312685938
 20
-15.0137257762
 10
-42.3528704688
 20
-14.9567239983
 10
-42.3697944348
 20
-14.8951475965
  0
LWPOLYLINE
  5
270
100
AcDbEntity
  8
0
100
AcDbPolyline
 62
250
  6
CONTINUOUS
 90
29
 70
0
 10
-42.5267522285
 20
-14.7970100833
 10
-42.5644696581
 20
-14.7736722317
 10
-42.5843760187
 20
-14.7606351879
 10
-42.6052117361
 20
-14.7464324156
 10
-42.6267181537
 20
-14.7313755798
 10
-42.6487995109
 20
-14.7155040069
 10
-42.6714813348
 20
-14.6987600322
 10
-42.6947487803
 20
-14.6812757872
 10
-42.7186853644
 20
-14.6630377007
 10
-42.7433988012
 20
-14.6438339155
 10
-42.7688817087
 20
-14.6235171401
 10
-42.7950852993
 20
-14.6020265245
 10
-42.8220653366
 20
-14.5792876965
 10
-42.8499290246
 20
-14.555153401
 10
-42.8785954898
 20
-14.5295859899
 10
-42.9080277966
 20
-14.502559919
 10
-42.9383869469
 20
-14.4739319917
 10
-42.9696686036
 20
-14.4436946323
 10
-43.0018275238
 20
-14.4116948523
 10
-43.0349641212
 20
-14.3775343429
 10
-43.068971567
 20
-14.3411203046
 10
-43.1038206276
 20
-14.3023854962
 10
-43.1396605254
 20
-14.260969762
 10
-43.1763136777
 20
-14.2167851567
 10
-43.2136719558
 20
-14.1697976361
 10
-43.2519560369
 20
-14.1196835857
 10
-43.291134704
 20
-14.0662577545
 10
-43.3309254752
 20
-14.0095188992
 10
-43.3711575079
 20
-13.9493836368
  0
LWPOLYLINE
  5
271
100
AcDbEntity
  8
0
100
AcDbPolyline
 62
250
  6
CONTINUOUS
 90
10
 70
0
 10
-42.4550497393
 20
-14.8455353698
 10
-42.4449617356
 20
-14.8523341441
 10
-42.4350291416
 20
-14.8588024155
 10
-42.4252535997
 20
-14.8649482726
 10
-42.4156331823
 20
-14.87078336
 10
-42.4061721343
 20
-14.8763109787
 10
-42.3968809515
 20
-14.8815263174
 10
-42.3877637475
 20
-14.8864318593
 10
-42.3788182223
 20
-14.8910371698
 10
-42.3700451554
 20
-14.8953474499
  0
LWPOLYLINE
  5
272
100
AcDbEntity
  8
0
100
AcDbPolyline
 62
7
  6
CONTINUOUS
 90
6
 70
0
 10
-42.6214381583
 20
-14.9516298542
 10
-42.5132590014
 20
-15.0253325812
 10
-42.4075217451
 20
-15.0904414091
 10
-42.3060645101
 20
-15.146351316
 10
-42.2080889813
 20
-15.1967279035
 10
-42.1328581944
 20
-15.23456078
  0
LWPOLYLINE
  5
273
100
AcDbEntity
  8
0
100
AcDbPolyline
 62
250
  6
CONTINUOUS
 90
5
 70
0
 10
-42.4551201749
 20
-14.8455901358
 10
-42.4715095751
 20
-14.834371318
 10
-42.4893542585
 20
-14.8219724338
 10
-42.508018666
 20
-14.8091547102
 10
-42.5267522285
 20
-14.7970100833
  0
LWPOLYLINE
  5
274
100
AcDbEntity
  8
0
100
AcDbPolyline
 62
250
  6
CONTINUOUS
 90
10
 70
0
 10
-30.4014720036
 20
-8.7992537995
 10
-30.4074691891
 20
-8.7399746614
 10
-30.4124900997
 20
-8.6821894331
 10
-30.4165798113
 20
-8.6258364244
 10
-30.4197836338
 20
-8.5708979122
 10
-30.4221292345
 20
-8.5172988423
 10
-30.4236153761
 20
-8.4649156762
 10
-30.4242432912
 20
-8.4137056512
 10
-30.4240246808
 20
-8.363702996
 10
-30.4230150617
 20
-8.3148983757
  0
LINE
  5
275
100
AcDbEntity
  8
0
100
AcDbLine
 62
250
  6
CONTINUOUS
 10
-30.4278146985
 20
-7.6466480736
 11
-30.4511565603
 21
-6.6528665743
  0
LWPOLYLINE
  5
276
100
AcDbEntity
  8
0
100
AcDbPolyline
 62
250
  6
CONTINUOUS
 90
10
 70
0
 10
-30.4230150033
 20
30.2156802367
 10
-30.4240265496
 20
30.2657178768
 10
-30.4242521249
 20
30.3162997819
 10
-30.4236299623
 20
30.3673733515
 10
-30.4221379648
 20
30.4189796931
 10
-30.4197708902
 20
30.4710585665
 10
-30.4165458176
 20
30.5234554984
 10
-30.4124496863
 20
30.5761347535
 10
-30.407437888
 20
30.6291690952
 10
-30.4014719438
 20
30.6825818875
  0
LINE
  5
277
100
AcDbEntity
  8
0
100
AcDbLine
 62
250
  6
CONTINUOUS
 10
-30.4511565603
 20
-6.6528665743
 11
-30.4631261613
 21
-5.9651217094
  0
LINE
  5
278
100
AcDbEntity
  8
0
100
AcDbLine
 62
250
  6
CONTINUOUS
 10
-30.4631261613
 20
-5.9651217094
 11
-30.4691707148
 21
-5.5019228439
  0
LWPOLYLINE
  5
279
100
AcDbEntity
  8
0
100
AcDbPolyline
 62
250
  6
CONTINUOUS
 90
3
 70
0
 10
-30.4915123226
 20
-3.6565169447
 10
-30.4723866318
 20
-5.1315494946
 10
-30.4692540738
 20
-5.5021197313
  0
LINE
  5
27A
100
AcDbEntity
  8
0
100
AcDbLine
 62
250
  6
CONTINUOUS
 10
-30.4943391982
 20
-2.2017840461
 11
-30.5316395229
 21
2.1464444523
  0
LWPOLYLINE
  5
27B
100
AcDbEntity
  8
0
100
AcDbPolyline
 62
250
  6
CONTINUOUS
 90
10
 70
0
 10
-29.7224364571
 20
-9.150095085
 10
-29.7221602968
 20
-9.1853744307
 10
-29.7212955511
 20
-9.2205403025
 10
-29.7198604286
 20
-9.2555782869
 10
-29.7178714243
 20
-9.290487443
 10
-29.7153475597
 20
-9.3252411788
 10
-29.7123117213
 20
-9.3597880186
 10
-29.7087843223
 20
-9.3941034117
 10
-29.7047819667
 20
-9.4281889471
 10
-29.7003226276
 20
-9.4620337705
  0
LINE
  5
27C
100
AcDbEntity
  8
0
100
AcDbLine
 62
250
  6
CONTINUOUS
 10
-30.5316395229
 20
2.1464444523
 11
-30.5505772164
 21
5.0536523367
  0
LWPOLYLINE
  5
27D
100
AcDbEntity
  8
0
100
AcDbPolyline
 62
250
  6
CONTINUOUS
 90
4
 70
0
 10
-30.4943395456
 20
24.1862104664
 10
-30.4963304691
 20
24.5479513691
 10
-30.4965643949
 20
24.9098331255
 10
-30.4951001438
 20
25.2718116106
  0
LWPOLYLINE
  5
27E
100
AcDbEntity
  8
0
100
AcDbPolyline
 62
250
  6
CONTINUOUS
 90
3
 70
0
 10
-30.4223866781
 20
29.9749532173
 10
-30.4231095299
 20
30.1369954561
 10
-30.4230150033
 20
30.2156802367
  0
LINE
  5
27F
100
AcDbEntity
  8
0
100
AcDbLine
 62
250
  6
CONTINUOUS
 10
-30.5505772164
 20
5.0536523367
 11
-30.5633761674
 21
8.0112120985
  0
LWPOLYLINE
  5
280
100
AcDbEntity
  8
0
100
AcDbPolyline
 62
250
  6
CONTINUOUS
 90
3
 70
0
 10
-30.4963919896
 20
-2.9262948887
 10
-30.495080934
 20
-3.2906256715
 10
-30.4915123226
 20
-3.6565169447
  0
LINE
  5
281
100
AcDbEntity
  8
0
100
AcDbLine
 62
250
  6
CONTINUOUS
 10
-30.5633761674
 20
8.0112120985
 11
-30.5694289666
 21
11.0303188221
  0
LINE
  5
282
100
AcDbEntity
  8
0
100
AcDbLine
 62
250
  6
CONTINUOUS
 10
-30.4230150617
 20
-8.3148983757
 11
-30.4231093954
 21
-8.2363721161
  0
LINE
  5
283
100
AcDbEntity
  8
0
100
AcDbLine
 62
250
  6
CONTINUOUS
 10
-29.715564982
 20
26.6144723707
 11
-29.7191000417
 21
29.4243629239
  0
LINE
  5
284
100
AcDbEntity
  8
0
100
AcDbLine
 62
250
  6
CONTINUOUS
 10
-29.7155750632
 20
26.6145197561
 11
-29.7155339052
 21
-9.1499775618
  0
LINE
  5
285
100
AcDbEntity
  8
0
100
AcDbLine
 62
250
  6
CONTINUOUS
 10
-28.0258668662
 20
-9.4520193326
 11
-28.025866875
 21
29.1191070409
  0
LINE
  5
286
100
AcDbEntity
  8
0
100
AcDbLine
 62
250
  6
CONTINUOUS
 10
-30.5694289666
 20
11.0303188225
 11
-30.5633735126
 21
14.0443730858
  0
LINE
  5
287
100
AcDbEntity
  8
0
100
AcDbLine
 62
250
  6
CONTINUOUS
 10
-30.4943365704
 20
-2.2017386698
 11
-30.4963919896
 21
-2.9262948887
  0
LINE
  5
288
100
AcDbEntity
  8
0
100
AcDbLine
 62
250
  6
CONTINUOUS
 10
-30.5633735126
 20
14.0443730858
 11
-30.550571759
 21
16.9899520188
  0
LWPOLYLINE
  5
289
100
AcDbEntity
  8
0
100
AcDbPolyline
 62
250
  6
CONTINUOUS
 90
6
 70
0
 10
-30.4231093954
 20
-8.2363721161
 10
-30.4223866882
 20
-8.0751416558
 10
-30.4224755134
 20
-7.9922134682
 10
-30.4233187382
 20
-7.907731575
 10
-30.4245774547
 20
-7.821974075
 10
-30.4278146985
 20
-7.6466480736
  0
LINE
  5
28A
100
AcDbEntity
  8
0
100
AcDbLine
 62
250
  6
CONTINUOUS
 10
-30.550571759
 20
16.9899520188
 11
-30.531632662
 21
19.8781536235
  0
LINE
  5
28B
100
AcDbEntity
  8
0
100
AcDbLine
 62
250
  6
CONTINUOUS
 10
-30.531632662
 20
19.8781536235
 11
-30.4943391603
 21
24.1862117743
  0
LWPOLYLINE
  5
28C
100
AcDbEntity
  8
0
100
AcDbPolyline
 62
250
  6
CONTINUOUS
 90
3
 70
0
 10
-30.42331891
 20
29.80897747
 10
-30.4224755329
 20
29.8922991002
 10
-30.4223866781
 20
29.9749532173
  0
LINE
  5
28D
100
AcDbEntity
  8
0
100
AcDbLine
 62
250
  6
CONTINUOUS
 10
-30.4951001438
 20
25.2718116106
 11
-30.4663710735
 21
27.686925375
  0
LINE
  5
28E
100
AcDbEntity
  8
0
100
AcDbLine
 62
250
  6
CONTINUOUS
 10
-30.4260309443
 20
29.6397351914
 11
-30.42331891
 21
29.80897747
  0
LINE
  5
28F
100
AcDbEntity
  8
0
100
AcDbLine
 62
250
  6
CONTINUOUS
 10
-30.4663710735
 20
27.686925375
 11
-30.4555300626
 21
28.3647669984
  0
LINE
  5
290
100
AcDbEntity
  8
0
100
AcDbLine
 62
250
  6
CONTINUOUS
 10
-30.4555300626
 20
28.3647669984
 11
-30.4411527922
 21
29.0299501448
  0
LINE
  5
291
100
AcDbEntity
  8
0
100
AcDbLine
 62
250
  6
CONTINUOUS
 10
-30.4411527922
 20
29.0299501448
 11
-30.4260309443
 21
29.6397351914
  0
LINE
  5
292
100
AcDbEntity
  8
0
100
AcDbLine
 62
250
  6
CONTINUOUS
 10
-28.0257417189
 20
29.1190440432
 11
-28.0251710954
 21
29.14073222
  0
LWPOLYLINE
  5
293
100
AcDbEntity
  8
0
100
AcDbPolyline
 62
250
  6
CONTINUOUS
 90
10
 70
0
 10
-26.2084617078
 20
31.193218029
 10
-26.2270807436
 20
31.0157540321
 10
-26.2545180288
 20
30.8353583875
 10
-26.2906275288
 20
30.6528430857
 10
-26.3354242323
 20
30.4684140083
 10
-26.388653714
 20
30.2835005136
 10
-26.4495182121
 20
30.1007533421
 10
-26.5173905495
 20
29.9215576047
 10
-26.5920878194
 20
29.7460360529
 10
-26.6732485996
 20
29.5748781592
  0
LWPOLYLINE
  5
294
100
AcDbEntity
  8
0
100
AcDbPolyline
 62
250
  6
CONTINUOUS
 90
13
 70
0
 10
-1.5403476412
 20
33.5566159387
 10
-1.6085836805
 20
33.5140266507
 10
-1.6756427196
 20
33.4639835402
 10
-1.7410444875
 20
33.4068968759
 10
-1.804350582
 20
33.343125926
 10
-1.8651052513
 20
33.2730190859
 10
-1.922613039
 20
33.1972828033
 10
-1.9761397391
 20
33.1167855715
 10
-2.0249616291
 20
33.0326707024
 10
-2.0684654783
 20
32.9461423885
 10
-2.1064333959
 20
32.8578980141
 10
-2.1387168009
 20
32.7684442918
 10
-2.1650898673
 20
32.6784206137
  0
LWPOLYLINE
  5
295
100
AcDbEntity
  8
RACCORDO
100
AcDbPolyline
 62
7
  6
CONTINUOUS
 90
5
 70
0
 10
15.1179811737
 20
-28.0805078501
 10
15.1382788292
 20
-28.0757944554
 10
15.159504824
 20
-28.0744461597
 10
15.1811244847
 20
-28.0763882961
 10
15.2025407577
 20
-28.0817920683
  0
LWPOLYLINE
  5
296
100
AcDbEntity
  8
0
100
AcDbPolyline
 62
7
  6
CONTINUOUS
 90
6
 70
0
 10
20.8752631644
 20
-38.0561752284
 10
20.8667231767
 20
-38.053865307
 10
20.8582284918
 20
-38.0512127132
 10
20.8497908261
 20
-38.0482356387
 10
20.8414211344
 20
-38.0449522433
 10
20.8331296196
 20
-38.0413806038
  0
LWPOLYLINE
  5
297
100
AcDbEntity
  8
0
100
AcDbPolyline
 62
250
  6
CONTINUOUS
 90
6
 70
0
 10
26.4744070884
 20
-47.0593270142
 10
27.1504041711
 20
-47.3709342355
 10
27.8079371092
 20
-47.6626038546
 10
28.4463939504
 20
-47.9310624848
 10
29.0657911508
 20
-48.1775291691
 10
29.6660485415
 20
-48.3981801943
  0
LINE
  5
298
100
AcDbEntity
  8
0
100
AcDbLine
 62
250
  6
CONTINUOUS
 10
25.0693418209
 20
-46.3998746691
 11
26.4744070884
 21
-47.0593270142
  0
LINE
  5
299
100
AcDbEntity
  8
0
100
AcDbLine
 62
250
  6
CONTINUOUS
 10
22.8268818999
 20
-45.3320227499
 11
25.0693418209
 21
-46.3998746691
  0
LINE
  5
29A
100
AcDbEntity
  8
0
100
AcDbLine
 62
250
  6
CONTINUOUS
 10
20.4163286348
 20
-44.1729667845
 11
22.8268818999
 21
-45.3320227499
  0
LINE
  5
29B
100
AcDbEntity
  8
0
100
AcDbLine
 62
250
  6
CONTINUOUS
 10
17.8200560781
 20
-42.911732676
 11
20.4163286348
 21
-44.1729667845
  0
LINE
  5
29C
100
AcDbEntity
  8
0
100
AcDbLine
 62
250
  6
CONTINUOUS
 10
15.9797341216
 20
-42.0094555629
 11
17.8200560781
 21
-42.911732676
  0
LINE
  5
29D
100
AcDbEntity
  8
0
100
AcDbLine
 62
250
  6
CONTINUOUS
 10
13.9586257865
 20
-41.0097187586
 11
15.9797070401
 21
-42.0094225139
  0
LINE
  5
29E
100
AcDbEntity
  8
0
100
AcDbLine
 62
250
  6
CONTINUOUS
 10
29.6817399792
 20
-50.9924489441
 11
34.7051829439
 21
-53.4966164158
  0
LINE
  5
29F
100
AcDbEntity
  8
0
100
AcDbLine
 62
7
  6
CONTINUOUS
 10
30.7382698293
 20
-51.6729070988
 11
38.2422265846
 21
-55.422114591
  0
LINE
  5
2A0
100
AcDbEntity
  8
0
100
AcDbLine
 62
250
  6
CONTINUOUS
 10
-19.7821869356
 20
-24.1393115924
 11
13.9586257865
 21
-41.0097187586
  0
LINE
  5
2A1
100
AcDbEntity
  8
0
100
AcDbLine
 62
250
  6
CONTINUOUS
 10
24.516352003
 20
-48.4076428896
 11
29.6817399792
 21
-50.9924489441
  0
LINE
  5
2A2
100
AcDbEntity
  8
0
100
AcDbLine
 62
7
  6
CONTINUOUS
 10
-42.1308642974
 20
-15.2355706561
 11
30.7382698293
 21
-51.6729070988
  0
LWPOLYLINE
  5
2A3
100
AcDbEntity
  8
0
100
AcDbPolyline
 62
250
  6
CONTINUOUS
 90
3
 70
0
 10
-39.0384131702
 20
-16.6248165971
 10
-37.3753499757
 20
-17.459997271
 10
24.516352003
 20
-48.4076428896
  0
LINE
  5
2A4
100
AcDbEntity
  8
0
100
AcDbLine
 62
250
  6
CONTINUOUS
 10
-40.3681024887
 20
-15.9383912873
 11
-39.9577446291
 21
-16.1471339456
  0
LWPOLYLINE
  5
2A5
100
AcDbEntity
  8
0
100
AcDbPolyline
 62
250
  6
CONTINUOUS
 90
10
 70
0
 10
38.0028380838
 20
-55.081790989
 10
38.0117520569
 20
-55.0863262015
 10
38.0207528209
 20
-55.0906957199
 10
38.0298393787
 20
-55.0948934059
 10
38.0390158605
 20
-55.0989129627
 10
38.048275833
 20
-55.1027464219
 10
38.0576023557
 20
-55.1063844995
 10
38.0669888663
 20
-55.1098184069
 10
38.0764390773
 20
-55.1130394277
 10
38.0859510753
 20
-55.1160377005
  0
LINE
  5
2A6
100
AcDbEntity
  8
0
100
AcDbLine
 62
250
  6
CONTINUOUS
 10
-22.7338829874
 20
-22.6445072749
 11
-19.7821869356
 21
-24.1393115924
  0
LINE
  5
2A7
100
AcDbEntity
  8
0
100
AcDbLine
 62
250
  6
CONTINUOUS
 10
-25.39512911
 20
-21.2806786656
 11
-22.7338829874
 21
-22.6445072749
  0
LINE
  5
2A8
100
AcDbEntity
  8
0
100
AcDbLine
 62
250
  6
CONTINUOUS
 10
-27.8653795588
 20
-20.0022613741
 11
-25.39512911
 21
-21.2806786656
  0
LINE
  5
2A9
100
AcDbEntity
  8
0
100
AcDbLine
 62
250
  6
CONTINUOUS
 10
-30.8919460109
 20
-18.4192566368
 11
-27.8653795588
 21
-20.0022613741
  0
LWPOLYLINE
  5
2AA
100
AcDbEntity
  8
0
100
AcDbPolyline
 62
250
  6
CONTINUOUS
 90
9
 70
0
 10
38.2409113959
 20
-55.4214605854
 10
38.2151405022
 20
-55.4072871501
 10
38.1725956868
 20
-55.3775368442
 10
38.1337038718
 20
-55.3417236834
 10
38.0988124681
 20
-55.3001299318
 10
38.0681319402
 20
-55.2530448985
 10
38.0418385507
 20
-55.2007589362
 10
38.0200977113
 20
-55.1435178832
 10
38.0030864859
 20
-55.0815899447
  0
LWPOLYLINE
  5
2AB
100
AcDbEntity
  8
0
100
AcDbPolyline
 62
250
  6
CONTINUOUS
 90
7
 70
0
 10
-1.9488491851
 20
-35.3296265131
 10
-1.9761397576
 20
-35.314531544
 10
-2.0249616498
 20
-35.2792385638
 10
-2.0684655008
 20
-35.236214098
 10
-2.10643342
 20
-35.1859376403
 10
-2.1387168264
 20
-35.1287673223
 10
-2.1650898938
 20
-35.06511671
  0
LWPOLYLINE
  5
2AC
100
AcDbEntity
  8
0
100
AcDbPolyline
 62
250
  6
CONTINUOUS
 90
7
 70
0
 10
-35.4896016091
 20
-15.8203553712
 10
-34.8892389206
 20
-16.2000268904
 10
-34.2697226811
 20
-16.5730251866
 10
-33.6311376392
 20
-16.9430907589
 10
-32.973468389
 20
-17.3090207586
 10
-32.2973286005
 20
-17.673481151
 10
-30.8919460109
 20
-18.4192566368
  0
LWPOLYLINE
  5
2AD
100
AcDbEntity
  8
0
100
AcDbPolyline
 62
250
  6
CONTINUOUS
 90
46
 70
0
 10
-28.2729908478
 20
-11.5913771993
 10
-28.3768912799
 20
-11.4823457526
 10
-28.3968811255
 20
-11.4567874987
 10
-28.4155786989
 20
-11.4290553415
 10
-28.4329280824
 20
-11.3991953559
 10
-28.4488068967
 20
-11.3673195188
 10
-28.4630455463
 20
-11.3336201171
 10
-28.4755817651
 20
-11.2982390497
 10
-28.4864029884
 20
-11.2612611083
 10
-28.4954475222
 20
-11.2228096218
 10
-28.502657928
 20
-11.1830059902
 10
-28.5080397204
 20
-11.1419491047
 10
-28.5116312436
 20
-11.0997316447
 10
-28.5134862688
 20
-11.0564116911
 10
-28.513546772
 20
-11.0121832753
 10
-28.5117277388
 20
-10.9673563658
 10
-28.5079895735
 20
-10.9220076364
 10
-28.502436028
 20
-10.8762997164
 10
-28.4952706906
 20
-10.8306917483
 10
-28.4866764771
 20
-10.7855403717
 10
-28.4766576617
 20
-10.7407520128
 10
-28.4651593166
 20
-10.6961118825
 10
-28.4522671205
 20
-10.6518904854
 10
-28.438010515
 20
-10.60801727
 10
-28.4221479799
 20
-10.5637590306
 10
-28.4045553608
 20
-10.5189426401
 10
-28.3853202141
 20
-10.4739687907
 10
-28.3644489232
 20
-10.4289826404
 10
-28.3418607548
 20
-10.3839619147
 10
-28.31763126
 20
-10.3392055785
 10
-28.2920625062
 20
-10.2953189055
 10
-28.2653159254
 20
-10.2525582973
 10
-28.2373757387
 20
-10.2108845557
 10
-28.2083272105
 20
-10.1704295716
 10
-28.1782398845
 20
-10.1313019837
 10
-28.1471903417
 20
-10.0936051764
 10
-28.1152824144
 20
-10.0574521136
 10
-28.0825298068
 20
-10.0228592089
 10
-28.049087046
 20
-9.9899922832
 10
-28.015284381
 20
-9.9591480715
 10
-27.9812531051
 20
-9.9303404786
 10
-27.9470527938
 20
-9.9036259857
 10
-27.9129363944
 20
-9.8792706701
 10
-27.8790625307
 20
-9.8573126874
 10
-27.845471455
 20
-9.8376205059
 10
-27.8122407047
 20
-9.8201514375
  0
LWPOLYLINE
  5
2AE
100
AcDbEntity
  8
0
100
AcDbPolyline
 62
250
  6
CONTINUOUS
 90
8
 70
0
 10
-29.0604860088
 20
-10.91367342
 10
-28.967992954
 20
-11.0222120416
 10
-28.8717800109
 20
-11.123755371
 10
-28.7724483974
 20
-11.2176212171
 10
-28.6706688345
 20
-11.3031712823
 10
-28.5670248482
 20
-11.3798983553
 10
-28.4619158333
 20
-11.4474776345
 10
-28.3556954916
 20
-11.5056504271
  0
LINE
  5
2AF
100
AcDbEntity
  8
0
100
AcDbLine
 62
250
  6
CONTINUOUS
 10
-29.0985017524
 20
-10.8656298227
 11
-29.0604860088
 21
-10.91367342
  0
LINE
  5
2B0
100
AcDbEntity
  8
0
100
AcDbLine
 62
7
  6
CONTINUOUS
 10
-29.1034443729
 20
-10.8592257703
 11
-29.0985017524
 21
-10.8656298227
  0
LWPOLYLINE
  5
2B1
100
AcDbEntity
  8
0
100
AcDbPolyline
 62
250
  6
CONTINUOUS
 90
10
 70
0
 10
-29.7003221231
 20
-9.4620352153
 10
-29.7261687923
 20
-9.3881799074
 10
-29.7652785232
 20
-9.3164102813
 10
-29.8174705864
 20
-9.2470918916
 10
-29.8826427035
 20
-9.1805206992
 10
-29.9605473445
 20
-9.1171562862
 10
-30.0505908267
 20
-9.0575239922
 10
-30.1522006594
 20
-9.0019117456
 10
-30.2650274957
 20
-8.9504690706
 10
-30.3886256797
 20
-8.9034163022
  0
LWPOLYLINE
  5
2B2
100
AcDbEntity
  8
0
100
AcDbPolyline
 62
250
  6
CONTINUOUS
 90
10
 70
0
 10
-30.1614631559
 20
-9.8526359641
 10
-30.1966786132
 20
-9.7463824375
 10
-30.2294021601
 20
-9.640086987
 10
-30.2596557062
 20
-9.533948697
 10
-30.2874809361
 20
-9.427891058
 10
-30.3128144783
 20
-9.3220191631
 10
-30.3356046434
 20
-9.216511523
 10
-30.3558316975
 20
-9.1115276223
 10
-30.3735129939
 20
-9.0070925736
 10
-30.3886321572
 20
-8.9034200091
  0
LWPOLYLINE
  5
2B3
100
AcDbEntity
  8
0
100
AcDbPolyline
 62
7
  6
CONTINUOUS
 90
9
 70
0
 10
-29.6200003873
 20
-9.8367232585
 10
-29.5693360858
 20
-9.9956807125
 10
-29.5134378548
 20
-10.1433802575
 10
-29.4500350608
 20
-10.2882847468
 10
-29.379283513
 20
-10.4300776421
 10
-29.3015997642
 20
-10.5677905356
 10
-29.2171427514
 20
-10.7010243568
 10
-29.1261119715
 20
-10.8293793316
 10
-29.1034443729
 20
-10.8592257703
  0
LWPOLYLINE
  5
2B4
100
AcDbEntity
  8
0
100
AcDbPolyline
 62
250
  6
CONTINUOUS
 90
46
 70
0
 10
-29.7155339052
 20
-9.1499775618
 10
-29.7079138457
 20
-9.174168349
 10
-29.6978254531
 20
-9.1983094609
 10
-29.6852983134
 20
-9.2223482003
 10
-29.6703378804
 20
-9.246276153
 10
-29.6529960732
 20
-9.2699904809
 10
-29.6334077837
 20
-9.2933004656
 10
-29.6116790059
 20
-9.3161168751
 10
-29.5878473056
 20
-9.3384274148
 10
-29.5619769749
 20
-9.3601623712
 10
-29.5341378734
 20
-9.3812672534
 10
-29.504395299
 20
-9.4016929062
 10
-29.4728037502
 20
-9.421376376
 10
-29.4393909129
 20
-9.4402834562
 10
-29.4042569461
 20
-9.4583400133
 10
-29.3675777867
 20
-9.4754296858
 10
-29.3293572295
 20
-9.4915313413
 10
-29.2897449323
 20
-9.5065720907
 10
-29.2491867856
 20
-9.5203936254
 10
-29.2079941377
 20
-9.5329197569
 10
-29.1660850723
 20
-9.5442115171
 10
-29.1233279126
 20
-9.5543302997
 10
-29.0799572542
 20
-9.5632267439
 10
-29.0359060063
 20
-9.5709147628
 10
-28.9905561551
 20
-9.5775083956
 10
-28.9437307626
 20
-9.583013528
 10
-28.8957956233
 20
-9.5873607289
 10
-28.8469364914
 20
-9.5905196286
 10
-28.7971311586
 20
-9.5924706557
 10
-28.746645096
 20
-9.5931895793
 10
-28.6961142766
 20
-9.5926821433
 10
-28.6458654001
 20
-9.5909747091
 10
-28.5958438301
 20
-9.5880877178
 10
-28.5461182338
 20
-9.5840502756
 10
-28.4968183743
 20
-9.5788864192
 10
-28.4480787087
 20
-9.5725996466
 10
-28.39997648
 20
-9.5651796815
 10
-28.3525355716
 20
-9.5566192777
 10
-28.3060029662
 20
-9.5469401941
 10
-28.2607755004
 20
-9.5361915166
 10
-28.2169363988
 20
-9.5243915678
 10
-28.1746251837
 20
-9.5115785886
 10
-28.134267367
 20
-9.4978759472
 10
-28.0960285679
 20
-9.4833703355
 10
-28.0598504664
 20
-9.4680836106
 10
-28.0257768867
 20
-9.4520651792
  0
LINE
  5
2B5
100
AcDbEntity
  8
0
100
AcDbLine
 62
7
  6
CONTINUOUS
 10
-29.6224528756
 20
-9.8281623792
 11
-29.6200003873
 21
-9.8367232585
  0
LINE
  5
2B6
100
AcDbEntity
  8
0
100
AcDbLine
 62
250
  6
CONTINUOUS
 10
-29.6465929625
 20
-9.7378033036
 11
-29.6224528756
 21
-9.8281623792
  0
LWPOLYLINE
  5
2B7
100
AcDbEntity
  8
0
100
AcDbPolyline
 62
250
  6
CONTINUOUS
 90
3
 70
0
 10
-29.7003226276
 20
-9.4620337705
 10
-29.6773804915
 20
-9.5992897869
 10
-29.6465929625
 20
-9.7378033036
  0
LINE
  5
2B8
100
AcDbEntity
  8
0
100
AcDbLine
 62
250
  6
CONTINUOUS
 10
-30.3886321572
 20
-8.9034200091
 11
-30.3917204783
 21
-8.8799286627
  0
LINE
  5
2B9
100
AcDbEntity
  8
0
100
AcDbLine
 62
250
  6
CONTINUOUS
 10
-30.3917204783
 20
-8.8799286627
 11
-30.3946581337
 21
-8.8566651537
  0
LWPOLYLINE
  5
2BA
100
AcDbEntity
  8
0
100
AcDbPolyline
 62
250
  6
CONTINUOUS
 90
9
 70
0
 10
-27.8954625568
 20
-12.6112090662
 10
-27.9139588712
 20
-12.4592015995
 10
-27.940924949
 20
-12.3130970726
 10
-27.9762545898
 20
-12.1733899903
 10
-28.0197364331
 20
-12.0403829618
 10
-28.0714228024
 20
-11.9147954024
 10
-28.1312283478
 20
-11.7977124861
 10
-28.1986157185
 20
-11.6898030613
 10
-28.2729908478
 20
-11.5913771993
  0
LINE
  5
2BB
100
AcDbEntity
  8
0
100
AcDbLine
 62
250
  6
CONTINUOUS
 10
-30.3946581337
 20
-8.8566651537
 11
-30.3988229306
 21
-8.8221123114
  0
LINE
  5
2BC
100
AcDbEntity
  8
0
100
AcDbLine
 62
250
  6
CONTINUOUS
 10
-30.3988229306
 20
-8.8221123114
 11
-30.4014721299
 21
-8.7992534422
  0
LWPOLYLINE
  5
2BD
100
AcDbEntity
  8
0
100
AcDbPolyline
 62
250
  6
CONTINUOUS
 90
10
 70
0
 10
-24.8383167329
 20
-14.1967393762
 10
-24.8558312066
 20
-14.034847203
 10
-24.8825002902
 20
-13.879063878
 10
-24.9181594963
 20
-13.7300542102
 10
-24.9628091688
 20
-13.5880194097
 10
-25.0161751716
 20
-13.4541558991
 10
-25.0774191146
 20
-13.3303644259
 10
-25.1458732495
 20
-13.2174037363
 10
-25.2213299642
 20
-13.1151824287
 10
-25.3033989613
 20
-13.024014487
  0
LINE
  5
2BE
100
AcDbEntity
  8
0
100
AcDbLine
 62
7
  6
CONTINUOUS
 10
-26.1294409992
 20
-8.511734546
 11
-26.1294409542
 21
28.1928670589
  0
LWPOLYLINE
  5
2BF
100
AcDbEntity
  8
0
100
AcDbPolyline
 62
250
  6
CONTINUOUS
 90
10
 70
0
 10
-24.8383385897
 20
30.527467312
 10
-24.8555814134
 20
30.3511916755
 10
-24.8819505945
 20
30.1712840286
 10
-24.9173584296
 20
29.9884882771
 10
-24.9618748293
 20
29.8029489309
 10
-25.0152933198
 20
29.61608
 10
-25.0768451352
 20
29.4305653637
 10
-25.1459254379
 20
29.2478183878
 10
-25.2223790119
 20
29.0679823064
 10
-25.3058657679
 20
28.8917991352
  0
LWPOLYLINE
  5
2C0
100
AcDbEntity
  8
0
100
AcDbPolyline
 62
250
  6
CONTINUOUS
 90
3
 70
0
 10
19.9190555144
 20
-36.5104091754
 10
19.7611048803
 20
-36.4413193534
 10
19.6018421825
 20
-36.3598637791
  0
LWPOLYLINE
  5
2C1
100
AcDbEntity
  8
0
100
AcDbPolyline
 62
250
  6
CONTINUOUS
 90
19
 70
0
 10
19.1342621846
 20
-35.250630426
 10
19.2406147415
 20
-35.2987458835
 10
19.3458244819
 20
-35.3363301592
 10
19.4495380597
 20
-35.3632866656
 10
19.5513616895
 20
-35.3795414552
 10
19.6507074071
 20
-35.3850145334
 10
19.7468898809
 20
-35.3796663776
 10
19.8392928077
 20
-35.3635697615
 10
19.9274093257
 20
-35.3368313847
 10
20.0107406706
 20
-35.2996187446
 10
20.0888119938
 20
-35.2521703376
 10
20.1611221541
 20
-35.1947237819
 10
20.2272559674
 20
-35.1276552093
 10
20.2868470224
 20
-35.05141361
 10
20.339573825
 20
-34.9664949136
 10
20.3851322103
 20
-34.8734104485
 10
20.4232168338
 20
-34.7726541926
 10
20.4536011691
 20
-34.6647493173
 10
20.4761223326
 20
-34.5502574619
  0
LWPOLYLINE
  5
2C2
100
AcDbEntity
  8
0
100
AcDbPolyline
 62
7
  6
CONTINUOUS
 90
7
 70
0
 10
20.8035612975
 20
-38.0482208905
 10
20.8127447454
 20
-38.0524999428
 10
20.8220139007
 20
-38.0564330163
 10
20.8313555248
 20
-38.0599975372
 10
20.8407553764
 20
-38.0631708742
 10
20.8501982015
 20
-38.0659304155
 10
20.8596677264
 20
-38.0682536488
  0
LINE
  5
2C3
100
AcDbEntity
  8
0
100
AcDbLine
 62
250
  6
CONTINUOUS
 10
19.2796907466
 20
-36.2006106196
 11
18.7373318916
 21
-35.9478656838
  0
LINE
  5
2C4
100
AcDbEntity
  8
0
100
AcDbLine
 62
7
  6
CONTINUOUS
 10
20.8331296196
 20
-38.0413806038
 11
20.8249257449
 21
-38.0375386668
  0
LINE
  5
2C5
100
AcDbEntity
  8
0
100
AcDbLine
 62
7
  6
CONTINUOUS
 10
20.4127172866
 20
-36.8790207357
 11
20.7688796013
 21
-37.0466654212
  0
LINE
  5
2C6
100
AcDbEntity
  8
0
100
AcDbLine
 62
7
  6
CONTINUOUS
 10
20.7901951766
 20
-37.0360076336
 11
20.4340873885
 21
-36.8683797836
  0
LINE
  5
2C7
100
AcDbEntity
  8
0
100
AcDbLine
 62
250
  6
CONTINUOUS
 10
18.7373318916
 20
-35.9478656838
 11
18.374656168
 21
-35.7769102522
  0
LWPOLYLINE
  5
2C8
100
AcDbEntity
  8
0
100
AcDbPolyline
 62
250
  6
CONTINUOUS
 90
6
 70
0
 10
16.0850812944
 20
-33.7237975002
 10
16.0094011566
 20
-33.687641086
 10
15.9251772063
 20
-33.6468055726
 10
15.8362413272
 20
-33.6031949039
 10
15.7480444395
 20
-33.5593821643
 10
-2.0206921459
 20
-24.6748488683
  0
LINE
  5
2C9
100
AcDbEntity
  8
0
100
AcDbLine
 62
7
  6
CONTINUOUS
 10
20.191505712
 20
-36.7734845425
 11
20.4127172866
 21
-36.8790207357
  0
LINE
  5
2CA
100
AcDbEntity
  8
0
100
AcDbLine
 62
7
  6
CONTINUOUS
 10
20.4340873885
 20
-36.8683797836
 11
20.2128704984
 21
-36.7628331145
  0
LINE
  5
2CB
100
AcDbEntity
  8
0
100
AcDbLine
 62
250
  6
CONTINUOUS
 10
18.374656168
 20
-35.7769102522
 11
18.0821854278
 21
-35.6366860836
  0
LINE
  5
2CC
100
AcDbEntity
  8
0
100
AcDbLine
 62
7
  6
CONTINUOUS
 10
20.7477510448
 20
-37.4649441766
 11
20.4566182738
 21
-37.3255421855
  0
LINE
  5
2CD
100
AcDbEntity
  8
0
100
AcDbLine
 62
7
  6
CONTINUOUS
 10
21.6992853565
 20
-39.7737532208
 11
21.2285341053
 21
-39.5471785129
  0
LINE
  5
2CE
100
AcDbEntity
  8
0
100
AcDbLine
 62
7
  6
CONTINUOUS
 10
19.982992923
 20
-36.6728663128
 11
20.191505712
 21
-36.7734845425
  0
LINE
  5
2CF
100
AcDbEntity
  8
0
100
AcDbLine
 62
7
  6
CONTINUOUS
 10
20.2128704984
 20
-36.7628331145
 11
20.0043494219
 21
-36.6622017527
  0
LINE
  5
2D0
100
AcDbEntity
  8
0
100
AcDbLine
 62
7
  6
CONTINUOUS
 10
20.7115058866
 20
-38.4235663907
 11
20.3485886674
 21
-38.2470595652
  0
LINE
  5
2D1
100
AcDbEntity
  8
0
100
AcDbLine
 62
7
  6
CONTINUOUS
 10
20.4566182738
 20
-37.3255421855
 11
20.2393458143
 21
-37.2201528501
  0
LINE
  5
2D2
100
AcDbEntity
  8
0
100
AcDbLine
 62
7
  6
CONTINUOUS
 10
20.447634188
 20
-39.1686137845
 11
20.0323638005
 21
-38.9661065391
  0
LINE
  5
2D3
100
AcDbEntity
  8
0
100
AcDbLine
 62
250
  6
CONTINUOUS
 10
18.0821854278
 20
-35.6366860836
 11
17.0123439034
 21
-35.117620851
  0
LWPOLYLINE
  5
2D4
100
AcDbEntity
  8
0
100
AcDbPolyline
 62
250
  6
CONTINUOUS
 90
19
 70
0
 10
-27.8954636166
 20
-12.6112097452
 10
-28.052234016
 20
-12.5346402022
 10
-28.2079584107
 20
-12.4468870956
 10
-28.361291542
 20
-12.3486689323
 10
-28.5125844566
 20
-12.2392739015
 10
-28.6618363555
 20
-12.1187974218
 10
-28.8078921667
 20
-11.9888670505
 10
-28.9499007162
 20
-11.850303257
 10
-29.0873534088
 20
-11.7034116286
 10
-29.2203502695
 20
-11.5486283254
 10
-29.3489895596
 20
-11.3857385335
 10
-29.4729772113
 20
-11.2147844728
 10
-29.591426071
 20
-11.0371797827
 10
-29.7036127117
 20
-10.8535320211
 10
-29.8090945112
 20
-10.6641105303
 10
-29.9082607096
 20
-10.4687500283
 10
-30.0006307894
 20
-10.2676526313
 10
-30.0852870064
 20
-10.0620996796
 10
-30.1614618226
 20
-9.8526358061
  0
LINE
  5
2D5
100
AcDbEntity
  8
0
100
AcDbLine
 62
7
  6
CONTINUOUS
 10
20.8249255774
 20
-38.0375370186
 11
20.3191620738
 21
-37.7914304854
  0
LINE
  5
2D6
100
AcDbEntity
  8
0
100
AcDbLine
 62
7
  6
CONTINUOUS
 10
20.2978003082
 20
-37.8021113682
 11
20.803561465
 21
-38.0482190747
  0
LINE
  5
2D7
100
AcDbEntity
  8
0
100
AcDbLine
 62
7
  6
CONTINUOUS
 10
19.7871051637
 20
-36.5771496032
 11
19.982992923
 21
-36.6728663128
  0
LINE
  5
2D8
100
AcDbEntity
  8
0
100
AcDbLine
 62
7
  6
CONTINUOUS
 10
20.0043494219
 20
-36.6622017527
 11
19.8084582552
 21
-36.5664730575
  0
LINE
  5
2D9
100
AcDbEntity
  8
0
100
AcDbLine
 62
250
  6
CONTINUOUS
 10
17.0123439034
 20
-35.117620851
 11
16.5526460627
 21
-34.8923959331
  0
LINE
  5
2DA
100
AcDbEntity
  8
0
100
AcDbLine
 62
7
  6
CONTINUOUS
 10
19.7557963921
 20
-38.8309745356
 11
19.341682352
 21
-38.6278821882
  0
LINE
  5
2DB
100
AcDbEntity
  8
0
100
AcDbLine
 62
7
  6
CONTINUOUS
 10
18.9779323382
 20
-37.5545355005
 11
18.6071868501
 21
-37.3718979729
  0
LINE
  5
2DC
100
AcDbEntity
  8
0
100
AcDbLine
 62
7
  6
CONTINUOUS
 10
18.5858286312
 20
-37.3825770824
 11
18.9863360654
 21
-37.579854555
  0
LINE
  5
2DD
100
AcDbEntity
  8
0
100
AcDbLine
 62
7
  6
CONTINUOUS
 10
18.4291941514
 20
-38.1774287188
 11
18.0168188254
 21
-37.9734858207
  0
LINE
  5
2DE
100
AcDbEntity
  8
0
100
AcDbLine
 62
7
  6
CONTINUOUS
 10
19.1593829596
 20
-38.0956378536
 11
18.5071704591
 21
-37.7740024726
  0
LINE
  5
2DF
100
AcDbEntity
  8
0
100
AcDbLine
 62
7
  6
CONTINUOUS
 10
17.7419716018
 20
-37.8374860894
 11
17.3298288417
 21
-37.63341998
  0
LINE
  5
2E0
100
AcDbEntity
  8
0
100
AcDbLine
 62
250
  6
CONTINUOUS
 10
16.5526460627
 20
-34.8923959331
 11
13.028596792
 21
-33.1497721383
  0
LINE
  5
2E1
100
AcDbEntity
  8
0
100
AcDbLine
 62
7
  6
CONTINUOUS
 10
16.9403420509
 20
-37.4403918163
 11
16.5285582334
 21
-37.2361630633
  0
LINE
  5
2E2
100
AcDbEntity
  8
0
100
AcDbLine
 62
7
  6
CONTINUOUS
 10
16.1392883732
 20
-37.0430383123
 11
15.7275753759
 21
-36.8387573215
  0
LINE
  5
2E3
100
AcDbEntity
  8
0
100
AcDbLine
 62
7
  6
CONTINUOUS
 10
15.3159525657
 20
-36.6344418437
 11
14.9044497433
 21
-36.4300618277
  0
LINE
  5
2E4
100
AcDbEntity
  8
0
100
AcDbLine
 62
7
  6
CONTINUOUS
 10
13.9701106688
 20
-35.9653922084
 11
13.5590681467
 21
-35.7607671929
  0
LINE
  5
2E5
100
AcDbEntity
  8
0
100
AcDbLine
 62
250
  6
CONTINUOUS
 10
13.028596792
 20
-33.1497721383
 11
7.0772101433
 21
-30.1927076566
  0
LINE
  5
2E6
100
AcDbEntity
  8
0
100
AcDbLine
 62
7
  6
CONTINUOUS
 10
18.4425472999
 20
-35.9074332026
 11
18.85322686
 21
-36.1122507109
  0
LINE
  5
2E7
100
AcDbEntity
  8
0
100
AcDbLine
 62
7
  6
CONTINUOUS
 10
18.874565381
 20
-36.1015814504
 11
18.4638756511
 21
-35.8967690269
  0
LINE
  5
2E8
100
AcDbEntity
  8
0
100
AcDbLine
 62
7
  6
CONTINUOUS
 10
16.889515161
 20
-35.1321098008
 11
17.5098996429
 21
-35.4419349485
  0
LINE
  5
2E9
100
AcDbEntity
  8
0
100
AcDbLine
 62
7
  6
CONTINUOUS
 10
17.5312131215
 20
-35.4312782093
 11
16.9108226085
 21
-35.121456077
  0
LINE
  5
2EA
100
AcDbEntity
  8
0
100
AcDbLine
 62
7
  6
CONTINUOUS
 10
15.5030773878
 20
-34.4394191953
 11
16.1233216594
 21
-34.7493144481
  0
LINE
  5
2EB
100
AcDbEntity
  8
0
100
AcDbLine
 62
7
  6
CONTINUOUS
 10
13.9988219319
 20
-33.6877224256
 11
14.4090874001
 21
-33.8927321306
  0
LINE
  5
2EC
100
AcDbEntity
  8
0
100
AcDbLine
 62
7
  6
CONTINUOUS
 10
16.1446238563
 20
-34.7386633497
 11
15.5243758281
 21
-34.4287699751
  0
LINE
  5
2ED
100
AcDbEntity
  8
0
100
AcDbLine
 62
7
  6
CONTINUOUS
 10
14.4303807787
 20
-33.8820854413
 11
14.0201132836
 21
-33.6770767497
  0
LINE
  5
2EE
100
AcDbEntity
  8
0
100
AcDbLine
 62
7
  6
CONTINUOUS
 10
14.6825841165
 20
-34.0294064084
 11
15.092829219
 21
-34.2344213465
  0
LINE
  5
2EF
100
AcDbEntity
  8
0
100
AcDbLine
 62
7
  6
CONTINUOUS
 10
12.6816459341
 20
-33.0294753653
 11
13.0918736564
 21
-33.2345039434
  0
LINE
  5
2F0
100
AcDbEntity
  8
0
100
AcDbLine
 62
7
  6
CONTINUOUS
 10
15.1141256418
 20
-34.2237731352
 11
14.7038787591
 21
-34.0187590871
  0
LINE
  5
2F1
100
AcDbEntity
  8
0
100
AcDbLine
 62
7
  6
CONTINUOUS
 10
13.1131610409
 20
-33.2238602511
 11
12.7029320412
 21
-33.0188323118
  0
LINE
  5
2F2
100
AcDbEntity
  8
0
100
AcDbLine
 62
250
  6
CONTINUOUS
 10
7.0772101433
 20
-30.1927076566
 11
2.3580464884
 21
-27.8377614553
  0
LINE
  5
2F3
100
AcDbEntity
  8
0
100
AcDbLine
 62
250
  6
CONTINUOUS
 10
2.3580464884
 20
-27.8377614553
 11
-5.2152486292
 21
-24.0539321073
  0
LINE
  5
2F4
100
AcDbEntity
  8
0
100
AcDbLine
 62
250
  6
CONTINUOUS
 10
-5.2152486292
 20
-24.0539321073
 11
-14.1348779891
 21
-19.5887175955
  0
LWPOLYLINE
  5
2F5
100
AcDbEntity
  8
0
100
AcDbPolyline
 62
7
  6
CONTINUOUS
 90
34
 70
0
 10
20.7688797245
 20
-37.0466637254
 10
20.8124717373
 20
-37.0685900135
 10
20.8560239159
 20
-37.0936716331
 10
20.8993526672
 20
-37.121770988
 10
20.9420901959
 20
-37.1525802666
 10
20.9842578653
 20
-37.1860690225
 10
21.0262287783
 20
-37.2226173407
 10
21.0678707556
 20
-37.262238262
 10
21.1088835437
 20
-37.304757758
 10
21.1493101763
 20
-37.350415027
 10
21.1889144997
 20
-37.3991551103
 10
21.2273724432
 20
-37.4508002698
 10
21.2645148021
 20
-37.5054343169
 10
21.3002292272
 20
-37.5632368179
 10
21.333895714
 20
-37.6236050008
 10
21.3646718237
 20
-37.6853476624
 10
21.3924034954
 20
-37.748224701
 10
21.4168064332
 20
-37.8117040827
 10
21.4372304416
 20
-37.8740717685
 10
21.4536511354
 20
-37.9345630752
 10
21.4663117465
 20
-37.993233976
 10
21.4752612056
 20
-38.0496627915
 10
21.4806460882
 20
-38.1033628696
 10
21.4827065892
 20
-38.1543875029
 10
21.4815776403
 20
-38.2031347602
 10
21.4773646765
 20
-38.2494325024
 10
21.470181888
 20
-38.2930739289
 10
21.4600059054
 20
-38.3343091372
 10
21.4468739909
 20
-38.3730094499
 10
21.4308684211
 20
-38.4088738777
 10
21.4119522961
 20
-38.4418221837
 10
21.3901504988
 20
-38.4717186311
 10
21.3656111876
 20
-38.498300395
 10
21.3385131713
 20
-38.5213360888
  0
LINE
  5
2F6
100
AcDbEntity
  8
0
100
AcDbLine
 62
250
  6
CONTINUOUS
 10
-14.1348779891
 20
-19.5887175955
 11
-18.1606070497
 21
-17.5672929307
  0
LINE
  5
2F7
100
AcDbEntity
  8
0
100
AcDbLine
 62
250
  6
CONTINUOUS
 10
-18.1606070497
 20
-17.5672929307
 11
-24.0407105709
 21
-14.6005421748
  0
LINE
  5
2F8
100
AcDbEntity
  8
0
100
AcDbLine
 62
250
  6
CONTINUOUS
 10
-24.0407105709
 20
-14.6005421748
 11
-25.1455241745
 21
-14.0403561341
  0
LWPOLYLINE
  5
2F9
100
AcDbEntity
  8
0
100
AcDbPolyline
 62
250
  6
CONTINUOUS
 90
3
 70
0
 10
-25.042429987
 20
-13.163858276
 10
-25.2236430655
 20
-13.0711179921
 10
-25.305865832
 20
-13.0283229485
  0
LINE
  5
2FA
100
AcDbEntity
  8
0
100
AcDbLine
 62
250
  6
CONTINUOUS
 10
-25.1455241745
 20
-14.0403561341
 11
-26.0577775726
 21
-13.5719385817
  0
LWPOLYLINE
  5
2FB
100
AcDbEntity
  8
0
100
AcDbPolyline
 62
250
  6
CONTINUOUS
 90
5
 70
0
 10
-27.5667039921
 20
-12.7775722153
 10
-27.6833821512
 20
-12.7168116635
 10
-27.7723870814
 20
-12.6716074885
 10
-27.8430632908
 20
-12.6363529749
 10
-27.8954641541
 20
-12.6112100893
  0
LWPOLYLINE
  5
2FC
100
AcDbEntity
  8
0
100
AcDbPolyline
 62
250
  6
CONTINUOUS
 90
5
 70
0
 10
19.6018416486
 20
-36.3598641249
 10
19.5503699885
 20
-36.333017156
 10
19.4810298981
 20
-36.2982398413
 10
19.3937623852
 20
-36.2552883611
 10
19.2796907466
 20
-36.2006106196
  0
LINE
  5
2FD
100
AcDbEntity
  8
0
100
AcDbLine
 62
250
  6
CONTINUOUS
 10
-26.0577775726
 20
-13.5719385817
 11
-26.6584596588
 21
-13.2604766964
  0
LINE
  5
2FE
100
AcDbEntity
  8
0
100
AcDbLine
 62
250
  6
CONTINUOUS
 10
-26.6584596588
 20
-13.2604766964
 11
-27.0212611758
 21
-13.0687776405
  0
LINE
  5
2FF
100
AcDbEntity
  8
0
100
AcDbLine
 62
250
  6
CONTINUOUS
 10
-27.0212611758
 20
-13.0687776405
 11
-27.5667039921
 21
-12.7775722153
  0
LWPOLYLINE
  5
300
100
AcDbEntity
  8
0
100
AcDbPolyline
 62
250
  6
CONTINUOUS
 90
16
 70
0
 10
39.4317695291
 20
-54.4611864096
 10
39.5059133995
 20
-54.5036973021
 10
39.5842764576
 20
-54.5420581507
 10
39.6663240004
 20
-54.5760659692
 10
39.7516145601
 20
-54.6055472752
 10
39.8395516647
 20
-54.6302551101
 10
39.9293964737
 20
-54.6499279067
 10
40.0202690503
 20
-54.6643638916
 10
40.111331455
 20
-54.6734044753
 10
40.2017977744
 20
-54.6769689929
 10
40.2907838745
 20
-54.6750489951
 10
40.3774420745
 20
-54.6676768081
 10
40.461142742
 20
-54.6549554421
 10
40.5413144975
 20
-54.6369976564
 10
40.6174612273
 20
-54.6138921294
 10
40.6890281512
 20
-54.5857322774
  0
LWPOLYLINE
  5
301
100
AcDbEntity
  8
0
100
AcDbPolyline
 62
250
  6
CONTINUOUS
 90
10
 70
0
 10
-30.4229813049
 20
-8.3149225624
 10
-30.2953138167
 20
-8.4032368462
 10
-30.1794282272
 20
-8.4931794069
 10
-30.0755670618
 20
-8.5845100431
 10
-29.9835706362
 20
-8.6766133008
 10
-29.904230058
 20
-8.7695675706
 10
-29.8384833332
 20
-8.8638491395
 10
-29.7859349433
 20
-8.9590323906
 10
-29.7460178565
 20
-9.0543357748
 10
-29.7191001002
 20
-9.1497901708
  0
LWPOLYLINE
  5
302
100
AcDbEntity
  8
0
100
AcDbPolyline
 62
250
  6
CONTINUOUS
 90
25
 70
0
 10
-29.7154208957
 20
10.136668586
 10
-29.6988702408
 20
10.090640834
 10
-29.6736924609
 20
10.0452694011
 10
-29.6401722197
 20
10.0009105556
 10
-29.5984606379
 20
9.9577946513
 10
-29.548979129
 20
9.9164593255
 10
-29.492658642
 20
9.8776760836
 10
-29.4301326425
 20
9.8418183366
 10
-29.3618648295
 20
9.8091519424
 10
-29.2888336043
 20
9.7801524184
 10
-29.2120167492
 20
9.7551662716
 10
-29.1316466933
 20
9.7342622431
 10
-29.0475444454
 20
9.7175140376
 10
-28.9601619497
 20
9.7050922272
 10
-28.8704129168
 20
9.6969658279
 10
-28.7786972721
 20
9.6930428879
 10
-28.6855040555
 20
9.6933089845
 10
-28.5920261965
 20
9.6977615192
 10
-28.49970726
 20
9.706308675
 10
-28.409180238
 20
9.7188840884
 10
-28.3215171097
 20
9.7353703765
 10
-28.2386662814
 20
9.7553648338
 10
-28.1616064152
 20
9.7785002298
 10
-28.0904873554
 20
9.8046212672
 10
-28.0257767234
 20
9.8334980899
  0
LWPOLYLINE
  5
303
100
AcDbEntity
  8
0
100
AcDbPolyline
 62
250
  6
CONTINUOUS
 90
10
 70
0
 10
-26.2084617901
 20
-13.4940511484
 10
-26.2270940544
 20
-13.3344152736
 10
-26.2545438496
 20
-13.1809239216
 10
-26.2906624192
 20
-13.0342031192
 10
-26.3354605862
 20
-12.8944372476
 10
-26.388682673
 20
-12.7627552934
 10
-26.4495352988
 20
-12.6409546554
 10
-26.5173940165
 20
-12.5297480148
 10
-26.5920742779
 20
-12.4290404218
 10
-26.6732149155
 20
-12.3391225498
  0
LWPOLYLINE
  5
304
100
AcDbEntity
  8
RACCORDO
100
AcDbPolyline
 62
7
  6
CONTINUOUS
 90
5
 70
0
 10
-0.791921403
 20
-20.3420629127
 10
-0.7710653763
 20
-20.3369448413
 10
-0.7499533826
 20
-20.3356791674
 10
-0.728778092
 20
-20.3379433587
 10
-0.7075328705
 20
-20.3434710996
  0
LINE
  5
305
100
AcDbEntity
  8
RACCORDO
100
AcDbLine
 62
7
  6
CONTINUOUS
 10
-0.7075328705
 20
-20.3434710996
 11
-0.6863961021
 21
-20.3517790415
  0
LINE
  5
306
100
AcDbEntity
  8
RACCORDO
100
AcDbLine
 62
7
  6
CONTINUOUS
 10
15.2025407577
 20
-28.0817920683
 11
15.2234967313
 21
-28.0902310402
  0
LWPOLYLINE
  5
307
100
AcDbEntity
  8
0
100
AcDbPolyline
 62
250
  6
CONTINUOUS
 90
10
 70
0
 10
22.177655694
 20
-31.8255802203
 10
22.0100399239
 20
-31.7547051427
 10
21.8340735824
 20
-31.6908151409
 10
21.6510170827
 20
-31.6341728124
 10
21.461150428
 20
-31.5849298959
 10
21.2664969271
 20
-31.5434262126
 10
21.0710752469
 20
-31.5093606276
 10
20.8770661539
 20
-31.4817685021
 10
20.684652214
 20
-31.4604917317
 10
20.4949613725
 20
-31.4463802917
  0
LINE
  5
308
100
AcDbEntity
  8
RACCORDO
100
AcDbLine
 62
7
  6
CONTINUOUS
 10
-0.6863961021
 20
-20.3517790415
 11
-0.6776081137
 21
-20.3559826678
  0
LINE
  5
309
100
AcDbEntity
  8
RACCORDO
100
AcDbLine
 62
7
  6
CONTINUOUS
 10
15.2234967313
 20
-28.0902310402
 11
15.2322301627
 21
-28.0944742065
  0
LINE
  5
30A
100
AcDbEntity
  8
0
100
AcDbLine
 62
250
  6
CONTINUOUS
 10
-27.2406414634
 20
-12.0564173065
 11
-28.3538510966
 21
-11.5029070572
  0
LINE
  5
30B
100
AcDbEntity
  8
0
100
AcDbLine
 62
250
  6
CONTINUOUS
 10
-25.3033989613
 20
-13.024014487
 11
-27.2406414634
 21
-12.0564173065
  0
LINE
  5
30C
100
AcDbEntity
  8
0
100
AcDbLine
 62
250
  6
CONTINUOUS
 10
19.606890048
 20
-33.5297204491
 11
-27.8122405607
 21
-9.8201543086
  0
LINE
  5
30D
100
AcDbEntity
  8
0
100
AcDbLine
 62
7
  6
CONTINUOUS
 10
-25.9252892486
 20
-8.8637288851
 11
19.606890048
 21
-31.6298185334
  0
LINE
  5
30E
100
AcDbEntity
  8
DRAFT
100
AcDbLine
 62
7
  6
CONTINUOUS
 10
18.1561105236
 20
-30.7734627644
 11
13.8823201422
 21
-28.6365675736
  0
LINE
  5
30F
100
AcDbEntity
  8
DRAFT
100
AcDbLine
 62
7
  6
CONTINUOUS
 10
-17.9374850112
 20
-12.7266649969
 11
-13.6636946297
 21
-14.8635601877
  0
LINE
  5
310
100
AcDbEntity
  8
DRAFT
100
AcDbLine
 62
7
  6
CONTINUOUS
 10
18.3571251892
 20
-30.6618380628
 11
14.1055695454
 21
-28.5360602409
  0
LINE
  5
311
100
AcDbEntity
  8
DRAFT
100
AcDbLine
 62
7
  6
CONTINUOUS
 10
-17.714235608
 20
-12.6261576642
 11
-13.4626799642
 21
-14.7519354861
  0
LINE
  5
312
100
AcDbEntity
  8
DRAFT
100
AcDbLine
 62
7
  6
CONTINUOUS
 10
18.4911349662
 20
-30.587421595
 11
14.2544024808
 21
-28.4690553524
  0
LINE
  5
313
100
AcDbEntity
  8
DRAFT
100
AcDbLine
 62
7
  6
CONTINUOUS
 10
-17.5654026726
 20
-12.5591527757
 11
-13.3286701872
 21
-14.6775190183
  0
LINE
  5
314
100
AcDbEntity
  8
DRAFT
100
AcDbLine
 62
7
  6
CONTINUOUS
 10
-17.3421532694
 20
-12.4586454429
 11
-13.1276555217
 21
-14.5658943167
  0
LINE
  5
315
100
AcDbEntity
  8
DRAFT
100
AcDbLine
 62
7
  6
CONTINUOUS
 10
18.6921496317
 20
-30.4757968934
 11
14.477651884
 21
-28.3685480196
  0
LINE
  5
316
100
AcDbEntity
  8
DRAFT
100
AcDbLine
 62
7
  6
CONTINUOUS
 10
18.8261594087
 20
-30.4013804257
 11
14.6264848195
 21
-28.3015431311
  0
LINE
  5
317
100
AcDbEntity
  8
DRAFT
100
AcDbLine
 62
7
  6
CONTINUOUS
 10
-17.1933203339
 20
-12.3916405544
 11
-12.9936457447
 21
-14.491477849
  0
LINE
  5
318
100
AcDbEntity
  8
DRAFT
100
AcDbLine
 62
7
  6
CONTINUOUS
 10
-16.9700709307
 20
-12.2911332216
 11
-12.7926310792
 21
-14.3798531474
  0
LINE
  5
319
100
AcDbEntity
  8
DRAFT
100
AcDbLine
 62
7
  6
CONTINUOUS
 10
19.0271740742
 20
-30.2897557241
 11
14.8497342227
 21
-28.2010357983
  0
LINE
  5
31A
100
AcDbEntity
  8
RACCORDO
100
AcDbLine
 62
250
  6
CONTINUOUS
 10
-0.799710717
 20
-20.345332306
 11
3.3517886073
 21
-22.4210819682
  0
LINE
  5
31B
100
AcDbEntity
  8
RACCORDO
100
AcDbLine
 62
7
  6
CONTINUOUS
 10
-0.6772665549
 20
-20.3561526701
 11
3.4082298834
 21
-22.3989008892
  0
LINE
  5
31C
100
AcDbEntity
  8
RACCORDO
100
AcDbLine
 62
250
  6
CONTINUOUS
 10
-16.7096132937
 20
-12.1738746667
 11
-12.5581139694
 21
-14.2496243289
  0
LINE
  5
31D
100
AcDbEntity
  8
RACCORDO
100
AcDbLine
 62
250
  6
CONTINUOUS
 10
15.1101918597
 20
-28.0837772434
 11
19.261691184
 21
-30.1595269056
  0
LINE
  5
31E
100
AcDbEntity
  8
RACCORDO
100
AcDbLine
 62
7
  6
CONTINUOUS
 10
-16.5871691316
 20
-12.1846950308
 11
-12.5016726933
 21
-14.22744325
  0
LINE
  5
31F
100
AcDbEntity
  8
RACCORDO
100
AcDbLine
 62
7
  6
CONTINUOUS
 10
15.2326360218
 20
-28.0945976075
 11
19.3181324601
 21
-30.1373458267
  0
LINE
  5
320
100
AcDbEntity
  8
0
100
AcDbLine
 62
250
  6
CONTINUOUS
 10
-2.0206921459
 20
-24.6748488683
 11
-24.9532375251
 21
-13.2087402176
  0
LINE
  5
321
100
AcDbEntity
  8
0
100
AcDbLine
 62
250
  6
CONTINUOUS
 10
-24.9532375251
 20
-13.2087402176
 11
-25.042429987
 21
-13.163858276
  0
LINE
  5
322
100
AcDbEntity
  8
0
100
AcDbLine
 62
250
  6
CONTINUOUS
 10
19.1361042697
 20
-35.2478858745
 11
16.0875473011
 21
-33.7194886066
  0
LWPOLYLINE
  5
323
100
AcDbEntity
  8
0
100
AcDbPolyline
 62
250
  6
CONTINUOUS
 90
13
 70
0
 10
-27.8122408568
 20
-9.8201375292
 10
-27.8410658673
 20
-9.8044526562
 10
-27.8692925314
 20
-9.7843963033
 10
-27.8964387289
 20
-9.760321772
 10
-27.9220618516
 20
-9.7326303223
 10
-27.9456889955
 20
-9.7018255442
 10
-27.9668417562
 20
-9.6685277121
 10
-27.9851523284
 20
-9.6333302019
 10
-28.0003267683
 20
-9.5968628594
 10
-28.0121082864
 20
-9.5598658361
 10
-28.0203295514
 20
-9.5230116621
 10
-28.0248888594
 20
-9.4868867094
 10
-28.0257420572
 20
-9.4520833057
  0
LWPOLYLINE
  5
324
100
AcDbEntity
  8
0
100
AcDbPolyline
 62
250
  6
CONTINUOUS
 90
10
 70
0
 10
-30.4692540738
 20
-5.5021197313
 10
-30.3372914078
 20
-5.5801043788
 10
-30.2157031137
 20
-5.6634573733
 10
-30.1050645266
 20
-5.7518119895
 10
-30.0053239805
 20
-5.8455630287
 10
-29.9179210556
 20
-5.9435640491
 10
-29.8450640375
 20
-6.0429247058
 10
-29.7872683172
 20
-6.142238179
 10
-29.7440865345
 20
-6.2417819223
 10
-29.7155751132
 20
-6.3410686947
  0
LWPOLYLINE
  5
325
100
AcDbEntity
  8
0
100
AcDbPolyline
 62
250
  6
CONTINUOUS
 90
10
 70
0
 10
22.0927948473
 20
-35.1441278186
 10
21.937990382
 20
-35.0519788628
 10
21.7750683636
 20
-34.9655474986
 10
21.6047376476
 20
-34.8851878151
 10
21.4275200386
 20
-34.8111807859
 10
21.2443108968
 20
-34.7439696014
 10
21.0565387424
 20
-34.6840509336
 10
20.8653775674
 20
-34.6316888205
 10
20.6715891478
 20
-34.5870228099
 10
20.4761152051
 20
-34.5502551041
  0
LWPOLYLINE
  5
326
100
AcDbEntity
  8
0
100
AcDbPolyline
 62
7
  6
CONTINUOUS
 90
13
 70
0
 10
-25.924807573
 20
-8.8639697229
 10
-25.9518927546
 20
-8.8468542386
 10
-25.9776437648
 20
-8.8267648692
 10
-26.0020606035
 20
-8.8037016148
 10
-26.025467532
 20
-8.7772313046
 10
-26.047540289
 20
-8.7477871093
 10
-26.0673060911
 20
-8.7166685417
 10
-26.0846654283
 20
-8.6837824446
 10
-26.0997178105
 20
-8.6492219752
 10
-26.1117889841
 20
-8.6145661177
 10
-26.1206541978
 20
-8.5803412003
 10
-26.1265382028
 20
-8.5460208948
 10
-26.1294409992
 20
-8.5116052012
  0
LINE
  5
327
100
AcDbEntity
  8
DRAFT
100
AcDbLine
 62
7
  6
CONTINUOUS
 10
-13.6636946297
 20
-14.8635601877
 11
-13.563187297
 21
-14.9376516474
  0
LINE
  5
328
100
AcDbEntity
  8
DRAFT
100
AcDbLine
 62
7
  6
CONTINUOUS
 10
-13.3286701872
 20
-14.6775190183
 11
-13.2281628545
 21
-14.7516104781
  0
LINE
  5
329
100
AcDbEntity
  8
DRAFT
100
AcDbLine
 62
7
  6
CONTINUOUS
 10
-12.9936457447
 20
-14.491477849
 11
-12.8931384119
 21
-14.5655693088
  0
LWPOLYLINE
  5
32A
100
AcDbEntity
  8
RACCORDO
100
AcDbPolyline
 62
7
  6
CONTINUOUS
 90
3
 70
0
 10
-12.5006898712
 20
-14.2280141896
 10
-12.4998778349
 20
-14.2287723934
 10
-12.4997296758
 20
-14.2294786188
  0
LWPOLYLINE
  5
32B
100
AcDbEntity
  8
0
100
AcDbPolyline
 62
250
  6
CONTINUOUS
 90
10
 70
0
 10
-43.9086671633
 20
40.965963651
 10
-43.6176718738
 20
40.4140812608
 10
-43.312499955
 20
39.8528888695
 10
-42.9956681293
 20
39.2874544276
 10
-42.6699839491
 20
38.7233443388
 10
-42.3366654247
 20
38.1633514481
 10
-41.9926660794
 20
37.6029274402
 10
-41.6336440674
 20
37.0353446431
 10
-41.2544126389
 20
36.4525175464
 10
-40.8493291445
 20
35.8454971834
  0
LWPOLYLINE
  5
32C
100
AcDbEntity
  8
0
100
AcDbPolyline
 62
250
  6
CONTINUOUS
 90
10
 70
0
 10
-29.7191000417
 20
29.4243629239
 10
-29.7454893969
 20
29.5158099539
 10
-29.7848291961
 20
29.608456397
 10
-29.8370300343
 20
29.7022685352
 10
-29.903207442
 20
29.798458393
 10
-29.983823818
 20
29.8944564124
 10
-30.0769561054
 20
29.9847272988
 10
-30.1811126045
 20
30.0675806459
 10
-30.2966033071
 20
30.1445823685
 10
-30.4229812466
 20
30.2156593691
  0
LWPOLYLINE
  5
32D
100
AcDbEntity
  8
0
100
AcDbPolyline
 62
250
  6
CONTINUOUS
 90
41
 70
0
 10
-29.7224363986
 20
29.4240636486
 10
-29.7156650458
 20
29.3987830087
 10
-29.7063417371
 20
29.3737451662
 10
-29.6945060022
 20
29.3490314535
 10
-29.6802076136
 20
29.3247730639
 10
-29.6634781046
 20
29.300992884
 10
-29.6443165848
 20
29.27761601
 10
-29.6227696375
 20
29.2546699138
 10
-29.5989086497
 20
29.2322694255
 10
-29.5727644712
 20
29.2104729379
 10
-29.5443599184
 20
29.1893712261
 10
-29.5137834235
 20
29.1690057738
 10
-29.481179446
 20
29.1493643288
 10
-29.4465904504
 20
29.1303892812
 10
-29.4101756021
 20
29.1122623801
 10
-29.3723278435
 20
29.0952902218
 10
-29.3332749799
 20
29.0795964888
 10
-29.2930704996
 20
29.0650775127
 10
-29.2518936147
 20
29.05165932
 10
-29.2100084056
 20
29.0393406431
 10
-29.1674420904
 20
29.0281255264
 10
-29.1239964758
 20
29.0179677261
 10
-29.0797798495
 20
29.0088925234
 10
-29.0348951335
 20
29.0009088591
 10
-28.9890981178
 20
28.9939800587
 10
-28.9424586127
 20
28.9881329058
 10
-28.8951054748
 20
28.9833962781
 10
-28.8468650402
 20
28.9797778994
 10
-28.797707743
 20
28.9773204682
 10
-28.7478763947
 20
28.9760845023
 10
-28.6976108812
 20
28.9761066855
 10
-28.6469626143
 20
28.9774101155
 10
-28.5961414146
 20
28.9800241352
 10
-28.5456291845
 20
28.983953028
 10
-28.4955901846
 20
28.9891822895
 10
-28.4461255843
 20
28.9957063692
 10
-28.3976052946
 20
29.0034841708
 10
-28.3501647639
 20
29.0124647433
 10
-28.3038931804
 20
29.0226083234
 10
-28.259064677
 20
29.0338520811
 10
-28.2157792629
 20
29.0461998326
  0
LWPOLYLINE
  5
32E
100
AcDbEntity
  8
0
100
AcDbPolyline
 62
250
  6
CONTINUOUS
 90
10
 70
0
 10
-43.8974282701
 20
-6.9878465795
 10
-43.5782712461
 20
-6.8195218702
 10
-43.242622855
 20
-6.6582287365
 10
-42.8929994129
 20
-6.5056515913
 10
-42.5326370131
 20
-6.3636903266
 10
-42.1626604253
 20
-6.2333454596
 10
-41.7795727542
 20
-6.1137778951
 10
-41.37941394
 20
-6.0038887787
 10
-40.9581931625
 20
-5.9023882339
 10
-40.5110895315
 20
-5.8075902192
  0
LINE
  5
32F
100
AcDbEntity
  8
RACCORDO
100
AcDbLine
 62
7
  6
CONTINUOUS
 10
-16.6172643957
 20
-12.1718894916
 11
-16.5963084221
 21
-12.1803284636
  0
LINE
  5
330
100
AcDbEntity
  8
RACCORDO
100
AcDbLine
 62
7
  6
CONTINUOUS
 10
-16.5963084221
 20
-12.1803284636
 11
-16.5875749907
 21
-12.1845716298
  0
LINE
  5
331
100
AcDbEntity
  8
DRAFT
100
AcDbLine
 62
7
  6
CONTINUOUS
 10
18.1561105236
 20
-30.7734627644
 11
18.2566178564
 21
-30.8475542241
  0
LINE
  5
332
100
AcDbEntity
  8
DRAFT
100
AcDbLine
 62
7
  6
CONTINUOUS
 10
18.4911349662
 20
-30.587421595
 11
18.5916422989
 21
-30.6615130548
  0
LWPOLYLINE
  5
333
100
AcDbEntity
  8
0
100
AcDbPolyline
 62
250
  6
CONTINUOUS
 90
10
 70
0
 10
34.7051829439
 20
-53.4966164158
 10
34.1295380283
 20
-52.9574018059
 10
33.565197706
 20
-52.4177405997
 10
33.0076580769
 20
-51.8731374159
 10
32.4560926983
 20
-51.3228400426
 10
31.9064793854
 20
-50.7636878354
 10
31.351568155
 20
-50.1894782314
 10
30.7908755063
 20
-49.6005767841
 10
30.2289757099
 20
-49.0029236248
 10
29.6660785034
 20
-48.3981751493
  0
LINE
  5
334
100
AcDbEntity
  8
0
100
AcDbLine
 62
250
  6
CONTINUOUS
 10
17.7218294285
 20
-44.0546742174
 11
19.2141303186
 21
-45.7549866538
  0
LWPOLYLINE
  5
335
100
AcDbEntity
  8
0
100
AcDbPolyline
 62
250
  6
CONTINUOUS
 90
5
 70
0
 10
15.9794807713
 20
-42.0093208382
 10
16.3171155414
 20
-42.4175140435
 10
16.6575550608
 20
-42.8219649369
 10
17.0031749081
 20
-43.2265206025
 10
17.7218294285
 20
-44.0546742174
  0
LWPOLYLINE
  5
336
100
AcDbEntity
  8
0
100
AcDbPolyline
 62
250
  6
CONTINUOUS
 90
25
 70
0
 10
-4.6080641798
 20
-23.3714127535
 10
-4.646167154
 20
-23.3239827352
 10
-4.6792940223
 20
-23.2695309685
 10
-4.7072269925
 20
-23.208563011
 10
-4.7298086722
 20
-23.1413769495
 10
-4.74670617
 20
-23.0687291017
 10
-4.7576060205
 20
-22.9919895906
 10
-4.7624485875
 20
-22.9119828127
 10
-4.7611981783
 20
-22.8293035624
 10
-4.7538647122
 20
-22.7451427824
 10
-4.7405872079
 20
-22.6605980147
 10
-4.7214120771
 20
-22.575925422
 10
-4.6961760749
 20
-22.4910303539
 10
-4.6649395867
 20
-22.4064325078
 10
-4.6281950704
 20
-22.3229018934
 10
-4.5862371633
 20
-22.2407202743
 10
-4.539325969
 20
-22.1603013545
 10
-4.4880645102
 20
-22.0826809056
 10
-4.433273955
 20
-22.0090495263
 10
-4.3753403221
 20
-21.9399084199
 10
-4.3149208017
 20
-21.8761015879
 10
-4.2534027377
 20
-21.8190272519
 10
-4.1916485934
 20
-21.7692646814
 10
-4.1298887515
 20
-21.7268264927
 10
-4.0685887078
 20
-21.6919468706
  0
LWPOLYLINE
  5
337
100
AcDbEntity
  8
0
100
AcDbPolyline
 62
250
  6
CONTINUOUS
 90
10
 70
0
 10
15.9797070401
 20
-42.0094225139
 10
15.0783853133
 20
-40.8813473728
 10
14.234536224
 20
-39.7577674845
 10
13.4379314968
 20
-38.6166121584
 10
12.6777806202
 20
-37.4366710981
 10
11.9522837371
 20
-36.213801655
 10
11.2789393136
 20
-34.9815553589
 10
10.6712991156
 20
-33.7703355008
 10
10.1333299133
 20
-32.598093795
 10
9.6670063629
 20
-31.4826443584
  0
LWPOLYLINE
  5
338
100
AcDbEntity
  8
0
100
AcDbPolyline
 62
250
  6
CONTINUOUS
 90
10
 70
0
 10
-43.8766842571
 20
51.5761305376
 10
-43.4668045107
 20
50.8025118816
 10
-43.0408626485
 20
50.0142385413
 10
-42.6041023052
 20
49.2218659509
 10
-42.159262728
 20
48.4310157397
 10
-41.7063150041
 20
47.6417598143
 10
-41.2419302116
 20
46.8476661256
 10
-40.7634558056
 20
46.0435229834
 10
-40.2706358505
 20
45.2284978777
 10
-39.7640546184
 20
44.4032237841
  0
LWPOLYLINE
  5
339
100
AcDbEntity
  8
0
100
AcDbPolyline
 62
250
  6
CONTINUOUS
 90
10
 70
0
 10
-43.371141865
 20
52.7175520474
 10
-42.9283926282
 20
51.8666685009
 10
-42.4849127894
 20
51.0365059576
 10
-42.0354014929
 20
50.2170321539
 10
-41.5801757313
 20
49.4087141938
 10
-41.1159944911
 20
48.6031581056
 10
-40.6319331623
 20
47.7787057759
 10
-40.1288994078
 20
46.935340285
 10
-39.621905683
 20
46.0961591834
 10
-39.1213339298
 20
45.2756919973
  0
LINE
  5
33A
100
AcDbEntity
  8
RACCORDO
100
AcDbLine
 62
250
  6
CONTINUOUS
 10
-12.5511004396
 20
-15.3713253253
 11
-12.5511004396
 21
-14.2459670434
  0
LINE
  5
33B
100
AcDbEntity
  8
RACCORDO
100
AcDbLine
 62
7
  6
CONTINUOUS
 10
-12.4997294047
 20
-15.2533656789
 11
-12.4997294047
 21
-14.2301005686
  0
LWPOLYLINE
  5
33C
100
AcDbEntity
  8
RACCORDO
100
AcDbPolyline
 62
7
  6
CONTINUOUS
 90
3
 70
0
 10
-12.5017432638
 20
-15.2841657684
 10
-12.4998778349
 20
-15.2623977544
 10
-12.4997296758
 20
-15.2536582729
  0
LWPOLYLINE
  5
33D
100
AcDbEntity
  8
0
100
AcDbPolyline
 62
250
  6
CONTINUOUS
 90
10
 70
0
 10
-2.9117830967
 20
29.4413471736
 10
-2.8331155158
 20
29.8186204755
 10
-2.7566254549
 20
30.1764703613
 10
-2.6804353445
 20
30.523414622
 10
-2.6019702153
 20
30.8710392111
 10
-2.5197535312
 20
31.2260103276
 10
-2.4338893322
 20
31.588606337
 10
-2.3455060132
 20
31.9544588086
 10
-2.255591137
 20
32.3191948528
 10
-2.1656590711
 20
32.6762358834
  0
LWPOLYLINE
  5
33E
100
AcDbEntity
  8
0
100
AcDbPolyline
 62
250
  6
CONTINUOUS
 90
18
 70
0
 10
-4.6080641647
 20
18.5417424767
 10
-4.6461671372
 20
18.4562094867
 10
-4.6792940041
 20
18.3686308539
 10
-4.7072269732
 20
18.2797299278
 10
-4.729808652
 20
18.1899621881
 10
-4.7467061491
 20
18.1004168436
 10
-4.7576059993
 20
18.0127774826
 10
-4.7624485662
 20
17.9279281378
 10
-4.7611981572
 20
17.8464992964
 10
-4.7538646916
 20
17.7696719818
 10
-4.740587188
 20
17.6984047173
 10
-4.7214120583
 20
17.6329072539
 10
-4.6961760574
 20
17.5732481861
 10
-4.6649395707
 20
17.5198868259
 10
-4.6281950563
 20
17.4731007251
 10
-4.5862371512
 20
17.4328770101
 10
-4.5393259592
 20
17.3993692811
 10
-4.5101923168
 20
17.3832417071
  0
LWPOLYLINE
  5
33F
100
AcDbEntity
  8
0
100
AcDbPolyline
 62
250
  6
CONTINUOUS
 90
10
 70
0
 10
-17.9502746729
 20
-17.6740031809
 10
-18.2667262516
 20
-18.3682773286
 10
-18.6193259574
 20
-19.0730682647
 10
-19.0055447304
 20
-19.7732965474
 10
-19.4213670062
 20
-20.4528747164
 10
-19.8588852038
 20
-21.0939349173
 10
-20.3090938781
 20
-21.6787162974
 10
-20.7758133675
 20
-22.2057694297
 10
-21.269644696
 20
-22.6820698594
 10
-21.8032684656
 20
-23.1179338587
  0
LWPOLYLINE
  5
340
100
AcDbEntity
  8
0
100
AcDbPolyline
 62
250
  6
CONTINUOUS
 90
10
 70
0
 10
-4.6108908382
 20
18.5431370507
 10
-4.5250607047
 20
18.7249029774
 10
-4.4467540512
 20
18.9104637425
 10
-4.3763319387
 20
19.0990060657
 10
-4.3139789471
 20
19.2903005063
 10
-4.2603143214
 20
19.4828709935
 10
-4.2161028295
 20
19.6739985718
 10
-4.1815609988
 20
19.8622103688
 10
-4.1566464647
 20
20.0472751105
 10
-4.1414662094
 20
20.2283756214
  0
LINE
  5
341
100
AcDbEntity
  8
0
100
AcDbLine
 62
250
  6
CONTINUOUS
 10
17.7220552579
 20
21.0424089519
 11
16.6556632941
 21
20.4053360127
  0
LWPOLYLINE
  5
342
100
AcDbEntity
  8
0
100
AcDbPolyline
 62
250
  6
CONTINUOUS
 90
6
 70
0
 10
-43.8880325325
 20
-10.3128391691
 10
-43.5353669736
 20
-10.1130443339
 10
-43.1652054365
 20
-9.9192712224
 10
-42.7800752855
 20
-9.7334792399
 10
-42.3833691965
 20
-9.557980747
 10
-41.9763132803
 20
-9.3938858629
  0
LWPOLYLINE
  5
343
100
AcDbEntity
  8
0
100
AcDbPolyline
 62
250
  6
CONTINUOUS
 90
17
 70
0
 10
20.4949420661
 20
-14.9685140941
 10
20.4028865632
 20
-14.9602387645
 10
20.3121436985
 20
-14.9476498725
 10
20.2234260093
 20
-14.9308897498
 10
20.1371942029
 20
-14.910033957
 10
20.0545235537
 20
-14.8852932006
 10
19.9769570728
 20
-14.8571329553
 10
19.9052415818
 20
-14.8258699539
 10
19.8399087969
 20
-14.7917360459
 10
19.7819097525
 20
-14.755220432
 10
19.7319374627
 20
-14.7168120033
 10
19.6901294095
 20
-14.6766269744
 10
19.6566330028
 20
-14.6345758497
 10
19.6317893863
 20
-14.5908846013
 10
19.615536592
 20
-14.5460100845
 10
19.6076907165
 20
-14.5001522619
 10
19.606890048
 20
-14.4798629074
  0
LWPOLYLINE
  5
344
100
AcDbEntity
  8
0
100
AcDbPolyline
 62
250
  6
CONTINUOUS
 90
16
 70
0
 10
39.5483680414
 20
-22.0722551055
 10
39.6227165603
 20
-22.0926300017
 10
39.7000622458
 20
-22.1097344766
 10
39.7799590097
 20
-22.1234940435
 10
39.8621131377
 20
-22.1338499034
 10
39.9459454201
 20
-22.1406930744
 10
40.0306086418
 20
-22.1439289005
 10
40.1152095274
 20
-22.1435487414
 10
40.1992985495
 20
-22.1395704245
 10
40.2826293707
 20
-22.1319975551
 10
40.3647679951
 20
-22.1208431558
 10
40.4447360279
 20
-22.1062088133
 10
40.5215891898
 20
-22.0883081106
 10
40.5947654827
 20
-22.0673395381
 10
40.6640452568
 20
-22.0434043996
 10
40.7290295437
 20
-22.0166407558
  0
LINE
  5
345
100
AcDbEntity
  8
0
100
AcDbLine
 62
250
  6
CONTINUOUS
 10
39.5483550566
 20
-22.0722667546
 11
38.6533065435
 21
-21.8024698959
  0
LINE
  5
346
100
AcDbEntity
  8
0
100
AcDbLine
 62
250
  6
CONTINUOUS
 10
38.6533065435
 20
-21.8024698959
 11
37.762958202
 21
-21.5270598248
  0
LWPOLYLINE
  5
347
100
AcDbEntity
  8
0
100
AcDbPolyline
 62
250
  6
CONTINUOUS
 90
3
 70
0
 10
37.762958202
 20
-21.5270598248
 10
36.9037636
 20
-21.2546601352
 10
36.4868286168
 20
-21.119767531
  0
LINE
  5
348
100
AcDbEntity
  8
DRAFT
100
AcDbLine
 62
7
  6
CONTINUOUS
 10
18.8261594087
 20
-30.4013804257
 11
18.9266667415
 21
-30.4754718855
  0
LWPOLYLINE
  5
349
100
AcDbEntity
  8
0
100
AcDbPolyline
 62
250
  6
CONTINUOUS
 90
10
 70
0
 10
-41.4511480187
 20
17.7029919637
 10
-41.7509451046
 20
17.9289600551
 10
-42.0339607311
 20
18.1449238638
 10
-42.3070910506
 20
18.3561629321
 10
-42.578548333
 20
18.5689981541
 10
-42.8511764869
 20
18.7855922026
 10
-43.1242739945
 20
19.0051720747
 10
-43.3953772863
 20
19.2257090583
 10
-43.6613007776
 20
19.4448743706
 10
-43.9229253437
 20
19.6633754402
  0
LWPOLYLINE
  5
34A
100
AcDbEntity
  8
0
100
AcDbPolyline
 62
250
  6
CONTINUOUS
 90
3
 70
0
 10
22.1777540264
 20
-31.8254416322
 10
23.6162157634
 20
-33.0968351572
 10
25.0811775682
 20
-34.4049643299
  0
LWPOLYLINE
  5
34B
100
AcDbEntity
  8
RACCORDO
100
AcDbPolyline
 62
7
  6
CONTINUOUS
 90
3
 70
0
 10
19.3191152822
 20
-30.1379167663
 10
19.3199273185
 20
-30.1386749701
 10
19.3200754776
 20
-30.1393811954
  0
LWPOLYLINE
  5
34C
100
AcDbEntity
  8
RACCORDO
100
AcDbPolyline
 62
7
  6
CONTINUOUS
 90
3
 70
0
 10
3.4091484052
 20
-22.3993609272
 10
3.4100247418
 20
-22.4002300327
 10
3.4102592557
 20
-22.4010851982
  0
LWPOLYLINE
  5
34D
100
AcDbEntity
  8
0
100
AcDbPolyline
 62
250
  6
CONTINUOUS
 90
10
 70
0
 10
19.1361000325
 20
-35.2478810701
 10
19.2144262307
 20
-35.3350898812
 10
19.2867827923
 20
-35.4325099005
 10
19.3529898772
 20
-35.5398325179
 10
19.4132010423
 20
-35.6571209429
 10
19.4668950846
 20
-35.7837138967
 10
19.5128899615
 20
-35.9179773884
 10
19.5506733555
 20
-36.0589092479
 10
19.5803874975
 20
-36.2063832656
 10
19.6018432353
 20
-36.3598630966
  0
LWPOLYLINE
  5
34E
100
AcDbEntity
  8
0
100
AcDbPolyline
 62
250
  6
CONTINUOUS
 90
5
 70
0
 10
25.8139835486
 20
-44.1121588097
 10
26.7748912548
 20
-45.2094299236
 10
27.743209127
 20
-46.2944980555
 10
28.7096345842
 20
-47.3595944006
 10
29.6660337252
 20
-48.3981642135
  0
LWPOLYLINE
  5
34F
100
AcDbEntity
  8
0
100
AcDbPolyline
 62
250
  6
CONTINUOUS
 90
10
 70
0
 10
-40.5110894617
 20
40.2735165035
 10
-40.9535329504
 20
40.9766141429
 10
-41.3715279524
 20
41.656878662
 10
-41.7696901653
 20
42.3226763372
 10
-42.151907329
 20
42.9809462342
 10
-42.5220452501
 20
43.6383730108
 10
-42.8835547378
 20
44.3007853926
 10
-43.2353788039
 20
44.9656795538
 10
-43.5742222712
 20
45.6263341267
 10
-43.8974281894
 20
46.2771155615
  0
LWPOLYLINE
  5
350
100
AcDbEntity
  8
0
100
AcDbPolyline
 62
250
  6
CONTINUOUS
 90
10
 70
0
 10
-39.7640465001
 20
44.4032118795
 10
-38.889445625
 20
43.0054562037
 10
-37.9585258439
 20
41.5513981483
 10
-36.9796881104
 20
40.0555523273
 10
-35.9693654759
 20
38.5430817908
 10
-34.9373133209
 20
37.0273022906
 10
-33.8794179172
 20
35.5021534122
 10
-32.781479504
 20
33.9496366309
 10
-31.6303987239
 20
32.3535474847
 10
-30.4014720701
 20
30.6825815552
  0
LWPOLYLINE
  5
351
100
AcDbEntity
  8
0
100
AcDbPolyline
 62
250
  6
CONTINUOUS
 90
10
 70
0
 10
-40.1813782726
 20
42.9630972967
 10
-40.6584237223
 20
43.7370044715
 10
-41.1130960775
 20
44.4900342214
 10
-41.5490053285
 20
45.2293201269
 10
-41.9689743829
 20
45.9603439248
 10
-42.3761524222
 20
46.6889047694
 10
-42.7736558731
 20
47.4206038439
 10
-43.1602831127
 20
48.1526220722
 10
-43.532613167
 20
48.877701251
 10
-43.8880324417
 20
49.5900277836
  0
LWPOLYLINE
  5
352
100
AcDbEntity
  8
0
100
AcDbPolyline
 62
250
  6
CONTINUOUS
 90
10
 70
0
 10
-39.1213095688
 20
45.2756532004
 10
-38.2533950801
 20
43.8660463169
 10
-37.3453197572
 20
42.4073205023
 10
-36.4014273575
 20
40.9092673232
 10
-35.4342672437
 20
39.3940566371
 10
-34.4506871194
 20
37.8739913387
 10
-33.4455779294
 20
36.3434676752
 10
-32.4067571262
 20
34.7864870225
 10
-31.3219363902
 20
33.1866966925
 10
-30.1614617598
 20
31.5026677803
  0
LWPOLYLINE
  5
353
100
AcDbEntity
  8
0
100
AcDbPolyline
 62
250
  6
CONTINUOUS
 90
10
 70
0
 10
-2.911783099
 20
-32.5747364542
 10
-2.8331155178
 20
-32.873342178
 10
-2.7566254565
 20
-33.1547020056
 10
-2.6804353458
 20
-33.4254561586
 10
-2.6019702163
 20
-33.6946156212
 10
-2.5197535321
 20
-33.9673700567
 10
-2.4338893334
 20
-34.2441018706
 10
-2.345506015
 20
-34.521571027
 10
-2.2555911395
 20
-34.7963921988
 10
-2.1656590743
 20
-35.0635011673
  0
LWPOLYLINE
  5
354
100
AcDbEntity
  8
0
100
AcDbPolyline
 62
250
  6
CONTINUOUS
 90
10
 70
0
 10
-4.1414662236
 20
-24.5914479479
 10
-4.1566452747
 20
-24.4255374782
 10
-4.1815578942
 20
-24.2653939392
 10
-4.2160975472
 20
-24.1117277369
 10
-4.2603070044
 20
-23.9648128329
 10
-4.3139701687
 20
-23.8259058369
 10
-4.3763227624
 20
-23.6969611834
 10
-4.446745976
 20
-23.578836132
 10
-4.5250555756
 20
-23.4715761237
 10
-4.610890848
 20
-23.3756339602
  0
LWPOLYLINE
  5
355
100
AcDbEntity
  8
0
100
AcDbPolyline
 62
250
  6
CONTINUOUS
 90
10
 70
0
 10
-4.1415144448
 20
-24.5906579217
 10
-4.0805357277
 20
-25.4481136538
 10
-3.9983063285
 20
-26.3566272422
 10
-3.8947291972
 20
-27.2958983265
 10
-3.7720996544
 20
-28.2347499203
 10
-3.6335546765
 20
-29.1523644529
 10
-3.4807497269
 20
-30.0362692136
 10
-3.3117727221
 20
-30.8895327923
 10
-3.1237386657
 20
-31.725475332
 10
-2.9117834333
 20
-32.5747348984
  0
LWPOLYLINE
  5
356
100
AcDbEntity
  8
0
100
AcDbPolyline
 62
250
  6
CONTINUOUS
 90
10
 70
0
 10
-2.9117834176
 20
29.4413451163
 10
-3.1213865449
 20
28.3923583499
 10
-3.3066504199
 20
27.3854478271
 10
-3.4724006922
 20
26.3872304958
 10
-3.6199024738
 20
25.3948442119
 10
-3.7531902096
 20
24.392917995
 10
-3.8756406714
 20
23.3548946347
 10
-3.9843898428
 20
22.2875512616
 10
-4.073689683
 20
21.236654794
 10
-4.1415144335
 20
20.2275372245
  0
LINE
  5
357
100
AcDbEntity
  8
DRAFT
100
AcDbLine
 62
7
  6
CONTINUOUS
 10
-13.563187297
 20
-14.9376516474
 11
-13.4626799642
 21
-14.7519354861
  0
LINE
  5
358
100
AcDbEntity
  8
DRAFT
100
AcDbLine
 62
7
  6
CONTINUOUS
 10
-13.2281628545
 20
-14.7516104781
 11
-13.1276555217
 21
-14.5658943167
  0
LINE
  5
359
100
AcDbEntity
  8
DRAFT
100
AcDbLine
 62
7
  6
CONTINUOUS
 10
-12.8931384119
 20
-14.5655693088
 11
-12.7926310792
 21
-14.3798531474
  0
LINE
  5
35A
100
AcDbEntity
  8
DRAFT
100
AcDbLine
 62
7
  6
CONTINUOUS
 10
-17.8145839249
 20
-12.7881155401
 11
-17.714235608
 21
-12.6261576642
  0
LINE
  5
35B
100
AcDbEntity
  8
DRAFT
100
AcDbLine
 62
7
  6
CONTINUOUS
 10
-17.4425015862
 20
-12.6206033188
 11
-17.3421532694
 21
-12.4586454429
  0
LINE
  5
35C
100
AcDbEntity
  8
DRAFT
100
AcDbLine
 62
7
  6
CONTINUOUS
 10
-17.0704192476
 20
-12.4530910976
 11
-16.9700709307
 21
-12.2911332216
  0
LWPOLYLINE
  5
35D
100
AcDbEntity
  8
0
100
AcDbPolyline
 62
250
  6
CONTINUOUS
 90
3
 70
0
 10
14.1839199275
 20
18.6882165767
 10
15.0480964627
 20
19.3496896035
 10
15.9797070735
 20
19.9845470166
  0
LWPOLYLINE
  5
35E
100
AcDbEntity
  8
0
100
AcDbPolyline
 62
250
  6
CONTINUOUS
 90
5
 70
0
 10
19.2141303373
 20
21.9892608981
 10
18.8383773138
 20
21.741709996
 10
18.4636799198
 20
21.5009441065
 10
18.0917504309
 20
21.2679816405
 10
17.7220552579
 20
21.0424089519
  0
LWPOLYLINE
  5
35F
100
AcDbEntity
  8
0
100
AcDbPolyline
 62
250
  6
CONTINUOUS
 90
3
 70
0
 10
16.6556632941
 20
20.4053360127
 10
16.3158781664
 20
20.1973046389
 10
15.9794891096
 20
19.9846826274
  0
LWPOLYLINE
  5
360
100
AcDbEntity
  8
0
100
AcDbPolyline
 62
250
  6
CONTINUOUS
 90
6
 70
0
 10
-41.6806031153
 20
-11.3261947355
 10
-42.1339898477
 20
-11.5050617215
 10
-42.5815864999
 20
-11.693816132
 10
-43.02344523
 20
-11.8925293765
 10
-43.4569701871
 20
-12.0997231429
 10
-43.8766843539
 20
-12.3123388671
  0
LWPOLYLINE
  5
361
100
AcDbEntity
  8
0
100
AcDbPolyline
 62
250
  6
CONTINUOUS
 90
5
 70
0
 10
-41.9763132803
 20
-9.3938858629
 10
-41.5557370407
 20
-9.2400518699
 10
-41.1184358578
 20
-9.095232803
 10
-40.6615518823
 20
-8.9581223287
 10
-40.1813783511
 20
-8.8268851423
  0
LWPOLYLINE
  5
362
100
AcDbEntity
  8
0
100
AcDbPolyline
 62
250
  6
CONTINUOUS
 90
10
 70
0
 10
34.6875253688
 20
2.6742718832
 10
33.4327751525
 20
2.3458860334
 10
32.150685845
 20
2.0588615666
 10
30.8321324518
 20
1.81028443
 10
29.4601490217
 20
1.59740639
 10
28.0299726469
 20
1.4202657376
 10
26.5663975567
 20
1.2826544762
 10
25.0942598961
 20
1.1880894236
 10
23.6252011805
 20
1.1382963337
 10
22.1777536995
 20
1.1345815535
  0
LWPOLYLINE
  5
363
100
AcDbEntity
  8
RACCORDO
100
AcDbPolyline
 62
7
  6
CONTINUOUS
 90
5
 70
0
 10
-16.7018239797
 20
-12.1706052734
 10
-16.6815263242
 20
-12.1658918787
 10
-16.6603003294
 20
-12.164543583
 10
-16.6386806687
 20
-12.1664857194
 10
-16.6172643957
 20
-12.1718894916
  0
LINE
  5
364
100
AcDbEntity
  8
0
100
AcDbLine
 62
250
  6
CONTINUOUS
 10
36.4868286168
 20
-21.119767531
 11
35.627588235
 21
-20.8363780039
  0
LWPOLYLINE
  5
365
100
AcDbEntity
  8
0
100
AcDbPolyline
 62
250
  6
CONTINUOUS
 90
10
 70
0
 10
22.2822410268
 20
-15.3955186691
 10
22.1180988119
 20
-15.3203880932
 10
21.942000055
 20
-15.2511978658
 10
21.7547529968
 20
-15.188266445
 10
21.5558815703
 20
-15.1315891802
 10
21.3477190471
 20
-15.0820379727
 10
21.135804255
 20
-15.0408878135
 10
20.9229978049
 20
-15.0084041316
 10
20.7090452295
 20
-14.9843035675
 10
20.4950667127
 20
-14.9685918835
  0
LWPOLYLINE
  5
366
100
AcDbEntity
  8
0
100
AcDbPolyline
 62
250
  6
CONTINUOUS
 90
10
 70
0
 10
22.2822424954
 20
-15.3955181706
 10
23.4427040516
 20
-15.956248421
 10
24.763973633
 20
-16.5689826921
 10
26.2192223334
 20
-17.2178680899
 10
27.6775095898
 20
-17.8435474627
 10
29.1652691558
 20
-18.4590186777
 10
30.8002442789
 20
-19.1095003046
 10
32.4314594635
 20
-19.7260575361
 10
33.9672541724
 20
-20.2730603606
 10
35.627588235
 20
-20.8363780039
  0
LWPOLYLINE
  5
367
100
AcDbEntity
  8
0
100
AcDbPolyline
 62
250
  6
CONTINUOUS
 90
10
 70
0
 10
-30.5694289666
 20
11.0303188221
 10
-31.6908894141
 20
11.6105496281
 10
-32.9163578956
 20
12.2711844493
 10
-34.2141286242
 20
12.9988088318
 10
-35.4654873026
 20
13.7279524913
 10
-36.6964296641
 20
14.4718323051
 10
-37.9973928426
 20
15.2893198992
 10
-39.2305072306
 20
16.1049275224
 10
-40.3245128088
 20
16.8728249043
 10
-41.4511480186
 20
17.7029919641
  0
LWPOLYLINE
  5
368
100
AcDbEntity
  8
0
100
AcDbPolyline
 62
250
  6
CONTINUOUS
 90
10
 70
0
 10
-30.5694304533
 20
11.030317843
 10
-30.4191691296
 20
10.9482468215
 10
-30.2807883677
 20
10.8601975972
 10
-30.1549253949
 20
10.7665741348
 10
-30.0415709168
 20
10.6671383976
 10
-29.9424685761
 20
10.563057101
 10
-29.8601682839
 20
10.4570996946
 10
-29.7952009172
 20
10.3506964743
 10
-29.7469997777
 20
10.2437201958
 10
-29.7155764085
 20
10.1367309421
  0
LWPOLYLINE
  5
369
100
AcDbEntity
  8
0
100
AcDbPolyline
 62
250
  6
CONTINUOUS
 90
10
 70
0
 10
35.0257753975
 20
-38.9788753902
 10
33.5968068512
 20
-37.7092688826
 10
32.2263328064
 20
-36.5306890217
 10
30.8608139978
 20
-35.3873701939
 10
29.4882002299
 20
-34.2616596793
 10
28.0846654776
 20
-33.1281658891
 10
26.6218826979
 20
-31.9631865025
 10
25.1162563829
 20
-30.781572791
 10
23.6322414928
 20
-29.6350979089
 10
22.2060331573
 20
-28.5519696968
  0
LWPOLYLINE
  5
36A
100
AcDbEntity
  8
0
100
AcDbPolyline
 62
250
  6
CONTINUOUS
 90
8
 70
0
 10
25.0811775682
 20
-34.4049643299
 10
26.5543152502
 20
-35.7333607817
 10
28.027314021
 20
-37.0744983278
 10
29.471094399
 20
-38.401957738
 10
30.8505479512
 20
-39.6859747791
 10
32.1678995253
 20
-40.9337390467
 10
33.4438128729
 20
-42.1695595537
 10
34.6875255271
 20
-43.4069642222
  0
LINE
  5
36B
100
AcDbEntity
  8
0
100
AcDbLine
 62
250
  6
CONTINUOUS
 10
22.1312271245
 20
-33.8376236465
 11
25.1365822344
 21
-36.7996676677
  0
LWPOLYLINE
  5
36C
100
AcDbEntity
  8
0
100
AcDbPolyline
 62
250
  6
CONTINUOUS
 90
5
 70
0
 10
25.1365822344
 20
-36.7996676677
 10
27.9671646124
 20
-39.6016840447
 10
29.3276152348
 20
-40.9532383411
 10
30.6560735248
 20
-42.2814803299
 10
31.9447290451
 20
-43.5854663657
  0
LWPOLYLINE
  5
36D
100
AcDbEntity
  8
0
100
AcDbPolyline
 62
250
  6
CONTINUOUS
 90
10
 70
0
 10
34.6875308029
 20
-43.4069022693
 10
35.2968810507
 20
-44.0265464145
 10
35.8766177325
 20
-44.6259400123
 10
36.4333889018
 20
-45.2124331571
 10
36.9727634828
 20
-45.7921243301
 10
37.5002280832
 20
-46.3708877795
 10
38.0206512599
 20
-46.9538433297
 10
38.5323700183
 20
-47.5387901483
 10
39.0304534938
 20
-48.1198247206
 10
39.5108731585
 20
-48.6919992857
  0
LINE
  5
36E
100
AcDbEntity
  8
0
100
AcDbLine
 62
250
  6
CONTINUOUS
 10
31.9447290451
 20
-43.5854663657
 11
33.1811152865
 21
-44.8581841712
  0
LWPOLYLINE
  5
36F
100
AcDbEntity
  8
0
100
AcDbPolyline
 62
250
  6
CONTINUOUS
 90
3
 70
0
 10
26.3313223163
 20
-39.4978073527
 10
23.5746542977
 20
-36.6030258273
 10
22.1049329683
 20
-35.0524572307
  0
LINE
  5
370
100
AcDbEntity
  8
0
100
AcDbLine
 62
250
  6
CONTINUOUS
 10
33.1811152865
 20
-44.8581841712
 11
34.357857301
 21
-46.0963627295
  0
LWPOLYLINE
  5
371
100
AcDbEntity
  8
0
100
AcDbPolyline
 62
250
  6
CONTINUOUS
 90
3
 70
0
 10
31.5602293139
 20
-44.9721525758
 10
30.2828621403
 20
-43.6255714691
 10
26.3313223163
 20
-39.4978073527
  0
LWPOLYLINE
  5
372
100
AcDbEntity
  8
0
100
AcDbPolyline
 62
250
  6
CONTINUOUS
 90
10
 70
0
 10
34.3578165175
 20
-46.0964843567
 10
35.0013813828
 20
-46.7871318271
 10
35.6180881392
 20
-47.4591443797
 10
36.2132151305
 20
-48.1188214183
 10
36.790880087
 20
-48.7709972686
 10
37.3555749427
 20
-49.4207997083
 10
37.9116932065
 20
-50.0731913797
 10
38.4574272732
 20
-50.7256561979
 10
38.987759988
 20
-51.3717340499
 10
39.4987927905
 20
-52.006253822
  0
LWPOLYLINE
  5
373
100
AcDbEntity
  8
0
100
AcDbPolyline
 62
250
  6
CONTINUOUS
 90
6
 70
0
 10
29.7281316837
 20
-44.4675213308
 10
27.1894933673
 20
-41.7261927037
 10
25.9087500559
 20
-40.3334877656
 10
24.6081602533
 20
-38.9073916075
 10
23.273895834
 20
-37.4323231143
 10
21.8716368395
 20
-35.8691863797
  0
LWPOLYLINE
  5
374
100
AcDbEntity
  8
0
100
AcDbPolyline
 62
250
  6
CONTINUOUS
 90
3
 70
0
 10
33.9404891104
 20
-47.5365967478
 10
32.784334277
 20
-46.2796180458
 10
31.5602293139
 20
-44.9721525758
  0
LWPOLYLINE
  5
375
100
AcDbEntity
  8
0
100
AcDbPolyline
 62
250
  6
CONTINUOUS
 90
4
 70
0
 10
33.2977777052
 20
-48.4090764274
 10
32.1626069839
 20
-47.1330746121
 10
30.9690032611
 20
-45.8170959735
 10
29.7281316837
 20
-44.4675213308
  0
LWPOLYLINE
  5
376
100
AcDbEntity
  8
0
100
AcDbPolyline
 62
250
  6
CONTINUOUS
 90
4
 70
0
 10
35.2613161465
 20
-50.6856204809
 10
34.6064221737
 20
-49.918185092
 10
33.9483771975
 20
-49.1545296071
 10
33.2977780912
 20
-48.4090760875
  0
LINE
  5
377
100
AcDbEntity
  8
0
100
AcDbLine
 62
250
  6
CONTINUOUS
 10
36.5110411503
 20
-52.1648876882
 11
35.2613161465
 21
-50.6856204809
  0
LWPOLYLINE
  5
378
100
AcDbEntity
  8
0
100
AcDbPolyline
 62
250
  6
CONTINUOUS
 90
3
 70
0
 10
38.9897840035
 20
-55.1298371963
 10
38.3591951785
 20
-54.3728734397
 10
36.5110411503
 20
-52.1648876882
  0
LWPOLYLINE
  5
379
100
AcDbEntity
  8
0
100
AcDbPolyline
 62
250
  6
CONTINUOUS
 90
10
 70
0
 10
-30.4299594934
 20
29.4666513175
 10
-31.7382115382
 20
31.0797309656
 10
-32.9784096953
 20
32.6571477919
 10
-34.1581014227
 20
34.2046785677
 10
-35.2811473833
 20
35.7230865068
 10
-36.3549215858
 20
37.2179790074
 10
-37.3852447968
 20
38.6952885295
 10
-38.3699722586
 20
40.1512385887
 10
-39.3029200423
 20
41.5756756169
 10
-40.1814155339
 20
42.9629774306
  0
LWPOLYLINE
  5
37A
100
AcDbEntity
  8
0
100
AcDbPolyline
 62
250
  6
CONTINUOUS
 90
6
 70
0
 10
21.2691767532
 20
-38.5683880772
 10
22.1434048171
 20
-39.6870917701
 10
23.0342992994
 20
-40.7999201654
 10
23.9406742179
 20
-41.905078264
 10
24.8674669669
 20
-43.0090486872
 10
25.8139835486
 20
-44.1121588097
  0
LINE
  5
37B
100
AcDbEntity
  8
0
100
AcDbLine
 62
250
  6
CONTINUOUS
 10
20.8598445991
 20
-38.0681715637
 11
21.2437887202
 21
-38.5679769698
  0
LINE
  5
37C
100
AcDbEntity
  8
0
100
AcDbLine
 62
250
  6
CONTINUOUS
 10
20.2648105504
 20
-37.2502878214
 11
20.8754421045
 21
-38.0561032266
  0
LWPOLYLINE
  5
37D
100
AcDbEntity
  8
0
100
AcDbPolyline
 62
250
  6
CONTINUOUS
 90
3
 70
0
 10
19.7947189708
 20
-36.6537865364
 10
19.8697115768
 20
-36.7547212822
 10
20.2427144948
 20
-37.2537081864
  0
LINE
  5
37E
100
AcDbEntity
  8
0
100
AcDbLine
 62
250
  6
CONTINUOUS
 10
19.6018421825
 20
-36.3598637791
 11
19.7811423043
 21
-36.6022804936
  0
LINE
  5
37F
100
AcDbEntity
  8
0
100
AcDbLine
 62
250
  6
CONTINUOUS
 10
-37.8962510365
 20
49.2072347196
 11
-35.9016271152
 21
45.9450028218
  0
LINE
  5
380
100
AcDbEntity
  8
0
100
AcDbLine
 62
250
  6
CONTINUOUS
 10
-35.9016271152
 20
45.9450028218
 11
-35.4896440457
 21
45.2648061367
  0
LWPOLYLINE
  5
381
100
AcDbEntity
  8
0
100
AcDbPolyline
 62
250
  6
CONTINUOUS
 90
3
 70
0
 10
-39.0384130685
 20
51.1083951256
 10
-38.6583580408
 20
50.4713855758
 10
-37.8962510365
 20
49.2072347196
  0
LWPOLYLINE
  5
382
100
AcDbEntity
  8
0
100
AcDbPolyline
 62
250
  6
CONTINUOUS
 90
5
 70
0
 10
-32.0938099152
 20
39.4319459135
 10
-32.9407641516
 20
40.9162543987
 10
-33.7939004518
 20
42.3949091438
 10
-34.6455941768
 20
43.8497305618
 10
-35.4895635737
 20
45.2647395018
  0
LINE
  5
383
100
AcDbEntity
  8
0
100
AcDbLine
 62
250
  6
CONTINUOUS
 10
-29.5969816129
 20
35.0187209878
 11
-32.0938099152
 21
39.4319459135
  0
LINE
  5
384
100
AcDbEntity
  8
0
100
AcDbLine
 62
250
  6
CONTINUOUS
 10
-27.895463549
 20
31.9914469505
 11
-29.5969816129
 21
35.0187209878
  0
LWPOLYLINE
  5
385
100
AcDbEntity
  8
0
100
AcDbPolyline
 62
250
  6
CONTINUOUS
 90
7
 70
0
 10
-21.9978363965
 20
39.3555551165
 10
-22.5908353557
 20
40.7990863617
 10
-22.7907940045
 20
41.2985851891
 10
-22.9873137394
 20
41.8062145483
 10
-23.1785656236
 20
42.3206303281
 10
-23.3645126413
 20
42.842144795
 10
-23.5441184684
 20
43.3683863221
  0
LINE
  5
386
100
AcDbEntity
  8
0
100
AcDbLine
 62
250
  6
CONTINUOUS
 10
-21.8030412324
 20
38.8759487007
 11
-21.9978363965
 21
39.3555551165
  0
LWPOLYLINE
  5
387
100
AcDbEntity
  8
0
100
AcDbPolyline
 62
250
  6
CONTINUOUS
 90
10
 70
0
 10
-21.8032683712
 20
38.8760356413
 10
-21.2905568185
 20
37.5637607879
 10
-20.8109630386
 20
36.2661140997
 10
-20.3532170255
 20
34.9619287327
 10
-19.906607191
 20
33.6306238541
 10
-19.4669385303
 20
32.2683821694
 10
-19.0443886424
 20
30.9097963104
 10
-18.6481079668
 20
29.5865279376
 10
-18.2822473389
 20
28.3171880887
 10
-17.950274605
 20
27.1194040731
  0
LINE
  5
388
100
AcDbEntity
  8
0
100
AcDbLine
 62
7
  6
CONTINUOUS
 10
-25.9252892486
 20
-8.8637288851
 11
-27.8122405607
 21
-9.8201543086
  0
LWPOLYLINE
  5
389
100
AcDbEntity
  8
0
100
AcDbPolyline
 62
7
  6
CONTINUOUS
 90
3
 70
0
 10
-28.0258668662
 20
-9.4520193326
 10
-27.7176477225
 20
-9.3000851488
 10
-26.1294409992
 20
-8.511734546
  0
LWPOLYLINE
  5
38A
100
AcDbEntity
  8
0
100
AcDbPolyline
 62
250
  6
CONTINUOUS
 90
4
 70
0
 10
-30.4294166076
 20
-13.9031225436
 10
-29.5976975953
 20
-13.503587186
 10
-28.7560667325
 20
-13.074921689
 10
-27.8954636166
 20
-12.6112097452
  0
LINE
  5
38B
100
AcDbEntity
  8
0
100
AcDbLine
 62
250
  6
CONTINUOUS
 10
-31.2587590493
 20
-14.2783572959
 11
-30.4294166076
 21
-13.9031225436
  0
LWPOLYLINE
  5
38C
100
AcDbEntity
  8
0
100
AcDbPolyline
 62
250
  6
CONTINUOUS
 90
6
 70
0
 10
-41.1328899373
 20
-12.9356158286
 10
-41.6015194315
 20
-13.1282480153
 10
-42.0569639634
 20
-13.324665911
 10
-42.5022064866
 20
-13.526520838
 10
-42.9385180605
 20
-13.7340017298
 10
-43.3711420746
 20
-13.9493720781
  0
LWPOLYLINE
  5
38D
100
AcDbEntity
  8
0
100
AcDbPolyline
 62
250
  6
CONTINUOUS
 90
10
 70
0
 10
29.665999798
 20
12.68695626
 10
28.5095182781
 20
12.2726643986
 10
27.3400944317
 20
11.8287903926
 10
26.1722994689
 20
11.3608668922
 10
25.0222441447
 20
10.8752042795
 10
23.9024522236
 20
10.3785977829
 10
22.8116035429
 20
9.8726099144
 10
21.7380105666
 20
9.3521375774
 10
20.671763211
 20
8.8111638363
 10
19.6018421948
 20
8.2427929443
  0
LWPOLYLINE
  5
38E
100
AcDbEntity
  8
0
100
AcDbPolyline
 62
250
  6
CONTINUOUS
 90
10
 70
0
 10
29.6660911598
 20
12.686936978
 10
30.2314948294
 20
12.8805438291
 10
30.7959102907
 20
13.0682144007
 10
31.3591236379
 20
13.2501966077
 10
31.9173334677
 20
13.4256503712
 10
32.470158569
 20
13.5948797673
 10
33.022410427
 20
13.7596242931
 10
33.5774720998
 20
13.9209816655
 10
34.1369506075
 20
14.0795103105
 10
34.705182961
 20
14.2365953486
  0
LWPOLYLINE
  5
38F
100
AcDbEntity
  8
0
100
AcDbPolyline
 62
250
  6
CONTINUOUS
 90
5
 70
0
 10
-39.1213341066
 20
-12.1995181466
 10
-39.6258281949
 20
-12.3707532906
 10
-40.1368772088
 20
-12.5534431055
 10
-40.6438704926
 20
-12.7435736862
 10
-41.1328899373
 20
-12.9356158286
  0
LINE
  5
390
100
AcDbEntity
  8
0
100
AcDbLine
 62
250
  6
CONTINUOUS
 10
-38.2557403677
 20
-11.9257729399
 11
-39.1213096559
 21
-12.19951113
  0
LWPOLYLINE
  5
391
100
AcDbEntity
  8
0
100
AcDbPolyline
 62
250
  6
CONTINUOUS
 90
5
 70
0
 10
-39.7640469082
 20
-10.6843261338
 10
-40.2599479695
 20
-10.8346081061
 10
-40.744934551
 20
-10.9917321438
 10
-41.2184074169
 20
-11.155530339
 10
-41.6806031153
 20
-11.3261947355
  0
LWPOLYLINE
  5
392
100
AcDbEntity
  8
0
100
AcDbPolyline
 62
250
  6
CONTINUOUS
 90
4
 70
0
 10
-35.4397409631
 20
-11.1541311242
 10
-36.4065379537
 20
-11.404092295
 10
-37.3493721771
 20
-11.6610693078
 10
-38.2557403677
 20
-11.9257729399
  0
LINE
  5
393
100
AcDbEntity
  8
0
100
AcDbLine
 62
250
  6
CONTINUOUS
 10
-32.4101306204
 20
-10.4007608046
 11
-35.4397409631
 21
-11.1541311242
  0
LINE
  5
394
100
AcDbEntity
  8
0
100
AcDbLine
 62
250
  6
CONTINUOUS
 10
-30.1614618226
 20
-9.8526358061
 11
-32.4101306204
 21
-10.4007608046
  0
LWPOLYLINE
  5
395
100
AcDbEntity
  8
0
100
AcDbPolyline
 62
250
  6
CONTINUOUS
 90
4
 70
0
 10
-36.9832187345
 20
-9.995047404
 10
-37.9612734358
 20
-10.2134171994
 10
-38.8910063281
 20
-10.4431335128
 10
-39.7640671641
 20
-10.6843331882
  0
LWPOLYLINE
  5
396
100
AcDbEntity
  8
0
100
AcDbPolyline
 62
250
  6
CONTINUOUS
 90
10
 70
0
 10
22.1049329775
 20
4.4293777775
 10
23.5764397858
 20
4.7514197137
 10
24.9773213199
 20
5.0725450796
 10
26.3354707511
 20
5.3977963542
 10
27.6654067439
 20
5.7295561431
 10
28.9824602458
 20
6.0709787112
 10
30.2874484227
 20
6.4255561425
 10
31.5638300853
 20
6.7930894147
 10
32.7863926381
 20
7.1692205546
 10
33.9405163785
 20
7.5509516784
  0
LWPOLYLINE
  5
397
100
AcDbEntity
  8
0
100
AcDbPolyline
 62
250
  6
CONTINUOUS
 90
8
 70
0
 10
-38.3692580305
 20
-8.4279819897
 10
-37.3843088981
 20
-8.2606732846
 10
-36.3538660208
 20
-8.1118269994
 10
-35.2800806057
 20
-7.9774012166
 10
-34.1571305093
 20
-7.8540123031
 10
-32.977643837
 20
-7.7421032818
 10
-31.7377658664
 20
-7.642856755
 10
-30.4299595546
 20
-7.5570290517
  0
LWPOLYLINE
  5
398
100
AcDbEntity
  8
0
100
AcDbPolyline
 62
250
  6
CONTINUOUS
 90
7
 70
0
 10
-30.4014721299
 20
-8.7992534422
 10
-31.6318794215
 20
-9.000745622
 10
-32.7840454241
 20
-9.1975132245
 10
-33.882746197
 20
-9.3930401727
 10
-34.9410976413
 20
-9.5890076903
 10
-35.9732446125
 20
-9.7879769965
 10
-36.9832187345
 20
-9.995047404
  0
LINE
  5
399
100
AcDbEntity
  8
RACCORDO
100
AcDbLine
 62
250
  6
CONTINUOUS
 10
42.9014002427
 20
-24.1193550129
 11
42.5988958014
 21
-23.9681027922
  0
LINE
  5
39A
100
AcDbEntity
  8
RACCORDO
100
AcDbLine
 62
250
  6
CONTINUOUS
 10
42.5778770875
 20
-23.2870869723
 11
43.7427169045
 21
-23.8695068808
  0
LINE
  5
39B
100
AcDbEntity
  8
RACCORDO
100
AcDbLine
 62
7
  6
CONTINUOUS
 10
42.5778770875
 20
-23.2035261739
 11
43.9292938529
 21
-23.8792345566
  0
LWPOLYLINE
  5
39C
100
AcDbEntity
  8
0
100
AcDbPolyline
 62
250
  6
CONTINUOUS
 90
10
 70
0
 10
-30.4943391603
 20
24.1862117743
 10
-31.6765515193
 20
25.226796782
 10
-32.9186300406
 20
26.3902267805
 10
-34.1913621093
 20
27.6566936879
 10
-35.4589863745
 20
28.996235549
 10
-36.6766084585
 20
30.3619032953
 10
-37.800131251
 20
31.7042717273
 10
-38.8421376889
 20
33.0345483253
 10
-39.8430764987
 20
34.3948806641
 10
-40.8493281609
 20
35.8454923032
  0
LWPOLYLINE
  5
39D
100
AcDbEntity
  8
0
100
AcDbPolyline
 62
250
  6
CONTINUOUS
 90
10
 70
0
 10
39.5267116862
 20
-43.3785475918
 10
39.0785477448
 20
-42.905249524
 10
38.6139429712
 20
-42.4237735567
 10
38.1368680928
 20
-41.9384606378
 10
37.6517133144
 20
-41.4540858366
 10
37.1605317888
 20
-40.9730244353
 10
36.6590837149
 20
-40.4913248044
 10
36.141199163
 20
-40.0031733218
 10
35.599462542
 20
-39.5015988922
 10
35.0257750435
 20
-38.9788806326
  0
LWPOLYLINE
  5
39E
100
AcDbEntity
  8
0
100
AcDbPolyline
 62
250
  6
CONTINUOUS
 90
10
 70
0
 10
-30.4692523895
 20
27.4580858561
 10
-31.7370960547
 20
28.8147886138
 10
-32.9959085476
 20
30.2259925958
 10
-34.2300543322
 20
31.6738850982
 10
-35.4329144139
 20
33.1500920288
 10
-36.5814182691
 20
34.6251896866
 10
-37.6509170958
 20
36.0641840481
 10
-38.6497220326
 20
37.4712215715
 10
-39.5993872783
 20
38.8701660376
 10
-40.5110841859
 20
40.2735784564
  0
LWPOLYLINE
  5
39F
100
AcDbEntity
  8
0
100
AcDbPolyline
 62
250
  6
CONTINUOUS
 90
10
 70
0
 10
39.4853958465
 20
-53.9933809581
 10
38.9195711158
 20
-53.297734791
 10
38.3352535936
 20
-52.5886492773
 10
37.7398498882
 20
-51.8755983646
 10
37.1372331859
 20
-51.1636367126
 10
36.5273303249
 20
-50.4528583525
 10
35.905312911
 20
-49.7375809712
 10
35.2671805767
 20
-49.0132667898
 10
34.6121390423
 20
-48.2793524705
 10
33.9404997509
 20
-47.5366074031
  0
LINE
  5
3A0
100
AcDbEntity
  8
RACCORDO
100
AcDbLine
 62
250
  6
CONTINUOUS
 10
3.3588021371
 20
-22.4174246827
 11
3.3588021371
 21
-23.3262766136
  0
LINE
  5
3A1
100
AcDbEntity
  8
RACCORDO
100
AcDbLine
 62
7
  6
CONTINUOUS
 10
3.410173172
 20
-22.4015582079
 11
3.410173172
 21
-23.2083169672
  0
LWPOLYLINE
  5
3A2
100
AcDbEntity
  8
0
100
AcDbPolyline
 62
250
  6
CONTINUOUS
 90
8
 70
0
 10
9.6670063753
 20
13.3107629234
 10
10.11552004
 20
14.0710681128
 10
10.6368613621
 20
14.8602298551
 10
11.2304614156
 20
15.6641487754
 10
11.8927546476
 20
16.4669624189
 10
12.6125658149
 20
17.2491691004
 10
13.3755551916
 20
17.9903408268
 10
14.1839199275
 20
18.6882165767
  0
LWPOLYLINE
  5
3A3
100
AcDbEntity
  8
RACCORDO
100
AcDbPolyline
 62
7
  6
CONTINUOUS
 90
6
 70
0
 10
-12.5511004396
 20
-15.3713253253
 10
-12.5350743487
 20
-15.3578768468
 10
-12.5223026483
 20
-15.3422262949
 10
-12.5126360046
 20
-15.3246410063
 10
-12.5058923383
 20
-15.3051572644
 10
-12.5017432638
 20
-15.2841657684
  0
LWPOLYLINE
  5
3A4
100
AcDbEntity
  8
0
100
AcDbPolyline
 62
250
  6
CONTINUOUS
 90
7
 70
0
 10
-23.5441185711
 20
-24.3758611878
 10
-23.3649401579
 20
-24.2265975872
 10
-23.1792057267
 20
-24.0803131756
 10
-22.9879226946
 20
-23.9376739348
 10
-22.790916634
 20
-23.7984457992
 10
-22.5901846448
 20
-23.6622292126
 10
-22.1927919966
 20
-23.3955065149
  0
LINE
  5
3A5
100
AcDbEntity
  8
RACCORDO
100
AcDbLine
 62
7
  6
CONTINUOUS
 10
-16.7096132937
 20
-12.1738746667
 11
-16.9700709307
 21
-12.2911332216
  0
LINE
  5
3A6
100
AcDbEntity
  8
DRAFT
100
AcDbLine
 62
7
  6
CONTINUOUS
 10
-17.1933203339
 20
-12.3916405544
 11
-17.3421532694
 21
-12.4586454429
  0
LINE
  5
3A7
100
AcDbEntity
  8
DRAFT
100
AcDbLine
 62
7
  6
CONTINUOUS
 10
-17.5654026726
 20
-12.5591527757
 11
-17.714235608
 21
-12.6261576642
  0
LINE
  5
3A8
100
AcDbEntity
  8
DRAFT
100
AcDbLine
 62
7
  6
CONTINUOUS
 10
-17.9374850112
 20
-12.7266649969
 11
-18.0753146557
 21
-12.7887161816
  0
LWPOLYLINE
  5
3A9
100
AcDbEntity
  8
0
100
AcDbPolyline
 62
250
  6
CONTINUOUS
 90
10
 70
0
 10
33.9404894428
 20
7.5509412842
 10
34.5979529413
 20
7.782004473
 10
35.2425253238
 20
8.0189214091
 10
35.8738809826
 20
8.2616609987
 10
36.492809047
 20
8.5106915761
 10
37.1031087697
 20
8.7680150552
 10
37.7092575649
 20
9.036045535
 10
38.3114383522
 20
9.314919806
 10
38.9060388905
 20
9.6026513608
 10
39.4853958641
 20
9.8950884862
  0
LWPOLYLINE
  5
3AA
100
AcDbEntity
  8
0
100
AcDbPolyline
 62
250
  6
CONTINUOUS
 90
10
 70
0
 10
34.3578573152
 20
5.6933392259
 10
33.1805840349
 20
5.3335023075
 10
31.9437880148
 20
4.9936408718
 10
30.6548572076
 20
4.6743413332
 10
29.3262653091
 20
4.3764205412
 10
27.9658259441
 20
4.0986677869
 10
26.5709775247
 20
3.839329715
 10
25.1356597552
 20
3.599505148
 10
23.6579207709
 20
3.3813281171
 10
22.1312271288
 20
3.1860567511
  0
LWPOLYLINE
  5
3AB
100
AcDbEntity
  8
0
100
AcDbPolyline
 62
250
  6
CONTINUOUS
 90
6
 70
0
 10
-35.4895636663
 20
-15.8203443153
 10
-34.6460055681
 20
-15.5625141604
 10
-33.7946202899
 20
-15.2776594339
 10
-32.9416853081
 20
-14.9671659197
 10
-32.0948333382
 20
-14.6331049801
 10
-31.2587590493
 20
-14.2783572959
  0
LWPOLYLINE
  5
3AC
100
AcDbEntity
  8
0
100
AcDbPolyline
 62
250
  6
CONTINUOUS
 90
10
 70
0
 10
21.8716368509
 20
5.4861172324
 10
23.2762429495
 20
5.8894594827
 10
24.6123467244
 20
6.2802627642
 10
25.9143685003
 20
6.667989536
 10
27.1961580601
 20
7.0559307013
 10
28.4700488606
 20
7.4476789708
 10
29.7348392334
 20
7.846636829
 10
30.974327827
 20
8.251941023
 10
32.1656667356
 20
8.6591300106
 10
33.2977465011
 20
9.0661234359
  0
LWPOLYLINE
  5
3AD
100
AcDbEntity
  8
0
100
AcDbPolyline
 62
250
  6
CONTINUOUS
 90
3
 70
0
 10
-40.1814156124
 20
-8.8267244927
 10
-39.3025215123
 20
-8.6160771604
 10
-38.3692580305
 20
-8.4279819897
  0
LWPOLYLINE
  5
3AE
100
AcDbEntity
  8
0
100
AcDbPolyline
 62
250
  6
CONTINUOUS
 90
10
 70
0
 10
-40.5110895316
 20
-5.8075902184
 10
-39.565126517
 20
-5.6417510927
 10
-38.5928568738
 20
-5.517330112
 10
-37.5836800698
 20
-5.4290714992
 10
-36.5248935162
 20
-5.3728729731
 10
-35.4045610164
 20
-5.3446180428
 10
-34.2257328624
 20
-5.3425504488
 10
-33.001071059
 20
-5.367557505
 10
-31.7439157311
 20
-5.4207052304
 10
-30.4692506141
 20
-5.5021181848
  0
LWPOLYLINE
  5
3AF
100
AcDbEntity
  8
0
100
AcDbPolyline
 62
250
  6
CONTINUOUS
 90
10
 70
0
 10
-40.8493292004
 20
-1.0413266334
 10
-41.2543042438
 20
-1.0746492224
 10
-41.6334619763
 20
-1.1157275156
 10
-41.9924388073
 20
-1.1654128769
 10
-42.3364178938
 20
-1.2243770876
 10
-42.6697387875
 20
-1.2931801136
 10
-42.9954481128
 20
-1.3721331394
 10
-43.3123305211
 20
-1.4604996284
 10
-43.6175768928
 20
-1.5571057207
 10
-43.9086672279
 20
-1.6608561422
  0
LWPOLYLINE
  5
3B0
100
AcDbEntity
  8
0
100
AcDbPolyline
 62
250
  6
CONTINUOUS
 90
10
 70
0
 10
20.4761152301
 20
4.6283262528
 10
20.6714609251
 20
4.6392204994
 10
20.8651730051
 20
4.6447520924
 10
21.0563088646
 20
4.6449056479
 10
21.2441258689
 20
4.6396569488
 10
21.427423612
 20
4.6289891384
 10
21.6047080169
 20
4.6129773583
 10
21.7750654668
 20
4.5917389732
 10
21.9379966285
 20
4.5653485144
 10
22.0927947513
 20
4.5338957689
  0
LWPOLYLINE
  5
3B1
100
AcDbEntity
  8
0
100
AcDbPolyline
 62
250
  6
CONTINUOUS
 90
10
 70
0
 10
-40.849328192
 20
-1.0413236194
 10
-39.8272670651
 20
-0.9973177036
 10
-38.8240827313
 20
-1.0056232071
 10
-37.7958426414
 20
-1.0592216516
 10
-36.7277172255
 20
-1.1538952208
 10
-35.5996431473
 20
-1.2861910834
 10
-34.3879278628
 20
-1.4584292482
 10
-33.1017428884
 20
-1.6726844691
 10
-31.7933757652
 20
-1.9223504542
 10
-30.4943391982
 20
-2.2017840461
  0
LWPOLYLINE
  5
3B2
100
AcDbEntity
  8
0
100
AcDbPolyline
 62
250
  6
CONTINUOUS
 90
10
 70
0
 10
22.2060332378
 20
-2.1639771842
 10
23.5018762678
 20
-2.3625567437
 10
24.9054966151
 20
-2.5220843477
 10
26.3884594211
 20
-2.6335285083
 10
27.9124798207
 20
-2.6898260809
 10
29.423710723
 20
-2.688549701
 10
30.8665629101
 20
-2.6293070522
 10
32.2508181773
 20
-2.5120968011
 10
33.6187651341
 20
-2.3361341065
 10
35.0257752461
 20
-2.0920622433
  0
LWPOLYLINE
  5
3B3
100
AcDbEntity
  8
0
100
AcDbPolyline
 62
250
  6
CONTINUOUS
 90
10
 70
0
 10
-30.3886255036
 20
30.7746071506
 10
-30.2650226031
 20
30.6668573612
 10
-30.1522022921
 20
30.5553750947
 10
-30.0506069489
 20
30.4406476793
 10
-29.9605920662
 20
30.3230392428
 10
-29.8827138288
 20
30.2031625654
 10
-29.8175415882
 20
30.0819439084
 10
-29.7653268998
 20
29.9601085293
 10
-29.7261900658
 20
29.83811671
 10
-29.7003219914
 20
29.71654606
  0
LWPOLYLINE
  5
3B4
100
AcDbEntity
  8
0
100
AcDbPolyline
 62
250
  6
CONTINUOUS
 90
9
 70
0
 10
-43.8242118352
 20
52.0433590407
 10
-43.8749967678
 20
52.0973025848
 10
-43.9185027499
 20
52.1529003322
 10
-43.9545148368
 20
52.2097892245
 10
-43.9828472364
 20
52.2676772709
 10
-44.0032218214
 20
52.3261425727
 10
-44.0153690675
 20
52.3846548887
 10
-44.0191610584
 20
52.4426068477
 10
-44.0146867456
 20
52.4976969156
  0
LINE
  5
3B5
100
AcDbEntity
  8
0
100
AcDbLine
 62
7
  6
CONTINUOUS
 10
21.7206822883
 20
-39.7630547549
 11
21.4109003563
 21
-39.0944799758
  0
LINE
  5
3B6
100
AcDbEntity
  8
0
100
AcDbLine
 62
7
  6
CONTINUOUS
 10
21.3896738745
 20
-39.1055021799
 11
21.6992853565
 21
-39.7737532208
  0
LINE
  5
3B7
100
AcDbEntity
  8
0
100
AcDbLine
 62
7
  6
CONTINUOUS
 10
21.2285341053
 20
-39.5471785129
 11
20.9384372956
 21
-38.9195493854
  0
LINE
  5
3B8
100
AcDbEntity
  8
0
100
AcDbLine
 62
7
  6
CONTINUOUS
 10
21.1491332688
 20
-38.5807380126
 11
21.3896738745
 21
-39.1055021799
  0
LINE
  5
3B9
100
AcDbEntity
  8
0
100
AcDbLine
 62
7
  6
CONTINUOUS
 10
21.4109003563
 20
-39.0944799758
 11
21.1749506521
 21
-38.579791872
  0
LINE
  5
3BA
100
AcDbEntity
  8
0
100
AcDbLine
 62
7
  6
CONTINUOUS
 10
20.9384372956
 20
-38.9195493854
 11
20.7115058866
 21
-38.4235663907
  0
LINE
  5
3BB
100
AcDbEntity
  8
0
100
AcDbLine
 62
7
  6
CONTINUOUS
 10
13.5590681467
 20
-35.7607671929
 11
13.4610014752
 21
-35.4726262543
  0
LINE
  5
3BC
100
AcDbEntity
  8
0
100
AcDbLine
 62
7
  6
CONTINUOUS
 10
13.4610014752
 20
-35.4726262543
 11
13.2652237567
 21
-34.8848715379
  0
LINE
  5
3BD
100
AcDbEntity
  8
0
100
AcDbLine
 62
7
  6
CONTINUOUS
 10
13.5532420364
 20
-34.7127426412
 11
13.6861262665
 21
-35.1200890879
  0
LINE
  5
3BE
100
AcDbEntity
  8
0
100
AcDbLine
 62
7
  6
CONTINUOUS
 10
13.6957307523
 20
-35.0735760299
 11
13.5745099638
 21
-34.701856985
  0
LINE
  5
3BF
100
AcDbEntity
  8
0
100
AcDbLine
 62
7
  6
CONTINUOUS
 10
13.2652237567
 20
-34.8848715379
 11
13.0698527723
 21
-34.2818455773
  0
LINE
  5
3C0
100
AcDbEntity
  8
0
100
AcDbLine
 62
7
  6
CONTINUOUS
 10
13.4207897272
 20
-34.2987415527
 11
13.5532420364
 21
-34.7127426412
  0
LINE
  5
3C1
100
AcDbEntity
  8
0
100
AcDbLine
 62
7
  6
CONTINUOUS
 10
13.5745099638
 20
-34.701856985
 11
13.4420132254
 21
-34.2877699637
  0
LINE
  5
3C2
100
AcDbEntity
  8
0
100
AcDbLine
 62
7
  6
CONTINUOUS
 10
16.5285582334
 20
-37.2361630633
 11
16.4065064
 21
-36.854136584
  0
LINE
  5
3C3
100
AcDbEntity
  8
0
100
AcDbLine
 62
7
  6
CONTINUOUS
 10
13.0698527723
 20
-34.2818455773
 11
12.8752931153
 21
-33.6633931239
  0
LINE
  5
3C4
100
AcDbEntity
  8
0
100
AcDbLine
 62
7
  6
CONTINUOUS
 10
13.2887973002
 20
-33.8780754286
 11
13.4207897272
 21
-34.2987415527
  0
LINE
  5
3C5
100
AcDbEntity
  8
0
100
AcDbLine
 62
7
  6
CONTINUOUS
 10
13.4420132254
 20
-34.2877699637
 11
13.3100175054
 21
-33.8671410727
  0
LINE
  5
3C6
100
AcDbEntity
  8
0
100
AcDbLine
 62
7
  6
CONTINUOUS
 10
16.4065064
 20
-36.854136584
 11
16.2846583838
 21
-36.4656187563
  0
LINE
  5
3C7
100
AcDbEntity
  8
0
100
AcDbLine
 62
7
  6
CONTINUOUS
 10
16.2846583838
 20
-36.4656187563
 11
16.1630269482
 21
-36.0706091844
  0
LWPOLYLINE
  5
3C8
100
AcDbEntity
  8
0
100
AcDbPolyline
 62
7
  6
CONTINUOUS
 90
3
 70
0
 10
13.3100175054
 20
-33.8671410727
 10
13.178631883
 20
-33.4399308751
 10
13.1131610409
 20
-33.2238602511
  0
LINE
  5
3C9
100
AcDbEntity
  8
0
100
AcDbLine
 62
7
  6
CONTINUOUS
 10
16.6543142271
 20
-36.4550306495
 11
16.5501904049
 21
-36.1148238234
  0
LINE
  5
3CA
100
AcDbEntity
  8
0
100
AcDbLine
 62
7
  6
CONTINUOUS
 10
12.8752931153
 20
-33.6633931239
 11
12.6816459341
 21
-33.0294753653
  0
LWPOLYLINE
  5
3CB
100
AcDbEntity
  8
0
100
AcDbPolyline
 62
7
  6
CONTINUOUS
 90
3
 70
0
 10
13.0918736564
 20
-33.2345039434
 10
13.1573765995
 20
-33.4507026924
 10
13.2887973002
 20
-33.8780754286
  0
LWPOLYLINE
  5
3CC
100
AcDbEntity
  8
0
100
AcDbPolyline
 62
7
  6
CONTINUOUS
 90
3
 70
0
 10
16.4706262633
 20
-35.9328721091
 10
16.5288477061
 20
-36.1254969876
 10
16.645583326
 20
-36.5067644874
  0
LWPOLYLINE
  5
3CD
100
AcDbEntity
  8
0
100
AcDbPolyline
 62
7
  6
CONTINUOUS
 90
3
 70
0
 10
16.1630269482
 20
-36.0706091844
 10
16.041663147
 20
-35.6691062839
 10
15.9810784185
 20
-35.4659199344
  0
LWPOLYLINE
  5
3CE
100
AcDbEntity
  8
RACCORDO
100
AcDbPolyline
 62
7
  6
CONTINUOUS
 90
3
 70
0
 10
3.4081593129
 20
-23.2391170567
 10
3.4100247418
 20
-23.2173490427
 10
3.4101729009
 20
-23.2086095612
  0
LWPOLYLINE
  5
3CF
100
AcDbEntity
  8
0
100
AcDbPolyline
 62
250
  6
CONTINUOUS
 90
3
 70
0
 10
-22.1927919966
 20
-23.3955065149
 10
-21.9971198981
 20
-23.2595316532
 10
-21.8030413263
 20
-23.1180648818
  0
LWPOLYLINE
  5
3D0
100
AcDbEntity
  8
0
100
AcDbPolyline
 62
250
  6
CONTINUOUS
 90
16
 70
0
 10
38.6448492042
 20
13.464924976
 10
38.5857183313
 20
13.4279506182
 10
38.5275033748
 20
13.3854584787
 10
38.4704963893
 20
13.3376603562
 10
38.415034157
 20
13.2848275296
 10
38.3613968737
 20
13.2272027043
 10
38.3098586463
 20
13.1650246155
 10
38.2607491547
 20
13.0985381723
 10
38.21461138
 20
13.0283419679
 10
38.1719653272
 20
12.9553006198
 10
38.1330994181
 20
12.8801434183
 10
38.0982278084
 20
12.8033711572
 10
38.0676331517
 20
12.7255884802
 10
38.0414969733
 20
12.6472338284
 10
38.0199379548
 20
12.568651604
 10
38.0030864823
 20
12.4901874832
  0
LINE
  5
3D1
100
AcDbEntity
  8
0
100
AcDbLine
 62
250
  6
CONTINUOUS
 10
38.8062143436
 20
13.3853128116
 11
41.9743436612
 21
15.1726850613
  0
LINE
  5
3D2
100
AcDbEntity
  8
RACCORDO
100
AcDbLine
 62
7
  6
CONTINUOUS
 10
-12.5581139694
 20
-14.2496243289
 11
-12.7926310792
 21
-14.3798531474
  0
LINE
  5
3D3
100
AcDbEntity
  8
DRAFT
100
AcDbLine
 62
7
  6
CONTINUOUS
 10
-12.9936457447
 20
-14.491477849
 11
-13.1276555217
 21
-14.5658943167
  0
LINE
  5
3D4
100
AcDbEntity
  8
DRAFT
100
AcDbLine
 62
7
  6
CONTINUOUS
 10
-13.3286701872
 20
-14.6775190183
 11
-13.4626799642
 21
-14.7519354861
  0
LINE
  5
3D5
100
AcDbEntity
  8
DRAFT
100
AcDbLine
 62
7
  6
CONTINUOUS
 10
-13.6636946297
 20
-14.8635601877
 11
-13.787796999
 21
-14.9324750099
  0
LINE
  5
3D6
100
AcDbEntity
  8
RACCORDO
100
AcDbLine
 62
7
  6
CONTINUOUS
 10
-12.5581139694
 20
-15.3754573538
 11
-12.7209663828
 21
-15.465890318
  0
LWPOLYLINE
  5
3D7
100
AcDbEntity
  8
0
100
AcDbPolyline
 62
250
  6
CONTINUOUS
 90
10
 70
0
 10
38.9897848436
 20
11.5370850138
 10
38.3587263605
 20
11.222639738
 10
37.7387875278
 20
10.9238566947
 10
37.1224938338
 20
10.6371283916
 10
36.5100603846
 20
10.3626683677
 10
35.8951192445
 20
10.0968464993
 10
35.2607036641
 20
9.8318261107
 10
34.6059919122
 20
9.5675066513
 10
33.9481563228
 20
9.3109307628
 10
33.297778542
 20
9.0661334682
  0
LINE
  5
3D8
100
AcDbEntity
  8
0
100
AcDbLine
 62
250
  6
CONTINUOUS
 10
40.7328334094
 20
10.063967697
 11
44.0662400597
 21
11.5645949519
  0
LWPOLYLINE
  5
3D9
100
AcDbEntity
  8
RACCORDO
100
AcDbPolyline
 62
7
  6
CONTINUOUS
 90
7
 70
0
 10
-12.5511004396
 20
-14.2459670434
 10
-12.5350743487
 20
-14.2391178665
 10
-12.5223026483
 20
-14.2335424235
 10
-12.5126360046
 20
-14.2295080514
 10
-12.5058923383
 20
-14.2275755204
 10
-12.5017432638
 20
-14.2276110427
 10
-12.5006898712
 20
-14.2280141896
  0
LWPOLYLINE
  5
3DA
100
AcDbEntity
  8
0
100
AcDbPolyline
 62
250
  6
CONTINUOUS
 90
10
 70
0
 10
-35.4896441382
 20
-15.8203195883
 10
-35.9034660493
 20
-15.9381355624
 10
-36.3160780729
 20
-16.0499044173
 10
-36.7255521988
 20
-16.1550170158
 10
-37.1275682811
 20
-16.2523739079
 10
-37.5205264402
 20
-16.3416698353
 10
-37.9064657551
 20
-16.423258092
 10
-38.287010671
 20
-16.4973570888
 10
-38.6632973545
 20
-16.5642898247
 10
-39.0384131702
 20
-16.6248165971
  0
LWPOLYLINE
  5
3DB
100
AcDbEntity
  8
0
100
AcDbPolyline
 62
250
  6
CONTINUOUS
 90
31
 70
0
 10
20.4958053149
 20
4.3185071971
 10
20.446983675
 20
4.322097195
 10
20.3983616472
 20
4.3269714902
 10
20.3500446263
 20
4.3331152897
 10
20.3020643268
 20
4.3405333099
 10
20.254611539
 20
4.3491921481
 10
20.2080230388
 20
4.3590020281
 10
20.1624765669
 20
4.369909591
 10
20.1179974363
 20
4.3818964159
 10
20.0746825848
 20
4.3949091123
 10
20.0326392887
 20
4.4089118974
 10
19.991967564
 20
4.4238729753
 10
19.9527559471
 20
4.4397464111
 10
19.9150698313
 20
4.4565168521
 10
19.8790605033
 20
4.4741357286
 10
19.8449323735
 20
4.4925009157
 10
19.8127150349
 20
4.5116041803
 10
19.7825669374
 20
4.5313770294
 10
19.7548144016
 20
4.5516013691
 10
19.7296012897
 20
4.5721172682
 10
19.7068140526
 20
4.592969942
 10
19.6863651497
 20
4.6142428524
 10
19.668361944
 20
4.6358230223
 10
19.652767968
 20
4.6577396764
 10
19.6393644662
 20
4.6803064831
 10
19.6281440232
 20
4.7036140894
 10
19.6192411453
 20
4.72747742
 10
19.6127128278
 20
4.7518017259
 10
19.608587964
 20
4.7765929863
 10
19.6069252651
 20
4.8017235906
 10
19.6068900586
 20
4.8059687665
  0
LWPOLYLINE
  5
3DC
100
AcDbEntity
  8
0
100
AcDbPolyline
 62
250
  6
CONTINUOUS
 90
10
 70
0
 10
22.1777485128
 20
1.1347608583
 10
22.0195745258
 20
1.1996398456
 10
21.8512676495
 20
1.2596335499
 10
21.6735614423
 20
1.3144543573
 10
21.48591436
 20
1.3642521302
 10
21.2903714093
 20
1.4081831399
 10
21.0919693706
 20
1.444771289
 10
20.8932738535
 20
1.4736348669
 10
20.693977903
 20
1.4951215297
 10
20.4950559694
 20
1.5092030498
  0
LWPOLYLINE
  5
3DD
100
AcDbEntity
  8
0
100
AcDbPolyline
 62
250
  6
CONTINUOUS
 90
10
 70
0
 10
-30.469170845
 20
27.4582165203
 10
-30.3281136409
 20
27.3722957894
 10
-30.2008041321
 20
27.282478613
 10
-30.0877592247
 20
27.1894246362
 10
-29.9887641529
 20
27.0931588976
 10
-29.9050455303
 20
26.9948396737
 10
-29.8371644748
 20
26.8969671167
 10
-29.7832470202
 20
26.8008621076
 10
-29.7423105541
 20
26.7065068465
 10
-29.715564982
 20
26.6144723707
  0
LINE
  5
3DE
100
AcDbEntity
  8
0
100
AcDbLine
 62
7
  6
CONTINUOUS
 10
19.341682352
 20
-38.6278821882
 11
19.2201483378
 21
-38.2744033625
  0
LINE
  5
3DF
100
AcDbEntity
  8
0
100
AcDbLine
 62
7
  6
CONTINUOUS
 10
19.7771933514
 20
-38.8202760559
 11
19.5624906927
 21
-38.1919779483
  0
LINE
  5
3E0
100
AcDbEntity
  8
0
100
AcDbLine
 62
7
  6
CONTINUOUS
 10
19.541603514
 20
-38.2041154143
 11
19.7557963921
 21
-38.8309745356
  0
LINE
  5
3E1
100
AcDbEntity
  8
0
100
AcDbLine
 62
7
  6
CONTINUOUS
 10
19.2201483378
 20
-38.2744033625
 11
19.1593829596
 21
-38.0956378536
  0
LINE
  5
3E2
100
AcDbEntity
  8
0
100
AcDbLine
 62
7
  6
CONTINUOUS
 10
19.5624906927
 20
-38.1919779483
 11
19.3563144447
 21
-37.5772010642
  0
LINE
  5
3E3
100
AcDbEntity
  8
0
100
AcDbLine
 62
7
  6
CONTINUOUS
 10
19.3356458901
 20
-37.5899489801
 11
19.541603514
 21
-38.2041154143
  0
LINE
  5
3E4
100
AcDbEntity
  8
0
100
AcDbLine
 62
7
  6
CONTINUOUS
 10
18.9863360654
 20
-37.579854555
 11
18.7754088341
 21
-36.9393582318
  0
LINE
  5
3E5
100
AcDbEntity
  8
0
100
AcDbLine
 62
7
  6
CONTINUOUS
 10
19.0410932109
 20
-36.6931488224
 11
19.3356458901
 21
-37.5899489801
  0
LINE
  5
3E6
100
AcDbEntity
  8
0
100
AcDbLine
 62
7
  6
CONTINUOUS
 10
19.3563144447
 20
-37.5772010642
 11
19.0619627066
 21
-36.6810327677
  0
LINE
  5
3E7
100
AcDbEntity
  8
0
100
AcDbLine
 62
7
  6
CONTINUOUS
 10
18.7754088341
 20
-36.9393582318
 11
18.7162978635
 21
-36.7578633882
  0
LINE
  5
3E8
100
AcDbEntity
  8
0
100
AcDbLine
 62
7
  6
CONTINUOUS
 10
18.85322686
 20
-36.1122507109
 11
19.0410932109
 21
-36.6931488224
  0
LINE
  5
3E9
100
AcDbEntity
  8
0
100
AcDbLine
 62
7
  6
CONTINUOUS
 10
19.0619627066
 20
-36.6810327677
 11
18.874565381
 21
-36.1015814504
  0
LINE
  5
3EA
100
AcDbEntity
  8
0
100
AcDbLine
 62
7
  6
CONTINUOUS
 10
16.5501904049
 20
-36.1148238234
 11
16.4338327205
 21
-35.7282498578
  0
LINE
  5
3EB
100
AcDbEntity
  8
0
100
AcDbLine
 62
7
  6
CONTINUOUS
 10
16.3544779701
 20
-35.5436351017
 11
16.4706262633
 21
-35.9328721091
  0
LINE
  5
3EC
100
AcDbEntity
  8
0
100
AcDbLine
 62
7
  6
CONTINUOUS
 10
16.4338327205
 20
-35.7282498578
 11
16.3178648451
 21
-35.3363715149
  0
LINE
  5
3ED
100
AcDbEntity
  8
0
100
AcDbLine
 62
7
  6
CONTINUOUS
 10
16.238710698
 20
-35.1491133848
 11
16.3544779701
 21
-35.5436351017
  0
LWPOLYLINE
  5
3EE
100
AcDbEntity
  8
0
100
AcDbPolyline
 62
7
  6
CONTINUOUS
 90
3
 70
0
 10
16.3178648451
 20
-35.3363715149
 10
16.2022757069
 20
-34.9392191708
 10
16.1446238563
 20
-34.7386633497
  0
LINE
  5
3EF
100
AcDbEntity
  8
0
100
AcDbLine
 62
7
  6
CONTINUOUS
 10
16.1233216594
 20
-34.7493144481
 11
16.238710698
 21
-35.1491133848
  0
LWPOLYLINE
  5
3F0
100
AcDbEntity
  8
0
100
AcDbPolyline
 62
250
  6
CONTINUOUS
 90
10
 70
0
 10
16.5526084486
 20
-34.8919385344
 10
16.535365626
 20
-34.7329057201
 10
16.5089964464
 20
-34.5793672521
 10
16.4735886133
 20
-34.4319793329
 10
16.4290722159
 20
-34.2909563829
 10
16.3756537281
 20
-34.1575059385
 10
16.3141019158
 20
-34.0335431129
 10
16.2450216165
 20
-33.9198764346
 10
16.1685680463
 20
-33.8164939215
 10
16.0850812944
 20
-33.7237975002
  0
LINE
  5
3F1
100
AcDbEntity
  8
0
100
AcDbLine
 62
7
  6
CONTINUOUS
 10
17.3106744466
 20
-37.4635698805
 11
17.2733876981
 21
-37.119905822
  0
LINE
  5
3F2
100
AcDbEntity
  8
0
100
AcDbLine
 62
7
  6
CONTINUOUS
 10
16.0833724498
 20
-36.5295900855
 11
16.1202997322
 21
-36.8732514173
  0
LINE
  5
3F3
100
AcDbEntity
  8
0
100
AcDbLine
 62
7
  6
CONTINUOUS
 10
16.1416868991
 20
-36.862561258
 11
16.1047432941
 21
-36.5189121834
  0
LINE
  5
3F4
100
AcDbEntity
  8
0
100
AcDbLine
 62
7
  6
CONTINUOUS
 10
17.7325933422
 20
-37.5513792228
 11
17.6749510644
 21
-37.0074965029
  0
LINE
  5
3F5
100
AcDbEntity
  8
0
100
AcDbLine
 62
7
  6
CONTINUOUS
 10
17.6537848838
 20
-37.0201018636
 11
17.7112967408
 21
-37.5629289169
  0
LINE
  5
3F6
100
AcDbEntity
  8
0
100
AcDbLine
 62
7
  6
CONTINUOUS
 10
15.6994320688
 20
-36.5844171366
 11
15.6455296556
 21
-36.0665385427
  0
LINE
  5
3F7
100
AcDbEntity
  8
0
100
AcDbLine
 62
7
  6
CONTINUOUS
 10
17.2733876981
 20
-37.119905822
 11
17.2374753789
 21
-36.7709469541
  0
LINE
  5
3F8
100
AcDbEntity
  8
0
100
AcDbLine
 62
7
  6
CONTINUOUS
 10
15.2341851732
 20
-35.8621814488
 11
15.2878754914
 21
-36.3801099808
  0
LINE
  5
3F9
100
AcDbEntity
  8
0
100
AcDbLine
 62
7
  6
CONTINUOUS
 10
16.0478386618
 20
-36.1804776475
 11
16.0833724498
 21
-36.5295900855
  0
LINE
  5
3FA
100
AcDbEntity
  8
0
100
AcDbLine
 62
7
  6
CONTINUOUS
 10
16.1047432941
 20
-36.5189121834
 11
16.0691938786
 21
-36.1698078211
  0
LINE
  5
3FB
100
AcDbEntity
  8
0
100
AcDbLine
 62
7
  6
CONTINUOUS
 10
15.2819854663
 20
-36.1119900229
 11
15.2299133958
 21
-35.5878826691
  0
LINE
  5
3FC
100
AcDbEntity
  8
0
100
AcDbLine
 62
7
  6
CONTINUOUS
 10
17.2374753789
 20
-36.7709469541
 11
17.2028672467
 21
-36.4167512568
  0
LINE
  5
3FD
100
AcDbEntity
  8
0
100
AcDbLine
 62
7
  6
CONTINUOUS
 10
17.6015422238
 20
-36.4856566871
 11
17.6537848838
 21
-37.0201018636
  0
LINE
  5
3FE
100
AcDbEntity
  8
0
100
AcDbLine
 62
7
  6
CONTINUOUS
 10
17.6749510644
 20
-37.0074965029
 11
17.6226835355
 21
-36.4728573104
  0
LINE
  5
3FF
100
AcDbEntity
  8
0
100
AcDbLine
 62
7
  6
CONTINUOUS
 10
16.0691938786
 20
-36.1698078211
 11
16.03507775
 21
-35.8152554231
  0
LINE
  5
400
100
AcDbEntity
  8
0
100
AcDbLine
 62
7
  6
CONTINUOUS
 10
16.0137373988
 20
-35.8259204053
 11
16.0478386618
 21
-36.1804776475
  0
LINE
  5
401
100
AcDbEntity
  8
0
100
AcDbLine
 62
7
  6
CONTINUOUS
 10
15.6455296556
 20
-36.0665385427
 11
15.594792743
 21
-35.5363880781
  0
LINE
  5
402
100
AcDbEntity
  8
0
100
AcDbLine
 62
7
  6
CONTINUOUS
 10
15.1837796401
 20
-35.3318891791
 11
15.2341851732
 21
-35.8621814488
  0
LINE
  5
403
100
AcDbEntity
  8
0
100
AcDbLine
 62
7
  6
CONTINUOUS
 10
14.8228648579
 20
-35.6579519326
 11
14.7727380447
 21
-35.1275526115
  0
LINE
  5
404
100
AcDbEntity
  8
0
100
AcDbLine
 62
7
  6
CONTINUOUS
 10
17.2028672467
 20
-36.4167512568
 11
17.1695457411
 21
-36.0573332253
  0
LINE
  5
405
100
AcDbEntity
  8
0
100
AcDbLine
 62
7
  6
CONTINUOUS
 10
15.9810784185
 20
-35.4659199344
 11
16.0137373988
 21
-35.8259204053
  0
LINE
  5
406
100
AcDbEntity
  8
0
100
AcDbLine
 62
7
  6
CONTINUOUS
 10
16.03507775
 20
-35.8152554231
 11
16.012901903
 21
-35.5726481117
  0
LINE
  5
407
100
AcDbEntity
  8
0
100
AcDbLine
 62
7
  6
CONTINUOUS
 10
17.5536564987
 20
-35.9596004595
 11
17.6015422238
 21
-36.4856566871
  0
LINE
  5
408
100
AcDbEntity
  8
0
100
AcDbLine
 62
7
  6
CONTINUOUS
 10
17.6226835355
 20
-36.4728573104
 11
17.5748493392
 21
-35.947452015
  0
LINE
  5
409
100
AcDbEntity
  8
0
100
AcDbLine
 62
7
  6
CONTINUOUS
 10
15.2299133958
 20
-35.5878826691
 11
15.1811305887
 21
-35.0514400966
  0
LINE
  5
40A
100
AcDbEntity
  8
0
100
AcDbLine
 62
7
  6
CONTINUOUS
 10
15.594792743
 20
-35.5363880781
 11
15.5473019366
 21
-34.9940111762
  0
LINE
  5
40B
100
AcDbEntity
  8
0
100
AcDbLine
 62
7
  6
CONTINUOUS
 10
15.1366608274
 20
-34.7892971471
 11
15.1837796401
 21
-35.3318891791
  0
LINE
  5
40C
100
AcDbEntity
  8
0
100
AcDbLine
 62
7
  6
CONTINUOUS
 10
14.7727380447
 20
-35.1275526115
 11
14.7259812834
 21
-34.5846978871
  0
LINE
  5
40D
100
AcDbEntity
  8
0
100
AcDbLine
 62
7
  6
CONTINUOUS
 10
17.5098996429
 20
-35.4419349485
 11
17.5536564987
 21
-35.9596004595
  0
LINE
  5
40E
100
AcDbEntity
  8
0
100
AcDbLine
 62
7
  6
CONTINUOUS
 10
17.5748493392
 20
-35.947452015
 11
17.5312131215
 21
-35.4312782093
  0
LWPOLYLINE
  5
40F
100
AcDbEntity
  8
0
100
AcDbPolyline
 62
7
  6
CONTINUOUS
 90
3
 70
0
 10
15.1811305887
 20
-35.0514400966
 10
15.1356380904
 20
-34.5027315095
 10
15.1141256418
 20
-34.2237731352
  0
LINE
  5
410
100
AcDbEntity
  8
0
100
AcDbLine
 62
7
  6
CONTINUOUS
 10
15.5473019366
 20
-34.9940111762
 11
15.5030773878
 21
-34.4394191953
  0
LINE
  5
411
100
AcDbEntity
  8
0
100
AcDbLine
 62
7
  6
CONTINUOUS
 10
15.092829219
 20
-34.2344213465
 11
15.1366608274
 21
-34.7892971471
  0
LINE
  5
412
100
AcDbEntity
  8
0
100
AcDbLine
 62
7
  6
CONTINUOUS
 10
14.7259812834
 20
-34.5846978871
 11
14.6825841165
 21
-34.0294064084
  0
LWPOLYLINE
  5
413
100
AcDbEntity
  8
0
100
AcDbPolyline
 62
250
  6
CONTINUOUS
 90
10
 70
0
 10
16.0850813054
 20
8.1963246101
 10
16.1685598118
 20
8.3724894294
 10
16.245008664
 20
8.5523115724
 10
16.3140872158
 20
8.7350493898
 10
16.3756397629
 20
8.9205602282
 10
16.4290606844
 20
9.1074305058
 10
16.4735802889
 20
9.292975321
 10
16.5089914673
 20
9.4757802074
 10
16.5353636311
 20
9.6557007737
 10
16.5526084603
 20
9.8319927984
  0
LWPOLYLINE
  5
414
100
AcDbEntity
  8
0
100
AcDbPolyline
 62
250
  6
CONTINUOUS
 90
10
 70
0
 10
17.4573944225
 20
7.5095555942
 10
17.5385496264
 20
7.6806258489
 10
17.6132852991
 20
7.8560489993
 10
17.6812068297
 20
8.0351529467
 10
17.7420919031
 20
8.217819169
 10
17.7952811727
 20
8.4026956584
 10
17.8399483922
 20
8.5871922655
 10
17.875799859
 20
8.7699101661
 10
17.9028039946
 20
8.9506453671
 10
17.9207719473
 20
9.1286001476
  0
LWPOLYLINE
  5
415
100
AcDbEntity
  8
0
100
AcDbPolyline
 62
250
  6
CONTINUOUS
 90
33
 70
0
 10
19.1342621402
 20
6.6733276776
 10
19.1123221806
 20
6.6284551317
 10
19.0917726505
 20
6.5826271921
 10
19.0726912255
 20
6.5360055375
 10
19.0551591081
 20
6.4887048025
 10
19.0392514721
 20
6.4409357408
 10
19.0250273688
 20
6.393004963
 10
19.0125377529
 20
6.3451109788
 10
19.0018001213
 20
6.2973536104
 10
18.9928044369
 20
6.2498820152
 10
18.9855485
 20
6.2028452126
 10
18.9800968803
 20
6.1563716213
 10
18.9765281884
 20
6.1105740538
 10
18.9748858619
 20
6.0655054244
 10
18.975103571
 20
6.0213556115
 10
18.9770626846
 20
5.9784177753
 10
18.980689955
 20
5.9367517634
 10
18.9860346397
 20
5.8964929583
 10
18.9930870223
 20
5.8579938499
 10
19.001740978
 20
5.8214665575
 10
19.011886392
 20
5.7867603127
 10
19.0234858098
 20
5.7536690632
 10
19.0364255309
 20
5.7223636241
 10
19.0507121193
 20
5.6927620049
 10
19.0666009842
 20
5.6643794647
 10
19.0842194477
 20
5.6371686146
 10
19.1034774416
 20
5.6114413346
 10
19.1243716716
 20
5.5873379437
 10
19.1469835434
 20
5.564917237
 10
19.1712365463
 20
5.5444021485
 10
19.1968286667
 20
5.5260959114
 10
19.2235972417
 20
5.5100928798
 10
19.2316591342
 20
5.5058393065
  0
LWPOLYLINE
  5
416
100
AcDbEntity
  8
0
100
AcDbPolyline
 62
250
  6
CONTINUOUS
 90
10
 70
0
 10
39.4987928069
 20
7.8966131679
 10
38.9917007542
 20
7.619605088
 10
38.4644069287
 20
7.3472658345
 10
37.9207147324
 20
7.0821928317
 10
37.3656275703
 20
6.8275038045
 10
36.801016048
 20
6.5846311196
 10
36.2224394211
 20
6.351796935
 10
35.6253536784
 20
6.1270855905
 10
35.0056121435
 20
5.9085463388
 10
34.3578165317
 20
5.6934981144
  0
LWPOLYLINE
  5
417
100
AcDbEntity
  8
0
100
AcDbPolyline
 62
250
  6
CONTINUOUS
 90
10
 70
0
 10
39.5108731731
 20
4.5729628884
 10
39.0364347719
 20
4.3270003667
 10
38.5429565657
 20
4.0867943308
 10
38.0343115467
 20
3.8547074563
 10
37.515392299
 20
3.6334673967
 10
36.9880060153
 20
3.4244162249
 10
36.4472652543
 20
3.2260207544
 10
35.8875944694
 20
3.0363747559
 10
35.3033181042
 20
2.8533455228
 10
34.6875306446
 20
2.6742046545
  0
LWPOLYLINE
  5
418
100
AcDbEntity
  8
0
100
AcDbPolyline
 62
250
  6
CONTINUOUS
 90
16
 70
0
 10
39.4317695338
 20
10.4153663852
 10
39.505948337
 20
10.4069608141
 10
39.5842979937
 20
10.4017486155
 10
39.6663793718
 20
10.3997433964
 10
39.7518107507
 20
10.4009573501
 10
39.8399750528
 20
10.4053911395
 10
39.92989972
 20
10.4129943477
 10
40.0206683283
 20
10.4236896435
 10
40.1115753
 20
10.437414964
 10
40.201929459
 20
10.4540690291
 10
40.2910041656
 20
10.4734910155
 10
40.3779023069
 20
10.4954750115
 10
40.461708307
 20
10.5197928321
 10
40.5418198757
 20
10.546270411
 10
40.6178291303
 20
10.5747822663
 10
40.6892883635
 20
10.6051903982
  0
LWPOLYLINE
  5
419
100
AcDbEntity
  8
0
100
AcDbPolyline
 62
250
  6
CONTINUOUS
 90
10
 70
0
 10
22.1223416583
 20
3.9429966501
 10
21.9620614592
 20
4.015004579
 10
21.7946642043
 20
4.0791913079
 10
21.6205245772
 20
4.1353827147
 10
21.4391427247
 20
4.1827932608
 10
21.2518098972
 20
4.2217514082
 10
21.0623563123
 20
4.2541795498
 10
20.873290531
 20
4.2811041081
 10
20.6845715419
 20
4.3020065445
 10
20.4961776594
 20
4.3167228809
  0
LINE
  5
41A
100
AcDbEntity
  8
0
100
AcDbLine
 62
250
  6
CONTINUOUS
 10
-4.6108907936
 20
18.5431370284
 11
-3.2604180161
 21
17.8825020611
  0
LINE
  5
41B
100
AcDbEntity
  8
0
100
AcDbLine
 62
250
  6
CONTINUOUS
 10
17.4573577571
 20
7.5094822149
 11
17.5525470389
 21
7.46289293
  0
LINE
  5
41C
100
AcDbEntity
  8
0
100
AcDbLine
 62
250
  6
CONTINUOUS
 10
19.0465620982
 20
6.7164389524
 11
19.1361730743
 21
6.6725670825
  0
LINE
  5
41D
100
AcDbEntity
  8
0
100
AcDbLine
 62
250
  6
CONTINUOUS
 10
15.5746165312
 20
8.4701392973
 11
15.7483661709
 21
8.3846984637
  0
LINE
  5
41E
100
AcDbEntity
  8
0
100
AcDbLine
 62
250
  6
CONTINUOUS
 10
18.0265105403
 20
7.225493491
 11
18.1674759194
 21
7.1557147183
  0
LWPOLYLINE
  5
41F
100
AcDbEntity
  8
0
100
AcDbPolyline
 62
250
  6
CONTINUOUS
 90
3
 70
0
 10
-3.2604180161
 20
17.8825020611
 10
-1.9902927922
 20
17.2530037318
 10
15.5746165312
 20
8.4701392973
  0
LINE
  5
420
100
AcDbEntity
  8
0
100
AcDbLine
 62
250
  6
CONTINUOUS
 10
17.5525470389
 20
7.46289293
 11
17.6475661768
 21
7.4157656798
  0
LINE
  5
421
100
AcDbEntity
  8
0
100
AcDbLine
 62
7
  6
CONTINUOUS
 10
-28.2546328576
 20
29.2554631121
 11
19.2342681132
 21
5.5110114926
  0
LINE
  5
422
100
AcDbEntity
  8
0
100
AcDbLine
 62
250
  6
CONTINUOUS
 10
16.0875473106
 20
8.1944825878
 11
17.4573944225
 21
7.5095555942
  0
LINE
  5
423
100
AcDbEntity
  8
0
100
AcDbLine
 62
250
  6
CONTINUOUS
 10
-24.7801441554
 20
28.6475204849
 11
-7.1850396367
 21
19.8503768612
  0
LINE
  5
424
100
AcDbEntity
  8
0
100
AcDbLine
 62
250
  6
CONTINUOUS
 10
-25.303438184
 20
28.8896847775
 11
-28.3523645058
 21
30.4156380789
  0
LWPOLYLINE
  5
425
100
AcDbEntity
  8
0
100
AcDbPolyline
 62
250
  6
CONTINUOUS
 90
3
 70
0
 10
18.1674759194
 20
7.1557147183
 10
18.952845781
 20
6.7629410946
 10
19.0465620982
 20
6.7164389524
  0
LINE
  5
426
100
AcDbEntity
  8
0
100
AcDbLine
 62
250
  6
CONTINUOUS
 10
17.6475661768
 20
7.4157656798
 11
17.8845697074
 21
7.2971681091
  0
LINE
  5
427
100
AcDbEntity
  8
0
100
AcDbLine
 62
7
  6
CONTINUOUS
 10
19.2316591342
 20
5.5058393065
 11
19.2349847854
 21
5.5041564605
  0
LINE
  5
428
100
AcDbEntity
  8
0
100
AcDbLine
 62
250
  6
CONTINUOUS
 10
-7.1850396367
 20
19.8503768612
 11
-5.9297870284
 21
19.2171860537
  0
LINE
  5
429
100
AcDbEntity
  8
0
100
AcDbLine
 62
250
  6
CONTINUOUS
 10
17.8845697074
 20
7.2971681091
 11
18.0265105403
 21
7.225493491
  0
LINE
  5
42A
100
AcDbEntity
  8
0
100
AcDbLine
 62
250
  6
CONTINUOUS
 10
-5.9297870284
 20
19.2171860537
 11
-4.6108908382
 21
18.5431370507
  0
LWPOLYLINE
  5
42B
100
AcDbEntity
  8
0
100
AcDbPolyline
 62
250
  6
CONTINUOUS
 90
5
 70
0
 10
15.7483661709
 20
8.3846984637
 10
15.8364788038
 20
8.3392766079
 10
15.9253263161
 20
8.2907133163
 10
16.0094687734
 20
8.2424247704
 10
16.0850813054
 20
8.1963246101
  0
LWPOLYLINE
  5
42C
100
AcDbEntity
  8
0
100
AcDbPolyline
 62
7
  6
CONTINUOUS
 90
23
 70
0
 10
19.2359567748
 20
5.503659313
 10
19.2430986954
 20
5.499617415
 10
19.2548660689
 20
5.4920121199
 10
19.2705519184
 20
5.4805623819
 10
19.2895584058
 20
5.4650455747
 10
19.3113345544
 20
5.4453037408
 10
19.3354936377
 20
5.4210819197
 10
19.3616462335
 20
5.3921378216
 10
19.3890213454
 20
5.3587068166
 10
19.4167476044
 20
5.3213157464
 10
19.4442685747
 20
5.2802491652
 10
19.4709182411
 20
5.2360665468
 10
19.4957930077
 20
5.1900052888
 10
19.5184667153
 20
5.1428703657
 10
19.5386776431
 20
5.0953204741
 10
19.5560444294
 20
5.0485254626
 10
19.5704294277
 20
5.0033740913
 10
19.5818810177
 20
4.9604344617
 10
19.5904980074
 20
4.9203880407
 10
19.5964815794
 20
4.8837900701
 10
19.6000875734
 20
4.8512679383
 10
19.6016642193
 20
4.8235654078
 10
19.6018396294
 20
4.8115258564
  0
LINE
  5
42D
100
AcDbEntity
  8
0
100
AcDbLine
 62
7
  6
CONTINUOUS
 10
17.3298288417
 20
-37.63341998
 11
17.3106744466
 21
-37.4635698805
  0
LWPOLYLINE
  5
42E
100
AcDbEntity
  8
0
100
AcDbPolyline
 62
250
  6
CONTINUOUS
 90
10
 70
0
 10
17.920771759
 20
-35.5586689793
 10
17.9028233108
 20
-35.3994887225
 10
17.8758455519
 20
-35.2463005977
 10
17.8400196683
 20
-35.0997529854
 10
17.7953662595
 20
-34.9600489614
 10
17.742174359
 20
-34.8283461548
 10
17.6812782507
 20
-34.7064792832
 10
17.6133419459
 20
-34.5951878635
 10
17.5385826563
 20
-34.4943945876
 10
17.4573942348
 20
-34.4044112907
  0
LINE
  5
42F
100
AcDbEntity
  8
0
100
AcDbLine
 62
7
  6
CONTINUOUS
 10
16.1202997322
 20
-36.8732514173
 11
16.1392883732
 21
-37.0430383123
  0
LINE
  5
430
100
AcDbEntity
  8
0
100
AcDbLine
 62
7
  6
CONTINUOUS
 10
16.1606839663
 20
-37.0323405157
 11
16.1416868991
 21
-36.862561258
  0
LINE
  5
431
100
AcDbEntity
  8
0
100
AcDbLine
 62
7
  6
CONTINUOUS
 10
17.7112967408
 20
-37.5629289169
 11
17.7419716018
 21
-37.8374860894
  0
LINE
  5
432
100
AcDbEntity
  8
0
100
AcDbLine
 62
7
  6
CONTINUOUS
 10
17.7633711735
 20
-37.8267863035
 11
17.7325933422
 21
-37.5513792228
  0
LINE
  5
433
100
AcDbEntity
  8
0
100
AcDbLine
 62
7
  6
CONTINUOUS
 10
15.7275753759
 20
-36.8387573215
 11
15.6994320688
 21
-36.5844171366
  0
LINE
  5
434
100
AcDbEntity
  8
0
100
AcDbLine
 62
7
  6
CONTINUOUS
 10
15.2878754914
 20
-36.3801099808
 11
15.3159525657
 21
-36.6344418437
  0
LWPOLYLINE
  5
435
100
AcDbEntity
  8
0
100
AcDbPolyline
 62
7
  6
CONTINUOUS
 90
3
 70
0
 10
15.3373465388
 20
-36.6237448572
 10
15.3092548664
 20
-36.3694107842
 10
15.2819854663
 20
-36.1119900229
  0
LWPOLYLINE
  5
436
100
AcDbEntity
  8
0
100
AcDbPolyline
 62
7
  6
CONTINUOUS
 90
4
 70
0
 10
14.9044497433
 20
-36.4300618277
 10
14.8764035538
 20
-36.1758212544
 10
14.849208592
 20
-35.9184512894
 10
14.8228648579
 20
-35.6579519326
  0
LINE
  5
437
100
AcDbEntity
  8
0
100
AcDbLine
 62
7
  6
CONTINUOUS
 10
20.0002091815
 20
-38.6774871795
 11
19.9589701731
 21
-38.2933965944
  0
LINE
  5
438
100
AcDbEntity
  8
0
100
AcDbLine
 62
7
  6
CONTINUOUS
 10
20.4343867264
 20
-38.8474119286
 11
20.3908123707
 21
-38.4385091447
  0
LINE
  5
439
100
AcDbEntity
  8
0
100
AcDbLine
 62
7
  6
CONTINUOUS
 10
20.3694467613
 20
-38.449244015
 11
20.4130086302
 21
-38.8581697921
  0
LINE
  5
43A
100
AcDbEntity
  8
0
100
AcDbLine
 62
7
  6
CONTINUOUS
 10
20.3908123707
 20
-38.4385091447
 11
20.3722322061
 21
-38.2585682184
  0
LINE
  5
43B
100
AcDbEntity
  8
0
100
AcDbLine
 62
7
  6
CONTINUOUS
 10
20.3485886674
 20
-38.2470595652
 11
20.3694467613
 21
-38.449244015
  0
LINE
  5
43C
100
AcDbEntity
  8
0
100
AcDbLine
 62
7
  6
CONTINUOUS
 10
19.9589701731
 20
-38.2933965944
 11
19.9098596049
 21
-37.8124175746
  0
LINE
  5
43D
100
AcDbEntity
  8
0
100
AcDbLine
 62
7
  6
CONTINUOUS
 10
20.2393458143
 20
-37.2201528501
 11
20.2978003082
 21
-37.8021113682
  0
LINE
  5
43E
100
AcDbEntity
  8
0
100
AcDbLine
 62
7
  6
CONTINUOUS
 10
19.9098596049
 20
-37.8124175746
 11
19.7871051637
 21
-36.5771496032
  0
LINE
  5
43F
100
AcDbEntity
  8
0
100
AcDbLine
 62
7
  6
CONTINUOUS
 10
20.3191620738
 20
-37.7914304854
 11
20.2629246398
 21
-37.2316482045
  0
LINE
  5
440
100
AcDbEntity
  8
RACCORDO
100
AcDbLine
 62
250
  6
CONTINUOUS
 10
19.2687047138
 20
-31.281227902
 11
19.2687047138
 21
-30.1558696201
  0
LINE
  5
441
100
AcDbEntity
  8
RACCORDO
100
AcDbLine
 62
7
  6
CONTINUOUS
 10
19.3200757487
 20
-31.1632682556
 11
19.3200757487
 21
-30.1400031453
  0
LINE
  5
442
100
AcDbEntity
  8
0
100
AcDbLine
 62
7
  6
CONTINUOUS
 10
19.6068900586
 20
4.8059687665
 11
19.6069498086
 21
4.8115056798
  0
LWPOLYLINE
  5
443
100
AcDbEntity
  8
0
100
AcDbPolyline
 62
250
  6
CONTINUOUS
 90
10
 70
0
 10
19.6018432475
 20
8.2427933215
 10
19.5803861269
 20
8.0708091381
 10
19.5506701959
 20
7.8963636078
 10
19.5128849527
 20
7.7200990851
 10
19.4668885029
 20
7.5423529121
 10
19.4131934715
 20
7.3640746548
 10
19.3529821831
 20
7.1869833239
 10
19.2867761264
 20
7.0122771875
 10
19.2144220274
 20
6.8404867132
 10
19.1360999895
 20
6.6724182692
  0
LINE
  5
444
100
AcDbEntity
  8
0
100
AcDbLine
 62
7
  6
CONTINUOUS
 10
-0.799710717
 20
-20.345332306
 11
-1.937559111
 21
-20.8575939539
  0
LWPOLYLINE
  5
445
100
AcDbEntity
  8
0
100
AcDbPolyline
 62
250
  6
CONTINUOUS
 90
10
 70
0
 10
39.5263764725
 20
-0.7518689213
 10
39.0698167518
 20
-0.9375081096
 10
38.599339142
 20
-1.1159072741
 10
38.1176987073
 20
-1.2853543103
 10
37.6303061679
 20
-1.4440613519
 10
37.1393529452
 20
-1.591205137
 10
36.6400189081
 20
-1.7278907625
 10
36.1264343872
 20
-1.8556652365
 10
35.5913517648
 20
-1.9763650126
 10
35.025773208
 20
-2.0920569757
  0
LWPOLYLINE
  5
446
100
AcDbEntity
  8
0
100
AcDbPolyline
 62
250
  6
CONTINUOUS
 90
6
 70
0
 10
-25.3058657679
 20
28.8917991352
 10
-25.2235754196
 20
28.8589478262
 10
-25.1344106402
 20
28.8205827275
 10
-25.0421925199
 20
28.7786131795
 10
-24.9529158185
 20
28.7353403469
 10
-24.7801441554
 20
28.6475204849
  0
LWPOLYLINE
  5
447
100
AcDbEntity
  8
0
100
AcDbPolyline
 62
250
  6
CONTINUOUS
 90
19
 70
0
 10
-28.3556954362
 20
30.418307604
 10
-28.4618968956
 20
30.4664986175
 10
-28.5669935669
 20
30.5041394361
 10
-28.6706316361
 20
30.5311337062
 10
-28.7724125642
 20
30.5474098567
 10
-28.8717513481
 20
30.5528864123
 10
-28.9679737458
 20
30.547518305
 10
-29.0604781314
 20
30.5313709699
 10
-29.1487414683
 20
30.5045591936
 10
-29.2322302718
 20
30.467267833
 10
-29.3104424419
 20
30.4197490108
 10
-29.3829039031
 20
30.3622268122
 10
-29.4492468186
 20
30.2950536953
 10
-29.5091348111
 20
30.2186636342
 10
-29.5622170813
 20
30.13356721
 10
-29.6081479615
 20
30.0402964991
 10
-29.6466086448
 20
29.9393522102
 10
-29.6773874516
 20
29.8312500933
 10
-29.7003225683
 20
29.7165512536
  0
LINE
  5
448
100
AcDbEntity
  8
0
100
AcDbLine
 62
250
  6
CONTINUOUS
 10
-27.1268033323
 20
31.6268900308
 11
-26.7944297413
 21
31.4724507802
  0
LWPOLYLINE
  5
449
100
AcDbEntity
  8
0
100
AcDbPolyline
 62
250
  6
CONTINUOUS
 90
19
 70
0
 10
19.5489128165
 20
8.2676716475
 10
19.76119563
 20
8.1675149191
 10
19.9191430546
 20
8.0808733275
 10
20.0742917339
 20
7.9835629382
 10
20.2269380014
 20
7.8748445839
 10
20.3771470313
 20
7.7548466697
 10
20.5238979268
 20
7.6252638406
 10
20.6663483614
 20
7.4869209896
 10
20.8039737106
 20
7.3401156896
 10
20.9369791908
 20
7.1853366962
 10
21.0654661553
 20
7.0223707416
 10
21.1891139537
 20
6.8512467544
 10
21.3070803187
 20
6.6734008171
 10
21.4186451483
 20
6.4894421501
 10
21.5233646516
 20
6.2996395114
 10
21.6216630702
 20
6.1038451198
 10
21.7130697806
 20
5.9022660383
 10
21.7966544819
 20
5.6961773291
 10
21.8716368509
 20
5.4861172324
  0
LINE
  5
44A
100
AcDbEntity
  8
0
100
AcDbLine
 62
250
  6
CONTINUOUS
 10
-26.7944297413
 20
31.4724507802
 11
-26.5218864365
 21
31.3436216781
  0
LINE
  5
44B
100
AcDbEntity
  8
0
100
AcDbLine
 62
250
  6
CONTINUOUS
 10
-26.5218864365
 20
31.3436216781
 11
-25.451145678
 21
30.8272371789
  0
LINE
  5
44C
100
AcDbEntity
  8
0
100
AcDbLine
 62
250
  6
CONTINUOUS
 10
-25.451145678
 20
30.8272371789
 11
-24.8383028549
 21
30.5279613856
  0
LINE
  5
44D
100
AcDbEntity
  8
0
100
AcDbLine
 62
250
  6
CONTINUOUS
 10
-24.8383028549
 20
30.5279613856
 11
-20.9092204407
 21
28.586059999
  0
LINE
  5
44E
100
AcDbEntity
  8
0
100
AcDbLine
 62
250
  6
CONTINUOUS
 10
-20.9092204407
 20
28.586059999
 11
-17.9501048547
 21
27.1187908546
  0
LINE
  5
44F
100
AcDbEntity
  8
0
100
AcDbLine
 62
250
  6
CONTINUOUS
 10
-17.950274605
 20
27.1194040731
 11
-10.6408289541
 21
23.4747071614
  0
LINE
  5
450
100
AcDbEntity
  8
0
100
AcDbLine
 62
250
  6
CONTINUOUS
 10
-10.6408289541
 20
23.4747071614
 11
4.945467176
 21
15.6798534697
  0
LINE
  5
451
100
AcDbEntity
  8
0
100
AcDbLine
 62
250
  6
CONTINUOUS
 10
4.945467176
 20
15.6798534697
 11
9.6670063753
 21
13.3107629234
  0
LINE
  5
452
100
AcDbEntity
  8
0
100
AcDbLine
 62
250
  6
CONTINUOUS
 10
9.666778428
 20
13.3103485572
 11
13.5945653311
 21
11.3295298906
  0
LINE
  5
453
100
AcDbEntity
  8
0
100
AcDbLine
 62
250
  6
CONTINUOUS
 10
13.5945653311
 20
11.3295298906
 11
16.7062921762
 21
9.7540936636
  0
LINE
  5
454
100
AcDbEntity
  8
0
100
AcDbLine
 62
250
  6
CONTINUOUS
 10
16.7062921762
 20
9.7540936636
 11
17.4684478269
 21
9.3629039291
  0
LINE
  5
455
100
AcDbEntity
  8
0
100
AcDbLine
 62
250
  6
CONTINUOUS
 10
17.4684478269
 20
9.3629039291
 11
18.2297311903
 21
8.9679118461
  0
LWPOLYLINE
  5
456
100
AcDbEntity
  8
0
100
AcDbPolyline
 62
250
  6
CONTINUOUS
 90
4
 70
0
 10
19.2730197371
 20
8.4091239971
 10
19.3891383794
 20
8.3480836872
 10
19.4780291417
 20
8.3028224284
 10
19.5489128165
 20
8.2676716475
  0
LINE
  5
457
100
AcDbEntity
  8
0
100
AcDbLine
 62
250
  6
CONTINUOUS
 10
18.2297311903
 20
8.9679118461
 11
18.4993867915
 21
8.8257198027
  0
LWPOLYLINE
  5
458
100
AcDbEntity
  8
0
100
AcDbPolyline
 62
250
  6
CONTINUOUS
 90
6
 70
0
 10
-28.0521433311
 20
32.0741939828
 10
-27.8445255724
 20
31.9643332185
 10
-27.7754001323
 20
31.9294485786
 10
-27.6880276651
 20
31.8865495753
 10
-27.5734103587
 20
31.8321446675
 10
-27.1268033323
 20
31.6268900308
  0
LINE
  5
459
100
AcDbEntity
  8
0
100
AcDbLine
 62
250
  6
CONTINUOUS
 10
18.4993867915
 20
8.8257198027
 11
18.8280218541
 21
8.6497841215
  0
LINE
  5
45A
100
AcDbEntity
  8
0
100
AcDbLine
 62
250
  6
CONTINUOUS
 10
18.8280218541
 20
8.6497841215
 11
19.2730197371
 21
8.4091239971
  0
LWPOLYLINE
  5
45B
100
AcDbEntity
  8
0
100
AcDbPolyline
 62
7
  6
CONTINUOUS
 90
17
 70
0
 10
21.0299297857
 20
-37.8759295982
 10
21.0242468314
 20
-37.8382803715
 10
21.0150800078
 20
-37.8007530418
 10
21.0028124053
 20
-37.7638155676
 10
20.988119636
 20
-37.7282661479
 10
20.9716264718
 20
-37.6947155225
 10
20.9537259191
 20
-37.6633220881
 10
20.9347444355
 20
-37.6340641059
 10
20.9151303223
 20
-37.6071835379
 10
20.8951613595
 20
-37.582679107
 10
20.8747458678
 20
-37.5601547732
 10
20.8541520494
 20
-37.5397269422
 10
20.8335424079
 20
-37.5213645942
 10
20.8125192921
 20
-37.5046152784
 10
20.7910214749
 20
-37.4894713193
 10
20.7693829832
 20
-37.4762143396
 10
20.7477508953
 20
-37.4649459834
  0
LINE
  5
45C
100
AcDbEntity
  8
0
100
AcDbLine
 62
7
  6
CONTINUOUS
 10
20.0323638005
 20
-38.9661065391
 11
20.0002091815
 21
-38.6774871795
  0
LINE
  5
45D
100
AcDbEntity
  8
0
100
AcDbLine
 62
7
  6
CONTINUOUS
 10
20.4130086302
 20
-38.8581697921
 11
20.447634188
 21
-39.1686137845
  0
LINE
  5
45E
100
AcDbEntity
  8
0
100
AcDbLine
 62
7
  6
CONTINUOUS
 10
20.469033079
 20
-39.157914339
 11
20.4343867264
 21
-38.8474119286
  0
LINE
  5
45F
100
AcDbEntity
  8
0
100
AcDbLine
 62
250
  6
CONTINUOUS
 10
22.1024306293
 20
4.4523100723
 11
22.1049329775
 21
4.4293777775
  0
LWPOLYLINE
  5
460
100
AcDbEntity
  8
0
100
AcDbPolyline
 62
250
  6
CONTINUOUS
 90
10
 70
0
 10
22.1049329524
 20
4.4293781854
 10
22.110487722
 20
4.3698778394
 10
22.1150681641
 20
4.3118723767
 10
22.1187165314
 20
4.2552986958
 10
22.1214758783
 20
4.2001379458
 10
22.1233710241
 20
4.1463136484
 10
22.1243987237
 20
4.0937012613
 10
22.1245606364
 20
4.042258235
 10
22.1238710342
 20
3.9920200838
 10
22.1223867243
 20
3.9429781181
  0
LWPOLYLINE
  5
461
100
AcDbEntity
  8
0
100
AcDbPolyline
 62
250
  6
CONTINUOUS
 90
10
 70
0
 10
22.1223867137
 20
-34.5876005183
 10
22.1238714478
 20
-34.6374015649
 10
22.1245674184
 20
-34.6877482727
 10
22.12441158
 20
-34.7385886805
 10
22.1233799537
 20
-34.7899648374
 10
22.1214661222
 20
-34.8418170897
 10
22.1186870735
 20
-34.8939910087
 10
22.1150319764
 20
-34.9464497435
 10
22.1104591689
 20
-34.9992645852
 10
22.1049329432
 20
-35.0524575122
  0
LINE
  5
462
100
AcDbEntity
  8
0
100
AcDbLine
 62
250
  6
CONTINUOUS
 10
22.1286027577
 20
3.2754360134
 11
22.1509165554
 21
2.5109283099
  0
LINE
  5
463
100
AcDbEntity
  8
0
100
AcDbLine
 62
250
  6
CONTINUOUS
 10
22.1509165554
 20
2.5109283099
 11
22.1617955627
 21
2.0561029956
  0
LINE
  5
464
100
AcDbEntity
  8
0
100
AcDbLine
 62
250
  6
CONTINUOUS
 10
22.1617955627
 20
2.0561029956
 11
22.1744340463
 21
1.3665215845
  0
LINE
  5
465
100
AcDbEntity
  8
0
100
AcDbLine
 62
250
  6
CONTINUOUS
 10
22.2028122237
 20
-0.7094391992
 11
22.1744340463
 21
1.3665215845
  0
LINE
  5
466
100
AcDbEntity
  8
0
100
AcDbLine
 62
250
  6
CONTINUOUS
 10
22.2466424507
 20
-6.684403166
 11
22.2060359593
 21
-2.1640177323
  0
LINE
  5
467
100
AcDbEntity
  8
0
100
AcDbLine
 62
250
  6
CONTINUOUS
 10
22.2652529136
 20
-9.6106168032
 11
22.2466424507
 21
-6.684403166
  0
LWPOLYLINE
  5
468
100
AcDbEntity
  8
0
100
AcDbPolyline
 62
250
  6
CONTINUOUS
 90
3
 70
0
 10
22.2082522591
 20
-1.439381072
 10
22.2067784765
 20
-1.0751316522
 10
22.2028122237
 20
-0.7094391992
  0
LWPOLYLINE
  5
469
100
AcDbEntity
  8
0
100
AcDbPolyline
 62
250
  6
CONTINUOUS
 90
5
 70
0
 10
22.1214373662
 20
3.7030609056
 10
22.1217136406
 20
3.6202264424
 10
22.1228736463
 20
3.5359029396
 10
22.124502597
 20
3.4503305565
 10
22.1286027577
 20
3.2754360134
  0
LINE
  5
46A
100
AcDbEntity
  8
0
100
AcDbLine
 62
250
  6
CONTINUOUS
 10
22.1214374489
 20
-34.3470339684
 11
22.1223867137
 21
-34.5876005183
  0
LWPOLYLINE
  5
46B
100
AcDbEntity
  8
0
100
AcDbPolyline
 62
250
  6
CONTINUOUS
 90
3
 70
0
 10
22.2822410268
 20
-15.3955191705
 10
22.2805246471
 20
-13.9554600795
 10
22.2652529136
 20
-9.6106168032
  0
LINE
  5
46C
100
AcDbEntity
  8
0
100
AcDbLine
 62
7
  6
CONTINUOUS
 10
19.6068900586
 20
4.8059687665
 11
19.606890048
 21
-33.765704799
  0
LINE
  5
46D
100
AcDbEntity
  8
0
100
AcDbLine
 62
250
  6
CONTINUOUS
 10
22.2060331573
 20
-28.5519696968
 11
22.2064794902
 21
-29.2564475122
  0
LINE
  5
46E
100
AcDbEntity
  8
0
100
AcDbLine
 62
250
  6
CONTINUOUS
 10
22.2770682443
 20
-18.2742956051
 11
22.2822410268
 21
-15.3955186691
  0
LWPOLYLINE
  5
46F
100
AcDbEntity
  8
0
100
AcDbPolyline
 62
250
  6
CONTINUOUS
 90
10
 70
0
 10
20.4956821742
 20
-34.2942991265
 10
20.4956822064
 20
4.3505293161
 10
20.4951746334
 20
4.3858737743
 10
20.49406888
 20
4.4210764433
 10
20.4923738711
 20
4.4561325971
 10
20.4901160586
 20
4.4910193591
 10
20.4873407752
 20
4.5256964763
 10
20.4840758884
 20
4.5601431252
 10
20.4803304506
 20
4.5943571193
 10
20.4761223857
 20
4.6283275792
  0
LINE
  5
470
100
AcDbEntity
  8
0
100
AcDbLine
 62
250
  6
CONTINUOUS
 10
22.2060359593
 20
-2.1640177323
 11
22.2082522591
 21
-1.439381072
  0
LINE
  5
471
100
AcDbEntity
  8
0
100
AcDbLine
 62
250
  6
CONTINUOUS
 10
22.1223867243
 20
3.9429781181
 11
22.1214373662
 21
3.7030609056
  0
LINE
  5
472
100
AcDbEntity
  8
0
100
AcDbLine
 62
250
  6
CONTINUOUS
 10
22.2569953476
 20
-22.6082700188
 11
22.2770682443
 21
-18.2742956051
  0
LWPOLYLINE
  5
473
100
AcDbEntity
  8
0
100
AcDbPolyline
 62
7
  6
CONTINUOUS
 90
4
 70
0
 10
19.6018396231
 20
-33.7602176929
 10
19.601814173
 20
-33.7645870014
 10
19.6011995829
 20
-33.7811839774
 10
19.6001414323
 20
-33.7926086923
  0
LINE
  5
474
100
AcDbEntity
  8
0
100
AcDbLine
 62
250
  6
CONTINUOUS
 10
22.2064794902
 20
-29.2564475122
 11
22.2021381258
 21
-29.9741311582
  0
LWPOLYLINE
  5
475
100
AcDbEntity
  8
0
100
AcDbPolyline
 62
250
  6
CONTINUOUS
 90
3
 70
0
 10
22.2060359521
 20
-28.5519261896
 10
22.2206636853
 20
-27.0427681185
 10
22.2569953476
 20
-22.6082700188
  0
LWPOLYLINE
  5
476
100
AcDbEntity
  8
0
100
AcDbPolyline
 62
250
  6
CONTINUOUS
 90
3
 70
0
 10
22.1228739484
 20
-34.1808060871
 10
22.1217137715
 20
-34.2642861173
 10
22.1214374489
 20
-34.3470339684
  0
LINE
  5
477
100
AcDbEntity
  8
0
100
AcDbLine
 62
250
  6
CONTINUOUS
 10
22.2021381258
 20
-29.9741311582
 11
22.1744340335
 21
-32.0545000234
  0
LINE
  5
478
100
AcDbEntity
  8
0
100
AcDbLine
 62
250
  6
CONTINUOUS
 10
22.1744340335
 20
-32.0545000234
 11
22.1617955541
 21
-32.7332403867
  0
LINE
  5
479
100
AcDbEntity
  8
0
100
AcDbLine
 62
250
  6
CONTINUOUS
 10
22.1617955541
 20
-32.7332403867
 11
22.1509165493
 21
-33.1788693496
  0
LWPOLYLINE
  5
47A
100
AcDbEntity
  8
0
100
AcDbPolyline
 62
250
  6
CONTINUOUS
 90
3
 70
0
 10
22.1286029606
 20
-33.924848985
 10
22.1263607897
 20
-34.0111764048
 10
22.1228739484
 20
-34.1808060871
  0
LINE
  5
47B
100
AcDbEntity
  8
0
100
AcDbLine
 62
250
  6
CONTINUOUS
 10
22.1509165493
 20
-33.1788693496
 11
22.1286029606
 21
-33.924848985
  0
LWPOLYLINE
  5
47C
100
AcDbEntity
  8
RACCORDO
100
AcDbPolyline
 62
7
  6
CONTINUOUS
 90
3
 70
0
 10
19.3180618896
 20
-31.1940683451
 10
19.3199273185
 20
-31.1723003311
 10
19.3200754776
 20
-31.1635608496
  0
LINE
  5
47D
100
AcDbEntity
  8
0
100
AcDbLine
 62
7
  6
CONTINUOUS
 10
19.6001414323
 20
-33.7926086923
 11
19.5998829108
 21
-33.7945570881
  0
LINE
  5
47E
100
AcDbEntity
  8
0
100
AcDbLine
 62
7
  6
CONTINUOUS
 10
16.9881221338
 20
-37.1348480071
 11
16.9403420509
 21
-37.4403918163
  0
LINE
  5
47F
100
AcDbEntity
  8
0
100
AcDbLine
 62
7
  6
CONTINUOUS
 10
16.9617400973
 20
-37.4296927931
 11
17.0095881656
 21
-37.1236246331
  0
LINE
  5
480
100
AcDbEntity
  8
0
100
AcDbLine
 62
7
  6
CONTINUOUS
 10
17.0377910665
 20
-36.8282145018
 11
16.9881221338
 21
-37.1348480071
  0
LINE
  5
481
100
AcDbEntity
  8
0
100
AcDbLine
 62
7
  6
CONTINUOUS
 10
17.0095881656
 20
-37.1236246331
 11
17.0592808118
 21
-36.8167688841
  0
LINE
  5
482
100
AcDbEntity
  8
0
100
AcDbLine
 62
7
  6
CONTINUOUS
 10
17.0892902361
 20
-36.5205317224
 11
17.0377910665
 21
-36.8282145018
  0
LINE
  5
483
100
AcDbEntity
  8
0
100
AcDbLine
 62
7
  6
CONTINUOUS
 10
17.0592808118
 20
-36.8167688841
 11
17.110757421
 21
-36.5091671274
  0
LINE
  5
484
100
AcDbEntity
  8
0
100
AcDbLine
 62
7
  6
CONTINUOUS
 10
16.645583326
 20
-36.5067644874
 11
16.698481464
 21
-36.1953945145
  0
LINE
  5
485
100
AcDbEntity
  8
0
100
AcDbLine
 62
7
  6
CONTINUOUS
 10
17.110757421
 20
-36.5091671274
 11
17.1637755342
 21
-36.2009856878
  0
LWPOLYLINE
  5
486
100
AcDbEntity
  8
0
100
AcDbPolyline
 62
7
  6
CONTINUOUS
 90
3
 70
0
 10
17.1695457411
 20
-36.0573332253
 10
17.142385191
 20
-36.2119613577
 10
17.0892902361
 20
-36.5205317224
  0
LINE
  5
487
100
AcDbEntity
  8
0
100
AcDbLine
 62
7
  6
CONTINUOUS
 10
17.1637755342
 20
-36.2009856878
 11
17.1762100312
 21
-36.1301845122
  0
LINE
  5
488
100
AcDbEntity
  8
0
100
AcDbLine
 62
7
  6
CONTINUOUS
 10
16.698481464
 20
-36.1953945145
 11
16.7522458328
 21
-35.8873183764
  0
LINE
  5
489
100
AcDbEntity
  8
0
100
AcDbLine
 62
7
  6
CONTINUOUS
 10
16.7522458328
 20
-35.8873183764
 11
16.8342394995
 21
-35.4315500489
  0
LINE
  5
48A
100
AcDbEntity
  8
0
100
AcDbLine
 62
7
  6
CONTINUOUS
 10
16.8342394995
 20
-35.4315500489
 11
16.889515161
 21
-35.1321098008
  0
LWPOLYLINE
  5
48B
100
AcDbEntity
  8
0
100
AcDbPolyline
 62
7
  6
CONTINUOUS
 90
4
 70
0
 10
13.9915037671
 20
-35.9546956592
 10
14.034086617
 20
-35.7348895645
 10
14.0782289325
 20
-35.5124515354
 10
14.1239307136
 20
-35.287381572
  0
LWPOLYLINE
  5
48C
100
AcDbEntity
  8
0
100
AcDbPolyline
 62
7
  6
CONTINUOUS
 90
4
 70
0
 10
14.1025724975
 20
-35.2980827798
 10
14.0568590731
 20
-35.5231545137
 10
14.0127051302
 20
-35.7455909898
 10
13.9701106688
 20
-35.9653922084
  0
LINE
  5
48D
100
AcDbEntity
  8
0
100
AcDbLine
 62
7
  6
CONTINUOUS
 10
13.6861262665
 20
-35.1200890879
 11
13.7513079476
 21
-34.8067420133
  0
LINE
  5
48E
100
AcDbEntity
  8
0
100
AcDbLine
 62
7
  6
CONTINUOUS
 10
14.1239307136
 20
-35.287381572
 11
14.2200504058
 21
-34.8293166366
  0
LINE
  5
48F
100
AcDbEntity
  8
0
100
AcDbLine
 62
7
  6
CONTINUOUS
 10
14.1987159205
 20
-34.8400024157
 11
14.1025724975
 21
-35.2980827798
  0
LINE
  5
490
100
AcDbEntity
  8
0
100
AcDbLine
 62
7
  6
CONTINUOUS
 10
13.7513079476
 20
-34.8067420133
 11
13.8190089077
 21
-34.4905203937
  0
LINE
  5
491
100
AcDbEntity
  8
0
100
AcDbLine
 62
7
  6
CONTINUOUS
 10
14.2200504058
 20
-34.8293166366
 11
14.3222192942
 21
-34.3608699904
  0
LINE
  5
492
100
AcDbEntity
  8
0
100
AcDbLine
 62
7
  6
CONTINUOUS
 10
14.3009066197
 20
-34.3715366377
 11
14.1987159205
 21
-34.8400024157
  0
LINE
  5
493
100
AcDbEntity
  8
0
100
AcDbLine
 62
7
  6
CONTINUOUS
 10
13.8190089077
 20
-34.4905203937
 11
13.8891894718
 21
-34.1714528067
  0
LINE
  5
494
100
AcDbEntity
  8
0
100
AcDbLine
 62
7
  6
CONTINUOUS
 10
13.8891894718
 20
-34.1714528067
 11
13.96169094
 21
-33.8496535631
  0
LINE
  5
495
100
AcDbEntity
  8
0
100
AcDbLine
 62
7
  6
CONTINUOUS
 10
14.4090874001
 20
-33.8927321306
 11
14.3009066197
 21
-34.3715366377
  0
LINE
  5
496
100
AcDbEntity
  8
0
100
AcDbLine
 62
7
  6
CONTINUOUS
 10
14.3222192942
 20
-34.3608699904
 11
14.4303807787
 21
-33.8820854413
  0
LINE
  5
497
100
AcDbEntity
  8
0
100
AcDbLine
 62
7
  6
CONTINUOUS
 10
13.96169094
 20
-33.8496535631
 11
13.9988219319
 21
-33.6877224256
  0
LWPOLYLINE
  5
498
100
AcDbEntity
  8
RACCORDO
100
AcDbPolyline
 62
7
  6
CONTINUOUS
 90
6
 70
0
 10
3.3588021371
 20
-23.3262766136
 10
3.374828228
 20
-23.3128281351
 10
3.3875999284
 20
-23.2971775832
 10
3.3972665721
 20
-23.2795922946
 10
3.4040102384
 20
-23.2601085527
 10
3.4081593129
 20
-23.2391170567
  0
LINE
  5
499
100
AcDbEntity
  8
0
100
AcDbLine
 62
7
  6
CONTINUOUS
 10
3.3517886073
 20
-22.4210819682
 11
2.3272653116
 21
-22.9900061652
  0
LINE
  5
49A
100
AcDbEntity
  8
0
100
AcDbLine
 62
7
  6
CONTINUOUS
 10
3.3517886073
 20
-23.3304086422
 11
3.1889361939
 21
-23.4208416064
  0
LWPOLYLINE
  5
49B
100
AcDbEntity
  8
RACCORDO
100
AcDbPolyline
 62
7
  6
CONTINUOUS
 90
7
 70
0
 10
3.3588021371
 20
-22.4174246827
 10
3.3742698567
 20
-22.4096124578
 10
3.3871555583
 20
-22.4042336379
 10
3.3972665721
 20
-22.4009656907
 10
3.4041812899
 20
-22.3993281798
 10
3.4081495697
 20
-22.3990518773
 10
3.4091484052
 20
-22.3993609272
  0
LWPOLYLINE
  5
49C
100
AcDbEntity
  8
0
100
AcDbPolyline
 62
250
  6
CONTINUOUS
 90
10
 70
0
 10
21.8716387017
 20
5.4861176534
 10
21.9062559313
 20
5.379565014
 10
21.9383635372
 20
5.2729615933
 10
21.9679793455
 20
5.1665044341
 10
21.9951448591
 20
5.0601169354
 10
22.0197982852
 20
4.9539049803
 10
22.0418956738
 20
4.8480509498
 10
22.0614230395
 20
4.7427172033
 10
22.0783928342
 20
4.6379264023
 10
22.0927909023
 20
4.5338932888
  0
LWPOLYLINE
  5
49D
100
AcDbEntity
  8
0
100
AcDbPolyline
 62
250
  6
CONTINUOUS
 90
19
 70
0
 10
20.4761223857
 20
4.6283275792
 10
20.4535943331
 20
4.7657906372
 10
20.4232013676
 20
4.9045014356
 10
20.3851080427
 20
5.0437359256
 10
20.339543053
 20
5.1827574627
 10
20.2868129503
 20
5.3207547242
 10
20.2272213748
 20
5.4568753102
 10
20.1610905035
 20
5.5902728848
 10
20.0887873085
 20
5.7201626365
 10
20.0107249579
 20
5.8458052153
 10
19.9274044952
 20
5.9664892986
 10
19.8393006341
 20
6.0814746619
 10
19.7469090166
 20
6.1900640018
 10
19.6507359961
 20
6.2916272921
 10
19.5513974594
 20
6.3854896762
 10
19.4495751957
 20
6.4710183905
 10
19.3458556883
 20
6.5477077025
 10
19.2406335907
 20
6.6152304399
 10
19.1342621402
 20
6.6733276776
  0
LINE
  5
49E
100
AcDbEntity
  8
0
100
AcDbLine
 62
250
  6
CONTINUOUS
 10
22.0927909023
 20
4.5338932888
 11
22.0957177596
 21
4.5103212139
  0
LINE
  5
49F
100
AcDbEntity
  8
0
100
AcDbLine
 62
250
  6
CONTINUOUS
 10
22.0957177596
 20
4.5103212139
 11
22.098496781
 21
4.4869783892
  0
LINE
  5
4A0
100
AcDbEntity
  8
0
100
AcDbLine
 62
250
  6
CONTINUOUS
 10
22.098496781
 20
4.4869783892
 11
22.1024306293
 21
4.4523100723
  0
LINE
  5
4A1
100
AcDbEntity
  8
0
100
AcDbLine
 62
250
  6
CONTINUOUS
 10
22.1049329683
 20
-35.0524572307
 11
22.1024281326
 21
-35.0727601729
  0
LINE
  5
4A2
100
AcDbEntity
  8
0
100
AcDbLine
 62
250
  6
CONTINUOUS
 10
22.1024281326
 20
-35.0727601729
 11
22.0998296393
 21
-35.0930887135
  0
LINE
  5
4A3
100
AcDbEntity
  8
0
100
AcDbLine
 62
250
  6
CONTINUOUS
 10
22.0998296393
 20
-35.0930887135
 11
22.0971225832
 21
-35.1134648725
  0
LWPOLYLINE
  5
4A4
100
AcDbEntity
  8
0
100
AcDbPolyline
 62
250
  6
CONTINUOUS
 90
3
 70
0
 10
22.0971225832
 20
-35.1134648725
 10
22.0942714865
 20
-35.1338899596
 10
22.0927908838
 20
-35.1441327827
  0
LWPOLYLINE
  5
4A5
100
AcDbEntity
  8
0
100
AcDbPolyline
 62
250
  6
CONTINUOUS
 90
9
 70
0
 10
20.4761223326
 20
-34.5502574619
 10
20.4803301372
 20
-34.5207484493
 10
20.4840754423
 20
-34.4905384338
 10
20.4873402981
 20
-34.4596203012
 10
20.4901156245
 20
-34.4279796086
 10
20.4923735276
 20
-34.3956167523
 10
20.4940686518
 20
-34.3625490977
 10
20.495174519
 20
-34.328780487
 10
20.4956821742
 20
-34.2942991265
  0
LWPOLYLINE
  5
4A6
100
AcDbEntity
  8
0
100
AcDbPolyline
 62
250
  6
CONTINUOUS
 90
10
 70
0
 10
22.0927908838
 20
-35.1441327827
 10
22.0783928165
 20
-35.23304673
 10
22.0614230233
 20
-35.3201562323
 10
22.0418956599
 20
-35.4052629225
 10
22.0197982746
 20
-35.4883267861
 10
21.9951448526
 20
-35.5692051977
 10
21.9679793429
 20
-35.6477674657
 10
21.9383635378
 20
-35.7239710789
 10
21.906255935
 20
-35.7978509535
 10
21.8716387079
 20
-35.8691881369
  0
LINE
  5
4A7
100
AcDbEntity
  8
0
100
AcDbLine
 62
7
  6
CONTINUOUS
 10
18.0168188254
 20
-37.9734858207
 11
18.0676016574
 21
-37.709651772
  0
LINE
  5
4A8
100
AcDbEntity
  8
0
100
AcDbLine
 62
7
  6
CONTINUOUS
 10
18.4807748611
 20
-37.9088865133
 11
18.4291941514
 21
-38.1774287188
  0
LWPOLYLINE
  5
4A9
100
AcDbEntity
  8
0
100
AcDbPolyline
 62
7
  6
CONTINUOUS
 90
3
 70
0
 10
18.4505959193
 20
-38.1667278349
 10
18.5152933904
 20
-37.8308663027
 10
18.5247462154
 20
-37.7826960141
  0
LINE
  5
4AA
100
AcDbEntity
  8
0
100
AcDbLine
 62
7
  6
CONTINUOUS
 10
18.5071704591
 20
-37.7740024726
 11
18.4807748611
 21
-37.9088865133
  0
LINE
  5
4AB
100
AcDbEntity
  8
0
100
AcDbLine
 62
7
  6
CONTINUOUS
 10
18.0676016574
 20
-37.709651772
 11
18.1484037868
 21
-37.3020782073
  0
LINE
  5
4AC
100
AcDbEntity
  8
0
100
AcDbLine
 62
7
  6
CONTINUOUS
 10
18.1484037868
 20
-37.3020782073
 11
18.2051239445
 21
-37.0244305497
  0
LINE
  5
4AD
100
AcDbEntity
  8
0
100
AcDbLine
 62
7
  6
CONTINUOUS
 10
18.6071868501
 20
-37.3718979729
 11
18.6943242789
 21
-36.9527979375
  0
LINE
  5
4AE
100
AcDbEntity
  8
0
100
AcDbLine
 62
7
  6
CONTINUOUS
 10
18.6874457154
 20
-36.8946559786
 11
18.5858286312
 21
-37.3825770824
  0
LINE
  5
4AF
100
AcDbEntity
  8
0
100
AcDbLine
 62
7
  6
CONTINUOUS
 10
18.6943242789
 20
-36.9527979375
 11
18.7278722831
 21
-36.7934442726
  0
LINE
  5
4B0
100
AcDbEntity
  8
0
100
AcDbLine
 62
7
  6
CONTINUOUS
 10
18.7162978635
 20
-36.7578633882
 11
18.6874457154
 21
-36.8946559786
  0
LINE
  5
4B1
100
AcDbEntity
  8
0
100
AcDbLine
 62
7
  6
CONTINUOUS
 10
18.2051239445
 20
-37.0244305497
 11
18.2934718991
 21
-36.6034157939
  0
LINE
  5
4B2
100
AcDbEntity
  8
0
100
AcDbLine
 62
7
  6
CONTINUOUS
 10
18.2934718991
 20
-36.6034157939
 11
18.4425472999
 21
-35.9074332026
  0
LWPOLYLINE
  5
4B3
100
AcDbEntity
  8
0
100
AcDbPolyline
 62
7
  6
CONTINUOUS
 90
4
 70
0
 10
21.0220364633
 20
-37.9785857824
 10
21.029028419
 20
-37.9471558544
 10
21.0316554318
 20
-37.9127285504
 10
21.0299297857
 20
-37.8759295982
  0
LINE
  5
4B4
100
AcDbEntity
  8
DRAFT
100
AcDbLine
 62
7
  6
CONTINUOUS
 10
14.0052212285
 20
-28.6980181168
 11
14.1055695454
 21
-28.5360602409
  0
LINE
  5
4B5
100
AcDbEntity
  8
DRAFT
100
AcDbLine
 62
7
  6
CONTINUOUS
 10
14.3773035672
 20
-28.5305058955
 11
14.477651884
 21
-28.3685480196
  0
LINE
  5
4B6
100
AcDbEntity
  8
DRAFT
100
AcDbLine
 62
7
  6
CONTINUOUS
 10
14.7493859058
 20
-28.3629936743
 11
14.8497342227
 21
-28.2010357983
  0
LWPOLYLINE
  5
4B7
100
AcDbEntity
  8
0
100
AcDbPolyline
 62
250
  6
CONTINUOUS
 90
6
 70
0
 10
-32.2979631987
 20
43.9259467227
 10
-32.9739590275
 20
44.2375547355
 10
-33.6314922138
 20
44.529224415
 10
-34.2699505692
 20
44.7976824807
 10
-34.8893485769
 20
45.0441489708
 10
-35.4896015165
 20
45.2648024433
  0
LINE
  5
4B8
100
AcDbEntity
  8
0
100
AcDbLine
 62
250
  6
CONTINUOUS
 10
-30.8928912007
 20
43.2664974824
 11
-32.2979631987
 21
43.9259467227
  0
LWPOLYLINE
  5
4B9
100
AcDbEntity
  8
0
100
AcDbPolyline
 62
250
  6
CONTINUOUS
 90
6
 70
0
 10
38.8062143436
 20
13.3853128116
 10
38.7884106597
 20
13.3937383088
 10
38.7706216827
 20
13.4022755388
 10
38.7528474126
 20
13.4109245015
 10
38.7351539391
 20
13.4196958648
 10
38.6996128435
 20
13.437541786
  0
LINE
  5
4BA
100
AcDbEntity
  8
0
100
AcDbLine
 62
250
  6
CONTINUOUS
 10
-28.6504317861
 20
42.1986450403
 11
-30.8928912007
 21
43.2664974824
  0
LINE
  5
4BB
100
AcDbEntity
  8
0
100
AcDbLine
 62
250
  6
CONTINUOUS
 10
-26.2398826027
 20
41.0395869212
 11
-28.6504317861
 21
42.1986450403
  0
LINE
  5
4BC
100
AcDbEntity
  8
0
100
AcDbLine
 62
250
  6
CONTINUOUS
 10
-23.6436086687
 20
39.7783535528
 11
-26.2398826027
 21
41.0395869212
  0
LINE
  5
4BD
100
AcDbEntity
  8
0
100
AcDbLine
 62
250
  6
CONTINUOUS
 10
-21.8032851491
 20
38.8760773641
 11
-23.6436086687
 21
39.7783535528
  0
LINE
  5
4BE
100
AcDbEntity
  8
0
100
AcDbLine
 62
250
  6
CONTINUOUS
 10
-19.7821871216
 20
37.8763318812
 11
-21.8032683712
 21
38.8760356413
  0
LINE
  5
4BF
100
AcDbEntity
  8
0
100
AcDbLine
 62
250
  6
CONTINUOUS
 10
-35.7003164925
 20
49.4507614527
 11
-39.0384130685
 21
51.1083951256
  0
LINE
  5
4C0
100
AcDbEntity
  8
0
100
AcDbLine
 62
250
  6
CONTINUOUS
 10
29.6779936862
 20
16.764252836
 11
19.2141303373
 21
21.9892608981
  0
LINE
  5
4C1
100
AcDbEntity
  8
0
100
AcDbLine
 62
250
  6
CONTINUOUS
 10
13.9586255405
 20
21.005924745
 11
-19.7821871216
 21
37.8763318812
  0
LINE
  5
4C2
100
AcDbEntity
  8
0
100
AcDbLine
 62
250
  6
CONTINUOUS
 10
19.2136110994
 20
21.9895215795
 11
-4.567004423
 21
33.8773661842
  0
LWPOLYLINE
  5
4C3
100
AcDbEntity
  8
0
100
AcDbPolyline
 62
250
  6
CONTINUOUS
 90
4
 70
0
 10
-4.567004423
 20
33.8773661842
 10
-30.5810153287
 20
46.8917163415
 10
-32.3019672616
 20
47.7542185495
 10
-35.7003164925
 20
49.4507614527
  0
LWPOLYLINE
  5
4C4
100
AcDbEntity
  8
0
100
AcDbPolyline
 62
250
  6
CONTINUOUS
 90
3
 70
0
 10
34.705182961
 20
14.2365953486
 10
33.0452272144
 20
15.0733297431
 10
29.6779936862
 20
16.764252836
  0
LINE
  5
4C5
100
AcDbEntity
  8
0
100
AcDbLine
 62
250
  6
CONTINUOUS
 10
16.9103330398
 20
19.5111261567
 11
13.9586255405
 21
21.005924745
  0
LINE
  5
4C6
100
AcDbEntity
  8
0
100
AcDbLine
 62
250
  6
CONTINUOUS
 10
-41.8486727915
 20
53.7120513488
 11
-41.8135766383
 21
53.6941149635
  0
LINE
  5
4C7
100
AcDbEntity
  8
0
100
AcDbLine
 62
250
  6
CONTINUOUS
 10
19.5715768671
 20
18.1472964044
 11
16.9103330398
 21
19.5111261567
  0
LINE
  5
4C8
100
AcDbEntity
  8
0
100
AcDbLine
 62
250
  6
CONTINUOUS
 10
22.0418301588
 20
16.8688805389
 11
19.5715768671
 21
18.1472964044
  0
LWPOLYLINE
  5
4C9
100
AcDbEntity
  8
0
100
AcDbPolyline
 62
250
  6
CONTINUOUS
 90
5
 70
0
 10
35.6109343002
 20
13.7521226393
 10
35.3960355654
 20
13.864327474
 10
35.1732930374
 20
13.9829237979
 10
34.9430338289
 20
14.1070048497
 10
34.7052064425
 20
14.2365964633
  0
LINE
  5
4CA
100
AcDbEntity
  8
0
100
AcDbLine
 62
250
  6
CONTINUOUS
 10
-41.8832017216
 20
53.7300228122
 11
-41.8486727915
 21
53.7120513488
  0
LINE
  5
4CB
100
AcDbEntity
  8
0
100
AcDbLine
 62
250
  6
CONTINUOUS
 10
25.0683986646
 20
15.285876834
 11
22.0418301588
 21
16.8688805389
  0
LWPOLYLINE
  5
4CC
100
AcDbEntity
  8
0
100
AcDbPolyline
 62
250
  6
CONTINUOUS
 90
10
 70
0
 10
-42.370045053
 20
52.6765812835
 10
-42.3788135465
 20
52.6812006932
 10
-42.3877556486
 20
52.6856056644
 10
-42.3968705793
 20
52.6897900011
 10
-42.406160643
 20
52.693745239
 10
-42.4156217196
 20
52.6974655006
 10
-42.4252432945
 20
52.7009477416
 10
-42.4350211149
 20
52.7041851032
 10
-42.444957111
 20
52.7071665992
 10
-42.4550496369
 20
52.709882199
  0
LWPOLYLINE
  5
4CD
100
AcDbEntity
  8
0
100
AcDbPolyline
 62
250
  6
CONTINUOUS
 90
4
 70
0
 10
36.7602772201
 20
13.1562592317
 10
36.5834792355
 20
13.2497967615
 10
36.4012478512
 20
13.3447914193
 10
35.6109343002
 20
13.7521226393
  0
LINE
  5
4CE
100
AcDbEntity
  8
0
100
AcDbLine
 62
250
  6
CONTINUOUS
 10
38.0028381024
 20
12.4901377864
 11
37.7180859644
 21
12.6402878496
  0
LINE
  5
4CF
100
AcDbEntity
  8
0
100
AcDbLine
 62
250
  6
CONTINUOUS
 10
37.7180859644
 20
12.6402878496
 11
37.5693553377
 21
12.7197917516
  0
LWPOLYLINE
  5
4D0
100
AcDbEntity
  8
0
100
AcDbPolyline
 62
250
  6
CONTINUOUS
 90
7
 70
0
 10
29.6660516835
 20
12.6869742873
 10
29.0656843582
 20
13.0666434869
 10
28.4461687538
 20
13.4396420995
 10
27.8075850697
 20
13.8097083495
 10
27.1499159184
 20
14.1756383975
 10
26.4737747427
 20
14.5400980951
 10
25.0683986646
 20
15.285876834
  0
LINE
  5
4D1
100
AcDbEntity
  8
DRAFT
100
AcDbLine
 62
7
  6
CONTINUOUS
 10
18.2566178564
 20
-30.8475542241
 11
18.3571251892
 21
-30.6618380628
  0
LINE
  5
4D2
100
AcDbEntity
  8
DRAFT
100
AcDbLine
 62
7
  6
CONTINUOUS
 10
18.5916422989
 20
-30.6615130548
 11
18.6921496317
 21
-30.4757968934
  0
LINE
  5
4D3
100
AcDbEntity
  8
DRAFT
100
AcDbLine
 62
7
  6
CONTINUOUS
 10
18.9266667415
 20
-30.4754718855
 11
19.0271740742
 21
-30.2897557241
  0
LINE
  5
4D4
100
AcDbEntity
  8
RACCORDO
100
AcDbLine
 62
7
  6
CONTINUOUS
 10
15.1101918597
 20
-28.0837772434
 11
14.8497342227
 21
-28.2010357983
  0
LINE
  5
4D5
100
AcDbEntity
  8
DRAFT
100
AcDbLine
 62
7
  6
CONTINUOUS
 10
14.6264848195
 20
-28.3015431311
 11
14.477651884
 21
-28.3685480196
  0
LINE
  5
4D6
100
AcDbEntity
  8
DRAFT
100
AcDbLine
 62
7
  6
CONTINUOUS
 10
14.2544024808
 20
-28.4690553524
 11
14.1055695454
 21
-28.5360602409
  0
LINE
  5
4D7
100
AcDbEntity
  8
DRAFT
100
AcDbLine
 62
7
  6
CONTINUOUS
 10
13.8823201422
 20
-28.6365675736
 11
13.7444904977
 21
-28.6986187583
  0
LWPOLYLINE
  5
4D8
100
AcDbEntity
  8
0
100
AcDbPolyline
 62
250
  6
CONTINUOUS
 90
16
 70
0
 10
-35.4895635737
 20
45.2647395018
 10
-35.8240003876
 20
45.3744058465
 10
-36.1465353795
 20
45.4692925162
 10
-36.4564527909
 20
45.5490311043
 10
-36.7531351359
 20
45.6135374288
 10
-37.036806388
 20
45.6632800276
 10
-37.3076142296
 20
45.698232096
 10
-37.564589066
 20
45.7174567646
 10
-37.807255634
 20
45.7204201437
 10
-38.0358594677
 20
45.706627426
 10
-38.2494399135
 20
45.6763922757
 10
-38.4485235907
 20
45.6297658868
 10
-38.6357011123
 20
45.5654848207
 10
-38.8110059085
 20
45.4836792921
 10
-38.9726985262
 20
45.3865469364
 10
-39.1213095688
 20
45.2756532004
  0
LWPOLYLINE
  5
4D9
100
AcDbEntity
  8
0
100
AcDbPolyline
 62
250
  6
CONTINUOUS
 90
6
 70
0
 10
-39.0384327499
 20
51.1084176635
 10
-39.2879303712
 20
51.2223094972
 10
-39.528095881
 20
51.3333013053
 10
-39.7589850275
 20
51.4414235959
 10
-39.9799696887
 20
51.5471501707
 10
-40.5930482987
 20
51.844709162
  0
LWPOLYLINE
  5
4DA
100
AcDbEntity
  8
0
100
AcDbPolyline
 62
250
  6
CONTINUOUS
 90
4
 70
0
 10
-41.9465556206
 20
52.4772330492
 10
-42.0924402191
 20
52.5452644993
 10
-42.2336984601
 20
52.6124644006
 10
-42.370045053
 20
52.6765812835
  0
LWPOLYLINE
  5
4DB
100
AcDbEntity
  8
0
100
AcDbPolyline
 62
250
  6
CONTINUOUS
 90
4
 70
0
 10
-40.9661066198
 20
52.0237975429
 10
-41.1436363664
 20
52.107326977
 10
-41.3149914189
 20
52.1868456834
 10
-41.9465556206
 20
52.4772330492
  0
LINE
  5
4DC
100
AcDbEntity
  8
0
100
AcDbLine
 62
250
  6
CONTINUOUS
 10
-40.5930482987
 20
51.844709162
 11
-40.9661066198
 21
52.0237975429
  0
LINE
  5
4DD
100
AcDbEntity
  8
0
100
AcDbLine
 62
250
  6
CONTINUOUS
 10
-41.7779514404
 20
53.6762001817
 11
-1.53959811
 21
33.5570387922
  0
LINE
  5
4DE
100
AcDbEntity
  8
0
100
AcDbLine
 62
250
  6
CONTINUOUS
 10
-1.53959811
 20
33.5570387922
 11
38.6996128435
 21
13.437541786
  0
LINE
  5
4DF
100
AcDbEntity
  8
0
100
AcDbLine
 62
7
  6
CONTINUOUS
 10
41.9743288867
 20
15.1726924486
 11
-38.7150703284
 21
55.5173920544
  0
LINE
  5
4E0
100
AcDbEntity
  8
0
100
AcDbLine
 62
250
  6
CONTINUOUS
 10
-41.8135766383
 20
53.6941149635
 11
-41.7779514404
 21
53.6762001817
  0
LWPOLYLINE
  5
4E1
100
AcDbEntity
  8
0
100
AcDbPolyline
 62
250
  6
CONTINUOUS
 90
3
 70
0
 10
37.5693553377
 20
12.7197917516
 10
37.2596978117
 20
12.887672316
 10
36.7602772201
 20
13.1562592317
  0
LWPOLYLINE
  5
4E2
100
AcDbEntity
  8
0
100
AcDbPolyline
 62
250
  6
CONTINUOUS
 90
6
 70
0
 10
38.1912782763
 20
12.3654704042
 10
38.2110368928
 20
12.3523594884
 10
38.2315987245
 20
12.3380197733
 10
38.2527970724
 20
12.3228089027
 10
38.2745525725
 20
12.3067744013
 10
38.2968945534
 20
12.2898605052
  0
LWPOLYLINE
  5
4E3
100
AcDbEntity
  8
0
100
AcDbPolyline
 62
250
  6
CONTINUOUS
 90
10
 70
0
 10
38.0859510939
 20
12.4393799102
 10
38.0764381419
 20
12.4464662104
 10
38.0669895645
 20
12.45317649
 10
38.057607276
 20
12.4595189738
 10
38.0482906911
 20
12.4655059774
 10
38.0390432498
 20
12.4711403994
 10
38.0298725026
 20
12.4764159559
 10
38.0207817374
 20
12.4813347172
 10
38.0117699411
 20
12.4859068921
 10
38.0028381024
 20
12.4901377864
  0
LWPOLYLINE
  5
4E4
100
AcDbEntity
  8
0
100
AcDbPolyline
 62
250
  6
CONTINUOUS
 90
6
 70
0
 10
38.0858820106
 20
12.4393649168
 10
38.1011733106
 20
12.4275970489
 10
38.1178312717
 20
12.4146048037
 10
38.1354479262
 20
12.4012632037
 10
38.1536290661
 20
12.3888423654
 10
38.1912782763
 20
12.3654704042
  0
LWPOLYLINE
  5
4E5
100
AcDbEntity
  8
0
100
AcDbPolyline
 62
250
  6
CONTINUOUS
 90
22
 70
0
 10
38.2968945534
 20
12.2898605052
 10
38.3436006962
 20
12.2538892303
 10
38.3681442191
 20
12.2346004883
 10
38.3934564892
 20
12.2141983942
 10
38.4194714967
 20
12.192613487
 10
38.446253557
 20
12.1697756706
 10
38.4739114736
 20
12.1455384894
 10
38.5023539721
 20
12.119859095
 10
38.5315524573
 20
12.0927161134
 10
38.5616977383
 20
12.0639812515
 10
38.5928103753
 20
12.0336593823
 10
38.6248119609
 20
12.001580935
 10
38.6577452071
 20
11.96731875
 10
38.6914837746
 20
11.9307702727
 10
38.7260123954
 20
11.8918752444
 10
38.7614740153
 20
11.8502703713
 10
38.7976700048
 20
11.8058571847
 10
38.8345076855
 20
11.7586093654
 10
38.8722542022
 20
11.7082265328
 10
38.9108915549
 20
11.6545300444
 10
38.9501201837
 20
11.597510118
 10
38.9897684398
 20
11.5370829674
  0
LWPOLYLINE
  5
4E6
100
AcDbEntity
  8
0
100
AcDbPolyline
 62
250
  6
CONTINUOUS
 90
16
 70
0
 10
33.2977465011
 20
9.0661234359
 10
33.1501853056
 20
9.3238708673
 10
32.9893190715
 20
9.5815738805
 10
32.8145641447
 20
9.8381553429
 10
32.6274685574
 20
10.0897931169
 10
32.428074357
 20
10.3361272733
 10
32.2141138898
 20
10.5805489396
 10
31.9851533384
 20
10.8234480062
 10
31.7420754313
 20
11.0636428417
 10
31.4847392934
 20
11.3017789895
 10
31.2136643234
 20
11.5378961182
 10
30.9297876942
 20
11.7720082973
 10
30.6329603009
 20
12.0043041261
 10
30.322956321
 20
12.2345484394
 10
30.0003965152
 20
12.4622132037
 10
29.665999798
 20
12.68695626
  0
LWPOLYLINE
  5
4E7
100
AcDbEntity
  8
0
100
AcDbPolyline
 62
250
  6
CONTINUOUS
 90
10
 70
0
 10
33.297778542
 20
9.0661334682
 10
33.3769284104
 20
8.9176589455
 10
33.4548284981
 20
8.7637693193
 10
33.5311862967
 20
8.6047115324
 10
33.6057332677
 20
8.4406081912
 10
33.6781275992
 20
8.2716358708
 10
33.7479994256
 20
8.0979798986
 10
33.8151652485
 20
7.9198032814
 10
33.8796031664
 20
7.7372681051
 10
33.9404894428
 20
7.5509412842
  0
LWPOLYLINE
  5
4E8
100
AcDbEntity
  8
0
100
AcDbPolyline
 62
250
  6
CONTINUOUS
 90
9
 70
0
 10
34.6588077293
 20
3.032025575
 10
34.6288919308
 20
3.3841025794
 10
34.597230928
 20
3.7306451096
 10
34.5636725498
 20
4.071805129
 10
34.5283940198
 20
4.4073812643
 10
34.4908843658
 20
4.7371995256
 10
34.4504961009
 20
5.0613324806
 10
34.4065684851
 20
5.3799897487
 10
34.3578573152
 20
5.6933392259
  0
LINE
  5
4E9
100
AcDbEntity
  8
0
100
AcDbLine
 62
250
  6
CONTINUOUS
 10
34.7700281533
 20
1.6002567464
 11
34.6588077293
 21
3.032025575
  0
LINE
  5
4EA
100
AcDbEntity
  8
0
100
AcDbLine
 62
250
  6
CONTINUOUS
 10
34.8858796828
 20
0.0053087283
 11
34.7700281533
 21
1.6002567464
  0
LINE
  5
4EB
100
AcDbEntity
  8
0
100
AcDbLine
 62
250
  6
CONTINUOUS
 10
34.9923521272
 20
-1.5708231238
 11
34.8858796828
 21
0.0053087283
  0
LWPOLYLINE
  5
4EC
100
AcDbEntity
  8
0
100
AcDbPolyline
 62
250
  6
CONTINUOUS
 90
10
 70
0
 10
35.627588235
 20
-20.8363780039
 10
35.6201576173
 20
-18.78274965
 10
35.5978656404
 20
-16.7215324633
 10
35.5607121297
 20
-14.6528479078
 10
35.5086955547
 20
-12.5767697942
 10
35.4418164472
 20
-10.4934674384
 10
35.3600808147
 20
-8.4032072012
 10
35.2634939872
 20
-6.3061608402
 10
35.1520572034
 20
-4.20240397
 10
34.9923521272
 20
-1.5708231238
  0
LWPOLYLINE
  5
4ED
100
AcDbEntity
  8
0
100
AcDbPolyline
 62
250
  6
CONTINUOUS
 90
10
 70
0
 10
35.025773408
 20
-38.9788758516
 10
35.152065997
 20
-36.9946686542
 10
35.2635074605
 20
-35.00223739
 10
35.3600956665
 20
-33.001703199
 10
35.4418301992
 20
-30.9931408609
 10
35.5087065551
 20
-28.9767171346
 10
35.5607195544
 20
-26.9526926308
 10
35.5978694901
 20
-24.9212364373
 10
35.6201587169
 20
-22.882424246
 10
35.6275882349
 20
-20.8363780034
  0
LINE
  5
4EE
100
AcDbEntity
  8
0
100
AcDbLine
 62
250
  6
CONTINUOUS
 10
34.9224063378
 20
-40.4454482833
 11
35.0257753975
 21
-38.9788753902
  0
LINE
  5
4EF
100
AcDbEntity
  8
0
100
AcDbLine
 62
250
  6
CONTINUOUS
 10
34.8096967983
 20
-41.9213190557
 11
34.9224063378
 21
-40.4454482833
  0
LINE
  5
4F0
100
AcDbEntity
  8
0
100
AcDbLine
 62
250
  6
CONTINUOUS
 10
34.6875255271
 20
-43.4069642222
 11
34.8096967983
 21
-41.9213190557
  0
LWPOLYLINE
  5
4F1
100
AcDbEntity
  8
0
100
AcDbPolyline
 62
250
  6
CONTINUOUS
 90
10
 70
0
 10
34.6875321915
 20
-43.4069036712
 10
34.6589160605
 20
-43.7347248076
 10
34.628997216
 20
-44.0558153981
 10
34.5975631942
 20
-44.3700474393
 10
34.5643791294
 20
-44.6772768123
 10
34.5291045783
 20
-44.9772346174
 10
34.4913605089
 20
-45.2695888563
 10
34.4507549304
 20
-45.5540138095
 10
34.4066970353
 20
-45.8300304875
 10
34.3578165175
 20
-46.0964843567
  0
LWPOLYLINE
  5
4F2
100
AcDbEntity
  8
0
100
AcDbPolyline
 62
250
  6
CONTINUOUS
 90
17
 70
0
 10
21.8716368395
 20
-35.8691863797
 10
21.7970920451
 20
-36.0023759158
 10
21.7139353276
 20
-36.1233711855
 10
21.6229071899
 20
-36.2323653765
 10
21.5248952753
 20
-36.3289772571
 10
21.4203688277
 20
-36.4134154947
 10
21.3089237102
 20
-36.4853750512
 10
21.190973452
 20
-36.5450057022
 10
21.0672251665
 20
-36.5923966972
 10
20.9385722589
 20
-36.6269511525
 10
20.8053393996
 20
-36.6489177279
 10
20.6674205409
 20
-36.6584049834
 10
20.5246747771
 20
-36.6548151768
 10
20.3776336097
 20
-36.638362139
 10
20.2271442337
 20
-36.6090814966
 10
20.0742975004
 20
-36.5664635699
 10
19.9190555144
 20
-36.5104091754
  0
LWPOLYLINE
  5
4F3
100
AcDbEntity
  8
0
100
AcDbPolyline
 62
250
  6
CONTINUOUS
 90
41
 70
0
 10
19.5079938616
 20
-33.6749637026
 10
19.4738347643
 20
-33.703707469
 10
19.4400001762
 20
-33.7345360856
 10
19.4065327324
 20
-33.7673911188
 10
19.3737556939
 20
-33.8019717181
 10
19.3418213613
 20
-33.8381104086
 10
19.3107463239
 20
-33.8757926664
 10
19.2806339452
 20
-33.9149061659
 10
19.2515620441
 20
-33.9553485899
 10
19.2236004475
 20
-33.9970110501
 10
19.1968319997
 20
-34.0397600911
 10
19.1712400205
 20
-34.0836344206
 10
19.1469871446
 20
-34.1283782852
 10
19.1243754742
 20
-34.1733861911
 10
19.1034817635
 20
-34.2183590449
 10
19.0842242762
 20
-34.2633193749
 10
19.0666056699
 20
-34.3081221274
 10
19.0507157753
 20
-34.3523689418
 10
19.0364278411
 20
-34.3962303395
 10
19.0234870614
 20
-34.4404310967
 10
19.0118873029
 20
-34.4850235628
 10
19.0017418523
 20
-34.5297514293
 10
18.9930871831
 20
-34.5748747015
 10
18.9860320694
 20
-34.6205390543
 10
18.9806834804
 20
-34.6663500901
 10
18.9770535656
 20
-34.7117530417
 10
18.9750946097
 20
-34.7565094217
 10
18.9748786752
 20
-34.8005986203
 10
18.9765229588
 20
-34.843812345
 10
18.9800935198
 20
-34.8860187784
 10
18.9855472257
 20
-34.9271111843
 10
18.9928046997
 20
-34.966937969
 10
19.0018007979
 20
-35.0053649069
 10
19.0125381367
 20
-35.0423006286
 10
19.0250274547
 20
-35.0776579928
 10
19.0392515295
 20
-35.1113498304
 10
19.0551591472
 20
-35.1432398384
 10
19.0726912377
 20
-35.1731911037
 10
19.0917726395
 20
-35.2011152482
 10
19.1123221757
 20
-35.2269534842
 10
19.1342621846
 20
-35.250630426
  0
LWPOLYLINE
  5
4F4
100
AcDbEntity
  8
RACCORDO
100
AcDbPolyline
 62
7
  6
CONTINUOUS
 90
6
 70
0
 10
19.2687047138
 20
-31.281227902
 10
19.2847308047
 20
-31.2677794235
 10
19.2975025051
 20
-31.2521288716
 10
19.3071691488
 20
-31.234543583
 10
19.3139128151
 20
-31.2150598411
 10
19.3180618896
 20
-31.1940683451
  0
LINE
  5
4F5
100
AcDbEntity
  8
RACCORDO
100
AcDbLine
 62
7
  6
CONTINUOUS
 10
43.7427169045
 20
-17.4504039657
 11
42.9014002427
 21
-17.9580446454
  0
LINE
  5
4F6
100
AcDbEntity
  8
RACCORDO
100
AcDbLine
 62
7
  6
CONTINUOUS
 10
19.261691184
 20
-30.1595269056
 11
19.0271740742
 21
-30.2897557241
  0
LINE
  5
4F7
100
AcDbEntity
  8
DRAFT
100
AcDbLine
 62
7
  6
CONTINUOUS
 10
18.8261594087
 20
-30.4013804257
 11
18.6921496317
 21
-30.4757968934
  0
LINE
  5
4F8
100
AcDbEntity
  8
DRAFT
100
AcDbLine
 62
7
  6
CONTINUOUS
 10
18.4911349662
 20
-30.587421595
 11
18.3571251892
 21
-30.6618380628
  0
LINE
  5
4F9
100
AcDbEntity
  8
DRAFT
100
AcDbLine
 62
7
  6
CONTINUOUS
 10
18.1561105236
 20
-30.7734627644
 11
18.0320081544
 21
-30.8423775866
  0
LINE
  5
4FA
100
AcDbEntity
  8
RACCORDO
100
AcDbLine
 62
7
  6
CONTINUOUS
 10
19.261691184
 20
-31.2853599305
 11
19.0988387706
 21
-31.3757928947
  0
LINE
  5
4FB
100
AcDbEntity
  8
0
100
AcDbLine
 62
7
  6
CONTINUOUS
 10
12.6816459341
 20
-33.0294753653
 11
12.7029320412
 21
-33.0188323118
  0
LINE
  5
4FC
100
AcDbEntity
  8
0
100
AcDbLine
 62
7
  6
CONTINUOUS
 10
13.0918736564
 20
-33.2345039434
 11
13.1131610409
 21
-33.2238602511
  0
LINE
  5
4FD
100
AcDbEntity
  8
0
100
AcDbLine
 62
7
  6
CONTINUOUS
 10
13.9988219319
 20
-33.6877224256
 11
14.0201132836
 21
-33.6770767497
  0
LINE
  5
4FE
100
AcDbEntity
  8
0
100
AcDbLine
 62
7
  6
CONTINUOUS
 10
14.4090874001
 20
-33.8927321306
 11
14.4303807787
 21
-33.8820854413
  0
LINE
  5
4FF
100
AcDbEntity
  8
0
100
AcDbLine
 62
7
  6
CONTINUOUS
 10
14.6825841165
 20
-34.0294064084
 11
14.7038787591
 21
-34.0187590871
  0
LINE
  5
500
100
AcDbEntity
  8
0
100
AcDbLine
 62
7
  6
CONTINUOUS
 10
15.092829219
 20
-34.2344213465
 11
15.1141256418
 21
-34.2237731352
  0
LINE
  5
501
100
AcDbEntity
  8
0
100
AcDbLine
 62
7
  6
CONTINUOUS
 10
15.5030773878
 20
-34.4394191953
 11
15.5243758281
 21
-34.4287699751
  0
LINE
  5
502
100
AcDbEntity
  8
0
100
AcDbLine
 62
7
  6
CONTINUOUS
 10
16.1233216594
 20
-34.7493144481
 11
16.1446238563
 21
-34.7386633497
  0
LINE
  5
503
100
AcDbEntity
  8
0
100
AcDbLine
 62
7
  6
CONTINUOUS
 10
13.9701106688
 20
-35.9653922084
 11
13.9915037671
 21
-35.9546956592
  0
LWPOLYLINE
  5
504
100
AcDbEntity
  8
RACCORDO
100
AcDbPolyline
 62
7
  6
CONTINUOUS
 90
7
 70
0
 10
19.2687047138
 20
-30.1558696201
 10
19.2847308047
 20
-30.1490204432
 10
19.2975025051
 20
-30.1434450002
 10
19.3071691488
 20
-30.1394106281
 10
19.3139128151
 20
-30.1374780971
 10
19.3180618896
 20
-30.1375136194
 10
19.3191152822
 20
-30.1379167663
  0
LINE
  5
505
100
AcDbEntity
  8
RACCORDO
100
AcDbLine
 62
7
  6
CONTINUOUS
 10
42.9014002427
 20
-24.1193550129
 11
43.7427169045
 21
-23.8695068808
  0
LWPOLYLINE
  5
506
100
AcDbEntity
  8
0
100
AcDbPolyline
 62
250
  6
CONTINUOUS
 90
5
 70
0
 10
-42.526753067
 20
52.7290353922
 10
-42.5080223733
 20
52.7229996965
 10
-42.4893588321
 20
52.7182008443
 10
-42.4715128785
 20
52.7139413964
 10
-42.4551200725
 20
52.7098678818
  0
LWPOLYLINE
  5
507
100
AcDbEntity
  8
0
100
AcDbPolyline
 62
250
  6
CONTINUOUS
 90
10
 70
0
 10
33.9404974035
 20
7.5509440195
 10
33.9977612479
 20
7.3621616461
 10
34.0516513856
 20
7.1686033207
 10
34.1021301823
 20
6.9705055039
 10
34.1492848791
 20
6.7680256642
 10
34.1937280709
 20
6.5612789235
 10
34.2364145047
 20
6.350431974
 10
34.2783103099
 20
6.1354925379
 10
34.3191122681
 20
5.9164600557
 10
34.3578227882
 20
5.6935001324
  0
LWPOLYLINE
  5
508
100
AcDbEntity
  8
0
100
AcDbPolyline
 62
250
  6
CONTINUOUS
 90
9
 70
0
 10
39.4853958641
 20
9.8950884862
 10
39.4772962413
 20
10.0147257171
 10
39.4729558881
 20
10.0736655032
 10
39.4681518147
 20
10.1319747474
 10
39.4628348862
 20
10.1896577563
 10
39.4565232671
 20
10.2468686735
 10
39.4490960837
 20
10.3036279268
 10
39.4408324904
 20
10.3598135323
 10
39.4317914006
 20
10.4153793977
  0
LWPOLYLINE
  5
509
100
AcDbEntity
  8
0
100
AcDbPolyline
 62
250
  6
CONTINUOUS
 90
4
 70
0
 10
39.4987928354
 20
7.8966131952
 10
39.4900555076
 20
8.6066609806
 10
39.4881335684
 20
8.8335022528
 10
39.4873352249
 20
9.0552770905
  0
LINE
  5
50A
100
AcDbEntity
  8
0
100
AcDbLine
 62
250
  6
CONTINUOUS
 10
39.5400023037
 20
-7.7403890462
 11
39.4982752723
 21
7.8966782281
  0
LWPOLYLINE
  5
50B
100
AcDbEntity
  8
0
100
AcDbPolyline
 62
250
  6
CONTINUOUS
 90
3
 70
0
 10
39.4883876165
 20
-53.584879034
 10
39.487333547
 20
-53.1554955502
 10
39.4881300557
 20
-52.9347090899
  0
LINE
  5
50C
100
AcDbEntity
  8
0
100
AcDbLine
 62
250
  6
CONTINUOUS
 10
39.5487728244
 20
-19.6510712862
 11
39.5400023037
 21
-7.7403890462
  0
LINE
  5
50D
100
AcDbEntity
  8
RACCORDO
100
AcDbLine
 62
7
  6
CONTINUOUS
 10
42.5778770875
 20
-18.5329966988
 11
42.5778770875
 21
-23.8356906298
  0
LINE
  5
50E
100
AcDbEntity
  8
0
100
AcDbLine
 62
250
  6
CONTINUOUS
 10
39.5431792438
 20
-34.0451523463
 11
39.5487728244
 21
-19.6510712862
  0
LINE
  5
50F
100
AcDbEntity
  8
0
100
AcDbLine
 62
250
  6
CONTINUOUS
 10
39.5249044949
 20
-43.9733979711
 11
39.5431792438
 21
-34.0451523463
  0
LWPOLYLINE
  5
510
100
AcDbEntity
  8
0
100
AcDbPolyline
 62
250
  6
CONTINUOUS
 90
4
 70
0
 10
39.4873352249
 20
9.0552770905
 10
39.4883864669
 20
9.4837504669
 10
39.4882511902
 20
9.6912369333
 10
39.4853989897
 20
9.895090172
  0
LINE
  5
511
100
AcDbEntity
  8
0
100
AcDbLine
 62
250
  6
CONTINUOUS
 10
40.7301569221
 20
-54.0950382907
 11
40.7328334094
 21
10.063967697
  0
LINE
  5
512
100
AcDbEntity
  8
0
100
AcDbLine
 62
250
  6
CONTINUOUS
 10
39.4987927905
 20
-52.006253822
 11
39.5249044949
 21
-43.9733979711
  0
LWPOLYLINE
  5
513
100
AcDbEntity
  8
0
100
AcDbPolyline
 62
250
  6
CONTINUOUS
 90
10
 70
0
 10
40.7328348982
 20
-54.093821244
 10
40.7324450279
 20
-54.1515812154
 10
40.7309343246
 20
-54.2087093714
 10
40.7283032159
 20
-54.2651707982
 10
40.7245661021
 20
-54.3210232596
 10
40.7197072613
 20
-54.376137594
 10
40.7137022859
 20
-54.430211037
 10
40.7065666482
 20
-54.483134897
 10
40.6983342256
 20
-54.5349812338
 10
40.6890281924
 20
-54.5857325355
  0
LWPOLYLINE
  5
514
100
AcDbEntity
  8
0
100
AcDbPolyline
 62
250
  6
CONTINUOUS
 90
3
 70
0
 10
39.4881300557
 20
-52.9347090899
 10
39.4954892612
 20
-52.2455944428
 10
39.4987928189
 20
-52.0062538019
  0
LWPOLYLINE
  5
515
100
AcDbEntity
  8
0
100
AcDbPolyline
 62
250
  6
CONTINUOUS
 90
3
 70
0
 10
39.4853989721
 20
-53.9933787428
 10
39.4882502768
 20
-53.7922872208
 10
39.4883876165
 20
-53.584879034
  0
LWPOLYLINE
  5
516
100
AcDbEntity
  8
0
100
AcDbPolyline
 62
250
  6
CONTINUOUS
 90
10
 70
0
 10
39.4851915042
 20
-53.993523048
 10
39.4814596797
 20
-54.0510655844
 10
39.4774580996
 20
-54.1074517208
 10
39.4730365062
 20
-54.1623085954
 10
39.4682222781
 20
-54.2160127717
 10
39.462840909
 20
-54.2684530742
 10
39.4565444877
 20
-54.318968488
 10
39.4492274494
 20
-54.3675693669
 10
39.4409746717
 20
-54.4148739117
 10
39.4317695291
 20
-54.4611864096
  0
LWPOLYLINE
  5
517
100
AcDbEntity
  8
0
100
AcDbPolyline
 62
250
  6
CONTINUOUS
 90
10
 70
0
 10
34.357822774
 20
-46.096491023
 10
34.3188459777
 20
-46.2819493685
 10
34.2778315765
 20
-46.4609956332
 10
34.2358038156
 20
-46.6344851112
 10
34.1930836349
 20
-46.8026294149
 10
34.1486897958
 20
-46.9645475847
 10
34.1016167741
 20
-47.1193951178
 10
34.051243182
 20
-47.2665428189
 10
33.9975203894
 20
-47.4056744271
 10
33.9404973884
 20
-47.5366048072
  0
LWPOLYLINE
  5
518
100
AcDbEntity
  8
0
100
AcDbPolyline
 62
7
  6
CONTINUOUS
 90
33
 70
0
 10
21.3816905278
 20
-38.4925712954
 10
21.4060898989
 20
-38.4674694382
 10
21.4279929872
 20
-38.4391040704
 10
21.4472505189
 20
-38.4076517666
 10
21.4637896792
 20
-38.3732299369
 10
21.4776373404
 20
-38.3357986793
 10
21.4886676992
 20
-38.2955584083
 10
21.4967835105
 20
-38.252622835
 10
21.5019604944
 20
-38.2067449098
 10
21.5040381409
 20
-38.1579183
 10
21.5028374823
 20
-38.1064538962
 10
21.4982510593
 20
-38.0525619619
 10
21.4901208301
 20
-37.9963225709
 10
21.4783556671
 20
-37.9381542172
 10
21.4630701074
 20
-37.8788513266
 10
21.4442889562
 20
-37.818759366
 10
21.4220595808
 20
-37.7582259877
 10
21.3967381311
 20
-37.6980946671
 10
21.368574286
 20
-37.638872652
 10
21.3376827139
 20
-37.5807327948
 10
21.3043269874
 20
-37.5239966867
 10
21.2688209748
 20
-37.4691248834
 10
21.2312837406
 20
-37.4162239008
 10
21.1916454217
 20
-37.3651014429
 10
21.1497894709
 20
-37.3157253326
 10
21.1061717771
 20
-37.2687520872
 10
21.0616067203
 20
-37.2249571825
 10
21.0165545582
 20
-37.1846523828
 10
20.9710842936
 20
-37.1477815729
 10
20.9254771536
 20
-37.1144258831
 10
20.8799824195
 20
-37.0846499662
 10
20.8348162249
 20
-37.0585033856
 10
20.7901950534
 20
-37.0360060609
  0
LWPOLYLINE
  5
519
100
AcDbEntity
  8
0
100
AcDbPolyline
 62
250
  6
CONTINUOUS
 90
4
 70
0
 10
19.606890048
 20
-33.6036328593
 10
19.5763194558
 20
-33.6238982936
 10
19.5423213535
 20
-33.6483127768
 10
19.5079938616
 20
-33.6749637026
  0
LINE
  5
51A
100
AcDbEntity
  8
0
100
AcDbLine
 62
7
  6
CONTINUOUS
 10
16.889515161
 20
-35.1321098008
 11
16.9108226085
 21
-35.121456077
  0
LINE
  5
51B
100
AcDbEntity
  8
0
100
AcDbLine
 62
7
  6
CONTINUOUS
 10
17.5098996429
 20
-35.4419349485
 11
17.5312131215
 21
-35.4312782093
  0
LINE
  5
51C
100
AcDbEntity
  8
0
100
AcDbLine
 62
7
  6
CONTINUOUS
 10
15.3159525657
 20
-36.6344418437
 11
15.3373465388
 21
-36.6237448572
  0
LINE
  5
51D
100
AcDbEntity
  8
0
100
AcDbLine
 62
7
  6
CONTINUOUS
 10
16.1392883732
 20
-37.0430383123
 11
16.1606839663
 21
-37.0323405157
  0
LINE
  5
51E
100
AcDbEntity
  8
0
100
AcDbLine
 62
7
  6
CONTINUOUS
 10
18.4425472999
 20
-35.9074332026
 11
18.4638756511
 21
-35.8967690269
  0
LINE
  5
51F
100
AcDbEntity
  8
0
100
AcDbLine
 62
7
  6
CONTINUOUS
 10
18.85322686
 20
-36.1122507109
 11
18.874565381
 21
-36.1015814504
  0
LINE
  5
520
100
AcDbEntity
  8
0
100
AcDbLine
 62
7
  6
CONTINUOUS
 10
16.9403420509
 20
-37.4403918163
 11
16.9617400973
 21
-37.4296927931
  0
LINE
  5
521
100
AcDbEntity
  8
0
100
AcDbLine
 62
7
  6
CONTINUOUS
 10
19.7871051637
 20
-36.5771496032
 11
19.8084582552
 21
-36.5664730575
  0
LINE
  5
522
100
AcDbEntity
  8
0
100
AcDbLine
 62
7
  6
CONTINUOUS
 10
18.5858286312
 20
-37.3825770824
 11
18.6071868501
 21
-37.3718979729
  0
LINE
  5
523
100
AcDbEntity
  8
0
100
AcDbLine
 62
7
  6
CONTINUOUS
 10
17.7419716018
 20
-37.8374860894
 11
17.7633711735
 21
-37.8267863035
  0
LINE
  5
524
100
AcDbEntity
  8
0
100
AcDbLine
 62
7
  6
CONTINUOUS
 10
18.4291941514
 20
-38.1774287188
 11
18.4505959193
 21
-38.1667278349
  0
LINE
  5
525
100
AcDbEntity
  8
0
100
AcDbLine
 62
7
  6
CONTINUOUS
 10
20.7688796013
 20
-37.0466654212
 11
20.7901951766
 21
-37.0360076336
  0
LINE
  5
526
100
AcDbEntity
  8
0
100
AcDbLine
 62
7
  6
CONTINUOUS
 10
20.2978003082
 20
-37.8021113682
 11
20.3191620738
 21
-37.7914304854
  0
LWPOLYLINE
  5
527
100
AcDbEntity
  8
0
100
AcDbPolyline
 62
250
  6
CONTINUOUS
 90
10
 70
0
 10
39.4317914006
 20
10.4153793977
 10
39.40468759
 20
10.544642483
 10
39.3717893961
 20
10.6736320722
 10
39.3332422887
 20
10.80194941
 10
39.2892535631
 20
10.9291729422
 10
39.2399089938
 20
11.0549991046
 10
39.1851435461
 20
11.1792349084
 10
39.1250057995
 20
11.3015416817
 10
39.0598142656
 20
11.4210135887
 10
38.9897848436
 20
11.5370850138
  0
LWPOLYLINE
  5
528
100
AcDbEntity
  8
0
100
AcDbPolyline
 62
250
  6
CONTINUOUS
 90
19
 70
0
 10
40.6890282103
 20
10.6052333437
 10
40.6530626581
 20
10.7935240964
 10
40.6073078179
 20
10.9815560368
 10
40.5522624843
 20
11.1682870639
 10
40.488647579
 20
11.352278617
 10
40.4168865173
 20
11.5330475001
 10
40.3368885429
 20
11.7110154763
 10
40.2491434047
 20
11.8851698527
 10
40.1540863056
 20
12.054742469
 10
40.0512119104
 20
12.2203735327
 10
39.9410814296
 20
12.3808580164
 10
39.8239531982
 20
12.5354046233
 10
39.698531871
 20
12.6848168519
 10
39.5642723276
 20
12.8287806754
 10
39.4225154197
 20
12.9645999767
 10
39.2748616848
 20
13.0894267372
 10
39.122469075
 20
13.2016747865
 10
38.9659153169
 20
13.3006778353
 10
38.8061661214
 20
13.3853350617
  0
LWPOLYLINE
  5
529
100
AcDbEntity
  8
0
100
AcDbPolyline
 62
250
  6
CONTINUOUS
 90
10
 70
0
 10
40.6890282103
 20
10.6052333437
 10
40.6983313992
 20
10.5445769869
 10
40.7065623155
 20
10.4838634013
 10
40.713697523
 20
10.4231333203
 10
40.7197029168
 20
10.3623066443
 10
40.7245626949
 20
10.3015496092
 10
40.7283009167
 20
10.2412666039
 10
40.7309330857
 20
10.1816131277
 10
40.7324446294
 20
10.1225039355
 10
40.7328349163
 20
10.0639744797
  0
LWPOLYLINE
  5
52A
100
AcDbEntity
  8
0
100
AcDbPolyline
 62
7
  6
CONTINUOUS
 90
25
 70
0
 10
44.0662400597
 20
11.5645582905
 10
44.0616113417
 20
11.7356352873
 10
44.0482209838
 20
11.9089559944
 10
44.0260689861
 20
12.0845204118
 10
43.9949858552
 20
12.2630963751
 10
43.9551410844
 20
12.4439160487
 10
43.9070431536
 20
12.6246759251
 10
43.8505863941
 20
12.8053762927
 10
43.7858764747
 20
12.9860168631
 10
43.7137388819
 20
13.1642932632
 10
43.6340784585
 20
13.3401752044
 10
43.5469903618
 20
13.5136929754
 10
43.4535855499
 20
13.682633069
 10
43.3537830988
 20
13.8469368386
 10
43.2476639326
 20
14.0066629309
 10
43.1365817819
 20
14.1597737783
 10
43.020473066
 20
14.3061846305
 10
42.8994013656
 20
14.4459802377
 10
42.7749111543
 20
14.5773772829
 10
42.6469595235
 20
14.7002676483
 10
42.5155893818
 20
14.8147594518
 10
42.3824739274
 20
14.9193937298
 10
42.2481708931
 20
15.0136841614
 10
42.1121225462
 20
15.0981170677
 10
41.9743288867
 20
15.1726924486
  0
LINE
  5
52B
100
AcDbEntity
  8
RACCORDO
100
AcDbLine
 62
7
  6
CONTINUOUS
 10
44.0662400597
 20
-52.5931466393
 11
44.0662400597
 21
-24.1531712638
  0
LINE
  5
52C
100
AcDbEntity
  8
RACCORDO
100
AcDbLine
 62
7
  6
CONTINUOUS
 10
44.0662400597
 20
-16.8754519123
 11
44.0662400597
 21
11.5645582905
  0
LWPOLYLINE
  5
52D
100
AcDbEntity
  8
0
100
AcDbPolyline
 62
7
  6
CONTINUOUS
 90
16
 70
0
 10
44.0662400597
 20
-52.5931466393
 10
44.0616113423
 20
-52.7595949108
 10
44.0482209849
 20
-52.9195252545
 10
44.0260689875
 20
-53.0729376705
 10
43.9949858567
 20
-53.2204305017
 10
43.9551410858
 20
-53.3614054052
 10
43.907043155
 20
-53.4940673515
 10
43.8505863955
 20
-53.6183109597
 10
43.785876476
 20
-53.7342416107
 10
43.7137388832
 20
-53.8403804181
 10
43.6340784598
 20
-53.936601936
 10
43.546990363
 20
-54.0230316103
 10
43.4535855511
 20
-54.098566892
 10
43.3537830999
 20
-54.1630682106
 10
43.2476639337
 20
-54.2166751367
 10
43.2302913552
 20
-54.2241525774
  0
LWPOLYLINE
  5
52E
100
AcDbEntity
  8
0
100
AcDbPolyline
 62
7
  6
CONTINUOUS
 90
3
 70
0
 10
21.3385131713
 20
-38.5213360888
 10
21.3090326074
 20
-38.540697295
 10
21.2950076798
 20
-38.5482021057
  0
LWPOLYLINE
  5
52F
100
AcDbEntity
  8
0
100
AcDbPolyline
 62
7
  6
CONTINUOUS
 90
5
 70
0
 10
20.9572059383
 20
-38.0603211245
 10
20.9776655023
 20
-38.0473558012
 10
20.9958220957
 20
-38.0293233634
 10
21.0108009284
 20
-38.0063326565
 10
21.0220364633
 20
-37.9785857824
  0
LINE
  5
530
100
AcDbEntity
  8
0
100
AcDbLine
 62
7
  6
CONTINUOUS
 10
20.803561465
 20
-38.0482190747
 11
20.8249255774
 21
-38.0375370186
  0
LINE
  5
531
100
AcDbEntity
  8
0
100
AcDbLine
 62
7
  6
CONTINUOUS
 10
19.7557963921
 20
-38.8309745356
 11
19.7771933514
 21
-38.8202760559
  0
LINE
  5
532
100
AcDbEntity
  8
0
100
AcDbLine
 62
7
  6
CONTINUOUS
 10
21.3161510951
 20
-38.5376303992
 11
21.2947613715
 21
-38.548325261
  0
LINE
  5
533
100
AcDbEntity
  8
0
100
AcDbLine
 62
7
  6
CONTINUOUS
 10
20.447634188
 20
-39.1686137845
 11
20.469033079
 21
-39.157914339
  0
LINE
  5
534
100
AcDbEntity
  8
0
100
AcDbLine
 62
7
  6
CONTINUOUS
 10
21.6992853565
 20
-39.7737532208
 11
21.7206822883
 21
-39.7630547549
  0
LINE
  5
535
100
AcDbEntity
  8
0
100
AcDbLine
 62
7
  6
CONTINUOUS
 10
21.2950076798
 20
-38.5482021057
 11
21.2773120519
 21
-38.5563141172
  0
LINE
  5
536
100
AcDbEntity
  8
0
100
AcDbLine
 62
7
  6
CONTINUOUS
 10
21.2773120519
 20
-38.5563141172
 11
21.2435221755
 21
-38.5681115037
  0
LWPOLYLINE
  5
537
100
AcDbEntity
  8
0
100
AcDbPolyline
 62
250
  6
CONTINUOUS
 90
11
 70
0
 10
40.6890281924
 20
-54.5857325355
 10
40.6526651011
 20
-54.7383432359
 10
40.6060034167
 20
-54.8815862957
 10
40.5493729125
 20
-55.0147141812
 10
40.4831991249
 20
-55.1369967932
 10
40.407877187
 20
-55.2478743253
 10
40.3237385768
 20
-55.3469207131
 10
40.2313367967
 20
-55.4335746178
 10
40.1311664869
 20
-55.5074659526
 10
40.0234385779
 20
-55.568407537
 10
39.971138926
 20
-55.5921255222
  0
LWPOLYLINE
  5
538
100
AcDbEntity
  8
0
100
AcDbPolyline
 62
250
  6
CONTINUOUS
 90
10
 70
0
 10
39.4317695213
 20
-54.4611864149
 10
39.4045260379
 20
-54.5630607652
 10
39.3714023524
 20
-54.6585972637
 10
39.3325906242
 20
-54.7476630291
 10
39.2883715868
 20
-54.8298869003
 10
39.2389208719
 20
-54.9048106651
 10
39.1841904417
 20
-54.9725067185
 10
39.1242487161
 20
-55.032768386
 10
39.0593830769
 20
-55.0852744271
 10
38.9897684215
 20
-55.1298485684
  0
LWPOLYLINE
  5
539
100
AcDbEntity
  8
0
100
AcDbPolyline
 62
250
  6
CONTINUOUS
 90
10
 70
0
 10
33.2977777733
 20
-48.4090763708
 10
33.3771408924
 20
-48.3397317027
 10
33.4551207422
 20
-48.2637431577
 10
33.5312209018
 20
-48.1811704726
 10
33.605426499
 20
-48.0917139021
 10
33.6776751435
 20
-47.9952127703
 10
33.7477064616
 20
-47.8914395143
 10
33.8148546663
 20
-47.7804237451
 10
33.8793883773
 20
-47.6622405285
 10
33.9404891104
 20
-47.5365967478
  0
LWPOLYLINE
  5
53A
100
AcDbEntity
  8
0
100
AcDbPolyline
 62
250
  6
CONTINUOUS
 90
28
 70
0
 10
38.9897684215
 20
-55.1298485684
 10
38.9501207616
 20
-55.150043394
 10
38.9108921496
 20
-55.1672725831
 10
38.8722541791
 20
-55.1817906592
 10
38.8345064775
 20
-55.1938897652
 10
38.7976668949
 20
-55.2037797035
 10
38.7614678961
 20
-55.2115401293
 10
38.7260017471
 20
-55.2173054049
 10
38.6914674262
 20
-55.2213514179
 10
38.6577227569
 20
-55.2238921313
 10
38.6247826305
 20
-55.2250170279
 10
38.5927737639
 20
-55.2249354719
 10
38.5616554095
 20
-55.2239743541
 10
38.5315069355
 20
-55.2223488227
 10
38.5023069379
 20
-55.2200583924
 10
38.4738639358
 20
-55.2170701965
 10
38.4462064433
 20
-55.2134424566
 10
38.4194258479
 20
-55.2092991372
 10
38.39341284
 20
-55.2046797032
 10
38.3681029786
 20
-55.1995986166
 10
38.3435623825
 20
-55.1941740234
 10
38.3198382216
 20
-55.1885803738
 10
38.2968630674
 20
-55.1829419122
 10
38.2745250033
 20
-55.1771745497
 10
38.252773766
 20
-55.1711284784
 10
38.2315804075
 20
-55.16483401
 10
38.2110241565
 20
-55.1583393713
 10
38.1912706721
 20
-55.151545393
  0
LINE
  5
53B
100
AcDbEntity
  8
0
100
AcDbLine
 62
250
  6
CONTINUOUS
 10
40.7301569221
 20
-54.0950382907
 11
44.0662400597
 21
-52.5931908994
  0
LINE
  5
53C
100
AcDbEntity
  8
0
100
AcDbLine
 62
7
  6
CONTINUOUS
 10
43.230507123
 20
-54.2241344541
 11
39.964957509
 21
-55.5946976692
  0
ELLIPSE
  5
53D
100
AcDbEntity
  8
RACCORDO
100
AcDbEllipse
 62
7
  6
CONTINUOUS
 10
43.6941493167
 20
-17.0429599314
 30
0.0
 11
0.2435420976
 21
0.4370135969
 31
0.0
 40
0.6437239868
 41
-2.297140902
 42
-0.8572442691
  0
ELLIPSE
  5
53E
100
AcDbEntity
  8
RACCORDO
100
AcDbEllipse
 62
7
  6
CONTINUOUS
 10
-16.7096132937
 20
-12.3470797475
 30
0.0
 11
0.0974129977
 21
0.1748074534
 31
0.0
 40
0.6437101552
 41
0.6611775963
 42
0.7135374739
  0
ELLIPSE
  5
53F
100
AcDbEntity
  8
RACCORDO
100
AcDbEllipse
 62
7
  6
CONTINUOUS
 10
-0.799710717
 20
-20.5185373868
 30
0.0
 11
0.0974129977
 21
0.1748074534
 31
0.0
 40
0.6437101552
 41
0.6611775963
 42
0.7135374739
  0
ELLIPSE
  5
540
100
AcDbEntity
  8
RACCORDO
100
AcDbEllipse
 62
7
  6
CONTINUOUS
 10
15.1101918597
 20
-28.2569823242
 30
0.0
 11
0.0974129977
 21
0.1748074534
 31
0.0
 40
0.6437101552
 41
0.6611775963
 42
0.7135374739
  0
ELLIPSE
  5
541
100
AcDbEntity
  8
RACCORDO
100
AcDbEllipse
 62
7
  6
CONTINUOUS
 10
-12.5581139694
 20
-15.2022522731
 30
0.0
 11
0.0823576675
 21
0.1823694112
 31
0.0
 40
0.5796795686
 41
-2.4797587132
 42
-2.4273988356
  0
ELLIPSE
  5
542
100
AcDbEntity
  8
RACCORDO
100
AcDbEllipse
 62
7
  6
CONTINUOUS
 10
19.261691184
 20
-31.1121548498
 30
0.0
 11
0.0823576675
 21
0.1823694112
 31
0.0
 40
0.5796795686
 41
-2.4797587132
 42
-2.4273988356
  0
ELLIPSE
  5
543
100
AcDbEntity
  8
RACCORDO
100
AcDbEllipse
 62
7
  6
CONTINUOUS
 10
3.3517886073
 20
-23.1572035614
 30
0.0
 11
0.0823576675
 21
0.1823694112
 31
0.0
 40
0.5796795686
 41
-2.4797587132
 42
-2.4273988356
  0
ELLIPSE
  5
544
100
AcDbEntity
  8
RACCORDO
100
AcDbEllipse
 62
7
  6
CONTINUOUS
 10
42.9499678306
 20
-18.3654886797
 30
0.0
 11
0.2435420976
 21
0.4370135969
 31
0.0
 40
0.6437239868
 41
0.8444517516
 42
2.2843483845
  0
ELLIPSE
  5
545
100
AcDbEntity
  8
RACCORDO
100
AcDbEllipse
 62
7
  6
CONTINUOUS
 10
43.6941493167
 20
-24.3206792829
 30
0.0
 11
0.2435420976
 21
0.4370135969
 31
0.0
 40
0.6437239868
 41
5.4259410381
 42
6.865837671
  0
ELLIPSE
  5
546
100
AcDbEntity
  8
RACCORDO
100
AcDbEllipse
 62
7
  6
CONTINUOUS
 10
-12.5581139694
 20
-14.4228294097
 30
0.0
 11
0.0823576675
 21
0.1823694112
 31
0.0
 40
0.5796795686
 41
0.6094740628
 42
0.6618339404
  0
ELLIPSE
  5
547
100
AcDbEntity
  8
RACCORDO
100
AcDbEllipse
 62
7
  6
CONTINUOUS
 10
3.3517886073
 20
-22.5942870489
 30
0.0
 11
0.0823576675
 21
0.1823694112
 31
0.0
 40
0.5796795686
 41
0.6094740628
 42
0.6618339404
  0
ELLIPSE
  5
548
100
AcDbEntity
  8
RACCORDO
100
AcDbEllipse
 62
7
  6
CONTINUOUS
 10
19.261691184
 20
-30.3327319863
 30
0.0
 11
0.0823576675
 21
0.1823694112
 31
0.0
 40
0.5796795686
 41
0.6094740628
 42
0.6618339404
  0
ELLIPSE
  5
549
100
AcDbEntity
  8
RACCORDO
100
AcDbEllipse
 62
7
  6
CONTINUOUS
 10
42.9499678306
 20
-23.6681826108
 30
0.0
 11
0.2435420976
 21
0.4370135969
 31
0.0
 40
0.6437239868
 41
2.2843483845
 42
3.7242450174
  0
ENDSEC
  0
SECTION
  2
OBJECTS
  0
DICTIONARY
  5
C
100
AcDbDictionary
280
0
281
1
  3
ACAD_GROUP
350
D
  3
ACAD_MLINESTYLE
350
17
  3
ACAD_LAYOUT
350
1A
  3
ACAD_PLOTSETTINGS
350
19
  3
ACAD_PLOTSTYLENAME
350
E
  0
DICTIONARY
  5
D
102
{ACAD_REACTORS
330
C
102
}
100
AcDbDictionary
280
0
281
1
  0
ACDBDICTIONARYWDFLT
  5
E
102
{ACAD_REACTORS
330
C
102
}
100
AcDbDictionary
281
1
  3
Normal
350
F
100
AcDbDictionaryWithDefault
340
F
  0
DICTIONARY
  5
17
102
{ACAD_REACTORS
330
C
102
}
100
AcDbDictionary
280
0
281
1
  3
Standard
350
18
  0
DICTIONARY
  5
19
102
{ACAD_REACTORS
330
C
102
}
100
AcDbDictionary
281
1
  0
DICTIONARY
  5
1A
102
{ACAD_REACTORS
330
C
102
}
100
AcDbDictionary
281
1
  3
Model
350
54A
  3
Layout1
350
54B
  0
ACDBPLACEHOLDER
  5
F
102
{ACAD_REACTORS
330
E
102
}
  0
MLINESTYLE
  5
18
102
{ACAD_REACTORS
330
17
102
}
100
AcDbMlineStyle
  2
STANDARD
 70
0
  3

 62
256
 51
90.0
 52
90.0
 71
2
 49
0.5
 62
256
  6
BYLAYER
 49
-0.5
 62
256
  6
BYLAYER
  0
LAYOUT
  5
54A
102
{ACAD_REACTORS
330
1A
102
}
100
AcDbPlotSettings
  1

  2
none_device
  4
ANSI_C_(22.00_x_17.00_Inches)
  6

 40
0.0
 41
0.0
 42
0.0
 43
0.0
 44
558.8
 45
431.8
 46
0.0
 47
0.0
 48
0.0
 49
0.0
140
0.0
141
0.0
142
1.0
143
1.0
 70
1024
 72
1
 73
0
 74
0
  7

 75
0
147
1.0
148
0.0
149
0.0
100
AcDbLayout
  1
Model
 70
0
 71
0
 10
0.0
 20
0.0
 11
558.8
 21
431.8
 12
0.0
 22
0.0
 32
0.0
 14
0.0
 24
0.0
 34
0.0
 15
0.0
 25
0.0
 35
0.0
146
0.0
 13
0.0
 23
0.0
 33
0.0
 16
1.0
 26
0.0
 36
0.0
 17
0.0
 27
1.0
 37
0.0
 76
0
330
20F
345
0
346
0
  0
LAYOUT
  5
54B
102
{ACAD_REACTORS
330
1A
102
}
100
AcDbPlotSettings
  1

  2
none_device
  4
ANSI_C_(22.00_x_17.00_Inches)
  6

 40
0.0
 41
0.0
 42
0.0
 43
0.0
 44
558.8
 45
431.8
 46
0.0
 47
0.0
 48
0.0
 49
0.0
140
0.0
141
0.0
142
1.0
143
1.0
 70
0
 72
1
 73
0
 74
0
  7

 75
0
147
1.0
148
0.0
149
0.0
100
AcDbLayout
  1
Layout1
 70
0
 71
1
 10
0.0
 20
0.0
 11
558.8
 21
431.8
 12
0.0
 22
0.0
 32
0.0
 14
0.0
 24
0.0
 34
0.0
 15
0.0
 25
0.0
 35
0.0
146
0.0
 13
0.0
 23
0.0
 33
0.0
 16
1.0
 26
0.0
 36
0.0
 17
0.0
 27
1.0
 37
0.0
 76
0
330
210
345
0
346
0
  0
ENDSEC
  0
EOF
