  0
SECTION
  2
HEADER
  9
$ACADVER
  1
AC1024
  9
$DWGCODEPAGE
  3
ANSI_1252
  9
$EXTMAX
 10
297.0
 20
210.0
 30
0.0
  9
$EXTMIN
 10
0.0
 20
0.0
 30
0.0
  9
$LIMMIN
 10
0.0
 20
0.0
  9
$LIMMAX
 10
297.0
 20
210.0
  9
$VIEWCTR
 10
148.5
 20
105.0
  9
$VIEWSIZE
 40
210.0
  9
$CLAYER
  8
0
  9
$LTSCALE
 40
16.335
  9
$CELTYPE
  6
BYLAYER
  9
$DIMSCALE
 40
1.0
  9
$DIMASZ
 40
3.0
  9
$DIMEXO
 40
0.5
  9
$DIMDLI
 40
11.286
  9
$DIMEXE
 40
1.5
  9
$DIMCEN
 40
2.673
  9
$DIMLFAC
 40
1.0
  9
$DIMBLK
  1
_FILLED
  9
$DIMALT
 70
0
  9
$DIMALTF
 40
0.0393700787
  9
$DIMTXT
 40
3.0
  9
$DIMTOL
 70
1
  9
$DIMLIM
 70
0
  9
$DIMTFAC
 40
1.0
  9
$DIMTP
 40
0.01
  9
$DIMTM
 40
0.01
  9
$DIMGAP
 40
0.625
  9
$DIMDSEP
 70
44
  9
$AUNITS
 70
0
  9
$PDMODE
 70
3
  9
$PDSIZE
 40
3.0
  9
$HANDSEED
  5
412
  9
$TILEMODE
 70
1
  9
$MEASUREMENT
 70
1
  9
$INSUNITS
 70
4
  0
ENDSEC
  0
SECTION
  2
CLASSES
  0
CLASS
  1
ACDBDICTIONARYWDFLT
  2
AcDbDictionaryWithDefault
  3
AutoCAD 2000
 90
0
 91
1
280
0
281
0
  0
CLASS
  1
ACDBPLACEHOLDER
  2
AcDbPlaceHolder
  3
AutoCAD 2000
 90
0
 91
1
280
0
281
0
  0
CLASS
  1
LAYOUT
  2
AcDbLayout
  3
AutoCAD 2000
 90
0
 91
0
280
0
281
0
  0
ENDSEC
  0
SECTION
  2
TABLES
  0
TABLE
  2
VPORT
  5
8
100
AcDbSymbolTable
 70
2
  0
VPORT
  5
1F4
100
AcDbSymbolTableRecord
100
AcDbViewportTableRecord
  2
*ACTIVE
 70
0
 10
0.0
 20
0.0
 11
1.0
 21
1.0
 12
148.5
 22
105.0
 13
0.0
 23
0.0
 14
1.0
 24
1.0
 15
0.0
 25
0.0
 16
0.0
 26
0.0
 36
1.0
 17
0.0
 27
0.0
 37
0.0
 40
210.0
 41
1.4142857143
 42
50.0
 43
0.0
 44
0.0
 50
0.0
 51
0.0
 71
0
 72
100
 73
1
 74
1
 75
0
 76
0
 77
0
 78
0
  0
ENDTAB
  0
TABLE
  2
LTYPE
  5
5
100
AcDbSymbolTable
 70
6
  0
LTYPE
  5
14
100
AcDbSymbolTableRecord
100
AcDbLinetypeTableRecord
  2
BYBLOCK
 70
0
  3

 72
65
 73
0
 40
0.0
  0
LTYPE
  5
15
100
AcDbSymbolTableRecord
100
AcDbLinetypeTableRecord
  2
BYLAYER
 70
0
  3

 72
65
 73
0
 40
0.0
  0
LTYPE
  5
16
100
AcDbSymbolTableRecord
100
AcDbLinetypeTableRecord
  2
CONTINUOUS
 70
64
  3
Solid line
 72
65
 73
0
 40
0.0
  0
LTYPE
  5
1F5
100
AcDbSymbolTableRecord
100
AcDbLinetypeTableRecord
  2
CENTER
 70
64
  3
____ _ ____ _ ____ _ ____ _ ____ _ ____ _ ____
 72
65
 73
4
 40
0.6
 49
0.375
 74
0
 49
-0.075
 74
0
 49
0.075
 74
0
 49
-0.075
 74
0
  0
LTYPE
  5
1F6
100
AcDbSymbolTableRecord
100
AcDbLinetypeTableRecord
  2
HIDDEN
 70
64
  3
- - - - - - - - - - - - - - - - - - - -
 72
65
 73
2
 40
0.2
 49
0.1
 74
0
 49
-0.1
 74
0
  0
LTYPE
  5
1F7
100
AcDbSymbolTableRecord
100
AcDbLinetypeTableRecord
  2
PHANTOM
 70
64
  3
_____ _ _ _____ _ _ _____ _ _ _____
 72
65
 73
6
 40
0.8
 49
0.45
 74
0
 49
-0.05
 74
0
 49
0.1
 74
0
 49
-0.05
 74
0
 49
0.1
 74
0
 49
-0.05
 74
0
  0
LTYPE
  5
1F8
100
AcDbSymbolTableRecord
100
AcDbLinetypeTableRecord
  2
DOT
 70
64
  3
. . . . . . . . . . . . . . . . . . . .
 72
65
 73
2
 40
0.2
 49
0.1
 74
0
 49
-0.1
 74
0
  0
LTYPE
  5
1F9
100
AcDbSymbolTableRecord
100
AcDbLinetypeTableRecord
  2
DASHED
 70
64
  3
- - - - - - - - - - - - - - - - - - - -
 72
65
 73
2
 40
0.2
 49
0.1
 74
0
 49
-0.1
 74
0
  0
ENDTAB
  0
TABLE
  2
LAYER
  5
2
100
AcDbSymbolTable
 70
36
  0
LAYER
  5
10
100
AcDbSymbolTableRecord
100
AcDbLayerTableRecord
  2
0
 70
0
 62
7
  6
CONTINUOUS
370
-3
390
F
  0
LAYER
  5
1FA
100
AcDbSymbolTableRecord
100
AcDbLayerTableRecord
  2
DEFAULT_1
 70
0
 62
7
  6
CENTER
370
-3
390
F
  0
LAYER
  5
1FB
100
AcDbSymbolTableRecord
100
AcDbLayerTableRecord
  2
DEFAULT_2
 70
0
 62
7
  6
HIDDEN
370
-3
390
F
  0
LAYER
  5
1FC
100
AcDbSymbolTableRecord
100
AcDbLayerTableRecord
  2
DEFAULT_3
 70
0
 62
7
  6
PHANTOM
370
-3
390
F
  0
LAYER
  5
1FD
100
AcDbSymbolTableRecord
100
AcDbLayerTableRecord
  2
ASSI
 70
0
 62
7
  6
CONTINUOUS
370
-3
390
F
  0
LAYER
  5
1FE
100
AcDbSymbolTableRecord
100
AcDbLayerTableRecord
  2
COLOR5
 70
0
 62
7
  6
CONTINUOUS
370
-3
390
F
  0
LAYER
  5
1FF
100
AcDbSymbolTableRecord
100
AcDbLayerTableRecord
  2
COORDINATE
 70
0
 62
7
  6
CONTINUOUS
370
-3
390
F
  0
LAYER
  5
200
100
AcDbSymbolTableRecord
100
AcDbLayerTableRecord
  2
COORD_ORIGINE
 70
0
 62
7
  6
CONTINUOUS
370
-3
390
F
  0
LAYER
  5
201
100
AcDbSymbolTableRecord
100
AcDbLayerTableRecord
  2
CURVE
 70
0
 62
7
  6
CONTINUOUS
370
-3
390
F
  0
LAYER
  5
202
100
AcDbSymbolTableRecord
100
AcDbLayerTableRecord
  2
DRAFT
 70
0
 62
7
  6
CONTINUOUS
370
-3
390
F
  0
LAYER
  5
203
100
AcDbSymbolTableRecord
100
AcDbLayerTableRecord
  2
IGES
 70
0
 62
7
  6
CONTINUOUS
370
-3
390
F
  0
LAYER
  5
204
100
AcDbSymbolTableRecord
100
AcDbLayerTableRecord
  2
INTF_1
 70
0
 62
7
  6
CONTINUOUS
370
-3
390
F
  0
LAYER
  5
205
100
AcDbSymbolTableRecord
100
AcDbLayerTableRecord
  2
INTF_7
 70
0
 62
7
  6
CONTINUOUS
370
-3
390
F
  0
LAYER
  5
206
100
AcDbSymbolTableRecord
100
AcDbLayerTableRecord
  2
INTF_MAGENTA
 70
0
 62
7
  6
CONTINUOUS
370
-3
390
F
  0
LAYER
  5
207
100
AcDbSymbolTableRecord
100
AcDbLayerTableRecord
  2
NOTE
 70
0
 62
7
  6
CONTINUOUS
370
-3
390
F
  0
LAYER
  5
208
100
AcDbSymbolTableRecord
100
AcDbLayerTableRecord
  2
PIANI
 70
0
 62
7
  6
CONTINUOUS
370
-3
390
F
  0
LAYER
  5
209
100
AcDbSymbolTableRecord
100
AcDbLayerTableRecord
  2
PIANI_LIMITI_SUPERFICE_ANGOLO
 70
0
 62
7
  6
CONTINUOUS
370
-3
390
F
  0
LAYER
  5
20A
100
AcDbSymbolTableRecord
100
AcDbLayerTableRecord
  2
PIANI_ORIGINE
 70
0
 62
7
  6
CONTINUOUS
370
-3
390
F
  0
LAYER
  5
20B
100
AcDbSymbolTableRecord
100
AcDbLayerTableRecord
  2
PIANI_RIFERIMENTO
 70
0
 62
7
  6
CONTINUOUS
370
-3
390
F
  0
LAYER
  5
20C
100
AcDbSymbolTableRecord
100
AcDbLayerTableRecord
  2
PIANI_X_COSTR_SUP
 70
0
 62
7
  6
CONTINUOUS
370
-3
390
F
  0
LAYER
  5
20D
100
AcDbSymbolTableRecord
100
AcDbLayerTableRecord
  2
PUNTI
 70
0
 62
7
  6
CONTINUOUS
370
-3
390
F
  0
LAYER
  5
20E
100
AcDbSymbolTableRecord
100
AcDbLayerTableRecord
  2
RACCORDO
 70
0
 62
7
  6
CONTINUOUS
370
-3
390
F
  0
LAYER
  5
20F
100
AcDbSymbolTableRecord
100
AcDbLayerTableRecord
  2
RGB__255__255__255__
 70
0
 62
7
  6
CONTINUOUS
370
-3
390
F
  0
LAYER
  5
210
100
AcDbSymbolTableRecord
100
AcDbLayerTableRecord
  2
RGB____0____0____0__
 70
0
 62
7
  6
CONTINUOUS
370
-3
390
F
  0
LAYER
  5
211
100
AcDbSymbolTableRecord
100
AcDbLayerTableRecord
  2
SNAPLINE
 70
0
 62
7
  6
CONTINUOUS
370
-3
390
F
  0
LAYER
  5
212
100
AcDbSymbolTableRecord
100
AcDbLayerTableRecord
  2
SOLIDO
 70
0
 62
7
  6
CONTINUOUS
370
-3
390
F
  0
LAYER
  5
213
100
AcDbSymbolTableRecord
100
AcDbLayerTableRecord
  2
SUPERFICI
 70
0
 62
7
  6
CONTINUOUS
370
-3
390
F
  0
LAYER
  5
214
100
AcDbSymbolTableRecord
100
AcDbLayerTableRecord
  2
SUPERFICI1
 70
0
 62
7
  6
CONTINUOUS
370
-3
390
F
  0
LAYER
  5
215
100
AcDbSymbolTableRecord
100
AcDbLayerTableRecord
  2
TRASH
 70
0
 62
7
  6
CONTINUOUS
370
-3
390
F
  0
LAYER
  5
216
100
AcDbSymbolTableRecord
100
AcDbLayerTableRecord
  2
___SHELL
 70
0
 62
7
  6
CONTINUOUS
370
-3
390
F
  0
ENDTAB
  0
TABLE
  2
STYLE
  5
3
100
AcDbSymbolTable
 70
1
  0
STYLE
  5
11
100
AcDbSymbolTableRecord
100
AcDbTextStyleTableRecord
  2
STANDARD
 70
0
 40
0.0
 41
0.8
 50
0.0
 71
0
 42
0.2
  3
txt
  4

  0
STYLE
  5
217
100
AcDbSymbolTableRecord
100
AcDbTextStyleTableRecord
  2
TEXTSTYLE_1
 70
0
 40
0.0
 41
0.8
 50
0.0
 71
0
 42
0.2
  3
gdt
  4

  0
ENDTAB
  0
TABLE
  2
VIEW
  5
6
100
AcDbSymbolTable
 70
0
  0
ENDTAB
  0
TABLE
  2
UCS
  5
7
100
AcDbSymbolTable
 70
0
  0
ENDTAB
  0
TABLE
  2
APPID
  5
9
100
AcDbSymbolTable
 70
1
  0
APPID
  5
218
100
AcDbSymbolTableRecord
100
AcDbRegAppTableRecord
  2
ACAD
 70
0
  0
ENDTAB
  0
TABLE
  2
BLOCK_RECORD
  5
1
100
AcDbSymbolTable
 70
0
  0
BLOCK_RECORD
  5
219
100
AcDbSymbolTableRecord
100
AcDbBlockTableRecord
  2
*Model_Space
  0
BLOCK_RECORD
  5
21A
100
AcDbSymbolTableRecord
100
AcDbBlockTableRecord
  2
*Paper_Space
  0
BLOCK_RECORD
  5
21B
100
AcDbSymbolTableRecord
100
AcDbBlockTableRecord
  2
_FILLED
  0
ENDTAB
  0
TABLE
  2
DIMSTYLE
  5
A
100
AcDbSymbolTable
 70
1
100
AcDbDimStyleTable
 71
0
  0
DIMSTYLE
105
21C
100
AcDbSymbolTableRecord
100
AcDbDimStyleTableRecord
  2
STANDARD
 70
0
  3

  4

 40
1.0
 41
3.0
 42
0.5
 43
0.38
 44
1.5
 45
0.0
 46
0.0
 47
0.01
 48
0.01
140
3.0
141
0.09
142
0.0
143
25.4
144
1.0
145
0.0
146
1.0
147
0.625
 71
1
 72
0
 73
0
 74
0
 75
0
 76
0
 77
1
 78
8
 79
2
170
0
171
1
172
0
173
0
174
0
175
0
176
0
177
0
178
0
270
2
179
2
271
2
272
2
273
2
274
2
275
0
280
0
281
0
282
0
283
1
284
8
285
0
286
0
287
3
288
0
340
11
278
44
341
21B
342
21B
343
21B
344
21B
  0
ENDTAB
  0
ENDSEC
  0
SECTION
  2
BLOCKS
  0
BLOCK
  5
20
100
AcDbEntity
  8
0
100
AcDbBlockBegin
  2
*Model_Space
 70
0
 10
0.0
 20
0.0
 30
0.0
  3
*Model_Space
  1

  0
ENDBLK
  5
21
100
AcDbEntity
  8
0
100
AcDbBlockEnd
  0
BLOCK
  5
1C
100
AcDbEntity
  8
0
100
AcDbBlockBegin
  2
*Paper_Space
 70
0
 10
0.0
 20
0.0
 30
0.0
  3
*Paper_Space
  1

  0
ENDBLK
  5
1D
100
AcDbEntity
  8
0
100
AcDbBlockEnd
  0
BLOCK
  5
21D
100
AcDbEntity
  8
0
100
AcDbBlockBegin
  2
_FILLED
 70
64
 10
0.0
 20
0.0
  3
_FILLED
  1

  0
SOLID
  5
21E
100
AcDbEntity
  8
0
  6
BYBLOCK
 62
0
100
AcDbTrace
 10
0.0
 20
0.0
 11
-1.0
 21
0.3166666667
 12
-1.0
 22
-0.3166666667
 13
-1.0
 23
-0.3166666667
  0
ENDBLK
  5
21F
100
AcDbEntity
  8
0
  6
BYBLOCK
 62
0
100
AcDbBlockEnd
  0
ENDSEC
  0
SECTION
  2
ENTITIES
  0
LWPOLYLINE
  5
220
100
AcDbEntity
  8
SUPERFICI
100
AcDbPolyline
 62
7
  6
CONTINUOUS
 90
6
 70
0
 10
-54.7932367803
 20
44.6574716748
 10
-54.8620382494
 20
44.5489834929
 10
-54.9258805423
 20
44.4302837008
 10
-54.9812056148
 20
44.3066373025
 10
-55.0277170392
 20
44.1786640272
 10
-55.0608112613
 20
44.0642467745
  0
LINE
  5
221
100
AcDbEntity
  8
SUPERFICI
100
AcDbLine
 62
7
  6
CONTINUOUS
 10
-54.7929792541
 20
44.6574394603
 11
-52.948575964
 21
47.3443916199
  0
LWPOLYLINE
  5
222
100
AcDbEntity
  8
SUPERFICI
100
AcDbPolyline
 62
250
  6
CONTINUOUS
 90
13
 70
0
 10
-52.4625893514
 20
45.0784829641
 10
-52.51048686
 20
45.0099696955
 10
-52.557032378
 20
44.9342137445
 10
-52.601977711
 20
44.8518088775
 10
-52.6450453875
 20
44.7633894861
 10
-52.685727279
 20
44.6699984312
 10
-52.7234375725
 20
44.5728698368
 10
-52.7576814306
 20
44.47312977
 10
-52.7880650832
 20
44.3719794702
 10
-52.8141855945
 20
44.2707842575
 10
-52.8357315778
 20
44.1707237816
 10
-52.8525992695
 20
44.072556381
 10
-52.864718432
 20
43.9770025174
  0
LWPOLYLINE
  5
223
100
AcDbEntity
  8
SUPERFICI
100
AcDbPolyline
 62
250
  6
CONTINUOUS
 90
14
 70
0
 10
-54.7922122466
 20
44.6585581021
 10
-54.7702856818
 20
44.6895179961
 10
-54.6611000647
 20
44.8199817213
 10
-54.5349934616
 20
44.9357419025
 10
-54.3930767641
 20
45.0357417045
 10
-54.2364931983
 20
45.1191699866
 10
-54.0665524918
 20
45.1853265266
 10
-53.8848318765
 20
45.2335641811
 10
-53.6920211942
 20
45.2637065235
 10
-53.4904882508
 20
45.2752155547
 10
-53.2847775003
 20
45.2678312304
 10
-53.0777792868
 20
45.2423138332
 10
-52.8703767515
 20
45.1996785721
 10
-52.6642766703
 20
45.1409031
  0
LINE
  5
224
100
AcDbEntity
  8
0
100
AcDbLine
 62
250
  6
CONTINUOUS
 10
-52.6643439437
 20
45.1409254389
 11
-50.6336985636
 21
47.8733259629
  0
LWPOLYLINE
  5
225
100
AcDbEntity
  8
0
100
AcDbPolyline
 62
7
  6
CONTINUOUS
 90
16
 70
0
 10
-52.9485553605
 20
47.344376276
 10
-52.8872065834
 20
47.4268462327
 10
-52.7856124924
 20
47.5403212641
 10
-52.6723410731
 20
47.6423025957
 10
-52.5471971215
 20
47.732598092
 10
-52.4103758416
 20
47.8113998884
 10
-52.2641517348
 20
47.8773980069
 10
-52.10836762
 20
47.930378414
 10
-51.9431806783
 20
47.9705551431
 10
-51.7713369546
 20
47.9972603168
 10
-51.5927261607
 20
48.0102689697
 10
-51.4074585848
 20
48.0098060672
 10
-51.2186111356
 20
47.9958786275
 10
-51.0272094494
 20
47.96848899
 10
-50.83222789
 20
47.9276348153
 10
-50.6336664573
 20
47.8733161033
  0
LWPOLYLINE
  5
226
100
AcDbEntity
  8
SUPERFICI
100
AcDbPolyline
 62
7
  6
CONTINUOUS
 90
9
 70
0
 10
-55.0605524912
 20
44.0634839537
 10
-55.0720677126
 20
44.0155058816
 10
-55.0949033822
 20
43.8945047609
 10
-55.1101694016
 20
43.7727367821
 10
-55.1190770051
 20
43.6511732096
 10
-55.1229370204
 20
43.5307497953
 10
-55.1230989078
 20
43.4123578793
 10
-55.1206250573
 20
43.2956732778
 10
-55.111991067
 20
43.0650611168
  0
LINE
  5
227
100
AcDbEntity
  8
SUPERFICI
100
AcDbLine
 62
7
  6
CONTINUOUS
 10
-55.0609659715
 20
44.0636402505
 11
-55.0608112613
 21
44.0642467745
  0
LWPOLYLINE
  5
228
100
AcDbEntity
  8
SUPERFICI
100
AcDbPolyline
 62
250
  6
CONTINUOUS
 90
10
 70
0
 10
-54.6587404977
 20
43.3177358308
 10
-54.6697501303
 20
43.2747673121
 10
-54.6793479577
 20
43.2312053279
 10
-54.6875824669
 20
43.1867672284
 10
-54.6943996966
 20
43.1408941535
 10
-54.6999300628
 20
43.0935855233
 10
-54.7045483792
 20
43.0454528263
 10
-54.7084601499
 20
42.996614488
 10
-54.7116746862
 20
42.9467571302
 10
-54.7143931151
 20
42.8962258318
  0
LWPOLYLINE
  5
229
100
AcDbEntity
  8
SUPERFICI
100
AcDbPolyline
 62
250
  6
CONTINUOUS
 90
10
 70
0
 10
-54.1114178551
 20
43.9505396815
 10
-54.1976007485
 20
43.9060889249
 10
-54.2781814056
 20
43.854729968
 10
-54.3528547367
 20
43.7965575251
 10
-54.4212752145
 20
43.7316944511
 10
-54.4831269177
 20
43.6603549716
 10
-54.5381039821
 20
43.5828131524
 10
-54.585887857
 20
43.4996896714
 10
-54.6261912491
 20
43.4112699293
 10
-54.6587405047
 20
43.3177358243
  0
LWPOLYLINE
  5
22A
100
AcDbEntity
  8
SUPERFICI
100
AcDbPolyline
 62
250
  6
CONTINUOUS
 90
10
 70
0
 10
-48.9939261451
 20
36.5123781093
 10
-48.9228312269
 20
36.6250963026
 10
-48.8470056721
 20
36.7323358882
 10
-48.7673769834
 20
36.8342268548
 10
-48.6840673074
 20
36.9304381175
 10
-48.5970206083
 20
37.0210682758
 10
-48.506027522
 20
37.1066035264
 10
-48.4111407308
 20
37.1871549228
 10
-48.3127173021
 20
37.2625323342
 10
-48.2109458896
 20
37.3325986159
  0
LINE
  5
22B
100
AcDbEntity
  8
SUPERFICI
100
AcDbLine
 62
250
  6
CONTINUOUS
 10
-53.280243101
 20
-14.4101640834
 11
-53.2912667015
 21
-14.3027687843
  0
LWPOLYLINE
  5
22C
100
AcDbEntity
  8
SUPERFICI
100
AcDbPolyline
 62
250
  6
CONTINUOUS
 90
7
 70
0
 10
-53.2912639608
 20
-14.3027658709
 10
-53.2993114239
 20
-14.1143295018
 10
-53.3039450182
 20
-13.9240712127
 10
-53.3076346202
 20
-13.7314651435
 10
-53.3124182744
 20
-13.5361252862
 10
-53.3185872208
 20
-13.3378567154
 10
-53.3507565708
 20
-12.5129249979
  0
LINE
  5
22D
100
AcDbEntity
  8
SUPERFICI
100
AcDbLine
 62
7
  6
CONTINUOUS
 10
-55.111991067
 20
43.0650611168
 11
-55.1079457593
 21
42.9500439306
  0
LINE
  5
22E
100
AcDbEntity
  8
SUPERFICI
100
AcDbLine
 62
250
  6
CONTINUOUS
 10
-53.3503304989
 20
-12.51327202
 11
-53.5564891281
 21
-5.3003483465
  0
LINE
  5
22F
100
AcDbEntity
  8
SUPERFICI
100
AcDbLine
 62
7
  6
CONTINUOUS
 10
-53.7368221128
 20
-12.2742652207
 11
-53.7118312695
 21
-13.143578478
  0
LINE
  5
230
100
AcDbEntity
  8
SUPERFICI
100
AcDbLine
 62
250
  6
CONTINUOUS
 10
-53.5564891281
 20
-5.3003483465
 11
-53.7398210778
 21
1.4995456304
  0
LINE
  5
231
100
AcDbEntity
  8
SUPERFICI
100
AcDbLine
 62
7
  6
CONTINUOUS
 10
-55.1079457593
 20
42.9500439306
 11
-55.1013925161
 21
42.7145609427
  0
LINE
  5
232
100
AcDbEntity
  8
SUPERFICI
100
AcDbLine
 62
250
  6
CONTINUOUS
 10
-53.7398210778
 20
1.4995456304
 11
-53.904577246
 21
7.8632386557
  0
LWPOLYLINE
  5
233
100
AcDbEntity
  8
SUPERFICI
100
AcDbPolyline
 62
7
  6
CONTINUOUS
 90
3
 70
0
 10
-53.7118312695
 20
-13.143578478
 10
-53.7086287962
 20
-13.278489896
 10
-53.7061561627
 20
-13.4111553521
  0
LINE
  5
234
100
AcDbEntity
  8
SUPERFICI
100
AcDbLine
 62
250
  6
CONTINUOUS
 10
-54.3777240729
 20
27.1422442053
 11
-53.904577246
 21
7.8632386557
  0
LINE
  5
235
100
AcDbEntity
  8
SUPERFICI
100
AcDbLine
 62
7
  6
CONTINUOUS
 10
-53.9586624424
 20
-3.3343887799
 11
-53.7368221128
 21
-12.2742652207
  0
LINE
  5
236
100
AcDbEntity
  8
SUPERFICI
100
AcDbLine
 62
7
  6
CONTINUOUS
 10
-55.0913397852
 20
42.2203569372
 11
-53.9586624424
 21
-3.3343887799
  0
LINE
  5
237
100
AcDbEntity
  8
SUPERFICI
100
AcDbLine
 62
7
  6
CONTINUOUS
 10
-55.1013925161
 20
42.7145609427
 11
-55.0913397852
 21
42.2203569372
  0
LINE
  5
238
100
AcDbEntity
  8
SUPERFICI
100
AcDbLine
 62
250
  6
CONTINUOUS
 10
-54.6844839948
 20
41.1176032799
 11
-54.3777240729
 21
27.1422442053
  0
LWPOLYLINE
  5
239
100
AcDbEntity
  8
SUPERFICI
100
AcDbPolyline
 62
7
  6
CONTINUOUS
 90
8
 70
0
 10
-53.7061561627
 20
-13.4111553521
 10
-53.703143609
 20
-13.6696608144
 10
-53.7001918555
 20
-13.8005798082
 10
-53.694030782
 20
-13.9362638359
 10
-53.6831419015
 20
-14.0761718774
 10
-53.6658292965
 20
-14.217850149
 10
-53.6405988082
 20
-14.3590413099
 10
-53.6146257387
 20
-14.4678532346
  0
LINE
  5
23A
100
AcDbEntity
  8
SUPERFICI
100
AcDbLine
 62
250
  6
CONTINUOUS
 10
-54.6935579447
 20
41.9338070478
 11
-54.6849100863
 21
41.1179510908
  0
LWPOLYLINE
  5
23B
100
AcDbEntity
  8
SUPERFICI
100
AcDbPolyline
 62
250
  6
CONTINUOUS
 90
6
 70
0
 10
-54.7141845824
 20
42.8964084766
 10
-54.7129155633
 20
42.7103368913
 10
-54.7080866103
 20
42.5202156395
 10
-54.7021786987
 20
42.3270167364
 10
-54.6972395307
 20
42.1315144106
 10
-54.6935579447
 20
41.9338070478
  0
LWPOLYLINE
  5
23C
100
AcDbEntity
  8
SUPERFICI
100
AcDbPolyline
 62
250
  6
CONTINUOUS
 90
10
 70
0
 10
-49.4828964067
 20
35.1975821305
 10
-49.5385165407
 20
34.9543641993
 10
-49.5876153496
 20
34.7031622614
 10
-49.6318766801
 20
34.4449172292
 10
-49.672199035
 20
34.1800204673
 10
-49.7094568039
 20
33.9089705504
 10
-49.7443070451
 20
33.6323499526
 10
-49.7765459051
 20
33.3501949914
 10
-49.8064088133
 20
33.0625151741
 10
-49.8756968658
 20
32.3227604299
  0
LWPOLYLINE
  5
23D
100
AcDbEntity
  8
SUPERFICI
100
AcDbPolyline
 62
250
  6
CONTINUOUS
 90
10
 70
0
 10
-49.4828402611
 20
35.1977773048
 10
-49.4389658044
 20
35.3638247071
 10
-49.3923132971
 20
35.5248978805
 10
-49.3441138976
 20
35.6816631924
 10
-49.2947879638
 20
35.8343221397
 10
-49.2431019848
 20
35.9821322873
 10
-49.1877488948
 20
36.1243160828
 10
-49.1278524801
 20
36.2602809584
 10
-49.063252327
 20
36.3897105131
 10
-48.9939261444
 20
36.5123781087
  0
LWPOLYLINE
  5
23E
100
AcDbEntity
  8
SUPERFICI
100
AcDbPolyline
 62
250
  6
CONTINUOUS
 90
8
 70
0
 10
-53.614577726
 20
-14.468034762
 10
-53.5908024729
 20
-14.5292567684
 10
-53.5551896665
 20
-14.5833157333
 10
-53.5077715759
 20
-14.6321289235
 10
-53.4493003782
 20
-14.6751419534
 10
-53.380388506
 20
-14.7120580477
 10
-53.3016770857
 20
-14.7424995315
 10
-53.2138133213
 20
-14.7660674586
  0
LWPOLYLINE
  5
23F
100
AcDbEntity
  8
SUPERFICI
100
AcDbPolyline
 62
7
  6
CONTINUOUS
 90
45
 70
0
 10
-53.6145476258
 20
-14.4682496324
 10
-53.5974294834
 20
-14.5290459435
 10
-53.535834672
 20
-14.7127452019
 10
-53.4674729443
 20
-14.8780672894
 10
-53.3963964877
 20
-15.024195076
 10
-53.3250007775
 20
-15.1530652738
 10
-53.2535891331
 20
-15.2687891608
 10
-53.1843005445
 20
-15.3712980845
 10
-53.1181724601
 20
-15.4618021236
 10
-53.0523977112
 20
-15.5458122263
 10
-52.9863998476
 20
-15.6248852628
 10
-52.9216519072
 20
-15.6979787212
 10
-52.8577569404
 20
-15.7662189281
 10
-52.7949604094
 20
-15.8298791422
 10
-52.73359812
 20
-15.8891021937
 10
-52.673273961
 20
-15.9446698216
 10
-52.6141654955
 20
-15.9967301554
 10
-52.5564987339
 20
-16.0453660632
 10
-52.4998753933
 20
-16.091149181
 10
-52.4443898198
 20
-16.1341947763
 10
-52.3902179526
 20
-16.1745494731
 10
-52.3370487742
 20
-16.2126034521
 10
-52.2849399012
 20
-16.248444751
 10
-52.2340411793
 20
-16.2821119939
 10
-52.1841399849
 20
-16.3138910081
 10
-52.135264875
 20
-16.3438902424
 10
-52.0874874374
 20
-16.3721933621
 10
-52.0406465418
 20
-16.3990148799
 10
-51.9947817333
 20
-16.4244344954
 10
-51.9499311699
 20
-16.4484893718
 10
-51.9059149181
 20
-16.471290965
 10
-51.8627238186
 20
-16.4928556267
 10
-51.8204074857
 20
-16.5131880086
 10
-51.7788739994
 20
-16.5324068599
 10
-51.7381669075
 20
-16.5505693247
 10
-51.6982968121
 20
-16.5677427699
 10
-51.6591295396
 20
-16.5840407226
 10
-51.6206975185
 20
-16.5994841798
 10
-51.5830351702
 20
-16.6140910308
 10
-51.5460125089
 20
-16.6279392366
 10
-51.5094773506
 20
-16.6410992552
 10
-51.4735559597
 20
-16.6535217073
 10
-51.4385733374
 20
-16.6651234836
 10
-51.4049163702
 20
-16.6759539373
 10
-51.3071456433
 20
-16.7068762203
  0
LWPOLYLINE
  5
240
100
AcDbEntity
  8
SUPERFICI
100
AcDbPolyline
 62
250
  6
CONTINUOUS
 90
8
 70
0
 10
-53.2137931549
 20
-14.766047506
 10
-53.2268476194
 20
-14.7168563652
 10
-53.2388136862
 20
-14.6670824138
 10
-53.2496189377
 20
-14.6167603921
 10
-53.2589600101
 20
-14.5660229371
 10
-53.2669431834
 20
-14.5148101311
 10
-53.2740328933
 20
-14.4628744516
 10
-53.280243101
 20
-14.4101640834
  0
LWPOLYLINE
  5
241
100
AcDbEntity
  8
SUPERFICI
100
AcDbPolyline
 62
250
  6
CONTINUOUS
 90
7
 70
0
 10
-51.3597561345
 20
-16.5198308541
 10
-51.343681508
 20
-16.5804159155
 10
-51.3229813632
 20
-16.6318804897
 10
-51.2978267984
 20
-16.6738494899
 10
-51.2683554266
 20
-16.7059690741
 10
-51.2346930392
 20
-16.7278732983
 10
-51.2175445523
 20
-16.7345319085
  0
LINE
  5
242
100
AcDbEntity
  8
SUPERFICI
100
AcDbLine
 62
7
  6
CONTINUOUS
 10
-53.6146257387
 20
-14.4678532346
 11
-53.614577726
 21
-14.468034762
  0
LWPOLYLINE
  5
243
100
AcDbEntity
  8
SUPERFICI
100
AcDbPolyline
 62
250
  6
CONTINUOUS
 90
10
 70
0
 10
-49.3367093102
 20
-4.2400338025
 10
-49.5413857455
 20
-2.3581908208
 10
-49.7273738598
 20
-0.481377765
 10
-49.8946681542
 20
1.3902951065
 10
-50.0432663354
 20
3.2567603654
 10
-50.1731588852
 20
5.117865041
 10
-50.2843333437
 20
6.9733717877
 10
-50.3767862214
 20
8.8231295485
 10
-50.4505187167
 20
10.667072388
 10
-50.5055292839
 20
12.5050919373
  0
LWPOLYLINE
  5
244
100
AcDbEntity
  8
SUPERFICI
100
AcDbPolyline
 62
250
  6
CONTINUOUS
 90
10
 70
0
 10
-50.1582507904
 20
28.7846435052
 10
-50.2717300473
 20
27.0005031343
 10
-50.3664854226
 20
25.2099033595
 10
-50.4425168634
 20
23.4129528402
 10
-50.4998254242
 20
21.6097187301
 10
-50.5384091126
 20
19.8003505703
 10
-50.5582671788
 20
17.9850817556
 10
-50.5594036558
 20
16.164063615
 10
-50.5418230687
 20
14.3373639467
 10
-50.505529284
 20
12.5050919373
  0
LINE
  5
245
100
AcDbEntity
  8
SUPERFICI
100
AcDbLine
 62
250
  6
CONTINUOUS
 10
-50.1582515921
 20
28.7846413462
 11
-50.0952614592
 21
29.6631801593
  0
LINE
  5
246
100
AcDbEntity
  8
SUPERFICI
100
AcDbLine
 62
250
  6
CONTINUOUS
 10
-50.0952614592
 20
29.6631801593
 11
-50.0271967529
 21
30.5456707156
  0
LINE
  5
247
100
AcDbEntity
  8
SUPERFICI
100
AcDbLine
 62
250
  6
CONTINUOUS
 10
-50.0271967529
 20
30.5456707156
 11
-49.9540242413
 21
31.4321363922
  0
LINE
  5
248
100
AcDbEntity
  8
SUPERFICI
100
AcDbLine
 62
250
  6
CONTINUOUS
 10
-49.9540242413
 20
31.4321363922
 11
-49.8756968658
 21
32.3227604299
  0
LWPOLYLINE
  5
249
100
AcDbEntity
  8
SUPERFICI
100
AcDbPolyline
 62
250
  6
CONTINUOUS
 90
10
 70
0
 10
-52.626612842
 20
-15.73617018
 10
-52.7151047613
 20
-15.6405146364
 10
-52.7986942748
 20
-15.540939355
 10
-52.8769942513
 20
-15.4377959507
 10
-52.9494049143
 20
-15.3317650829
 10
-53.0156568602
 20
-15.2230895636
 10
-53.0755860179
 20
-15.1119086435
 10
-53.128874128
 20
-14.9984538499
 10
-53.1750767933
 20
-14.883055994
 10
-53.2137931549
 20
-14.766047506
  0
LWPOLYLINE
  5
24A
100
AcDbEntity
  8
SUPERFICI
100
AcDbPolyline
 62
250
  6
CONTINUOUS
 90
10
 70
0
 10
-48.3293696697
 20
-11.169928991
 10
-48.2764946788
 20
-11.3656889259
 10
-48.221048313
 20
-11.5581150525
 10
-48.1642472357
 20
-11.747123683
 10
-48.1065081482
 20
-11.9326603025
 10
-48.046615773
 20
-12.1147343898
 10
-47.9832819096
 20
-12.2933651529
 10
-47.9156465658
 20
-12.4684930717
 10
-47.8435627201
 20
-12.6398962117
 10
-47.7670190988
 20
-12.8073583142
  0
LWPOLYLINE
  5
24B
100
AcDbEntity
  8
SUPERFICI
100
AcDbPolyline
 62
250
  6
CONTINUOUS
 90
9
 70
0
 10
-48.3294365026
 20
-11.1696945491
 10
-48.3981070459
 20
-10.8883065261
 10
-48.4605561371
 20
-10.6028480764
 10
-48.5184463815
 20
-10.3132321746
 10
-48.5726704101
 20
-10.0193034865
 10
-48.6240911708
 20
-9.7210233761
 10
-48.6733466906
 20
-9.4185743965
 10
-48.7202281098
 20
-9.1121214731
 10
-48.7649739748
 20
-8.8015297992
  0
LINE
  5
24C
100
AcDbEntity
  8
SUPERFICI
100
AcDbLine
 62
250
  6
CONTINUOUS
 10
-48.8724172525
 20
-8.0075044128
 11
-48.7649739748
 21
-8.8015297992
  0
LINE
  5
24D
100
AcDbEntity
  8
SUPERFICI
100
AcDbLine
 62
250
  6
CONTINUOUS
 10
-48.9966031052
 20
-7.0546896893
 11
-48.8724172525
 21
-8.0075044128
  0
LINE
  5
24E
100
AcDbEntity
  8
SUPERFICI
100
AcDbLine
 62
250
  6
CONTINUOUS
 10
-49.1153462616
 20
-6.1092870086
 11
-48.9966031052
 21
-7.0546896893
  0
LINE
  5
24F
100
AcDbEntity
  8
SUPERFICI
100
AcDbLine
 62
250
  6
CONTINUOUS
 10
-49.2287036731
 20
-5.1710819466
 11
-49.1153462616
 21
-6.1092870086
  0
LINE
  5
250
100
AcDbEntity
  8
SUPERFICI
100
AcDbLine
 62
250
  6
CONTINUOUS
 10
-49.336710237
 20
-4.2400309329
 11
-49.2287036731
 21
-5.1710819466
  0
LWPOLYLINE
  5
251
100
AcDbEntity
  8
SUPERFICI
100
AcDbPolyline
 62
250
  6
CONTINUOUS
 90
16
 70
0
 10
-35.9845057712
 20
25.1811108085
 10
-35.8758862732
 20
25.3264743838
 10
-35.7514434712
 20
25.4586744024
 10
-35.6120662506
 20
25.577026292
 10
-35.4587480234
 20
25.6808669602
 10
-35.2923833708
 20
25.7695865275
 10
-35.1137409472
 20
25.8425878918
 10
-34.923720898
 20
25.8993413765
 10
-34.7237474371
 20
25.9395975781
 10
-34.5154130514
 20
25.9632888452
 10
-34.2999848642
 20
25.9702828378
 10
-34.0786951553
 20
25.960346238
 10
-33.8531654484
 20
25.9336352225
 10
-33.6248824704
 20
25.890483051
 10
-33.3951276084
 20
25.8311747372
 10
-33.0947233897
 20
25.7330873597
  0
LWPOLYLINE
  5
252
100
AcDbEntity
  8
SUPERFICI
100
AcDbPolyline
 62
250
  6
CONTINUOUS
 90
10
 70
0
 10
-46.9308603699
 20
-14.1248023637
 10
-47.034299391
 20
-13.9950798692
 10
-47.1357903411
 20
-13.8609076258
 10
-47.2347402507
 20
-13.7227543103
 10
-47.331183694
 20
-13.5803840296
 10
-47.4250755562
 20
-13.4337040678
 10
-47.5160604237
 20
-13.2827331044
 10
-47.6033535216
 20
-13.12802191
 10
-47.6873449338
 20
-12.9694217212
 10
-47.7670185722
 20
-12.8073594206
  0
LINE
  5
253
100
AcDbEntity
  8
SUPERFICI
100
AcDbLine
 62
250
  6
CONTINUOUS
 10
-36.2638944963
 20
24.4312818799
 11
-36.2610384527
 21
24.4500113003
  0
LWPOLYLINE
  5
254
100
AcDbEntity
  8
SUPERFICI
100
AcDbPolyline
 62
250
  6
CONTINUOUS
 90
7
 70
0
 10
-36.2610384527
 20
24.4500113003
 10
-36.2580810893
 20
24.4686129031
 10
-36.2565625692
 20
24.4778765197
 10
-36.2550088436
 20
24.4871003231
 10
-36.2534169925
 20
24.4962822727
 10
-36.2517885981
 20
24.5054324747
 10
-36.2501229773
 20
24.5145548862
  0
LWPOLYLINE
  5
255
100
AcDbEntity
  8
SUPERFICI
100
AcDbPolyline
 62
250
  6
CONTINUOUS
 90
10
 70
0
 10
-36.2501349691
 20
24.5145683174
 10
-36.2335016282
 20
24.5954681184
 10
-36.2135841085
 20
24.6749086481
 10
-36.1903969807
 20
24.7527982805
 10
-36.163928343
 20
24.8290989461
 10
-36.1342154446
 20
24.9036601405
 10
-36.1013684732
 20
24.9762347654
 10
-36.0654581111
 20
25.0466941682
 10
-36.0264917496
 20
25.1150122988
 10
-35.9845057712
 20
25.1811108085
  0
LWPOLYLINE
  5
256
100
AcDbEntity
  8
0
100
AcDbPolyline
 62
250
  6
CONTINUOUS
 90
31
 70
0
 10
-33.4263151437
 20
24.1817612727
 10
-33.4380459714
 20
24.1353374918
 10
-33.4490864971
 20
24.0887167771
 10
-33.4594123453
 20
24.041996082
 10
-33.4690517757
 20
23.9952307653
 10
-33.4779242266
 20
23.9485711091
 10
-33.4858522336
 20
23.902257424
 10
-33.4927784513
 20
23.8563985513
 10
-33.4987308078
 20
23.8110969118
 10
-33.5036781996
 20
23.7665752475
 10
-33.5076132113
 20
23.7229401947
 10
-33.5105288588
 20
23.6802889561
 10
-33.5124097735
 20
23.638817094
 10
-33.5132558244
 20
23.5986385856
 10
-33.5130683081
 20
23.5598225024
 10
-33.5118436378
 20
23.5224846202
 10
-33.5095819043
 20
23.4867288133
 10
-33.5062896663
 20
23.4526169541
 10
-33.5019724761
 20
23.4202005946
 10
-33.4966327503
 20
23.3895654752
 10
-33.4902680997
 20
23.360792306
 10
-33.4828704685
 20
23.333933786
 10
-33.4744406298
 20
23.3090839728
 10
-33.4649719584
 20
23.2863198329
 10
-33.4544494227
 20
23.2656616409
 10
-33.4429073641
 20
23.2471184764
 10
-33.4303939933
 20
23.2306988321
 10
-33.4169365818
 20
23.2163883145
 10
-33.4025707141
 20
23.2041954518
 10
-33.3873422989
 20
23.1941399615
 10
-33.3712906808
 20
23.186234062
  0
LWPOLYLINE
  5
257
100
AcDbEntity
  8
SUPERFICI
100
AcDbPolyline
 62
250
  6
CONTINUOUS
 90
16
 70
0
 10
-35.0910775461
 20
23.471522463
 10
-35.0587567656
 20
23.5958341627
 10
-35.0121095185
 20
23.7122918574
 10
-34.9514399136
 20
23.8199828245
 10
-34.877205531
 20
23.9181356881
 10
-34.7901123087
 20
24.0058407142
 10
-34.6910959589
 20
24.0821010443
 10
-34.5810366487
 20
24.1461371412
 10
-34.4607769224
 20
24.1974778182
 10
-34.3313723662
 20
24.2357666065
 10
-34.1939459924
 20
24.2607209552
 10
-34.0497483244
 20
24.2721587108
 10
-33.9000293273
 20
24.2699723651
 10
-33.7459744353
 20
24.2541777465
 10
-33.5886366771
 20
24.2248239264
 10
-33.4288144037
 20
24.1820059022
  0
LWPOLYLINE
  5
258
100
AcDbEntity
  8
SUPERFICI
100
AcDbPolyline
 62
250
  6
CONTINUOUS
 90
10
 70
0
 10
-33.4275920083
 20
24.1818450528
 10
-33.3771953163
 20
24.3599623012
 10
-33.3317857127
 20
24.5392711292
 10
-33.29154848
 20
24.7191148033
 10
-33.2567471481
 20
24.8993465469
 10
-33.2275049279
 20
25.0787008786
 10
-33.2036949931
 20
25.2548636538
 10
-33.1852845401
 20
25.4266454094
 10
-33.1724457737
 20
25.5939109253
 10
-33.1652598386
 20
25.7559999249
  0
LINE
  5
259
100
AcDbEntity
  8
0
100
AcDbLine
 62
250
  6
CONTINUOUS
 10
-33.3372491746
 20
23.1623144172
 11
-33.3279124824
 21
23.1722574096
  0
LWPOLYLINE
  5
25A
100
AcDbEntity
  8
0
100
AcDbPolyline
 62
250
  6
CONTINUOUS
 90
4
 70
0
 10
-33.3374218558
 20
23.1692507716
 10
-33.3619322763
 20
23.1446500514
 10
-33.3886582648
 20
23.1204532723
 10
-33.4175758529
 20
23.0967220171
  0
LINE
  5
25B
100
AcDbEntity
  8
0
100
AcDbLine
 62
250
  6
CONTINUOUS
 10
-33.4175758529
 20
23.0967220171
 11
-33.4487221762
 21
23.0734393724
  0
LWPOLYLINE
  5
25C
100
AcDbEntity
  8
SUPERFICI
100
AcDbPolyline
 62
250
  6
CONTINUOUS
 90
10
 70
0
 10
-36.2792037477
 20
24.0113539492
 10
-36.2820540351
 20
24.0570662345
 10
-36.283468727
 20
24.1031585789
 10
-36.2837116219
 20
24.1495264723
 10
-36.2829887609
 20
24.1961110167
 10
-36.2813222238
 20
24.2428814787
 10
-36.2786244327
 20
24.2897947668
 10
-36.2748058149
 20
24.3368384589
 10
-36.269905691
 20
24.3840147061
 10
-36.2638964318
 20
24.4312900944
  0
LINE
  5
25D
100
AcDbEntity
  8
SUPERFICI
100
AcDbLine
 62
250
  6
CONTINUOUS
 10
-35.4837613379
 20
-9.1999568969
 11
-35.44239178
 21
-9.8855023189
  0
LINE
  5
25E
100
AcDbEntity
  8
SUPERFICI
100
AcDbLine
 62
250
  6
CONTINUOUS
 10
-35.44239178
 20
-9.8855023189
 11
-35.4381019881
 21
-9.9635658225
  0
LINE
  5
25F
100
AcDbEntity
  8
SUPERFICI
100
AcDbLine
 62
250
  6
CONTINUOUS
 10
-35.5057754987
 20
-8.7920529174
 11
-35.4837613379
 21
-9.1999568969
  0
LWPOLYLINE
  5
260
100
AcDbEntity
  8
SUPERFICI
100
AcDbPolyline
 62
250
  6
CONTINUOUS
 90
5
 70
0
 10
-35.4381019881
 20
-9.9635658225
 10
-35.4306475929
 20
-10.1170951062
 10
-35.4275841482
 20
-10.1926447416
 10
-35.4255570189
 20
-10.2671958862
 10
-35.4229000423
 20
-10.4132879011
  0
LINE
  5
261
100
AcDbEntity
  8
SUPERFICI
100
AcDbLine
 62
250
  6
CONTINUOUS
 10
-35.5256004344
 20
-8.381343399
 11
-35.5057754987
 21
-8.7920529174
  0
LINE
  5
262
100
AcDbEntity
  8
SUPERFICI
100
AcDbLine
 62
250
  6
CONTINUOUS
 10
-35.5690806345
 20
-7.3286404785
 11
-35.6125349638
 21
-6.3496318111
  0
LINE
  5
263
100
AcDbEntity
  8
SUPERFICI
100
AcDbLine
 62
250
  6
CONTINUOUS
 10
-35.5433212443
 20
-7.9679485173
 11
-35.5256004344
 21
-8.381343399
  0
LWPOLYLINE
  5
264
100
AcDbEntity
  8
SUPERFICI
100
AcDbPolyline
 62
250
  6
CONTINUOUS
 90
5
 70
0
 10
-35.6125349638
 20
-6.3496318111
 10
-35.6255459708
 20
-6.0187613804
 10
-35.6356694903
 20
-5.6859967847
 10
-35.6435944449
 20
-5.3512434565
 10
-35.6498875117
 20
-5.0143060111
  0
LINE
  5
265
100
AcDbEntity
  8
SUPERFICI
100
AcDbLine
 62
250
  6
CONTINUOUS
 10
-35.6498875117
 20
-5.0143060111
 11
-35.7965446129
 21
-1.0484862466
  0
LINE
  5
266
100
AcDbEntity
  8
SUPERFICI
100
AcDbLine
 62
250
  6
CONTINUOUS
 10
-35.5449125328
 20
-7.9680792056
 11
-35.5690806345
 21
-7.3286404785
  0
LINE
  5
267
100
AcDbEntity
  8
SUPERFICI
100
AcDbLine
 62
250
  6
CONTINUOUS
 10
-35.7965446129
 20
-1.0484862466
 11
-35.8849635331
 21
1.5613331077
  0
LWPOLYLINE
  5
268
100
AcDbEntity
  8
SUPERFICI
100
AcDbPolyline
 62
250
  6
CONTINUOUS
 90
10
 70
0
 10
-34.2523301621
 20
-11.3273210342
 10
-34.251334832
 20
-11.3576188601
 10
-34.2496456122
 20
-11.3880676821
 10
-34.2472636878
 20
-11.418661266
 10
-34.2441899716
 20
-11.4493916829
 10
-34.2404260845
 20
-11.4802542777
 10
-34.2359737995
 20
-11.5112479266
 10
-34.2308339891
 20
-11.5423682854
 10
-34.225007182
 20
-11.5736075319
 10
-34.2184941546
 20
-11.6049595147
  0
LWPOLYLINE
  5
269
100
AcDbEntity
  8
SUPERFICI
100
AcDbPolyline
 62
250
  6
CONTINUOUS
 90
3
 70
0
 10
-36.272851359
 20
23.7927059408
 10
-36.277479864
 20
23.9394788445
 10
-36.2791996191
 20
24.0113582358
  0
LINE
  5
26A
100
AcDbEntity
  8
SUPERFICI
100
AcDbLine
 62
250
  6
CONTINUOUS
 10
-35.8849635331
 20
1.5613331077
 11
-35.9658750612
 21
4.1833500977
  0
LINE
  5
26B
100
AcDbEntity
  8
SUPERFICI
100
AcDbLine
 62
250
  6
CONTINUOUS
 10
-35.9658750612
 20
4.1833500977
 11
-36.0386709034
 21
6.8278313191
  0
LINE
  5
26C
100
AcDbEntity
  8
SUPERFICI
100
AcDbLine
 62
250
  6
CONTINUOUS
 10
-35.0420683217
 20
20.6938186769
 11
-35.1083742642
 21
23.2089486966
  0
LINE
  5
26D
100
AcDbEntity
  8
SUPERFICI
100
AcDbLine
 62
250
  6
CONTINUOUS
 10
-35.4229000423
 20
-10.4132879011
 11
-35.4210486333
 21
-10.4849636994
  0
LINE
  5
26E
100
AcDbEntity
  8
SUPERFICI
100
AcDbLine
 62
250
  6
CONTINUOUS
 10
-34.3080837715
 20
-8.8112304017
 11
-35.0420689107
 21
20.6938195025
  0
LINE
  5
26F
100
AcDbEntity
  8
SUPERFICI
100
AcDbLine
 62
250
  6
CONTINUOUS
 10
-34.3080831825
 20
-8.8112312259
 11
-34.2492527155
 21
-11.3263883436
  0
LINE
  5
270
100
AcDbEntity
  8
SUPERFICI
100
AcDbLine
 62
250
  6
CONTINUOUS
 10
-36.0973461891
 20
9.468282967
 11
-36.0386709035
 21
6.8278313191
  0
LINE
  5
271
100
AcDbEntity
  8
SUPERFICI
100
AcDbLine
 62
250
  6
CONTINUOUS
 10
-36.1466597401
 20
12.0811096457
 11
-36.0973461891
 21
9.468282967
  0
LWPOLYLINE
  5
272
100
AcDbEntity
  8
SUPERFICI
100
AcDbPolyline
 62
250
  6
CONTINUOUS
 90
10
 70
0
 10
-35.1114517811
 20
23.2080188343
 10
-35.1119675769
 20
23.2384658925
 10
-35.1117862382
 20
23.2686315231
 10
-35.1109086558
 20
23.2985101275
 10
-35.1093353281
 20
23.3280929733
 10
-35.1070676986
 20
23.3573775798
 10
-35.1041076039
 20
23.3863676393
 10
-35.1004557434
 20
23.4150605293
 10
-35.0961122308
 20
23.4434473917
 10
-35.0910775461
 20
23.471522463
  0
LINE
  5
273
100
AcDbEntity
  8
SUPERFICI
100
AcDbLine
 62
250
  6
CONTINUOUS
 10
-36.1877274058
 20
14.6764476945
 11
-36.1466597401
 21
12.0811096457
  0
LINE
  5
274
100
AcDbEntity
  8
SUPERFICI
100
AcDbLine
 62
250
  6
CONTINUOUS
 10
-36.2375934702
 20
18.6105505547
 11
-36.1877274058
 21
14.6764476945
  0
LWPOLYLINE
  5
275
100
AcDbEntity
  8
SUPERFICI
100
AcDbPolyline
 62
250
  6
CONTINUOUS
 90
5
 70
0
 10
-36.2666028523
 20
19.9428701161
 10
-36.2632360451
 20
19.6153781403
 10
-36.2568363352
 20
19.2839348632
 10
-36.2480998901
 20
18.948926088
 10
-36.2375934702
 20
18.6105505547
  0
LINE
  5
276
100
AcDbEntity
  8
SUPERFICI
100
AcDbLine
 62
250
  6
CONTINUOUS
 10
-36.2790144961
 20
21.5416668401
 11
-36.2715187287
 21
20.908267758
  0
LWPOLYLINE
  5
277
100
AcDbEntity
  8
SUPERFICI
100
AcDbPolyline
 62
250
  6
CONTINUOUS
 90
3
 70
0
 10
-36.2705076594
 20
23.6439605985
 10
-36.2711767702
 20
23.718453835
 10
-36.272851359
 20
23.7927059408
  0
LINE
  5
278
100
AcDbEntity
  8
SUPERFICI
100
AcDbLine
 62
250
  6
CONTINUOUS
 10
-36.2773886717
 20
21.5404092382
 11
-36.280097811
 21
21.9482662306
  0
LINE
  5
279
100
AcDbEntity
  8
SUPERFICI
100
AcDbLine
 62
250
  6
CONTINUOUS
 10
-36.2715187287
 20
20.908267758
 11
-36.2666028523
 21
19.9428701161
  0
LINE
  5
27A
100
AcDbEntity
  8
SUPERFICI
100
AcDbLine
 62
250
  6
CONTINUOUS
 10
-36.280097811
 20
21.9482662306
 11
-36.2805279358
 21
22.3517783373
  0
LWPOLYLINE
  5
27B
100
AcDbEntity
  8
SUPERFICI
100
AcDbPolyline
 62
250
  6
CONTINUOUS
 90
3
 70
0
 10
-36.27085235
 20
23.4173115293
 10
-36.270398916
 20
23.4934635873
 10
-36.2705076594
 20
23.6439605985
  0
LWPOLYLINE
  5
27C
100
AcDbEntity
  8
SUPERFICI
100
AcDbPolyline
 62
250
  6
CONTINUOUS
 90
10
 70
0
 10
-35.4210486333
 20
-10.4849636994
 10
-35.421336578
 20
-10.5302305654
 10
-35.4205554684
 20
-10.5761307526
 10
-35.4186628153
 20
-10.6226673877
 10
-35.415670534
 20
-10.6698054081
 10
-35.4116016052
 20
-10.7175830268
 10
-35.406478716
 20
-10.7661153381
 10
-35.4002862638
 20
-10.8154683632
 10
-35.3929901543
 20
-10.865647826
 10
-35.3845569395
 20
-10.9166986002
  0
LINE
  5
27D
100
AcDbEntity
  8
SUPERFICI
100
AcDbLine
 62
250
  6
CONTINUOUS
 10
-36.2805279358
 20
22.3517783373
 11
-36.2785836559
 21
22.7506520498
  0
LWPOLYLINE
  5
27E
100
AcDbEntity
  8
SUPERFICI
100
AcDbPolyline
 62
250
  6
CONTINUOUS
 90
3
 70
0
 10
-36.2785836559
 20
22.7506520498
 10
-36.274460048
 20
23.1451207424
 10
-36.27085235
 20
23.4173115293
  0
LINE
  5
27F
100
AcDbEntity
  8
0
100
AcDbLine
 62
7
  6
CONTINUOUS
 10
-33.3371946845
 20
23.1622965596
 11
-33.3366558418
 21
23.1749424108
  0
LWPOLYLINE
  5
280
100
AcDbEntity
  8
SUPERFICI
100
AcDbPolyline
 62
250
  6
CONTINUOUS
 90
10
 70
0
 10
-29.5875052625
 20
23.0006542342
 10
-29.5368063515
 20
23.1884325943
 10
-29.4908103655
 20
23.3769057459
 10
-29.4497184016
 20
23.5652866383
 10
-29.413629735
 20
23.7533585659
 10
-29.3828949587
 20
23.9396763489
 10
-29.3579392523
 20
24.1216626763
 10
-29.3388666427
 20
24.2980071385
 10
-29.3256368459
 20
24.468569214
 10
-29.3182944038
 20
24.6326472653
  0
LWPOLYLINE
  5
281
100
AcDbEntity
  8
SUPERFICI
100
AcDbPolyline
 62
250
  6
CONTINUOUS
 90
10
 70
0
 10
-31.3112589143
 20
23.5299341855
 10
-31.2620527555
 20
23.7121074369
 10
-31.2171701135
 20
23.8959015397
 10
-31.1768234947
 20
24.0805657731
 10
-31.1411228131
 20
24.2659089405
 10
-31.1104350098
 20
24.4504723526
 10
-31.0852091645
 20
24.6316233338
 10
-31.0655729586
 20
24.8079928758
 10
-31.0515076798
 20
24.9793809738
 10
-31.0430849867
 20
25.1449969818
  0
LWPOLYLINE
  5
282
100
AcDbEntity
  8
0
100
AcDbPolyline
 62
250
  6
CONTINUOUS
 90
42
 70
0
 10
-33.4487221762
 20
23.0734393724
 10
-33.482000258
 20
23.0507579148
 10
-33.5171427821
 20
23.0289794563
 10
-33.554040923
 20
23.0082122756
 10
-33.5926377693
 20
22.9884546124
 10
-33.6326896041
 20
22.9698141092
 10
-33.6740793445
 20
22.952336092
 10
-33.7167130165
 20
22.9360622012
 10
-33.7603533619
 20
22.9210714418
 10
-33.8048539934
 20
22.9074054077
 10
-33.850129223
 20
22.8950869191
 10
-33.8960220578
 20
22.884151813
 10
-33.9424018667
 20
22.8746305569
 10
-33.9891708054
 20
22.8665482349
 10
-34.03622116
 20
22.8599286107
 10
-34.0834200855
 20
22.8548013772
 10
-34.1306808326
 20
22.8511899753
 10
-34.1779674212
 20
22.8491154434
 10
-34.2251666497
 20
22.848611753
 10
-34.2721813371
 20
22.8497021548
 10
-34.3190132393
 20
22.8523624415
 10
-34.3655896856
 20
22.856560232
 10
-34.4118131053
 20
22.8622613274
 10
-34.4576493224
 20
22.869435628
 10
-34.5030160503
 20
22.8780617377
 10
-34.5478160977
 20
22.8881014995
 10
-34.5919878734
 20
22.899506812
 10
-34.635452297
 20
22.9122281466
 10
-34.6780962868
 20
22.9262578115
 10
-34.7198045052
 20
22.9416105209
 10
-34.7605053447
 20
22.9582944417
 10
-34.8000701979
 20
22.9762369011
 10
-34.8383066174
 20
22.9953201707
 10
-34.8751241886
 20
23.0154876029
 10
-34.9104277691
 20
23.0367105954
 10
-34.9440391177
 20
23.0588967249
 10
-34.9758976098
 20
23.0819669266
 10
-35.0059038421
 20
23.1059012326
 10
-35.0338603611
 20
23.1306762329
 10
-35.0596811578
 20
23.156239558
 10
-35.0833639773
 20
23.1825235857
 10
-35.1048668558
 20
23.2094724334
  0
LINE
  5
283
100
AcDbEntity
  8
0
100
AcDbLine
 62
250
  6
CONTINUOUS
 10
27.7884111852
 20
-30.0262817126
 11
27.7605700401
 21
-30.0321226237
  0
LWPOLYLINE
  5
284
100
AcDbEntity
  8
SUPERFICI
100
AcDbPolyline
 62
250
  6
CONTINUOUS
 90
10
 70
0
 10
29.0016943378
 20
-30.7501489712
 10
29.1955165394
 20
-30.7249665244
 10
29.3936360773
 20
-30.7081634907
 10
29.5949038349
 20
-30.6998727703
 10
29.7999463809
 20
-30.7008354855
 10
30.0058448786
 20
-30.7108595707
 10
30.2064270418
 20
-30.7278080212
 10
30.399381567
 20
-30.7501472142
 10
30.5858297054
 20
-30.7778622059
 10
30.765031574
 20
-30.8100745666
  0
LINE
  5
285
100
AcDbEntity
  8
SUPERFICI
100
AcDbLine
 62
250
  6
CONTINUOUS
 10
49.9825680532
 20
-47.6350968521
 11
50.0367448371
 21
-47.6457464023
  0
LWPOLYLINE
  5
286
100
AcDbEntity
  8
SUPERFICI
100
AcDbPolyline
 62
250
  6
CONTINUOUS
 90
17
 70
0
 10
50.0367448371
 20
-47.6457464023
 10
50.143931635
 20
-47.6678263212
 10
50.2013005301
 20
-47.6777242712
 10
50.2607776692
 20
-47.6860519847
 10
50.3209183997
 20
-47.6929348807
 10
50.3818355393
 20
-47.6984185939
 10
50.4443254768
 20
-47.7022218234
 10
50.5082612614
 20
-47.7042128494
 10
50.5732065139
 20
-47.704216555
 10
50.6390337966
 20
-47.7019285459
 10
50.7058660103
 20
-47.6969829018
 10
50.7734276439
 20
-47.6890261896
 10
50.8414727499
 20
-47.6778210436
 10
50.9099912958
 20
-47.6630601627
 10
50.9787364529
 20
-47.6444164668
 10
51.0471885354
 20
-47.621573552
 10
51.1149505654
 20
-47.5942247954
  0
LWPOLYLINE
  5
287
100
AcDbEntity
  8
SUPERFICI
100
AcDbPolyline
 62
250
  6
CONTINUOUS
 90
3
 70
0
 10
-51.4666381249
 20
-16.481026551
 10
-51.5225520979
 20
-16.4578682942
 10
-51.6311665207
 20
-16.4136777448
  0
LWPOLYLINE
  5
288
100
AcDbEntity
  8
SUPERFICI
100
AcDbPolyline
 62
250
  6
CONTINUOUS
 90
16
 70
0
 10
-51.6311665207
 20
-16.4136777448
 10
-51.6893010103
 20
-16.3881057222
 10
-51.7497647396
 20
-16.3596007548
 10
-51.8109113443
 20
-16.3292374828
 10
-51.8728370675
 20
-16.2969973406
 10
-51.9364340533
 20
-16.2620804951
 10
-52.0015685012
 20
-16.2244353006
 10
-52.0677954079
 20
-16.1841573045
 10
-52.1350260981
 20
-16.1410084785
 10
-52.2034374974
 20
-16.0945308286
 10
-52.2727904531
 20
-16.0445289697
 10
-52.3428403317
 20
-15.9909161892
 10
-52.4135813036
 20
-15.933390057
 10
-52.4847758098
 20
-15.8717722435
 10
-52.5559170145
 20
-15.8060615799
 10
-52.6266152551
 20
-15.736193013
  0
LWPOLYLINE
  5
289
100
AcDbEntity
  8
0
100
AcDbPolyline
 62
250
  6
CONTINUOUS
 90
46
 70
0
 10
-34.2457453075
 20
-11.325864594
 10
-34.2242645204
 20
-11.3520030607
 10
-34.2005968648
 20
-11.3777385607
 10
-34.1747841013
 20
-11.4030151476
 10
-34.1468257788
 20
-11.4278596312
 10
-34.1168102251
 20
-11.452125046
 10
-34.0849423448
 20
-11.4755044116
 10
-34.05132367
 20
-11.4978899319
 10
-34.016012591
 20
-11.5192902721
 10
-33.9791884451
 20
-11.5395928719
 10
-33.9409471437
 20
-11.5587382182
 10
-33.9013784042
 20
-11.5767005743
 10
-33.8606737289
 20
-11.5934349354
 10
-33.8189605671
 20
-11.6089277427
 10
-33.7763118808
 20
-11.6231282285
 10
-33.7328459054
 20
-11.6359468595
 10
-33.6886776097
 20
-11.6473240551
 10
-33.6438843317
 20
-11.6572624531
 10
-33.5985250435
 20
-11.6657656925
 10
-33.5526962694
 20
-11.6728095583
 10
-33.5064809029
 20
-11.6783587101
 10
-33.4599123328
 20
-11.6823927854
 10
-33.4130879892
 20
-11.684877268
 10
-33.3660806209
 20
-11.6857799944
 10
-33.3188879992
 20
-11.6850872122
 10
-33.2716072674
 20
-11.6828232919
 10
-33.2243516372
 20
-11.6790209249
 10
-33.1771566994
 20
-11.6737079593
 10
-33.1301087087
 20
-11.6669078025
 10
-33.0833410608
 20
-11.6586499745
 10
-33.0369626332
 20
-11.6489649441
 10
-32.9910715854
 20
-11.6378758245
 10
-32.9457982321
 20
-11.6254151421
 10
-32.901299714
 20
-11.6116316445
 10
-32.8576620488
 20
-11.5965473272
 10
-32.8150311791
 20
-11.58020477
 10
-32.7736433522
 20
-11.5626985915
 10
-32.7335927098
 20
-11.54406386
 10
-32.6949961067
 20
-11.5243524998
 10
-32.658095765
 20
-11.5037074188
 10
-32.6229467175
 20
-11.4822045015
 10
-32.5896597597
 20
-11.4598743056
 10
-32.5585066542
 20
-11.4368207607
 10
-32.5295860108
 20
-11.4131304132
 10
-32.5028594146
 20
-11.3888522264
 10
-32.4783510192
 20
-11.3640477229
  0
LWPOLYLINE
  5
28A
100
AcDbEntity
  8
SUPERFICI
100
AcDbPolyline
 62
250
  6
CONTINUOUS
 90
10
 70
0
 10
-34.2492527155
 20
-11.3263883436
 10
-34.3342521322
 20
-11.2171535746
 10
-34.4316635221
 20
-11.1111860222
 10
-34.541016102
 20
-11.0083359636
 10
-34.6627522621
 20
-10.9094015923
 10
-34.7963806596
 20
-10.8151821119
 10
-34.9397447764
 20
-10.7255534454
 10
-35.0915994572
 20
-10.6404022254
 10
-35.2521530947
 20
-10.5601676225
 10
-35.4209757369
 20
-10.4849958029
  0
LWPOLYLINE
  5
28B
100
AcDbEntity
  8
SUPERFICI
100
AcDbPolyline
 62
250
  6
CONTINUOUS
 90
16
 70
0
 10
-35.0634420598
 20
-11.8442038949
 10
-34.9458968691
 20
-12.0576391515
 10
-34.8129414038
 20
-12.2676348268
 10
-34.6655122269
 20
-12.4729589344
 10
-34.50465097
 20
-12.6723362118
 10
-34.3312962081
 20
-12.8646080647
 10
-34.1462579446
 20
-13.0487094159
 10
-33.9504757667
 20
-13.2235844573
 10
-33.7454074445
 20
-13.3881336804
 10
-33.5326730085
 20
-13.5413175215
 10
-33.3135649208
 20
-13.6822497505
 10
-33.0893447901
 20
-13.8099847047
 10
-32.8616494431
 20
-13.9237510522
 10
-32.631969453
 20
-14.0230609162
 10
-32.4015892534
 20
-14.1075068232
 10
-32.1013854763
 20
-14.1975367609
  0
LWPOLYLINE
  5
28C
100
AcDbEntity
  8
SUPERFICI
100
AcDbPolyline
 62
250
  6
CONTINUOUS
 90
16
 70
0
 10
-34.2184941546
 20
-11.6049595147
 10
-34.1794562382
 20
-11.7506661302
 10
-34.1262637864
 20
-11.8973153881
 10
-34.059271398
 20
-12.0437903873
 10
-33.9789824043
 20
-12.1890233849
 10
-33.8861592459
 20
-12.3316527875
 10
-33.7818020362
 20
-12.4700866377
 10
-33.6668435892
 20
-12.6029881449
 10
-33.542163046
 20
-12.7293573652
 10
-33.4088501018
 20
-12.8481796383
 10
-33.2680592382
 20
-12.9584724954
 10
-33.1210692998
 20
-13.0592796268
 10
-32.9691547466
 20
-13.1497238799
 10
-32.8135183923
 20
-13.2290907974
 10
-32.6552270135
 20
-13.2967786669
 10
-32.495086468
 20
-13.3523907309
  0
LWPOLYLINE
  5
28D
100
AcDbEntity
  8
SUPERFICI
100
AcDbPolyline
 62
250
  6
CONTINUOUS
 90
10
 70
0
 10
-35.3664279722
 20
-11.0090651327
 10
-35.3455010446
 20
-11.1007607744
 10
-35.3213121478
 20
-11.1930228954
 10
-35.2938806486
 20
-11.2857503279
 10
-35.2631963437
 20
-11.378912863
 10
-35.2293045822
 20
-11.4723354037
 10
-35.1923296285
 20
-11.5656991814
 10
-35.1523496887
 20
-11.6588304102
 10
-35.1093735489
 20
-11.7516990677
 10
-35.0634420598
 20
-11.8442038949
  0
LINE
  5
28E
100
AcDbEntity
  8
SUPERFICI
100
AcDbLine
 62
250
  6
CONTINUOUS
 10
-35.3706730372
 20
-10.9886384169
 11
-35.3664161508
 21
-11.0090717148
  0
LINE
  5
28F
100
AcDbEntity
  8
SUPERFICI
100
AcDbLine
 62
250
  6
CONTINUOUS
 10
-35.374785884
 20
-10.9681614272
 11
-35.3706730372
 21
-10.9886384169
  0
LINE
  5
290
100
AcDbEntity
  8
SUPERFICI
100
AcDbLine
 62
250
  6
CONTINUOUS
 10
-35.378767875
 20
-10.9476186795
 11
-35.374785884
 21
-10.9681614272
  0
LWPOLYLINE
  5
291
100
AcDbEntity
  8
SUPERFICI
100
AcDbPolyline
 62
250
  6
CONTINUOUS
 90
3
 70
0
 10
-35.3845571541
 20
-10.9166983137
 10
-35.3826512952
 20
-10.9270269585
 10
-35.378767875
 20
-10.9476186795
  0
LWPOLYLINE
  5
292
100
AcDbEntity
  8
SUPERFICI
100
AcDbPolyline
 62
250
  6
CONTINUOUS
 90
10
 70
0
 10
-28.3222038517
 20
-15.4088216358
 10
-28.3372613214
 20
-15.270159334
 10
-28.3581644409
 20
-15.1402374398
 10
-28.3847908773
 20
-15.0195921548
 10
-28.4171358439
 20
-14.9084051154
 10
-28.4549938545
 20
-14.8076473458
 10
-28.4977766475
 20
-14.7187168881
 10
-28.5450323514
 20
-14.6420546056
 10
-28.5966273587
 20
-14.5775073111
 10
-28.6523001858
 20
-14.5252181305
  0
LINE
  5
293
100
AcDbEntity
  8
0
100
AcDbLine
 62
250
  6
CONTINUOUS
 10
-33.3372491746
 20
23.1623144172
 11
-32.4785237121
 21
-11.3571006055
  0
LINE
  5
294
100
AcDbEntity
  8
0
100
AcDbLine
 62
7
  6
CONTINUOUS
 10
-31.8517302691
 20
-10.6895076887
 11
-32.6891628465
 21
22.9761035604
  0
LINE
  5
295
100
AcDbEntity
  8
0
100
AcDbLine
 62
250
  6
CONTINUOUS
 10
27.7605700401
 20
-30.0321226237
 11
27.7307599789
 21
-30.0341237117
  0
LWPOLYLINE
  5
296
100
AcDbEntity
  8
0
100
AcDbPolyline
 62
7
  6
CONTINUOUS
 90
3
 70
0
 10
27.7148897657
 20
-30.0629248249
 10
27.6806964849
 20
-30.0629019373
 10
27.6445276774
 20
-30.0583627439
  0
LWPOLYLINE
  5
297
100
AcDbEntity
  8
SUPERFICI
100
AcDbPolyline
 62
250
  6
CONTINUOUS
 90
5
 70
0
 10
39.7536725941
 20
-42.3484146058
 10
38.8329358021
 20
-42.1498057595
 10
37.8788050073
 20
-41.9207800291
 10
36.8916482429
 20
-41.6638396473
 10
35.8720516033
 20
-41.381449566
  0
LINE
  5
298
100
AcDbEntity
  8
SUPERFICI
100
AcDbLine
 62
250
  6
CONTINUOUS
 10
35.8720516033
 20
-41.381449566
 11
33.7395458527
 21
-40.7724984415
  0
LWPOLYLINE
  5
299
100
AcDbEntity
  8
SUPERFICI
100
AcDbPolyline
 62
250
  6
CONTINUOUS
 90
3
 70
0
 10
48.3159655241
 20
-47.1574897314
 10
49.5822438659
 20
-47.5227150339
 10
49.8775250789
 20
-47.6091382495
  0
LINE
  5
29A
100
AcDbEntity
  8
SUPERFICI
100
AcDbLine
 62
250
  6
CONTINUOUS
 10
33.7395458527
 20
-40.7724984415
 11
31.4844830877
 21
-40.1176590416
  0
LWPOLYLINE
  5
29B
100
AcDbEntity
  8
SUPERFICI
100
AcDbPolyline
 62
7
  6
CONTINUOUS
 90
23
 70
0
 10
50.1974940643
 20
-47.8771914212
 10
50.2582751881
 20
-47.8949117928
 10
50.322407164
 20
-47.9123240954
 10
50.3913915424
 20
-47.9293395535
 10
50.4657888871
 20
-47.9458011035
 10
50.5451320285
 20
-47.961230697
 10
50.6299504259
 20
-47.9752506703
 10
50.7203661978
 20
-47.9871623555
 10
50.8160659665
 20
-47.9962688374
 10
50.9171016103
 20
-48.0022380721
 10
51.0227791893
 20
-48.004479165
 10
51.133507062
 20
-48.0020853617
 10
51.2510322133
 20
-47.9938739156
 10
51.3747214155
 20
-47.9785775708
 10
51.5040305403
 20
-47.9549231523
 10
51.6406767287
 20
-47.920899409
 10
51.7871584928
 20
-47.8733320297
 10
51.9383016543
 20
-47.8109424972
 10
52.0846026419
 20
-47.7358568082
 10
52.2233470768
 20
-47.6489644209
 10
52.3549566895
 20
-47.5494320061
 10
52.4759015166
 20
-47.4394759741
 10
52.524472321
 20
-47.3891578288
  0
LINE
  5
29C
100
AcDbEntity
  8
SUPERFICI
100
AcDbLine
 62
250
  6
CONTINUOUS
 10
31.4844830877
 20
-40.1176590416
 11
29.1000470277
 21
-39.4193737524
  0
LINE
  5
29D
100
AcDbEntity
  8
SUPERFICI
100
AcDbLine
 62
250
  6
CONTINUOUS
 10
47.9763012594
 20
-47.0574184686
 11
48.3159655241
 21
-47.1574897314
  0
LINE
  5
29E
100
AcDbEntity
  8
SUPERFICI
100
AcDbLine
 62
250
  6
CONTINUOUS
 10
45.7159543324
 20
-46.3860670322
 11
46.895371294
 21
-46.7327300804
  0
LINE
  5
29F
100
AcDbEntity
  8
SUPERFICI
100
AcDbLine
 62
250
  6
CONTINUOUS
 10
29.1000470277
 20
-39.4193737524
 11
26.5805770485
 21
-38.6750219056
  0
LINE
  5
2A0
100
AcDbEntity
  8
SUPERFICI
100
AcDbLine
 62
250
  6
CONTINUOUS
 10
26.5805770485
 20
-38.6750219056
 11
23.9128635834
 21
-37.8788894645
  0
LINE
  5
2A1
100
AcDbEntity
  8
SUPERFICI
100
AcDbLine
 62
7
  6
CONTINUOUS
 10
50.0859419448
 20
-47.8438002955
 11
50.1974940643
 21
-47.8771914212
  0
LINE
  5
2A2
100
AcDbEntity
  8
SUPERFICI
100
AcDbLine
 62
250
  6
CONTINUOUS
 10
46.895371294
 20
-46.7327300804
 11
47.9763012594
 21
-47.0574184686
  0
LINE
  5
2A3
100
AcDbEntity
  8
SUPERFICI
100
AcDbLine
 62
250
  6
CONTINUOUS
 10
19.9601171805
 20
-36.6834065103
 11
23.9128635834
 21
-37.8788894645
  0
LINE
  5
2A4
100
AcDbEntity
  8
SUPERFICI
100
AcDbLine
 62
7
  6
CONTINUOUS
 10
40.5669455594
 20
-44.9235201996
 11
50.0859419448
 21
-47.8438002955
  0
LINE
  5
2A5
100
AcDbEntity
  8
SUPERFICI
100
AcDbLine
 62
250
  6
CONTINUOUS
 10
-22.5018135824
 20
-23.6437581397
 11
19.9601171805
 21
-36.6834065103
  0
LINE
  5
2A6
100
AcDbEntity
  8
SUPERFICI
100
AcDbLine
 62
250
  6
CONTINUOUS
 10
35.0852493171
 20
-43.1265264988
 11
-42.9803307688
 21
-19.153180755
  0
LWPOLYLINE
  5
2A7
100
AcDbEntity
  8
SUPERFICI
100
AcDbPolyline
 62
250
  6
CONTINUOUS
 90
3
 70
0
 10
35.0852493171
 20
-43.1265264988
 10
37.2531772947
 20
-43.7931888624
 10
45.715966381
 20
-46.386075677
  0
LINE
  5
2A8
100
AcDbEntity
  8
SUPERFICI
100
AcDbLine
 62
250
  6
CONTINUOUS
 10
-42.9803307688
 20
-19.153180755
 11
-47.1727438967
 21
-17.8608508951
  0
LWPOLYLINE
  5
2A9
100
AcDbEntity
  8
SUPERFICI
100
AcDbPolyline
 62
250
  6
CONTINUOUS
 90
10
 70
0
 10
-51.3597633451
 20
-16.5198285013
 10
-51.3711638738
 20
-16.5163095725
 10
-51.3826113513
 20
-16.5127213433
 10
-51.3941526832
 20
-16.5089859775
 10
-51.4058853981
 20
-16.5049512843
 10
-51.4178107464
 20
-16.5006045607
 10
-51.4298297583
 20
-16.4960793499
 10
-51.4419381286
 20
-16.491371891
 10
-51.4542233044
 20
-16.4863423494
 10
-51.4666381249
 20
-16.481026551
  0
LINE
  5
2AA
100
AcDbEntity
  8
SUPERFICI
100
AcDbLine
 62
7
  6
CONTINUOUS
 10
-51.3071456433
 20
-16.7068762203
 11
40.5669455594
 21
-44.9235201996
  0
LWPOLYLINE
  5
2AB
100
AcDbEntity
  8
SUPERFICI
100
AcDbPolyline
 62
250
  6
CONTINUOUS
 90
10
 70
0
 10
49.8775250789
 20
-47.6091382495
 10
49.8889124
 20
-47.612691231
 10
49.9003794449
 20
-47.6160871425
 10
49.9119249422
 20
-47.6193207777
 10
49.923553009
 20
-47.6223843602
 10
49.9352566115
 20
-47.6252736682
 10
49.9470176734
 20
-47.6279884886
 10
49.9588290731
 20
-47.6305242364
 10
49.9706944759
 20
-47.6328714577
 10
49.9826115675
 20
-47.6350223219
  0
LINE
  5
2AC
100
AcDbEntity
  8
SUPERFICI
100
AcDbLine
 62
250
  6
CONTINUOUS
 10
-22.5018135824
 20
-23.6437581397
 11
-26.4319872618
 21
-22.4186118239
  0
LINE
  5
2AD
100
AcDbEntity
  8
SUPERFICI
100
AcDbLine
 62
250
  6
CONTINUOUS
 10
-48.3621540695
 20
-17.4800650899
 11
-49.4468509791
 21
-17.1397104043
  0
LINE
  5
2AE
100
AcDbEntity
  8
SUPERFICI
100
AcDbLine
 62
250
  6
CONTINUOUS
 10
-26.4319872618
 20
-22.4186118239
 11
-29.0649491916
 21
-21.5873625405
  0
LINE
  5
2AF
100
AcDbEntity
  8
SUPERFICI
100
AcDbLine
 62
250
  6
CONTINUOUS
 10
-29.0649491916
 20
-21.5873625405
 11
-31.565688351
 21
-20.790808689
  0
LINE
  5
2B0
100
AcDbEntity
  8
SUPERFICI
100
AcDbLine
 62
250
  6
CONTINUOUS
 10
-47.172737615
 20
-17.8608478794
 11
-48.3621540695
 21
-17.4800650899
  0
LINE
  5
2B1
100
AcDbEntity
  8
SUPERFICI
100
AcDbLine
 62
250
  6
CONTINUOUS
 10
-31.565688351
 20
-20.790808689
 11
-33.9449287342
 21
-20.0264202388
  0
LINE
  5
2B2
100
AcDbEntity
  8
SUPERFICI
100
AcDbLine
 62
250
  6
CONTINUOUS
 10
-49.4468509791
 20
-17.1397104043
 11
-50.1206327985
 21
-16.9229141575
  0
LINE
  5
2B3
100
AcDbEntity
  8
SUPERFICI
100
AcDbLine
 62
250
  6
CONTINUOUS
 10
-33.9449287342
 20
-20.0264202388
 11
-36.2075169325
 21
-19.2938985371
  0
LWPOLYLINE
  5
2B4
100
AcDbEntity
  8
SUPERFICI
100
AcDbPolyline
 62
250
  6
CONTINUOUS
 90
3
 70
0
 10
-50.1206327985
 20
-16.9229141575
 10
-50.7578914925
 20
-16.7144099011
 10
-51.3599234433
 20
-16.5200966771
  0
LWPOLYLINE
  5
2B5
100
AcDbEntity
  8
SUPERFICI
100
AcDbPolyline
 62
250
  6
CONTINUOUS
 90
6
 70
0
 10
-36.2075169325
 20
-19.2938985371
 10
-38.3596666401
 20
-18.5871905927
 10
-39.3932968213
 20
-18.239365863
 10
-40.3975110069
 20
-17.8844536071
 10
-41.3718485178
 20
-17.5207232494
 10
-42.3161616446
 20
-17.1455703402
  0
LWPOLYLINE
  5
2B6
100
AcDbEntity
  8
SUPERFICI
100
AcDbPolyline
 62
250
  6
CONTINUOUS
 90
13
 70
0
 10
-42.3161364663
 20
-17.1455653646
 10
-42.82370376
 20
-16.9270076893
 10
-43.3127813946
 20
-16.7022011852
 10
-43.7815251752
 20
-16.4715176579
 10
-44.2294103971
 20
-16.2352893219
 10
-44.6556821877
 20
-15.9937218951
 10
-45.0593428111
 20
-15.7456273626
 10
-45.43824455
 20
-15.490728106
 10
-45.79082986
 20
-15.2293061395
 10
-46.1176198961
 20
-14.9605139615
 10
-46.4177751349
 20
-14.68400653
 10
-46.6886182991
 20
-14.4043312352
 10
-46.9308602819
 20
-14.1248024712
  0
LWPOLYLINE
  5
2B7
100
AcDbEntity
  8
SUPERFICI
100
AcDbPolyline
 62
250
  6
CONTINUOUS
 90
6
 70
0
 10
-0.6013694107
 20
-32.2814246261
 10
-0.6309932348
 20
-32.2681930805
 10
-0.6604374024
 20
-32.2451871857
 10
-0.6864995317
 20
-32.2135527613
 10
-0.7090170454
 20
-32.1735092394
 10
-0.7277999062
 20
-32.1252850457
  0
LWPOLYLINE
  5
2B8
100
AcDbEntity
  8
SUPERFICI
100
AcDbPolyline
 62
250
  6
CONTINUOUS
 90
10
 70
0
 10
-32.4939456423
 20
-13.3492726069
 10
-32.4378537252
 20
-13.4000944606
 10
-32.3864474343
 20
-13.4618430454
 10
-32.3399324299
 20
-13.5343559353
 10
-32.2985754715
 20
-13.6176500794
 10
-32.2625390219
 20
-13.7114131015
 10
-32.2317767417
 20
-13.8147236934
 10
-32.2063030019
 20
-13.9268749761
 10
-32.1862986564
 20
-14.0476544859
 10
-32.1718718052
 20
-14.1766389395
  0
LWPOLYLINE
  5
2B9
100
AcDbEntity
  8
SUPERFICI
100
AcDbPolyline
 62
250
  6
CONTINUOUS
 90
10
 70
0
 10
-30.3777577512
 20
-13.9953465438
 10
-30.3227383521
 20
-14.0468564222
 10
-30.271704484
 20
-14.1103319498
 10
-30.2248904901
 20
-14.1856460371
 10
-30.1824072382
 20
-14.272951542
 10
-30.1446681177
 20
-14.3718400125
 10
-30.1122203453
 20
-14.4809991565
 10
-30.0852482884
 20
-14.5995193073
 10
-30.06374232
 20
-14.7272352451
 10
-30.0478062358
 20
-14.8636457574
  0
LINE
  5
2BA
100
AcDbEntity
  8
0
100
AcDbLine
 62
250
  6
CONTINUOUS
 10
-32.3585724964
 20
-11.5382891596
 11
-32.3822286896
 21
-11.5110094188
  0
LWPOLYLINE
  5
2BB
100
AcDbEntity
  8
SUPERFICI
100
AcDbPolyline
 62
250
  6
CONTINUOUS
 90
10
 70
0
 10
-34.3080837715
 20
-8.8112304017
 10
-34.39622932
 20
-8.6992115072
 10
-34.4984640707
 20
-8.589830516
 10
-34.6144766836
 20
-8.4836668972
 10
-34.7448227454
 20
-8.380528179
 10
-34.8882575994
 20
-8.2819669163
 10
-35.0411681588
 20
-8.1908915876
 10
-35.2015878246
 20
-8.1083612556
 10
-35.3697536169
 20
-8.0339748122
 10
-35.5449125328
 20
-7.9680792056
  0
LWPOLYLINE
  5
2BC
100
AcDbEntity
  8
0
100
AcDbPolyline
 62
250
  6
CONTINUOUS
 90
5
 70
0
 10
-32.3822286896
 20
-11.5110094188
 10
-32.4029145873
 20
-11.4821396403
 10
-32.4203214197
 20
-11.4520338296
 10
-32.4340940778
 20
-11.4212064903
 10
-32.4439791572
 20
-11.3901236782
  0
LINE
  5
2BD
100
AcDbEntity
  8
0
100
AcDbLine
 62
250
  6
CONTINUOUS
 10
27.7307599789
 20
-30.0341237117
 11
27.6994285929
 21
-30.0322137545
  0
LINE
  5
2BE
100
AcDbEntity
  8
SUPERFICI
100
AcDbLine
 62
250
  6
CONTINUOUS
 10
26.6573871921
 20
-32.2585434435
 11
26.533886921
 21
-32.2233452146
  0
LWPOLYLINE
  5
2BF
100
AcDbEntity
  8
SUPERFICI
100
AcDbPolyline
 62
250
  6
CONTINUOUS
 90
7
 70
0
 10
50.0187573667
 20
-47.8232226056
 10
50.0010047177
 20
-47.8163238371
 10
49.968086826
 20
-47.7944992045
 10
49.9390252476
 20
-47.7624548497
 10
49.9141285287
 20
-47.7205935595
 10
49.8936107022
 20
-47.6692754295
 10
49.8776822277
 20
-47.6088691681
  0
LWPOLYLINE
  5
2C0
100
AcDbEntity
  8
0
100
AcDbPolyline
 62
250
  6
CONTINUOUS
 90
5
 70
0
 10
-32.2398754318
 20
-11.6254232916
 10
-32.272323945
 20
-11.6077233121
 10
-32.3032298918
 20
-11.5870489582
 10
-32.3321380957
 20
-11.5637548999
 10
-32.3585724964
 20
-11.5382891596
  0
LINE
  5
2C1
100
AcDbEntity
  8
IGES
100
AcDbLine
 62
7
  6
CONTINUOUS
 10
-21.2230502075
 20
-13.8272165749
 11
-21.2154949737
 21
-14.1309250851
  0
LWPOLYLINE
  5
2C2
100
AcDbEntity
  8
0
100
AcDbPolyline
 62
250
  6
CONTINUOUS
 90
43
 70
0
 10
-32.262957327
 20
-11.7725135944
 10
-32.2839790195
 20
-11.8079112368
 10
-32.3046315553
 20
-11.8448454071
 10
-32.3250732127
 20
-11.8833495189
 10
-32.3453510808
 20
-11.9234353701
 10
-32.3653145369
 20
-11.9649177516
 10
-32.3848241913
 20
-12.0075340441
 10
-32.4038237768
 20
-12.0511620392
 10
-32.4222728535
 20
-12.0957002953
 10
-32.4400661991
 20
-12.140895124
 10
-32.4571482069
 20
-12.186594488
 10
-32.4734892615
 20
-12.232710984
 10
-32.4890314731
 20
-12.2790807688
 10
-32.5037292124
 20
-12.3255692821
 10
-32.5175497164
 20
-12.3720772057
 10
-32.5304571637
 20
-12.4184946083
 10
-32.5424095848
 20
-12.4646874315
 10
-32.5533736236
 20
-12.5105651326
 10
-32.5633226206
 20
-12.5560839818
 10
-32.5722114541
 20
-12.6011254155
 10
-32.5800084245
 20
-12.6455907822
 10
-32.5867288457
 20
-12.6894867203
 10
-32.5923827151
 20
-12.7327529094
 10
-32.5969736855
 20
-12.7753031114
 10
-32.6005118056
 20
-12.8171087578
 10
-32.6030034892
 20
-12.8580931985
 10
-32.6044502927
 20
-12.8981765478
 10
-32.6048486924
 20
-12.93731813
 10
-32.6041951292
 20
-12.975456217
 10
-32.602495138
 20
-13.0124808701
 10
-32.5997584608
 20
-13.0482766965
 10
-32.5959875008
 20
-13.0827753688
 10
-32.5911877671
 20
-13.1158706618
 10
-32.5853832332
 20
-13.1474019917
 10
-32.5785850758
 20
-13.1772943607
 10
-32.5708054991
 20
-13.2054663285
 10
-32.5620846946
 20
-13.2317718729
 10
-32.5523983264
 20
-13.2561681548
 10
-32.5418084692
 20
-13.2785708821
 10
-32.5305025371
 20
-13.2988090081
 10
-32.518566413
 20
-13.3168114127
 10
-32.505973076
 20
-13.332582665
 10
-32.4927500174
 20
-13.3460906803
  0
LWPOLYLINE
  5
2C3
100
AcDbEntity
  8
0
100
AcDbPolyline
 62
250
  6
CONTINUOUS
 90
4
 70
0
 10
-32.1979007671
 20
-11.6764531142
 10
-32.2198409859
 20
-11.706663625
 10
-32.2415407783
 20
-11.7387170262
 10
-32.262957327
 20
-11.7725135944
  0
LINE
  5
2C4
100
AcDbEntity
  8
0
100
AcDbLine
 62
250
  6
CONTINUOUS
 10
-32.1899407429
 20
-11.678907851
 11
-31.6445930434
 21
-10.928266816
  0
LWPOLYLINE
  5
2C5
100
AcDbEntity
  8
SUPERFICI
100
AcDbPolyline
 62
250
  6
CONTINUOUS
 90
10
 70
0
 10
-35.3663952073
 20
-11.0090759894
 10
-35.201847719
 20
-11.0482669053
 10
-35.0450057202
 20
-11.094840094
 10
-34.8965264418
 20
-11.148630175
 10
-34.7568604183
 20
-11.209499498
 10
-34.6268007267
 20
-11.2771374689
 10
-34.5073973667
 20
-11.3509600184
 10
-34.3992973045
 20
-11.4304544127
 10
-34.3028415148
 20
-11.5152783376
 10
-34.2184968555
 20
-11.6049583452
  0
LWPOLYLINE
  5
2C6
100
AcDbEntity
  8
SUPERFICI
100
AcDbPolyline
 62
250
  6
CONTINUOUS
 90
10
 70
0
 10
30.7690399133
 20
-28.332518718
 10
30.5613840209
 20
-28.2822805288
 10
30.350940572
 20
-28.242732913
 10
30.1392337705
 20
-28.2137624814
 10
29.9265628305
 20
-28.1952917159
 10
29.7152909128
 20
-28.1871459993
 10
29.5095720847
 20
-28.1879585848
 10
29.3110688652
 20
-28.1959800728
 10
29.1196899868
 20
-28.2108714266
 10
28.9368909507
 20
-28.2331512642
  0
LINE
  5
2C7
100
AcDbEntity
  8
0
100
AcDbLine
 62
7
  6
CONTINUOUS
 10
27.6445276774
 20
-30.0583627439
 11
27.6059409534
 21
-30.0488261736
  0
LINE
  5
2C8
100
AcDbEntity
  8
SUPERFICI
100
AcDbLine
 62
250
  6
CONTINUOUS
 10
26.533886921
 20
-32.2233452146
 11
26.04412031
 21
-32.082453351
  0
LWPOLYLINE
  5
2C9
100
AcDbEntity
  8
SUPERFICI
100
AcDbPolyline
 62
250
  6
CONTINUOUS
 90
3
 70
0
 10
25.5372326851
 20
-31.9330967357
 10
25.1670626658
 20
-31.8258853548
 10
24.9790609396
 20
-31.7701848069
  0
LWPOLYLINE
  5
2CA
100
AcDbEntity
  8
SUPERFICI
100
AcDbPolyline
 62
250
  6
CONTINUOUS
 90
3
 70
0
 10
26.04412031
 20
-32.082453351
 10
25.670253324
 20
-31.9726635817
 10
25.5372326851
 20
-31.9330967357
  0
LWPOLYLINE
  5
2CB
100
AcDbEntity
  8
SUPERFICI
100
AcDbPolyline
 62
250
  6
CONTINUOUS
 90
3
 70
0
 10
24.4036779732
 20
-31.5944651755
 10
24.208668616
 20
-31.5360815085
 10
23.8137460957
 20
-31.4196713502
  0
LINE
  5
2CC
100
AcDbEntity
  8
SUPERFICI
100
AcDbLine
 62
250
  6
CONTINUOUS
 10
23.8137460957
 20
-31.4196713502
 11
18.4802106158
 21
-29.8017409348
  0
LWPOLYLINE
  5
2CD
100
AcDbEntity
  8
SUPERFICI
100
AcDbPolyline
 62
250
  6
CONTINUOUS
 90
4
 70
0
 10
-32.1013854763
 20
-14.1975367609
 10
-32.0141705056
 20
-14.2241587678
 10
-31.910215651
 20
-14.2564892728
 10
-31.7809601983
 20
-14.2978471057
  0
LINE
  5
2CE
100
AcDbEntity
  8
SUPERFICI
100
AcDbLine
 62
250
  6
CONTINUOUS
 10
18.4802106158
 20
-29.8017409348
 11
14.2555611054
 21
-28.5153226365
  0
LWPOLYLINE
  5
2CF
100
AcDbEntity
  8
SUPERFICI
100
AcDbPolyline
 62
250
  6
CONTINUOUS
 90
3
 70
0
 10
14.2555611054
 20
-28.5153226365
 10
5.4148832137
 20
-25.8073852933
 10
-4.1393284878
 20
-22.8753249497
  0
LINE
  5
2D0
100
AcDbEntity
  8
SUPERFICI
100
AcDbLine
 62
250
  6
CONTINUOUS
 10
-28.6523001858
 20
-14.5252181305
 11
-32.4939456423
 21
-13.3492726069
  0
LINE
  5
2D1
100
AcDbEntity
  8
0
100
AcDbLine
 62
7
  6
CONTINUOUS
 10
27.7774592229
 20
-29.1762047722
 11
-31.6445945017
 21
-10.9282458049
  0
LINE
  5
2D2
100
AcDbEntity
  8
SUPERFICI
100
AcDbLine
 62
250
  6
CONTINUOUS
 10
-28.653872611
 20
-14.5299121213
 11
23.4820405308
 21
-30.5403469431
  0
LINE
  5
2D3
100
AcDbEntity
  8
0
100
AcDbLine
 62
250
  6
CONTINUOUS
 10
-32.1899407429
 20
-11.678907851
 11
27.6102045837
 21
-30.0429804823
  0
LINE
  5
2D4
100
AcDbEntity
  8
SUPERFICI
100
AcDbLine
 62
250
  6
CONTINUOUS
 10
24.9790609396
 20
-31.7701848069
 11
24.4036779732
 21
-31.5944651755
  0
LINE
  5
2D5
100
AcDbEntity
  8
SUPERFICI
100
AcDbLine
 62
250
  6
CONTINUOUS
 10
23.4836118122
 20
-30.535652601
 11
27.324259988
 21
-31.7188651715
  0
LINE
  5
2D6
100
AcDbEntity
  8
SUPERFICI
100
AcDbLine
 62
250
  6
CONTINUOUS
 10
-29.4883701241
 20
-15.0437633749
 11
-28.9130502068
 21
-15.2214134728
  0
LINE
  5
2D7
100
AcDbEntity
  8
SUPERFICI
100
AcDbLine
 62
250
  6
CONTINUOUS
 10
-19.899737258
 20
-18.0239818124
 11
-4.1393284878
 21
-22.8753249497
  0
LINE
  5
2D8
100
AcDbEntity
  8
SUPERFICI
100
AcDbLine
 62
250
  6
CONTINUOUS
 10
-28.3221702559
 20
-15.4092355427
 11
-19.899737258
 21
-18.0239818124
  0
LWPOLYLINE
  5
2D9
100
AcDbEntity
  8
IGES
100
AcDbPolyline
 62
7
  6
CONTINUOUS
 90
7
 70
0
 10
-21.2230528217
 20
-13.8272180804
 10
-21.0011209996
 20
-13.8972194941
 10
-20.7721319898
 20
-13.9891616785
 10
-20.5463446305
 20
-14.0999533987
 10
-20.3335497419
 20
-14.2237479899
 10
-20.1207398361
 20
-14.3681126293
 10
-19.9145546262
 20
-14.5301860568
  0
LWPOLYLINE
  5
2DA
100
AcDbEntity
  8
IGES
100
AcDbPolyline
 62
7
  6
CONTINUOUS
 90
7
 70
0
 10
-17.3173660584
 20
-15.0266166473
 10
-17.0954342434
 20
-15.0966182841
 10
-16.8664452678
 20
-15.1885606889
 10
-16.6406579696
 20
-15.2993526167
 10
-16.427863165
 20
-15.423147394
 10
-16.2150533712
 20
-15.5675122096
 10
-16.0088680679
 20
-15.7295859928
  0
LWPOLYLINE
  5
2DB
100
AcDbEntity
  8
SUPERFICI
100
AcDbPolyline
 62
250
  6
CONTINUOUS
 90
7
 70
0
 10
27.8874941786
 20
-32.6217014078
 10
27.5847336362
 20
-32.5265668331
 10
27.4973640883
 20
-32.4995756223
 10
27.393472879
 20
-32.4680786108
 10
27.2645988121
 20
-32.4301673641
 10
27.1194389381
 20
-32.3886715633
 10
26.6573871921
 20
-32.2585434435
  0
LWPOLYLINE
  5
2DC
100
AcDbEntity
  8
SUPERFICI
100
AcDbPolyline
 62
250
  6
CONTINUOUS
 90
3
 70
0
 10
-28.9130502068
 20
-15.2214134728
 10
-28.5208788511
 20
-15.3454643766
 10
-28.3221702559
 20
-15.4092355427
  0
LINE
  5
2DD
100
AcDbEntity
  8
SUPERFICI
100
AcDbLine
 62
250
  6
CONTINUOUS
 10
-30.4360586872
 20
-14.7398013306
 11
-30.0478174041
 21
-14.8634653072
  0
LWPOLYLINE
  5
2DE
100
AcDbEntity
  8
SUPERFICI
100
AcDbPolyline
 62
250
  6
CONTINUOUS
 90
3
 70
0
 10
-30.0478174041
 20
-14.8634653072
 10
-29.8631331155
 20
-14.9238020247
 10
-29.4883701241
 20
-15.0437633749
  0
LINE
  5
2DF
100
AcDbEntity
  8
SUPERFICI
100
AcDbLine
 62
250
  6
CONTINUOUS
 10
-30.917127713
 20
-14.5833837169
 11
-30.4360586872
 21
-14.7398013306
  0
LWPOLYLINE
  5
2E0
100
AcDbEntity
  8
SUPERFICI
100
AcDbPolyline
 62
250
  6
CONTINUOUS
 90
4
 70
0
 10
-31.7809601983
 20
-14.2978471057
 10
-31.3852774433
 20
-14.428699229
 10
-31.2810698961
 20
-14.4634903785
 10
-30.917127713
 20
-14.5833837169
  0
LWPOLYLINE
  5
2E1
100
AcDbEntity
  8
0
100
AcDbPolyline
 62
7
  6
CONTINUOUS
 90
13
 70
0
 10
-31.6445945017
 20
-10.9282458049
 10
-31.6714750715
 20
-10.9184121375
 10
-31.6972349617
 20
-10.9061489234
 10
-31.7218741722
 20
-10.8914561624
 10
-31.7458158274
 20
-10.8739919221
 10
-31.7686368028
 20
-10.8540981351
 10
-31.7890677255
 20
-10.8328005983
 10
-31.8069518838
 20
-10.8099997827
 10
-31.8224459892
 20
-10.7857952174
 10
-31.8347508043
 20
-10.7615112869
 10
-31.8435999163
 20
-10.7375894527
 10
-31.8492597379
 20
-10.7135882533
 10
-31.8517302691
 20
-10.6895076887
  0
LWPOLYLINE
  5
2E2
100
AcDbEntity
  8
0
100
AcDbPolyline
 62
7
  6
CONTINUOUS
 90
13
 70
0
 10
-32.1942213618
 20
-11.6847763368
 10
-32.2329961223
 20
-11.6705527311
 10
-32.2695616197
 20
-11.6527429708
 10
-32.3042642982
 20
-11.6316047136
 10
-32.3367196296
 20
-11.6075746954
 10
-32.3664772368
 20
-11.5811960045
 10
-32.3934880287
 20
-11.5526033056
 10
-32.4174307782
 20
-11.5221412655
 10
-32.4378644552
 20
-11.4903116943
 10
-32.4545268207
 20
-11.4574609507
 10
-32.4670141668
 20
-11.4241793449
 10
-32.4751004592
 20
-11.3908081737
 10
-32.4784693291
 20
-11.3571184174
  0
LWPOLYLINE
  5
2E3
100
AcDbEntity
  8
0
100
AcDbPolyline
 62
250
  6
CONTINUOUS
 90
22
 70
0
 10
-34.6749487427
 20
5.9413348197
 10
-34.6252483177
 20
5.8842219743
 10
-34.5659977061
 20
5.8304251431
 10
-34.4979062049
 20
5.7804389067
 10
-34.4213728429
 20
5.7345887956
 10
-34.3374605776
 20
5.6936344744
 10
-34.2481709734
 20
5.6585399011
 10
-34.154910612
 20
5.6297334457
 10
-34.0583232064
 20
5.6073724269
 10
-33.9594694915
 20
5.5917602922
 10
-33.8596347672
 20
5.5831645708
 10
-33.7593342541
 20
5.5817353676
 10
-33.6584932227
 20
5.5874617487
 10
-33.5578001186
 20
5.6001132224
 10
-33.4586617338
 20
5.6193648768
 10
-33.3621879101
 20
5.6448840209
 10
-33.2689917896
 20
5.676515092
 10
-33.1806823391
 20
5.7138020876
 10
-33.0996123348
 20
5.7556937414
 10
-33.0269184768
 20
5.8013647883
 10
-32.9628158911
 20
5.8504987997
 10
-32.9078864401
 20
5.9026014798
  0
LINE
  5
2E4
100
AcDbEntity
  8
IGES
100
AcDbLine
 62
7
  6
CONTINUOUS
 10
-17.3173661163
 20
-15.0266143212
 11
-17.3098108463
 21
-15.330324285
  0
LWPOLYLINE
  5
2E5
100
AcDbEntity
  8
SUPERFICI
100
AcDbPolyline
 62
250
  6
CONTINUOUS
 90
13
 70
0
 10
-1.847044235
 20
29.534118629
 10
-1.8908466997
 20
29.4714360793
 10
-1.9336659687
 20
29.4025279301
 10
-1.9751986855
 20
29.3279550462
 10
-2.0151563517
 20
29.2482419869
 10
-2.0532683719
 20
29.1638539972
 10
-2.0891387084
 20
29.0755906673
 10
-2.1222907261
 20
28.9845389955
 10
-2.1522987672
 20
28.8919283962
 10
-2.1788548028
 20
28.7988069422
 10
-2.201822443
 20
28.7057937226
 10
-2.2210597172
 20
28.6134888908
 10
-2.2363992321
 20
28.5225678484
  0
LINE
  5
2E6
100
AcDbEntity
  8
0
100
AcDbLine
 62
250
  6
CONTINUOUS
 10
-32.4785237121
 20
-11.3571006055
 11
-31.8517302691
 21
-10.6895076887
  0
LWPOLYLINE
  5
2E7
100
AcDbEntity
  8
SUPERFICI
100
AcDbPolyline
 62
250
  6
CONTINUOUS
 90
10
 70
0
 10
30.7390158386
 20
-31.3094085459
 10
30.5531123682
 20
-31.2409793609
 10
30.3627975136
 20
-31.1809440366
 10
30.168840396
 20
-31.1295752115
 10
29.971800509
 20
-31.0870454049
 10
29.7727504927
 20
-31.0536169667
 10
29.5733473351
 20
-31.0295371172
 10
29.3748203971
 20
-31.0148693245
 10
29.177908302
 20
-31.0096028086
 10
28.9836241918
 20
-31.0137186151
  0
LWPOLYLINE
  5
2E8
100
AcDbEntity
  8
SUPERFICI
100
AcDbPolyline
 62
250
  6
CONTINUOUS
 90
9
 70
0
 10
-54.0657948189
 20
14.3245112176
 10
-54.1425008748
 20
14.3699673796
 10
-54.2105423172
 20
14.4201480464
 10
-54.2694490617
 20
14.4745483946
 10
-54.3187546521
 20
14.5326830362
 10
-54.3580174959
 20
14.5941617803
 10
-54.3867038212
 20
14.6583670806
 10
-54.4042501368
 20
14.724375598
 10
-54.4103628518
 20
14.7845948778
  0
LWPOLYLINE
  5
2E9
100
AcDbEntity
  8
SUPERFICI
100
AcDbPolyline
 62
250
  6
CONTINUOUS
 90
10
 70
0
 10
45.715966381
 20
-46.386075677
 10
45.0410899756
 20
-45.9658544105
 10
44.3773505743
 20
-45.5430396944
 10
43.7193868733
 20
-45.1140622844
 10
43.0658155684
 20
-44.6780681386
 10
42.4126337826
 20
-44.2331098207
 10
41.752975071
 20
-43.7755077549
 10
41.0870751213
 20
-43.3061735835
 10
40.4203865971
 20
-42.8299041974
 10
39.7536725941
 20
-42.3484146058
  0
LWPOLYLINE
  5
2EA
100
AcDbEntity
  8
SUPERFICI
100
AcDbPolyline
 62
250
  6
CONTINUOUS
 90
6
 70
0
 10
22.5243707207
 20
-37.4612076925
 10
22.914600622
 20
-37.786680054
 10
23.3068221296
 20
-38.1075578267
 10
23.7034578707
 20
-38.4268956517
 10
24.108234017
 20
-38.7488980088
 10
26.2015041051
 20
-40.3961899852
  0
LWPOLYLINE
  5
2EB
100
AcDbEntity
  8
0
100
AcDbPolyline
 62
250
  6
CONTINUOUS
 90
22
 70
0
 10
-2.58433578
 20
-22.5302725018
 10
-2.613218606
 20
-22.4974232216
 10
-2.6381684227
 20
-22.4545578393
 10
-2.6589824892
 20
-22.4022370889
 10
-2.6755143612
 20
-22.3407659116
 10
-2.6874482449
 20
-22.2709786023
 10
-2.6945038553
 20
-22.1945634393
 10
-2.6966511224
 20
-22.1127755536
 10
-2.6939020992
 20
-22.0261954819
 10
-2.6862458409
 20
-21.9357586329
 10
-2.6737356718
 20
-21.8426317464
 10
-2.6563664112
 20
-21.7472810407
 10
-2.6341547965
 20
-21.6496606564
 10
-2.6073816349
 20
-21.5504894036
 10
-2.5765241901
 20
-21.4512221831
 10
-2.5420214117
 20
-21.3530547973
 10
-2.504094408
 20
-21.2566280402
 10
-2.4633444371
 20
-21.1636036763
 10
-2.4209175104
 20
-21.076522204
 10
-2.3775775938
 20
-20.9966753685
 10
-2.3335710559
 20
-20.9243290898
 10
-2.2893322872
 20
-20.8601476881
  0
LWPOLYLINE
  5
2EC
100
AcDbEntity
  8
SUPERFICI
100
AcDbPolyline
 62
250
  6
CONTINUOUS
 90
10
 70
0
 10
-54.7141873348
 20
42.8964060345
 10
-54.1606135467
 20
42.231534603
 10
-53.5798478123
 20
41.546121787
 10
-52.9788351439
 20
40.8494418469
 10
-52.3604931361
 20
40.1458471955
 10
-51.7262202257
 20
39.4375087205
 10
-51.0746226446
 20
38.7227008432
 10
-50.4028243465
 20
37.9978802503
 10
-49.7090420982
 20
37.2609125828
 10
-48.9939261451
 20
36.5123781093
  0
LWPOLYLINE
  5
2ED
100
AcDbEntity
  8
SUPERFICI
100
AcDbPolyline
 62
250
  6
CONTINUOUS
 90
10
 70
0
 10
-35.0420689107
 20
20.6938195025
 10
-35.1302225061
 20
20.8061618684
 10
-35.2324620488
 20
20.915735486
 10
-35.3484761993
 20
21.021960915
 10
-35.4788145613
 20
21.1247901147
 10
-35.6222384631
 20
21.2229111152
 10
-35.7751527683
 20
21.3141370205
 10
-35.9355968593
 20
21.3976492055
 10
-36.1038017703
 20
21.4736081633
 10
-36.2790144961
 20
21.5416668401
  0
LWPOLYLINE
  5
2EE
100
AcDbEntity
  8
SUPERFICI
100
AcDbPolyline
 62
250
  6
CONTINUOUS
 90
10
 70
0
 10
-35.0910743368
 20
23.471516701
 10
-35.1764675064
 20
23.603842017
 10
-35.2739983469
 20
23.7335577242
 10
-35.3832020475
 20
23.8600451631
 10
-35.5037510482
 20
23.9828158855
 10
-35.6350363855
 20
24.1010799981
 10
-35.7760266953
 20
24.2138719247
 10
-35.9258914969
 20
24.3206154573
 10
-36.0841425495
 20
24.4209966354
 10
-36.2501349691
 20
24.5145683174
  0
LWPOLYLINE
  5
2EF
100
AcDbEntity
  8
SUPERFICI
100
AcDbPolyline
 62
250
  6
CONTINUOUS
 90
10
 70
0
 10
-47.1727438967
 20
-17.8608508951
 10
-46.6395653413
 20
-17.8116116263
 10
-46.1104371711
 20
-17.7551150076
 10
-45.581038953
 20
-17.6907649622
 10
-45.0503177645
 20
-17.6184555903
 10
-44.5156332374
 20
-17.5382795315
 10
-43.9723511465
 20
-17.4500889549
 10
-43.4215818189
 20
-17.3543821546
 10
-42.8688923748
 20
-17.2525719523
 10
-42.3160962934
 20
-17.1455821161
  0
LWPOLYLINE
  5
2F0
100
AcDbEntity
  8
SUPERFICI
100
AcDbPolyline
 62
250
  6
CONTINUOUS
 90
13
 70
0
 10
51.0736396818
 20
-17.9627925204
 10
51.1784191317
 20
-17.9730688025
 10
51.2840009371
 20
-17.9762061563
 10
51.3894529469
 20
-17.9722787924
 10
51.4938701238
 20
-17.9613509263
 10
51.596484536
 20
-17.9434413156
 10
51.6961809201
 20
-17.9186611041
 10
51.7914340084
 20
-17.8872921929
 10
51.880810926
 20
-17.8498682637
 10
51.9632969499
 20
-17.8069055443
 10
52.0383095917
 20
-17.7588127724
 10
52.1051849005
 20
-17.7060100064
 10
52.1632143385
 20
-17.648930259
  0
LINE
  5
2F1
100
AcDbEntity
  8
SUPERFICI
100
AcDbLine
 62
250
  6
CONTINUOUS
 10
51.0736328718
 20
-17.962810949
 11
50.0555317316
 21
-17.8283594424
  0
LINE
  5
2F2
100
AcDbEntity
  8
SUPERFICI
100
AcDbLine
 62
250
  6
CONTINUOUS
 10
50.0555317316
 20
-17.8283594424
 11
49.0396695535
 21
-17.6864065709
  0
LINE
  5
2F3
100
AcDbEntity
  8
SUPERFICI
100
AcDbLine
 62
250
  6
CONTINUOUS
 10
49.0396695535
 20
-17.6864065709
 11
48.0558482727
 21
-17.5416241562
  0
LWPOLYLINE
  5
2F4
100
AcDbEntity
  8
SUPERFICI
100
AcDbPolyline
 62
250
  6
CONTINUOUS
 90
3
 70
0
 10
48.0558482727
 20
-17.5416241562
 10
47.0884884452
 20
-17.391273078
 10
46.5826187822
 20
-17.3097395849
  0
LWPOLYLINE
  5
2F5
100
AcDbEntity
  8
SUPERFICI
100
AcDbPolyline
 62
250
  6
CONTINUOUS
 90
10
 70
0
 10
46.5826187821
 20
-17.3097395849
 10
44.8112310125
 20
-17.0126907558
 10
43.1739188802
 20
-16.7152903998
 10
41.4419988976
 20
-16.3699527908
 10
39.67125302
 20
-15.9864476794
 10
37.9587439633
 20
-15.5925213274
 10
36.1498298028
 20
-15.1533218127
 10
34.2075582283
 20
-14.6533662399
 10
32.3130487167
 20
-14.1351172396
 10
30.5331377641
 20
-13.6157259564
  0
LWPOLYLINE
  5
2F6
100
AcDbEntity
  8
SUPERFICI
100
AcDbPolyline
 62
250
  6
CONTINUOUS
 90
10
 70
0
 10
-50.505529284
 20
12.5050919373
 10
-49.0506682424
 20
11.8113909512
 10
-47.6766536829
 20
11.1840419968
 10
-46.1838244592
 20
10.5390903046
 10
-44.6185275724
 20
9.8981289394
 10
-43.0751841282
 20
9.2922144693
 10
-41.4153512476
 20
8.6661953072
 10
-39.5967758656
 20
8.0112311435
 10
-37.7837114706
 20
7.3909200457
 10
-36.038669943
 20
6.8278325052
  0
LWPOLYLINE
  5
2F7
100
AcDbEntity
  8
SUPERFICI
100
AcDbPolyline
 62
250
  6
CONTINUOUS
 90
10
 70
0
 10
30.7313455866
 20
-25.3994685884
 10
32.3428645215
 20
-26.1869173912
 10
34.0715272596
 20
-27.0467563484
 10
35.8810175543
 20
-27.962336682
 10
37.7192491967
 20
-28.9082801547
 10
39.5282281543
 20
-29.8548242277
 10
41.2554778818
 20
-30.775452422
 10
42.9142111906
 20
-31.6814777017
 10
44.5514087121
 20
-32.6040747591
 10
46.235343528
 20
-33.5892871393
  0
LWPOLYLINE
  5
2F8
100
AcDbEntity
  8
SUPERFICI
100
AcDbPolyline
 62
250
  6
CONTINUOUS
 90
10
 70
0
 10
-54.0658143126
 20
14.3244966841
 10
-53.6722296706
 20
14.1135032488
 10
-53.2761378596
 20
13.9037971712
 10
-52.8766369957
 20
13.6948575904
 10
-52.478203289
 20
13.488750599
 10
-52.0840252161
 20
13.2871577752
 10
-51.6960697102
 20
13.0912253513
 10
-51.3108037714
 20
12.8991570775
 10
-50.9167793135
 20
12.7051970341
 10
-50.505529284
 20
12.5050919373
  0
LWPOLYLINE
  5
2F9
100
AcDbEntity
  8
SUPERFICI
100
AcDbPolyline
 62
250
  6
CONTINUOUS
 90
10
 70
0
 10
30.7707559013
 20
-28.3328698194
 10
32.5699738663
 20
-29.3733457957
 10
34.380841528
 20
-30.4333079649
 10
36.1804377098
 20
-31.4989970597
 10
37.9525497076
 20
-32.5604717728
 10
39.6703844774
 20
-33.601423058
 10
41.3124163215
 20
-34.610846338
 10
42.8881488142
 20
-35.5991069117
 10
44.4171970416
 20
-36.5828857958
 10
45.9116779857
 20
-37.574299694
  0
LWPOLYLINE
  5
2FA
100
AcDbEntity
  8
SUPERFICI
100
AcDbPolyline
 62
250
  6
CONTINUOUS
 90
8
 70
0
 10
39.7537429306
 20
-42.3484444982
 10
38.2880859255
 20
-41.2746378518
 10
36.8297702611
 20
-40.1828510246
 10
35.3948103957
 20
-39.0832703522
 10
34.0000212635
 20
-37.9861186591
 10
32.6592987561
 20
-36.9007753935
 10
31.3686254879
 20
-35.8252158698
 10
30.1134040459
 20
-34.7487121807
  0
LWPOLYLINE
  5
2FB
100
AcDbEntity
  8
SUPERFICI
100
AcDbPolyline
 62
250
  6
CONTINUOUS
 90
10
 70
0
 10
-50.1582509794
 20
28.7846407676
 10
-50.7141554856
 20
29.3152987934
 10
-51.2413867735
 20
29.8305014937
 10
-51.7483659565
 20
30.3387834992
 10
-52.2456829282
 20
30.8512284916
 10
-52.7356465181
 20
31.3706731279
 10
-53.2124247519
 20
31.8905027639
 10
-53.6698704005
 20
32.403161213
 10
-54.1066473761
 20
32.9064338851
 10
-54.520865262
 20
33.3967305777
  0
LWPOLYLINE
  5
2FC
100
AcDbEntity
  8
SUPERFICI
100
AcDbPolyline
 62
250
  6
CONTINUOUS
 90
10
 70
0
 10
-49.8345921711
 20
32.7696085069
 10
-50.4573936182
 20
33.4022207021
 10
-51.047405715
 20
34.0151108375
 10
-51.6113252704
 20
34.6159765702
 10
-52.1564898903
 20
35.213081132
 10
-52.6867858223
 20
35.8108206392
 10
-53.201957808
 20
36.4084714758
 10
-53.6984174535
 20
37.0008446929
 10
-54.1733386153
 20
37.5835618011
 10
-54.6233547441
 20
38.1515944298
  0
LWPOLYLINE
  5
2FD
100
AcDbEntity
  8
SUPERFICI
100
AcDbPolyline
 62
250
  6
CONTINUOUS
 90
10
 70
0
 10
-48.9939256651
 20
36.5123789062
 10
-47.766230239
 20
35.2511959653
 10
-46.4676661386
 20
33.9463346183
 10
-45.1116085831
 20
32.6115348412
 10
-43.7212564989
 20
31.2687837518
 10
-42.3122899643
 20
29.9312722741
 10
-40.8818137958
 20
28.5954572185
 10
-39.4111126284
 20
27.2453875888
 10
-37.8822626719
 20
25.8660955842
 10
-36.2638944963
 20
24.4312818799
  0
LWPOLYLINE
  5
2FE
100
AcDbEntity
  8
SUPERFICI
100
AcDbPolyline
 62
250
  6
CONTINUOUS
 90
10
 70
0
 10
-49.4828402611
 20
35.1977773047
 10
-50.1472222512
 20
35.8885431182
 10
-50.7824684064
 20
36.5619889169
 10
-51.3937570737
 20
37.2246103648
 10
-51.9866785184
 20
37.8831247192
 10
-52.5642306838
 20
38.5412851468
 10
-53.1262271414
 20
39.1988470671
 10
-53.6691970735
 20
39.8508399799
 10
-54.1899055879
 20
40.4922762499
 10
-54.6849101306
 20
41.117951054
  0
LWPOLYLINE
  5
2FF
100
AcDbEntity
  8
SUPERFICI
100
AcDbPolyline
 62
250
  6
CONTINUOUS
 90
10
 70
0
 10
-48.2109458896
 20
37.3325986159
 10
-48.8981633452
 20
38.0582840788
 10
-49.5958307247
 20
38.8023052943
 10
-50.2906579393
 20
39.5523849557
 10
-50.9647314455
 20
40.2907217083
 10
-51.6149657489
 20
41.0151376163
 10
-52.2509347737
 20
41.7381849671
 10
-52.8767321172
 20
42.4659906102
 10
-53.4944470804
 20
43.2005963976
 10
-54.1114150181
 20
43.9505454752
  0
LWPOLYLINE
  5
300
100
AcDbEntity
  8
SUPERFICI
100
AcDbPolyline
 62
250
  6
CONTINUOUS
 90
10
 70
0
 10
-35.1083685001
 20
23.2089406887
 10
-35.1949362153
 20
23.3181630787
 10
-35.294639911
 20
23.4246888272
 10
-35.4069062857
 20
23.5279292581
 10
-35.5323176311
 20
23.6286809788
 10
-35.6693870721
 20
23.7249574759
 10
-35.8139320638
 20
23.8121283213
 10
-35.9638022587
 20
23.8884581919
 10
-36.1192939658
 20
23.9549659117
 10
-36.2792037477
 20
24.0113539492
  0
LWPOLYLINE
  5
301
100
AcDbEntity
  8
SUPERFICI
100
AcDbPolyline
 62
250
  6
CONTINUOUS
 90
10
 70
0
 10
-2.2523364429
 20
-23.4550781458
 10
-2.2659459908
 20
-23.312292266
 10
-2.2857743639
 20
-23.1780438646
 10
-2.3117462144
 20
-23.052943359
 10
-2.3438986924
 20
-22.9372476105
 10
-2.3820680427
 20
-22.832041415
 10
-2.4256976199
 20
-22.7388610214
 10
-2.4743559757
 20
-22.6582661366
 10
-2.5279286824
 20
-22.5902168517
 10
-2.5861703119
 20
-22.5349908679
  0
LINE
  5
302
100
AcDbEntity
  8
SUPERFICI
100
AcDbLine
 62
250
  6
CONTINUOUS
 10
-2.6520656909
 20
25.3591007347
 11
-2.5671459952
 21
26.0718207087
  0
LINE
  5
303
100
AcDbEntity
  8
SUPERFICI
100
AcDbLine
 62
250
  6
CONTINUOUS
 10
-2.5671459952
 20
26.0718207087
 11
-2.4815448786
 21
26.7489734924
  0
LINE
  5
304
100
AcDbEntity
  8
SUPERFICI
100
AcDbLine
 62
250
  6
CONTINUOUS
 10
-2.4815448786
 20
26.7489734924
 11
-2.3876003063
 21
27.4521007483
  0
LWPOLYLINE
  5
305
100
AcDbEntity
  8
SUPERFICI
100
AcDbPolyline
 62
250
  6
CONTINUOUS
 90
3
 70
0
 10
-2.3876003063
 20
27.4521007483
 10
-2.2873198833
 20
28.1701211923
 10
-2.2364990488
 20
28.5219134651
  0
LWPOLYLINE
  5
306
100
AcDbEntity
  8
SUPERFICI
100
AcDbPolyline
 62
250
  6
CONTINUOUS
 90
7
 70
0
 10
21.898489302
 20
18.5052061747
 10
22.6724678341
 20
18.9666437148
 10
23.0710300163
 20
19.2066789456
 10
23.4737264576
 20
19.4551835202
 10
23.8787261879
 20
19.7128458419
 10
24.2857000061
 20
19.9796550939
 10
24.6927203241
 20
20.2545443008
  0
LWPOLYLINE
  5
307
100
AcDbEntity
  8
SUPERFICI
100
AcDbPolyline
 62
250
  6
CONTINUOUS
 90
10
 70
0
 10
-53.4370403461
 20
-9.5363830128
 10
-53.0036854222
 20
-9.3914861107
 10
-52.5457853114
 20
-9.2510644615
 10
-52.0665711112
 20
-9.1167585632
 10
-51.5685694463
 20
-8.9900501311
 10
-51.0553447063
 20
-8.8725654645
 10
-50.5276312576
 20
-8.7646705479
 10
-49.9818789858
 20
-8.6654669795
 10
-49.4108804178
 20
-8.5733276286
 10
-48.8082770001
 20
-8.4866723436
  0
LWPOLYLINE
  5
308
100
AcDbEntity
  8
SUPERFICI
100
AcDbPolyline
 62
250
  6
CONTINUOUS
 90
10
 70
0
 10
-42.3161616446
 20
-17.1455703402
 10
-41.1036153325
 20
-16.8942140368
 10
-39.8992757933
 20
-16.6201028773
 10
-38.7132768029
 20
-16.3253933274
 10
-37.5565895742
 20
-16.0117753544
 10
-36.4375548613
 20
-15.6817997476
 10
-35.3511535822
 20
-15.3362168334
 10
-34.2852930544
 20
-14.9724949746
 10
-33.2293216414
 20
-14.5870372264
 10
-32.1718716294
 20
-14.1766386863
  0
LINE
  5
309
100
AcDbEntity
  8
SUPERFICI
100
AcDbLine
 62
250
  6
CONTINUOUS
 10
-37.9648450122
 20
-12.3912942897
 11
-35.063464789
 21
-11.8441941492
  0
LINE
  5
30A
100
AcDbEntity
  8
SUPERFICI
100
AcDbLine
 62
250
  6
CONTINUOUS
 10
-42.6464101533
 20
-11.9383513362
 11
-39.8833572441
 21
-11.5409281201
  0
LWPOLYLINE
  5
30B
100
AcDbEntity
  8
SUPERFICI
100
AcDbPolyline
 62
250
  6
CONTINUOUS
 90
3
 70
0
 10
-39.8833572441
 20
-11.5409281201
 10
-36.9618608045
 20
-11.1326140275
 10
-35.3845571541
 20
-10.9166983137
  0
LWPOLYLINE
  5
30C
100
AcDbEntity
  8
SUPERFICI
100
AcDbPolyline
 62
250
  6
CONTINUOUS
 90
10
 70
0
 10
-35.4471510232
 20
-9.8066323666
 10
-37.1134057616
 20
-9.9283213807
 10
-38.7087418443
 20
-10.0553869424
 10
-40.2417124828
 20
-10.1878748972
 10
-41.7169255992
 20
-10.3254439531
 10
-43.1425767375
 20
-10.4683777638
 10
-44.5232824555
 20
-10.6203592107
 10
-45.8536418315
 20
-10.7859183556
 10
-47.1241720509
 20
-10.9681631362
 10
-48.3294365026
 20
-11.1696945491
  0
LWPOLYLINE
  5
30D
100
AcDbEntity
  8
SUPERFICI
100
AcDbPolyline
 62
250
  6
CONTINUOUS
 90
10
 70
0
 10
30.5331368262
 20
-13.6157271493
 10
30.3310304192
 20
-13.5605958402
 10
30.1210515363
 20
-13.5149733024
 10
29.9041474722
 20
-13.4790967394
 10
29.6797240044
 20
-13.4530751387
 10
29.4506561415
 20
-13.4375108191
 10
29.2233853245
 20
-13.4327924013
 10
29.0009312864
 20
-13.4386057837
 10
28.7827491159
 20
-13.4546348661
 10
28.5699013716
 20
-13.4806258629
  0
LWPOLYLINE
  5
30E
100
AcDbEntity
  8
SUPERFICI
100
AcDbPolyline
 62
250
  6
CONTINUOUS
 90
10
 70
0
 10
-36.0386709034
 20
6.8278313191
 10
-35.8454522011
 20
6.7615622018
 10
-35.6596490833
 20
6.68564379
 10
-35.4821398318
 20
6.600399774
 10
-35.3127038603
 20
6.5054709229
 10
-35.1538566036
 20
6.4019101608
 10
-35.0100019933
 20
6.2926594085
 10
-34.8825683872
 20
6.1793987848
 10
-34.7708201858
 20
6.0620511462
 10
-34.6750763442
 20
5.9412945467
  0
LINE
  5
30F
100
AcDbEntity
  8
SUPERFICI
100
AcDbLine
 62
250
  6
CONTINUOUS
 10
30.7587944725
 20
-30.1378380806
 11
34.3826676512
 21
-32.5010520749
  0
LWPOLYLINE
  5
310
100
AcDbEntity
  8
SUPERFICI
100
AcDbPolyline
 62
250
  6
CONTINUOUS
 90
7
 70
0
 10
34.3826676512
 20
-32.5010520749
 10
37.7994268654
 20
-34.7441469484
 10
39.4451451333
 20
-35.8302686066
 10
41.0544254162
 20
-36.900445844
 10
42.6182103775
 20
-37.9547687314
 10
44.1229291303
 20
-38.9892656373
 10
45.5599868619
 20
-40.002228644
  0
LWPOLYLINE
  5
311
100
AcDbEntity
  8
SUPERFICI
100
AcDbPolyline
 62
250
  6
CONTINUOUS
 90
10
 70
0
 10
45.9116820937
 20
-37.5742556803
 10
46.6426027292
 20
-38.0713794468
 10
47.3374204468
 20
-38.5529335161
 10
48.0041704926
 20
-39.0249382965
 10
48.6516237032
 20
-39.4938609822
 10
49.2844328983
 20
-39.9631370674
 10
49.9022230885
 20
-40.4321929757
 10
50.5005062107
 20
-40.8969671696
 10
51.0756930449
 20
-41.3540374004
 10
51.6235419215
 20
-41.7994719458
  0
LINE
  5
312
100
AcDbEntity
  8
SUPERFICI
100
AcDbLine
 62
250
  6
CONTINUOUS
 10
35.8488973298
 20
-34.7991965659
 11
39.0452030966
 21
-37.0270120554
  0
LWPOLYLINE
  5
313
100
AcDbEntity
  8
SUPERFICI
100
AcDbPolyline
 62
250
  6
CONTINUOUS
 90
5
 70
0
 10
39.0452030966
 20
-37.0270120554
 10
40.6254108397
 20
-38.1311108471
 10
42.1737116999
 20
-39.2230642985
 10
43.6613864401
 20
-40.28786053
 10
45.0709679198
 20
-41.3169861803
  0
LWPOLYLINE
  5
314
100
AcDbEntity
  8
SUPERFICI
100
AcDbPolyline
 62
250
  6
CONTINUOUS
 90
3
 70
0
 10
30.752354107
 20
-31.2267045023
 10
32.5247616081
 20
-32.4719916017
 10
35.8488973298
 20
-34.7991965659
  0
LWPOLYLINE
  5
315
100
AcDbEntity
  8
SUPERFICI
100
AcDbPolyline
 62
250
  6
CONTINUOUS
 90
10
 70
0
 10
45.5599297537
 20
-40.0024250247
 10
46.3316171312
 20
-40.5587222155
 10
47.0713983864
 20
-41.1011709486
 10
47.7855375682
 20
-41.6349063513
 10
48.4807409501
 20
-42.1652471673
 10
49.1606427526
 20
-42.695149219
 10
49.8250450336
 20
-43.2243823543
 10
50.4696991111
 20
-43.7489508455
 10
51.0905850586
 20
-44.2648508145
 10
51.6834362743
 20
-44.7679100852
  0
LWPOLYLINE
  5
316
100
AcDbEntity
  8
SUPERFICI
100
AcDbPolyline
 62
250
  6
CONTINUOUS
 90
5
 70
0
 10
36.8824450192
 20
-36.6964130079
 10
35.3398932271
 20
-35.5719522356
 10
33.7743226917
 20
-34.4216990429
 10
32.1672455275
 20
-33.2318944445
 10
30.4773026982
 20
-31.9711301283
  0
LWPOLYLINE
  5
317
100
AcDbEntity
  8
SUPERFICI
100
AcDbPolyline
 62
250
  6
CONTINUOUS
 90
5
 70
0
 10
44.2880370306
 20
-42.137243837
 10
42.9007013454
 20
-41.0876693317
 10
41.4495927196
 20
-40.0125379388
 10
39.9471293771
 20
-38.91570774
 10
36.8824450192
 20
-36.6964130079
  0
LWPOLYLINE
  5
318
100
AcDbEntity
  8
SUPERFICI
100
AcDbPolyline
 62
250
  6
CONTINUOUS
 90
4
 70
0
 10
44.2880377654
 20
-42.137243358
 10
45.0715447622
 20
-42.7422645909
 10
45.8663978538
 20
-43.3644985492
 10
46.6591868105
 20
-43.9918184795
  0
LINE
  5
319
100
AcDbEntity
  8
SUPERFICI
100
AcDbLine
 62
250
  6
CONTINUOUS
 10
46.6591868105
 20
-43.9918184795
 11
48.1794476621
 21
-45.2090146382
  0
LWPOLYLINE
  5
31A
100
AcDbEntity
  8
SUPERFICI
100
AcDbPolyline
 62
250
  6
CONTINUOUS
 90
10
 70
0
 10
-36.2717425357
 20
23.3406514462
 10
-37.9751492648
 20
24.7124141153
 10
-39.6072982026
 20
26.0651675121
 10
-41.176860273
 20
27.4035976559
 10
-42.6884624021
 20
28.7288097645
 10
-44.1504168776
 20
30.0452130951
 10
-45.5675167428
 20
31.3562192106
 10
-46.9343619961
 20
32.657335031
 10
-48.2413253983
 20
33.9396469836
 10
-49.4828964067
 20
35.1975821305
  0
LINE
  5
31B
100
AcDbEntity
  8
SUPERFICI
100
AcDbLine
 62
250
  6
CONTINUOUS
 10
48.1794476621
 20
-45.2090146382
 11
49.6495630373
 21
-46.3987772563
  0
LINE
  5
31C
100
AcDbEntity
  8
SUPERFICI
100
AcDbLine
 62
250
  6
CONTINUOUS
 10
49.6495630373
 20
-46.3987772563
 11
51.1149671095
 21
-47.5942063019
  0
LINE
  5
31D
100
AcDbEntity
  8
SUPERFICI
100
AcDbLine
 62
250
  6
CONTINUOUS
 10
30.1134040459
 20
-34.7487121807
 11
28.8803716105
 21
-33.6603234831
  0
LINE
  5
31E
100
AcDbEntity
  8
SUPERFICI
100
AcDbLine
 62
250
  6
CONTINUOUS
 10
28.8803716105
 20
-33.6603234831
 11
27.6555930665
 21
-32.5490746204
  0
LWPOLYLINE
  5
31F
100
AcDbEntity
  8
SUPERFICI
100
AcDbPolyline
 62
250
  6
CONTINUOUS
 90
10
 70
0
 10
-48.2109451548
 20
37.3325990949
 10
-46.9979805681
 20
36.0645132737
 10
-45.7324389389
 20
34.7568405422
 10
-44.4221819582
 20
33.419148954
 10
-43.0857348379
 20
32.0711608254
 10
-41.7357808613
 20
30.7258125149
 10
-40.36925208
 20
29.38077035
 10
-38.9701867062
 20
28.0218629577
 10
-37.5213838714
 20
26.633718541
 10
-35.984528349
 20
25.1811144693
  0
LINE
  5
320
100
AcDbEntity
  8
SUPERFICI
100
AcDbLine
 62
250
  6
CONTINUOUS
 10
-47.5877675411
 20
41.6312457744
 11
-44.8170995496
 21
38.7432390143
  0
LINE
  5
321
100
AcDbEntity
  8
SUPERFICI
100
AcDbLine
 62
250
  6
CONTINUOUS
 10
-48.6813161648
 20
42.7813851311
 11
-47.5877675411
 21
41.6312457744
  0
LINE
  5
322
100
AcDbEntity
  8
SUPERFICI
100
AcDbLine
 62
250
  6
CONTINUOUS
 10
-44.8170995496
 20
38.7432390143
 11
-43.6765810724
 21
37.5437694094
  0
LWPOLYLINE
  5
323
100
AcDbEntity
  8
SUPERFICI
100
AcDbPolyline
 62
250
  6
CONTINUOUS
 90
10
 70
0
 10
-43.6766470113
 20
37.5438048125
 10
-42.4244798598
 20
36.202465592
 10
-41.1795106038
 20
34.8433259474
 10
-39.9523485652
 20
33.4833456045
 10
-38.7544290114
 20
32.1394888612
 10
-37.5945484476
 20
30.8275254082
 10
-36.4676873312
 20
29.5466864025
 10
-35.3613573776
 20
28.2836009043
 10
-34.2644772934
 20
27.0245943141
 10
-33.165259661
 20
25.7560001105
  0
LWPOLYLINE
  5
324
100
AcDbEntity
  8
SUPERFICI
100
AcDbPolyline
 62
250
  6
CONTINUOUS
 90
10
 70
0
 10
-26.4474459865
 20
32.6566113875
 10
-25.7597891084
 20
31.6059454286
 10
-25.090251559
 20
30.5349853753
 10
-24.4298042499
 20
29.4277649741
 10
-23.7643535019
 20
28.2593335659
 10
-23.0899849108
 20
27.0219401872
 10
-22.4262527249
 20
25.7503373068
 10
-21.7921190404
 20
24.4791075262
 10
-21.1947511099
 20
23.2223785058
 10
-20.6437520687
 20
22.0016219342
  0
LWPOLYLINE
  5
325
100
AcDbEntity
  8
SUPERFICI
100
AcDbPolyline
 62
250
  6
CONTINUOUS
 90
10
 70
0
 10
-1.2708460326
 20
-30.1637507698
 10
-1.2128922354
 20
-30.4025386072
 10
-1.1567057592
 20
-30.6268498251
 10
-1.1009198456
 20
-30.8419123245
 10
-1.0436398143
 20
-31.0548995048
 10
-0.9837959043
 20
-31.2698731829
 10
-0.921485906
 20
-31.487071308
 10
-0.8575328522
 20
-31.7039568749
 10
-0.7926443336
 20
-31.9179013615
 10
-0.7279240255
 20
-32.1249104736
  0
LWPOLYLINE
  5
326
100
AcDbEntity
  8
SUPERFICI
100
AcDbPolyline
 62
250
  6
CONTINUOUS
 90
10
 70
0
 10
-2.2523364498
 20
-23.4550781457
 10
-2.193143908
 20
-24.2037791309
 10
-2.1190673257
 20
-24.9883626132
 10
-2.0305907692
 20
-25.790677
 10
-1.9302083767
 20
-26.58222896
 10
-1.820210583
 20
-27.3481969622
 10
-1.701181843
 20
-28.0830251402
 10
-1.5715941156
 20
-28.7886858061
 10
-1.4294708228
 20
-29.4737284524
 10
-1.270846192
 20
-30.1637501036
  0
LWPOLYLINE
  5
327
100
AcDbEntity
  8
SUPERFICI
100
AcDbPolyline
 62
250
  6
CONTINUOUS
 90
10
 70
0
 10
-3.2505369946
 20
16.669817995
 10
-3.2310557726
 20
17.517130843
 10
-3.1993202302
 20
18.4343505864
 10
-3.1549092239
 20
19.4032459956
 10
-3.0987913044
 20
20.3909708801
 10
-3.0324026322
 20
21.3780438358
 10
-2.9560226929
 20
22.3578437474
 10
-2.8683109591
 20
23.3359235524
 10
-2.7678227349
 20
24.3251095201
 10
-2.6520658085
 20
25.3590997212
  0
LWPOLYLINE
  5
328
100
AcDbEntity
  8
SUPERFICI
100
AcDbPolyline
 62
250
  6
CONTINUOUS
 90
10
 70
0
 10
-3.2505250017
 20
16.6705315064
 10
-3.2564223903
 20
16.5033007163
 10
-3.2685745218
 20
16.3289762825
 10
-3.2869400562
 20
16.1483148486
 10
-3.3115662908
 20
15.9614674513
 10
-3.3423517118
 20
15.7698513056
 10
-3.3788474527
 20
15.5762627073
 10
-3.4206751574
 20
15.3822761613
 10
-3.467725391
 20
15.1881322895
 10
-3.5197809636
 20
14.9946885185
  0
LWPOLYLINE
  5
329
100
AcDbEntity
  8
SUPERFICI
100
AcDbPolyline
 62
250
  6
CONTINUOUS
 90
10
 70
0
 10
21.1438103795
 20
18.0417967191
 10
20.2743673036
 20
17.4693011004
 10
19.4290549848
 20
16.8635367945
 10
18.6008071678
 20
16.2134802722
 10
17.7764617473
 20
15.5025508624
 10
16.9555776321
 20
14.7243351321
 10
16.1641788747
 20
13.8995888947
 10
15.4256162032
 20
13.0499008924
 10
14.7484439595
 20
12.184570836
 10
14.1431375781
 20
11.3189044794
  0
LWPOLYLINE
  5
32A
100
AcDbEntity
  8
SUPERFICI
100
AcDbPolyline
 62
250
  6
CONTINUOUS
 90
3
 70
0
 10
21.1436435861
 20
18.0418508771
 10
21.5199553677
 20
18.2758650319
 10
21.898489302
 20
18.5052061747
  0
LWPOLYLINE
  5
32B
100
AcDbEntity
  8
SUPERFICI
100
AcDbPolyline
 62
250
  6
CONTINUOUS
 90
10
 70
0
 10
-53.2912667015
 20
-14.3027687843
 10
-52.7587326245
 20
-14.1218768714
 10
-52.199510579
 20
-13.9412672265
 10
-51.6202412083
 20
-13.7639007453
 10
-51.0236939094
 20
-13.5913823293
 10
-50.4111912357
 20
-13.4245914753
 10
-49.7813896809
 20
-13.2632333246
 10
-49.1315189762
 20
-13.1065991028
 10
-48.459854073
 20
-12.9544842276
 10
-47.7670190995
 20
-12.8073583144
  0
LWPOLYLINE
  5
32C
100
AcDbEntity
  8
SUPERFICI
100
AcDbPolyline
 62
250
  6
CONTINUOUS
 90
4
 70
0
 10
40.3403453267
 20
13.009985533
 10
39.6915572926
 20
12.7914476154
 10
39.0422610266
 20
12.5685755841
 10
38.3931877197
 20
12.340936949
  0
LINE
  5
32D
100
AcDbEntity
  8
SUPERFICI
100
AcDbLine
 62
250
  6
CONTINUOUS
 10
41.6202496316
 20
13.4314082697
 11
40.3403453267
 21
13.009985533
  0
LWPOLYLINE
  5
32E
100
AcDbEntity
  8
SUPERFICI
100
AcDbPolyline
 62
250
  6
CONTINUOUS
 90
10
 70
0
 10
-52.6266111487
 20
-15.7361713367
 10
-52.0197643944
 20
-15.538856087
 10
-51.4157141247
 20
-15.3486483771
 10
-50.8071453603
 20
-15.1633017689
 10
-50.1940860222
 20
-14.9829722863
 10
-49.5722095846
 20
-14.8062296887
 10
-48.9274301183
 20
-14.6292884136
 10
-48.2607875791
 20
-14.4531990947
 10
-47.5910575073
 20
-14.2837128995
 10
-46.9308606203
 20
-14.1248020577
  0
LINE
  5
32F
100
AcDbEntity
  8
SUPERFICI
100
AcDbLine
 62
250
  6
CONTINUOUS
 10
42.9000201007
 20
13.8433211193
 11
41.6202496316
 21
13.4314082697
  0
LINE
  5
330
100
AcDbEntity
  8
SUPERFICI
100
AcDbLine
 62
250
  6
CONTINUOUS
 10
44.207394007
 20
14.2561603817
 11
42.9000201007
 21
13.8433211193
  0
LWPOLYLINE
  5
331
100
AcDbEntity
  8
SUPERFICI
100
AcDbPolyline
 62
250
  6
CONTINUOUS
 90
10
 70
0
 10
28.1110253464
 20
4.0627629917
 10
28.3042407452
 20
4.1095303102
 10
28.4999688723
 20
4.149189024
 10
28.6972599595
 20
4.1815548771
 10
28.8953783404
 20
4.2064659279
 10
29.0931086939
 20
4.2236925031
 10
29.2888504968
 20
4.2330772538
 10
29.4815615072
 20
4.2346190668
 10
29.6706616653
 20
4.2283320467
 10
29.8553442208
 20
4.2142148345
  0
LWPOLYLINE
  5
332
100
AcDbEntity
  8
SUPERFICI
100
AcDbPolyline
 62
250
  6
CONTINUOUS
 90
7
 70
0
 10
-46.9308602819
 20
-14.1248024712
 10
-45.7559774765
 20
-13.8620604903
 10
-44.5292549778
 20
-13.6092651436
 10
-43.2583740271
 20
-13.3641021617
 10
-41.9614155604
 20
-13.1247084319
 10
-40.6508504134
 20
-12.8866876529
 10
-37.9648450122
 20
-12.3912942897
  0
LWPOLYLINE
  5
333
100
AcDbEntity
  8
SUPERFICI
100
AcDbPolyline
 62
250
  6
CONTINUOUS
 90
5
 70
0
 10
-47.7670185722
 20
-12.8073594206
 10
-46.5764563907
 20
-12.5758442412
 10
-45.3158615098
 20
-12.3544025988
 10
-43.9982889736
 20
-12.1421650331
 10
-42.6464101533
 20
-11.9383513362
  0
LWPOLYLINE
  5
334
100
AcDbEntity
  8
SUPERFICI
100
AcDbPolyline
 62
250
  6
CONTINUOUS
 90
10
 70
0
 10
-48.3293696697
 20
-11.1699289909
 10
-48.973545269
 20
-11.2914283515
 10
-49.5888964565
 20
-11.4177290144
 10
-50.1803981026
 20
-11.5505147431
 10
-50.7534334139
 20
-11.6913917191
 10
-51.3108832077
 20
-11.8413150596
 10
-51.8525699971
 20
-12.0001699031
 10
-52.3751883048
 20
-12.1662803311
 10
-52.8756727898
 20
-12.3378182828
 10
-53.3507566152
 20
-12.5129250284
  0
LWPOLYLINE
  5
335
100
AcDbEntity
  8
SUPERFICI
100
AcDbPolyline
 62
250
  6
CONTINUOUS
 90
10
 70
0
 10
29.9342029022
 20
3.00944575
 10
31.7384393578
 20
3.3040451126
 10
33.4841112299
 20
3.619502399
 10
35.1793556428
 20
3.9553420392
 10
36.8278899943
 20
4.3101067902
 10
38.4373049225
 20
4.6833222741
 10
40.0101910556
 20
5.0761325998
 10
41.5374901372
 20
5.4884846786
 10
43.0057757045
 20
5.9185445066
 10
44.4065268769
 20
6.3650480604
  0
LWPOLYLINE
  5
336
100
AcDbEntity
  8
SUPERFICI
100
AcDbPolyline
 62
250
  6
CONTINUOUS
 90
10
 70
0
 10
28.2029071745
 20
1.2718988647
 10
28.4001529923
 20
1.2965978304
 10
28.6024771812
 20
1.3126428709
 10
28.8089481783
 20
1.3198362292
 10
29.0199966127
 20
1.3178288446
 10
29.2330306428
 20
1.3064850608
 10
29.4425901468
 20
1.2863987641
 10
29.6462780266
 20
1.2580895416
 10
29.8445991258
 20
1.2214919057
 10
30.0366520523
 20
1.1767668517
  0
LWPOLYLINE
  5
337
100
AcDbEntity
  8
0
100
AcDbPolyline
 62
250
  6
CONTINUOUS
 90
38
 70
0
 10
28.1411312107
 20
3.7872379551
 10
28.0940866473
 20
3.7813411586
 10
28.0463985709
 20
3.7769754128
 10
27.9981640167
 20
3.7741540407
 10
27.949408362
 20
3.7729362184
 10
27.9003135335
 20
3.773292277
 10
27.851217225
 20
3.7750816467
 10
27.8022633485
 20
3.7782496437
 10
27.7535320299
 20
3.7828321717
 10
27.705263729
 20
3.7887932694
 10
27.6575732075
 20
3.7960970485
 10
27.6105675354
 20
3.8047395199
 10
27.5644669934
 20
3.8147117459
 10
27.5194038432
 20
3.8260062011
 10
27.4754497978
 20
3.8385705546
 10
27.4327249822
 20
3.8523176421
 10
27.391342474
 20
3.8671855168
 10
27.351378791
 20
3.8831757895
 10
27.3128977093
 20
3.9002981164
 10
27.2759976365
 20
3.9185306441
 10
27.240765294
 20
3.9378428321
 10
27.2072531872
 20
3.958238275
 10
27.1755644581
 20
3.9796896177
 10
27.1457846241
 20
4.0021806986
 10
27.1179366604
 20
4.0257293451
 10
27.0920489992
 20
4.0502738221
 10
27.0681476142
 20
4.0757375023
 10
27.0462227822
 20
4.102091453
 10
27.026296885
 20
4.1292790413
 10
27.0084128793
 20
4.1572164573
 10
26.9926018591
 20
4.1858367025
 10
26.9788923965
 20
4.2150756893
 10
26.9673231325
 20
4.2448510657
 10
26.9579349549
 20
4.275065902
 10
26.9507511755
 20
4.3056636144
 10
26.9458063557
 20
4.336547209
 10
26.9431325012
 20
4.3675553669
 10
26.9429171447
 20
4.3724911821
  0
LWPOLYLINE
  5
338
100
AcDbEntity
  8
SUPERFICI
100
AcDbPolyline
 62
250
  6
CONTINUOUS
 90
10
 70
0
 10
-48.8082860504
 20
-8.4866467366
 10
-47.5512034632
 20
-8.3345885337
 10
-46.25750029
 20
-8.2141130502
 10
-44.9122569878
 20
-8.1208246519
 10
-43.4964962051
 20
-8.0500364318
 10
-41.9989565598
 20
-7.9975393109
 10
-40.4351169327
 20
-7.9622794636
 10
-38.8275903047
 20
-7.9450876207
 10
-37.1909549351
 20
-7.9467004708
 10
-35.5433212443
 20
-7.9679485173
  0
LWPOLYLINE
  5
339
100
AcDbEntity
  8
SUPERFICI
100
AcDbPolyline
 62
250
  6
CONTINUOUS
 90
10
 70
0
 10
28.1425865693
 20
3.7851902005
 10
28.3326848513
 20
3.8076589741
 10
28.5264915827
 20
3.8224882348
 10
28.7238895953
 20
3.8299713886
 10
28.925043063
 20
3.830557985
 10
29.1276799084
 20
3.8228157186
 10
29.3279112609
 20
3.8044496333
 10
29.5242968421
 20
3.775101845
 10
29.7173900016
 20
3.7356438037
 10
29.9068011274
 20
3.6862722269
  0
LWPOLYLINE
  5
33A
100
AcDbEntity
  8
SUPERFICI
100
AcDbPolyline
 62
250
  6
CONTINUOUS
 90
10
 70
0
 10
30.0366591663
 20
1.1766640028
 10
31.8070572581
 20
1.294701592
 10
33.587427339
 20
1.4606941929
 10
35.3552707975
 20
1.671414616
 10
37.094707809
 20
1.923422947
 10
38.7794890323
 20
2.2111722272
 10
40.3884869024
 20
2.5296627334
 10
41.9309446121
 20
2.8789960837
 10
43.4259886267
 20
3.2621330595
 10
44.8853599084
 20
3.6820723492
  0
LWPOLYLINE
  5
33B
100
AcDbEntity
  8
SUPERFICI
100
AcDbPolyline
 62
250
  6
CONTINUOUS
 90
10
 70
0
 10
-49.3367101382
 20
-4.240031802
 10
-47.9332940311
 20
-4.1986467698
 10
-46.5658482807
 20
-4.199761399
 10
-45.1765260149
 20
-4.235619267
 10
-43.749299184
 20
-4.3008838921
 10
-42.2588290396
 20
-4.3916066322
 10
-40.6714584166
 20
-4.5092124725
 10
-38.999117417
 20
-4.6551578604
 10
-37.3117359641
 20
-4.8248343563
 10
-35.6498861836
 20
-5.0144329617
  0
LWPOLYLINE
  5
33C
100
AcDbEntity
  8
SUPERFICI
100
AcDbPolyline
 62
250
  6
CONTINUOUS
 90
10
 70
0
 10
30.1436333282
 20
-1.774360423
 10
31.7376093146
 20
-1.8566102941
 10
33.4457100266
 20
-1.8898881475
 10
35.2318850038
 20
-1.8682293944
 10
37.0446081497
 20
-1.7887714412
 10
38.8266932592
 20
-1.6542251284
 10
40.5264058788
 20
-1.4679049085
 10
42.1566409633
 20
-1.2283464082
 10
43.7635118323
 20
-0.931859752
 10
45.4138019901
 20
-0.5646098139
  0
LINE
  5
33D
100
AcDbEntity
  8
RACCORDO
100
AcDbLine
 62
250
  6
CONTINUOUS
 10
53.6934591657
 20
-18.7880117172
 11
53.4740968592
 21
-18.720647678
  0
LINE
  5
33E
100
AcDbEntity
  8
RACCORDO
100
AcDbLine
 62
250
  6
CONTINUOUS
 10
53.4507434327
 20
-18.0267664848
 11
54.2626569094
 21
-18.2760972477
  0
LINE
  5
33F
100
AcDbEntity
  8
RACCORDO
100
AcDbLine
 62
7
  6
CONTINUOUS
 10
53.4483527024
 20
-17.9306628887
 11
54.4021247819
 21
-18.2235570542
  0
LWPOLYLINE
  5
340
100
AcDbEntity
  8
SUPERFICI
100
AcDbPolyline
 62
250
  6
CONTINUOUS
 90
10
 70
0
 10
-36.2375971509
 20
18.6106736145
 10
-37.7756154921
 20
19.4902289181
 10
-39.4002679061
 20
20.4804073251
 10
-41.0749880223
 20
21.5648734979
 10
-42.7499825671
 20
22.7153758311
 10
-44.37258944
 20
23.8954701315
 10
-45.8959723947
 20
25.0715718381
 10
-47.3345178829
 20
26.2535231801
 10
-48.7344993096
 20
27.473385103
 10
-50.1582507904
 20
28.7846435052
  0
LWPOLYLINE
  5
341
100
AcDbEntity
  8
SUPERFICI
100
AcDbPolyline
 62
250
  6
CONTINUOUS
 90
10
 70
0
 10
-36.2790103765
 20
21.5415649107
 10
-37.9668625789
 20
22.7215977273
 10
-39.6438622619
 20
23.9493151533
 10
-41.2892776055
 20
25.2082143517
 10
-42.8890455328
 20
26.4856602325
 10
-44.4199152447
 20
27.7609048226
 10
-45.8649075212
 20
29.0172461737
 10
-47.2364144405
 20
30.2614298863
 10
-48.5552195572
 20
31.508672723
 10
-49.8345880631
 20
32.7696525205
  0
LWPOLYLINE
  5
342
100
AcDbEntity
  8
SUPERFICI
100
AcDbPolyline
 62
250
  6
CONTINUOUS
 90
10
 70
0
 10
51.5241032901
 20
-37.0407848714
 10
51.0051110767
 20
-36.6707697084
 10
50.4611508534
 20
-36.2911848817
 10
49.8967507612
 20
-35.9056196346
 10
49.3120813032
 20
-35.5147720256
 10
48.7147529154
 20
-35.1243870346
 10
48.1144601516
 20
-34.7409251511
 10
47.508967112
 20
-34.3624986594
 10
46.8852267958
 20
-33.980414223
 10
46.235344445
 20
-33.5892848359
  0
LWPOLYLINE
  5
343
100
AcDbEntity
  8
SUPERFICI
100
AcDbPolyline
 62
250
  6
CONTINUOUS
 90
10
 70
0
 10
51.7113606396
 20
-46.5480603664
 10
51.0613611268
 20
-46.004023822
 10
50.381427987
 20
-45.4428816012
 10
49.6798786854
 20
-44.87218809
 10
48.960272447
 20
-44.2954916486
 10
48.2242998456
 20
-43.7145970762
 10
47.4701888809
 20
-43.1282527718
 10
46.6943580912
 20
-42.5337994062
 10
45.8944779024
 20
-41.9297872617
 10
45.071018654
 20
-41.3170220541
  0
LWPOLYLINE
  5
344
100
AcDbEntity
  8
SUPERFICI
100
AcDbPolyline
 62
250
  6
CONTINUOUS
 90
10
 70
0
 10
27.324259988
 20
-31.7188651715
 10
27.3764103766
 20
-31.7684766199
 10
27.425404471
 20
-31.8294844425
 10
27.47103379
 20
-31.9017253469
 10
27.5133525526
 20
-31.9853148518
 10
27.5518168679
 20
-32.079823448
 10
27.5854412802
 20
-32.184012973
 10
27.6138873106
 20
-32.2970770174
 10
27.6373071815
 20
-32.418905402
 10
27.6555928933
 20
-32.5490748744
  0
LWPOLYLINE
  5
345
100
AcDbEntity
  8
0
100
AcDbPolyline
 62
250
  6
CONTINUOUS
 90
45
 70
0
 10
27.3254554669
 20
-31.7156832
 10
27.3111774884
 20
-31.7018524544
 10
27.2977933448
 20
-31.6858396549
 10
27.2853306146
 20
-31.6676766469
 10
27.2738453232
 20
-31.647383992
 10
27.2633405051
 20
-31.6250072122
 10
27.2537547705
 20
-31.6006411576
 10
27.2450700697
 20
-31.5743454244
 10
27.2373422832
 20
-31.5461874007
 10
27.2306031988
 20
-31.5163110088
 10
27.2248654021
 20
-31.4847978168
 10
27.2201396709
 20
-31.4517227669
 10
27.2164402777
 20
-31.4172442727
 10
27.2137729309
 20
-31.3814689896
 10
27.2121396592
 20
-31.3444650694
 10
27.211539558
 20
-31.3063449268
 10
27.2119694806
 20
-31.2672164898
 10
27.2134343233
 20
-31.2271437117
 10
27.2159457153
 20
-31.1861705294
 10
27.2195099061
 20
-31.1443778777
 10
27.2241286505
 20
-31.1018412709
 10
27.2298132674
 20
-31.0585891282
 10
27.2365702525
 20
-31.0147083327
 10
27.2444068592
 20
-30.9702584567
 10
27.253331351
 20
-30.9252305886
 10
27.2633076704
 20
-30.87972203
 10
27.2742951685
 20
-30.8338526216
 10
27.2862733929
 20
-30.7876677691
 10
27.299212188
 20
-30.7412583795
 10
27.3130665086
 20
-30.6947581451
 10
27.3277972496
 20
-30.6482775866
 10
27.3433703234
 20
-30.6019160313
 10
27.3597413474
 20
-30.5558080327
 10
27.3768529112
 20
-30.5101179726
 10
27.3946741575
 20
-30.46493327
 10
27.4131506367
 20
-30.420405852
 10
27.4321812273
 20
-30.3767897666
 10
27.4517197936
 20
-30.3341846807
 10
27.4717157726
 20
-30.2927145249
 10
27.4920510317
 20
-30.2526476213
 10
27.5126576361
 20
-30.2141944285
 10
27.5335000353
 20
-30.1773180039
 10
27.5545097966
 20
-30.1419151405
 10
27.5756370605
 20
-30.108027199
 10
27.5968458017
 20
-30.0758196703
  0
LWPOLYLINE
  5
346
100
AcDbEntity
  8
SUPERFICI
100
AcDbPolyline
 62
250
  6
CONTINUOUS
 90
7
 70
0
 10
-26.745253484
 20
33.0976439921
 10
-27.6510834921
 20
34.4205197465
 10
-27.9589948858
 20
34.8775061815
 10
-28.2657944664
 20
35.3438901242
 10
-28.5695226101
 20
35.8191959234
 10
-28.8698042135
 20
36.303196477
 10
-29.1650596926
 20
36.793747791
  0
LINE
  5
347
100
AcDbEntity
  8
SUPERFICI
100
AcDbLine
 62
250
  6
CONTINUOUS
 10
-26.4472787923
 20
32.6565629811
 11
-26.745253484
 21
33.0976439921
  0
LWPOLYLINE
  5
348
100
AcDbEntity
  8
SUPERFICI
100
AcDbPolyline
 62
250
  6
CONTINUOUS
 90
10
 70
0
 10
15.1404068971
 20
-28.7855298302
 10
15.7851175174
 20
-29.8604694533
 10
16.5034667579
 20
-30.9432987136
 10
17.2830089364
 20
-32.0169502529
 10
18.1153078285
 20
-33.0695412215
 10
18.9780877585
 20
-34.0716416698
 10
19.8450440468
 20
-34.9958455769
 10
20.7168210505
 20
-35.8533296337
 10
21.6073713539
 20
-36.669080372
 10
22.5245588917
 20
-37.4612748859
  0
LWPOLYLINE
  5
349
100
AcDbEntity
  8
SUPERFICI
100
AcDbPolyline
 62
250
  6
CONTINUOUS
 90
10
 70
0
 10
38.3932574684
 20
12.3409306838
 10
36.9672213056
 20
11.8220418054
 10
35.5495353608
 20
11.2805778277
 10
34.1557385464
 20
10.7254686064
 10
32.8021817422
 20
10.1651455824
 10
31.5023050887
 20
9.6085497873
 10
30.2520916606
 20
9.0576873901
 10
29.0373396472
 20
8.5073837214
 10
27.8452158859
 20
7.9513080797
 10
26.6622049652
 20
7.3835641978
  0
LWPOLYLINE
  5
34A
100
AcDbEntity
  8
SUPERFICI
100
AcDbPolyline
 62
250
  6
CONTINUOUS
 90
11
 70
0
 10
-54.6587405047
 20
43.3177358243
 10
-54.7476254194
 20
43.3793766921
 10
-54.8273714101
 20
43.4464979171
 10
-54.8973373566
 20
43.518512193
 10
-54.956879364
 20
43.5947873865
 10
-55.0051631241
 20
43.6742686819
 10
-55.0413114615
 20
43.7557092145
 10
-55.0646823746
 20
43.8379937636
 10
-55.0751106132
 20
43.9199424546
 10
-55.0725773111
 20
44.0002046217
 10
-55.0609659715
 20
44.0636402505
  0
LWPOLYLINE
  5
34B
100
AcDbEntity
  8
SUPERFICI
100
AcDbPolyline
 62
250
  6
CONTINUOUS
 90
10
 70
0
 10
-25.0667190754
 20
-22.8464420618
 10
-24.4127245685
 20
-22.5439335643
 10
-23.7783233017
 20
-22.2024702375
 10
-23.1551966418
 20
-21.8094591485
 10
-22.5302809969
 20
-21.348443077
 10
-21.900108675
 20
-20.809215837
 10
-21.2830904045
 20
-20.2029926843
 10
-20.696965848
 20
-19.5443309133
 10
-20.1483790175
 20
-18.8401363245
 10
-19.64607218
 20
-18.1035427714
  0
LWPOLYLINE
  5
34C
100
AcDbEntity
  8
SUPERFICI
100
AcDbPolyline
 62
250
  6
CONTINUOUS
 90
10
 70
0
 10
43.0079520679
 20
9.3201577567
 10
41.6586981667
 20
8.838904459
 10
40.246408674
 20
8.353567773
 10
38.7833213643
 20
7.8675434008
 10
37.2941469881
 20
7.3872763127
 10
35.7975144951
 20
6.9160871833
 10
34.2944738491
 20
6.4522620436
 10
32.7689809272
 20
5.9914582262
 10
31.2030033592
 20
5.5291237212
 10
29.5562390736
 20
5.05417851
  0
LWPOLYLINE
  5
34D
100
AcDbEntity
  8
SUPERFICI
100
AcDbPolyline
 62
250
  6
CONTINUOUS
 90
10
 70
0
 10
44.4064590813
 20
6.3652812958
 10
45.1579400667
 20
6.6212492796
 10
45.8778263526
 20
6.8785470084
 10
46.5721785119
 20
7.1402187827
 10
47.2474957591
 20
7.4092692975
 10
47.9072951886
 20
7.6874510143
 10
48.5513878
 20
7.9746346432
 10
49.1756902516
 20
8.2681694935
 10
49.7763521683
 20
8.5652437466
 10
50.3492826653
 20
8.8629660259
  0
LWPOLYLINE
  5
34E
100
AcDbEntity
  8
SUPERFICI
100
AcDbPolyline
 62
250
  6
CONTINUOUS
 90
10
 70
0
 10
43.8441109951
 20
8.0027155024
 10
42.469573211
 20
7.5406532191
 10
41.0182841703
 20
7.0802451833
 10
39.5074604567
 20
6.625836924
 10
37.9653373653
 20
6.1836206068
 10
36.4118273443
 20
5.7558570351
 10
34.8462913481
 20
5.3400883467
 10
33.2494308296
 20
4.9320372504
 10
31.6025660561
 20
4.5279765332
 10
29.8730168465
 20
4.1212758868
  0
LWPOLYLINE
  5
34F
100
AcDbEntity
  8
SUPERFICI
100
AcDbPolyline
 62
250
  6
CONTINUOUS
 90
10
 70
0
 10
44.8853662863
 20
3.6820251154
 10
45.5983877722
 20
3.9044190041
 10
46.275660693
 20
4.128138164
 10
46.9249898189
 20
4.3564269576
 10
47.5549007281
 20
4.5926771862
 10
48.1699156521
 20
4.8387028036
 10
48.7696872679
 20
5.0939652407
 10
49.3498972304
 20
5.3557036315
 10
49.9071024829
 20
5.6214646976
 10
50.4372273988
 20
5.8885054884
  0
LWPOLYLINE
  5
350
100
AcDbEntity
  8
SUPERFICI
100
AcDbPolyline
 62
250
  6
CONTINUOUS
 90
10
 70
0
 10
-53.5714828221
 20
-4.7669465495
 10
-53.1671123242
 20
-4.6804871472
 10
-52.7403743888
 20
-4.5989943392
 10
-52.2946676853
 20
-4.5236231224
 10
-51.8299218292
 20
-4.4550408094
 10
-51.3519363696
 20
-4.3948743038
 10
-50.868380274
 20
-4.3442519252
 10
-50.3775766295
 20
-4.302487545
 10
-49.8691113578
 20
-4.2680924973
 10
-49.336710237
 20
-4.2400309329
  0
LWPOLYLINE
  5
351
100
AcDbEntity
  8
SUPERFICI
100
AcDbPolyline
 62
250
  6
CONTINUOUS
 90
10
 70
0
 10
49.6301637061
 20
12.0925112566
 10
48.9020443144
 20
11.7432244689
 10
48.1844144575
 20
11.4106856866
 10
47.4684838247
 20
11.0907996751
 10
46.7541357287
 20
10.7835412438
 10
46.0351200484
 20
10.4850696193
 10
45.293706647
 20
10.1870325379
 10
44.5298860181
 20
9.8891655114
 10
43.7637212837
 20
9.5988332262
 10
43.0079524063
 20
9.3201573432
  0
LWPOLYLINE
  5
352
100
AcDbEntity
  8
SUPERFICI
100
AcDbPolyline
 62
250
  6
CONTINUOUS
 90
10
 70
0
 10
50.2884399065
 20
10.651114483
 10
49.6594801062
 20
10.3493876826
 10
49.0010906569
 20
10.044507442
 10
48.3212846545
 20
9.7411545314
 10
47.6234731264
 20
9.441737905
 10
46.9092707634
 20
9.147503148
 10
46.1769558265
 20
8.8576814239
 10
45.4230526317
 20
8.5706799743
 10
44.6452897896
 20
8.2856095756
 10
43.8441115223
 20
8.0027143961
  0
LWPOLYLINE
  5
353
100
AcDbEntity
  8
SUPERFICI
100
AcDbPolyline
 62
250
  6
CONTINUOUS
 90
4
 70
0
 10
-25.0665517545
 20
-22.8464955588
 10
-25.3506083275
 20
-22.9649010637
 10
-25.6361079491
 20
-23.0776572306
 10
-25.9238164797
 20
-23.1868395467
  0
LWPOLYLINE
  5
354
100
AcDbEntity
  8
SUPERFICI
100
AcDbPolyline
 62
250
  6
CONTINUOUS
 90
6
 70
0
 10
-25.9238164797
 20
-23.1868395467
 10
-26.5091539788
 20
-23.4038213697
 10
-26.8016063011
 20
-23.5141746797
 10
-27.0907135099
 20
-23.6266075004
 10
-27.3761076291
 20
-23.7410604243
 10
-27.6562760175
 20
-23.8569864625
  0
LWPOLYLINE
  5
355
100
AcDbEntity
  8
SUPERFICI
100
AcDbPolyline
 62
250
  6
CONTINUOUS
 90
13
 70
0
 10
50.2102452802
 20
11.1134842719
 10
50.3179904745
 20
11.1147419345
 10
50.4281718109
 20
11.1235383137
 10
50.5398480424
 20
11.139772033
 10
50.6520272957
 20
11.1633132877
 10
50.7631604244
 20
11.193839198
 10
50.8714617527
 20
11.230920635
 10
50.9753905856
 20
11.2741126629
 10
51.0735320193
 20
11.3227206574
 10
51.1643416269
 20
11.3758740246
 10
51.2465713453
 20
11.4328046018
 10
51.3195273845
 20
11.4930059616
 10
51.3825587128
 20
11.5559796497
  0
LWPOLYLINE
  5
356
100
AcDbEntity
  8
SUPERFICI
100
AcDbPolyline
 62
250
  6
CONTINUOUS
 90
5
 70
0
 10
26.8939557538
 20
7.3169801741
 10
26.5913956531
 20
7.404057309
 10
26.5040396852
 20
7.4305026265
 10
26.4001264441
 20
7.462885279
 10
26.2711577001
 20
7.5046023977
  0
LINE
  5
357
100
AcDbEntity
  8
0
100
AcDbLine
 62
7
  6
CONTINUOUS
 10
26.4612252192
 20
4.8116358759
 11
26.4579294981
 21
4.8126034095
  0
LWPOLYLINE
  5
358
100
AcDbEntity
  8
SUPERFICI
100
AcDbPolyline
 62
250
  6
CONTINUOUS
 90
3
 70
0
 10
-29.9088222238
 20
24.8070577889
 10
-29.7136874566
 20
24.7488312778
 10
-29.3182852348
 20
24.6330222519
  0
LINE
  5
359
100
AcDbEntity
  8
SUPERFICI
100
AcDbLine
 62
250
  6
CONTINUOUS
 10
-29.3182852348
 20
24.6330222519
 11
-25.244225829
 21
23.3992865137
  0
LINE
  5
35A
100
AcDbEntity
  8
SUPERFICI
100
AcDbLine
 62
250
  6
CONTINUOUS
 10
-25.244225829
 20
23.3992865137
 11
-20.6433977723
 21
22.0008209109
  0
LINE
  5
35B
100
AcDbEntity
  8
SUPERFICI
100
AcDbLine
 62
7
  6
CONTINUOUS
 10
-33.3589301128
 20
23.1817826245
 11
26.4579294981
 21
4.8126034095
  0
LINE
  5
35C
100
AcDbEntity
  8
SUPERFICI
100
AcDbLine
 62
250
  6
CONTINUOUS
 10
-20.6437520687
 20
22.0016219342
 11
-5.1375046393
 21
17.2497862436
  0
LINE
  5
35D
100
AcDbEntity
  8
SUPERFICI
100
AcDbLine
 62
250
  6
CONTINUOUS
 10
26.3918902751
 20
5.8121687731
 11
24.5254430599
 21
6.3833654499
  0
LINE
  5
35E
100
AcDbEntity
  8
SUPERFICI
100
AcDbLine
 62
250
  6
CONTINUOUS
 10
23.7932864497
 20
8.3155680445
 11
23.4079058863
 21
8.4340061077
  0
LINE
  5
35F
100
AcDbEntity
  8
SUPERFICI
100
AcDbLine
 62
250
  6
CONTINUOUS
 10
24.5254430599
 20
6.3833654499
 11
-33.4275920083
 21
24.1818450528
  0
LWPOLYLINE
  5
360
100
AcDbEntity
  8
SUPERFICI
100
AcDbPolyline
 62
250
  6
CONTINUOUS
 90
5
 70
0
 10
-33.0947233897
 20
25.7330873597
 10
-33.0074948391
 20
25.7059194596
 10
-32.9035620162
 20
25.6744745956
 10
-32.7744012406
 20
25.6369226347
 10
-32.628777898
 20
25.5960076244
  0
LINE
  5
361
100
AcDbEntity
  8
SUPERFICI
100
AcDbLine
 62
250
  6
CONTINUOUS
 10
14.396652097
 20
11.2391548492
 11
-5.1375046393
 21
17.2497862436
  0
LINE
  5
362
100
AcDbEntity
  8
SUPERFICI
100
AcDbLine
 62
250
  6
CONTINUOUS
 10
22.8176310469
 20
8.622586466
 11
14.396652097
 21
11.2391548492
  0
LWPOLYLINE
  5
363
100
AcDbEntity
  8
SUPERFICI
100
AcDbPolyline
 62
250
  6
CONTINUOUS
 90
3
 70
0
 10
23.4079058863
 20
8.4340061077
 10
23.0160624861
 20
8.5584679851
 10
22.8176310469
 20
8.622586466
  0
LWPOLYLINE
  5
364
100
AcDbEntity
  8
SUPERFICI
100
AcDbPolyline
 62
7
  6
CONTINUOUS
 90
20
 70
0
 10
26.45965083
 20
4.8064824985
 10
26.4768577391
 20
4.8008934874
 10
26.5104731804
 20
4.7882899338
 10
26.5460468424
 20
4.7726290139
 10
26.5828915573
 20
4.7539519923
 10
26.6203358223
 20
4.7324081691
 10
26.6577665372
 20
4.7082061753
 10
26.6946515109
 20
4.6815849895
 10
26.7304988272
 20
4.6528285855
 10
26.7646461814
 20
4.6224389716
 10
26.7963948265
 20
4.5911087634
 10
26.8253520468
 20
4.5593809858
 10
26.8511367445
 20
4.5279081595
 10
26.8733230072
 20
4.497648666
 10
26.8918594736
 20
4.4692758882
 10
26.906857689
 20
4.4433215094
 10
26.9183984068
 20
4.4204921633
 10
26.9267110965
 20
4.4014032942
 10
26.9322722423
 20
4.3862730158
 10
26.935606619
 20
4.3752108447
  0
LWPOLYLINE
  5
365
100
AcDbEntity
  8
SUPERFICI
100
AcDbPolyline
 62
250
  6
CONTINUOUS
 90
3
 70
0
 10
25.0491904849
 20
7.9121603332
 10
24.9297922241
 20
7.9509877662
 10
24.5419632576
 20
8.0751684325
  0
LWPOLYLINE
  5
366
100
AcDbEntity
  8
0
100
AcDbPolyline
 62
250
  6
CONTINUOUS
 90
16
 70
0
 10
-3.4505007062
 20
13.9971925732
 10
-3.4593475391
 20
14.0002413456
 10
-3.4933906175
 20
14.0190257502
 10
-3.523441631
 20
14.047809183
 10
-3.5489877411
 20
14.0863234476
 10
-3.5697532917
 20
14.1345201761
 10
-3.5857382321
 20
14.1922638703
 10
-3.5969700441
 20
14.2588963655
 10
-3.6034230561
 20
14.3334386078
 10
-3.6051143583
 20
14.4150964266
 10
-3.6020311225
 20
14.5032742
 10
-3.5941674533
 20
14.5967862063
 10
-3.5816615837
 20
14.6938164887
 10
-3.5646998849
 20
14.7930210687
 10
-3.5433806293
 20
14.8936537732
 10
-3.5178296959
 20
14.9947142874
  0
LWPOLYLINE
  5
367
100
AcDbEntity
  8
0
100
AcDbPolyline
 62
250
  6
CONTINUOUS
 90
32
 70
0
 10
26.4579294981
 20
4.8126034095
 10
26.4455496905
 20
4.817060359
 10
26.4294659377
 20
4.8249753604
 10
26.4142047113
 20
4.8350398162
 10
26.3998077364
 20
4.8472409713
 10
26.3863238014
 20
4.8615584988
 10
26.3737857261
 20
4.8779847833
 10
26.3622147687
 20
4.8965361424
 10
26.3516547874
 20
4.9172055162
 10
26.3421445814
 20
4.9399825983
 10
26.3336763114
 20
4.9648450132
 10
26.3262461465
 20
4.9917151117
 10
26.3198521639
 20
5.0204996683
 10
26.3144852137
 20
5.0511460558
 10
26.3101475385
 20
5.0835723961
 10
26.30683696
 20
5.1176941237
 10
26.3045439533
 20
5.1534630428
 10
26.3032664177
 20
5.1908192523
 10
26.3030128803
 20
5.229656563
 10
26.3037902262
 20
5.2698560021
 10
26.3055999216
 20
5.3113480674
 10
26.3084414885
 20
5.3540190309
 10
26.3123093393
 20
5.397671264
 10
26.3171968814
 20
5.4422075007
 10
26.3230962882
 20
5.4875211993
 10
26.3299851626
 20
5.5333879048
 10
26.3378113089
 20
5.5797298655
 10
26.3465975998
 20
5.6264136635
 10
26.3564159053
 20
5.6731234577
 10
26.3672688665
 20
5.7196838137
 10
26.3791017501
 20
5.7660645731
 10
26.3918902751
 20
5.8121687731
  0
LINE
  5
368
100
AcDbEntity
  8
0
100
AcDbLine
 62
250
  6
CONTINUOUS
 10
-33.3712906808
 20
23.186234062
 11
-33.3589301128
 21
23.1817826245
  0
LWPOLYLINE
  5
369
100
AcDbEntity
  8
SUPERFICI
100
AcDbPolyline
 62
250
  6
CONTINUOUS
 90
10
 70
0
 10
22.5484078138
 20
6.9902194326
 10
22.5991067198
 20
7.1779977942
 10
22.6451027011
 20
7.3664709472
 10
22.6861946609
 20
7.554851841
 10
22.7222833237
 20
7.7429237697
 10
22.7530180966
 20
7.9292415537
 10
22.7779738001
 20
8.111227882
 10
22.7970464075
 20
8.2875723449
 10
22.8102762025
 20
8.4581344209
 10
22.8176186433
 20
8.6222124726
  0
LWPOLYLINE
  5
36A
100
AcDbEntity
  8
SUPERFICI
100
AcDbPolyline
 62
250
  6
CONTINUOUS
 90
10
 70
0
 10
50.5747209297
 20
1.1228923915
 10
50.0702061323
 20
0.9109382074
 10
49.540912991
 20
0.7009294155
 10
48.9912210485
 20
0.4952501839
 10
48.4212605866
 20
0.2948192879
 10
47.8384094525
 20
0.1032414587
 10
47.2521178869
 20
-0.0761227997
 10
46.660228982
 20
-0.2445611172
 10
46.0500209699
 20
-0.4064540162
 10
45.4138030322
 20
-0.5646125391
  0
LINE
  5
36B
100
AcDbEntity
  8
SUPERFICI
100
AcDbLine
 62
250
  6
CONTINUOUS
 10
-32.628777898
 20
25.5960076244
 11
-32.1652284001
 21
25.4677563962
  0
LWPOLYLINE
  5
36C
100
AcDbEntity
  8
SUPERFICI
100
AcDbPolyline
 62
250
  6
CONTINUOUS
 90
6
 70
0
 10
-31.0430867618
 20
25.1447998395
 10
-30.8585990116
 20
25.0923636604
 10
-30.67226335
 20
25.0384072502
 10
-30.4840974756
 20
24.9829124027
 10
-30.2940844858
 20
24.925276686
 10
-29.9088222238
 20
24.8070577889
  0
LINE
  5
36D
100
AcDbEntity
  8
SUPERFICI
100
AcDbLine
 62
250
  6
CONTINUOUS
 10
-32.1652284001
 20
25.4677563962
 11
-31.6662616272
 21
25.326536256
  0
LINE
  5
36E
100
AcDbEntity
  8
SUPERFICI
100
AcDbLine
 62
250
  6
CONTINUOUS
 10
-31.6662616272
 20
25.326536256
 11
-31.4310893722
 21
25.2588695489
  0
LINE
  5
36F
100
AcDbEntity
  8
SUPERFICI
100
AcDbLine
 62
250
  6
CONTINUOUS
 10
-31.4310893722
 20
25.2588695489
 11
-31.0430867618
 21
25.1447998395
  0
LWPOLYLINE
  5
370
100
AcDbEntity
  8
SUPERFICI
100
AcDbPolyline
 62
250
  6
CONTINUOUS
 90
5
 70
0
 10
24.5419632576
 20
8.0751684325
 10
24.3576611352
 20
8.1359840574
 10
24.1714435898
 20
8.1964351348
 10
23.9833335183
 20
8.2564909921
 10
23.7932864497
 20
8.3155680445
  0
LINE
  5
371
100
AcDbEntity
  8
SUPERFICI
100
AcDbLine
 62
250
  6
CONTINUOUS
 10
25.539475255
 20
7.7504392885
 11
25.0491904849
 21
7.9121603332
  0
LWPOLYLINE
  5
372
100
AcDbEntity
  8
SUPERFICI
100
AcDbPolyline
 62
250
  6
CONTINUOUS
 90
4
 70
0
 10
26.2711577001
 20
7.5046023977
 10
25.8767515851
 20
7.6370543285
 10
25.7728933827
 20
7.6722832558
 10
25.539475255
 20
7.7504392885
  0
LWPOLYLINE
  5
373
100
AcDbEntity
  8
SUPERFICI
100
AcDbPolyline
 62
250
  6
CONTINUOUS
 90
10
 70
0
 10
23.8137082307
 20
-31.4192561323
 10
23.798650758
 20
-31.2805938296
 10
23.7777476297
 20
-31.1506719326
 10
23.7511211806
 20
-31.0300266437
 10
23.718776199
 20
-30.9188395997
 10
23.6809181729
 20
-30.8180818254
 10
23.6381353661
 20
-30.7291513634
 10
23.5908796517
 20
-30.6524890776
 10
23.5392846387
 20
-30.5879417814
 10
23.4836118122
 20
-30.535652601
  0
LWPOLYLINE
  5
374
100
AcDbEntity
  8
SUPERFICI
100
AcDbPolyline
 62
250
  6
CONTINUOUS
 90
10
 70
0
 10
26.3906135564
 20
5.8122525083
 10
26.4370687196
 20
5.9915801621
 10
26.4800661263
 20
6.1716297524
 10
26.5194176731
 20
6.3517454121
 10
26.5551808089
 20
6.531681795
 10
26.5868508942
 20
6.7102905529
 10
26.6135229606
 20
6.8855743951
 10
26.6349057037
 20
7.0564433892
 10
26.651159995
 20
7.2226600304
 10
26.6622047902
 20
7.3835640114
  0
LWPOLYLINE
  5
375
100
AcDbEntity
  8
SUPERFICI
100
AcDbPolyline
 62
250
  6
CONTINUOUS
 90
10
 70
0
 10
24.2755674643
 20
6.4597572757
 10
24.3248083655
 20
6.6419198581
 10
24.3697690758
 20
6.8256899868
 10
24.4101962833
 20
7.0103294723
 10
24.4459368849
 20
7.1956603806
 10
24.4765775529
 20
7.3802382675
 10
24.5016231343
 20
7.5614446061
 10
24.5209021711
 20
7.7379238311
 10
24.5343883198
 20
7.9094897745
 10
24.5419653353
 20
8.0753654818
  0
LWPOLYLINE
  5
376
100
AcDbEntity
  8
SUPERFICI
100
AcDbPolyline
 62
250
  6
CONTINUOUS
 90
5
 70
0
 10
-39.7315137165
 20
36.5589074802
 10
-40.7636194543
 20
36.8454519712
 10
-41.7655008847
 20
37.1065911241
 10
-42.7366035388
 20
37.3402853098
 10
-43.6766470113
 20
37.5438048125
  0
LINE
  5
377
100
AcDbEntity
  8
SUPERFICI
100
AcDbLine
 62
250
  6
CONTINUOUS
 10
-37.5816606022
 20
35.9445189882
 11
-39.7315137165
 21
36.5589074802
  0
LINE
  5
378
100
AcDbEntity
  8
SUPERFICI
100
AcDbLine
 62
250
  6
CONTINUOUS
 10
-34.1468936094
 20
34.9449331618
 11
-37.5816606022
 21
35.9445189882
  0
LINE
  5
379
100
AcDbEntity
  8
SUPERFICI
100
AcDbLine
 62
250
  6
CONTINUOUS
 10
-30.4441088856
 20
33.8526912737
 11
-34.1468936094
 21
34.9449331618
  0
LINE
  5
37A
100
AcDbEntity
  8
SUPERFICI
100
AcDbLine
 62
250
  6
CONTINUOUS
 10
-27.8122846994
 20
33.0671774794
 11
-30.4441088856
 21
33.8526912737
  0
LINE
  5
37B
100
AcDbEntity
  8
SUPERFICI
100
AcDbLine
 62
250
  6
CONTINUOUS
 10
-23.8830247616
 20
31.8787617122
 11
-27.8122846994
 21
33.0671774794
  0
LINE
  5
37C
100
AcDbEntity
  8
SUPERFICI
100
AcDbLine
 62
250
  6
CONTINUOUS
 10
-23.8830247616
 20
31.8787617122
 11
2.7693824456
 21
23.6935653318
  0
LINE
  5
37D
100
AcDbEntity
  8
SUPERFICI
100
AcDbLine
 62
250
  6
CONTINUOUS
 10
2.7693824456
 20
23.6935653318
 11
18.5789059147
 21
18.8391133667
  0
LINE
  5
37E
100
AcDbEntity
  8
SUPERFICI
100
AcDbLine
 62
250
  6
CONTINUOUS
 10
18.5789059147
 20
18.8391133667
 11
22.5090829863
 21
17.6139720223
  0
LINE
  5
37F
100
AcDbEntity
  8
SUPERFICI
100
AcDbLine
 62
250
  6
CONTINUOUS
 10
22.5090829863
 20
17.6139720223
 11
25.1420437391
 21
16.7827212672
  0
LINE
  5
380
100
AcDbEntity
  8
SUPERFICI
100
AcDbLine
 62
250
  6
CONTINUOUS
 10
25.1420437391
 20
16.7827212672
 11
27.6427832919
 21
15.9861679119
  0
LINE
  5
381
100
AcDbEntity
  8
SUPERFICI
100
AcDbLine
 62
250
  6
CONTINUOUS
 10
27.6427832919
 20
15.9861679119
 11
30.0220258758
 21
15.2217822224
  0
LINE
  5
382
100
AcDbEntity
  8
SUPERFICI
100
AcDbLine
 62
250
  6
CONTINUOUS
 10
30.0220258758
 20
15.2217822224
 11
32.2846147476
 21
14.4892613679
  0
LWPOLYLINE
  5
383
100
AcDbEntity
  8
SUPERFICI
100
AcDbPolyline
 62
250
  6
CONTINUOUS
 90
6
 70
0
 10
32.2846147476
 20
14.4892613679
 10
34.4367599451
 20
13.7825477745
 10
35.4703912109
 20
13.4347244054
 10
36.4746046535
 20
13.0798112198
 10
37.4489413171
 20
12.7160798015
 10
38.3932574684
 20
12.3409306838
  0
LWPOLYLINE
  5
384
100
AcDbEntity
  8
SUPERFICI
100
AcDbPolyline
 62
250
  6
CONTINUOUS
 90
10
 70
0
 10
25.5372291082
 20
-31.9331031796
 10
25.5221372051
 20
-31.7969822805
 10
25.5012144541
 20
-31.6694666237
 10
25.4746061299
 20
-31.5510721207
 10
25.4423436944
 20
-31.4419762996
 10
25.4046529484
 20
-31.34310713
 10
25.3621279584
 20
-31.2557993149
 10
25.3152284042
 20
-31.1804765185
 10
25.2641058767
 20
-31.1169958036
 10
25.2090342214
 20
-31.0654959631
  0
LWPOLYLINE
  5
385
100
AcDbEntity
  8
0
100
AcDbPolyline
 62
250
  6
CONTINUOUS
 90
18
 70
0
 10
27.37227171
 20
-12.8883043496
 10
27.3779856203
 20
-12.9480392064
 10
27.3942265645
 20
-13.0138053913
 10
27.4204988071
 20
-13.0774759862
 10
27.4566465247
 20
-13.1386326837
 10
27.5023123449
 20
-13.1963571488
 10
27.5569922174
 20
-13.2497493938
 10
27.6205091463
 20
-13.2983528156
 10
27.6926834306
 20
-13.3421544582
 10
27.7727990562
 20
-13.380999733
 10
27.8597544669
 20
-13.4145431869
 10
27.9526660269
 20
-13.4425642173
 10
28.0508650793
 20
-13.4648591779
 10
28.1530344698
 20
-13.4810566729
 10
28.2572107249
 20
-13.490822363
 10
28.3619780338
 20
-13.4940438681
 10
28.4665515829
 20
-13.4906506868
 10
28.56987402
 20
-13.4805387342
  0
LWPOLYLINE
  5
386
100
AcDbEntity
  8
SUPERFICI
100
AcDbPolyline
 62
250
  6
CONTINUOUS
 90
10
 70
0
 10
30.765031574
 20
-30.8100745666
 10
30.7682338048
 20
-30.855345818
 10
30.7699643869
 20
-30.901042308
 10
30.770501779
 20
-30.9470411555
 10
30.770066093
 20
-30.9932658298
 10
30.7686837664
 20
-31.0396801365
 10
30.7662638775
 20
-31.0862451745
 10
30.7627150771
 20
-31.1329507479
 10
30.7580863525
 20
-31.179786894
 10
30.7523497962
 20
-31.2267205476
  0
LWPOLYLINE
  5
387
100
AcDbEntity
  8
SUPERFICI
100
AcDbPolyline
 62
250
  6
CONTINUOUS
 90
9
 70
0
 10
28.1424535059
 20
3.8136447874
 10
28.1409509501
 20
3.8443275256
 10
28.1387523214
 20
3.8751508047
 10
28.1358577397
 20
3.9061057023
 10
28.1322696166
 20
3.9371885539
 10
28.1279921011
 20
3.9684012134
 10
28.12302686
 20
3.999740332
 10
28.1173736316
 20
4.0311970969
 10
28.1110331937
 20
4.0627653584
  0
LWPOLYLINE
  5
388
100
AcDbEntity
  8
0
100
AcDbPolyline
 62
250
  6
CONTINUOUS
 90
38
 70
0
 10
27.8019683164
 20
-30.1600159352
 10
27.8021837016
 20
-30.1649532512
 10
27.8048582512
 20
-30.1959912131
 10
27.8098048795
 20
-30.2269448158
 10
27.8169910433
 20
-30.2576365355
 10
27.8263819495
 20
-30.2879681263
 10
27.8379542418
 20
-30.3178842983
 10
27.8516667581
 20
-30.3472757421
 10
27.8674806651
 20
-30.3760578919
 10
27.8853674702
 20
-30.4041689275
 10
27.9052964588
 20
-30.4315361296
 10
27.9272250567
 20
-30.4580760732
 10
27.9511307992
 20
-30.4837316437
 10
27.9770232337
 20
-30.508466831
 10
28.0048765027
 20
-30.532206157
 10
28.0346622459
 20
-30.5548866282
 10
28.0663571843
 20
-30.5765154055
 10
28.0998759217
 20
-30.5970760572
 10
28.1351152856
 20
-30.6165414072
 10
28.1720221409
 20
-30.6349051136
 10
28.2105103365
 20
-30.6521506242
 10
28.2504808615
 20
-30.6682420665
 10
28.2918673741
 20
-30.6831372948
 10
28.334591428
 20
-30.6967859905
 10
28.3785416065
 20
-30.7091783763
 10
28.423600526
 20
-30.7203317283
 10
28.4696976522
 20
-30.7302528695
 10
28.5166994344
 20
-30.7388753268
 10
28.5643847177
 20
-30.7461173521
 10
28.6126457313
 20
-30.7519440502
 10
28.6613684584
 20
-30.7563504747
 10
28.7103138022
 20
-30.7593204704
 10
28.7593994866
 20
-30.760802108
 10
28.8084838127
 20
-30.7608284253
 10
28.8572370033
 20
-30.7595418385
 10
28.9054797636
 20
-30.7570068821
 10
28.9531840612
 20
-30.7531882382
 10
29.0002528193
 20
-30.7480990908
  0
LINE
  5
389
100
AcDbEntity
  8
0
100
AcDbLine
 62
7
  6
CONTINUOUS
 10
27.8017973522
 20
-30.1545592743
 11
27.8019683164
 21
-30.1600159352
  0
LINE
  5
38A
100
AcDbEntity
  8
SUPERFICI
100
AcDbLine
 62
7
  6
CONTINUOUS
 10
26.9427460744
 20
4.3779505849
 11
27.8017973522
 21
-30.1545592743
  0
LINE
  5
38B
100
AcDbEntity
  8
SUPERFICI
100
AcDbLine
 62
250
  6
CONTINUOUS
 10
29.0002528193
 20
-30.7480990908
 11
28.1424535059
 21
3.8136447874
  0
LWPOLYLINE
  5
38C
100
AcDbEntity
  8
SUPERFICI
100
AcDbPolyline
 62
250
  6
CONTINUOUS
 90
10
 70
0
 10
29.0023804838
 20
-30.7522310614
 10
29.0030863111
 20
-30.7824399837
 10
29.0030916365
 20
-30.8123716982
 10
29.00239735
 20
-30.8420206074
 10
29.001003157
 20
-30.8713789726
 10
28.9989112914
 20
-30.9004433224
 10
28.9961259664
 20
-30.9292143712
 10
28.9926486753
 20
-30.9576885014
 10
28.9884787415
 20
-30.9858578454
 10
28.9836166463
 20
-31.0137166381
  0
LWPOLYLINE
  5
38D
100
AcDbEntity
  8
SUPERFICI
100
AcDbPolyline
 62
250
  6
CONTINUOUS
 90
10
 70
0
 10
29.9068835431
 20
3.6862520524
 10
29.9074855482
 20
3.73191248
 10
29.9070137497
 20
3.7782002773
 10
29.9054247455
 20
3.825117427
 10
29.9027287094
 20
3.8726266841
 10
29.8989484487
 20
3.9207660444
 10
29.8941082728
 20
3.969652635
 10
29.8881946353
 20
4.0193550538
 10
29.8811747115
 20
4.069880616
 10
29.8730166897
 20
4.1212762456
  0
LWPOLYLINE
  5
38E
100
AcDbEntity
  8
SUPERFICI
100
AcDbPolyline
 62
250
  6
CONTINUOUS
 90
13
 70
0
 10
-43.6766210239
 20
37.5437772635
 10
-44.1810445381
 20
37.6359599375
 10
-44.6663808491
 20
37.7103711135
 10
-45.1307758778
 20
37.7662416431
 10
-45.5737137839
 20
37.803595653
 10
-45.9944381364
 20
37.822164778
 10
-46.3918756783
 20
37.8201012125
 10
-46.7638315058
 20
37.7957857398
 10
-47.108738395
 20
37.7485472495
 10
-47.4270832499
 20
37.6778564059
 10
-47.71799665
 20
37.5828564368
 10
-47.9789879451
 20
37.4665020618
 10
-48.2109451548
 20
37.3325990949
  0
LWPOLYLINE
  5
38F
100
AcDbEntity
  8
SUPERFICI
100
AcDbPolyline
 62
250
  6
CONTINUOUS
 90
5
 70
0
 10
-48.6813094275
 20
42.7813698305
 10
-49.4850693975
 20
43.0069281277
 10
-49.8696004602
 20
43.1169124311
 10
-50.2419405351
 20
43.2260661241
 10
-50.9538055476
 20
43.4374966359
  0
LWPOLYLINE
  5
390
100
AcDbEntity
  8
SUPERFICI
100
AcDbPolyline
 62
250
  6
CONTINUOUS
 90
6
 70
0
 10
48.9718348116
 20
13.9294376309
 10
48.9495138358
 20
13.9358174541
 10
48.9271838387
 20
13.9423187306
 10
48.9048448206
 20
13.9489414605
 10
48.8825565306
 20
13.9557155927
 10
48.8602592194
 20
13.9626111782
  0
LWPOLYLINE
  5
391
100
AcDbEntity
  8
SUPERFICI
100
AcDbPolyline
 62
250
  6
CONTINUOUS
 90
3
 70
0
 10
-50.9538055476
 20
43.4374966359
 10
-51.2953436646
 20
43.5352197009
 10
-52.2634110389
 20
43.8051115063
  0
LINE
  5
392
100
AcDbEntity
  8
SUPERFICI
100
AcDbLine
 62
250
  6
CONTINUOUS
 10
-52.2634110389
 20
43.8051115063
 11
-52.8648819004
 21
43.9768698207
  0
LWPOLYLINE
  5
393
100
AcDbEntity
  8
SUPERFICI
100
AcDbPolyline
 62
250
  6
CONTINUOUS
 90
10
 70
0
 10
48.3727270352
 20
12.887961883
 10
48.3841697863
 20
12.8844958648
 10
48.3956305967
 20
12.8809243436
 10
48.4071377219
 20
12.877146112
 10
48.4187482092
 20
12.8729582506
 10
48.4304656011
 20
12.8683509286
 10
48.442236471
 20
12.8635147611
 10
48.4540598434
 20
12.8584501603
 10
48.4659858765
 20
12.8529705628
 10
48.477976338
 20
12.8471229833
  0
LINE
  5
394
100
AcDbEntity
  8
SUPERFICI
100
AcDbLine
 62
250
  6
CONTINUOUS
 10
-44.4892737665
 20
41.5039580182
 11
-48.6813161648
 21
42.7813851311
  0
LINE
  5
395
100
AcDbEntity
  8
SUPERFICI
100
AcDbLine
 62
250
  6
CONTINUOUS
 10
3.7019867103
 20
26.6978191784
 11
35.7441529688
 21
16.8672149539
  0
LINE
  5
396
100
AcDbEntity
  8
SUPERFICI
100
AcDbLine
 62
250
  6
CONTINUOUS
 10
-40.2146038069
 20
40.1934147117
 11
-44.4892737665
 21
41.5039580182
  0
LINE
  5
397
100
AcDbEntity
  8
SUPERFICI
100
AcDbLine
 62
250
  6
CONTINUOUS
 10
3.7019867103
 20
26.6978191784
 11
-26.1943603187
 21
35.8808376166
  0
LINE
  5
398
100
AcDbEntity
  8
SUPERFICI
100
AcDbLine
 62
250
  6
CONTINUOUS
 10
-26.1943603187
 20
35.8808376166
 11
-40.2146038069
 21
40.1934147117
  0
LINE
  5
399
100
AcDbEntity
  8
SUPERFICI
100
AcDbLine
 62
250
  6
CONTINUOUS
 10
35.7441529688
 20
16.8672149539
 11
40.0182036449
 21
15.5525288111
  0
LINE
  5
39A
100
AcDbEntity
  8
SUPERFICI
100
AcDbLine
 62
250
  6
CONTINUOUS
 10
40.0182036449
 20
15.5525288111
 11
44.207394007
 21
14.2561603817
  0
LWPOLYLINE
  5
39B
100
AcDbEntity
  8
SUPERFICI
100
AcDbPolyline
 62
250
  6
CONTINUOUS
 90
10
 70
0
 10
-52.864718432
 20
43.9770025174
 10
-52.8761197128
 20
43.9805516804
 10
-52.8875640608
 20
43.9840141119
 10
-52.8990944721
 20
43.987310485
 10
-52.9108007631
 20
43.9902829808
 10
-52.9226836565
 20
43.9929230782
 10
-52.934651135
 20
43.995376728
 10
-52.9466987689
 20
43.9976426823
 10
-52.9589068826
 20
43.999574448
 10
-52.9712297345
 20
44.001193252
  0
LINE
  5
39C
100
AcDbEntity
  8
SUPERFICI
100
AcDbLine
 62
250
  6
CONTINUOUS
 10
-52.5981393208
 20
45.1196526196
 11
48.8602592194
 21
13.9626111782
  0
LWPOLYLINE
  5
39D
100
AcDbEntity
  8
SUPERFICI
100
AcDbPolyline
 62
250
  6
CONTINUOUS
 90
3
 70
0
 10
45.7590603602
 20
13.7450869865
 10
46.4693465852
 20
13.5197886041
 10
46.8092965344
 20
13.4082332732
  0
LINE
  5
39E
100
AcDbEntity
  8
SUPERFICI
100
AcDbLine
 62
250
  6
CONTINUOUS
 10
45.3879247975
 20
13.864247473
 11
45.7590603602
 21
13.7450869865
  0
LWPOLYLINE
  5
39F
100
AcDbEntity
  8
SUPERFICI
100
AcDbPolyline
 62
250
  6
CONTINUOUS
 90
3
 70
0
 10
-52.6643439437
 20
45.1409254389
 10
-52.6423883969
 20
45.1337924954
 10
-52.5981393208
 20
45.1196526196
  0
LINE
  5
3A0
100
AcDbEntity
  8
SUPERFICI
100
AcDbLine
 62
250
  6
CONTINUOUS
 10
47.7727858614
 20
13.0849626919
 11
48.3725665162
 21
12.8878282807
  0
LWPOLYLINE
  5
3A1
100
AcDbEntity
  8
SUPERFICI
100
AcDbPolyline
 62
250
  6
CONTINUOUS
 90
3
 70
0
 10
44.2073824141
 20
14.2561507102
 10
44.6119305934
 20
14.1204517834
 10
45.3879247975
 20
13.864247473
  0
LINE
  5
3A2
100
AcDbEntity
  8
SUPERFICI
100
AcDbLine
 62
250
  6
CONTINUOUS
 10
46.8092965344
 20
13.4082332732
 11
47.7727858614
 21
13.0849626919
  0
LWPOLYLINE
  5
3A3
100
AcDbEntity
  8
SUPERFICI
100
AcDbPolyline
 62
250
  6
CONTINUOUS
 90
13
 70
0
 10
38.3932278928
 20
12.3409201976
 10
38.9007745207
 20
12.1223366258
 10
39.3898422712
 20
11.897517736
 10
39.8585835847
 20
11.6668311175
 10
40.3064810973
 20
11.4306181838
 10
40.7327735423
 20
11.1890766401
 10
41.136447924
 20
10.9409993488
 10
41.5153513839
 20
10.686102249
 10
41.867930519
 20
10.4246725446
 10
42.194711997
 20
10.155869642
 10
42.4948646711
 20
9.8793589966
 10
42.7657076429
 20
9.5996834604
 10
43.0079520679
 20
9.3201577567
  0
LWPOLYLINE
  5
3A4
100
AcDbEntity
  8
SUPERFICI
100
AcDbPolyline
 62
250
  6
CONTINUOUS
 90
15
 70
0
 10
29.5562166692
 20
5.0541886627
 10
29.4395568015
 20
5.268733353
 10
29.3074017709
 20
5.4797320849
 10
29.1606797035
 20
5.6859422996
 10
29.0004240448
 20
5.8860784762
 10
28.8275642494
 20
6.0789705915
 10
28.6428995435
 20
6.2635400624
 10
28.447344625
 20
6.4386998916
 10
28.2423348798
 20
6.6033225199
 10
28.0294809678
 20
6.7563566408
 10
27.8100547553
 20
6.896890215
 10
27.5852835585
 20
7.0239346063
 10
27.3567573525
 20
7.1366597714
 10
27.125906999
 20
7.2345030065
 10
26.8939557538
 20
7.3169801741
  0
LWPOLYLINE
  5
3A5
100
AcDbEntity
  8
SUPERFICI
100
AcDbPolyline
 62
250
  6
CONTINUOUS
 90
16
 70
0
 10
28.1110331937
 20
4.0627653584
 10
28.072327696
 20
4.2088885414
 10
28.0194353556
 20
4.355913881
 10
27.9527119862
 20
4.5027259987
 10
27.8726617396
 20
4.6482581801
 10
27.7800476557
 20
4.7911495824
 10
27.6758702486
 20
4.9298087505
 10
27.5610626558
 20
5.0628992991
 10
27.4365040466
 20
5.1894213198
 10
27.3032837292
 20
5.3083596674
 10
27.1625565198
 20
5.418732292
 10
27.0155996039
 20
5.5195808051
 10
26.8636838637
 20
5.6100235707
 10
26.7080101119
 20
5.6893436239
 10
26.5496450047
 20
5.7569391012
 10
26.3893938345
 20
5.8124125367
  0
LINE
  5
3A6
100
AcDbEntity
  8
SUPERFICI
100
AcDbLine
 62
7
  6
CONTINUOUS
 10
26.935606619
 20
4.3752108447
 11
26.9367506586
 21
4.3705850134
  0
LINE
  5
3A7
100
AcDbEntity
  8
SUPERFICI
100
AcDbLine
 62
250
  6
CONTINUOUS
 10
29.9605164839
 20
2.6076229142
 11
29.9291392266
 21
3.0879342063
  0
LINE
  5
3A8
100
AcDbEntity
  8
SUPERFICI
100
AcDbLine
 62
250
  6
CONTINUOUS
 10
29.9291392266
 20
3.0879342063
 11
29.9245579092
 21
3.1656323878
  0
LINE
  5
3A9
100
AcDbEntity
  8
SUPERFICI
100
AcDbLine
 62
250
  6
CONTINUOUS
 10
29.984847325
 20
2.2025680507
 11
29.9605164839
 21
2.6076229142
  0
LINE
  5
3AA
100
AcDbEntity
  8
SUPERFICI
100
AcDbLine
 62
250
  6
CONTINUOUS
 10
30.0065854627
 20
1.7943955869
 11
29.984847325
 21
2.2025680507
  0
LWPOLYLINE
  5
3AB
100
AcDbEntity
  8
SUPERFICI
100
AcDbPolyline
 62
250
  6
CONTINUOUS
 90
4
 70
0
 10
29.9245579092
 20
3.1656323878
 10
29.9166058345
 20
3.3185380102
 10
29.9133365725
 20
3.393829728
 10
29.9111871682
 20
3.4682276451
  0
LINE
  5
3AC
100
AcDbEntity
  8
SUPERFICI
100
AcDbLine
 62
250
  6
CONTINUOUS
 10
30.0614096403
 20
0.5380668315
 11
30.1060024184
 21
-0.4395152033
  0
LWPOLYLINE
  5
3AD
100
AcDbEntity
  8
SUPERFICI
100
AcDbPolyline
 62
250
  6
CONTINUOUS
 90
3
 70
0
 10
30.034971694
 20
1.1765245466
 10
30.0261543541
 20
1.3832257918
 10
30.0065854627
 20
1.7943955869
  0
LWPOLYLINE
  5
3AE
100
AcDbEntity
  8
SUPERFICI
100
AcDbPolyline
 62
250
  6
CONTINUOUS
 90
5
 70
0
 10
30.1060024184
 20
-0.4395152033
 10
30.1192805753
 20
-0.7700508588
 10
30.1295180355
 20
-1.1026726719
 10
30.1374389874
 20
-1.437431017
 10
30.1436396273
 20
-1.7744842869
  0
LINE
  5
3AF
100
AcDbEntity
  8
SUPERFICI
100
AcDbLine
 62
250
  6
CONTINUOUS
 10
30.0366520523
 20
1.1767668517
 11
30.0614096403
 21
0.5380668315
  0
LINE
  5
3B0
100
AcDbEntity
  8
SUPERFICI
100
AcDbLine
 62
250
  6
CONTINUOUS
 10
30.1436396273
 20
-1.7744842869
 11
30.2915743117
 21
-5.7387030721
  0
LINE
  5
3B1
100
AcDbEntity
  8
SUPERFICI
100
AcDbLine
 62
250
  6
CONTINUOUS
 10
30.2915743117
 20
-5.7387030721
 11
30.3799549044
 21
-8.3485704633
  0
LINE
  5
3B2
100
AcDbEntity
  8
SUPERFICI
100
AcDbLine
 62
250
  6
CONTINUOUS
 10
30.3799549044
 20
-8.3485704633
 11
30.4605375612
 21
-10.9709995821
  0
LWPOLYLINE
  5
3B3
100
AcDbEntity
  8
SUPERFICI
100
AcDbPolyline
 62
250
  6
CONTINUOUS
 90
4
 70
0
 10
30.7313468036
 20
-25.3994677694
 10
30.7402730696
 20
-25.7192895287
 10
30.7477849955
 20
-26.0406643617
 10
30.7539190885
 20
-26.363569379
  0
LINE
  5
3B4
100
AcDbEntity
  8
SUPERFICI
100
AcDbLine
 62
250
  6
CONTINUOUS
 10
30.4605375612
 20
-10.9709995821
 11
30.5331368262
 21
-13.6157271493
  0
LINE
  5
3B5
100
AcDbEntity
  8
SUPERFICI
100
AcDbLine
 62
250
  6
CONTINUOUS
 10
30.7631584321
 20
-30.7383865031
 11
30.7650345891
 21
-30.8100699013
  0
LINE
  5
3B6
100
AcDbEntity
  8
SUPERFICI
100
AcDbLine
 62
250
  6
CONTINUOUS
 10
30.5920086983
 20
-16.2559324541
 11
30.5331368262
 21
-13.6157271493
  0
LINE
  5
3B7
100
AcDbEntity
  8
SUPERFICI
100
AcDbLine
 62
250
  6
CONTINUOUS
 10
30.6416511298
 20
-18.868347007
 11
30.5920086983
 21
-16.2559324541
  0
LWPOLYLINE
  5
3B8
100
AcDbEntity
  8
SUPERFICI
100
AcDbPolyline
 62
250
  6
CONTINUOUS
 90
3
 70
0
 10
29.9111871682
 20
3.4682276451
 10
29.9085785505
 20
3.6143802609
 10
29.9068835431
 20
3.6862520524
  0
LINE
  5
3B9
100
AcDbEntity
  8
SUPERFICI
100
AcDbLine
 62
250
  6
CONTINUOUS
 10
30.6827571322
 20
-21.4636370217
 11
30.6416511298
 21
-18.868347007
  0
LINE
  5
3BA
100
AcDbEntity
  8
SUPERFICI
100
AcDbLine
 62
250
  6
CONTINUOUS
 10
30.7313456271
 20
-25.3993408654
 11
30.6827571322
 21
-21.4636370217
  0
LINE
  5
3BB
100
AcDbEntity
  8
SUPERFICI
100
AcDbLine
 62
250
  6
CONTINUOUS
 10
30.7539190885
 20
-26.363569379
 11
30.7616835348
 21
-27.0137981925
  0
LWPOLYLINE
  5
3BC
100
AcDbEntity
  8
SUPERFICI
100
AcDbPolyline
 62
250
  6
CONTINUOUS
 90
4
 70
0
 10
30.7564659599
 20
-30.4425177126
 10
30.7569292537
 20
-30.5172688668
 10
30.7584815676
 20
-30.5916742002
 10
30.7631584321
 20
-30.7383865031
  0
LINE
  5
3BD
100
AcDbEntity
  8
SUPERFICI
100
AcDbLine
 62
250
  6
CONTINUOUS
 10
30.7616835348
 20
-27.0137981925
 11
30.7704595764
 21
-28.5366731606
  0
LINE
  5
3BE
100
AcDbEntity
  8
SUPERFICI
100
AcDbLine
 62
250
  6
CONTINUOUS
 10
30.7704595764
 20
-28.5366731606
 11
30.7712317265
 21
-28.9431812307
  0
LINE
  5
3BF
100
AcDbEntity
  8
SUPERFICI
100
AcDbLine
 62
250
  6
CONTINUOUS
 10
30.7712317265
 20
-28.9431812307
 11
30.7696586043
 21
-29.3456106644
  0
LWPOLYLINE
  5
3C0
100
AcDbEntity
  8
SUPERFICI
100
AcDbPolyline
 62
250
  6
CONTINUOUS
 90
3
 70
0
 10
30.7575998547
 20
-30.2148796598
 10
30.7568548954
 20
-30.2913970399
 10
30.7564659599
 20
-30.4425177126
  0
LINE
  5
3C1
100
AcDbEntity
  8
SUPERFICI
100
AcDbLine
 62
250
  6
CONTINUOUS
 10
30.7696586043
 20
-29.3456106644
 11
30.7653083016
 21
-29.7437420112
  0
LINE
  5
3C2
100
AcDbEntity
  8
SUPERFICI
100
AcDbLine
 62
250
  6
CONTINUOUS
 10
30.7653083016
 20
-29.7437420112
 11
30.7575998547
 21
-30.2148796598
  0
LINE
  5
3C3
100
AcDbEntity
  8
0
100
AcDbLine
 62
250
  6
CONTINUOUS
 10
48.9718348116
 20
13.9294376309
 11
51.002498292
 21
16.6618345572
  0
LINE
  5
3C4
100
AcDbEntity
  8
0
100
AcDbLine
 62
250
  6
CONTINUOUS
 10
51.4501263146
 20
11.0727454064
 11
53.694491561
 21
13.5588010028
  0
LWPOLYLINE
  5
3C5
100
AcDbEntity
  8
SUPERFICI
100
AcDbPolyline
 62
7
  6
CONTINUOUS
 90
10
 70
0
 10
-33.4403972176
 20
23.1946955911
 10
-33.4452573601
 20
23.1936109545
 10
-33.4510668927
 20
23.1926227608
 10
-33.4512056945
 20
23.1925677991
 10
-33.4454499639
 20
23.1926112509
 10
-33.4337161239
 20
23.191921775
 10
-33.4159342381
 20
23.1896723266
 10
-33.3927231141
 20
23.1851766287
 10
-33.3657146711
 20
23.178198435
 10
-33.3573289034
 20
23.175698615
  0
LINE
  5
3C6
100
AcDbEntity
  8
0
100
AcDbLine
 62
7
  6
CONTINUOUS
 10
51.0024665779
 20
16.6618442963
 11
-50.6336664573
 21
47.8733161033
  0
LWPOLYLINE
  5
3C7
100
AcDbEntity
  8
SUPERFICI
100
AcDbPolyline
 62
250
  6
CONTINUOUS
 90
19
 70
0
 10
48.477976338
 20
12.8471229833
 10
48.5325074064
 20
12.8222317541
 10
48.5863033361
 20
12.7990640531
 10
48.6402707722
 20
12.7769747117
 10
48.6980409422
 20
12.7509461459
 10
48.7580346743
 20
12.7218522064
 10
48.818772267
 20
12.6909763854
 10
48.8803653841
 20
12.6583194415
 10
48.943639391
 20
12.6229978583
 10
49.0084715533
 20
12.5849738579
 10
49.0744271508
 20
12.5443558734
 10
49.1413930033
 20
12.5008751689
 10
49.2095135213
 20
12.4540330042
 10
49.2785275331
 20
12.4036064013
 10
49.3481969489
 20
12.3495168479
 10
49.4185265728
 20
12.2914752392
 10
49.4892820493
 20
12.2293072602
 10
49.5599517422
 20
12.1630057265
 10
49.6301478612
 20
12.0925079311
  0
LWPOLYLINE
  5
3C8
100
AcDbEntity
  8
SUPERFICI
100
AcDbPolyline
 62
250
  6
CONTINUOUS
 90
10
 70
0
 10
29.8553442208
 20
4.2142148345
 10
29.8348906558
 20
4.3065036658
 10
29.8111651923
 20
4.3993465336
 10
29.7841866331
 20
4.4926415634
 10
29.7539440877
 20
4.586357685
 10
29.72048241
 20
4.6803191809
 10
29.6839256544
 20
4.7742070193
 10
29.6443516495
 20
4.8678469414
 10
29.6017685434
 20
4.961208125
 10
29.5562166692
 20
5.0541886627
  0
LINE
  5
3C9
100
AcDbEntity
  8
SUPERFICI
100
AcDbLine
 62
250
  6
CONTINUOUS
 10
29.8594797988
 20
4.1936509162
 11
29.8553242592
 21
4.2142112159
  0
LINE
  5
3CA
100
AcDbEntity
  8
SUPERFICI
100
AcDbLine
 62
250
  6
CONTINUOUS
 10
29.8634915356
 20
4.1730472214
 11
29.8594797988
 21
4.1936509162
  0
LINE
  5
3CB
100
AcDbEntity
  8
SUPERFICI
100
AcDbLine
 62
250
  6
CONTINUOUS
 10
29.8673729071
 20
4.1523783835
 11
29.8634915356
 21
4.1730472214
  0
LWPOLYLINE
  5
3CC
100
AcDbEntity
  8
SUPERFICI
100
AcDbPolyline
 62
250
  6
CONTINUOUS
 90
3
 70
0
 10
29.8730168465
 20
4.1212758868
 10
29.8711589097
 20
4.1316645845
 10
29.8673729071
 20
4.1523783835
  0
LINE
  5
3CD
100
AcDbEntity
  8
SUPERFICI
100
AcDbLine
 62
250
  6
CONTINUOUS
 10
30.7523542505
 20
-31.2267043258
 11
30.7495945475
 21
-31.245313018
  0
LWPOLYLINE
  5
3CE
100
AcDbEntity
  8
SUPERFICI
100
AcDbPolyline
 62
250
  6
CONTINUOUS
 90
7
 70
0
 10
30.7495945475
 20
-31.245313018
 10
30.7467361222
 20
-31.2637906375
 10
30.7452682826
 20
-31.2729907445
 10
30.743765222
 20
-31.2821510577
 10
30.7422238161
 20
-31.2912697925
 10
30.7406459962
 20
-31.3003566174
 10
30.7390311478
 20
-31.3094154042
  0
LWPOLYLINE
  5
3CF
100
AcDbEntity
  8
SUPERFICI
100
AcDbPolyline
 62
250
  6
CONTINUOUS
 90
10
 70
0
 10
30.7390512797
 20
-31.3094186346
 10
30.7228913017
 20
-31.3897252462
 10
30.7034372157
 20
-31.4685850291
 10
30.6807030282
 20
-31.5459070643
 10
30.6546761503
 20
-31.6216541435
 10
30.625393336
 20
-31.6956763828
 10
30.5929645629
 20
-31.7677269471
 10
30.557460136
 20
-31.8376776568
 10
30.5188868084
 20
-31.9055032613
 10
30.4772804452
 20
-31.9711260604
  0
LWPOLYLINE
  5
3D0
100
AcDbEntity
  8
SUPERFICI
100
AcDbPolyline
 62
250
  6
CONTINUOUS
 90
16
 70
0
 10
28.9836166463
 20
-31.0137166381
 10
28.9516282851
 20
-31.1376117705
 10
28.9052811498
 20
-31.2536933836
 10
28.8448805644
 20
-31.3610472323
 10
28.7708849294
 20
-31.4589009123
 10
28.6840007819
 20
-31.5463439388
 10
28.5851642351
 20
-31.6223789511
 10
28.4752557794
 20
-31.6862260067
 10
28.3551179874
 20
-31.7374138834
 10
28.2258060584
 20
-31.7755865973
 10
28.0884433389
 20
-31.8004611785
 10
27.9442786937
 20
-31.8118575524
 10
27.7945585098
 20
-31.8096726943
 10
27.6404662204
 20
-31.7939249401
 10
27.4830547338
 20
-31.7646635122
 10
27.3231218357
 20
-31.7219841165
  0
LINE
  5
3D1
100
AcDbEntity
  8
0
100
AcDbLine
 62
7
  6
CONTINUOUS
 10
27.798927079
 20
-30.0391788044
 11
27.7755929065
 21
-30.0502384011
  0
LINE
  5
3D2
100
AcDbEntity
  8
0
100
AcDbLine
 62
250
  6
CONTINUOUS
 10
27.7985120195
 20
-30.0224940669
 11
27.7884111852
 21
-30.0262817126
  0
LWPOLYLINE
  5
3D3
100
AcDbEntity
  8
0
100
AcDbPolyline
 62
7
  6
CONTINUOUS
 90
3
 70
0
 10
27.7755929065
 20
-30.0502384011
 10
27.7466738069
 20
-30.058612748
 10
27.7148897657
 20
-30.0629248249
  0
LWPOLYLINE
  5
3D4
100
AcDbEntity
  8
SUPERFICI
100
AcDbPolyline
 62
250
  6
CONTINUOUS
 90
19
 70
0
 10
-52.9712297345
 20
44.001193252
 10
-53.026789423
 20
44.0101098298
 10
-53.0810092985
 20
44.0201127381
 10
-53.1348272779
 20
44.0311232557
 10
-53.1925604927
 20
44.0405646625
 10
-53.252507629
 20
44.048303404
 10
-53.3130573716
 20
44.0546737509
 10
-53.3743071173
 20
44.0597406624
 10
-53.4371200339
 20
44.0631391542
 10
-53.5013581041
 20
44.0647513743
 10
-53.5665746659
 20
44.0644150916
 10
-53.6326667864
 20
44.061795204
 10
-53.6997898814
 20
44.0564850452
 10
-53.767690459
 20
44.0481035889
 10
-53.8361160279
 20
44.0364216701
 10
-53.9050459219
 20
44.0211453128
 10
-53.9742301089
 20
44.0019514514
 10
-54.0431537034
 20
43.9785176665
 10
-54.1114178551
 20
43.9505396815
  0
LWPOLYLINE
  5
3D5
100
AcDbEntity
  8
SUPERFICI
100
AcDbPolyline
 62
250
  6
CONTINUOUS
 90
10
 70
0
 10
43.0079521559
 20
9.3201576491
 10
43.1113924372
 20
9.1904367338
 10
43.2128818306
 20
9.0562625397
 10
43.3118315294
 20
8.9181089598
 10
43.4082752958
 20
8.7757390839
 10
43.5021671202
 20
8.6290590744
 10
43.5931527922
 20
8.4780891188
 10
43.6804481263
 20
8.3233807264
 10
43.7644359601
 20
8.164776053
 10
43.8441109951
 20
8.0027155024
  0
LINE
  5
3D6
100
AcDbEntity
  8
0
100
AcDbLine
 62
250
  6
CONTINUOUS
 10
27.5968458017
 20
-30.0758196703
 11
27.6180932085
 21
-30.0453924017
  0
LINE
  5
3D7
100
AcDbEntity
  8
0
100
AcDbLine
 62
250
  6
CONTINUOUS
 10
27.6102045837
 20
-30.0429804823
 11
27.7896997898
 21
-29.7958753694
  0
LWPOLYLINE
  5
3D8
100
AcDbEntity
  8
SUPERFICI
100
AcDbPolyline
 62
250
  6
CONTINUOUS
 90
15
 70
0
 10
30.4772804452
 20
-31.9711260604
 10
30.3695462709
 20
-32.1153802023
 10
30.2459039041
 20
-32.2465771644
 10
30.1072337936
 20
-32.3640429472
 10
29.954521165
 20
-32.4671247164
 10
29.7886514796
 20
-32.5552240214
 10
29.6103826139
 20
-32.6277572661
 10
29.4205898245
 20
-32.6842259631
 10
29.220674941
 20
-32.7244087596
 10
29.0122210795
 20
-32.7482497471
 10
28.7964747677
 20
-32.7556423946
 10
28.574633993
 20
-32.7463963576
 10
28.3482734273
 20
-32.7207265247
 10
28.118820086
 20
-32.679040982
 10
27.8874941786
 20
-32.6217014078
  0
LWPOLYLINE
  5
3D9
100
AcDbEntity
  8
SUPERFICI
100
AcDbPolyline
 62
250
  6
CONTINUOUS
 90
10
 70
0
 10
45.4138019901
 20
-0.5646098139
 10
45.6184784759
 20
-2.4464527372
 10
45.8044663817
 20
-4.3232660591
 10
45.9717602765
 20
-6.1949394362
 10
46.1203579346
 20
-8.0614053553
 10
46.2502499057
 20
-9.9225107611
 10
46.3614237974
 20
-11.7780182231
 10
46.4538761874
 20
-13.6277765998
 10
46.5276083418
 20
-15.4717198715
 10
46.5826187822
 20
-17.3097395849
  0
LWPOLYLINE
  5
3DA
100
AcDbEntity
  8
SUPERFICI
100
AcDbPolyline
 62
250
  6
CONTINUOUS
 90
10
 70
0
 10
46.235343528
 20
-33.5892871393
 10
46.3488228289
 20
-31.805146708
 10
46.4435779893
 20
-30.0145471973
 10
46.5196090241
 20
-28.2175971816
 10
46.5769170555
 20
-26.4143637297
 10
46.6155001587
 20
-24.6049962982
 10
46.6353576516
 20
-22.7897281968
 10
46.6364936345
 20
-20.9687106702
 10
46.6189127001
 20
-19.1420114321
 10
46.5826187821
 20
-17.3097395849
  0
LINE
  5
3DB
100
AcDbEntity
  8
SUPERFICI
100
AcDbLine
 62
250
  6
CONTINUOUS
 10
46.1723529517
 20
-34.4678359498
 11
46.2353443883
 21
-33.5892856573
  0
LINE
  5
3DC
100
AcDbEntity
  8
SUPERFICI
100
AcDbLine
 62
250
  6
CONTINUOUS
 10
46.1042863554
 20
-35.3503383711
 11
46.1723529517
 21
-34.4678359498
  0
LINE
  5
3DD
100
AcDbEntity
  8
SUPERFICI
100
AcDbLine
 62
250
  6
CONTINUOUS
 10
46.0311118672
 20
-36.2368153753
 11
46.1042863554
 21
-35.3503383711
  0
LINE
  5
3DE
100
AcDbEntity
  8
SUPERFICI
100
AcDbLine
 62
250
  6
CONTINUOUS
 10
45.9527830457
 20
-37.1274482455
 11
46.0311118672
 21
-36.2368153753
  0
LWPOLYLINE
  5
3DF
100
AcDbEntity
  8
SUPERFICI
100
AcDbPolyline
 62
250
  6
CONTINUOUS
 90
13
 70
0
 10
48.3727198838
 20
12.8879643099
 10
48.3848198766
 20
12.9838561008
 10
48.401706304
 20
13.0824218945
 10
48.4231801545
 20
13.1828228053
 10
48.4490588589
 20
13.2843037581
 10
48.4791263063
 20
13.3860703576
 10
48.5130050717
 20
13.4867039693
 10
48.5502799461
 20
13.5846010214
 10
48.5903862241
 20
13.6781251954
 10
48.6326813182
 20
13.7659162666
 10
48.6767577126
 20
13.8474882971
 10
48.7223143318
 20
13.9224838073
 10
48.7689790429
 20
13.9903698538
  0
LWPOLYLINE
  5
3E0
100
AcDbEntity
  8
SUPERFICI
100
AcDbPolyline
 62
250
  6
CONTINUOUS
 90
10
 70
0
 10
49.6301648292
 20
12.0925093853
 10
49.7178436342
 20
11.9958348959
 10
49.8005764912
 20
11.8951861042
 10
49.87797793
 20
11.7909167068
 10
49.94948639
 20
11.6837552525
 10
50.0148574563
 20
11.5739758682
 10
50.0739615522
 20
11.4617610302
 10
50.1265060145
 20
11.3473743421
 10
50.1720632842
 20
11.2311677152
 10
50.2102573518
 20
11.1135047197
  0
LWPOLYLINE
  5
3E1
100
AcDbEntity
  8
SUPERFICI
100
AcDbPolyline
 62
250
  6
CONTINUOUS
 90
10
 70
0
 10
44.4064590813
 20
6.3652812959
 10
44.3535829924
 20
6.5610398553
 10
44.298137026
 20
6.7534664827
 10
44.2413367897
 20
6.9424761675
 10
44.1835983177
 20
7.1280135587
 10
44.123706387
 20
7.3100882035
 10
44.0603729389
 20
7.4887194873
 10
43.9927380606
 20
7.6638479898
 10
43.9206546949
 20
7.8352517316
 10
43.8441115216
 20
8.0027143959
  0
LWPOLYLINE
  5
3E2
100
AcDbEntity
  8
SUPERFICI
100
AcDbPolyline
 62
250
  6
CONTINUOUS
 90
9
 70
0
 10
44.4065268769
 20
6.3650480604
 10
44.4751984631
 20
6.0836613437
 10
44.5376483433
 20
5.798203882
 10
44.5955392987
 20
5.5085888705
 10
44.6497618189
 20
5.2146582916
 10
44.7011812178
 20
4.9163764738
 10
44.7504369404
 20
4.6139277477
 10
44.7973189302
 20
4.3074755386
 10
44.8420649392
 20
3.9968840443
  0
LINE
  5
3E3
100
AcDbEntity
  8
SUPERFICI
100
AcDbLine
 62
250
  6
CONTINUOUS
 10
44.9495070386
 20
3.2028571792
 11
44.8420649392
 21
3.9968840443
  0
LINE
  5
3E4
100
AcDbEntity
  8
SUPERFICI
100
AcDbLine
 62
250
  6
CONTINUOUS
 10
45.0736934257
 20
2.2500431228
 11
44.9495070386
 21
3.2028571792
  0
LINE
  5
3E5
100
AcDbEntity
  8
SUPERFICI
100
AcDbLine
 62
250
  6
CONTINUOUS
 10
45.1924375823
 20
1.3046416931
 11
45.0736934257
 21
2.2500431228
  0
LINE
  5
3E6
100
AcDbEntity
  8
SUPERFICI
100
AcDbLine
 62
250
  6
CONTINUOUS
 10
45.3057959743
 20
0.3664378576
 11
45.1924375823
 21
1.3046416931
  0
LINE
  5
3E7
100
AcDbEntity
  8
SUPERFICI
100
AcDbLine
 62
250
  6
CONTINUOUS
 10
45.4138030322
 20
-0.5646125391
 11
45.3057959743
 21
0.3664378576
  0
LWPOLYLINE
  5
3E8
100
AcDbEntity
  8
SUPERFICI
100
AcDbPolyline
 62
250
  6
CONTINUOUS
 90
8
 70
0
 10
50.2884416795
 20
10.6511172259
 10
50.2966706478
 20
10.4629083075
 10
50.301430525
 20
10.2728082682
 10
50.3051767777
 20
10.0802731896
 10
50.3098869099
 20
9.8848411985
 10
50.3159259807
 20
9.6864098749
 10
50.323329778
 20
9.4849592203
 10
50.3492826815
 20
8.8629660714
  0
LINE
  5
3E9
100
AcDbEntity
  8
SUPERFICI
100
AcDbLine
 62
250
  6
CONTINUOUS
 10
50.3492826653
 20
8.8629660259
 11
50.3802972595
 21
7.8748255657
  0
LINE
  5
3EA
100
AcDbEntity
  8
SUPERFICI
100
AcDbLine
 62
250
  6
CONTINUOUS
 10
50.4064170349
 20
6.8789713297
 11
50.5747209297
 21
1.1228923915
  0
LINE
  5
3EB
100
AcDbEntity
  8
SUPERFICI
100
AcDbLine
 62
250
  6
CONTINUOUS
 10
50.5747208694
 20
1.1228922499
 11
50.7457948687
 21
-5.1401720184
  0
LINE
  5
3EC
100
AcDbEntity
  8
SUPERFICI
100
AcDbLine
 62
250
  6
CONTINUOUS
 10
50.7457948687
 20
-5.1401720184
 11
50.9122540836
 21
-11.5017310093
  0
LINE
  5
3ED
100
AcDbEntity
  8
SUPERFICI
100
AcDbLine
 62
250
  6
CONTINUOUS
 10
50.3802972595
 20
7.8748255657
 11
50.4064170349
 21
6.8789713297
  0
LINE
  5
3EE
100
AcDbEntity
  8
RACCORDO
100
AcDbLine
 62
7
  6
CONTINUOUS
 10
53.3480187458
 20
-13.8973957142
 11
53.4661200758
 21
-18.6448833373
  0
LINE
  5
3EF
100
AcDbEntity
  8
RACCORDO
100
AcDbLine
 62
7
  6
CONTINUOUS
 10
55.1234097691
 20
-43.8814624443
 11
54.4899959994
 21
-18.4192256276
  0
LINE
  5
3F0
100
AcDbEntity
  8
RACCORDO
100
AcDbLine
 62
7
  6
CONTINUOUS
 10
54.3279070035
 20
-11.9035030543
 11
53.694492458
 21
13.5587649451
  0
LINE
  5
3F1
100
AcDbEntity
  8
SUPERFICI
100
AcDbLine
 62
250
  6
CONTINUOUS
 10
51.4501263146
 20
11.0727454064
 11
52.1817239178
 21
-18.3973195156
  0
LINE
  5
3F2
100
AcDbEntity
  8
SUPERFICI
100
AcDbLine
 62
250
  6
CONTINUOUS
 10
52.1817239178
 20
-18.3973195156
 11
52.8790457099
 21
-46.367566292
  0
LINE
  5
3F3
100
AcDbEntity
  8
SUPERFICI
100
AcDbLine
 62
250
  6
CONTINUOUS
 10
51.2848126033
 20
-26.5548090916
 11
50.9122540836
 21
-11.5017310093
  0
LINE
  5
3F4
100
AcDbEntity
  8
SUPERFICI
100
AcDbLine
 62
250
  6
CONTINUOUS
 10
51.5352075175
 20
-37.5729922508
 11
51.2848126033
 21
-26.5548090916
  0
LINE
  5
3F5
100
AcDbEntity
  8
SUPERFICI
100
AcDbLine
 62
250
  6
CONTINUOUS
 10
51.6827325849
 20
-44.7679101244
 11
51.5352075175
 21
-37.5729922508
  0
LWPOLYLINE
  5
3F6
100
AcDbEntity
  8
SUPERFICI
100
AcDbPolyline
 62
250
  6
CONTINUOUS
 90
10
 70
0
 10
52.8798571363
 20
-46.3666703287
 10
52.8805259571
 20
-46.4181814506
 10
52.879757544
 20
-46.4691744015
 10
52.8775532825
 20
-46.5196187932
 10
52.873924002
 20
-46.5694789823
 10
52.8688640013
 20
-46.6187308082
 10
52.8623523103
 20
-46.6673619409
 10
52.8543867282
 20
-46.7153494998
 10
52.8449825521
 20
-46.7626597374
 10
52.8341474833
 20
-46.8092650077
  0
LINE
  5
3F7
100
AcDbEntity
  8
SUPERFICI
100
AcDbLine
 62
250
  6
CONTINUOUS
 10
51.6908968011
 20
-45.5852539179
 11
51.686382646
 21
-45.1824541365
  0
LINE
  5
3F8
100
AcDbEntity
  8
SUPERFICI
100
AcDbLine
 62
250
  6
CONTINUOUS
 10
51.686382646
 20
-45.1824541365
 11
51.6834362906
 21
-44.7679100461
  0
LWPOLYLINE
  5
3F9
100
AcDbEntity
  8
SUPERFICI
100
AcDbPolyline
 62
250
  6
CONTINUOUS
 90
6
 70
0
 10
51.711362401
 20
-46.5480571522
 10
51.7102748863
 20
-46.3617581161
 10
51.7055722156
 20
-46.1714786143
 10
51.6997209541
 20
-45.9782087203
 10
51.6947082634
 20
-45.7827985281
 10
51.6908968011
 20
-45.5852539179
  0
LWPOLYLINE
  5
3FA
100
AcDbEntity
  8
SUPERFICI
100
AcDbPolyline
 62
250
  6
CONTINUOUS
 90
10
 70
0
 10
45.5599868619
 20
-40.002228644
 10
45.615608038
 20
-39.7590094063
 10
45.6647076348
 20
-39.5078064801
 10
45.7089696754
 20
-39.2495605573
 10
45.749290521
 20
-38.9846656859
 10
45.786546927
 20
-38.713617476
 10
45.8213973701
 20
-38.4369966243
 10
45.8536367996
 20
-38.1548409485
 10
45.8834998507
 20
-37.8671609514
 10
45.9527830457
 20
-37.1274482455
  0
LINE
  5
3FB
100
AcDbEntity
  8
RACCORDO
100
AcDbLine
 62
7
  6
CONTINUOUS
 10
54.1196909753
 20
-12.529091662
 11
53.556234774
 21
-13.2718071064
  0
LINE
  5
3FC
100
AcDbEntity
  8
RACCORDO
100
AcDbLine
 62
7
  6
CONTINUOUS
 10
53.6934591657
 20
-18.7880117172
 11
54.2626569094
 21
-18.2760972477
  0
LWPOLYLINE
  5
3FD
100
AcDbEntity
  8
SUPERFICI
100
AcDbPolyline
 62
250
  6
CONTINUOUS
 90
16
 70
0
 10
51.3822176179
 20
11.556031317
 10
51.320262416
 20
11.7591791025
 10
51.2394096247
 20
11.9628577739
 10
51.1403189528
 20
12.1653953664
 10
51.023816325
 20
12.3651657693
 10
50.8908385854
 20
12.5604882472
 10
50.7424360428
 20
12.7496422806
 10
50.5798069305
 20
12.9310976897
 10
50.4043194262
 20
13.1033318933
 10
50.2174864685
 20
13.2647487865
 10
50.0201792654
 20
13.4146925594
 10
49.8146670409
 20
13.5512012259
 10
49.6049703448
 20
13.6713845119
 10
49.3937835437
 20
13.7742876893
 10
49.182154685
 20
13.8603329177
 10
48.9717677367
 20
13.9294565853
  0
LWPOLYLINE
  5
3FE
100
AcDbEntity
  8
SUPERFICI
100
AcDbPolyline
 62
250
  6
CONTINUOUS
 90
10
 70
0
 10
50.2102452847
 20
11.1134842792
 10
50.2233024412
 20
11.0631250823
 10
50.2350450876
 20
11.0130096449
 10
50.2455245072
 20
10.9628246788
 10
50.2546819934
 20
10.9120459232
 10
50.2626602664
 20
10.8605889204
 10
50.2698639984
 20
10.8088257867
 10
50.2765121688
 20
10.7567445926
 10
50.282605604
 20
10.7040288467
 10
50.2883327952
 20
10.6509039801
  0
LWPOLYLINE
  5
3FF
100
AcDbEntity
  8
SUPERFICI
100
AcDbPolyline
 62
250
  6
CONTINUOUS
 90
10
 70
0
 10
51.3822176179
 20
11.556031317
 10
51.3955723865
 20
11.5014118975
 10
51.4075088487
 20
11.4469606483
 10
51.4180179574
 20
11.3927103941
 10
51.4270832553
 20
11.3386794857
 10
51.4347053971
 20
11.2849151263
 10
51.4409033709
 20
11.231492916
 10
51.4456812488
 20
11.1784591942
 10
51.449026976
 20
11.125831456
 10
51.4509377392
 20
11.0736413739
  0
LWPOLYLINE
  5
400
100
AcDbEntity
  8
0
100
AcDbPolyline
 62
7
  6
CONTINUOUS
 90
22
 70
0
 10
53.694492458
 20
13.5587649451
 10
53.6824931772
 20
13.7341266656
 10
53.6562503876
 20
13.9110382052
 10
53.6157640891
 20
14.089499564
 10
53.5606498909
 20
14.2705216026
 10
53.4912921838
 20
14.4530934604
 10
53.4088441408
 20
14.6341825549
 10
53.3130869964
 20
14.8137649245
 10
53.2042395161
 20
14.9918645307
 10
53.084111169
 20
15.1655206761
 10
52.9525133791
 20
15.33465908
 10
52.8096347225
 20
15.4993540231
 10
52.6578503973
 20
15.6568676492
 10
52.4970115331
 20
15.8070799105
 10
52.3272670002
 20
15.9501108549
 10
52.1514386075
 20
16.0835827709
 10
51.9694256333
 20
16.2073354939
 10
51.7813287992
 20
16.3215291886
 10
51.5902720792
 20
16.4242666378
 10
51.397296798
 20
16.514915436
 10
51.2013616309
 20
16.5941079888
 10
51.0024665779
 20
16.6618442963
  0
LWPOLYLINE
  5
401
100
AcDbEntity
  8
0
100
AcDbPolyline
 62
7
  6
CONTINUOUS
 90
9
 70
0
 10
55.1234097691
 20
-43.8814624443
 10
55.1200177142
 20
-44.0520976287
 10
55.1022405544
 20
-44.2154910639
 10
55.0700782897
 20
-44.3716427498
 10
55.0231912917
 20
-44.5213412084
 10
54.9619191888
 20
-44.6637979176
 10
54.8872808666
 20
-44.7966473118
 10
54.79905299
 20
-44.9197296639
 10
54.7355137759
 20
-44.993527683
  0
LINE
  5
402
100
AcDbEntity
  8
SUPERFICI
100
AcDbLine
 62
250
  6
CONTINUOUS
 10
51.7043126189
 20
-46.6499060454
 11
51.7113606396
 21
-46.5480603664
  0
LWPOLYLINE
  5
403
100
AcDbEntity
  8
SUPERFICI
100
AcDbPolyline
 62
250
  6
CONTINUOUS
 90
10
 70
0
 10
45.5599297537
 20
-40.0024250247
 10
45.5160541995
 20
-40.1684738028
 10
45.4694020922
 20
-40.3295464754
 10
45.4212035344
 20
-40.4863107333
 10
45.3718782167
 20
-40.6389689091
 10
45.3201926827
 20
-40.7867784994
 10
45.2648400086
 20
-40.9289617744
 10
45.2049440599
 20
-41.0649260664
 10
45.1403443874
 20
-41.1943550195
 10
45.0710186533
 20
-41.3170220534
  0
LWPOLYLINE
  5
404
100
AcDbEntity
  8
SUPERFICI
100
AcDbPolyline
 62
250
  6
CONTINUOUS
 90
13
 70
0
 10
44.2880373535
 20
-42.1372436265
 10
44.0519089801
 20
-42.2732751979
 10
43.7874947142
 20
-42.3903845619
 10
43.4949594269
 20
-42.484990211
 10
43.1769112408
 20
-42.5547015783
 10
42.8341280515
 20
-42.6009361558
 10
42.4645262531
 20
-42.6248827568
 10
42.0686796601
 20
-42.6269897606
 10
41.6490148745
 20
-42.6083620434
 10
41.2066296566
 20
-42.5707798932
 10
40.7426026907
 20
-42.5149229001
 10
40.2581888379
 20
-42.4407343433
 10
39.753681625
 20
-42.3484163812
  0
LWPOLYLINE
  5
405
100
AcDbEntity
  8
SUPERFICI
100
AcDbPolyline
 62
250
  6
CONTINUOUS
 90
8
 70
0
 10
51.6551845795
 20
-46.9702965861
 10
51.6656587419
 20
-46.9283308592
 10
51.6750628652
 20
-46.8851194866
 10
51.6833283372
 20
-46.8406538997
 10
51.6901208462
 20
-46.7948709115
 10
51.6955860888
 20
-46.747787984
 10
51.7002986431
 20
-46.6994766657
 10
51.7043126189
 20
-46.6499060454
  0
LWPOLYLINE
  5
406
100
AcDbEntity
  8
SUPERFICI
100
AcDbPolyline
 62
250
  6
CONTINUOUS
 90
10
 70
0
 10
45.071018654
 20
-41.3170220541
 10
44.9999209821
 20
-41.4297436986
 10
44.924098256
 20
-41.5369797399
 10
44.8444672219
 20
-41.6388736462
 10
44.7611544917
 20
-41.7350887365
 10
44.6741068983
 20
-41.8257200159
 10
44.5831146528
 20
-41.9112542135
 10
44.4882299528
 20
-41.9918029897
 10
44.3898091486
 20
-42.0671771126
 10
44.2880377654
 20
-42.137243358
  0
LWPOLYLINE
  5
407
100
AcDbEntity
  8
SUPERFICI
100
AcDbPolyline
 62
250
  6
CONTINUOUS
 90
5
 70
0
 10
52.8341474833
 20
-46.8092650077
 10
52.7813875596
 20
-46.9757529432
 10
52.7094668659
 20
-47.1311305402
 10
52.6189714423
 20
-47.2741084129
 10
52.526327225
 20
-47.3868089091
  0
LINE
  5
408
100
AcDbEntity
  8
0
100
AcDbLine
 62
250
  6
CONTINUOUS
 10
52.8790457099
 20
-46.367566292
 11
55.1234106658
 21
-43.8814984884
  0
LINE
  5
409
100
AcDbEntity
  8
SUPERFICI
100
AcDbLine
 62
7
  6
CONTINUOUS
 10
52.526327225
 20
-47.3868089091
 11
54.7356445079
 21
-44.9936394212
  0
LWPOLYLINE
  5
40A
100
AcDbEntity
  8
SUPERFICI
100
AcDbPolyline
 62
250
  6
CONTINUOUS
 90
13
 70
0
 10
52.8341962205
 20
-46.8092110599
 10
52.7701880064
 20
-46.8699578498
 10
52.6962105632
 20
-46.9232197252
 10
52.6132226142
 20
-46.9685794327
 10
52.5221508208
 20
-47.0056187735
 10
52.4237264593
 20
-47.0339612722
 10
52.3191468793
 20
-47.0531781671
 10
52.2102243066
 20
-47.0628517147
 10
52.098964174
 20
-47.0629363568
 10
51.9868181349
 20
-47.053554483
 10
51.8747350713
 20
-47.0348887826
 10
51.7638094742
 20
-47.0070945719
 10
51.6551725624
 20
-46.9703190414
  0
LWPOLYLINE
  5
40B
100
AcDbEntity
  8
SUPERFICI
100
AcDbPolyline
 62
250
  6
CONTINUOUS
 90
10
 70
0
 10
51.1149671095
 20
-47.5942063019
 10
51.1991807583
 20
-47.5515869683
 10
51.2781747564
 20
-47.5019395113
 10
51.3515753666
 20
-47.4453818903
 10
51.4188474142
 20
-47.3822462324
 10
51.4797554876
 20
-47.3126203256
 10
51.5341758147
 20
-47.2365550265
 10
51.5818234413
 20
-47.1540966217
 10
51.6222812103
 20
-47.0653113473
 10
51.6551845795
 20
-46.9702965861
  0
ELLIPSE
  5
40C
100
AcDbEntity
  8
RACCORDO
100
AcDbEllipse
 62
7
  6
CONTINUOUS
 10
54.0774364808
 20
-12.1809468505
 30
0.0
 11
0.1655715106
 21
0.4721352857
 31
0.0
 40
0.3985882546
 41
-2.2506539495
 42
-0.8107573166
  0
ELLIPSE
  5
40D
100
AcDbEntity
  8
RACCORDO
100
AcDbEllipse
 62
7
  6
CONTINUOUS
 10
53.5984892684
 20
-13.619951918
 30
0.0
 11
0.1655715106
 21
0.4721352857
 31
0.0
 40
0.3985882546
 41
0.8909387041
 42
2.330835337
  0
ELLIPSE
  5
40E
100
AcDbEntity
  8
RACCORDO
100
AcDbEllipse
 62
7
  6
CONTINUOUS
 10
54.2395254767
 20
-18.6966694238
 30
0.0
 11
0.1655715106
 21
0.4721352857
 31
0.0
 40
0.3985882546
 41
5.4724279906
 42
6.9123246235
  0
ELLIPSE
  5
40F
100
AcDbEntity
  8
RACCORDO
100
AcDbEllipse
 62
7
  6
CONTINUOUS
 10
53.7165905984
 20
-18.3674395411
 30
0.0
 11
0.1655715106
 21
0.4721352857
 31
0.0
 40
0.3985882546
 41
2.330835337
 42
3.7707319699
  0
ENDSEC
  0
SECTION
  2
OBJECTS
  0
DICTIONARY
  5
C
100
AcDbDictionary
280
0
281
1
  3
ACAD_GROUP
350
D
  3
ACAD_MLINESTYLE
350
17
  3
ACAD_LAYOUT
350
1A
  3
ACAD_PLOTSETTINGS
350
19
  3
ACAD_PLOTSTYLENAME
350
E
  0
DICTIONARY
  5
D
102
{ACAD_REACTORS
330
C
102
}
100
AcDbDictionary
280
0
281
1
  0
ACDBDICTIONARYWDFLT
  5
E
102
{ACAD_REACTORS
330
C
102
}
100
AcDbDictionary
281
1
  3
Normal
350
F
100
AcDbDictionaryWithDefault
340
F
  0
DICTIONARY
  5
17
102
{ACAD_REACTORS
330
C
102
}
100
AcDbDictionary
280
0
281
1
  3
Standard
350
18
  0
DICTIONARY
  5
19
102
{ACAD_REACTORS
330
C
102
}
100
AcDbDictionary
281
1
  0
DICTIONARY
  5
1A
102
{ACAD_REACTORS
330
C
102
}
100
AcDbDictionary
281
1
  3
Model
350
410
  3
Layout1
350
411
  0
ACDBPLACEHOLDER
  5
F
102
{ACAD_REACTORS
330
E
102
}
  0
MLINESTYLE
  5
18
102
{ACAD_REACTORS
330
17
102
}
100
AcDbMlineStyle
  2
STANDARD
 70
0
  3

 62
256
 51
90.0
 52
90.0
 71
2
 49
0.5
 62
256
  6
BYLAYER
 49
-0.5
 62
256
  6
BYLAYER
  0
LAYOUT
  5
410
102
{ACAD_REACTORS
330
1A
102
}
100
AcDbPlotSettings
  1

  2
none_device
  4
ISO_A4_(297.00_x_210.00_MM)
  6

 40
0.0
 41
0.0
 42
0.0
 43
0.0
 44
297.0
 45
210.0
 46
0.0
 47
0.0
 48
0.0
 49
0.0
140
0.0
141
0.0
142
1.0
143
1.0
 70
1024
 72
1
 73
0
 74
0
  7

 75
0
147
1.0
148
0.0
149
0.0
100
AcDbLayout
  1
Model
 70
0
 71
0
 10
0.0
 20
0.0
 11
297.0
 21
210.0
 12
0.0
 22
0.0
 32
0.0
 14
0.0
 24
0.0
 34
0.0
 15
0.0
 25
0.0
 35
0.0
146
0.0
 13
0.0
 23
0.0
 33
0.0
 16
1.0
 26
0.0
 36
0.0
 17
0.0
 27
1.0
 37
0.0
 76
0
330
219
345
0
346
0
  0
LAYOUT
  5
411
102
{ACAD_REACTORS
330
1A
102
}
100
AcDbPlotSettings
  1

  2
none_device
  4
ISO_A4_(297.00_x_210.00_MM)
  6

 40
0.0
 41
0.0
 42
0.0
 43
0.0
 44
297.0
 45
210.0
 46
0.0
 47
0.0
 48
0.0
 49
0.0
140
0.0
141
0.0
142
1.0
143
1.0
 70
0
 72
1
 73
0
 74
0
  7

 75
0
147
1.0
148
0.0
149
0.0
100
AcDbLayout
  1
Layout1
 70
0
 71
1
 10
0.0
 20
0.0
 11
297.0
 21
210.0
 12
0.0
 22
0.0
 32
0.0
 14
0.0
 24
0.0
 34
0.0
 15
0.0
 25
0.0
 35
0.0
146
0.0
 13
0.0
 23
0.0
 33
0.0
 16
1.0
 26
0.0
 36
0.0
 17
0.0
 27
1.0
 37
0.0
 76
0
330
21A
345
0
346
0
  0
ENDSEC
  0
EOF
