  0
SECTION
  2
HEADER
  9
$ACADVER
  1
AC1024
  9
$DWGCODEPAGE
  3
ANSI_1252
  9
$EXTMAX
 10
297.0
 20
210.0
 30
0.0
  9
$EXTMIN
 10
0.0
 20
0.0
 30
0.0
  9
$LIMMIN
 10
0.0
 20
0.0
  9
$LIMMAX
 10
297.0
 20
210.0
  9
$VIEWCTR
 10
148.5
 20
105.0
  9
$VIEWSIZE
 40
210.0
  9
$CLAYER
  8
0
  9
$LTSCALE
 40
16.335
  9
$CELTYPE
  6
BYLAYER
  9
$DIMSCALE
 40
1.0
  9
$DIMASZ
 40
3.0
  9
$DIMEXO
 40
0.5
  9
$DIMDLI
 40
11.286
  9
$DIMEXE
 40
1.5
  9
$DIMCEN
 40
2.673
  9
$DIMLFAC
 40
1.0
  9
$DIMBLK
  1
_FILLED
  9
$DIMALT
 70
0
  9
$DIMALTF
 40
0.0393700787
  9
$DIMTXT
 40
3.0
  9
$DIMTOL
 70
1
  9
$DIMLIM
 70
0
  9
$DIMTFAC
 40
1.0
  9
$DIMTP
 40
0.01
  9
$DIMTM
 40
0.01
  9
$DIMGAP
 40
0.625
  9
$DIMDSEP
 70
44
  9
$AUNITS
 70
0
  9
$PDMODE
 70
3
  9
$PDSIZE
 40
3.0
  9
$HANDSEED
  5
500
  9
$TILEMODE
 70
1
  9
$MEASUREMENT
 70
1
  9
$INSUNITS
 70
4
  0
ENDSEC
  0
SECTION
  2
CLASSES
  0
CLASS
  1
ACDBDICTIONARYWDFLT
  2
AcDbDictionaryWithDefault
  3
AutoCAD 2000
 90
0
 91
1
280
0
281
0
  0
CLASS
  1
ACDBPLACEHOLDER
  2
AcDbPlaceHolder
  3
AutoCAD 2000
 90
0
 91
1
280
0
281
0
  0
CLASS
  1
LAYOUT
  2
AcDbLayout
  3
AutoCAD 2000
 90
0
 91
0
280
0
281
0
  0
ENDSEC
  0
SECTION
  2
TABLES
  0
TABLE
  2
VPORT
  5
8
100
AcDbSymbolTable
 70
2
  0
VPORT
  5
1F4
100
AcDbSymbolTableRecord
100
AcDbViewportTableRecord
  2
*ACTIVE
 70
0
 10
0.0
 20
0.0
 11
1.0
 21
1.0
 12
148.5
 22
105.0
 13
0.0
 23
0.0
 14
1.0
 24
1.0
 15
0.0
 25
0.0
 16
0.0
 26
0.0
 36
1.0
 17
0.0
 27
0.0
 37
0.0
 40
210.0
 41
1.4142857143
 42
50.0
 43
0.0
 44
0.0
 50
0.0
 51
0.0
 71
0
 72
100
 73
1
 74
1
 75
0
 76
0
 77
0
 78
0
  0
ENDTAB
  0
TABLE
  2
LTYPE
  5
5
100
AcDbSymbolTable
 70
6
  0
LTYPE
  5
14
100
AcDbSymbolTableRecord
100
AcDbLinetypeTableRecord
  2
BYBLOCK
 70
0
  3

 72
65
 73
0
 40
0.0
  0
LTYPE
  5
15
100
AcDbSymbolTableRecord
100
AcDbLinetypeTableRecord
  2
BYLAYER
 70
0
  3

 72
65
 73
0
 40
0.0
  0
LTYPE
  5
16
100
AcDbSymbolTableRecord
100
AcDbLinetypeTableRecord
  2
CONTINUOUS
 70
64
  3
Solid line
 72
65
 73
0
 40
0.0
  0
LTYPE
  5
1F5
100
AcDbSymbolTableRecord
100
AcDbLinetypeTableRecord
  2
CENTER
 70
64
  3
____ _ ____ _ ____ _ ____ _ ____ _ ____ _ ____
 72
65
 73
4
 40
0.6
 49
0.375
 74
0
 49
-0.075
 74
0
 49
0.075
 74
0
 49
-0.075
 74
0
  0
LTYPE
  5
1F6
100
AcDbSymbolTableRecord
100
AcDbLinetypeTableRecord
  2
HIDDEN
 70
64
  3
- - - - - - - - - - - - - - - - - - - -
 72
65
 73
2
 40
0.2
 49
0.1
 74
0
 49
-0.1
 74
0
  0
LTYPE
  5
1F7
100
AcDbSymbolTableRecord
100
AcDbLinetypeTableRecord
  2
PHANTOM
 70
64
  3
_____ _ _ _____ _ _ _____ _ _ _____
 72
65
 73
6
 40
0.8
 49
0.45
 74
0
 49
-0.05
 74
0
 49
0.1
 74
0
 49
-0.05
 74
0
 49
0.1
 74
0
 49
-0.05
 74
0
  0
LTYPE
  5
1F8
100
AcDbSymbolTableRecord
100
AcDbLinetypeTableRecord
  2
DOT
 70
64
  3
. . . . . . . . . . . . . . . . . . . .
 72
65
 73
2
 40
0.2
 49
0.1
 74
0
 49
-0.1
 74
0
  0
LTYPE
  5
1F9
100
AcDbSymbolTableRecord
100
AcDbLinetypeTableRecord
  2
DASHED
 70
64
  3
- - - - - - - - - - - - - - - - - - - -
 72
65
 73
2
 40
0.2
 49
0.1
 74
0
 49
-0.1
 74
0
  0
ENDTAB
  0
TABLE
  2
LAYER
  5
2
100
AcDbSymbolTable
 70
36
  0
LAYER
  5
10
100
AcDbSymbolTableRecord
100
AcDbLayerTableRecord
  2
0
 70
0
 62
7
  6
CONTINUOUS
370
-3
390
F
  0
LAYER
  5
1FA
100
AcDbSymbolTableRecord
100
AcDbLayerTableRecord
  2
DEFAULT_1
 70
0
 62
7
  6
CENTER
370
-3
390
F
  0
LAYER
  5
1FB
100
AcDbSymbolTableRecord
100
AcDbLayerTableRecord
  2
DEFAULT_2
 70
0
 62
7
  6
HIDDEN
370
-3
390
F
  0
LAYER
  5
1FC
100
AcDbSymbolTableRecord
100
AcDbLayerTableRecord
  2
DEFAULT_3
 70
0
 62
7
  6
PHANTOM
370
-3
390
F
  0
LAYER
  5
1FD
100
AcDbSymbolTableRecord
100
AcDbLayerTableRecord
  2
ASSI
 70
0
 62
7
  6
CONTINUOUS
370
-3
390
F
  0
LAYER
  5
1FE
100
AcDbSymbolTableRecord
100
AcDbLayerTableRecord
  2
COORDINATE
 70
0
 62
7
  6
CONTINUOUS
370
-3
390
F
  0
LAYER
  5
1FF
100
AcDbSymbolTableRecord
100
AcDbLayerTableRecord
  2
COORD_ORIGINE
 70
0
 62
7
  6
CONTINUOUS
370
-3
390
F
  0
LAYER
  5
200
100
AcDbSymbolTableRecord
100
AcDbLayerTableRecord
  2
CURVE
 70
0
 62
7
  6
CONTINUOUS
370
-3
390
F
  0
LAYER
  5
201
100
AcDbSymbolTableRecord
100
AcDbLayerTableRecord
  2
DRAFT
 70
0
 62
7
  6
CONTINUOUS
370
-3
390
F
  0
LAYER
  5
202
100
AcDbSymbolTableRecord
100
AcDbLayerTableRecord
  2
NOTE
 70
0
 62
7
  6
CONTINUOUS
370
-3
390
F
  0
LAYER
  5
203
100
AcDbSymbolTableRecord
100
AcDbLayerTableRecord
  2
PIANI
 70
0
 62
7
  6
CONTINUOUS
370
-3
390
F
  0
LAYER
  5
204
100
AcDbSymbolTableRecord
100
AcDbLayerTableRecord
  2
PIANI_ORIGINE
 70
0
 62
7
  6
CONTINUOUS
370
-3
390
F
  0
LAYER
  5
205
100
AcDbSymbolTableRecord
100
AcDbLayerTableRecord
  2
PUNTI
 70
0
 62
7
  6
CONTINUOUS
370
-3
390
F
  0
LAYER
  5
206
100
AcDbSymbolTableRecord
100
AcDbLayerTableRecord
  2
RACCORDO
 70
0
 62
7
  6
CONTINUOUS
370
-3
390
F
  0
LAYER
  5
207
100
AcDbSymbolTableRecord
100
AcDbLayerTableRecord
  2
SCRITTA_VIMAR
 70
0
 62
7
  6
CONTINUOUS
370
-3
390
F
  0
LAYER
  5
208
100
AcDbSymbolTableRecord
100
AcDbLayerTableRecord
  2
SNAPLINE
 70
0
 62
7
  6
CONTINUOUS
370
-3
390
F
  0
LAYER
  5
209
100
AcDbSymbolTableRecord
100
AcDbLayerTableRecord
  2
SUPERFICI
 70
0
 62
7
  6
CONTINUOUS
370
-3
390
F
  0
LAYER
  5
20A
100
AcDbSymbolTableRecord
100
AcDbLayerTableRecord
  2
TRASH
 70
0
 62
7
  6
CONTINUOUS
370
-3
390
F
  0
LAYER
  5
20B
100
AcDbSymbolTableRecord
100
AcDbLayerTableRecord
  2
XSEC_DATUMS
 70
0
 62
7
  6
CONTINUOUS
370
-3
390
F
  0
ENDTAB
  0
TABLE
  2
STYLE
  5
3
100
AcDbSymbolTable
 70
1
  0
STYLE
  5
11
100
AcDbSymbolTableRecord
100
AcDbTextStyleTableRecord
  2
STANDARD
 70
0
 40
0.0
 41
0.8
 50
0.0
 71
0
 42
0.2
  3
txt
  4

  0
STYLE
  5
20C
100
AcDbSymbolTableRecord
100
AcDbTextStyleTableRecord
  2
TEXTSTYLE_1
 70
0
 40
0.0
 41
0.8
 50
0.0
 71
0
 42
0.2
  3
gdt
  4

  0
ENDTAB
  0
TABLE
  2
VIEW
  5
6
100
AcDbSymbolTable
 70
0
  0
ENDTAB
  0
TABLE
  2
UCS
  5
7
100
AcDbSymbolTable
 70
0
  0
ENDTAB
  0
TABLE
  2
APPID
  5
9
100
AcDbSymbolTable
 70
1
  0
APPID
  5
20D
100
AcDbSymbolTableRecord
100
AcDbRegAppTableRecord
  2
ACAD
 70
0
  0
ENDTAB
  0
TABLE
  2
BLOCK_RECORD
  5
1
100
AcDbSymbolTable
 70
0
  0
BLOCK_RECORD
  5
20E
100
AcDbSymbolTableRecord
100
AcDbBlockTableRecord
  2
*Model_Space
  0
BLOCK_RECORD
  5
20F
100
AcDbSymbolTableRecord
100
AcDbBlockTableRecord
  2
*Paper_Space
  0
BLOCK_RECORD
  5
210
100
AcDbSymbolTableRecord
100
AcDbBlockTableRecord
  2
_FILLED
  0
ENDTAB
  0
TABLE
  2
DIMSTYLE
  5
A
100
AcDbSymbolTable
 70
1
100
AcDbDimStyleTable
 71
0
  0
DIMSTYLE
105
211
100
AcDbSymbolTableRecord
100
AcDbDimStyleTableRecord
  2
STANDARD
 70
0
  3

  4

 40
1.0
 41
3.0
 42
0.5
 43
0.38
 44
1.5
 45
0.0
 46
0.0
 47
0.01
 48
0.01
140
3.0
141
0.09
142
0.0
143
25.4
144
1.0
145
0.0
146
1.0
147
0.625
 71
1
 72
0
 73
0
 74
0
 75
0
 76
0
 77
1
 78
8
 79
2
170
0
171
1
172
0
173
0
174
0
175
0
176
0
177
0
178
0
270
2
179
2
271
2
272
2
273
2
274
2
275
0
280
0
281
0
282
0
283
1
284
8
285
0
286
0
287
3
288
0
340
11
278
44
341
210
342
210
343
210
344
210
  0
ENDTAB
  0
ENDSEC
  0
SECTION
  2
BLOCKS
  0
BLOCK
  5
20
100
AcDbEntity
  8
0
100
AcDbBlockBegin
  2
*Model_Space
 70
0
 10
0.0
 20
0.0
 30
0.0
  3
*Model_Space
  1

  0
ENDBLK
  5
21
100
AcDbEntity
  8
0
100
AcDbBlockEnd
  0
BLOCK
  5
1C
100
AcDbEntity
  8
0
100
AcDbBlockBegin
  2
*Paper_Space
 70
0
 10
0.0
 20
0.0
 30
0.0
  3
*Paper_Space
  1

  0
ENDBLK
  5
1D
100
AcDbEntity
  8
0
100
AcDbBlockEnd
  0
BLOCK
  5
212
100
AcDbEntity
  8
0
100
AcDbBlockBegin
  2
_FILLED
 70
64
 10
0.0
 20
0.0
  3
_FILLED
  1

  0
SOLID
  5
213
100
AcDbEntity
  8
0
  6
BYBLOCK
 62
0
100
AcDbTrace
 10
0.0
 20
0.0
 11
-1.0
 21
0.3166666667
 12
-1.0
 22
-0.3166666667
 13
-1.0
 23
-0.3166666667
  0
ENDBLK
  5
214
100
AcDbEntity
  8
0
  6
BYBLOCK
 62
0
100
AcDbBlockEnd
  0
ENDSEC
  0
SECTION
  2
ENTITIES
  0
LWPOLYLINE
  5
215
100
AcDbEntity
  8
RACCORDO
100
AcDbPolyline
 62
7
  6
CONTINUOUS
 90
8
 70
0
 10
-55.8540087327
 20
44.3580757217
 10
-55.9187506248
 20
44.2512504721
 10
-56.0059238678
 20
44.077083241
 10
-56.0766731786
 20
43.8930608815
 10
-56.1302789451
 20
43.7005170689
 10
-56.1661342974
 20
43.5011011362
 10
-56.1840378267
 20
43.2961989242
 10
-56.1861428214
 20
43.1674141527
  0
LINE
  5
216
100
AcDbEntity
  8
RACCORDO
100
AcDbLine
 62
7
  6
CONTINUOUS
 10
-55.8538149052
 20
44.358400514
 11
-53.8633118945
 21
47.4145009709
  0
LINE
  5
217
100
AcDbEntity
  8
RACCORDO
100
AcDbLine
 62
250
  6
CONTINUOUS
 10
-53.4918527774
 20
44.9196696662
 11
-51.5001002225
 21
47.9776876673
  0
LWPOLYLINE
  5
218
100
AcDbEntity
  8
RACCORDO
100
AcDbPolyline
 62
250
  6
CONTINUOUS
 90
16
 70
0
 10
-55.8531622885
 20
44.3594034342
 10
-55.7538417393
 20
44.4936747221
 10
-55.6457396048
 20
44.6090393814
 10
-55.524625108
 20
44.7123712353
 10
-55.3914461193
 20
44.803001895
 10
-55.2468851674
 20
44.8805911979
 10
-55.0915542151
 20
44.944833513
 10
-54.9253166823
 20
44.9955817361
 10
-54.7500662755
 20
45.032092791
 10
-54.5699370028
 20
45.0538929968
 10
-54.3866110014
 20
45.0614575685
 10
-54.2011989937
 20
45.055449678
 10
-54.0175280811
 20
45.0369840484
 10
-53.8377729379
 20
45.0074591859
 10
-53.6622266878
 20
44.9679634578
 10
-53.4918527774
 20
44.9196696662
  0
LWPOLYLINE
  5
219
100
AcDbEntity
  8
RACCORDO
100
AcDbPolyline
 62
250
  6
CONTINUOUS
 90
13
 70
0
 10
-53.4918527774
 20
44.9196696662
 10
-53.5476464234
 20
44.8448436089
 10
-53.6020973815
 20
44.7609193728
 10
-53.6544658787
 20
44.6690371573
 10
-53.7040404343
 20
44.5704452794
 10
-53.7501475265
 20
44.4664832141
 10
-53.7921607423
 20
44.3585633958
 10
-53.8295092886
 20
44.2481520293
 10
-53.8616857467
 20
44.1367491696
 10
-53.8882529661
 20
44.0258683424
 10
-53.9088500038
 20
43.9170159807
 10
-53.923197028
 20
43.8116709591
 10
-53.9310991199
 20
43.7112645008
  0
LWPOLYLINE
  5
21A
100
AcDbEntity
  8
RACCORDO
100
AcDbPolyline
 62
7
  6
CONTINUOUS
 90
18
 70
0
 10
-54.7678036052
 20
-13.8474839935
 10
-54.7570205463
 20
-13.9978818436
 10
-54.7247545925
 20
-14.2166549653
 10
-54.6714134671
 20
-14.4415937742
 10
-54.5965222261
 20
-14.6697814014
 10
-54.5017349103
 20
-14.8951876301
 10
-54.3879907321
 20
-15.1160610375
 10
-54.2556667771
 20
-15.332035287
 10
-54.1072839762
 20
-15.5394486015
 10
-53.9446073702
 20
-15.7366144843
 10
-53.7683267465
 20
-15.9234416256
 10
-53.579894672
 20
-16.0986956051
 10
-53.3805500094
 20
-16.2614358552
 10
-53.1715236584
 20
-16.4108599386
 10
-52.9542746822
 20
-16.5458770221
 10
-52.7300757349
 20
-16.6656637677
 10
-52.5000290594
 20
-16.7694846291
 10
-52.2696922329
 20
-16.8550311492
  0
LINE
  5
21B
100
AcDbEntity
  8
RACCORDO
100
AcDbLine
 62
250
  6
CONTINUOUS
 10
-54.3228321054
 20
-14.3612876253
 11
-54.353172446
 21
-13.9412509834
  0
LWPOLYLINE
  5
21C
100
AcDbEntity
  8
RACCORDO
100
AcDbPolyline
 62
250
  6
CONTINUOUS
 90
3
 70
0
 10
-54.353172446
 20
-13.9412509834
 10
-54.3551876775
 20
-13.9085110136
 10
-54.3566520679
 20
-13.8758986131
  0
LINE
  5
21D
100
AcDbEntity
  8
RACCORDO
100
AcDbLine
 62
250
  6
CONTINUOUS
 10
-54.7678061625
 20
-13.8486946415
 11
-54.7670242712
 21
-13.8619059345
  0
LWPOLYLINE
  5
21E
100
AcDbEntity
  8
RACCORDO
100
AcDbPolyline
 62
250
  6
CONTINUOUS
 90
10
 70
0
 10
-56.1861428214
 20
43.1674141527
 10
-56.1850240927
 20
43.1416852401
 10
-56.1726684323
 20
43.070716741
 10
-56.1468680603
 20
43.0012020551
 10
-56.1079746154
 20
42.9340886194
 10
-56.0565181847
 20
42.8702911463
 10
-55.9932000789
 20
42.8106791565
 10
-55.9188832738
 20
42.7560651284
 10
-55.834580649
 20
42.7071934248
 10
-55.7414411829
 20
42.6647301483
  0
LINE
  5
21F
100
AcDbEntity
  8
RACCORDO
100
AcDbLine
 62
7
  6
CONTINUOUS
 10
-54.7678569804
 20
-13.8474860914
 11
-54.7678061625
 21
-13.8486946415
  0
LINE
  5
220
100
AcDbEntity
  8
RACCORDO
100
AcDbLine
 62
250
  6
CONTINUOUS
 10
-54.3566520679
 20
-13.8758986131
 11
-54.4576699389
 21
-10.967383573
  0
LINE
  5
221
100
AcDbEntity
  8
RACCORDO
100
AcDbLine
 62
250
  6
CONTINUOUS
 10
-54.4576699389
 20
-10.967383573
 11
-54.4939144226
 21
-9.8854538909
  0
LINE
  5
222
100
AcDbEntity
  8
RACCORDO
100
AcDbLine
 62
250
  6
CONTINUOUS
 10
-54.4939144226
 20
-9.8854538909
 11
-54.5329877286
 21
-8.688064027
  0
LINE
  5
223
100
AcDbEntity
  8
RACCORDO
100
AcDbLine
 62
250
  6
CONTINUOUS
 10
-54.5329877286
 20
-8.688064027
 11
-54.5796712674
 21
-7.2207881037
  0
LINE
  5
224
100
AcDbEntity
  8
RACCORDO
100
AcDbLine
 62
250
  6
CONTINUOUS
 10
-54.5796712674
 20
-7.2207881037
 11
-54.643764913
 21
-5.1719565306
  0
LINE
  5
225
100
AcDbEntity
  8
RACCORDO
100
AcDbLine
 62
250
  6
CONTINUOUS
 10
-54.643764913
 20
-5.1719565306
 11
-54.7039508305
 21
-3.2198052598
  0
LINE
  5
226
100
AcDbEntity
  8
RACCORDO
100
AcDbLine
 62
250
  6
CONTINUOUS
 10
-54.7039508305
 20
-3.2198052598
 11
-54.75324757
 21
-1.5949021897
  0
LINE
  5
227
100
AcDbEntity
  8
RACCORDO
100
AcDbLine
 62
250
  6
CONTINUOUS
 10
-54.75324757
 20
-1.5949021897
 11
-54.844307292
 21
1.4825877231
  0
LINE
  5
228
100
AcDbEntity
  8
RACCORDO
100
AcDbLine
 62
250
  6
CONTINUOUS
 10
-54.844307292
 20
1.4825877231
 11
-54.8959296569
 21
3.278060411
  0
LINE
  5
229
100
AcDbEntity
  8
RACCORDO
100
AcDbLine
 62
250
  6
CONTINUOUS
 10
-54.8959296569
 20
3.278060411
 11
-54.9374882026
 21
4.7527631807
  0
LWPOLYLINE
  5
22A
100
AcDbEntity
  8
RACCORDO
100
AcDbPolyline
 62
7
  6
CONTINUOUS
 90
4
 70
0
 10
-54.9071053537
 20
-8.9623658059
 10
-54.8589104504
 20
-10.7054708824
 10
-54.8110638919
 20
-12.4115450658
 10
-54.7678061625
 20
-13.8486946415
  0
LINE
  5
22B
100
AcDbEntity
  8
RACCORDO
100
AcDbLine
 62
250
  6
CONTINUOUS
 10
-54.9374882026
 20
4.7527631807
 11
-54.9815976173
 21
6.3475282479
  0
LINE
  5
22C
100
AcDbEntity
  8
RACCORDO
100
AcDbLine
 62
7
  6
CONTINUOUS
 10
-55.0048830965
 20
-5.365451492
 11
-54.9071053537
 21
-8.9623658059
  0
LINE
  5
22D
100
AcDbEntity
  8
RACCORDO
100
AcDbLine
 62
250
  6
CONTINUOUS
 10
-54.9815976173
 20
6.3475282479
 11
-55.0283848717
 21
8.0722398071
  0
LINE
  5
22E
100
AcDbEntity
  8
RACCORDO
100
AcDbLine
 62
7
  6
CONTINUOUS
 10
-55.1055421011
 20
-1.6233117182
 11
-55.0048830965
 21
-5.365451492
  0
LINE
  5
22F
100
AcDbEntity
  8
RACCORDO
100
AcDbLine
 62
250
  6
CONTINUOUS
 10
-55.0283848717
 20
8.0722398071
 11
-55.0780214872
 21
9.9373939016
  0
LINE
  5
230
100
AcDbEntity
  8
RACCORDO
100
AcDbLine
 62
250
  6
CONTINUOUS
 10
-55.0780214872
 20
9.9373939016
 11
-55.1307563559
 21
11.9540160239
  0
LWPOLYLINE
  5
231
100
AcDbEntity
  8
RACCORDO
100
AcDbPolyline
 62
7
  6
CONTINUOUS
 90
4
 70
0
 10
-55.3138374011
 20
6.2977270888
 10
-55.2610227391
 20
4.2627672905
 10
-55.2086802332
 20
2.2643317105
 10
-55.1055421011
 20
-1.6233117182
  0
LWPOLYLINE
  5
232
100
AcDbEntity
  8
RACCORDO
100
AcDbPolyline
 62
250
  6
CONTINUOUS
 90
3
 70
0
 10
-55.1307563559
 20
11.9540160239
 10
-55.1678441767
 20
13.3890868572
 10
-55.1869744889
 20
14.1338067632
  0
LINE
  5
233
100
AcDbEntity
  8
RACCORDO
100
AcDbLine
 62
7
  6
CONTINUOUS
 10
-55.4209179866
 20
10.4776812462
 11
-55.3138374011
 21
6.2977270888
  0
LINE
  5
234
100
AcDbEntity
  8
RACCORDO
100
AcDbLine
 62
7
  6
CONTINUOUS
 10
-55.5249356978
 20
14.5917735704
 11
-55.4209179866
 21
10.4776812462
  0
LINE
  5
235
100
AcDbEntity
  8
RACCORDO
100
AcDbLine
 62
7
  6
CONTINUOUS
 10
-55.6510316786
 20
19.7524978172
 11
-55.5249416944
 21
14.5920184643
  0
LINE
  5
236
100
AcDbEntity
  8
RACCORDO
100
AcDbLine
 62
7
  6
CONTINUOUS
 10
-55.7345693906
 20
23.2232050077
 11
-55.6510316786
 21
19.7524978172
  0
LINE
  5
237
100
AcDbEntity
  8
RACCORDO
100
AcDbLine
 62
250
  6
CONTINUOUS
 10
-55.186973881
 20
14.1338068839
 11
-55.2383216134
 21
16.2763694677
  0
LINE
  5
238
100
AcDbEntity
  8
RACCORDO
100
AcDbLine
 62
7
  6
CONTINUOUS
 10
-55.8144463978
 20
26.5953578861
 11
-55.7345693906
 21
23.2232050077
  0
LINE
  5
239
100
AcDbEntity
  8
RACCORDO
100
AcDbLine
 62
250
  6
CONTINUOUS
 10
-55.2383216134
 20
16.2763694677
 11
-55.28520136
 21
18.2615444122
  0
LINE
  5
23A
100
AcDbEntity
  8
RACCORDO
100
AcDbLine
 62
7
  6
CONTINUOUS
 10
-55.8907330349
 20
29.8689989915
 11
-55.8144463978
 21
26.5953578861
  0
LINE
  5
23B
100
AcDbEntity
  8
RACCORDO
100
AcDbLine
 62
250
  6
CONTINUOUS
 10
-55.28520136
 20
18.2615444122
 11
-55.3410935858
 21
20.6828631516
  0
LINE
  5
23C
100
AcDbEntity
  8
RACCORDO
100
AcDbLine
 62
7
  6
CONTINUOUS
 10
-55.9990044194
 20
34.5950059618
 11
-55.8907330349
 21
29.8689989915
  0
LWPOLYLINE
  5
23D
100
AcDbEntity
  8
RACCORDO
100
AcDbPolyline
 62
7
  6
CONTINUOUS
 90
3
 70
0
 10
-56.1003542693
 20
39.0960071491
 10
-56.067450593
 20
37.6203332957
 10
-55.9990044194
 20
34.5950059618
  0
LINE
  5
23E
100
AcDbEntity
  8
RACCORDO
100
AcDbLine
 62
250
  6
CONTINUOUS
 10
-55.3410935858
 20
20.6828631516
 11
-55.3784238015
 21
22.3429120803
  0
LINE
  5
23F
100
AcDbEntity
  8
RACCORDO
100
AcDbLine
 62
250
  6
CONTINUOUS
 10
-55.3784238015
 20
22.3429120803
 11
-55.4121947832
 21
23.8802965025
  0
LINE
  5
240
100
AcDbEntity
  8
RACCORDO
100
AcDbLine
 62
250
  6
CONTINUOUS
 10
-55.4121947832
 20
23.8802965025
 11
-55.4522734186
 21
25.7549139014
  0
LINE
  5
241
100
AcDbEntity
  8
RACCORDO
100
AcDbLine
 62
250
  6
CONTINUOUS
 10
-55.4522734186
 20
25.7549139014
 11
-55.4874228407
 21
27.4480788957
  0
LINE
  5
242
100
AcDbEntity
  8
RACCORDO
100
AcDbLine
 62
250
  6
CONTINUOUS
 10
-55.4874228407
 20
27.4480788957
 11
-55.5183334379
 21
28.9776440928
  0
LINE
  5
243
100
AcDbEntity
  8
RACCORDO
100
AcDbLine
 62
250
  6
CONTINUOUS
 10
-55.5183334379
 20
28.9776440928
 11
-55.5519211583
 21
30.6840246181
  0
LWPOLYLINE
  5
244
100
AcDbEntity
  8
RACCORDO
100
AcDbPolyline
 62
7
  6
CONTINUOUS
 90
3
 70
0
 10
-56.1862042094
 20
43.1679662777
 10
-56.1631371207
 20
41.9742580741
 10
-56.1003542693
 20
39.0960071491
  0
LINE
  5
245
100
AcDbEntity
  8
RACCORDO
100
AcDbLine
 62
250
  6
CONTINUOUS
 10
-55.5519211583
 20
30.6840246181
 11
-55.5861072236
 21
32.4672229844
  0
LINE
  5
246
100
AcDbEntity
  8
RACCORDO
100
AcDbLine
 62
250
  6
CONTINUOUS
 10
-55.5861072236
 20
32.4672229844
 11
-55.6315340711
 21
34.9027848857
  0
LINE
  5
247
100
AcDbEntity
  8
RACCORDO
100
AcDbLine
 62
250
  6
CONTINUOUS
 10
-55.6315340711
 20
34.9027848857
 11
-55.6597988244
 21
36.4570975881
  0
LINE
  5
248
100
AcDbEntity
  8
RACCORDO
100
AcDbLine
 62
250
  6
CONTINUOUS
 10
-55.6597988244
 20
36.4570975881
 11
-55.6795510729
 21
37.5848236275
  0
LINE
  5
249
100
AcDbEntity
  8
RACCORDO
100
AcDbLine
 62
250
  6
CONTINUOUS
 10
-55.6795510729
 20
37.5848236275
 11
-55.699362494
 21
38.771340749
  0
LINE
  5
24A
100
AcDbEntity
  8
RACCORDO
100
AcDbLine
 62
250
  6
CONTINUOUS
 10
-55.699362494
 20
38.771340749
 11
-55.7199192869
 21
40.0776690225
  0
LINE
  5
24B
100
AcDbEntity
  8
RACCORDO
100
AcDbLine
 62
250
  6
CONTINUOUS
 10
-55.7416797856
 20
41.5366037936
 11
-55.74308457
 21
41.6331402649
  0
LINE
  5
24C
100
AcDbEntity
  8
RACCORDO
100
AcDbLine
 62
250
  6
CONTINUOUS
 10
-55.7199192869
 20
40.0776690225
 11
-55.7416797856
 21
41.5366037936
  0
LWPOLYLINE
  5
24D
100
AcDbEntity
  8
RACCORDO
100
AcDbPolyline
 62
250
  6
CONTINUOUS
 90
3
 70
0
 10
-55.74308457
 20
41.6331402649
 10
-55.7483548479
 20
41.9990022843
 10
-55.7504739114
 20
42.1333657557
  0
LWPOLYLINE
  5
24E
100
AcDbEntity
  8
RACCORDO
100
AcDbPolyline
 62
250
  6
CONTINUOUS
 90
4
 70
0
 10
-55.7504739114
 20
42.1333657557
 10
-55.7512110939
 20
42.197046733
 10
-55.7512219664
 20
42.2286858635
 10
-55.7507361191
 20
42.2601123245
  0
LINE
  5
24F
100
AcDbEntity
  8
RACCORDO
100
AcDbLine
 62
7
  6
CONTINUOUS
 10
-56.1861474385
 20
43.1679667606
 11
-56.1861428214
 21
43.1674141527
  0
LINE
  5
250
100
AcDbEntity
  8
RACCORDO
100
AcDbLine
 62
250
  6
CONTINUOUS
 10
-55.7507361191
 20
42.2601123245
 11
-55.7414452561
 21
42.6647263874
  0
LWPOLYLINE
  5
251
100
AcDbEntity
  8
RACCORDO
100
AcDbPolyline
 62
250
  6
CONTINUOUS
 90
22
 70
0
 10
-55.7414411829
 20
42.6647301483
 10
-55.7337338128
 20
42.7864263207
 10
-55.7159209917
 20
42.9039290029
 10
-55.687982506
 20
43.0165096994
 10
-55.6500531628
 20
43.123559965
 10
-55.6023104074
 20
43.2245349603
 10
-55.5449182366
 20
43.3189038088
 10
-55.4780897674
 20
43.4062101206
 10
-55.4022352538
 20
43.4858944491
 10
-55.3179132182
 20
43.5573342624
 10
-55.225712832
 20
43.6200608588
 10
-55.1261005664
 20
43.6738951538
 10
-55.0194620412
 20
43.7186560039
 10
-54.905639783
 20
43.7542360364
 10
-54.7859321328
 20
43.7801343895
 10
-54.663158609
 20
43.7960317739
 10
-54.5383881897
 20
43.8022813057
 10
-54.4123419032
 20
43.7993139502
 10
-54.2876278656
 20
43.7878419252
 10
-54.1656722525
 20
43.7688162277
 10
-54.0466028839
 20
43.7430151361
 10
-53.9310963639
 20
43.7112671515
  0
LWPOLYLINE
  5
252
100
AcDbEntity
  8
RACCORDO
100
AcDbPolyline
 62
250
  6
CONTINUOUS
 90
9
 70
0
 10
-54.7670242712
 20
-13.8619059345
 10
-54.7545594759
 20
-13.9371058585
 10
-54.7286568494
 20
-14.010537004
 10
-54.6896694464
 20
-14.0811984993
 10
-54.6381286677
 20
-14.1481272232
 10
-54.5747370179
 20
-14.2104109327
 10
-54.5003585294
 20
-14.2672006963
 10
-54.4160069861
 20
-14.3177224656
 10
-54.3228321054
 20
-14.3612876253
  0
LWPOLYLINE
  5
253
100
AcDbEntity
  8
RACCORDO
100
AcDbPolyline
 62
250
  6
CONTINUOUS
 90
7
 70
0
 10
-55.524935609
 20
14.5917738498
 10
-55.5147499218
 20
14.5115618663
 10
-55.4848713686
 20
14.4252942507
 10
-55.4360125939
 20
14.3428100771
 10
-55.3691399621
 20
14.2657407776
 10
-55.2855761289
 20
14.1956106852
 10
-55.186973881
 20
14.1338068839
  0
LWPOLYLINE
  5
254
100
AcDbEntity
  8
RACCORDO
100
AcDbPolyline
 62
250
  6
CONTINUOUS
 90
10
 70
0
 10
-34.4404738862
 20
23.9923712967
 10
-34.3932022904
 20
24.1717036387
 10
-34.3504758278
 20
24.3504713388
 10
-34.3124603423
 20
24.5279805285
 10
-34.2793033926
 20
24.7035422241
 10
-34.2511336792
 20
24.8764750007
 10
-34.2280605453
 20
25.0461076376
 10
-34.2101735521
 20
25.211781723
 10
-34.1975421315
 20
25.3728542101
 10
-34.1902153162
 20
25.5286999126
  0
LWPOLYLINE
  5
255
100
AcDbEntity
  8
RACCORDO
100
AcDbPolyline
 62
250
  6
CONTINUOUS
 90
10
 70
0
 10
-23.5217107665
 20
35.5713510982
 10
-23.5806080895
 20
35.4851902898
 10
-23.6377500141
 20
35.3876921211
 10
-23.6921524852
 20
35.2805356321
 10
-23.7428786246
 20
35.1655661908
 10
-23.7890548649
 20
35.0447637141
 10
-23.8298859939
 20
34.920208571
 10
-23.8646688487
 20
34.7940457562
 10
-23.8928044253
 20
34.6684479502
 10
-23.9138081939
 20
34.5455781038
  0
LINE
  5
256
100
AcDbEntity
  8
ASSI
100
AcDbLine
 62
250
  6
CONTINUOUS
 10
-32.8175038195
 20
21.5084844356
 11
-33.4080182351
 21
20.7684874371
  0
LWPOLYLINE
  5
257
100
AcDbEntity
  8
RACCORDO
100
AcDbPolyline
 62
250
  6
CONTINUOUS
 90
4
 70
0
 10
-34.340416441
 20
23.0192868133
 10
-34.3602591386
 20
22.9973001479
 10
-34.4216355904
 20
22.9430393438
 10
-34.4914873605
 20
22.8929848015
  0
LWPOLYLINE
  5
258
100
AcDbEntity
  8
RACCORDO
100
AcDbPolyline
 62
250
  6
CONTINUOUS
 90
4
 70
0
 10
-36.4682288226
 20
-10.7615036987
 10
-36.4845429753
 20
-10.2583811986
 10
-36.5003961445
 20
-9.7356418562
 10
-36.5160272158
 20
-9.1937159642
  0
LINE
  5
259
100
AcDbEntity
  8
RACCORDO
100
AcDbLine
 62
250
  6
CONTINUOUS
 10
-36.5160272158
 20
-9.1937159642
 11
-36.5473799123
 21
-8.0522459499
  0
LINE
  5
25A
100
AcDbEntity
  8
RACCORDO
100
AcDbLine
 62
250
  6
CONTINUOUS
 10
-36.5473799123
 20
-8.0522459499
 11
-36.5962537818
 21
-6.2081425034
  0
LINE
  5
25B
100
AcDbEntity
  8
RACCORDO
100
AcDbLine
 62
250
  6
CONTINUOUS
 10
-36.5962537818
 20
-6.2081425034
 11
-36.6666164988
 21
-3.5065195993
  0
LINE
  5
25C
100
AcDbEntity
  8
RACCORDO
100
AcDbLine
 62
250
  6
CONTINUOUS
 10
-36.6666164988
 20
-3.5065195993
 11
-36.7436926844
 21
-0.504806088
  0
LINE
  5
25D
100
AcDbEntity
  8
RACCORDO
100
AcDbLine
 62
250
  6
CONTINUOUS
 10
-36.7436926844
 20
-0.504806088
 11
-36.9220108889
 21
6.5055134527
  0
LINE
  5
25E
100
AcDbEntity
  8
RACCORDO
100
AcDbLine
 62
250
  6
CONTINUOUS
 10
-36.0327716397
 20
20.8848072471
 11
-36.0877062651
 21
23.0265038053
  0
LINE
  5
25F
100
AcDbEntity
  8
RACCORDO
100
AcDbLine
 62
250
  6
CONTINUOUS
 10
-36.0029479148
 20
19.7042279427
 11
-36.0327716397
 21
20.8848072471
  0
LINE
  5
260
100
AcDbEntity
  8
RACCORDO
100
AcDbLine
 62
250
  6
CONTINUOUS
 10
-35.5398307829
 20
1.1810416307
 11
-36.0029479148
 21
19.7042279427
  0
LINE
  5
261
100
AcDbEntity
  8
RACCORDO
100
AcDbLine
 62
250
  6
CONTINUOUS
 10
-36.9220104725
 20
6.5055138617
 11
-37.1299201063
 21
15.0658665685
  0
LINE
  5
262
100
AcDbEntity
  8
RACCORDO
100
AcDbLine
 62
250
  6
CONTINUOUS
 10
-35.2274581728
 20
-11.5541158366
 11
-35.5398307829
 21
1.1810416307
  0
LINE
  5
263
100
AcDbEntity
  8
RACCORDO
100
AcDbLine
 62
250
  6
CONTINUOUS
 10
-37.1299201063
 20
15.0658665685
 11
-37.2138398369
 21
18.5832262963
  0
LINE
  5
264
100
AcDbEntity
  8
RACCORDO
100
AcDbLine
 62
250
  6
CONTINUOUS
 10
-37.2138398369
 20
18.5832262963
 11
-37.2582833419
 21
20.481290596
  0
LWPOLYLINE
  5
265
100
AcDbEntity
  8
RACCORDO
100
AcDbPolyline
 62
250
  6
CONTINUOUS
 90
6
 70
0
 10
-37.2582833419
 20
20.481290596
 10
-37.2852495108
 20
21.6610103569
 10
-37.2975790936
 20
22.2234173725
 10
-37.3089413204
 20
22.7665644778
 10
-37.3191308707
 20
23.2907337674
 10
-37.3278923773
 20
23.7956431548
  0
LWPOLYLINE
  5
266
100
AcDbEntity
  8
RACCORDO
100
AcDbPolyline
 62
250
  6
CONTINUOUS
 90
67
 70
0
 10
-36.0877062651
 20
23.0265038053
 10
-36.0878998731
 20
23.0875159306
 10
-36.085252103
 20
23.1456219754
 10
-36.0800381953
 20
23.20081918
 10
-36.0725344298
 20
23.2530466464
 10
-36.0630036126
 20
23.3024101837
 10
-36.0516633707
 20
23.3491689932
 10
-36.0387302097
 20
23.3933713474
 10
-36.0244212219
 20
23.4350613685
 10
-36.008895063
 20
23.4744862728
 10
-35.9923295082
 20
23.5117278224
 10
-35.9748936473
 20
23.5468209921
 10
-35.9566881461
 20
23.5799328979
 10
-35.9378686374
 20
23.6111057842
 10
-35.9185629752
 20
23.6404218479
 10
-35.8987901063
 20
23.6680908074
 10
-35.8786520191
 20
23.6941755438
 10
-35.8582596775
 20
23.7187230022
 10
-35.8376082197
 20
23.7418979335
 10
-35.8167798174
 20
23.7637486269
 10
-35.7958553981
 20
23.7843229907
 10
-35.7747994912
 20
23.8037663299
 10
-35.7536500973
 20
23.8221391772
 10
-35.7324905803
 20
23.8394598044
 10
-35.7113355265
 20
23.8557977157
 10
-35.6902097145
 20
23.8712096762
 10
-35.6691885559
 20
23.8857123383
 10
-35.6483585833
 20
23.8993144855
 10
-35.6277984219
 20
23.912037022
 10
-35.6075234683
 20
23.923939356
 10
-35.5875216948
 20
23.9350867659
 10
-35.5678785591
 20
23.9454913169
 10
-35.548583982
 20
23.9552120312
 10
-35.5294680464
 20
23.9643694845
 10
-35.510564379
 20
23.9729845854
 10
-35.4918867612
 20
23.9810816045
 10
-35.4732164629
 20
23.9887629986
 10
-35.4546355118
 20
23.9960120597
 10
-35.4360891699
 20
24.0028682859
 10
-35.4171293047
 20
24.0094853563
 10
-35.3977675674
 20
24.015845325
 10
-35.3779878377
 20
24.0219444325
 10
-35.3572694225
 20
24.0279118339
 10
-35.3355049552
 20
24.0337238605
 10
-35.3127644033
 20
24.0393258416
 10
-35.2887681985
 20
24.0447605949
 10
-35.2634009601
 20
24.0499949163
 10
-35.2367242064
 20
24.0549443068
 10
-35.208715013
 20
24.0595575749
 10
-35.1794033469
 20
24.0637657225
 10
-35.1487127158
 20
24.0675103453
 10
-35.11645658
 20
24.0707423835
 10
-35.0825316022
 20
24.0733859568
 10
-35.0469906074
 20
24.0753466625
 10
-35.0098810206
 20
24.0765374427
 10
-34.9711692613
 20
24.0768849627
 10
-34.9308589378
 20
24.0762870105
 10
-34.8890651412
 20
24.074623108
 10
-34.845901753
 20
24.0718384588
 10
-34.8012591808
 20
24.0678255206
 10
-34.7549291339
 20
24.0623747976
 10
-34.7069254426
 20
24.0553631091
 10
-34.6572706081
 20
24.0467047214
 10
-34.6057785132
 20
24.0362104018
 10
-34.5524137599
 20
24.0237263833
 10
-34.4972936519
 20
24.0091545236
 10
-34.4404744948
 20
23.992371315
  0
LWPOLYLINE
  5
267
100
AcDbEntity
  8
RACCORDO
100
AcDbPolyline
 62
250
  6
CONTINUOUS
 90
67
 70
0
 10
-37.3278938137
 20
23.7956414679
 10
-37.3269467787
 20
23.912387751
 10
-37.3204584938
 20
24.0234230721
 10
-37.3089627044
 20
24.1287740182
 10
-37.2928177441
 20
24.2283822927
 10
-37.272683744
 20
24.3224011856
 10
-37.2495576391
 20
24.4110816798
 10
-37.2243223139
 20
24.4943859793
 10
-37.1971872783
 20
24.5722783036
 10
-37.1679716512
 20
24.6452915596
 10
-37.1368165062
 20
24.7138199336
 10
-37.1040677834
 20
24.7783060614
 10
-37.0697485917
 20
24.8392092517
 10
-37.034120653
 20
24.8965431886
 10
-36.9975188246
 20
24.9503271515
 10
-36.9600268909
 20
25.0009082375
 10
-36.9218345194
 20
25.048411121
 10
-36.8831364027
 20
25.0929498118
 10
-36.8439419455
 20
25.1348550741
 10
-36.8044135705
 20
25.1742132887
 10
-36.7647056627
 20
25.2111022282
 10
-36.7247684459
 20
25.2457991109
 10
-36.6846742713
 20
25.2784156994
 10
-36.6445796875
 20
25.3089890777
 10
-36.6045245326
 20
25.3376675608
 10
-36.5645515667
 20
25.3645551719
 10
-36.5248021421
 20
25.3896866519
 10
-36.4854560056
 20
25.4131052899
 10
-36.4466721829
 20
25.4348425253
 10
-36.4084788247
 20
25.455006567
 10
-36.3708480736
 20
25.4737543007
 10
-36.3339201034
 20
25.4911080609
 10
-36.297623279
 20
25.5072114565
 10
-36.2615492579
 20
25.522386633
 10
-36.2256770017
 20
25.5366778695
 10
-36.1899609633
 20
25.5501501404
 10
-36.1538878663
 20
25.5631104048
 10
-36.1175608203
 20
25.575539262
 10
-36.0809488457
 20
25.5874234172
 10
-36.0433224725
 20
25.5990016829
 10
-36.0047488015
 20
25.6102655463
 10
-35.9652894954
 20
25.6210901556
 10
-35.924182946
 20
25.6314589531
 10
-35.8813825903
 20
25.6413124597
 10
-35.8371866452
 20
25.6505248402
 10
-35.7913861364
 20
25.6589242791
 10
-35.7439649869
 20
25.6663503289
 10
-35.6947456717
 20
25.6728742105
 10
-35.6431750069
 20
25.6786528894
 10
-35.5890169199
 20
25.6836574926
 10
-35.532264971
 20
25.6877245394
 10
-35.4726898983
 20
25.6907637589
 10
-35.4101974711
 20
25.6925865591
 10
-35.3449421675
 20
25.693081871
 10
-35.2770765669
 20
25.6922589786
 10
-35.206620236
 20
25.6897358668
 10
-35.1331377135
 20
25.6855723979
 10
-35.0559463842
 20
25.6803979228
 10
-34.9744609986
 20
25.6743473815
 10
-34.8887734608
 20
25.6666860714
 10
-34.7991721862
 20
25.6566721665
 10
-34.7062028179
 20
25.6439077812
 10
-34.6099624965
 20
25.6282098543
 10
-34.5102093017
 20
25.6091307716
 10
-34.4068939561
 20
25.5863341262
 10
-34.300182801
 20
25.5596166609
 10
-34.1902104358
 20
25.5287052505
  0
LINE
  5
268
100
AcDbEntity
  8
RACCORDO
100
AcDbLine
 62
250
  6
CONTINUOUS
 10
-34.4914873605
 20
22.8929848015
 11
-34.5690525838
 21
22.8476824603
  0
LWPOLYLINE
  5
269
100
AcDbEntity
  8
RACCORDO
100
AcDbPolyline
 62
250
  6
CONTINUOUS
 90
18
 70
0
 10
-34.5690525838
 20
22.8476824603
 10
-34.6534852654
 20
22.8076264275
 10
-34.743864508
 20
22.7732535895
 10
-34.8392045556
 20
22.7449388468
 10
-34.9384655455
 20
22.7229910251
 10
-35.0405648496
 20
22.7076495067
 10
-35.1443888828
 20
22.6990816198
 10
-35.2488052484
 20
22.6973808132
 10
-35.3526750894
 20
22.7025656376
 10
-35.4548655094
 20
22.7145795425
 10
-35.5542619295
 20
22.7332914938
 10
-35.6497802446
 20
22.7584974024
 10
-35.7403610854
 20
22.7899154649
 10
-35.8250364203
 20
22.8272075453
 10
-35.9029275704
 20
22.8699942794
 10
-35.9731844769
 20
22.9178280594
 10
-36.0350082234
 20
22.9701864248
 10
-36.0877062651
 20
23.0265038053
  0
LWPOLYLINE
  5
26A
100
AcDbEntity
  8
RACCORDO
100
AcDbPolyline
 62
7
  6
CONTINUOUS
 90
13
 70
0
 10
48.8601773162
 20
-47.911044741
 10
49.0613796565
 20
-47.961478843
 10
49.324287318
 20
-48.0078024906
 10
49.5836830967
 20
-48.0311212008
 10
49.8388491961
 20
-48.0312193336
 10
50.0874792589
 20
-48.0077808057
 10
50.3256684095
 20
-47.9613798566
 10
50.5508348874
 20
-47.8930945402
 10
50.7623773083
 20
-47.8037244198
 10
50.9591256884
 20
-47.6943562475
 10
51.1391391592
 20
-47.5666484063
 10
51.3012341405
 20
-47.4221481293
 10
51.3188186228
 20
-47.4043938646
  0
LINE
  5
26B
100
AcDbEntity
  8
RACCORDO
100
AcDbLine
 62
250
  6
CONTINUOUS
 10
48.3929937516
 20
-47.5318970608
 11
48.239533983
 21
-47.4923580695
  0
LWPOLYLINE
  5
26C
100
AcDbEntity
  8
RACCORDO
100
AcDbPolyline
 62
250
  6
CONTINUOUS
 90
3
 70
0
 10
48.7128040692
 20
-47.6146302818
 10
48.5518102925
 20
-47.5730530658
 10
48.5117711239
 20
-47.5626752212
  0
LWPOLYLINE
  5
26D
100
AcDbEntity
  8
RACCORDO
100
AcDbPolyline
 62
250
  6
CONTINUOUS
 90
22
 70
0
 10
-52.431900016
 20
-16.554067005
 10
-52.5462260657
 20
-16.5102423026
 10
-52.664446713
 20
-16.4588082827
 10
-52.7859465685
 20
-16.3993353091
 10
-52.9105464385
 20
-16.3311642562
 10
-53.0369953323
 20
-16.2541654929
 10
-53.1630501057
 20
-16.1690010515
 10
-53.2880709081
 20
-16.0755481451
 10
-53.4108911057
 20
-15.974087787
 10
-53.5286927917
 20
-15.8665325331
 10
-53.6402451205
 20
-15.7539408094
 10
-53.7454386743
 20
-15.6364265606
 10
-53.8434248085
 20
-15.5148336642
 10
-53.9335999626
 20
-15.3898205696
 10
-54.0154789978
 20
-15.2621000503
 10
-54.0884726207
 20
-15.1326406906
 10
-54.1521272134
 20
-15.0022813203
 10
-54.206201532
 20
-14.8716741839
 10
-54.2504939839
 20
-14.7415155681
 10
-54.2847820295
 20
-14.6125317376
 10
-54.3088993699
 20
-14.485510103
 10
-54.3228284347
 20
-14.3612839563
  0
LWPOLYLINE
  5
26E
100
AcDbEntity
  8
RACCORDO
100
AcDbPolyline
 62
250
  6
CONTINUOUS
 90
7
 70
0
 10
-52.2702212062
 20
-16.8548541935
 10
-52.3099736417
 20
-16.8345890296
 10
-52.345746424
 20
-16.8014252707
 10
-52.3761997803
 20
-16.756097995
 10
-52.4009199821
 20
-16.6992230042
 10
-52.4195711899
 20
-16.6315729837
 10
-52.431900016
 20
-16.554067005
  0
LWPOLYLINE
  5
26F
100
AcDbEntity
  8
RACCORDO
100
AcDbPolyline
 62
250
  6
CONTINUOUS
 90
10
 70
0
 10
-35.2274573202
 20
-11.5541155468
 10
-35.3248245906
 20
-11.4439422074
 10
-35.4336043545
 20
-11.3382844894
 10
-35.5533134934
 20
-11.2376116341
 10
-35.6834203484
 20
-11.1423707435
 10
-35.8233470819
 20
-11.052984795
 10
-35.9724722436
 20
-10.9698507626
 10
-36.1301335304
 20
-10.893337854
 10
-36.2956307286
 20
-10.8237858706
 10
-36.4682288226
 20
-10.7615036987
  0
LWPOLYLINE
  5
270
100
AcDbEntity
  8
0
100
AcDbPolyline
 62
250
  6
CONTINUOUS
 90
10
 70
0
 10
-33.4477793385
 20
-11.525444244
 10
-33.4427151551
 20
-11.5670822864
 10
-33.4296860811
 20
-11.6099483716
 10
-33.4090879981
 20
-11.6527400351
 10
-33.3815467686
 20
-11.6941570741
 10
-33.3478992188
 20
-11.7329410526
 10
-33.3091677126
 20
-11.7679135392
 10
-33.2665290871
 20
-11.7980119126
 10
-33.2212788954
 20
-11.8223216488
 10
-33.1747920417
 20
-11.8401041089
  0
LWPOLYLINE
  5
271
100
AcDbEntity
  8
ASSI
100
AcDbPolyline
 62
7
  6
CONTINUOUS
 90
13
 70
0
 10
-32.6301439938
 20
-10.5008330154
 10
-32.6267644189
 20
-10.5328097775
 10
-32.6192464777
 20
-10.5645631622
 10
-32.6075901704
 20
-10.5960931697
 10
-32.5914583164
 20
-10.6279255937
 10
-32.5711880961
 20
-10.6595346404
 10
-32.5477910512
 20
-10.6893429286
 10
-32.5211085047
 20
-10.7172590753
 10
-32.4912991336
 20
-10.7433744636
 10
-32.45985051
 20
-10.7663858615
 10
-32.4272584914
 20
-10.7858588582
 10
-32.3930272204
 20
-10.8022278644
 10
-32.357156697
 20
-10.8154928802
  0
LINE
  5
272
100
AcDbEntity
  8
0
100
AcDbLine
 62
250
  6
CONTINUOUS
 10
-34.306878436
 20
23.0089876168
 11
-33.4477793385
 21
-11.525444244
  0
LINE
  5
273
100
AcDbEntity
  8
ASSI
100
AcDbLine
 62
7
  6
CONTINUOUS
 10
-32.7125178448
 20
-7.1895338261
 11
-32.6301439938
 21
-10.5008330154
  0
LINE
  5
274
100
AcDbEntity
  8
ASSI
100
AcDbLine
 62
7
  6
CONTINUOUS
 10
-33.4080182351
 20
20.7684874371
 11
-33.4572637383
 21
22.7480791742
  0
LINE
  5
275
100
AcDbEntity
  8
ASSI
100
AcDbLine
 62
7
  6
CONTINUOUS
 10
-32.8175038195
 20
21.5084844356
 11
-32.1220034292
 21
-6.4495368277
  0
LWPOLYLINE
  5
276
100
AcDbEntity
  8
ASSI
100
AcDbPolyline
 62
7
  6
CONTINUOUS
 90
7
 70
0
 10
-32.1220034292
 20
-6.4495368277
 10
-32.1269426547
 20
-6.6199496027
 10
-32.1486658777
 20
-6.7812942693
 10
-32.1871730982
 20
-6.9335708275
 10
-32.2430239776
 20
-7.077820872
 10
-32.3156588546
 20
-7.213002808
 10
-32.3945025222
 20
-7.3249775941
  0
LWPOLYLINE
  5
277
100
AcDbEntity
  8
RACCORDO
100
AcDbPolyline
 62
250
  6
CONTINUOUS
 90
10
 70
0
 10
-25.1327358045
 20
21.1351063381
 10
-25.0853219946
 20
21.3205342602
 10
-25.042742749
 20
21.5053482234
 10
-25.0051739566
 20
21.688784787
 10
-24.9727708089
 20
21.8700862
 10
-24.9456671587
 20
22.0485035315
 10
-24.9239749675
 20
22.2232997645
 10
-24.9077838428
 20
22.3937528401
 10
-24.8971606677
 20
22.5591586402
 10
-24.8921493252
 20
22.7188338966
  0
LWPOLYLINE
  5
278
100
AcDbEntity
  8
RACCORDO
100
AcDbPolyline
 62
250
  6
CONTINUOUS
 90
10
 70
0
 10
27.7147775367
 20
-30.8830682708
 10
27.9132130432
 20
-30.8637345096
 10
28.1127883241
 20
-30.852770712
 10
28.3126170025
 20
-30.8502255384
 10
28.5118115756
 20
-30.8561102612
 10
28.7094873574
 20
-30.870398715
 10
28.9047664072
 20
-30.8930274127
 10
29.096781429
 20
-30.9238958276
 10
29.2846796234
 20
-30.9628668396
 10
29.4676264752
 20
-31.0097673449
  0
LINE
  5
279
100
AcDbEntity
  8
RACCORDO
100
AcDbLine
 62
250
  6
CONTINUOUS
 10
48.5117711239
 20
-47.5626752212
 11
48.3929937516
 21
-47.5318970608
  0
LWPOLYLINE
  5
27A
100
AcDbEntity
  8
RACCORDO
100
AcDbPolyline
 62
250
  6
CONTINUOUS
 90
4
 70
0
 10
48.239533983
 20
-47.4923580695
 10
48.166186412
 20
-47.4731892847
 10
48.130347543
 20
-47.4635402602
 10
48.0951022249
 20
-47.4537103688
  0
LINE
  5
27B
100
AcDbEntity
  8
RACCORDO
100
AcDbLine
 62
7
  6
CONTINUOUS
 10
48.8605986498
 20
-47.9111838412
 11
48.8601718512
 21
-47.9110640786
  0
LINE
  5
27C
100
AcDbEntity
  8
RACCORDO
100
AcDbLine
 62
250
  6
CONTINUOUS
 10
42.6959852875
 20
-45.8846036184
 11
41.787205246
 21
-45.6227608346
  0
LINE
  5
27D
100
AcDbEntity
  8
RACCORDO
100
AcDbLine
 62
250
  6
CONTINUOUS
 10
48.0951022249
 20
-47.4537103688
 11
48.0253172775
 21
-47.4336723043
  0
LINE
  5
27E
100
AcDbEntity
  8
RACCORDO
100
AcDbLine
 62
250
  6
CONTINUOUS
 10
41.787205246
 20
-45.6227608346
 11
40.7751869352
 21
-45.3306209983
  0
LINE
  5
27F
100
AcDbEntity
  8
RACCORDO
100
AcDbLine
 62
250
  6
CONTINUOUS
 10
44.5326506144
 20
-46.4157048716
 11
42.6959852875
 21
-45.8846036184
  0
LINE
  5
280
100
AcDbEntity
  8
RACCORDO
100
AcDbLine
 62
250
  6
CONTINUOUS
 10
44.7763715688
 20
-46.486481477
 11
44.5326506144
 21
-46.4157048716
  0
LINE
  5
281
100
AcDbEntity
  8
RACCORDO
100
AcDbLine
 62
250
  6
CONTINUOUS
 10
40.7751869352
 20
-45.3306209983
 11
40.1552413122
 21
-45.1508304564
  0
LINE
  5
282
100
AcDbEntity
  8
RACCORDO
100
AcDbLine
 62
250
  6
CONTINUOUS
 10
45.0094232561
 20
-46.5542082611
 11
44.7763715688
 21
-46.486481477
  0
LINE
  5
283
100
AcDbEntity
  8
RACCORDO
100
AcDbLine
 62
250
  6
CONTINUOUS
 10
45.2329319442
 20
-46.6192037674
 11
45.0094232561
 21
-46.5542082611
  0
LWPOLYLINE
  5
284
100
AcDbEntity
  8
RACCORDO
100
AcDbPolyline
 62
250
  6
CONTINUOUS
 90
3
 70
0
 10
45.5509355883
 20
-46.711739629
 10
45.4473979592
 20
-46.681603785
 10
45.2329319442
 20
-46.6192037674
  0
LWPOLYLINE
  5
285
100
AcDbEntity
  8
RACCORDO
100
AcDbPolyline
 62
250
  6
CONTINUOUS
 90
3
 70
0
 10
45.8461383463
 20
-46.7976986872
 10
45.7503077147
 20
-46.7697884502
 10
45.5509355883
 20
-46.711739629
  0
LWPOLYLINE
  5
286
100
AcDbEntity
  8
RACCORDO
100
AcDbPolyline
 62
250
  6
CONTINUOUS
 90
4
 70
0
 10
46.2039104181
 20
-46.901942994
 10
46.1180430379
 20
-46.8769175942
 10
46.0298264888
 20
-46.8512115139
 10
45.8461383463
 20
-46.7976986872
  0
LINE
  5
287
100
AcDbEntity
  8
RACCORDO
100
AcDbLine
 62
250
  6
CONTINUOUS
 10
38.9529427593
 20
-44.7986763772
 11
38.262322808
 21
-44.5981580365
  0
LWPOLYLINE
  5
288
100
AcDbEntity
  8
RACCORDO
100
AcDbPolyline
 62
250
  6
CONTINUOUS
 90
6
 70
0
 10
46.6755329523
 20
-47.03946026
 10
46.6015851712
 20
-47.0178913587
 10
46.525904125
 20
-46.9958194706
 10
46.4484414182
 20
-46.9732305849
 10
46.3689488291
 20
-46.9500529843
 10
46.2039104181
 20
-46.901942994
  0
LINE
  5
289
100
AcDbEntity
  8
RACCORDO
100
AcDbLine
 62
250
  6
CONTINUOUS
 10
47.1460083874
 20
-47.1767316613
 11
46.6755329523
 21
-47.03946026
  0
LWPOLYLINE
  5
28A
100
AcDbEntity
  8
RACCORDO
100
AcDbPolyline
 62
250
  6
CONTINUOUS
 90
3
 70
0
 10
47.3234829143
 20
-47.228544827
 10
47.2659250889
 20
-47.2117371815
 10
47.1460083874
 20
-47.1767316613
  0
LINE
  5
28B
100
AcDbEntity
  8
RACCORDO
100
AcDbLine
 62
250
  6
CONTINUOUS
 10
38.262322808
 20
-44.5981580365
 11
37.8736937746
 21
-44.4847481781
  0
LWPOLYLINE
  5
28C
100
AcDbEntity
  8
RACCORDO
100
AcDbPolyline
 62
250
  6
CONTINUOUS
 90
3
 70
0
 10
47.7639260903
 20
-47.3571043487
 10
47.4335685986
 20
-47.2606982547
 10
47.3234829143
 20
-47.228544827
  0
LINE
  5
28D
100
AcDbEntity
  8
RACCORDO
100
AcDbLine
 62
250
  6
CONTINUOUS
 10
40.1552413122
 20
-45.1508304564
 11
39.7104781415
 21
-45.0211113016
  0
LINE
  5
28E
100
AcDbEntity
  8
RACCORDO
100
AcDbLine
 62
250
  6
CONTINUOUS
 10
48.0253172775
 20
-47.4336723043
 11
47.7639260903
 21
-47.3571043487
  0
LINE
  5
28F
100
AcDbEntity
  8
RACCORDO
100
AcDbLine
 62
250
  6
CONTINUOUS
 10
39.7104781415
 20
-45.0211113016
 11
38.9529427593
 21
-44.7986763772
  0
LINE
  5
290
100
AcDbEntity
  8
RACCORDO
100
AcDbLine
 62
250
  6
CONTINUOUS
 10
37.8736937746
 20
-44.4847481781
 11
37.4537159744
 21
-44.3612410645
  0
LINE
  5
291
100
AcDbEntity
  8
RACCORDO
100
AcDbLine
 62
250
  6
CONTINUOUS
 10
37.4537159744
 20
-44.3612410645
 11
37.0015432187
 21
-44.2271318679
  0
LWPOLYLINE
  5
292
100
AcDbEntity
  8
RACCORDO
100
AcDbPolyline
 62
250
  6
CONTINUOUS
 90
3
 70
0
 10
35.9961733085
 20
-43.9254334499
 10
35.7236343009
 20
-43.8436529023
 10
35.4431507361
 20
-43.7594780782
  0
LINE
  5
293
100
AcDbEntity
  8
RACCORDO
100
AcDbLine
 62
250
  6
CONTINUOUS
 10
35.4431507361
 20
-43.7594780782
 11
34.5548508293
 21
-43.4927145818
  0
LINE
  5
294
100
AcDbEntity
  8
RACCORDO
100
AcDbLine
 62
250
  6
CONTINUOUS
 10
37.0015432187
 20
-44.2271318679
 11
35.9961733085
 21
-43.9254334499
  0
LINE
  5
295
100
AcDbEntity
  8
RACCORDO
100
AcDbLine
 62
250
  6
CONTINUOUS
 10
34.5548508293
 20
-43.4927145818
 11
33.2562610043
 21
-43.1019331064
  0
LINE
  5
296
100
AcDbEntity
  8
RACCORDO
100
AcDbLine
 62
250
  6
CONTINUOUS
 10
33.2562610043
 20
-43.1019331064
 11
32.1905426818
 21
-42.780400022
  0
LINE
  5
297
100
AcDbEntity
  8
RACCORDO
100
AcDbLine
 62
250
  6
CONTINUOUS
 10
32.1905426818
 20
-42.780400022
 11
31.0400762197
 21
-42.4324570987
  0
LINE
  5
298
100
AcDbEntity
  8
RACCORDO
100
AcDbLine
 62
250
  6
CONTINUOUS
 10
31.0400762197
 20
-42.4324570987
 11
29.7979875867
 21
-42.0558314885
  0
LINE
  5
299
100
AcDbEntity
  8
RACCORDO
100
AcDbLine
 62
250
  6
CONTINUOUS
 10
29.7979875867
 20
-42.0558314885
 11
28.4565780975
 21
-41.647988319
  0
LINE
  5
29A
100
AcDbEntity
  8
RACCORDO
100
AcDbLine
 62
250
  6
CONTINUOUS
 10
28.4565780975
 20
-41.647988319
 11
27.0078944894
 21
-41.2063113063
  0
LINE
  5
29B
100
AcDbEntity
  8
RACCORDO
100
AcDbLine
 62
250
  6
CONTINUOUS
 10
27.0078944894
 20
-41.2063113063
 11
25.4433490273
 21
-40.7280072587
  0
LINE
  5
29C
100
AcDbEntity
  8
RACCORDO
100
AcDbLine
 62
250
  6
CONTINUOUS
 10
25.4433490273
 20
-40.7280072587
 11
23.7538755466
 21
-40.2101816908
  0
LWPOLYLINE
  5
29D
100
AcDbEntity
  8
RACCORDO
100
AcDbPolyline
 62
7
  6
CONTINUOUS
 90
14
 70
0
 10
23.0219638731
 20
-40.1075612716
 10
25.2521880303
 20
-40.7921503538
 10
27.4449910418
 20
-41.4640014623
 10
29.6006444218
 20
-42.1230037542
 10
31.7196613192
 20
-42.7692316209
 10
33.802258871
 20
-43.4027774992
 10
35.8480278938
 20
-44.0236748833
 10
37.8572960372
 20
-44.6321600257
 10
39.8340659938
 20
-45.2229920834
 10
41.7739966216
 20
-45.801294133
 10
43.6734442085
 20
-46.3656497744
 10
45.5295511136
 20
-46.919197887
 10
47.3439707796
 20
-47.4621691508
 10
48.8605986498
 20
-47.9111838412
  0
LINE
  5
29E
100
AcDbEntity
  8
RACCORDO
100
AcDbLine
 62
7
  6
CONTINUOUS
 10
18.6924248936
 20
-38.7762978179
 11
-22.2778389251
 21
-26.1947267173
  0
LINE
  5
29F
100
AcDbEntity
  8
RACCORDO
100
AcDbLine
 62
250
  6
CONTINUOUS
 10
-22.2433070508
 20
-26.0822781218
 11
-25.8061396769
 21
-24.9906108823
  0
LINE
  5
2A0
100
AcDbEntity
  8
RACCORDO
100
AcDbLine
 62
250
  6
CONTINUOUS
 10
-25.8061396769
 20
-24.9906108823
 11
-27.6387237503
 21
-24.4280028149
  0
LINE
  5
2A1
100
AcDbEntity
  8
RACCORDO
100
AcDbLine
 62
250
  6
CONTINUOUS
 10
23.7538755466
 20
-40.2101816908
 11
21.9302615526
 21
-39.649985145
  0
LINE
  5
2A2
100
AcDbEntity
  8
RACCORDO
100
AcDbLine
 62
7
  6
CONTINUOUS
 10
18.692363076
 20
-38.7762786389
 11
23.0219638731
 21
-40.1075612716
  0
LINE
  5
2A3
100
AcDbEntity
  8
RACCORDO
100
AcDbLine
 62
250
  6
CONTINUOUS
 10
21.9302615526
 20
-39.649985145
 11
20.6352526359
 21
-39.2515842994
  0
LWPOLYLINE
  5
2A4
100
AcDbEntity
  8
RACCORDO
100
AcDbPolyline
 62
250
  6
CONTINUOUS
 90
8
 70
0
 10
48.8601718512
 20
-47.9110640786
 10
48.855100113
 20
-47.9095031835
 10
48.8195112713
 20
-47.8904925461
 10
48.788169198
 20
-47.8586872735
 10
48.761499709
 20
-47.8145194741
 10
48.7398651381
 20
-47.7585892142
 10
48.7235594145
 20
-47.6916563656
 10
48.7128040692
 20
-47.6146302818
  0
LINE
  5
2A5
100
AcDbEntity
  8
RACCORDO
100
AcDbLine
 62
250
  6
CONTINUOUS
 10
-27.6387237503
 20
-24.4280028149
 11
-29.3316018028
 21
-23.9071071858
  0
LWPOLYLINE
  5
2A6
100
AcDbEntity
  8
RACCORDO
100
AcDbPolyline
 62
250
  6
CONTINUOUS
 90
3
 70
0
 10
20.6352526359
 20
-39.2515842994
 10
19.271182817
 20
-38.8316212141
 10
18.7269467336
 20
-38.6639950246
  0
LINE
  5
2A7
100
AcDbEntity
  8
RACCORDO
100
AcDbLine
 62
250
  6
CONTINUOUS
 10
18.7269467336
 20
-38.6639950246
 11
-22.2433070508
 21
-26.0822781218
  0
LINE
  5
2A8
100
AcDbEntity
  8
RACCORDO
100
AcDbLine
 62
250
  6
CONTINUOUS
 10
-29.3316018028
 20
-23.9071071858
 11
-30.8961262822
 21
-23.4244668401
  0
LINE
  5
2A9
100
AcDbEntity
  8
RACCORDO
100
AcDbLine
 62
250
  6
CONTINUOUS
 10
-30.8961262822
 20
-23.4244668401
 11
-32.3426396457
 21
-22.9770216098
  0
LINE
  5
2AA
100
AcDbEntity
  8
RACCORDO
100
AcDbLine
 62
250
  6
CONTINUOUS
 10
-32.3426396457
 20
-22.9770216098
 11
-33.6805710376
 21
-22.5620346922
  0
LINE
  5
2AB
100
AcDbEntity
  8
RACCORDO
100
AcDbLine
 62
250
  6
CONTINUOUS
 10
-33.6805710376
 20
-22.5620346922
 11
-34.918450395
 21
-22.1770614786
  0
LINE
  5
2AC
100
AcDbEntity
  8
RACCORDO
100
AcDbLine
 62
250
  6
CONTINUOUS
 10
-34.918450395
 20
-22.1770614786
 11
-36.0643386758
 21
-21.8197968037
  0
LINE
  5
2AD
100
AcDbEntity
  8
RACCORDO
100
AcDbLine
 62
250
  6
CONTINUOUS
 10
-36.0643386758
 20
-21.8197968037
 11
-37.1252163355
 21
-21.4882595939
  0
LINE
  5
2AE
100
AcDbEntity
  8
RACCORDO
100
AcDbLine
 62
250
  6
CONTINUOUS
 10
-37.1252163355
 20
-21.4882595939
 11
-38.4170946226
 21
-21.083522866
  0
LINE
  5
2AF
100
AcDbEntity
  8
RACCORDO
100
AcDbLine
 62
250
  6
CONTINUOUS
 10
-38.4170946226
 20
-21.083522866
 11
-40.848482672
 21
-20.3199450832
  0
LWPOLYLINE
  5
2B0
100
AcDbEntity
  8
RACCORDO
100
AcDbPolyline
 62
7
  6
CONTINUOUS
 90
15
 70
0
 10
-52.2702272771
 20
-16.8548724195
 10
-50.7546793804
 20
-17.3371809076
 10
-48.9598812421
 20
-17.9025803409
 10
-47.1262772098
 20
-18.4821356514
 10
-45.2524768019
 20
-19.0765168705
 10
-43.3359308089
 20
-19.6824530301
 10
-41.3809262111
 20
-20.2989951719
 10
-39.3831379502
 20
-20.9209965696
 10
-37.347276563
 20
-21.553515375
 10
-35.2728076671
 20
-22.1965479257
 10
-33.1599447214
 20
-22.8498727585
 10
-31.0084214176
 20
-23.5135469487
 10
-28.8177901225
 20
-24.1877923328
 10
-26.5880281344
 20
-24.8728110193
 10
-22.27776357
 20
-26.1947497669
  0
LINE
  5
2B1
100
AcDbEntity
  8
RACCORDO
100
AcDbLine
 62
250
  6
CONTINUOUS
 10
-40.848482672
 20
-20.3199450832
 11
-41.2969236371
 21
-20.1774143569
  0
LINE
  5
2B2
100
AcDbEntity
  8
RACCORDO
100
AcDbLine
 62
250
  6
CONTINUOUS
 10
-41.2969236371
 20
-20.1774143569
 11
-41.7131574006
 21
-20.0440911225
  0
LINE
  5
2B3
100
AcDbEntity
  8
RACCORDO
100
AcDbLine
 62
250
  6
CONTINUOUS
 10
-42.623333932
 20
-19.749519022
 11
-43.5385252854
 21
-19.4558070082
  0
LINE
  5
2B4
100
AcDbEntity
  8
RACCORDO
100
AcDbLine
 62
250
  6
CONTINUOUS
 10
-41.7131574006
 20
-20.0440911225
 11
-42.0983123174
 21
-19.9198684227
  0
LINE
  5
2B5
100
AcDbEntity
  8
RACCORDO
100
AcDbLine
 62
250
  6
CONTINUOUS
 10
-43.5385252854
 20
-19.4558070082
 11
-44.1162978989
 21
-19.2691917516
  0
LINE
  5
2B6
100
AcDbEntity
  8
RACCORDO
100
AcDbLine
 62
250
  6
CONTINUOUS
 10
-47.8849762656
 20
-18.042120315
 11
-49.8232126879
 21
-17.4149102752
  0
LINE
  5
2B7
100
AcDbEntity
  8
RACCORDO
100
AcDbLine
 62
250
  6
CONTINUOUS
 10
-42.0983123174
 20
-19.9198684227
 11
-42.623333932
 21
-19.749519022
  0
LINE
  5
2B8
100
AcDbEntity
  8
RACCORDO
100
AcDbLine
 62
250
  6
CONTINUOUS
 10
-44.1162978989
 20
-19.2691917516
 11
-44.868357745
 21
-19.0249180982
  0
LWPOLYLINE
  5
2B9
100
AcDbEntity
  8
RACCORDO
100
AcDbPolyline
 62
250
  6
CONTINUOUS
 90
5
 70
0
 10
-49.8232126879
 20
-17.4149102752
 10
-51.7869517017
 20
-16.7816891939
 10
-51.8215844732
 20
-16.7703179329
 10
-51.8566650672
 20
-16.7585629183
 10
-51.8923605512
 20
-16.7462569968
  0
LINE
  5
2BA
100
AcDbEntity
  8
RACCORDO
100
AcDbLine
 62
250
  6
CONTINUOUS
 10
-46.6623381693
 20
-18.4399212675
 11
-47.8849762656
 21
-18.042120315
  0
LWPOLYLINE
  5
2BB
100
AcDbEntity
  8
RACCORDO
100
AcDbPolyline
 62
250
  6
CONTINUOUS
 90
3
 70
0
 10
-44.868357745
 20
-19.0249180982
 10
-45.7183100224
 20
-18.7478867712
 10
-46.2818071162
 20
-18.5640332519
  0
LINE
  5
2BC
100
AcDbEntity
  8
RACCORDO
100
AcDbLine
 62
250
  6
CONTINUOUS
 10
-46.2818071162
 20
-18.5640332519
 11
-46.6623381693
 21
-18.4399212675
  0
LINE
  5
2BD
100
AcDbEntity
  8
RACCORDO
100
AcDbLine
 62
7
  6
CONTINUOUS
 10
-52.2696922329
 20
-16.8550311492
 11
-52.2702212062
 21
-16.8548541935
  0
LWPOLYLINE
  5
2BE
100
AcDbEntity
  8
RACCORDO
100
AcDbPolyline
 62
250
  6
CONTINUOUS
 90
3
 70
0
 10
-51.8923605512
 20
-16.7462569968
 10
-52.0029652656
 20
-16.7071313604
 10
-52.431902744
 20
-16.5540707052
  0
LWPOLYLINE
  5
2BF
100
AcDbEntity
  8
RACCORDO
100
AcDbPolyline
 62
250
  6
CONTINUOUS
 90
5
 70
0
 10
-22.2778256339
 20
-26.1947307244
 10
-22.3096896836
 20
-26.1801338235
 10
-22.3484014037
 20
-26.1461562552
 10
-22.3808484244
 20
-26.0965508113
 10
-22.4064711503
 20
-26.0321720074
  0
LWPOLYLINE
  5
2C0
100
AcDbEntity
  8
ASSI
100
AcDbPolyline
 62
7
  6
CONTINUOUS
 90
4
 70
0
 10
-32.277708328
 20
-10.792637934
 10
-32.4566079632
 20
-10.6351296432
 10
-32.6233878617
 20
-10.4669122118
 10
-32.6312121833
 20
-10.4578934772
  0
LWPOLYLINE
  5
2C1
100
AcDbEntity
  8
RACCORDO
100
AcDbPolyline
 62
250
  6
CONTINUOUS
 90
10
 70
0
 10
-33.5068847151
 20
-13.5364718016
 10
-33.4537193001
 20
-13.5940465451
 10
-33.4048517523
 20
-13.6621224422
 10
-33.3604717428
 20
-13.7404352626
 10
-33.3207515247
 20
-13.8286810416
 10
-33.285845265
 20
-13.9265172605
 10
-33.2558884456
 20
-14.0335641757
 10
-33.230997338
 20
-14.149406293
 10
-33.2112685518
 20
-14.2735939799
 10
-33.1967786595
 20
-14.4056452111
  0
LWPOLYLINE
  5
2C2
100
AcDbEntity
  8
RACCORDO
100
AcDbPolyline
 62
250
  6
CONTINUOUS
 90
10
 70
0
 10
-23.9137667252
 20
34.5455653691
 10
-24.1282275659
 20
32.9684482919
 10
-24.3126105121
 20
31.4466417614
 10
-24.468518731
 20
29.9806507604
 10
-24.6010598
 20
28.5285526751
 10
-24.7083820848
 20
27.113112671
 10
-24.7886849327
 20
25.7824463395
 10
-24.8432843826
 20
24.5778916542
 10
-24.8759357396
 20
23.5351481607
 10
-24.8916642963
 20
22.7186849489
  0
LINE
  5
2C3
100
AcDbEntity
  8
RACCORDO
100
AcDbLine
 62
7
  6
CONTINUOUS
 10
17.523131893
 20
-23.8368842729
 11
17.7063712795
 21
-23.7985064507
  0
LWPOLYLINE
  5
2C4
100
AcDbEntity
  8
SCRITTA_VIMAR
100
AcDbPolyline
 62
250
  6
CONTINUOUS
 90
32
 70
0
 10
27.0125977524
 20
-33.4962875497
 10
27.0686797232
 20
-33.5066837745
 10
27.1241331917
 20
-33.5173229684
 10
27.1789728203
 20
-33.5282116085
 10
27.2332132715
 20
-33.5393561722
 10
27.2868692077
 20
-33.5507631365
 10
27.3399552912
 20
-33.5624389788
 10
27.3924861846
 20
-33.5743901762
 10
27.4444734041
 20
-33.5866241109
 10
27.4959158819
 20
-33.5991517849
 10
27.5468094042
 20
-33.6119851052
 10
27.5971497572
 20
-33.625135979
 10
27.6469327268
 20
-33.6386163131
 10
27.6961540994
 20
-33.6524380145
 10
27.744809661
 20
-33.6666129904
 10
27.7869135312
 20
-33.6793156663
 10
27.8285644031
 20
-33.6923084072
 10
27.8697457036
 20
-33.7056016862
 10
27.9104408598
 20
-33.7192059762
 10
27.9506332986
 20
-33.7331317504
 10
27.990306447
 20
-33.7473894817
 10
28.0294437319
 20
-33.7619896431
 10
28.0680285803
 20
-33.7769427077
 10
28.1018516198
 20
-33.7905411901
 10
28.1352288409
 20
-33.8044469713
 10
28.1681640129
 20
-33.8186802382
 10
28.200660905
 20
-33.8332611774
 10
28.2327232868
 20
-33.8482099759
 10
28.2643549274
 20
-33.8635468203
 10
28.2955595962
 20
-33.8792918975
 10
28.3263410626
 20
-33.8954653943
 10
28.3567030959
 20
-33.9120874974
  0
LWPOLYLINE
  5
2C5
100
AcDbEntity
  8
SCRITTA_VIMAR
100
AcDbPolyline
 62
250
  6
CONTINUOUS
 90
57
 70
0
 10
27.9386306057
 20
-34.6306613633
 10
27.9528101467
 20
-34.6344410199
 10
27.9667388208
 20
-34.6379640545
 10
27.9804651756
 20
-34.6412384391
 10
27.9940377585
 20
-34.6442721459
 10
28.0075051172
 20
-34.6470731466
 10
28.0209157992
 20
-34.6496494135
 10
28.0343077513
 20
-34.6520046
 10
28.0476765182
 20
-34.6541250856
 10
28.0610070437
 20
-34.6559929313
 10
28.0742842717
 20
-34.6575901984
 10
28.0874931461
 20
-34.6588989478
 10
28.1006186108
 20
-34.6599012405
 10
28.1117893653
 20
-34.6605025764
 10
28.122867233
 20
-34.6608527259
 10
28.1338316695
 20
-34.660938834
 10
28.1446621302
 20
-34.6607480457
 10
28.1553380707
 20
-34.6602675062
 10
28.1658389464
 20
-34.6594843603
 10
28.1761442128
 20
-34.6583857532
 10
28.1849828075
 20
-34.6571565492
 10
28.1936307339
 20
-34.6556731256
 10
28.2020628167
 20
-34.6539326297
 10
28.2102538804
 20
-34.6519322089
 10
28.2181838614
 20
-34.6496691825
 10
28.2258531428
 20
-34.6471415574
 10
28.2332672196
 20
-34.6443475122
 10
28.2404315869
 20
-34.6412852256
 10
28.247351001
 20
-34.6379534012
 10
28.2540272639
 20
-34.6343528415
 10
28.2604614389
 20
-34.6304848741
 10
28.2666545896
 20
-34.6263508262
 10
28.2726054366
 20
-34.6219533764
 10
28.2783033303
 20
-34.617300608
 10
28.2837352783
 20
-34.6124019554
 10
28.2888882885
 20
-34.607266853
 10
28.2937500225
 20
-34.6019052034
 10
28.2983107579
 20
-34.5963287823
 10
28.3025614263
 20
-34.5905498336
 10
28.3064929593
 20
-34.5845806015
 10
28.3100990374
 20
-34.5784331063
 10
28.3133843376
 20
-34.5721184756
 10
28.3163562859
 20
-34.5656476132
 10
28.3190223081
 20
-34.5590314231
 10
28.3213906167
 20
-34.5522784016
 10
28.3234725696
 20
-34.5453874136
 10
28.3252803112
 20
-34.5383549165
 10
28.3268259861
 20
-34.5311773676
 10
28.3284988543
 20
-34.5213847494
 10
28.3297480282
 20
-34.5113748031
 10
28.3305941201
 20
-34.5011943684
 10
28.3310559883
 20
-34.4908759937
 10
28.3311454766
 20
-34.4803950613
 10
28.3308726747
 20
-34.4697126619
 10
28.3302476726
 20
-34.4587898862
 10
28.32928056
 20
-34.4475878251
 10
28.3279814269
 20
-34.4360675693
  0
LWPOLYLINE
  5
2C6
100
AcDbEntity
  8
SCRITTA_VIMAR
100
AcDbPolyline
 62
250
  6
CONTINUOUS
 90
3
 70
0
 10
29.1390510196
 20
-36.0576292159
 10
28.7014824109
 20
-35.9329162508
 10
28.6131340298
 20
-35.9076217804
  0
LINE
  5
2C7
100
AcDbEntity
  8
SCRITTA_VIMAR
100
AcDbLine
 62
250
  6
CONTINUOUS
 10
27.9748654689
 20
-34.9631279869
 11
27.6826397797
 21
-34.878341818
  0
LINE
  5
2C8
100
AcDbEntity
  8
SCRITTA_VIMAR
100
AcDbLine
 62
250
  6
CONTINUOUS
 10
27.6272871441
 20
-34.5401293169
 11
27.9386306057
 21
-34.6306613633
  0
LINE
  5
2C9
100
AcDbEntity
  8
SCRITTA_VIMAR
100
AcDbLine
 62
250
  6
CONTINUOUS
 10
27.7775160314
 20
-35.6667162165
 11
27.2349329673
 21
-35.5089179546
  0
LINE
  5
2CA
100
AcDbEntity
  8
SCRITTA_VIMAR
100
AcDbLine
 62
250
  6
CONTINUOUS
 10
26.5017475492
 20
-35.2942089373
 11
27.0750772639
 21
-35.4622471507
  0
LINE
  5
2CB
100
AcDbEntity
  8
SCRITTA_VIMAR
100
AcDbLine
 62
250
  6
CONTINUOUS
 10
25.5725132886
 20
-34.6324957455
 11
26.3119346835
 21
-34.8513562694
  0
LINE
  5
2CC
100
AcDbEntity
  8
SCRITTA_VIMAR
100
AcDbLine
 62
250
  6
CONTINUOUS
 10
26.1671344025
 20
-34.5065857032
 11
25.647487509
 21
-34.3524670722
  0
LINE
  5
2CD
100
AcDbEntity
  8
SCRITTA_VIMAR
100
AcDbLine
 62
250
  6
CONTINUOUS
 10
24.9349521916
 20
-34.8301855855
 11
25.4714807479
 21
-34.9898304034
  0
LINE
  5
2CE
100
AcDbEntity
  8
SCRITTA_VIMAR
100
AcDbLine
 62
250
  6
CONTINUOUS
 10
24.3197198167
 20
-34.6462462084
 11
24.8498218025
 21
-34.8047880168
  0
LINE
  5
2CF
100
AcDbEntity
  8
SCRITTA_VIMAR
100
AcDbLine
 62
250
  6
CONTINUOUS
 10
23.4889174608
 20
-34.3964956076
 11
23.5648024187
 21
-34.4193684929
  0
LINE
  5
2D0
100
AcDbEntity
  8
SCRITTA_VIMAR
100
AcDbLine
 62
250
  6
CONTINUOUS
 10
26.0545791919
 20
-33.1863904621
 11
25.5310395439
 21
-33.0287801379
  0
LINE
  5
2D1
100
AcDbEntity
  8
SCRITTA_VIMAR
100
AcDbLine
 62
250
  6
CONTINUOUS
 10
22.4779386258
 20
-34.0907099138
 11
22.7378126327
 21
-34.1694927558
  0
LINE
  5
2D2
100
AcDbEntity
  8
SCRITTA_VIMAR
100
AcDbLine
 62
250
  6
CONTINUOUS
 10
22.2208429396
 20
-34.0126556783
 11
22.4779386258
 21
-34.0907099138
  0
LINE
  5
2D3
100
AcDbEntity
  8
SCRITTA_VIMAR
100
AcDbLine
 62
250
  6
CONTINUOUS
 10
24.3916909789
 20
-32.6837534041
 11
24.2127031997
 21
-32.6293382513
  0
LINE
  5
2D4
100
AcDbEntity
  8
SCRITTA_VIMAR
100
AcDbLine
 62
250
  6
CONTINUOUS
 10
21.9300621851
 20
-33.9242453899
 11
21.7486029939
 21
-33.8690076429
  0
LWPOLYLINE
  5
2D5
100
AcDbEntity
  8
SCRITTA_VIMAR
100
AcDbPolyline
 62
250
  6
CONTINUOUS
 90
3
 70
0
 10
24.2127031997
 20
-32.6293382513
 10
23.9458606782
 20
-32.5481215317
 10
23.8573480703
 20
-32.5211584378
  0
LWPOLYLINE
  5
2D6
100
AcDbEntity
  8
SCRITTA_VIMAR
100
AcDbPolyline
 62
250
  6
CONTINUOUS
 90
3
 70
0
 10
21.7486029939
 20
-33.8690076429
 10
21.4791919991
 20
-33.7869080448
 10
21.3901275015
 20
-33.7597444875
  0
LINE
  5
2D7
100
AcDbEntity
  8
SCRITTA_VIMAR
100
AcDbLine
 62
250
  6
CONTINUOUS
 10
22.7836700733
 20
-32.1932820099
 11
22.6932390896
 21
-32.1656059055
  0
LINE
  5
2D8
100
AcDbEntity
  8
SCRITTA_VIMAR
100
AcDbLine
 62
250
  6
CONTINUOUS
 10
22.6932390896
 20
-32.1656059055
 11
22.5131077178
 21
-32.1104527168
  0
LINE
  5
2D9
100
AcDbEntity
  8
SCRITTA_VIMAR
100
AcDbLine
 62
250
  6
CONTINUOUS
 10
19.8836868126
 20
-33.2989078304
 11
20.3589681107
 21
-33.4445474053
  0
LWPOLYLINE
  5
2DA
100
AcDbEntity
  8
SCRITTA_VIMAR
100
AcDbPolyline
 62
250
  6
CONTINUOUS
 90
3
 70
0
 10
22.5131077178
 20
-32.1104527168
 10
22.3339489191
 20
-32.0555662649
 10
22.2447336694
 20
-32.0282235587
  0
LINE
  5
2DB
100
AcDbEntity
  8
SCRITTA_VIMAR
100
AcDbLine
 62
250
  6
CONTINUOUS
 10
21.1821172903
 20
-31.7019381282
 11
21.7211968561
 21
-31.8675106126
  0
LINE
  5
2DC
100
AcDbEntity
  8
SCRITTA_VIMAR
100
AcDbLine
 62
250
  6
CONTINUOUS
 10
20.9821039163
 20
-31.6405816725
 11
20.4435429807
 21
-31.4749331972
  0
LINE
  5
2DD
100
AcDbEntity
  8
SCRITTA_VIMAR
100
AcDbLine
 62
250
  6
CONTINUOUS
 10
19.4444172647
 20
-31.1673223442
 11
18.8591495212
 21
-30.987033424
  0
LWPOLYLINE
  5
2DE
100
AcDbEntity
  8
RACCORDO
100
AcDbPolyline
 62
250
  6
CONTINUOUS
 90
70
 70
0
 10
-33.1967786595
 20
-14.4056452111
 10
-33.3016181764
 20
-14.370526435
 10
-33.4035185414
 20
-14.3338079217
 10
-33.5023332952
 20
-14.2957814777
 10
-33.5978393853
 20
-14.256764662
 10
-33.6901572525
 20
-14.2169614429
 10
-33.7796824386
 20
-14.1764451889
 10
-33.866374171
 20
-14.1352501448
 10
-33.9497568033
 20
-14.0939352662
 10
-34.0297041032
 20
-14.0532790111
 10
-34.1060908986
 20
-14.0139705215
 10
-34.1791228723
 20
-13.9756674768
 10
-34.2492526792
 20
-13.9375275057
 10
-34.3169085722
 20
-13.8992185865
 10
-34.3822351242
 20
-13.8609794126
 10
-34.4450395846
 20
-13.8229154601
 10
-34.5051871278
 20
-13.7852158626
 10
-34.5627623873
 20
-13.747995888
 10
-34.6179003936
 20
-13.7112452698
 10
-34.6705413538
 20
-13.6751198451
 10
-34.7208208897
 20
-13.6396399066
 10
-34.7692235016
 20
-13.6045079853
 10
-34.8159535301
 20
-13.5696590334
 10
-34.861052595
 20
-13.5351095003
 10
-34.9046860299
 20
-13.5007160392
 10
-34.9466616126
 20
-13.4665829271
 10
-34.9871473023
 20
-13.4327775192
 10
-35.0267129993
 20
-13.3991679346
 10
-35.0651792405
 20
-13.3660551735
 10
-35.1024053659
 20
-13.3335010392
 10
-35.1390952217
 20
-13.3008869787
 10
-35.1753038801
 20
-13.2681703962
 10
-35.2109833593
 20
-13.2354001417
 10
-35.246659963
 20
-13.2020468422
 10
-35.2823514222
 20
-13.1680841301
 10
-35.3179841278
 20
-13.1335332431
 10
-35.353947087
 20
-13.0978808342
 10
-35.3902932622
 20
-13.0609922205
 10
-35.4270776881
 20
-13.0227689161
 10
-35.4646392956
 20
-12.9827540531
 10
-35.5029824722
 20
-12.9408482895
 10
-35.5419237571
 20
-12.8971493153
 10
-35.5814457181
 20
-12.8515416532
 10
-35.6215358259
 20
-12.803918227
 10
-35.6620539423
 20
-12.7543231305
 10
-35.7028019429
 20
-12.7028521163
 10
-35.7436289211
 20
-12.649573764
 10
-35.7845038649
 20
-12.5944027167
 10
-35.8253948391
 20
-12.5372183155
 10
-35.866155794
 20
-12.4780720251
 10
-35.9067143603
 20
-12.4169063302
 10
-35.9471194312
 20
-12.3534336349
 10
-35.9872334148
 20
-12.287650942
 10
-36.026899712
 20
-12.2195759577
 10
-36.066091363
 20
-12.1489539929
 10
-36.1046303346
 20
-12.0758051519
 10
-36.1423191119
 20
-12.0001674223
 10
-36.1790501617
 20
-11.9218226006
 10
-36.2145271988
 20
-11.8408024657
 10
-36.2485768425
 20
-11.7571595179
 10
-36.2812278084
 20
-11.6706923828
 10
-36.3122128192
 20
-11.5814734762
 10
-36.3413411365
 20
-11.4893268056
 10
-36.3686882954
 20
-11.393604287
 10
-36.3941005112
 20
-11.2941095376
 10
-36.4168506341
 20
-11.1914952362
 10
-36.4360755735
 20
-11.0865477996
 10
-36.4512279751
 20
-10.9798263928
 10
-36.4620705976
 20
-10.8714247978
 10
-36.4682254524
 20
-10.7614996831
  0
LWPOLYLINE
  5
2DF
100
AcDbEntity
  8
RACCORDO
100
AcDbPolyline
 62
250
  6
CONTINUOUS
 90
5
 70
0
 10
18.6923626623
 20
-38.7762786904
 10
18.660514346
 20
-38.7616865638
 10
18.6217473212
 20
-38.7276920156
 10
18.5892529226
 20
-38.6780720324
 10
18.5635907441
 20
-38.6136811322
  0
LINE
  5
2E0
100
AcDbEntity
  8
ASSI
100
AcDbLine
 62
7
  6
CONTINUOUS
 10
-32.1759162476
 20
-10.8711500664
 11
-32.277708328
 21
-10.792637934
  0
LWPOLYLINE
  5
2E1
100
AcDbEntity
  8
RACCORDO
100
AcDbPolyline
 62
250
  6
CONTINUOUS
 90
10
 70
0
 10
-24.1984884215
 20
-16.3951800173
 10
-24.143858162
 20
-16.4545059054
 10
-24.0941818997
 20
-16.5248881424
 10
-24.0496617154
 20
-16.6060369171
 10
-24.0106105839
 20
-16.6975773946
 10
-23.9770597786
 20
-16.799171305
 10
-23.9487581744
 20
-16.9105184524
 10
-23.9256941357
 20
-17.0311982077
 10
-23.9080950533
 20
-17.1606714656
 10
-23.8960350823
 20
-17.298402875
  0
LWPOLYLINE
  5
2E2
100
AcDbEntity
  8
RACCORDO
100
AcDbPolyline
 62
250
  6
CONTINUOUS
 90
10
 70
0
 10
-22.4065816594
 20
-26.0321380243
 10
-22.6836229641
 20
-25.0713024718
 10
-22.9303436161
 20
-24.089260631
 10
-23.148020837
 20
-23.0904390737
 10
-23.3432356708
 20
-22.04788876
 10
-23.5127863717
 20
-20.9786743231
 10
-23.6524603337
 20
-19.9238561857
 10
-23.7616150504
 20
-18.9254859722
 10
-23.8423398341
 20
-18.0260763689
 10
-23.8965003257
 20
-17.2982608615
  0
LWPOLYLINE
  5
2E3
100
AcDbEntity
  8
RACCORDO
100
AcDbPolyline
 62
250
  6
CONTINUOUS
 90
10
 70
0
 10
-34.493376945
 20
23.2052527234
 10
-34.5073019905
 20
23.2694264375
 10
-34.5163207284
 20
23.3415103546
 10
-34.5203329127
 20
23.4207032398
 10
-34.519294929
 20
23.5061005307
 10
-34.5132201067
 20
23.5967744128
 10
-34.5021647744
 20
23.6917975536
 10
-34.4862347535
 20
23.7901492469
 10
-34.4655982567
 20
23.890713658
 10
-34.4404744948
 20
23.992371315
  0
LWPOLYLINE
  5
2E4
100
AcDbEntity
  8
RACCORDO
100
AcDbPolyline
 62
250
  6
CONTINUOUS
 90
22
 70
0
 10
-33.1747920417
 20
-11.8401041089
 10
-33.2225098657
 20
-11.9043449014
 10
-33.2694828587
 20
-11.9764903166
 10
-33.3151888735
 20
-12.0557383929
 10
-33.3591198467
 20
-12.1412082166
 10
-33.4007874457
 20
-12.2319497135
 10
-33.4397284976
 20
-12.32695421
 10
-33.4755101376
 20
-12.4251656454
 10
-33.5077346203
 20
-12.5254923112
 10
-33.5360437418
 20
-12.6268189858
 10
-33.5601228204
 20
-12.728019332
 10
-33.5797041957
 20
-12.8279684167
 10
-33.5945702028
 20
-12.9255552155
 10
-33.6045555927
 20
-13.0196949633
 10
-33.6095493689
 20
-13.1093412118
 10
-33.609496021
 20
-13.1934974622
 10
-33.6043980802
 20
-13.2712093332
 10
-33.5943128161
 20
-13.3416356059
 10
-33.5793390162
 20
-13.4040382275
 10
-33.5596267224
 20
-13.4577160357
 10
-33.5353883742
 20
-13.502032805
 10
-33.5068846438
 20
-13.5364716149
  0
LINE
  5
2E5
100
AcDbEntity
  8
ASSI
100
AcDbLine
 62
250
  6
CONTINUOUS
 10
-32.1220034292
 20
-6.4495368277
 11
-32.7125178448
 21
-7.1895338261
  0
LINE
  5
2E6
100
AcDbEntity
  8
ASSI
100
AcDbLine
 62
7
  6
CONTINUOUS
 10
-32.6996362717
 20
-7.7073527942
 11
-32.394596293
 21
-7.3250951174
  0
LWPOLYLINE
  5
2E7
100
AcDbEntity
  8
RACCORDO
100
AcDbPolyline
 62
7
  6
CONTINUOUS
 90
4
 70
0
 10
17.7553371878
 20
-23.7957828174
 10
17.7687265639
 20
-23.7972287203
 10
17.7820945574
 20
-23.8002356808
 10
17.7853269961
 20
-23.8011845431
  0
LWPOLYLINE
  5
2E8
100
AcDbEntity
  8
0
100
AcDbPolyline
 62
250
  6
CONTINUOUS
 90
5
 70
0
 10
26.411003002
 20
-30.1383245021
 10
26.4573140382
 20
-30.149039375
 10
26.5020421195
 20
-30.1523610947
 10
26.5438282058
 20
-30.1481887325
 10
26.5598417386
 20
-30.1432707388
  0
LWPOLYLINE
  5
2E9
100
AcDbEntity
  8
RACCORDO
100
AcDbPolyline
 62
250
  6
CONTINUOUS
 90
10
 70
0
 10
26.3665384351
 20
-32.6969728378
 10
25.4200973931
 20
-32.4185523776
 10
24.4511427437
 20
-32.1296959149
 10
23.4602294058
 20
-31.8313583638
 10
22.4472999102
 20
-31.5242645344
 10
21.4128308457
 20
-31.2089745114
 10
20.3582032
 20
-30.8863301644
 10
19.2837946486
 20
-30.5569401596
 10
18.1889656992
 20
-30.221208571
 10
17.0735513252
 20
-29.8797683928
  0
LINE
  5
2EA
100
AcDbEntity
  8
RACCORDO
100
AcDbLine
 62
250
  6
CONTINUOUS
 10
17.0735506729
 20
-29.8797657488
 11
-23.8960350823
 21
-17.298402875
  0
LINE
  5
2EB
100
AcDbEntity
  8
RACCORDO
100
AcDbLine
 62
250
  6
CONTINUOUS
 10
22.1466331095
 20
-30.6266145906
 11
16.7693705195
 21
-28.9760126032
  0
LINE
  5
2EC
100
AcDbEntity
  8
0
100
AcDbLine
 62
250
  6
CONTINUOUS
 10
-33.1747920417
 20
-11.8401041089
 11
26.411003002
 21
-30.1383245021
  0
LINE
  5
2ED
100
AcDbEntity
  8
ASSI
100
AcDbLine
 62
7
  6
CONTINUOUS
 10
-32.357156697
 20
-10.8154928802
 11
-28.5533614524
 21
-11.9836015488
  0
LINE
  5
2EE
100
AcDbEntity
  8
ASSI
100
AcDbLine
 62
7
  6
CONTINUOUS
 10
23.4248431021
 20
-27.9456046049
 11
26.5288841788
 21
-28.8988255478
  0
LINE
  5
2EF
100
AcDbEntity
  8
RACCORDO
100
AcDbLine
 62
250
  6
CONTINUOUS
 10
16.7710973337
 20
-28.9765428911
 11
-26.4153672325
 21
-15.7140434944
  0
LWPOLYLINE
  5
2F0
100
AcDbEntity
  8
RACCORDO
100
AcDbPolyline
 62
250
  6
CONTINUOUS
 90
3
 70
0
 10
-26.4153672325
 20
-15.7140434944
 10
-28.5484007061
 20
-15.0587532485
 10
-33.5068846438
 20
-13.5364716149
  0
LINE
  5
2F1
100
AcDbEntity
  8
RACCORDO
100
AcDbLine
 62
250
  6
CONTINUOUS
 10
24.1553725838
 20
-31.2435609611
 11
22.1466331095
 21
-30.6266145906
  0
LINE
  5
2F2
100
AcDbEntity
  8
RACCORDO
100
AcDbLine
 62
250
  6
CONTINUOUS
 10
26.0789103999
 20
-31.8346920082
 11
24.1553725838
 21
-31.2435609611
  0
LWPOLYLINE
  5
2F3
100
AcDbEntity
  8
RACCORDO
100
AcDbPolyline
 62
250
  6
CONTINUOUS
 90
10
 70
0
 10
-23.8960344281
 20
-17.2984055131
 10
-25.0182334295
 20
-16.9526936384
 10
-26.1182948799
 20
-16.6143948483
 10
-27.1961803222
 20
-16.2828320278
 10
-28.2518043117
 20
-15.9574319652
 10
-29.2852706654
 20
-15.6376741192
 10
-30.2968274008
 20
-15.3230648565
 10
-31.2864785082
 20
-15.0131861522
 10
-32.2534279609
 20
-14.7075484571
 10
-33.1967838872
 20
-14.4056524664
  0
LWPOLYLINE
  5
2F4
100
AcDbEntity
  8
RACCORDO
100
AcDbPolyline
 62
250
  6
CONTINUOUS
 90
70
 70
0
 10
-33.5068846438
 20
-13.5364716149
 10
-33.561012079
 20
-13.5191297264
 10
-33.6136084676
 20
-13.5008254627
 10
-33.6646189412
 20
-13.4817025724
 10
-33.7139119427
 20
-13.4619334892
 10
-33.7615360658
 20
-13.4416214016
 10
-33.8077182508
 20
-13.4207790129
 10
-33.8523950703
 20
-13.3995268069
 10
-33.8955866838
 20
-13.3779499453
 10
-33.9376507047
 20
-13.3559573112
 10
-33.9787810082
 20
-13.3335033254
 10
-34.0187600194
 20
-13.3107582631
 10
-34.0573385117
 20
-13.2879380538
 10
-34.0944791912
 20
-13.2651429555
 10
-34.130232736
 20
-13.2424141933
 10
-34.1644968188
 20
-13.2198918643
 10
-34.1972179996
 20
-13.1976903091
 10
-34.2284844938
 20
-13.1758261519
 10
-34.2584098185
 20
-13.1542887712
 10
-34.2870157053
 20
-13.1331270776
 10
-34.3143184793
 20
-13.1123919509
 10
-34.3404202586
 20
-13.0920641162
 10
-34.3653435556
 20
-13.0721818224
 10
-34.389105065
 20
-13.0527839104
 10
-34.4117939923
 20
-13.0338435558
 10
-34.4333046925
 20
-13.0154976959
 10
-34.4537815668
 20
-12.9976723407
 10
-34.4736742516
 20
-12.9800074914
 10
-34.4929793416
 20
-12.9625260698
 10
-34.5117139065
 20
-12.9452338915
 10
-34.5303335053
 20
-12.9277205931
 10
-34.5488814459
 20
-12.9099404834
 10
-34.5673020114
 20
-12.8919421548
 10
-34.5858802324
 20
-12.8734375734
 10
-34.6046360614
 20
-12.8543853309
 10
-34.6235172768
 20
-12.8348160858
 10
-34.6426843932
 20
-12.8145380479
 10
-34.662119499
 20
-12.7935360109
 10
-34.6817910219
 20
-12.77180749
 10
-34.7018242631
 20
-12.7491715454
 10
-34.7222170519
 20
-12.7255780596
 10
-34.7428984483
 20
-12.7010540638
 10
-34.7638785279
 20
-12.6755298119
 10
-34.7851482005
 20
-12.6489507909
 10
-34.8066251209
 20
-12.6213507646
 10
-34.8282071439
 20
-12.592794057
 10
-34.8498150605
 20
-12.5633197157
 10
-34.8714333987
 20
-12.5328797629
 10
-34.8930527841
 20
-12.501410343
 10
-34.9145955759
 20
-12.4689408995
 10
-34.9360238913
 20
-12.4354403995
 10
-34.9573713363
 20
-12.400753279
 10
-34.9785644897
 20
-12.3648786309
 10
-34.9995229918
 20
-12.3278244449
 10
-35.0202451011
 20
-12.2894481358
 10
-35.0406363157
 20
-12.2497550985
 10
-35.0605934223
 20
-12.2087641152
 10
-35.0800743911
 20
-12.1663555748
 10
-35.0989688214
 20
-12.122528158
 10
-35.1171387581
 20
-12.0773346938
 10
-35.134476862
 20
-12.030744155
 10
-35.1508378756
 20
-11.9828227652
 10
-35.1660791774
 20
-11.9335957072
 10
-35.1800672977
 20
-11.8829860139
 10
-35.1926269502
 20
-11.8310518748
 10
-35.2035769183
 20
-11.7778909802
 10
-35.212739071
 20
-11.7235086801
 10
-35.219912954
 20
-11.6679857197
 10
-35.2248890922
 20
-11.6114756017
 10
-35.2274581728
 20
-11.5541158366
  0
LWPOLYLINE
  5
2F5
100
AcDbEntity
  8
SCRITTA_VIMAR
100
AcDbPolyline
 62
250
  6
CONTINUOUS
 90
24
 70
0
 10
27.9931718399
 20
-34.0904659213
 10
27.9729416736
 20
-34.0829001718
 10
27.9527312389
 20
-34.075537587
 10
27.9325472644
 20
-34.0683868817
 10
27.9123964783
 20
-34.0614567709
 10
27.8922856093
 20
-34.0547559696
 10
27.8722213856
 20
-34.0482931925
 10
27.8522105358
 20
-34.0420771547
 10
27.8347464332
 20
-34.0368455038
 10
27.8173107638
 20
-34.0318040406
 10
27.799885945
 20
-34.0269473707
 10
27.7824543943
 20
-34.0222700996
 10
27.764998529
 20
-34.0177668329
 10
27.7475007665
 20
-34.0134321764
 10
27.7299435243
 20
-34.0092607354
 10
27.7123092198
 20
-34.0052471157
 10
27.6945834932
 20
-34.001385578
 10
27.6767648758
 20
-33.9976690035
 10
27.6588551218
 20
-33.9940899284
 10
27.6408559855
 20
-33.9906408893
 10
27.622769221
 20
-33.9873144224
 10
27.6045965826
 20
-33.984103064
 10
27.5863398243
 20
-33.9809993505
 10
27.5680007003
 20
-33.9779958183
  0
LINE
  5
2F6
100
AcDbEntity
  8
DRAFT
100
AcDbLine
 62
7
  6
CONTINUOUS
 10
-17.9510778655
 20
-14.2542333372
 11
-17.8870500779
 21
-14.2830014456
  0
LINE
  5
2F7
100
AcDbEntity
  8
DRAFT
100
AcDbLine
 62
7
  6
CONTINUOUS
 10
-17.7472959438
 20
-13.9624519239
 11
-17.6832681563
 21
-13.9912200324
  0
LINE
  5
2F8
100
AcDbEntity
  8
DRAFT
100
AcDbLine
 62
7
  6
CONTINUOUS
 10
-17.5435140222
 20
-13.6706705107
 11
-17.4794862346
 21
-13.6994386191
  0
LINE
  5
2F9
100
AcDbEntity
  8
DRAFT
100
AcDbLine
 62
7
  6
CONTINUOUS
 10
-17.3397321005
 20
-13.3788890974
 11
-17.275704313
 21
-13.4076572059
  0
LWPOLYLINE
  5
2FA
100
AcDbEntity
  8
RACCORDO
100
AcDbPolyline
 62
250
  6
CONTINUOUS
 90
10
 70
0
 10
-35.6520495975
 20
5.7319024409
 10
-35.7524247213
 20
5.8406197201
 10
-35.8643284326
 20
5.9446561076
 10
-35.9872547886
 20
6.0435412307
 10
-36.1206480106
 20
6.1368280065
 10
-36.2639049968
 20
6.2240946637
 10
-36.4163780488
 20
6.3049466497
 10
-36.5773778004
 20
6.3790184137
 10
-36.7461763342
 20
6.4459750599
 10
-36.9220104725
 20
6.5055138617
  0
LWPOLYLINE
  5
2FB
100
AcDbEntity
  8
RACCORDO
100
AcDbPolyline
 62
7
  6
CONTINUOUS
 90
4
 70
0
 10
-17.0337188923
 20
-13.11240073
 10
-17.0353493058
 20
-13.1092342011
 10
-17.038018983
 20
-13.1073161483
 10
-17.0388239763
 20
-13.1070251544
  0
LINE
  5
2FC
100
AcDbEntity
  8
RACCORDO
100
AcDbLine
 62
7
  6
CONTINUOUS
 10
-17.0337188923
 20
-13.11240073
 11
-17.033580868
 21
-13.1137017867
  0
LINE
  5
2FD
100
AcDbEntity
  8
RACCORDO
100
AcDbLine
 62
250
  6
CONTINUOUS
 10
-17.0472528608
 20
-13.1260051688
 11
-17.0307235687
 21
-13.7904567012
  0
LINE
  5
2FE
100
AcDbEntity
  8
RACCORDO
100
AcDbLine
 62
7
  6
CONTINUOUS
 10
-17.0335878188
 20
-13.1137003327
 11
-17.0177532804
 21
-13.7502238599
  0
LINE
  5
2FF
100
AcDbEntity
  8
RACCORDO
100
AcDbLine
 62
250
  6
CONTINUOUS
 10
-17.0177532804
 20
-13.7502238599
 11
-17.0177476772
 21
-13.7529520487
  0
LWPOLYLINE
  5
300
100
AcDbEntity
  8
RACCORDO
100
AcDbPolyline
 62
250
  6
CONTINUOUS
 90
6
 70
0
 10
-17.0307235687
 20
-13.7904567012
 10
-17.0310629691
 20
-13.8022800266
 10
-17.0329065887
 20
-13.8135713667
 10
-17.0362341327
 20
-13.8242064228
 10
-17.0410096294
 20
-13.834069255
 10
-17.0437822732
 20
-13.83846863
  0
LWPOLYLINE
  5
301
100
AcDbEntity
  8
RACCORDO
100
AcDbPolyline
 62
250
  6
CONTINUOUS
 90
5
 70
0
 10
-17.0177476772
 20
-13.7529520487
 10
-17.0187195483
 20
-13.7625601403
 10
-17.0212260532
 20
-13.7720780428
 10
-17.0252412327
 20
-13.7814089236
 10
-17.0307235687
 20
-13.7904567012
  0
LINE
  5
302
100
AcDbEntity
  8
DRAFT
100
AcDbLine
 62
7
  6
CONTINUOUS
 10
-23.4027028936
 20
-12.5800921061
 11
-23.3334251055
 21
-12.3887501234
  0
LINE
  5
303
100
AcDbEntity
  8
DRAFT
100
AcDbLine
 62
7
  6
CONTINUOUS
 10
-23.1522429571
 20
-12.302645059
 11
-23.082965169
 21
-12.1113030763
  0
LINE
  5
304
100
AcDbEntity
  8
DRAFT
100
AcDbLine
 62
7
  6
CONTINUOUS
 10
-22.9017830206
 20
-12.025198012
 11
-22.8325052325
 21
-11.8338560292
  0
LINE
  5
305
100
AcDbEntity
  8
DRAFT
100
AcDbLine
 62
7
  6
CONTINUOUS
 10
-22.651323084
 20
-11.7477509649
 11
-22.582045296
 21
-11.5564089821
  0
LINE
  5
306
100
AcDbEntity
  8
ASSI
100
AcDbLine
 62
250
  6
CONTINUOUS
 10
-32.6301439938
 20
-10.5008330154
 11
-33.4477793385
 21
-11.525444244
  0
LINE
  5
307
100
AcDbEntity
  8
ASSI
100
AcDbLine
 62
250
  6
CONTINUOUS
 10
-32.357156697
 20
-10.8154928802
 11
-33.1747920417
 21
-11.8401041089
  0
LINE
  5
308
100
AcDbEntity
  8
ASSI
100
AcDbLine
 62
250
  6
CONTINUOUS
 10
-29.53854425
 20
-11.3367934782
 11
-29.7591963317
 21
-11.6133013395
  0
LINE
  5
309
100
AcDbEntity
  8
ASSI
100
AcDbLine
 62
250
  6
CONTINUOUS
 10
-27.9628470368
 20
-11.2436045504
 11
-28.5533614524
 21
-11.9836015488
  0
LWPOLYLINE
  5
30A
100
AcDbEntity
  8
RACCORDO
100
AcDbPolyline
 62
250
  6
CONTINUOUS
 90
22
 70
0
 10
-33.4477793385
 20
-11.525444244
 10
-33.5000100816
 20
-11.5833185417
 10
-33.5613852695
 20
-11.6375785266
 10
-33.631235513
 20
-11.6876324112
 10
-33.7087989893
 20
-11.7329342823
 10
-33.7932297514
 20
-11.7729900544
 10
-33.8836069539
 20
-11.8073628586
 10
-33.9789448966
 20
-11.8356778074
 10
-34.0782037749
 20
-11.8576260836
 10
-34.1803010206
 20
-11.8729683078
 10
-34.2841231085
 20
-11.88153715
 10
-34.3885377016
 20
-11.8832391539
 10
-34.4924060007
 20
-11.8780557565
 10
-34.5945951649
 20
-11.8660434908
 10
-34.6939906664
 20
-11.8473333686
 10
-34.789508447
 20
-11.8221294521
 10
-34.8800880204
 20
-11.7907139673
 10
-34.9647627159
 20
-11.7534247115
 10
-35.0426568518
 20
-11.710639201
 10
-35.1129203326
 20
-11.6628037578
 10
-35.174752044
 20
-11.6104408907
 10
-35.2274581728
 20
-11.5541158366
  0
LWPOLYLINE
  5
30B
100
AcDbEntity
  8
RACCORDO
100
AcDbPolyline
 62
250
  6
CONTINUOUS
 90
10
 70
0
 10
27.2727449957
 20
-13.5957674061
 10
27.47327678
 20
-13.5789744772
 10
27.6747972942
 20
-13.5707085662
 10
27.8763954168
 20
-13.571007045
 10
28.0771596755
 20
-13.5798685642
 10
28.2761823681
 20
-13.5972530588
 10
28.4725636662
 20
-13.6230819294
 10
28.6654156842
 20
-13.6572383977
 10
28.8538664928
 20
-13.6995680341
 10
29.0370640618
 20
-13.7498794565
  0
LWPOLYLINE
  5
30C
100
AcDbEntity
  8
RACCORDO
100
AcDbPolyline
 62
250
  6
CONTINUOUS
 90
8
 70
0
 10
2.855088208
 20
-19.2897856209
 10
2.8468619915
 20
-19.2886007307
 10
2.8386998203
 20
-19.289694341
 10
2.8300760468
 20
-19.2928739434
 10
2.8211207833
 20
-19.2980802928
 10
2.8119469823
 20
-19.3052225296
 10
2.8026438253
 20
-19.3142068662
 10
2.7933115111
 20
-19.3249161275
  0
LWPOLYLINE
  5
30D
100
AcDbEntity
  8
RACCORDO
100
AcDbPolyline
 62
250
  6
CONTINUOUS
 90
8
 70
0
 10
-2.1200627744
 20
-17.7619649533
 10
-2.1281003225
 20
-17.7607795933
 10
-2.1362231708
 20
-17.7618163589
 10
-2.1448070626
 20
-17.7649262428
 10
-2.1537589921
 20
-17.7700755497
 10
-2.1629819658
 20
-17.7772084873
 10
-2.1723760536
 20
-17.7862477706
 10
-2.1818394713
 20
-17.7970954598
  0
LINE
  5
30E
100
AcDbEntity
  8
ASSI
100
AcDbLine
 62
7
  6
CONTINUOUS
 10
-27.9628470368
 20
-11.2436045504
 11
24.0153575177
 21
-27.2056076065
  0
LINE
  5
30F
100
AcDbEntity
  8
DRAFT
100
AcDbLine
 62
7
  6
CONTINUOUS
 10
22.1290533299
 20
-26.5624533326
 11
16.5964301279
 21
-24.8634383471
  0
LINE
  5
310
100
AcDbEntity
  8
DRAFT
100
AcDbLine
 62
7
  6
CONTINUOUS
 10
-17.9510778655
 20
-14.2542333372
 11
-23.4837010674
 21
-12.5552183517
  0
LINE
  5
311
100
AcDbEntity
  8
DRAFT
100
AcDbLine
 62
7
  6
CONTINUOUS
 10
22.2513224828
 20
-26.3873844847
 11
16.7467060898
 21
-24.6969701189
  0
LINE
  5
312
100
AcDbEntity
  8
DRAFT
100
AcDbLine
 62
7
  6
CONTINUOUS
 10
-17.8288087125
 20
-14.0791644892
 11
-23.3334251055
 21
-12.3887501234
  0
LINE
  5
313
100
AcDbEntity
  8
DRAFT
100
AcDbLine
 62
7
  6
CONTINUOUS
 10
22.3328352515
 20
-26.2706719194
 11
16.8468900644
 21
-24.5859913001
  0
LINE
  5
314
100
AcDbEntity
  8
DRAFT
100
AcDbLine
 62
7
  6
CONTINUOUS
 10
-17.7472959438
 20
-13.9624519239
 11
-23.2332411309
 21
-12.2777713046
  0
LINE
  5
315
100
AcDbEntity
  8
DRAFT
100
AcDbLine
 62
7
  6
CONTINUOUS
 10
22.4551044045
 20
-26.0956030715
 11
16.9971660263
 21
-24.4195230718
  0
LINE
  5
316
100
AcDbEntity
  8
DRAFT
100
AcDbLine
 62
7
  6
CONTINUOUS
 10
-17.6250267908
 20
-13.787383076
 11
-23.082965169
 21
-12.1113030763
  0
LINE
  5
317
100
AcDbEntity
  8
DRAFT
100
AcDbLine
 62
7
  6
CONTINUOUS
 10
22.5366171731
 20
-25.9788905062
 11
17.0973500009
 21
-24.308544253
  0
LINE
  5
318
100
AcDbEntity
  8
DRAFT
100
AcDbLine
 62
7
  6
CONTINUOUS
 10
-17.5435140222
 20
-13.6706705107
 11
-22.9827811944
 21
-12.0003242575
  0
LINE
  5
319
100
AcDbEntity
  8
DRAFT
100
AcDbLine
 62
7
  6
CONTINUOUS
 10
22.6588863261
 20
-25.8038216582
 11
17.2476259628
 21
-24.1420760247
  0
LINE
  5
31A
100
AcDbEntity
  8
DRAFT
100
AcDbLine
 62
7
  6
CONTINUOUS
 10
-17.4212448692
 20
-13.4956016627
 11
-22.8325052325
 21
-11.8338560292
  0
LINE
  5
31B
100
AcDbEntity
  8
DRAFT
100
AcDbLine
 62
7
  6
CONTINUOUS
 10
22.7403990948
 20
-25.6871090929
 11
17.3478099374
 21
-24.0310972059
  0
LINE
  5
31C
100
AcDbEntity
  8
DRAFT
100
AcDbLine
 62
7
  6
CONTINUOUS
 10
-17.3397321005
 20
-13.3788890974
 11
-22.7323212579
 21
-11.7228772104
  0
LINE
  5
31D
100
AcDbEntity
  8
DRAFT
100
AcDbLine
 62
7
  6
CONTINUOUS
 10
22.8626682478
 20
-25.512040245
 11
17.4980858993
 21
-23.8646289776
  0
LINE
  5
31E
100
AcDbEntity
  8
DRAFT
100
AcDbLine
 62
7
  6
CONTINUOUS
 10
-17.2174629476
 20
-13.2038202495
 11
-22.582045296
 21
-11.5564089821
  0
LINE
  5
31F
100
AcDbEntity
  8
RACCORDO
100
AcDbLine
 62
250
  6
CONTINUOUS
 10
-2.1996664543
 20
-17.7916897147
 11
2.7933115111
 21
-19.3249161275
  0
LINE
  5
320
100
AcDbEntity
  8
DRAFT
100
AcDbLine
 62
7
  6
CONTINUOUS
 10
22.8830464399
 20
-25.4828621036
 11
17.523131893
 21
-23.8368842729
  0
LINE
  5
321
100
AcDbEntity
  8
DRAFT
100
AcDbLine
 62
7
  6
CONTINUOUS
 10
-17.1970847554
 20
-13.1746421081
 11
-22.5569993023
 21
-11.5286642774
  0
LINE
  5
322
100
AcDbEntity
  8
RACCORDO
100
AcDbLine
 62
7
  6
CONTINUOUS
 10
-2.1200627744
 20
-17.7619649533
 11
2.855088208
 21
-19.2897856209
  0
LINE
  5
323
100
AcDbEntity
  8
RACCORDO
100
AcDbLine
 62
250
  6
CONTINUOUS
 10
-22.3247940075
 20
-11.4875628219
 11
-17.0337188923
 21
-13.11240073
  0
LINE
  5
324
100
AcDbEntity
  8
RACCORDO
100
AcDbLine
 62
250
  6
CONTINUOUS
 10
17.7553371878
 20
-23.7957828174
 11
23.046412303
 21
-25.4206207255
  0
LINE
  5
325
100
AcDbEntity
  8
RACCORDO
100
AcDbLine
 62
7
  6
CONTINUOUS
 10
-22.2948878341
 20
-11.4929388396
 11
-17.0386821251
 21
-13.107068691
  0
LINE
  5
326
100
AcDbEntity
  8
RACCORDO
100
AcDbLine
 62
7
  6
CONTINUOUS
 10
17.7852433612
 20
-23.8011588351
 11
23.0414490702
 21
-25.4152886865
  0
LWPOLYLINE
  5
327
100
AcDbEntity
  8
RACCORDO
100
AcDbPolyline
 62
250
  6
CONTINUOUS
 90
16
 70
0
 10
2.7933115111
 20
-19.3249161275
 10
2.8124144489
 20
-19.3308639067
 10
2.8313417701
 20
-19.3384553653
 10
2.8498862237
 20
-19.3476073781
 10
2.8678447507
 20
-19.358219732
 10
2.8850207079
 20
-19.3701762232
 10
2.9012260215
 20
-19.3833459301
 10
2.9162832456
 20
-19.3975846465
 10
2.930027506
 20
-19.4127364605
 10
2.9423083052
 20
-19.4286354622
 10
2.9529911703
 20
-19.44510756
 10
2.9619591256
 20
-19.461972387
 10
2.9691139735
 20
-19.4790452759
 10
2.9743773694
 20
-19.4961392812
 10
2.9776916799
 20
-19.5130672262
 10
2.979020614
 20
-19.5296437526
  0
LWPOLYLINE
  5
328
100
AcDbEntity
  8
ASSI
100
AcDbPolyline
 62
7
  6
CONTINUOUS
 90
10
 70
0
 10
24.0153575177
 20
-27.2056076065
 10
24.2145791975
 20
-27.274776782
 10
24.4096315823
 20
-27.3570801221
 10
24.6005146723
 20
-27.4525176269
 10
24.7886459183
 20
-27.5620343374
 10
24.9726078695
 20
-27.6846852126
 10
25.1481481727
 20
-27.8176351291
 10
25.313849377
 20
-27.9599390458
 10
25.4711289333
 20
-28.1125420037
 10
25.6199868416
 20
-28.275444003
  0
LINE
  5
329
100
AcDbEntity
  8
DRAFT
100
AcDbLine
 62
7
  6
CONTINUOUS
 10
22.1290533299
 20
-26.5624533326
 11
22.1930811174
 21
-26.5912214411
  0
LINE
  5
32A
100
AcDbEntity
  8
DRAFT
100
AcDbLine
 62
7
  6
CONTINUOUS
 10
22.3328352515
 20
-26.2706719194
 11
22.3968630391
 21
-26.2994400279
  0
LINE
  5
32B
100
AcDbEntity
  8
DRAFT
100
AcDbLine
 62
7
  6
CONTINUOUS
 10
22.5366171731
 20
-25.9788905062
 11
22.6006449607
 21
-26.0076586146
  0
LWPOLYLINE
  5
32C
100
AcDbEntity
  8
SCRITTA_VIMAR
100
AcDbPolyline
 62
250
  6
CONTINUOUS
 90
83
 70
0
 10
28.3567030959
 20
-33.9120874974
 10
28.3748955558
 20
-33.9225839153
 10
28.3927255167
 20
-33.9335155081
 10
28.4102386578
 20
-33.9448581751
 10
28.4274806584
 20
-33.9565878158
 10
28.4501176202
 20
-33.9727942005
 10
28.4724047374
 20
-33.9896279263
 10
28.4943929854
 20
-34.0070712268
 10
28.5161047073
 20
-34.0250961481
 10
28.5374477169
 20
-34.0436339873
 10
28.5583011957
 20
-34.062605854
 10
28.5785529197
 20
-34.0819316848
 10
28.5981250422
 20
-34.1015267247
 10
28.6169483111
 20
-34.1213050455
 10
28.6349673314
 20
-34.1411939001
 10
28.6521821375
 20
-34.1611732659
 10
28.6686066213
 20
-34.1812363013
 10
28.6842506687
 20
-34.2013715338
 10
28.699108141
 20
-34.2215489673
 10
28.7131688936
 20
-34.2417339748
 10
28.7264222859
 20
-34.2618880552
 10
28.7388556927
 20
-34.281957211
 10
28.7504559932
 20
-34.3018835703
 10
28.7612134762
 20
-34.3216074396
 10
28.7711320708
 20
-34.3410618382
 10
28.7802191158
 20
-34.3601779632
 10
28.7884877135
 20
-34.3788965447
 10
28.7959740196
 20
-34.3971964438
 10
28.802719953
 20
-34.415066054
 10
28.8087674327
 20
-34.432493769
 10
28.8141583777
 20
-34.4494679826
 10
28.818934707
 20
-34.4659770883
 10
28.8239124128
 20
-34.4851662677
 10
28.8281281608
 20
-34.5037001418
 10
28.8316446765
 20
-34.5216098736
 10
28.8345246855
 20
-34.5389266264
 10
28.8368309133
 20
-34.5556815631
 10
28.8389874097
 20
-34.5758792912
 10
28.8403780906
 20
-34.5952885558
 10
28.8410356648
 20
-34.6139500387
 10
28.8409928413
 20
-34.6319044216
 10
28.8402820766
 20
-34.6491890477
 10
28.8389348176
 20
-34.665827905
 10
28.8369822589
 20
-34.6818416428
 10
28.8344555951
 20
-34.6972509107
 10
28.8313867138
 20
-34.7120724154
 10
28.8278102744
 20
-34.7263070939
 10
28.8237616292
 20
-34.7399519405
 10
28.8192761305
 20
-34.7530039498
 10
28.8143882528
 20
-34.7654647987
 10
28.8091289577
 20
-34.7773548954
 10
28.8035283292
 20
-34.7886993306
 10
28.7976164509
 20
-34.7995231948
 10
28.7893002125
 20
-34.8131841117
 10
28.780546047
 20
-34.8259966978
 10
28.7714158781
 20
-34.8379934761
 10
28.7619679549
 20
-34.8492091139
 10
28.7522458295
 20
-34.8596868556
 10
28.7422893799
 20
-34.8694720903
 10
28.7321374659
 20
-34.8786076646
 10
28.7218248757
 20
-34.8871262561
 10
28.7113853798
 20
-34.8950580003
 10
28.7008527952
 20
-34.9024331816
 10
28.6902611258
 20
-34.9092826813
 10
28.6796444223
 20
-34.9156375296
 10
28.6690324878
 20
-34.9215272958
 10
28.6584381352
 20
-34.9269757036
 10
28.6478699296
 20
-34.9320050157
 10
28.6373356871
 20
-34.9366327621
 10
28.6268402275
 20
-34.9408575426
 10
28.6163876215
 20
-34.9446732241
 10
28.605980202
 20
-34.9480794878
 10
28.5956133511
 20
-34.9510992702
 10
28.5852807133
 20
-34.9537613218
 10
28.5698682187
 20
-34.9571589093
 10
28.5622492322
 20
-34.9586297943
 10
28.554733074
 20
-34.9599667213
 10
28.5473237689
 20
-34.9611763252
 10
28.5398965121
 20
-34.962076908
 10
28.5361159326
 20
-34.9623040869
 10
28.5322880733
 20
-34.9623273901
 10
28.5284168362
 20
-34.9621096667
 10
28.5244751101
 20
-34.9616160924
  0
LWPOLYLINE
  5
32D
100
AcDbEntity
  8
SCRITTA_VIMAR
100
AcDbPolyline
 62
250
  6
CONTINUOUS
 90
40
 70
0
 10
28.5248921168
 20
-34.9736614331
 10
28.5348357728
 20
-34.9795345474
 10
28.5446308672
 20
-34.9855878494
 10
28.5543069497
 20
-34.9918361395
 10
28.5638935698
 20
-34.9982942182
 10
28.5734202774
 20
-35.004976886
 10
28.5829106556
 20
-35.0118966199
 10
28.5923644211
 20
-35.019056604
 10
28.6017753241
 20
-35.0264576987
 10
28.611137115
 20
-35.0341007648
 10
28.6204435438
 20
-35.0419866627
 10
28.629685776
 20
-35.0501136942
 10
28.6388446377
 20
-35.0584699245
 10
28.6478983702
 20
-35.0670408602
 10
28.6568252147
 20
-35.0758120076
 10
28.6656034126
 20
-35.0847688732
 10
28.6742136414
 20
-35.0938962996
 10
28.6826463239
 20
-35.1031764741
 10
28.6908943195
 20
-35.1125909201
 10
28.6989504871
 20
-35.1221211611
 10
28.706807686
 20
-35.1317487206
 10
28.7163455277
 20
-35.1438996937
 10
28.725589505
 20
-35.1561846752
 10
28.7345677996
 20
-35.1686144832
 10
28.7433085934
 20
-35.1811999355
 10
28.7518360556
 20
-35.1939480209
 10
28.7601583053
 20
-35.2068504107
 10
28.7682794491
 20
-35.2198949473
 10
28.7762035934
 20
-35.2330694727
 10
28.7839361629
 20
-35.246364431
 10
28.7914878535
 20
-35.2597806728
 10
28.7988706792
 20
-35.2733216507
 10
28.8060966539
 20
-35.2869908173
 10
28.8131775469
 20
-35.3007900719
 10
28.8201241493
 20
-35.3147151014
 10
28.8269470073
 20
-35.3287600396
 10
28.8336566672
 20
-35.3429190204
 10
28.8424493763
 20
-35.3619688791
 10
28.8511107119
 20
-35.3812208884
 10
28.8596917922
 20
-35.4006848856
  0
LWPOLYLINE
  5
32E
100
AcDbEntity
  8
ASSI
100
AcDbPolyline
 62
7
  6
CONTINUOUS
 90
8
 70
0
 10
-33.2021079085
 20
22.6697232908
 10
-33.1476750802
 20
22.5827456306
 10
-33.0524181129
 20
22.4035600245
 10
-32.971887416
 20
22.2213424246
 10
-32.9079444883
 20
22.0403048626
 10
-32.8612098295
 20
21.8618513491
 10
-32.8310629399
 20
21.6845778734
 10
-32.8175038195
 20
21.5084844356
  0
LINE
  5
32F
100
AcDbEntity
  8
DRAFT
100
AcDbLine
 62
7
  6
CONTINUOUS
 10
-17.8870500779
 20
-14.2830014456
 11
-17.8288087125
 21
-14.0791644892
  0
LINE
  5
330
100
AcDbEntity
  8
DRAFT
100
AcDbLine
 62
7
  6
CONTINUOUS
 10
-17.6832681563
 20
-13.9912200324
 11
-17.6250267908
 21
-13.787383076
  0
LINE
  5
331
100
AcDbEntity
  8
DRAFT
100
AcDbLine
 62
7
  6
CONTINUOUS
 10
-17.4794862346
 20
-13.6994386191
 11
-17.4212448692
 21
-13.4956016627
  0
LINE
  5
332
100
AcDbEntity
  8
DRAFT
100
AcDbLine
 62
7
  6
CONTINUOUS
 10
-17.275704313
 20
-13.4076572059
 11
-17.2174629476
 21
-13.2038202495
  0
LWPOLYLINE
  5
333
100
AcDbEntity
  8
RACCORDO
100
AcDbPolyline
 62
7
  6
CONTINUOUS
 90
4
 70
0
 10
-22.3247940075
 20
-11.4875628219
 10
-22.3114046314
 20
-11.4890087248
 10
-22.2980366379
 20
-11.4920156853
 10
-22.2948041992
 20
-11.4929645476
  0
LWPOLYLINE
  5
334
100
AcDbEntity
  8
RACCORDO
100
AcDbPolyline
 62
250
  6
CONTINUOUS
 90
3
 70
0
 10
44.7065428076
 20
-17.3772476983
 10
47.2342363395
 20
-17.7718467546
 10
49.8904218648
 20
-18.1345754115
  0
LINE
  5
335
100
AcDbEntity
  8
RACCORDO
100
AcDbLine
 62
250
  6
CONTINUOUS
 10
42.3212673989
 20
-16.9594425237
 11
44.7065428076
 21
-17.3772476983
  0
LWPOLYLINE
  5
336
100
AcDbEntity
  8
RACCORDO
100
AcDbPolyline
 62
250
  6
CONTINUOUS
 90
5
 70
0
 10
-47.217336973
 20
10.2878714566
 10
-49.0911423489
 20
11.1124229103
 10
-51.0738734364
 20
12.0359902137
 10
-53.1124890577
 20
13.0436604602
 10
-55.1869706435
 20
14.1336738428
  0
LINE
  5
337
100
AcDbEntity
  8
DRAFT
100
AcDbLine
 62
7
  6
CONTINUOUS
 10
22.7403990948
 20
-25.6871090929
 11
22.8044268823
 21
-25.7158772014
  0
LWPOLYLINE
  5
338
100
AcDbEntity
  8
RACCORDO
100
AcDbPolyline
 62
250
  6
CONTINUOUS
 90
10
 70
0
 10
-36.0877087675
 20
23.0265029547
 10
-36.1850062538
 20
23.1339092274
 10
-36.293716706
 20
23.236811726
 10
-36.413357306
 20
23.3347533954
 10
-36.5433966919
 20
23.4272992149
 10
-36.6832573174
 20
23.5140381304
 10
-36.8323180172
 20
23.5945848801
 10
-36.9899167656
 20
23.6685817051
 10
-37.1553536168
 20
23.7356999392
 10
-37.3278938137
 20
23.7956414679
  0
LINE
  5
339
100
AcDbEntity
  8
RACCORDO
100
AcDbLine
 62
250
  6
CONTINUOUS
 10
-17.4876563408
 20
-14.46043413
 11
-17.0307235687
 21
-13.7904567012
  0
LINE
  5
33A
100
AcDbEntity
  8
RACCORDO
100
AcDbLine
 62
7
  6
CONTINUOUS
 10
-17.4713793638
 20
-14.4654326319
 11
-17.0437839784
 21
-13.8384711303
  0
LINE
  5
33B
100
AcDbEntity
  8
DRAFT
100
AcDbLine
 62
7
  6
CONTINUOUS
 10
-17.1970847554
 20
-13.1746421081
 11
-17.2174629476
 21
-13.2038202495
  0
LINE
  5
33C
100
AcDbEntity
  8
DRAFT
100
AcDbLine
 62
7
  6
CONTINUOUS
 10
-17.3397321005
 20
-13.3788890974
 11
-17.4212448692
 21
-13.4956016627
  0
LINE
  5
33D
100
AcDbEntity
  8
DRAFT
100
AcDbLine
 62
7
  6
CONTINUOUS
 10
-17.5435140222
 20
-13.6706705107
 11
-17.6250267908
 21
-13.787383076
  0
LINE
  5
33E
100
AcDbEntity
  8
DRAFT
100
AcDbLine
 62
7
  6
CONTINUOUS
 10
-17.7472959438
 20
-13.9624519239
 11
-17.8288087125
 21
-14.0791644892
  0
LINE
  5
33F
100
AcDbEntity
  8
DRAFT
100
AcDbLine
 62
7
  6
CONTINUOUS
 10
-17.9510778655
 20
-14.2542333372
 11
-17.9878181747
 21
-14.3068392763
  0
LINE
  5
340
100
AcDbEntity
  8
DRAFT
100
AcDbLine
 62
7
  6
CONTINUOUS
 10
-22.5569993023
 20
-11.5286642774
 11
-22.582045296
 21
-11.5564089821
  0
LINE
  5
341
100
AcDbEntity
  8
DRAFT
100
AcDbLine
 62
7
  6
CONTINUOUS
 10
-22.7323212579
 20
-11.7228772104
 11
-22.8325052325
 21
-11.8338560292
  0
LINE
  5
342
100
AcDbEntity
  8
DRAFT
100
AcDbLine
 62
7
  6
CONTINUOUS
 10
-22.9827811944
 20
-12.0003242575
 11
-23.082965169
 21
-12.1113030763
  0
LINE
  5
343
100
AcDbEntity
  8
DRAFT
100
AcDbLine
 62
7
  6
CONTINUOUS
 10
-23.2332411309
 20
-12.2777713046
 11
-23.3334251055
 21
-12.3887501234
  0
LINE
  5
344
100
AcDbEntity
  8
DRAFT
100
AcDbLine
 62
7
  6
CONTINUOUS
 10
-23.4837010674
 20
-12.5552183517
 11
-23.5288570629
 21
-12.6052399151
  0
LINE
  5
345
100
AcDbEntity
  8
RACCORDO
100
AcDbLine
 62
7
  6
CONTINUOUS
 10
-22.5569993023
 20
-11.5286642774
 11
-22.3737599158
 21
-11.4902864552
  0
LWPOLYLINE
  5
346
100
AcDbEntity
  8
RACCORDO
100
AcDbPolyline
 62
250
  6
CONTINUOUS
 90
7
 70
0
 10
29.0370811501
 20
-13.7505566052
 10
31.5420656771
 20
-14.4763651166
 10
33.9100069826
 20
-15.1094656517
 10
36.0041648131
 20
-15.6274074252
 10
38.060034198
 20
-16.098316371
 10
40.1292646863
 20
-16.5354237028
 10
42.3212673989
 20
-16.9594425237
  0
LWPOLYLINE
  5
347
100
AcDbEntity
  8
RACCORDO
100
AcDbPolyline
 62
250
  6
CONTINUOUS
 90
6
 70
0
 10
-36.9219942878
 20
6.504836453
 10
-39.3719627094
 20
7.3006459888
 10
-41.6188668743
 20
8.0847197893
 10
-43.5517444104
 20
8.8034415631
 10
-45.4016663109
 20
9.5319632819
 10
-47.217336973
 20
10.2878714566
  0
LWPOLYLINE
  5
348
100
AcDbEntity
  8
ASSI
100
AcDbPolyline
 62
7
  6
CONTINUOUS
 90
5
 70
0
 10
26.1593328699
 20
-28.785339921
 10
26.1354411494
 20
-28.7679130835
 10
25.9541339599
 20
-28.6161633378
 10
25.7823158573
 20
-28.4520069776
 10
25.6199868416
 20
-28.275444003
  0
LWPOLYLINE
  5
349
100
AcDbEntity
  8
RACCORDO
100
AcDbPolyline
 62
250
  6
CONTINUOUS
 90
10
 70
0
 10
16.7710973337
 20
-28.9765428911
 10
16.8245910972
 20
-29.0355195372
 10
16.8735129848
 20
-29.1056698069
 10
16.9176609073
 20
-29.1867039192
 10
16.9568524955
 20
-29.2782871335
 10
16.9909258546
 20
-29.3800411323
 10
17.0197402322
 20
-29.491545584
 10
17.0431766
 20
-29.6123398792
 10
17.0611381458
 20
-29.7419250336
 10
17.0735506729
 20
-29.8797657488
  0
LWPOLYLINE
  5
34A
100
AcDbEntity
  8
ASSI
100
AcDbPolyline
 62
7
  6
CONTINUOUS
 90
10
 70
0
 10
-29.53854425
 20
-11.3367934782
 10
-29.3955617617
 20
-11.2635128374
 10
-29.2435116081
 20
-11.2059020366
 10
-29.0823937891
 20
-11.1639610758
 10
-28.9108164111
 20
-11.1376076364
 10
-28.7301713677
 20
-11.1269240369
 10
-28.5446343405
 20
-11.132157233
 10
-28.3555972232
 20
-11.1533895432
 10
-28.1616681219
 20
-11.190538649
 10
-27.9628470368
 20
-11.2436045504
  0
LWPOLYLINE
  5
34B
100
AcDbEntity
  8
ASSI
100
AcDbPolyline
 62
7
  6
CONTINUOUS
 90
5
 70
0
 10
-29.53854425
 20
-11.3367934782
 10
-29.694520342
 20
-11.415608038
 10
-29.8607536387
 20
-11.4759520885
 10
-30.0372441399
 20
-11.5178256297
 10
-30.0606299901
 20
-11.5207339833
  0
LINE
  5
34C
100
AcDbEntity
  8
RACCORDO
100
AcDbLine
 62
7
  6
CONTINUOUS
 10
51.956322175
 20
-19.9003865546
 11
52.1919836261
 21
-19.9727559032
  0
LINE
  5
34D
100
AcDbEntity
  8
RACCORDO
100
AcDbLine
 62
250
  6
CONTINUOUS
 10
53.0847326515
 20
-19.7030677408
 11
52.9428585274
 21
-19.6594995717
  0
LINE
  5
34E
100
AcDbEntity
  8
0
100
AcDbLine
 62
7
  6
CONTINUOUS
 10
53.4021839332
 20
-19.0918322196
 11
53.5856525245
 21
-19.1481736466
  0
LINE
  5
34F
100
AcDbEntity
  8
DRAFT
100
AcDbLine
 62
250
  6
CONTINUOUS
 10
53.0300187876
 20
-18.6151383236
 11
52.3583049299
 21
-18.4088615054
  0
LINE
  5
350
100
AcDbEntity
  8
DRAFT
100
AcDbLine
 62
7
  6
CONTINUOUS
 10
53.3806626987
 20
-18.2267124576
 11
52.3432903381
 21
-17.9081454557
  0
LWPOLYLINE
  5
351
100
AcDbEntity
  8
RACCORDO
100
AcDbPolyline
 62
250
  6
CONTINUOUS
 90
10
 70
0
 10
26.0789109708
 20
-31.8346905117
 10
26.1294448711
 20
-31.8914589135
 10
26.1756910451
 20
-31.9587314794
 10
26.2174699978
 20
-32.0362470987
 10
26.2546195732
 20
-32.1237049035
 10
26.2869955837
 20
-32.2207654359
 10
26.3144723699
 20
-32.3270519661
 10
26.3369432882
 20
-32.4421519545
 10
26.3543211251
 20
-32.5656186527
 10
26.3665384351
 20
-32.6969728378
  0
LINE
  5
352
100
AcDbEntity
  8
RACCORDO
100
AcDbLine
 62
250
  6
CONTINUOUS
 10
2.979020614
 20
-19.5296437526
 11
2.9899079883
 21
-19.967299071
  0
LINE
  5
353
100
AcDbEntity
  8
RACCORDO
100
AcDbLine
 62
7
  6
CONTINUOUS
 10
2.9963143317
 20
-19.4759999642
 11
3.0072017061
 21
-19.9136552826
  0
LINE
  5
354
100
AcDbEntity
  8
RACCORDO
100
AcDbLine
 62
250
  6
CONTINUOUS
 10
2.9963143317
 20
-19.4759999642
 11
2.996320693
 21
-19.4762747396
  0
LWPOLYLINE
  5
355
100
AcDbEntity
  8
RACCORDO
100
AcDbPolyline
 62
250
  6
CONTINUOUS
 90
6
 70
0
 10
3.0072017061
 20
-19.9136552826
 10
3.0071962074
 20
-19.9178305417
 10
3.0058234292
 20
-19.9305898021
 10
3.0024432417
 20
-19.9431618329
 10
2.9971126898
 20
-19.9554381378
 10
2.9899079883
 20
-19.967299071
  0
LWPOLYLINE
  5
356
100
AcDbEntity
  8
RACCORDO
100
AcDbPolyline
 62
250
  6
CONTINUOUS
 90
6
 70
0
 10
2.996320693
 20
-19.4762747396
 10
2.996308833
 20
-19.4801752233
 10
2.9949360548
 20
-19.4929344837
 10
2.9915558673
 20
-19.5055065146
 10
2.9862253154
 20
-19.5177828194
 10
2.979020614
 20
-19.5296437526
  0
LWPOLYLINE
  5
357
100
AcDbEntity
  8
RACCORDO
100
AcDbPolyline
 62
250
  6
CONTINUOUS
 90
6
 70
0
 10
2.9899079883
 20
-19.967299071
 10
2.9893852512
 20
-19.9831303893
 10
2.9868683098
 20
-19.9982554281
 10
2.9823847242
 20
-20.0125085706
 10
2.975983589
 20
-20.025733747
 10
2.9718706733
 20
-20.0322270333
  0
LWPOLYLINE
  5
358
100
AcDbEntity
  8
RACCORDO
100
AcDbPolyline
 62
250
  6
CONTINUOUS
 90
10
 70
0
 10
17.4487228149
 20
22.9897278651
 10
17.3900072654
 20
22.9035112299
 10
17.3329838814
 20
22.805976654
 10
17.2786367178
 20
22.6988031779
 10
17.227878934
 20
22.5838434581
 10
17.1816078154
 20
22.4630701244
 10
17.1406897317
 20
22.3385416828
 10
17.1058515659
 20
22.2123958399
 10
17.0776686045
 20
22.0868125645
 10
17.0566253786
 20
21.9639548085
  0
LWPOLYLINE
  5
359
100
AcDbEntity
  8
RACCORDO
100
AcDbPolyline
 62
250
  6
CONTINUOUS
 90
10
 70
0
 10
26.8545288691
 20
3.6975537288
 10
27.0530335751
 20
3.7141197151
 10
27.2526776839
 20
3.7223277058
 10
27.4525745248
 20
3.7221412354
 10
27.6518363049
 20
3.7135611199
 10
27.8495780516
 20
3.6966254539
 10
28.0449215432
 20
3.671409441
 10
28.2369992093
 20
3.63802506
 10
28.4249579838
 20
3.5966205675
 10
28.6079630937
 20
3.5473798392
  0
LINE
  5
35A
100
AcDbEntity
  8
SCRITTA_VIMAR
100
AcDbLine
 62
250
  6
CONTINUOUS
 10
23.3509671025
 20
-34.1346072254
 11
23.4889174608
 21
-34.3964956076
  0
LINE
  5
35B
100
AcDbEntity
  8
SCRITTA_VIMAR
100
AcDbLine
 62
250
  6
CONTINUOUS
 10
23.2162323983
 20
-33.8758990704
 11
23.3509671025
 21
-34.1346072254
  0
LINE
  5
35C
100
AcDbEntity
  8
SCRITTA_VIMAR
100
AcDbLine
 62
250
  6
CONTINUOUS
 10
23.0846771487
 20
-33.6204399204
 11
23.2162323983
 21
-33.8758990704
  0
LINE
  5
35D
100
AcDbEntity
  8
SCRITTA_VIMAR
100
AcDbLine
 62
250
  6
CONTINUOUS
 10
22.9562672304
 20
-33.3682290455
 11
23.0846771487
 21
-33.6204399204
  0
LINE
  5
35E
100
AcDbEntity
  8
SCRITTA_VIMAR
100
AcDbLine
 62
250
  6
CONTINUOUS
 10
22.8309715216
 20
-33.119260116
 11
22.9562672304
 21
-33.3682290455
  0
LINE
  5
35F
100
AcDbEntity
  8
SCRITTA_VIMAR
100
AcDbLine
 62
250
  6
CONTINUOUS
 10
19.7563536217
 20
-33.0258221842
 11
19.8836868126
 21
-33.2989078304
  0
LINE
  5
360
100
AcDbEntity
  8
SCRITTA_VIMAR
100
AcDbLine
 62
250
  6
CONTINUOUS
 10
19.6325194275
 20
-32.7566154545
 11
19.7563536217
 21
-33.0258221842
  0
LINE
  5
361
100
AcDbEntity
  8
SCRITTA_VIMAR
100
AcDbLine
 62
250
  6
CONTINUOUS
 10
19.5121474262
 20
-32.4913733731
 11
19.6325194275
 21
-32.7566154545
  0
LINE
  5
362
100
AcDbEntity
  8
SCRITTA_VIMAR
100
AcDbLine
 62
250
  6
CONTINUOUS
 10
19.3951937254
 20
-32.2301763615
 11
19.5121474262
 21
-32.4913733731
  0
LINE
  5
363
100
AcDbEntity
  8
SCRITTA_VIMAR
100
AcDbLine
 62
250
  6
CONTINUOUS
 10
19.2815860795
 20
-31.9730835981
 11
19.3951937254
 21
-32.2301763615
  0
LINE
  5
364
100
AcDbEntity
  8
SCRITTA_VIMAR
100
AcDbLine
 62
250
  6
CONTINUOUS
 10
19.1712451549
 20
-31.7201489505
 11
19.2815860795
 21
-31.9730835981
  0
LINE
  5
365
100
AcDbEntity
  8
SCRITTA_VIMAR
100
AcDbLine
 62
250
  6
CONTINUOUS
 10
19.0640960678
 20
-31.4714337325
 11
19.1712451549
 21
-31.7201489505
  0
LINE
  5
366
100
AcDbEntity
  8
SCRITTA_VIMAR
100
AcDbLine
 62
250
  6
CONTINUOUS
 10
18.9600817345
 20
-31.2270290423
 11
19.0640960678
 21
-31.4714337325
  0
LINE
  5
367
100
AcDbEntity
  8
SCRITTA_VIMAR
100
AcDbLine
 62
250
  6
CONTINUOUS
 10
18.8591495212
 20
-30.987033424
 11
18.9600817345
 21
-31.2270290423
  0
LINE
  5
368
100
AcDbEntity
  8
RACCORDO
100
AcDbLine
 62
7
  6
CONTINUOUS
 10
-3.252967423
 20
-18.8317691915
 11
-2.3263882207
 21
-17.8182076193
  0
LINE
  5
369
100
AcDbEntity
  8
RACCORDO
100
AcDbLine
 62
250
  6
CONTINUOUS
 10
-3.1551733593
 20
-18.8618008011
 11
-2.1818394713
 21
-17.7970954598
  0
LINE
  5
36A
100
AcDbEntity
  8
RACCORDO
100
AcDbLine
 62
7
  6
CONTINUOUS
 10
-17.1970847554
 20
-13.1746421081
 11
-17.0472528608
 21
-13.1260051688
  0
LWPOLYLINE
  5
36B
100
AcDbEntity
  8
RACCORDO
100
AcDbPolyline
 62
250
  6
CONTINUOUS
 90
6
 70
0
 10
-34.3594611549
 20
23.0251352604
 10
-34.3924871248
 20
23.0404482767
 10
-34.4239735409
 20
23.0668397771
 10
-34.4514798707
 20
23.1033932937
 10
-34.4747003731
 20
23.1497025229
 10
-34.493376945
 20
23.2052527234
  0
LWPOLYLINE
  5
36C
100
AcDbEntity
  8
SCRITTA_VIMAR
100
AcDbPolyline
 62
250
  6
CONTINUOUS
 90
49
 70
0
 10
28.2999485854
 20
-35.2292933595
 10
28.2954682303
 20
-35.2209913788
 10
28.2908896961
 20
-35.2128327474
 10
28.2862069101
 20
-35.2048051562
 10
28.2814138002
 20
-35.1968962956
 10
28.2765042938
 20
-35.1890938564
 10
28.2714723185
 20
-35.1813855291
 10
28.2663136429
 20
-35.1737623352
 10
28.2610313993
 20
-35.1662286194
 10
28.2556305607
 20
-35.1587920574
 10
28.2501161004
 20
-35.1514603247
 10
28.2444929915
 20
-35.1442410968
 10
28.2387662072
 20
-35.1371420494
 10
28.2329398169
 20
-35.1301692116
 10
28.2270142746
 20
-35.1233220271
 10
28.2209891308
 20
-35.116598293
 10
28.2148639359
 20
-35.1099958068
 10
28.2086382401
 20
-35.1035123656
 10
28.2023115939
 20
-35.0971457667
 10
28.1958842031
 20
-35.0908943678
 10
28.1893588953
 20
-35.0847587685
 10
28.1827391537
 20
-35.0787401287
 10
28.1760284614
 20
-35.0728396083
 10
28.1692303016
 20
-35.0670583675
 10
28.1623481572
 20
-35.0613975661
 10
28.1553850389
 20
-35.0558583061
 10
28.1483420662
 20
-35.0504414566
 10
28.1412198862
 20
-35.0451478288
 10
28.1340191458
 20
-35.0399782338
 10
28.126740492
 20
-35.0349334827
 10
28.1193845717
 20
-35.0300143867
 10
28.1119516516
 20
-35.0252213484
 10
28.1044404761
 20
-35.0205531372
 10
28.0968494091
 20
-35.0160081139
 10
28.0891768146
 20
-35.0115846396
 10
28.0814210568
 20
-35.0072810751
 10
28.0735804995
 20
-35.0030957813
 10
28.0656555842
 20
-34.9990282092
 10
28.0576550625
 20
-34.9950821695
 10
28.0495897633
 20
-34.9912625626
 10
28.0414705157
 20
-34.9875742894
 10
28.0333081485
 20
-34.9840222504
 10
28.0251134909
 20
-34.9806113462
 10
28.0168927032
 20
-34.9773452914
 10
28.0086332719
 20
-34.9742230559
 10
28.000318015
 20
-34.9712424239
 10
27.9919297502
 20
-34.968401179
 10
27.9834512956
 20
-34.9656971054
 10
27.9748654689
 20
-34.9631279869
  0
LWPOLYLINE
  5
36D
100
AcDbEntity
  8
RACCORDO
100
AcDbPolyline
 62
7
  6
CONTINUOUS
 90
4
 70
0
 10
23.046412303
 20
-25.4206207255
 10
23.0447818895
 20
-25.4174541966
 10
23.0421122123
 20
-25.4155361438
 10
23.0413072191
 20
-25.4152451498
  0
LINE
  5
36E
100
AcDbEntity
  8
SCRITTA_VIMAR
100
AcDbLine
 62
250
  6
CONTINUOUS
 10
23.4266600006
 20
-33.5069017202
 11
23.3353869143
 21
-33.3251833801
  0
LINE
  5
36F
100
AcDbEntity
  8
SCRITTA_VIMAR
100
AcDbLine
 62
250
  6
CONTINUOUS
 10
23.3353869143
 20
-33.3251833801
 11
23.2458626452
 21
-33.1454137678
  0
LINE
  5
370
100
AcDbEntity
  8
SCRITTA_VIMAR
100
AcDbLine
 62
250
  6
CONTINUOUS
 10
22.7087688314
 20
-32.8735739116
 11
22.8309715216
 21
-33.119260116
  0
LINE
  5
371
100
AcDbEntity
  8
SCRITTA_VIMAR
100
AcDbLine
 62
250
  6
CONTINUOUS
 10
23.2458626452
 20
-33.1454137678
 11
23.1580734433
 21
-32.9676128064
  0
LINE
  5
372
100
AcDbEntity
  8
SCRITTA_VIMAR
100
AcDbLine
 62
250
  6
CONTINUOUS
 10
23.1580734433
 20
-32.9676128064
 11
23.0295779565
 21
-32.7047124241
  0
LINE
  5
373
100
AcDbEntity
  8
SCRITTA_VIMAR
100
AcDbLine
 62
250
  6
CONTINUOUS
 10
23.0295779565
 20
-32.7047124241
 11
22.9047907237
 21
-32.4465792769
  0
LINE
  5
374
100
AcDbEntity
  8
SCRITTA_VIMAR
100
AcDbLine
 62
250
  6
CONTINUOUS
 10
22.9047907237
 20
-32.4465792769
 11
22.7836700733
 21
-32.1932820099
  0
LINE
  5
375
100
AcDbEntity
  8
SCRITTA_VIMAR
100
AcDbLine
 62
250
  6
CONTINUOUS
 10
27.0750772639
 20
-35.4622471507
 11
26.9468308405
 21
-35.1882451993
  0
LINE
  5
376
100
AcDbEntity
  8
SCRITTA_VIMAR
100
AcDbLine
 62
250
  6
CONTINUOUS
 10
26.9468308405
 20
-35.1882451993
 11
26.8224297108
 21
-34.9194142215
  0
LINE
  5
377
100
AcDbEntity
  8
SCRITTA_VIMAR
100
AcDbLine
 62
250
  6
CONTINUOUS
 10
26.8224297108
 20
-34.9194142215
 11
26.7018432639
 21
-34.655895585
  0
LINE
  5
378
100
AcDbEntity
  8
SCRITTA_VIMAR
100
AcDbLine
 62
250
  6
CONTINUOUS
 10
26.7018432639
 20
-34.655895585
 11
26.585031317
 21
-34.3977865496
  0
LINE
  5
379
100
AcDbEntity
  8
SCRITTA_VIMAR
100
AcDbLine
 62
250
  6
CONTINUOUS
 10
26.585031317
 20
-34.3977865496
 11
26.471915399
 21
-34.1450079443
  0
LINE
  5
37A
100
AcDbEntity
  8
SCRITTA_VIMAR
100
AcDbLine
 62
250
  6
CONTINUOUS
 10
26.471915399
 20
-34.1450079443
 11
26.3624074672
 21
-33.8974364906
  0
LWPOLYLINE
  5
37B
100
AcDbEntity
  8
SCRITTA_VIMAR
100
AcDbPolyline
 62
250
  6
CONTINUOUS
 90
3
 70
0
 10
26.3534304391
 20
-34.9489531816
 10
26.3743243244
 20
-34.9979279012
 10
26.5017475492
 20
-35.2942089373
  0
LINE
  5
37C
100
AcDbEntity
  8
SCRITTA_VIMAR
100
AcDbLine
 62
250
  6
CONTINUOUS
 10
20.0705427147
 20
-32.7465755453
 11
19.9799445713
 21
-32.5264282899
  0
LINE
  5
37D
100
AcDbEntity
  8
SCRITTA_VIMAR
100
AcDbLine
 62
250
  6
CONTINUOUS
 10
19.9799445713
 20
-32.5264282899
 11
19.891593464
 21
-32.3091096407
  0
LINE
  5
37E
100
AcDbEntity
  8
SCRITTA_VIMAR
100
AcDbLine
 62
250
  6
CONTINUOUS
 10
19.891593464
 20
-32.3091096407
 11
19.8054647459
 21
-32.0946361501
  0
LINE
  5
37F
100
AcDbEntity
  8
SCRITTA_VIMAR
100
AcDbLine
 62
250
  6
CONTINUOUS
 10
19.8054647459
 20
-32.0946361501
 11
19.7215250902
 21
-31.8830847792
  0
LINE
  5
380
100
AcDbEntity
  8
SCRITTA_VIMAR
100
AcDbLine
 62
250
  6
CONTINUOUS
 10
19.7215250902
 20
-31.8830847792
 11
19.6397324904
 21
-31.6745928983
  0
LINE
  5
381
100
AcDbEntity
  8
SCRITTA_VIMAR
100
AcDbLine
 62
250
  6
CONTINUOUS
 10
19.6397324904
 20
-31.6745928983
 11
19.5600478298
 21
-31.4692784339
  0
LWPOLYLINE
  5
382
100
AcDbEntity
  8
SCRITTA_VIMAR
100
AcDbPolyline
 62
250
  6
CONTINUOUS
 90
3
 70
0
 10
19.5600478298
 20
-31.4692784339
 10
19.4824450599
 20
-31.2671710307
 10
19.4444172647
 20
-31.1673223442
  0
LWPOLYLINE
  5
383
100
AcDbEntity
  8
RACCORDO
100
AcDbPolyline
 62
250
  6
CONTINUOUS
 90
10
 70
0
 10
18.5637013307
 20
-38.613715012
 10
18.2857558545
 20
-37.6526025963
 10
18.039286029
 20
-36.6706386007
 10
17.8226008319
 20
-35.6721225821
 10
17.6286415796
 20
-34.6299590532
 10
17.4598872787
 20
-33.5609903228
 10
17.320136083
 20
-32.5061486282
 10
17.2102357036
 20
-31.5075483608
 10
17.1286528816
 20
-30.6078733786
 10
17.0740158179
 20
-29.8799094474
  0
LWPOLYLINE
  5
384
100
AcDbEntity
  8
RACCORDO
100
AcDbPolyline
 62
250
  6
CONTINUOUS
 90
10
 70
0
 10
17.0567359758
 20
21.9639209358
 10
16.8419344423
 20
20.3867376447
 10
16.6577550567
 20
18.8647179023
 10
16.5023859974
 20
17.3984172777
 10
16.3704846933
 20
15.9459447765
 10
16.2635404865
 20
14.5302436205
 10
16.1831313917
 20
13.1996306894
 10
16.1280295425
 20
11.9954240699
 10
16.0947557771
 20
10.9531583725
 10
16.0785279462
 20
10.137136473
  0
LWPOLYLINE
  5
385
100
AcDbEntity
  8
RACCORDO
100
AcDbPolyline
 62
250
  6
CONTINUOUS
 90
10
 70
0
 10
15.8374763606
 20
8.5535510998
 10
15.8837541377
 20
8.7393288445
 10
15.9255793103
 20
8.9243751531
 10
15.9627759995
 20
9.1079265779
 10
15.9953196766
 20
9.2891853452
 10
16.0229458428
 20
9.4674425411
 10
16.0451506106
 20
9.6420812234
 10
16.0617137696
 20
9.8124193892
 10
16.0726991264
 20
9.9777129401
 10
16.0780628399
 20
10.1372786584
  0
LINE
  5
386
100
AcDbEntity
  8
RACCORDO
100
AcDbLine
 62
250
  6
CONTINUOUS
 10
2.5448384133
 20
-20.612219195
 11
2.9899079883
 21
-19.967299071
  0
LINE
  5
387
100
AcDbEntity
  8
RACCORDO
100
AcDbLine
 62
7
  6
CONTINUOUS
 10
2.5669275977
 20
-20.6190025695
 11
2.9718706733
 21
-20.0322270333
  0
LINE
  5
388
100
AcDbEntity
  8
RACCORDO
100
AcDbLine
 62
250
  6
CONTINUOUS
 10
2.0013161337
 20
-20.4453087685
 11
2.7933115111
 21
-19.3249161275
  0
LINE
  5
389
100
AcDbEntity
  8
RACCORDO
100
AcDbLine
 62
250
  6
CONTINUOUS
 10
2.2728096895
 20
-20.5286818093
 11
2.979020614
 21
-19.5296437526
  0
LWPOLYLINE
  5
38A
100
AcDbEntity
  8
RACCORDO
100
AcDbPolyline
 62
250
  6
CONTINUOUS
 90
10
 70
0
 10
-2.3263882207
 20
-17.8182076193
 10
-2.3204284722
 20
-17.812270378
 10
-2.3092198849
 20
-17.8035804514
 10
-2.2965817134
 20
-17.796537667
 10
-2.2826488947
 20
-17.7912158878
 10
-2.2675521368
 20
-17.7876698393
 10
-2.2514769024
 20
-17.785947523
 10
-2.2346679085
 20
-17.7860638704
 10
-2.2173404429
 20
-17.7879923373
 10
-2.1996664543
 20
-17.7916897147
  0
LWPOLYLINE
  5
38B
100
AcDbEntity
  8
0
100
AcDbPolyline
 62
7
  6
CONTINUOUS
 90
7
 70
0
 10
-34.3594611549
 20
23.0251352604
 10
-34.388866349
 20
23.0331976233
 10
-34.4133655279
 20
23.0382712221
 10
-34.4323865005
 20
23.0409319451
 10
-34.4455219892
 20
23.0418782765
 10
-34.4525026826
 20
23.0419057028
 10
-34.4532638791
 20
23.041870521
  0
LWPOLYLINE
  5
38C
100
AcDbEntity
  8
RACCORDO
100
AcDbPolyline
 62
250
  6
CONTINUOUS
 90
6
 70
0
 10
-34.1902153162
 20
25.5286999126
 10
-33.2460169886
 20
25.2475518707
 10
-32.2780301368
 20
24.9575720453
 10
-31.2871805996
 20
24.6592501785
 10
-30.2737328335
 20
24.3529075133
 10
-29.2382568703
 20
24.0389872638
  0
LINE
  5
38D
100
AcDbEntity
  8
RACCORDO
100
AcDbLine
 62
250
  6
CONTINUOUS
 10
-29.2382568703
 20
24.0389872638
 11
-24.8921492788
 21
22.7188356793
  0
LWPOLYLINE
  5
38E
100
AcDbEntity
  8
RACCORDO
100
AcDbPolyline
 62
250
  6
CONTINUOUS
 90
3
 70
0
 10
22.2328208
 20
6.585688708
 10
23.2247830422
 20
6.2815667545
 10
25.1453205489
 20
5.6941509217
  0
LINE
  5
38F
100
AcDbEntity
  8
0
100
AcDbLine
 62
7
  6
CONTINUOUS
 10
25.2263338888
 20
4.7269148671
 11
-34.3594611549
 21
23.0251352604
  0
LWPOLYLINE
  5
390
100
AcDbEntity
  8
RACCORDO
100
AcDbPolyline
 62
250
  6
CONTINUOUS
 90
3
 70
0
 10
-31.5250759574
 20
23.0942180516
 10
-30.5099264163
 20
22.7825288557
 10
-25.130474388
 20
21.134411879
  0
LINE
  5
391
100
AcDbEntity
  8
RACCORDO
100
AcDbLine
 62
250
  6
CONTINUOUS
 10
-25.1327358045
 20
21.1351063381
 11
15.8374763606
 21
8.5535510998
  0
LINE
  5
392
100
AcDbEntity
  8
RACCORDO
100
AcDbLine
 62
250
  6
CONTINUOUS
 10
-24.8921493252
 20
22.7188338966
 11
16.0780628399
 21
10.1372786584
  0
LINE
  5
393
100
AcDbEntity
  8
RACCORDO
100
AcDbLine
 62
250
  6
CONTINUOUS
 10
20.1856254044
 20
7.2149189298
 11
22.2328208
 21
6.585688708
  0
LWPOLYLINE
  5
394
100
AcDbEntity
  8
RACCORDO
100
AcDbPolyline
 62
250
  6
CONTINUOUS
 90
3
 70
0
 10
15.8357499896
 20
8.5540812516
 10
16.9551907711
 20
8.2092523859
 10
20.1856254044
 20
7.2149189298
  0
LWPOLYLINE
  5
395
100
AcDbEntity
  8
RACCORDO
100
AcDbPolyline
 62
250
  6
CONTINUOUS
 90
3
 70
0
 10
-34.4404744948
 20
23.992371315
 10
-33.4900858955
 20
23.699107009
 10
-31.5250759574
 20
23.0942180516
  0
LINE
  5
396
100
AcDbEntity
  8
RACCORDO
100
AcDbLine
 62
250
  6
CONTINUOUS
 10
16.0780633296
 20
10.13728273
 11
20.42667065
 21
8.7873376778
  0
LWPOLYLINE
  5
397
100
AcDbEntity
  8
RACCORDO
100
AcDbPolyline
 62
250
  6
CONTINUOUS
 90
6
 70
0
 10
20.42667065
 20
8.7873376778
 10
21.4590661906
 20
8.4662378573
 10
22.4700443251
 20
8.1509030537
 10
23.4597027717
 20
7.8410327194
 10
24.4275658357
 20
7.536538701
 10
25.373108337
 20
7.2373812088
  0
LWPOLYLINE
  5
398
100
AcDbEntity
  8
RACCORDO
100
AcDbPolyline
 62
250
  6
CONTINUOUS
 90
70
 70
0
 10
25.1453205489
 20
5.6941509217
 10
25.1995311261
 20
5.6769111402
 10
25.2521468949
 20
5.6586294876
 10
25.3031129758
 20
5.639449729
 10
25.3522930229
 20
5.6195383258
 10
25.3997404952
 20
5.5990045812
 10
25.4456968319
 20
5.5778793733
 10
25.4900899738
 20
5.5562723904
 10
25.5329489155
 20
5.5342798677
 10
25.5746718828
 20
5.511861551
 10
25.615457674
 20
5.4889780256
 10
25.6550838391
 20
5.4657934704
 10
25.693326905
 20
5.4425560795
 10
25.7301577083
 20
5.4193763468
 10
25.7656187163
 20
5.3962851602
 10
25.7996087741
 20
5.3734239334
 10
25.8320759522
 20
5.3509089098
 10
25.8631068912
 20
5.3287547221
 10
25.8928116544
 20
5.306946224
 10
25.9212115492
 20
5.2855319197
 10
25.9483232819
 20
5.2645630326
 10
25.9742467264
 20
5.2440168886
 10
25.9990082956
 20
5.2239362366
 10
26.0226207307
 20
5.2043553462
 10
26.0451592337
 20
5.1852304127
 10
26.0665155692
 20
5.1666953292
 10
26.0868367357
 20
5.1486791549
 10
26.1065661787
 20
5.1308140874
 10
26.1256979777
 20
5.1131198404
 10
26.1442517393
 20
5.0956054616
 10
26.162684419
 20
5.0778624557
 10
26.1810384301
 20
5.0598441993
 10
26.1992589785
 20
5.0416002439
 10
26.2176352081
 20
5.02284725
 10
26.236187032
 20
5.0035435923
 10
26.2548622708
 20
4.983720147
 10
26.2738256575
 20
4.9631904498
 10
26.2930606414
 20
4.9419410055
 10
26.3125342815
 20
4.9199676023
 10
26.3323719987
 20
4.8970894606
 10
26.3525711442
 20
4.8732559271
 10
26.3730612518
 20
4.8484945544
 10
26.3938539404
 20
4.8227373389
 10
26.4149399874
 20
4.7959295434
 10
26.436237159
 20
4.7681051297
 10
26.4576452083
 20
4.7393307877
 10
26.4790852033
 20
4.709645892
 10
26.5005413632
 20
4.6790021058
 10
26.5220053305
 20
4.647336907
 10
26.5433994778
 20
4.6146798157
 10
26.5646858766
 20
4.5809996916
 10
26.5858990549
 20
4.5461420248
 10
26.6069654348
 20
4.5101057328
 10
26.627804767
 20
4.4728989494
 10
26.6484166219
 20
4.4343806179
 10
26.6687059253
 20
4.3945554405
 10
26.6885699693
 20
4.3534428637
 10
26.7079696341
 20
4.3109268363
 10
26.7267952879
 20
4.2670071496
 10
26.7449081162
 20
4.221735501
 10
26.7622012124
 20
4.1750810617
 10
26.7785380934
 20
4.127120733
 10
26.7937671824
 20
4.0778690262
 10
26.8077288813
 20
4.0272171567
 10
26.8202421407
 20
3.9752168329
 10
26.8311315068
 20
3.921972262
 10
26.8402099605
 20
3.8674765064
 10
26.8472739416
 20
3.8118062801
 10
26.8521167783
 20
3.7551192827
 10
26.8545290146
 20
3.6975531325
  0
LWPOLYLINE
  5
399
100
AcDbEntity
  8
RACCORDO
100
AcDbPolyline
 62
250
  6
CONTINUOUS
 90
9
 70
0
 10
25.3731135143
 20
7.2373869924
 10
25.4781339027
 20
7.2024907963
 10
25.5799616021
 20
7.1656779413
 10
25.6784767549
 20
7.1272736469
 10
25.7734730577
 20
7.0876165375
 10
25.8650733628
 20
7.0469136036
 10
25.9536732614
 20
7.0052382286
 10
26.0392287937
 20
6.962620708
 10
26.1213793571
 20
6.9197642178
  0
LWPOLYLINE
  5
39A
100
AcDbEntity
  8
RACCORDO
100
AcDbPolyline
 62
250
  6
CONTINUOUS
 90
14
 70
0
 10
25.2263338888
 20
4.7269148671
 10
25.1933007876
 20
4.7422324158
 10
25.1618143969
 20
4.7686269662
 10
25.1343083838
 20
4.8051839912
 10
25.1110885025
 20
4.8514971263
 10
25.0924128628
 20
4.9070515593
 10
25.0784890614
 20
4.9712297526
 10
25.0694718739
 20
5.0433183077
 10
25.0654615345
 20
5.1225158953
 10
25.0665017129
 20
5.2079196866
 10
25.0725791903
 20
5.2986001306
 10
25.0836367626
 20
5.3936236954
 10
25.0995672903
 20
5.4919669348
 10
25.1202018758
 20
5.5925157545
  0
LWPOLYLINE
  5
39B
100
AcDbEntity
  8
SCRITTA_VIMAR
100
AcDbPolyline
 62
250
  6
CONTINUOUS
 90
6
 70
0
 10
28.351979352
 20
-35.335827779
 10
28.3394816366
 20
-35.3089624348
 10
28.3267308677
 20
-35.2822503369
 10
28.3180237895
 20
-35.2645292692
 10
28.3091083337
 20
-35.2468772944
 10
28.2999485854
 20
-35.2292933595
  0
LINE
  5
39C
100
AcDbEntity
  8
SCRITTA_VIMAR
100
AcDbLine
 62
250
  6
CONTINUOUS
 10
28.5408147295
 20
-35.7485206697
 11
28.351979352
 21
-35.335827779
  0
LINE
  5
39D
100
AcDbEntity
  8
SCRITTA_VIMAR
100
AcDbLine
 62
250
  6
CONTINUOUS
 10
28.6131340298
 20
-35.9076217804
 11
28.5408147295
 21
-35.7485206697
  0
LINE
  5
39E
100
AcDbEntity
  8
SCRITTA_VIMAR
100
AcDbLine
 62
250
  6
CONTINUOUS
 10
26.3624074672
 20
-33.8974364906
 11
26.2564168132
 21
-33.6550103251
  0
LINE
  5
39F
100
AcDbEntity
  8
SCRITTA_VIMAR
100
AcDbLine
 62
250
  6
CONTINUOUS
 10
29.1180295849
 20
-36.0092366285
 11
29.1390510196
 21
-36.0576292159
  0
LINE
  5
3A0
100
AcDbEntity
  8
SCRITTA_VIMAR
100
AcDbLine
 62
250
  6
CONTINUOUS
 10
26.2564168132
 20
-33.6550103251
 11
26.1538420667
 21
-33.4179132448
  0
LINE
  5
3A1
100
AcDbEntity
  8
SCRITTA_VIMAR
100
AcDbLine
 62
250
  6
CONTINUOUS
 10
28.8596917922
 20
-35.4006848856
 11
28.8768176604
 21
-35.440288192
  0
LINE
  5
3A2
100
AcDbEntity
  8
SCRITTA_VIMAR
100
AcDbLine
 62
250
  6
CONTINUOUS
 10
26.1538420667
 20
-33.4179132448
 11
26.0545791919
 21
-33.1863904621
  0
LINE
  5
3A3
100
AcDbEntity
  8
SCRITTA_VIMAR
100
AcDbLine
 62
250
  6
CONTINUOUS
 10
29.0763996376
 20
-35.9116982089
 11
29.1180295849
 21
-36.0092366285
  0
LINE
  5
3A4
100
AcDbEntity
  8
SCRITTA_VIMAR
100
AcDbLine
 62
250
  6
CONTINUOUS
 10
26.3119346835
 20
-34.8513562694
 11
26.3534304391
 21
-34.9489531816
  0
LINE
  5
3A5
100
AcDbEntity
  8
SCRITTA_VIMAR
100
AcDbLine
 62
250
  6
CONTINUOUS
 10
28.8768176604
 20
-35.440288192
 11
28.9433271784
 21
-35.5963368167
  0
LINE
  5
3A6
100
AcDbEntity
  8
SCRITTA_VIMAR
100
AcDbLine
 62
250
  6
CONTINUOUS
 10
28.9433271784
 20
-35.5963368167
 11
29.0763996376
 21
-35.9116982089
  0
LINE
  5
3A7
100
AcDbEntity
  8
SCRITTA_VIMAR
100
AcDbLine
 62
250
  6
CONTINUOUS
 10
26.0535174083
 20
-34.2239431765
 11
26.1671344025
 21
-34.5065857032
  0
LINE
  5
3A8
100
AcDbEntity
  8
SCRITTA_VIMAR
100
AcDbLine
 62
250
  6
CONTINUOUS
 10
25.9434662364
 20
-33.9462529021
 11
26.0535174083
 21
-34.2239431765
  0
LINE
  5
3A9
100
AcDbEntity
  8
SCRITTA_VIMAR
100
AcDbLine
 62
250
  6
CONTINUOUS
 10
25.8369570853
 20
-33.6734780039
 11
25.9434662364
 21
-33.9462529021
  0
LINE
  5
3AA
100
AcDbEntity
  8
SCRITTA_VIMAR
100
AcDbLine
 62
250
  6
CONTINUOUS
 10
21.8353695196
 20
-33.0904919628
 11
21.8605273952
 21
-33.3245477068
  0
LINE
  5
3AB
100
AcDbEntity
  8
RACCORDO
100
AcDbLine
 62
7
  6
CONTINUOUS
 10
23.046412303
 20
-25.4206207255
 11
23.0465503273
 21
-25.4219217822
  0
LINE
  5
3AC
100
AcDbEntity
  8
SCRITTA_VIMAR
100
AcDbLine
 62
250
  6
CONTINUOUS
 10
21.3207854466
 20
-33.159855544
 11
21.2957168028
 21
-32.9256947278
  0
LINE
  5
3AD
100
AcDbEntity
  8
SCRITTA_VIMAR
100
AcDbLine
 62
250
  6
CONTINUOUS
 10
21.811658005
 20
-32.8598748903
 11
21.8353695196
 21
-33.0904919628
  0
LINE
  5
3AE
100
AcDbEntity
  8
SCRITTA_VIMAR
100
AcDbLine
 62
250
  6
CONTINUOUS
 10
21.2957168028
 20
-32.9256947278
 11
21.2720999029
 21
-32.694958801
  0
LINE
  5
3AF
100
AcDbEntity
  8
SCRITTA_VIMAR
100
AcDbLine
 62
250
  6
CONTINUOUS
 10
21.7893324981
 20
-32.6328064181
 11
21.811658005
 21
-32.8598748903
  0
LINE
  5
3B0
100
AcDbEntity
  8
SCRITTA_VIMAR
100
AcDbLine
 62
250
  6
CONTINUOUS
 10
21.2720999029
 20
-32.694958801
 11
21.2498734896
 21
-32.4677603975
  0
LINE
  5
3B1
100
AcDbEntity
  8
SCRITTA_VIMAR
100
AcDbLine
 62
250
  6
CONTINUOUS
 10
21.7683320736
 20
-32.4093971559
 11
21.7893324981
 21
-32.6328064181
  0
LINE
  5
3B2
100
AcDbEntity
  8
SCRITTA_VIMAR
100
AcDbLine
 62
250
  6
CONTINUOUS
 10
21.2498734896
 20
-32.4677603975
 11
21.2289757857
 21
-32.244212754
  0
LINE
  5
3B3
100
AcDbEntity
  8
SCRITTA_VIMAR
100
AcDbLine
 62
250
  6
CONTINUOUS
 10
21.2289757857
 20
-32.244212754
 11
21.2093425119
 21
-32.0244153333
  0
LINE
  5
3B4
100
AcDbEntity
  8
SCRITTA_VIMAR
100
AcDbLine
 62
250
  6
CONTINUOUS
 10
21.7391736959
 20
-32.0813582261
 11
21.7683320736
 21
-32.4093971559
  0
LWPOLYLINE
  5
3B5
100
AcDbEntity
  8
SCRITTA_VIMAR
100
AcDbPolyline
 62
250
  6
CONTINUOUS
 90
3
 70
0
 10
21.2093425119
 20
-32.0244153333
 10
21.1909068872
 20
-31.8084538247
 10
21.1821172903
 20
-31.7019381282
  0
LINE
  5
3B6
100
AcDbEntity
  8
SCRITTA_VIMAR
100
AcDbLine
 62
250
  6
CONTINUOUS
 10
21.7211968561
 20
-31.8675106126
 11
21.7391736959
 21
-32.0813582261
  0
LWPOLYLINE
  5
3B7
100
AcDbEntity
  8
RACCORDO
100
AcDbPolyline
 62
250
  6
CONTINUOUS
 90
61
 70
0
 10
26.1213793571
 20
6.9197642178
 10
26.275492018
 20
6.8370231488
 10
26.347592425
 20
6.797557647
 10
26.416832455
 20
6.7583083006
 10
26.4836480705
 20
6.7189528589
 10
26.5482154571
 20
6.6797697181
 10
26.610319627
 20
6.6408363009
 10
26.669812915
 20
6.6023257214
 10
26.7267773859
 20
6.5643498671
 10
26.7813444188
 20
6.5268932623
 10
26.8334548282
 20
6.4901123425
 10
26.8832408589
 20
6.4540232324
 10
26.9311779134
 20
6.4183172536
 10
26.9774734818
 20
6.3829337007
 10
27.0221615621
 20
6.3478798366
 10
27.0653683059
 20
6.3129624493
 10
27.1068668892
 20
6.2782415055
 10
27.146818939
 20
6.2437759169
 10
27.1858180879
 20
6.2094641393
 10
27.223703091
 20
6.1756305276
 10
27.2603315309
 20
6.1423350425
 10
27.2964004647
 20
6.1089504703
 10
27.3319712118
 20
6.0754418871
 10
27.3670042443
 20
6.0418682684
 10
27.4020242019
 20
6.0076980497
 10
27.4370613267
 20
5.9729210601
 10
27.4720538796
 20
5.9375742392
 10
27.5073818444
 20
5.9011329033
 10
27.5430954915
 20
5.863458535
 10
27.5792532292
 20
5.8244562359
 10
27.6161906748
 20
5.7836647681
 10
27.6539137229
 20
5.7409868943
 10
27.692241737
 20
5.6965239465
 10
27.7311559723
 20
5.6501585122
 10
27.7706452417
 20
5.6017850346
 10
27.8105731411
 20
5.5514523122
 10
27.8507448985
 20
5.4992602348
 10
27.8910126107
 20
5.4452811229
 10
27.9313460945
 20
5.3894307334
 10
27.9717132058
 20
5.3315882698
 10
28.0119703223
 20
5.2718083279
 10
28.0520462681
 20
5.2100347663
 10
28.0919890125
 20
5.1459786243
 10
28.1316643195
 20
5.0796411784
 10
28.170918955
 20
5.0110444129
 10
28.2097266483
 20
4.9399343348
 10
28.247911039
 20
4.8663330992
 10
28.2852744462
 20
4.7902783576
 10
28.3217068106
 20
4.7115483809
 10
28.356919229
 20
4.6301844911
 10
28.3907586692
 20
4.5462653556
 10
28.423277763
 20
4.4596200864
 10
28.4541929358
 20
4.3703003268
 10
28.4832636177
 20
4.27806708
 10
28.5105205172
 20
4.1822156001
 10
28.5357923657
 20
4.0825287116
 10
28.558349287
 20
3.9796558604
 10
28.5772998094
 20
3.8743472268
 10
28.592066259
 20
3.7671237572
 10
28.6024123045
 20
3.6580810443
 10
28.6079661528
 20
3.5473838799
  0
LINE
  5
3B8
100
AcDbEntity
  8
SCRITTA_VIMAR
100
AcDbLine
 62
250
  6
CONTINUOUS
 10
24.8498218025
 20
-34.8047880168
 11
24.7909922416
 21
-34.5536835039
  0
LINE
  5
3B9
100
AcDbEntity
  8
SCRITTA_VIMAR
100
AcDbLine
 62
250
  6
CONTINUOUS
 10
24.7909922416
 20
-34.5536835039
 11
24.7342511157
 21
-34.30628126
  0
LINE
  5
3BA
100
AcDbEntity
  8
SCRITTA_VIMAR
100
AcDbLine
 62
250
  6
CONTINUOUS
 10
24.7342511157
 20
-34.30628126
 11
24.6795574512
 21
-34.0626532781
  0
LINE
  5
3BB
100
AcDbEntity
  8
SCRITTA_VIMAR
100
AcDbLine
 62
250
  6
CONTINUOUS
 10
24.6795574512
 20
-34.0626532781
 11
24.6268693092
 21
-33.8228677397
  0
LINE
  5
3BC
100
AcDbEntity
  8
SCRITTA_VIMAR
100
AcDbLine
 62
250
  6
CONTINUOUS
 10
24.6268693092
 20
-33.8228677397
 11
24.5761408891
 21
-33.5869775812
  0
LINE
  5
3BD
100
AcDbEntity
  8
SCRITTA_VIMAR
100
AcDbLine
 62
250
  6
CONTINUOUS
 10
24.5761408891
 20
-33.5869775812
 11
24.5273254251
 21
-33.3550319278
  0
LINE
  5
3BE
100
AcDbEntity
  8
SCRITTA_VIMAR
100
AcDbLine
 62
250
  6
CONTINUOUS
 10
24.5273254251
 20
-33.3550319278
 11
24.480368813
 21
-33.1270947252
  0
LINE
  5
3BF
100
AcDbEntity
  8
SCRITTA_VIMAR
100
AcDbLine
 62
250
  6
CONTINUOUS
 10
24.480368813
 20
-33.1270947252
 11
24.4351875959
 21
-32.9032892012
  0
LINE
  5
3C0
100
AcDbEntity
  8
SCRITTA_VIMAR
100
AcDbLine
 62
250
  6
CONTINUOUS
 10
24.2728237234
 20
-34.4135348375
 11
24.3197198167
 21
-34.6462462084
  0
LINE
  5
3C1
100
AcDbEntity
  8
SCRITTA_VIMAR
100
AcDbLine
 62
250
  6
CONTINUOUS
 10
24.4351875959
 20
-32.9032892012
 11
24.3916909789
 21
-32.6837534041
  0
LINE
  5
3C2
100
AcDbEntity
  8
SCRITTA_VIMAR
100
AcDbLine
 62
250
  6
CONTINUOUS
 10
24.2275031023
 20
-34.1833924484
 11
24.2728237234
 21
-34.4135348375
  0
LINE
  5
3C3
100
AcDbEntity
  8
SCRITTA_VIMAR
100
AcDbLine
 62
250
  6
CONTINUOUS
 10
24.1837149094
 20
-33.9558812786
 11
24.2275031023
 21
-34.1833924484
  0
LINE
  5
3C4
100
AcDbEntity
  8
SCRITTA_VIMAR
100
AcDbLine
 62
250
  6
CONTINUOUS
 10
24.1414414368
 20
-33.7310591499
 11
24.1837149094
 21
-33.9558812786
  0
LINE
  5
3C5
100
AcDbEntity
  8
SCRITTA_VIMAR
100
AcDbLine
 62
250
  6
CONTINUOUS
 10
24.1006710619
 20
-33.5089742755
 11
24.1414414368
 21
-33.7310591499
  0
LINE
  5
3C6
100
AcDbEntity
  8
SCRITTA_VIMAR
100
AcDbLine
 62
250
  6
CONTINUOUS
 10
24.0613911673
 20
-33.2896408479
 11
24.1006710619
 21
-33.5089742755
  0
LINE
  5
3C7
100
AcDbEntity
  8
SCRITTA_VIMAR
100
AcDbLine
 62
250
  6
CONTINUOUS
 10
21.9010842794
 20
-33.6819054833
 11
21.9300621851
 21
-33.9242453899
  0
LINE
  5
3C8
100
AcDbEntity
  8
SCRITTA_VIMAR
100
AcDbLine
 62
250
  6
CONTINUOUS
 10
21.3901275015
 20
-33.7597444875
 11
21.361220799
 21
-33.5173410588
  0
LWPOLYLINE
  5
3C9
100
AcDbEntity
  8
SCRITTA_VIMAR
100
AcDbPolyline
 62
250
  6
CONTINUOUS
 90
3
 70
0
 10
21.361220799
 20
-33.5173410588
 10
21.3338809237
 20
-33.278192071
 10
21.3207854466
 20
-33.159855544
  0
LWPOLYLINE
  5
3CA
100
AcDbEntity
  8
SCRITTA_VIMAR
100
AcDbPolyline
 62
250
  6
CONTINUOUS
 90
3
 70
0
 10
21.8605273952
 20
-33.3245477068
 10
21.8736651623
 20
-33.4428375203
 10
21.9010842794
 20
-33.6819054833
  0
LINE
  5
3CB
100
AcDbEntity
  8
SCRITTA_VIMAR
100
AcDbLine
 62
250
  6
CONTINUOUS
 10
27.1110062791
 20
-34.4566462165
 11
27.0871080263
 21
-34.2351681055
  0
LINE
  5
3CC
100
AcDbEntity
  8
SCRITTA_VIMAR
100
AcDbLine
 62
250
  6
CONTINUOUS
 10
27.5934072244
 20
-34.2243205445
 11
27.6272871441
 21
-34.5401293169
  0
LINE
  5
3CD
100
AcDbEntity
  8
SCRITTA_VIMAR
100
AcDbLine
 62
250
  6
CONTINUOUS
 10
27.0871080263
 20
-34.2351681055
 11
27.064457923
 21
-34.0181781327
  0
LINE
  5
3CE
100
AcDbEntity
  8
SCRITTA_VIMAR
100
AcDbLine
 62
250
  6
CONTINUOUS
 10
27.5680007003
 20
-33.9779958183
 11
27.5934072244
 21
-34.2243205445
  0
LINE
  5
3CF
100
AcDbEntity
  8
SCRITTA_VIMAR
100
AcDbLine
 62
250
  6
CONTINUOUS
 10
27.064457923
 20
-34.0181781327
 11
27.0326156866
 21
-33.7013699733
  0
LINE
  5
3D0
100
AcDbEntity
  8
SCRITTA_VIMAR
100
AcDbLine
 62
250
  6
CONTINUOUS
 10
27.0326156866
 20
-33.7013699733
 11
27.0125977524
 21
-33.4962875497
  0
LWPOLYLINE
  5
3D1
100
AcDbEntity
  8
RACCORDO
100
AcDbPolyline
 62
250
  6
CONTINUOUS
 90
18
 70
0
 10
26.5633963156
 20
-30.286159139
 10
26.5645629641
 20
-30.3082888937
 10
26.5753033955
 20
-30.3737146041
 10
26.5968174679
 20
-30.437914115
 10
26.6288705298
 20
-30.5001872098
 10
26.6711129822
 20
-30.5598546832
 10
26.7230840916
 20
-30.6162657491
 10
26.7842170152
 20
-30.6688051384
 10
26.8538449833
 20
-30.7168998102
 10
26.9312085717
 20
-30.7600252015
 10
27.0154639849
 20
-30.7977109488
 10
27.1056922589
 20
-30.8295460178
 10
27.2008898096
 20
-30.8551786991
 10
27.3000362245
 20
-30.8743364968
 10
27.4021124211
 20
-30.8868159909
 10
27.5060291921
 20
-30.8924692599
 10
27.6106323906
 20
-30.8912189973
 10
27.7147771069
 20
-30.8830665093
  0
LINE
  5
3D2
100
AcDbEntity
  8
SCRITTA_VIMAR
100
AcDbLine
 62
250
  6
CONTINUOUS
 10
22.7378126327
 20
-34.1694927558
 11
22.7306097584
 21
-33.947646961
  0
LINE
  5
3D3
100
AcDbEntity
  8
SCRITTA_VIMAR
100
AcDbLine
 62
250
  6
CONTINUOUS
 10
22.7306097584
 20
-33.947646961
 11
22.7243962168
 21
-33.7280650522
  0
LINE
  5
3D4
100
AcDbEntity
  8
RACCORDO
100
AcDbLine
 62
250
  6
CONTINUOUS
 10
23.0328783345
 20
-25.4342251643
 11
23.0494076266
 21
-26.0986766966
  0
LINE
  5
3D5
100
AcDbEntity
  8
RACCORDO
100
AcDbLine
 62
7
  6
CONTINUOUS
 10
23.0465433765
 20
-25.4219203281
 11
23.0623779149
 21
-26.0584438554
  0
LINE
  5
3D6
100
AcDbEntity
  8
SCRITTA_VIMAR
100
AcDbLine
 62
250
  6
CONTINUOUS
 10
22.7243962168
 20
-33.7280650522
 11
22.7191265557
 21
-33.5108097397
  0
LINE
  5
3D7
100
AcDbEntity
  8
SCRITTA_VIMAR
100
AcDbLine
 62
250
  6
CONTINUOUS
 10
22.7191265557
 20
-33.5108097397
 11
22.7147786967
 21
-33.2959429639
  0
LINE
  5
3D8
100
AcDbEntity
  8
SCRITTA_VIMAR
100
AcDbLine
 62
250
  6
CONTINUOUS
 10
22.7147786967
 20
-33.2959429639
 11
22.7113345781
 21
-33.08352046
  0
LINE
  5
3D9
100
AcDbEntity
  8
SCRITTA_VIMAR
100
AcDbLine
 62
250
  6
CONTINUOUS
 10
22.7113345781
 20
-33.08352046
 11
22.7087688314
 21
-32.8735739116
  0
LINE
  5
3DA
100
AcDbEntity
  8
SCRITTA_VIMAR
100
AcDbLine
 62
250
  6
CONTINUOUS
 10
22.2199082702
 20
-33.7787218117
 11
22.2208429396
 21
-34.0126556783
  0
LINE
  5
3DB
100
AcDbEntity
  8
RACCORDO
100
AcDbLine
 62
250
  6
CONTINUOUS
 10
23.0623779149
 20
-26.0584438554
 11
23.0623835181
 21
-26.0611720442
  0
LINE
  5
3DC
100
AcDbEntity
  8
SCRITTA_VIMAR
100
AcDbLine
 62
250
  6
CONTINUOUS
 10
22.2199933123
 20
-33.5479619312
 11
22.2199082702
 21
-33.7787218117
  0
LINE
  5
3DD
100
AcDbEntity
  8
SCRITTA_VIMAR
100
AcDbLine
 62
250
  6
CONTINUOUS
 10
22.2210552792
 20
-33.3204311855
 11
22.2199933123
 21
-33.5479619312
  0
LINE
  5
3DE
100
AcDbEntity
  8
SCRITTA_VIMAR
100
AcDbLine
 62
250
  6
CONTINUOUS
 10
22.2243741723
 20
-32.9853446115
 11
22.2210552792
 21
-33.3204311855
  0
LINE
  5
3DF
100
AcDbEntity
  8
SCRITTA_VIMAR
100
AcDbLine
 62
250
  6
CONTINUOUS
 10
22.2295772959
 20
-32.658039479
 11
22.2243741723
 21
-32.9853446115
  0
LINE
  5
3E0
100
AcDbEntity
  8
SCRITTA_VIMAR
100
AcDbLine
 62
250
  6
CONTINUOUS
 10
22.2364430389
 20
-32.3388929425
 11
22.2295772959
 21
-32.658039479
  0
LINE
  5
3E1
100
AcDbEntity
  8
SCRITTA_VIMAR
100
AcDbLine
 62
250
  6
CONTINUOUS
 10
22.2447336694
 20
-32.0282235587
 11
22.2364430389
 21
-32.3388929425
  0
LWPOLYLINE
  5
3E2
100
AcDbEntity
  8
RACCORDO
100
AcDbPolyline
 62
250
  6
CONTINUOUS
 90
6
 70
0
 10
23.0494076266
 20
-26.0986766966
 10
23.0490682262
 20
-26.110500022
 10
23.0472246066
 20
-26.1217913622
 10
23.0438970627
 20
-26.1324264183
 10
23.0391215659
 20
-26.1422892505
 10
23.0363489221
 20
-26.1466886255
  0
LWPOLYLINE
  5
3E3
100
AcDbEntity
  8
RACCORDO
100
AcDbPolyline
 62
250
  6
CONTINUOUS
 90
10
 70
0
 10
25.1202018758
 20
5.5925157545
 10
25.1899620896
 20
5.8742915323
 10
25.2300687113
 20
6.0538644851
 10
25.2654846618
 20
6.2321727834
 10
25.2960724718
 20
6.4085243367
 10
25.3217134119
 20
6.5822346494
 10
25.3423079544
 20
6.7526294778
 10
25.3577761587
 20
6.9190474468
 10
25.3680579825
 20
7.080842617
 10
25.3731135143
 20
7.2373869924
  0
LINE
  5
3E4
100
AcDbEntity
  8
DRAFT
100
AcDbLine
 62
7
  6
CONTINUOUS
 10
16.6774283017
 20
-24.8883121016
 11
16.7467060898
 21
-24.6969701189
  0
LINE
  5
3E5
100
AcDbEntity
  8
DRAFT
100
AcDbLine
 62
7
  6
CONTINUOUS
 10
16.9278882382
 20
-24.6108650545
 11
16.9971660263
 21
-24.4195230718
  0
LINE
  5
3E6
100
AcDbEntity
  8
DRAFT
100
AcDbLine
 62
7
  6
CONTINUOUS
 10
17.1783481748
 20
-24.3334180074
 11
17.2476259628
 21
-24.1420760247
  0
LINE
  5
3E7
100
AcDbEntity
  8
DRAFT
100
AcDbLine
 62
7
  6
CONTINUOUS
 10
17.4288081113
 20
-24.0559709603
 11
17.4980858993
 21
-23.8646289776
  0
LWPOLYLINE
  5
3E8
100
AcDbEntity
  8
SCRITTA_VIMAR
100
AcDbPolyline
 62
250
  6
CONTINUOUS
 90
50
 70
0
 10
28.3279814269
 20
-34.4360675693
 10
28.3269428154
 20
-34.4287605617
 10
28.3256596475
 20
-34.4214932904
 10
28.324137101
 20
-34.4142540973
 10
28.3223803539
 20
-34.4070313246
 10
28.3203945841
 20
-34.3998133144
 10
28.3181849694
 20
-34.3925884088
 10
28.3157566879
 20
-34.38534495
 10
28.3126530577
 20
-34.3768593382
 10
28.3092600337
 20
-34.3683386475
 10
28.3055788044
 20
-34.35978892
 10
28.301610558
 20
-34.3512161975
 10
28.2973564831
 20
-34.3426265219
 10
28.292817768
 20
-34.3340259353
 10
28.2879964368
 20
-34.3254216462
 10
28.2828978569
 20
-34.3168255304
 10
28.2775282309
 20
-34.3082506304
 10
28.271893762
 20
-34.2997099887
 10
28.2660006529
 20
-34.2912166478
 10
28.2598551066
 20
-34.2827836502
 10
28.2534629923
 20
-34.2744233389
 10
28.2468288443
 20
-34.2661452594
 10
28.2399568634
 20
-34.257958258
 10
28.2328512503
 20
-34.2498711807
 10
28.2255162056
 20
-34.2418928736
 10
28.2179559301
 20
-34.2340321829
 10
28.2101754543
 20
-34.2262968741
 10
28.2021831292
 20
-34.2186903911
 10
28.1939881355
 20
-34.2112150968
 10
28.1855996539
 20
-34.2038733545
 10
28.1770268653
 20
-34.1966675274
 10
28.1682789504
 20
-34.1895999786
 10
28.1593659727
 20
-34.182673702
 10
28.1503015268
 20
-34.1758942143
 10
28.1411000899
 20
-34.169267663
 10
28.1317761393
 20
-34.1628001954
 10
28.1223441521
 20
-34.1564979589
 10
28.1128186057
 20
-34.1503671011
 10
28.1032127494
 20
-34.144412788
 10
28.0935349212
 20
-34.1386362613
 10
28.0837922315
 20
-34.1330377812
 10
28.0739917904
 20
-34.127617608
 10
28.064140708
 20
-34.1223760021
 10
28.0542460947
 20
-34.1173132238
 10
28.0443095486
 20
-34.1124284194
 10
28.0343106198
 20
-34.1077162802
 10
28.0242233464
 20
-34.1031703835
 10
28.0140217666
 20
-34.0987843066
 10
28.0036799184
 20
-34.0945516267
 10
27.9931718399
 20
-34.0904659212
  0
LINE
  5
3E9
100
AcDbEntity
  8
SCRITTA_VIMAR
100
AcDbLine
 62
250
  6
CONTINUOUS
 10
27.2349329673
 20
-35.5089179546
 11
27.2049389395
 21
-35.2673803791
  0
LINE
  5
3EA
100
AcDbEntity
  8
SCRITTA_VIMAR
100
AcDbLine
 62
250
  6
CONTINUOUS
 10
27.7336350139
 20
-35.3119274876
 11
27.7775160314
 21
-35.6667162165
  0
LINE
  5
3EB
100
AcDbEntity
  8
SCRITTA_VIMAR
100
AcDbLine
 62
250
  6
CONTINUOUS
 10
27.2049389395
 20
-35.2673803791
 11
27.1764037551
 21
-35.0301439728
  0
LINE
  5
3EC
100
AcDbEntity
  8
SCRITTA_VIMAR
100
AcDbLine
 62
250
  6
CONTINUOUS
 10
27.1764037551
 20
-35.0301439728
 11
27.1492562224
 21
-34.7973411392
  0
LWPOLYLINE
  5
3ED
100
AcDbEntity
  8
SCRITTA_VIMAR
100
AcDbPolyline
 62
250
  6
CONTINUOUS
 90
3
 70
0
 10
27.6826397797
 20
-34.878341818
 10
27.6925099038
 20
-34.964145017
 10
27.7336350139
 20
-35.3119274876
  0
LWPOLYLINE
  5
3EE
100
AcDbEntity
  8
SCRITTA_VIMAR
100
AcDbPolyline
 62
250
  6
CONTINUOUS
 90
3
 70
0
 10
27.1492562224
 20
-34.7973411392
 10
27.1234326284
 20
-34.5690766508
 10
27.1110062791
 20
-34.4566462165
  0
LINE
  5
3EF
100
AcDbEntity
  8
0
100
AcDbLine
 62
7
  6
CONTINUOUS
 10
25.7031482233
 20
4.2944605028
 11
25.7035141472
 21
4.288201052
  0
LWPOLYLINE
  5
3F0
100
AcDbEntity
  8
RACCORDO
100
AcDbPolyline
 62
250
  6
CONTINUOUS
 90
18
 70
0
 10
25.7031482233
 20
4.2944605028
 10
25.7043144222
 20
4.2723363255
 10
25.7150536599
 20
4.206911642
 10
25.7365661916
 20
4.1427130444
 10
25.7686173906
 20
4.0804407156
 10
25.8108576899
 20
4.0207738296
 10
25.8628263953
 20
3.9643631442
 10
25.9239567092
 20
3.9118239033
 10
25.9935819131
 20
3.8637291268
 10
26.0709426387
 20
3.820603361
 10
26.1551951502
 20
3.7829169578
 10
26.2454205464
 20
3.7510809445
 10
26.3406140243
 20
3.7254473254
 10
26.4397564305
 20
3.7062881304
 10
26.5418328691
 20
3.6938064214
 10
26.6457557587
 20
3.6881509177
 10
26.7503695577
 20
3.6893999809
 10
26.8545290146
 20
3.6975531325
  0
LINE
  5
3F1
100
AcDbEntity
  8
RACCORDO
100
AcDbLine
 62
250
  6
CONTINUOUS
 10
27.6725500767
 20
-29.3066539786
 11
27.7147771069
 21
-30.8830665093
  0
LINE
  5
3F2
100
AcDbEntity
  8
RACCORDO
100
AcDbLine
 62
250
  6
CONTINUOUS
 10
28.6079630937
 20
3.5473798392
 11
28.6356166692
 21
2.5158971998
  0
LINE
  5
3F3
100
AcDbEntity
  8
RACCORDO
100
AcDbLine
 62
250
  6
CONTINUOUS
 10
27.6428797745
 20
-28.162354863
 11
27.6725500767
 21
-29.3066539786
  0
LINE
  5
3F4
100
AcDbEntity
  8
RACCORDO
100
AcDbLine
 62
250
  6
CONTINUOUS
 10
27.6117547667
 20
-26.9485902897
 11
27.6428797745
 21
-28.162354863
  0
LINE
  5
3F5
100
AcDbEntity
  8
RACCORDO
100
AcDbLine
 62
250
  6
CONTINUOUS
 10
27.272701628
 20
-13.5940572363
 11
27.6117547667
 21
-26.9485902897
  0
LINE
  5
3F6
100
AcDbEntity
  8
RACCORDO
100
AcDbLine
 62
250
  6
CONTINUOUS
 10
28.6356166692
 20
2.5158971998
 11
28.6639714812
 21
1.4090815517
  0
LINE
  5
3F7
100
AcDbEntity
  8
RACCORDO
100
AcDbLine
 62
250
  6
CONTINUOUS
 10
29.0370640618
 20
-13.7498794565
 11
29.2343709633
 21
-21.5399961274
  0
LINE
  5
3F8
100
AcDbEntity
  8
RACCORDO
100
AcDbLine
 62
250
  6
CONTINUOUS
 10
29.2343709633
 20
-21.5399961274
 11
29.3248545602
 21
-25.1462920466
  0
LINE
  5
3F9
100
AcDbEntity
  8
0
100
AcDbLine
 62
7
  6
CONTINUOUS
 10
26.5633963156
 20
-30.286159139
 11
25.7031482233
 21
4.2944605028
  0
LINE
  5
3FA
100
AcDbEntity
  8
RACCORDO
100
AcDbLine
 62
250
  6
CONTINUOUS
 10
28.6639714812
 20
1.4090815517
 11
28.7408854256
 21
-1.6703100204
  0
LINE
  5
3FB
100
AcDbEntity
  8
RACCORDO
100
AcDbLine
 62
250
  6
CONTINUOUS
 10
29.3248545602
 20
-25.1462920466
 11
29.3575892358
 21
-26.4613792857
  0
LINE
  5
3FC
100
AcDbEntity
  8
RACCORDO
100
AcDbLine
 62
250
  6
CONTINUOUS
 10
28.7408854256
 20
-1.6703100204
 11
28.8278431205
 21
-5.1888283057
  0
LINE
  5
3FD
100
AcDbEntity
  8
RACCORDO
100
AcDbLine
 62
250
  6
CONTINUOUS
 10
28.8278431205
 20
-5.1888283057
 11
29.0370643337
 21
-13.7498790031
  0
LINE
  5
3FE
100
AcDbEntity
  8
RACCORDO
100
AcDbLine
 62
250
  6
CONTINUOUS
 10
29.3575892358
 20
-26.4613792857
 11
29.4312255014
 21
-29.4451050294
  0
LINE
  5
3FF
100
AcDbEntity
  8
RACCORDO
100
AcDbLine
 62
250
  6
CONTINUOUS
 10
26.8907403043
 20
2.1209041353
 11
27.272701628
 21
-13.5940572363
  0
LWPOLYLINE
  5
400
100
AcDbEntity
  8
RACCORDO
100
AcDbPolyline
 62
250
  6
CONTINUOUS
 90
3
 70
0
 10
29.4312255014
 20
-29.4451050294
 10
29.4563178691
 20
-30.5080288761
 10
29.4676277885
 20
-31.0097655855
  0
LINE
  5
401
100
AcDbEntity
  8
RACCORDO
100
AcDbLine
 62
250
  6
CONTINUOUS
 10
26.8545290146
 20
3.6975531325
 11
26.8907403043
 21
2.1209041353
  0
LWPOLYLINE
  5
402
100
AcDbEntity
  8
RACCORDO
100
AcDbPolyline
 62
250
  6
CONTINUOUS
 90
67
 70
0
 10
27.7147771069
 20
-30.8830665093
 10
27.7151410679
 20
-30.9438296679
 10
27.7126395154
 20
-31.0017250975
 10
27.7075470985
 20
-31.0567500428
 10
27.7001336206
 20
-31.1088510484
 10
27.6906672516
 20
-31.1581263523
 10
27.6793828729
 20
-31.2048125753
 10
27.6664946249
 20
-31.2489603019
 10
27.652221106
 20
-31.2906110224
 10
27.6367442081
 20
-31.3299819733
 10
27.6202500346
 20
-31.367143927
 10
27.6028988444
 20
-31.4021425604
 10
27.5847889382
 20
-31.4351475986
 10
27.5660756753
 20
-31.466201283
 10
27.5468868011
 20
-31.4953855233
 10
27.5272392344
 20
-31.5229122783
 10
27.5072347502
 20
-31.548844465
 10
27.4869843372
 20
-31.5732287934
 10
27.4664815458
 20
-31.5962319128
 10
27.4458081924
 20
-31.6179024151
 10
27.4250454527
 20
-31.6382877534
 10
27.4041572141
 20
-31.6575340338
 10
27.3831816501
 20
-31.675701526
 10
27.3622019037
 20
-31.6928086543
 10
27.3412313363
 20
-31.70892636
 10
27.3202950361
 20
-31.724110934
 10
27.2994680564
 20
-31.7383793861
 10
27.2788346943
 20
-31.751743183
 10
27.2584730764
 20
-31.7642236964
 10
27.2383990575
 20
-31.7758797633
 10
27.2185998206
 20
-31.7867778105
 10
27.1991612478
 20
-31.7969293986
 10
27.1800728416
 20
-31.806394008
 10
27.1611626336
 20
-31.815294826
 10
27.1424652317
 20
-31.82365131
 10
27.1239934178
 20
-31.8314891275
 10
27.1055234409
 20
-31.8389176586
 10
27.0871363912
 20
-31.8459215767
 10
27.068778485
 20
-31.8525390473
 10
27.0499994071
 20
-31.8589266395
 10
27.0308094095
 20
-31.8650681744
 10
27.0111937637
 20
-31.870958161
 10
26.9906337681
 20
-31.8767233838
 10
26.9690179921
 20
-31.8823457772
 10
26.9464204653
 20
-31.8877651024
 10
26.9225757645
 20
-31.8930049373
 10
26.8973709228
 20
-31.8980279327
 10
26.8708649575
 20
-31.9027534854
 10
26.8430417311
 20
-31.907123174
 10
26.8139321359
 20
-31.911067177
 10
26.7834587976
 20
-31.9145278073
 10
26.7514393154
 20
-31.9174511504
 10
26.71777149
 20
-31.919760001
 10
26.6825071014
 20
-31.9213611655
 10
26.6456944644
 20
-31.9221665397
 10
26.6073067293
 20
-31.9220937978
 10
26.5673409064
 20
-31.9210495596
 10
26.5258929832
 20
-31.9189392128
 10
26.4830869137
 20
-31.9156957818
 10
26.438803172
 20
-31.9112241428
 10
26.3927842267
 20
-31.9053779843
 10
26.3450341586
 20
-31.8980475031
 10
26.2955851206
 20
-31.8891343458
 10
26.2442307122
 20
-31.8784736413
 10
26.1909287285
 20
-31.8659198793
 10
26.1358031911
 20
-31.8513671137
 10
26.0789103999
 20
-31.8346920082
  0
LWPOLYLINE
  5
403
100
AcDbEntity
  8
RACCORDO
100
AcDbPolyline
 62
250
  6
CONTINUOUS
 90
67
 70
0
 10
29.4676264752
 20
-31.0097673449
 10
29.4673229606
 20
-31.1256394985
 10
29.461380338
 20
-31.2359393187
 10
29.4503148945
 20
-31.3407143978
 10
29.434462827
 20
-31.4399338208
 10
29.4144879472
 20
-31.5337438081
 10
29.3914681884
 20
-31.622289135
 10
29.3663537685
 20
-31.7054440861
 10
29.3393685963
 20
-31.7831548705
 10
29.3103232279
 20
-31.8559672868
 10
29.2793679575
 20
-31.9242647143
 10
29.2468751645
 20
-31.9884544825
 10
29.2128732726
 20
-32.0489867339
 10
29.1776098718
 20
-32.1058916737
 10
29.1414036896
 20
-32.1592086015
 10
29.1043318729
 20
-32.209292483
 10
29.0665838009
 20
-32.2562679559
 10
29.0283538255
 20
-32.3002490515
 10
28.989653352
 20
-32.3415637994
 10
28.9506419351
 20
-32.3803019057
 10
28.9114698475
 20
-32.4165460299
 10
28.8720876242
 20
-32.4505729464
 10
28.8325666898
 20
-32.4824954924
 10
28.7930608164
 20
-32.5123539934
 10
28.7536094341
 20
-32.5402970502
 10
28.7142541857
 20
-32.5664300216
 10
28.6751336245
 20
-32.5907910051
 10
28.6364246773
 20
-32.6134264471
 10
28.5982819021
 20
-32.6343728089
 10
28.5607313538
 20
-32.6537409496
 10
28.5237462833
 20
-32.6716869533
 10
28.4874650198
 20
-32.6882363485
 10
28.4518196312
 20
-32.7035282625
 10
28.4164134506
 20
-32.7178700895
 10
28.3812128271
 20
-32.7313209178
 10
28.3461601305
 20
-32.7439608425
 10
28.3107483265
 20
-32.7560898225
 10
28.275072991
 20
-32.7676982961
 10
28.2390951389
 20
-32.7787829288
 10
28.202090952
 20
-32.789575985
 10
28.1641197736
 20
-32.8000779334
 10
28.1252263118
 20
-32.8101845551
 10
28.0846333893
 20
-32.8198988987
 10
28.0422991174
 20
-32.8291570392
 10
27.9985459992
 20
-32.8378026809
 10
27.9531846737
 20
-32.8456381105
 10
27.9062043885
 20
-32.8524952713
 10
27.8574342302
 20
-32.8584379325
 10
27.8063446752
 20
-32.8635942322
 10
27.7527162619
 20
-32.8679139223
 10
27.696540472
 20
-32.8712357188
 10
27.6375897293
 20
-32.8734683767
 10
27.5757655837
 20
-32.8744291684
 10
27.5112339013
 20
-32.8739926461
 10
27.4441706108
 20
-32.872139077
 10
27.3745746831
 20
-32.8685112805
 10
27.3020067355
 20
-32.8631748525
 10
27.2258497816
 20
-32.8566800867
 10
27.1455544154
 20
-32.8491171351
 10
27.0611310126
 20
-32.8398532804
 10
26.9727432418
 20
-32.8283065691
 10
26.8808090263
 20
-32.814242407
 10
26.785392056
 20
-32.7975188873
 10
26.6862337663
 20
-32.7777065919
 10
26.5832766425
 20
-32.7544784212
 10
26.4766770481
 20
-32.727644801
 10
26.3665431955
 20
-32.6969660956
  0
LWPOLYLINE
  5
404
100
AcDbEntity
  8
RACCORDO
100
AcDbPolyline
 62
250
  6
CONTINUOUS
 90
5
 70
0
 10
23.0623835181
 20
-26.0611720442
 10
23.061411647
 20
-26.0707801358
 10
23.0589051421
 20
-26.0802980383
 10
23.0548899627
 20
-26.0896289191
 10
23.0494076266
 20
-26.0986766966
  0
LINE
  5
405
100
AcDbEntity
  8
DRAFT
100
AcDbLine
 62
7
  6
CONTINUOUS
 10
22.1930811174
 20
-26.5912214411
 11
22.2513224828
 21
-26.3873844847
  0
LINE
  5
406
100
AcDbEntity
  8
DRAFT
100
AcDbLine
 62
7
  6
CONTINUOUS
 10
22.3968630391
 20
-26.2994400279
 11
22.4551044045
 21
-26.0956030715
  0
LINE
  5
407
100
AcDbEntity
  8
DRAFT
100
AcDbLine
 62
7
  6
CONTINUOUS
 10
22.6006449607
 20
-26.0076586146
 11
22.6588863261
 21
-25.8038216582
  0
LINE
  5
408
100
AcDbEntity
  8
DRAFT
100
AcDbLine
 62
7
  6
CONTINUOUS
 10
22.8044268823
 20
-25.7158772014
 11
22.8626682478
 21
-25.512040245
  0
LINE
  5
409
100
AcDbEntity
  8
SCRITTA_VIMAR
100
AcDbLine
 62
250
  6
CONTINUOUS
 10
20.171436082
 20
-32.3949981515
 11
20.0705427147
 21
-32.7465755453
  0
LINE
  5
40A
100
AcDbEntity
  8
SCRITTA_VIMAR
100
AcDbLine
 62
250
  6
CONTINUOUS
 10
20.2715942453
 20
-32.0519700487
 11
20.171436082
 21
-32.3949981515
  0
LINE
  5
40B
100
AcDbEntity
  8
SCRITTA_VIMAR
100
AcDbLine
 62
250
  6
CONTINUOUS
 10
20.3949436955
 20
-31.6366224084
 11
20.2715942453
 21
-32.0519700487
  0
LINE
  5
40C
100
AcDbEntity
  8
SCRITTA_VIMAR
100
AcDbLine
 62
250
  6
CONTINUOUS
 10
20.4435429807
 20
-31.4749331972
 11
20.3949436955
 21
-31.6366224084
  0
LINE
  5
40D
100
AcDbEntity
  8
SCRITTA_VIMAR
100
AcDbLine
 62
250
  6
CONTINUOUS
 10
20.3589681107
 20
-33.4445474053
 11
20.4654468759
 21
-33.1274362253
  0
LINE
  5
40E
100
AcDbEntity
  8
SCRITTA_VIMAR
100
AcDbLine
 62
250
  6
CONTINUOUS
 10
20.4654468759
 20
-33.1274362253
 11
20.5711752826
 21
-32.8164764423
  0
LINE
  5
40F
100
AcDbEntity
  8
SCRITTA_VIMAR
100
AcDbLine
 62
250
  6
CONTINUOUS
 10
20.5711752826
 20
-32.8164764423
 11
20.6759735482
 21
-32.5119021152
  0
LWPOLYLINE
  5
410
100
AcDbEntity
  8
SCRITTA_VIMAR
100
AcDbPolyline
 62
250
  6
CONTINUOUS
 90
3
 70
0
 10
20.6759735482
 20
-32.5119021152
 10
20.7795736106
 20
-32.2141296619
 10
20.8137909461
 20
-32.1164623695
  0
LINE
  5
411
100
AcDbEntity
  8
RACCORDO
100
AcDbLine
 62
250
  6
CONTINUOUS
 10
47.5944408371
 20
13.8770482169
 11
50.0435559293
 21
16.7946146137
  0
LINE
  5
412
100
AcDbEntity
  8
DRAFT
100
AcDbLine
 62
7
  6
CONTINUOUS
 10
17.523131893
 20
-23.8368842729
 11
17.4980858993
 21
-23.8646289776
  0
LINE
  5
413
100
AcDbEntity
  8
DRAFT
100
AcDbLine
 62
7
  6
CONTINUOUS
 10
17.3478099374
 20
-24.0310972059
 11
17.2476259628
 21
-24.1420760247
  0
LINE
  5
414
100
AcDbEntity
  8
DRAFT
100
AcDbLine
 62
7
  6
CONTINUOUS
 10
17.0973500009
 20
-24.308544253
 11
16.9971660263
 21
-24.4195230718
  0
LINE
  5
415
100
AcDbEntity
  8
DRAFT
100
AcDbLine
 62
7
  6
CONTINUOUS
 10
16.8468900644
 20
-24.5859913001
 11
16.7467060898
 21
-24.6969701189
  0
LINE
  5
416
100
AcDbEntity
  8
DRAFT
100
AcDbLine
 62
7
  6
CONTINUOUS
 10
16.5964301279
 20
-24.8634383471
 11
16.5512741324
 21
-24.9134599106
  0
LWPOLYLINE
  5
417
100
AcDbEntity
  8
RACCORDO
100
AcDbPolyline
 62
250
  6
CONTINUOUS
 90
13
 70
0
 10
50.3241913813
 20
10.7390728212
 10
50.2599507242
 20
10.6790175889
 10
50.1847864513
 20
10.6239099017
 10
50.0997230569
 20
10.5745008811
 10
50.005919961
 20
10.5314639754
 10
49.9046557062
 20
10.4953857803
 10
49.7973105312
 20
10.4667580433
 10
49.6853475582
 20
10.4459709621
 10
49.5702928502
 20
10.433307866
 10
49.4537146108
 20
10.4289413538
 10
49.3372018093
 20
10.4329309412
 10
49.2223425233
 20
10.4452222498
 10
49.1107022927
 20
10.4656477481
  0
LWPOLYLINE
  5
418
100
AcDbEntity
  8
RACCORDO
100
AcDbPolyline
 62
250
  6
CONTINUOUS
 90
3
 70
0
 10
-53.5801963142
 20
43.608127811
 10
-53.542118817
 20
43.5975467602
 10
-53.3940976183
 20
43.5571634296
  0
LWPOLYLINE
  5
419
100
AcDbEntity
  8
RACCORDO
100
AcDbPolyline
 62
250
  6
CONTINUOUS
 90
3
 70
0
 10
-53.3940976183
 20
43.5571634296
 10
-53.3584571226
 20
43.5472438729
 10
-53.3234375852
 20
43.5371174995
  0
LINE
  5
41A
100
AcDbEntity
  8
RACCORDO
100
AcDbLine
 62
250
  6
CONTINUOUS
 10
47.3976411114
 20
13.9325856875
 11
47.5944408371
 21
13.8770482169
  0
LINE
  5
41B
100
AcDbEntity
  8
RACCORDO
100
AcDbLine
 62
250
  6
CONTINUOUS
 10
-53.6572884844
 20
43.630092286
 11
-53.5801963142
 21
43.608127811
  0
LINE
  5
41C
100
AcDbEntity
  8
RACCORDO
100
AcDbLine
 62
250
  6
CONTINUOUS
 10
47.2441240496
 20
13.9766937373
 11
47.3976411114
 21
13.9325856875
  0
LINE
  5
41D
100
AcDbEntity
  8
RACCORDO
100
AcDbLine
 62
250
  6
CONTINUOUS
 10
-53.7351234388
 20
43.6527265881
 11
-53.6572884844
 21
43.630092286
  0
LINE
  5
41E
100
AcDbEntity
  8
RACCORDO
100
AcDbLine
 62
250
  6
CONTINUOUS
 10
47.0979905165
 20
14.0194842113
 11
47.2441240496
 21
13.9766937373
  0
LINE
  5
41F
100
AcDbEntity
  8
RACCORDO
100
AcDbLine
 62
250
  6
CONTINUOUS
 10
40.4622874632
 20
15.9925250163
 11
41.9699719873
 21
15.546492179
  0
LINE
  5
420
100
AcDbEntity
  8
RACCORDO
100
AcDbLine
 62
250
  6
CONTINUOUS
 10
39.9635730522
 20
16.1402130902
 11
40.4622874632
 21
15.9925250163
  0
LINE
  5
421
100
AcDbEntity
  8
RACCORDO
100
AcDbLine
 62
250
  6
CONTINUOUS
 10
41.9699719873
 20
15.546492179
 11
42.8550620097
 21
15.284208895
  0
LINE
  5
422
100
AcDbEntity
  8
RACCORDO
100
AcDbLine
 62
250
  6
CONTINUOUS
 10
42.8550620097
 20
15.284208895
 11
43.4694476204
 21
15.1017175387
  0
LINE
  5
423
100
AcDbEntity
  8
RACCORDO
100
AcDbLine
 62
250
  6
CONTINUOUS
 10
43.4694476204
 20
15.1017175387
 11
43.7470938903
 21
15.019141924
  0
LINE
  5
424
100
AcDbEntity
  8
RACCORDO
100
AcDbLine
 62
250
  6
CONTINUOUS
 10
43.7470938903
 20
15.019141924
 11
44.0060071963
 21
14.9420840341
  0
LWPOLYLINE
  5
425
100
AcDbEntity
  8
RACCORDO
100
AcDbPolyline
 62
250
  6
CONTINUOUS
 90
3
 70
0
 10
44.0060071963
 20
14.9420840341
 10
44.2473395385
 20
14.8702194075
 10
44.3620082548
 20
14.8360606986
  0
LWPOLYLINE
  5
426
100
AcDbEntity
  8
RACCORDO
100
AcDbPolyline
 62
250
  6
CONTINUOUS
 90
3
 70
0
 10
44.3620082548
 20
14.8360606986
 10
44.5799291646
 20
14.7711231384
 10
44.6836961701
 20
14.7401930962
  0
LWPOLYLINE
  5
427
100
AcDbEntity
  8
RACCORDO
100
AcDbPolyline
 62
250
  6
CONTINUOUS
 90
4
 70
0
 10
44.6836961701
 20
14.7401930962
 10
44.8814640682
 20
14.6812287934
 10
44.9757996126
 20
14.6530962684
 10
45.0672430247
 20
14.6258225277
  0
LWPOLYLINE
  5
428
100
AcDbEntity
  8
RACCORDO
100
AcDbPolyline
 62
250
  6
CONTINUOUS
 90
3
 70
0
 10
38.1750357466
 20
16.672449088
 10
38.475411295
 20
16.5828765348
 10
39.9635730522
 20
16.1402130902
  0
LINE
  5
429
100
AcDbEntity
  8
RACCORDO
100
AcDbLine
 62
250
  6
CONTINUOUS
 10
-53.8526307853
 20
43.6875975763
 11
-53.7351234388
 21
43.6527265881
  0
LWPOLYLINE
  5
42A
100
AcDbEntity
  8
RACCORDO
100
AcDbPolyline
 62
250
  6
CONTINUOUS
 90
3
 70
0
 10
45.0672430247
 20
14.6258225277
 10
46.7412400083
 20
14.1259869011
 10
46.7792801033
 20
14.1146186462
  0
LINE
  5
42B
100
AcDbEntity
  8
RACCORDO
100
AcDbLine
 62
250
  6
CONTINUOUS
 10
36.7803694756
 20
17.0874527177
 11
38.1750357466
 21
16.672449088
  0
LINE
  5
42C
100
AcDbEntity
  8
RACCORDO
100
AcDbLine
 62
250
  6
CONTINUOUS
 10
46.9585078203
 20
14.0610204502
 11
47.0979905165
 21
14.0194842113
  0
LINE
  5
42D
100
AcDbEntity
  8
RACCORDO
100
AcDbLine
 62
250
  6
CONTINUOUS
 10
46.7792801033
 20
14.1146186462
 11
46.9585078203
 21
14.0610204502
  0
LINE
  5
42E
100
AcDbEntity
  8
RACCORDO
100
AcDbLine
 62
250
  6
CONTINUOUS
 10
-53.3234375852
 20
43.5371174995
 11
-53.2541622981
 21
43.5164340247
  0
LINE
  5
42F
100
AcDbEntity
  8
RACCORDO
100
AcDbLine
 62
250
  6
CONTINUOUS
 10
36.1430895412
 20
17.2791392144
 11
36.7803694756
 21
17.0874527177
  0
LINE
  5
430
100
AcDbEntity
  8
RACCORDO
100
AcDbLine
 62
250
  6
CONTINUOUS
 10
-42.5657962947
 20
40.2591361747
 11
-42.336203738
 21
40.1896974313
  0
LINE
  5
431
100
AcDbEntity
  8
RACCORDO
100
AcDbLine
 62
250
  6
CONTINUOUS
 10
-53.9310991199
 20
43.7112645008
 11
-53.8526307853
 21
43.6875975763
  0
LINE
  5
432
100
AcDbEntity
  8
RACCORDO
100
AcDbLine
 62
250
  6
CONTINUOUS
 10
34.6398092086
 20
17.7341294824
 11
35.1754447724
 21
17.5719620921
  0
LINE
  5
433
100
AcDbEntity
  8
RACCORDO
100
AcDbLine
 62
250
  6
CONTINUOUS
 10
34.3598153504
 20
17.8189161492
 11
34.6398092086
 21
17.7341294824
  0
LINE
  5
434
100
AcDbEntity
  8
RACCORDO
100
AcDbLine
 62
250
  6
CONTINUOUS
 10
35.1754447724
 20
17.5719620921
 11
36.1430895412
 21
17.2791392144
  0
LINE
  5
435
100
AcDbEntity
  8
RACCORDO
100
AcDbLine
 62
250
  6
CONTINUOUS
 10
33.7765951282
 20
17.9955738215
 11
34.3598153504
 21
17.8189161492
  0
LINE
  5
436
100
AcDbEntity
  8
RACCORDO
100
AcDbLine
 62
250
  6
CONTINUOUS
 10
33.1614522119
 20
18.1820237313
 11
33.7765951282
 21
17.9955738215
  0
LINE
  5
437
100
AcDbEntity
  8
RACCORDO
100
AcDbLine
 62
250
  6
CONTINUOUS
 10
32.1768594367
 20
18.4807484173
 11
33.1614522119
 21
18.1820237313
  0
LINE
  5
438
100
AcDbEntity
  8
RACCORDO
100
AcDbLine
 62
250
  6
CONTINUOUS
 10
-44.1141293447
 20
40.7265967082
 11
-42.5657962947
 21
40.2591361747
  0
LINE
  5
439
100
AcDbEntity
  8
RACCORDO
100
AcDbLine
 62
250
  6
CONTINUOUS
 10
30.3571748621
 20
19.0338614262
 11
32.1768594367
 21
18.4807484173
  0
LINE
  5
43A
100
AcDbEntity
  8
RACCORDO
100
AcDbLine
 62
250
  6
CONTINUOUS
 10
-45.3178236166
 20
41.09606529
 11
-45.02509622
 21
41.0070971771
  0
LINE
  5
43B
100
AcDbEntity
  8
RACCORDO
100
AcDbLine
 62
250
  6
CONTINUOUS
 10
-47.2583809117
 20
41.6861486802
 11
-45.3178236166
 21
41.09606529
  0
LWPOLYLINE
  5
43C
100
AcDbEntity
  8
RACCORDO
100
AcDbPolyline
 62
250
  6
CONTINUOUS
 90
4
 70
0
 10
-49.4061894446
 20
42.3416194245
 10
-49.2682648663
 20
42.2994807439
 10
-49.1259197385
 20
42.2559876086
 10
-47.2583809117
 20
41.6861486802
  0
LINE
  5
43D
100
AcDbEntity
  8
RACCORDO
100
AcDbLine
 62
250
  6
CONTINUOUS
 10
-49.6687743415
 20
42.4218344773
 11
-49.4061894446
 21
42.3416194245
  0
LINE
  5
43E
100
AcDbEntity
  8
RACCORDO
100
AcDbLine
 62
250
  6
CONTINUOUS
 10
27.3845216746
 20
19.9402985087
 11
30.3571748621
 21
19.0338614262
  0
LINE
  5
43F
100
AcDbEntity
  8
RACCORDO
100
AcDbLine
 62
250
  6
CONTINUOUS
 10
-41.3343000544
 20
39.8833410105
 11
-40.7831652521
 21
39.7148281006
  0
LINE
  5
440
100
AcDbEntity
  8
RACCORDO
100
AcDbLine
 62
250
  6
CONTINUOUS
 10
-40.7831652521
 20
39.7148281006
 11
-40.4959511609
 21
39.6270350857
  0
LWPOLYLINE
  5
441
100
AcDbEntity
  8
RACCORDO
100
AcDbPolyline
 62
250
  6
CONTINUOUS
 90
3
 70
0
 10
-42.336203738
 20
40.1896974313
 10
-41.8519995966
 20
40.0417319184
 10
-41.3343000544
 20
39.8833410105
  0
LINE
  5
442
100
AcDbEntity
  8
RACCORDO
100
AcDbLine
 62
250
  6
CONTINUOUS
 10
-40.4959511609
 20
39.6270350857
 11
-34.2687069632
 21
37.7224454314
  0
LINE
  5
443
100
AcDbEntity
  8
RACCORDO
100
AcDbLine
 62
250
  6
CONTINUOUS
 10
24.3716024439
 20
20.8623771172
 11
27.3845216746
 21
19.9402985087
  0
LINE
  5
444
100
AcDbEntity
  8
RACCORDO
100
AcDbLine
 62
250
  6
CONTINUOUS
 10
-34.2687069632
 20
37.7224454314
 11
-31.3331600776
 21
36.8229885909
  0
LINE
  5
445
100
AcDbEntity
  8
RACCORDO
100
AcDbLine
 62
250
  6
CONTINUOUS
 10
37.3064567608
 20
15.723070637
 11
37.9353099824
 21
15.5307788487
  0
LINE
  5
446
100
AcDbEntity
  8
RACCORDO
100
AcDbLine
 62
250
  6
CONTINUOUS
 10
-53.2541622981
 20
43.5164340247
 11
-53.1115859937
 21
43.4728086218
  0
LINE
  5
447
100
AcDbEntity
  8
RACCORDO
100
AcDbLine
 62
250
  6
CONTINUOUS
 10
-53.1115859937
 20
43.4728086218
 11
-49.6687743415
 21
42.4218344773
  0
LINE
  5
448
100
AcDbEntity
  8
RACCORDO
100
AcDbLine
 62
250
  6
CONTINUOUS
 10
-31.3331600776
 20
36.8229885909
 11
-27.9073143652
 21
35.771971796
  0
LINE
  5
449
100
AcDbEntity
  8
RACCORDO
100
AcDbLine
 62
250
  6
CONTINUOUS
 10
22.6787663639
 20
21.3817062717
 11
24.3716024439
 21
20.8623771172
  0
LINE
  5
44A
100
AcDbEntity
  8
RACCORDO
100
AcDbLine
 62
250
  6
CONTINUOUS
 10
-28.1238107402
 20
36.9826800125
 11
-23.5218218344
 21
35.5713852061
  0
LWPOLYLINE
  5
44B
100
AcDbEntity
  8
RACCORDO
100
AcDbPolyline
 62
250
  6
CONTINUOUS
 90
3
 70
0
 10
-27.9073143652
 20
35.771971796
 10
-24.6220878809
 20
34.7631593002
 10
19.149862538
 20
21.3212497993
  0
LINE
  5
44C
100
AcDbEntity
  8
RACCORDO
100
AcDbLine
 62
250
  6
CONTINUOUS
 10
19.149862538
 20
21.3212497993
 11
22.8663684491
 21
20.1794856216
  0
LINE
  5
44D
100
AcDbEntity
  8
RACCORDO
100
AcDbLine
 62
250
  6
CONTINUOUS
 10
20.8468646281
 20
21.9444800805
 11
22.6787663639
 21
21.3817062717
  0
LINE
  5
44E
100
AcDbEntity
  8
RACCORDO
100
AcDbLine
 62
250
  6
CONTINUOUS
 10
22.8663684491
 20
20.1794856216
 11
25.5454947541
 21
19.3554940349
  0
LINE
  5
44F
100
AcDbEntity
  8
RACCORDO
100
AcDbLine
 62
250
  6
CONTINUOUS
 10
-30.9403843308
 20
37.8484606333
 11
-28.1238107402
 21
36.9826800125
  0
LWPOLYLINE
  5
450
100
AcDbEntity
  8
RACCORDO
100
AcDbPolyline
 62
250
  6
CONTINUOUS
 90
3
 70
0
 10
-23.5218218344
 20
35.5713852061
 10
18.1648493745
 20
22.7693563414
 10
20.8468646281
 20
21.9444800805
  0
LINE
  5
451
100
AcDbEntity
  8
RACCORDO
100
AcDbLine
 62
250
  6
CONTINUOUS
 10
37.9353099824
 20
15.5307788487
 11
38.2303059797
 21
15.440136817
  0
LINE
  5
452
100
AcDbEntity
  8
RACCORDO
100
AcDbLine
 62
250
  6
CONTINUOUS
 10
25.5454947541
 20
19.3554940349
 11
27.8982413991
 21
18.6311403891
  0
LINE
  5
453
100
AcDbEntity
  8
RACCORDO
100
AcDbLine
 62
250
  6
CONTINUOUS
 10
-45.02509622
 20
41.0070971771
 11
-44.5830946362
 21
40.8712056422
  0
LINE
  5
454
100
AcDbEntity
  8
RACCORDO
100
AcDbLine
 62
250
  6
CONTINUOUS
 10
27.8982413991
 20
18.6311403891
 11
30.7216841799
 21
17.7609490358
  0
LINE
  5
455
100
AcDbEntity
  8
RACCORDO
100
AcDbLine
 62
250
  6
CONTINUOUS
 10
42.7763841485
 20
14.0330311349
 11
43.0729244874
 21
13.9414803522
  0
LWPOLYLINE
  5
456
100
AcDbEntity
  8
RACCORDO
100
AcDbPolyline
 62
250
  6
CONTINUOUS
 90
3
 70
0
 10
42.1217030204
 20
14.2351098869
 10
42.293521226
 20
14.18206116
 10
42.7763841485
 20
14.0330311349
  0
LWPOLYLINE
  5
457
100
AcDbEntity
  8
RACCORDO
100
AcDbPolyline
 62
250
  6
CONTINUOUS
 90
3
 70
0
 10
41.576200041
 20
14.4035944499
 10
41.7630763825
 20
14.3458624865
 10
42.1217030204
 20
14.2351098869
  0
LWPOLYLINE
  5
458
100
AcDbEntity
  8
RACCORDO
100
AcDbPolyline
 62
250
  6
CONTINUOUS
 90
5
 70
0
 10
43.0729244874
 20
13.9414803522
 10
45.6400851692
 20
13.1484324157
 10
45.7012985609
 20
13.1295198399
 10
45.7608753926
 20
13.1111171628
 10
45.9821806162
 20
13.042773421
  0
LINE
  5
459
100
AcDbEntity
  8
RACCORDO
100
AcDbLine
 62
250
  6
CONTINUOUS
 10
-34.320516278
 20
38.8908328296
 11
-30.9403843308
 21
37.8484606333
  0
LINE
  5
45A
100
AcDbEntity
  8
RACCORDO
100
AcDbLine
 62
250
  6
CONTINUOUS
 10
-44.5830946362
 20
40.8712056422
 11
-44.1141293447
 21
40.7265967082
  0
LINE
  5
45B
100
AcDbEntity
  8
RACCORDO
100
AcDbLine
 62
250
  6
CONTINUOUS
 10
41.1929478544
 20
14.5220308575
 11
41.576200041
 21
14.4035944499
  0
LWPOLYLINE
  5
45C
100
AcDbEntity
  8
RACCORDO
100
AcDbPolyline
 62
250
  6
CONTINUOUS
 90
3
 70
0
 10
40.6167198484
 20
14.7002159067
 10
40.8068148421
 20
14.6414193286
 10
41.1929478544
 20
14.5220308575
  0
LINE
  5
45D
100
AcDbEntity
  8
RACCORDO
100
AcDbLine
 62
250
  6
CONTINUOUS
 10
40.2477935823
 20
14.8143804928
 11
40.6167198484
 21
14.7002159067
  0
LINE
  5
45E
100
AcDbEntity
  8
RACCORDO
100
AcDbLine
 62
250
  6
CONTINUOUS
 10
-35.9944831787
 20
39.4086729647
 11
-34.320516278
 21
38.8908328296
  0
LINE
  5
45F
100
AcDbEntity
  8
RACCORDO
100
AcDbLine
 62
250
  6
CONTINUOUS
 10
39.7335729999
 20
14.9736338506
 11
40.2477935823
 21
14.8143804928
  0
LINE
  5
460
100
AcDbEntity
  8
RACCORDO
100
AcDbLine
 62
250
  6
CONTINUOUS
 10
39.4140573101
 20
15.0726732803
 11
39.7335729999
 21
14.9736338506
  0
LINE
  5
461
100
AcDbEntity
  8
RACCORDO
100
AcDbLine
 62
250
  6
CONTINUOUS
 10
-37.8591488985
 20
39.9868428045
 11
-35.9944831787
 21
39.4086729647
  0
LINE
  5
462
100
AcDbEntity
  8
RACCORDO
100
AcDbLine
 62
250
  6
CONTINUOUS
 10
38.2303059797
 20
15.440136817
 11
39.4140573101
 21
15.0726732803
  0
LINE
  5
463
100
AcDbEntity
  8
RACCORDO
100
AcDbLine
 62
250
  6
CONTINUOUS
 10
-39.8007132731
 20
40.5903524093
 11
-37.8591488985
 21
39.9868428045
  0
LWPOLYLINE
  5
464
100
AcDbEntity
  8
RACCORDO
100
AcDbPolyline
 62
250
  6
CONTINUOUS
 90
3
 70
0
 10
30.7216841799
 20
17.7609490358
 10
35.7503225904
 20
16.2089405709
 10
36.3893786654
 20
16.0090099579
  0
LINE
  5
465
100
AcDbEntity
  8
RACCORDO
100
AcDbLine
 62
250
  6
CONTINUOUS
 10
36.3893786654
 20
16.0090099579
 11
37.3064567608
 21
15.723070637
  0
LINE
  5
466
100
AcDbEntity
  8
RACCORDO
100
AcDbLine
 62
250
  6
CONTINUOUS
 10
-42.5949145529
 20
41.4612567037
 11
-39.8007132731
 21
40.5903524093
  0
LWPOLYLINE
  5
467
100
AcDbEntity
  8
RACCORDO
100
AcDbPolyline
 62
250
  6
CONTINUOUS
 90
6
 70
0
 10
45.9821806162
 20
13.042773421
 10
46.5579602421
 20
12.8648786397
 10
46.5928440958
 20
12.8538219622
 10
46.6281561403
 20
12.8423573771
 10
46.6640610649
 20
12.8303148575
 10
46.737660901
 20
12.8051660525
  0
LINE
  5
468
100
AcDbEntity
  8
RACCORDO
100
AcDbLine
 62
250
  6
CONTINUOUS
 10
47.0919075337
 20
12.6888438301
 11
47.2136076931
 21
12.650704924
  0
LINE
  5
469
100
AcDbEntity
  8
RACCORDO
100
AcDbLine
 62
250
  6
CONTINUOUS
 10
-52.8367277647
 20
44.7069046184
 11
-52.7667687496
 21
44.6848561845
  0
LINE
  5
46A
100
AcDbEntity
  8
RACCORDO
100
AcDbLine
 62
250
  6
CONTINUOUS
 10
-43.3632804748
 20
41.7036168325
 11
-42.5949145529
 21
41.4612567037
  0
LINE
  5
46B
100
AcDbEntity
  8
RACCORDO
100
AcDbLine
 62
250
  6
CONTINUOUS
 10
-52.7667687496
 20
44.6848561845
 11
-49.9614384058
 21
43.7987024635
  0
LINE
  5
46C
100
AcDbEntity
  8
RACCORDO
100
AcDbLine
 62
250
  6
CONTINUOUS
 10
-44.1730674498
 20
41.9605994671
 11
-43.3632804748
 21
41.7036168325
  0
LINE
  5
46D
100
AcDbEntity
  8
RACCORDO
100
AcDbLine
 62
250
  6
CONTINUOUS
 10
-49.9614384058
 20
43.7987024635
 11
-48.8514589406
 21
43.4468174942
  0
LINE
  5
46E
100
AcDbEntity
  8
RACCORDO
100
AcDbLine
 62
250
  6
CONTINUOUS
 10
-46.3199229239
 20
42.6410384715
 11
-44.1730674498
 21
41.9605994671
  0
LWPOLYLINE
  5
46F
100
AcDbEntity
  8
RACCORDO
100
AcDbPolyline
 62
250
  6
CONTINUOUS
 90
3
 70
0
 10
-48.8514589406
 20
43.4468174942
 10
-47.5623287331
 20
43.0367479807
 10
-46.6652344935
 20
42.7509819476
  0
LINE
  5
470
100
AcDbEntity
  8
RACCORDO
100
AcDbLine
 62
250
  6
CONTINUOUS
 10
-46.6652344935
 20
42.7509819476
 11
-46.3199229239
 21
42.6410384715
  0
LINE
  5
471
100
AcDbEntity
  8
RACCORDO
100
AcDbLine
 62
250
  6
CONTINUOUS
 10
-53.0440823513
 20
44.772587795
 11
-52.8367277647
 21
44.7069046184
  0
LINE
  5
472
100
AcDbEntity
  8
RACCORDO
100
AcDbLine
 62
250
  6
CONTINUOUS
 10
46.9711817274
 20
12.7273961142
 11
47.0919075337
 21
12.6888438301
  0
LINE
  5
473
100
AcDbEntity
  8
RACCORDO
100
AcDbLine
 62
250
  6
CONTINUOUS
 10
-53.1893413399
 20
44.8195369276
 11
-53.0440823513
 21
44.772587795
  0
LWPOLYLINE
  5
474
100
AcDbEntity
  8
RACCORDO
100
AcDbPolyline
 62
250
  6
CONTINUOUS
 90
22
 70
0
 10
47.5944408371
 20
13.8770482169
 10
47.7636697738
 20
13.8211674237
 10
47.9382288042
 20
13.7535211951
 10
48.11733972
 20
13.6734817456
 10
48.3008008931
 20
13.5801667277
 10
48.4867637772
 20
13.4733913001
 10
48.671852951
 20
13.354048321
 10
48.8551121644
 20
13.2219722706
 10
49.0348638942
 20
13.0776496658
 10
49.2069576412
 20
12.9238712993
 10
49.3695600886
 20
12.7622224808
 10
49.5224572733
 20
12.5929395349
 10
49.664369629
 20
12.4173256852
 10
49.7944054118
 20
12.236415445
 10
49.9117549736
 20
12.0512695468
 10
50.0154863575
 20
11.8633303716
 10
50.1049392274
 20
11.6738567314
 10
50.1796782216
 20
11.4838174776
 10
50.2392873484
 20
11.2942379094
 10
50.2834104399
 20
11.1061891271
 10
50.311771487
 20
10.9207808036
 10
50.3241913813
 20
10.7390728212
  0
LINE
  5
475
100
AcDbEntity
  8
RACCORDO
100
AcDbLine
 62
250
  6
CONTINUOUS
 10
-53.339727601
 20
44.86896155
 11
-53.1893413399
 21
44.8195369276
  0
LWPOLYLINE
  5
476
100
AcDbEntity
  8
RACCORDO
100
AcDbPolyline
 62
250
  6
CONTINUOUS
 90
3
 70
0
 10
46.8526186091
 20
12.7662169998
 10
46.8917840053
 20
12.7532620416
 10
46.9711817274
 20
12.7273961142
  0
LINE
  5
477
100
AcDbEntity
  8
RACCORDO
100
AcDbLine
 62
250
  6
CONTINUOUS
 10
-53.4918527774
 20
44.9196696662
 11
-53.339727601
 21
44.86896155
  0
LWPOLYLINE
  5
478
100
AcDbEntity
  8
RACCORDO
100
AcDbPolyline
 62
250
  6
CONTINUOUS
 90
22
 70
0
 10
47.2136101138
 20
12.6507076758
 10
47.331196785
 20
12.6109642054
 10
47.4523878939
 20
12.5632477117
 10
47.576573535
 20
12.5071354998
 10
47.703580022
 20
12.4419750901
 10
47.8321459427
 20
12.3676241877
 10
47.9600147411
 20
12.2847291131
 10
48.0865552042
 20
12.1931783412
 10
48.2106004188
 20
12.09325226
 10
48.3293253342
 20
11.9868544814
 10
48.4415089646
 20
11.8750561551
 10
48.5470501959
 20
11.7579811452
 10
48.6451037226
 20
11.6364762352
 10
48.7350675469
 20
11.5112014077
 10
48.8164474307
 20
11.3828583855
 10
48.8886444544
 20
11.2524036424
 10
48.9511951328
 20
11.1206635854
 10
49.0038344225
 20
10.9882606275
 10
49.0463278744
 20
10.8558498996
 10
49.0784197285
 20
10.7241160123
 10
49.0999032039
 20
10.5937955956
 10
49.1107045962
 20
10.4656515657
  0
LINE
  5
479
100
AcDbEntity
  8
RACCORDO
100
AcDbLine
 62
250
  6
CONTINUOUS
 10
46.737660901
 20
12.8051660525
 11
46.8526186091
 21
12.7662169998
  0
LWPOLYLINE
  5
47A
100
AcDbEntity
  8
0
100
AcDbPolyline
 62
7
  6
CONTINUOUS
 90
18
 70
0
 10
25.7035141472
 20
4.288201052
 10
25.7030239585
 20
4.2905509203
 10
25.7002412729
 20
4.3010956975
 10
25.6939122878
 20
4.3192749406
 10
25.6832078175
 20
4.3438679349
 10
25.6677947897
 20
4.373293962
 10
25.647491318
 20
4.4063388276
 10
25.6222300225
 20
4.4419689632
 10
25.5921553369
 20
4.4791162659
 10
25.5574447948
 20
4.516887421
 10
25.5187440672
 20
4.5540905584
 10
25.4771285894
 20
4.5894523736
 10
25.4334680675
 20
4.6221861282
 10
25.3887803228
 20
4.6516011795
 10
25.3445994766
 20
4.6769324168
 10
25.3021812707
 20
4.6978766637
 10
25.2624295606
 20
4.7144882604
 10
25.2263338888
 20
4.7269148671
  0
LINE
  5
47B
100
AcDbEntity
  8
SCRITTA_VIMAR
100
AcDbLine
 62
250
  6
CONTINUOUS
 10
25.647487509
 20
-34.3524670722
 11
25.727001442
 21
-34.0651435428
  0
LINE
  5
47C
100
AcDbEntity
  8
SCRITTA_VIMAR
100
AcDbLine
 62
250
  6
CONTINUOUS
 10
25.727001442
 20
-34.0651435428
 11
25.805716496
 21
-33.7841080558
  0
LINE
  5
47D
100
AcDbEntity
  8
SCRITTA_VIMAR
100
AcDbLine
 62
250
  6
CONTINUOUS
 10
25.805716496
 20
-33.7841080558
 11
25.8369570853
 21
-33.6734780039
  0
LINE
  5
47E
100
AcDbEntity
  8
SCRITTA_VIMAR
100
AcDbLine
 62
250
  6
CONTINUOUS
 10
25.4714807479
 20
-34.9898304034
 11
25.5500783892
 21
-34.7113631697
  0
LINE
  5
47F
100
AcDbEntity
  8
SCRITTA_VIMAR
100
AcDbLine
 62
250
  6
CONTINUOUS
 10
25.5500783892
 20
-34.7113631697
 11
25.5725132886
 21
-34.6324957455
  0
LINE
  5
480
100
AcDbEntity
  8
SCRITTA_VIMAR
100
AcDbLine
 62
250
  6
CONTINUOUS
 10
25.0729247232
 20
-34.4033720381
 11
24.9349521916
 21
-34.8301855855
  0
LINE
  5
481
100
AcDbEntity
  8
SCRITTA_VIMAR
100
AcDbLine
 62
250
  6
CONTINUOUS
 10
25.2415195922
 20
-33.8904746129
 11
25.0729247232
 21
-34.4033720381
  0
LINE
  5
482
100
AcDbEntity
  8
SCRITTA_VIMAR
100
AcDbLine
 62
250
  6
CONTINUOUS
 10
25.4049299287
 20
-33.4015579555
 11
25.2415195922
 21
-33.8904746129
  0
LINE
  5
483
100
AcDbEntity
  8
SCRITTA_VIMAR
100
AcDbLine
 62
250
  6
CONTINUOUS
 10
25.5310395439
 20
-33.0287801379
 11
25.4049299287
 21
-33.4015579555
  0
LINE
  5
484
100
AcDbEntity
  8
SCRITTA_VIMAR
100
AcDbLine
 62
250
  6
CONTINUOUS
 10
20.8137909461
 20
-32.1164623695
 11
20.9153669725
 21
-31.8284028788
  0
LINE
  5
485
100
AcDbEntity
  8
SCRITTA_VIMAR
100
AcDbLine
 62
250
  6
CONTINUOUS
 10
20.9153669725
 20
-31.8284028788
 11
20.9821039163
 21
-31.6405816725
  0
LINE
  5
486
100
AcDbEntity
  8
SCRITTA_VIMAR
100
AcDbLine
 62
250
  6
CONTINUOUS
 10
23.6607983557
 20
-32.9685546615
 11
23.4266600006
 21
-33.5069017202
  0
LINE
  5
487
100
AcDbEntity
  8
SCRITTA_VIMAR
100
AcDbLine
 62
250
  6
CONTINUOUS
 10
23.8573480703
 20
-32.5211584378
 11
23.6607983557
 21
-32.9685546615
  0
LWPOLYLINE
  5
488
100
AcDbEntity
  8
RACCORDO
100
AcDbPolyline
 62
250
  6
CONTINUOUS
 90
13
 70
0
 10
47.5944419742
 20
13.8770285361
 10
47.545546882
 20
13.8000854819
 10
47.4979007399
 20
13.7140733424
 10
47.4521508538
 20
13.6201606516
 10
47.4089187675
 20
13.5196232779
 10
47.3687918188
 20
13.4138270904
 10
47.3323151604
 20
13.3042094031
 10
47.2999843534
 20
13.1922594473
 10
47.2722386348
 20
13.0794981399
 10
47.2494549503
 20
12.9674574204
 10
47.2319428331
 20
12.8576594385
 10
47.2199401991
 20
12.751595875
 10
47.2136101138
 20
12.6507076758
  0
LINE
  5
489
100
AcDbEntity
  8
RACCORDO
100
AcDbLine
 62
250
  6
CONTINUOUS
 10
22.5924748545
 20
-26.7686541254
 11
23.0494076266
 21
-26.0986766966
  0
LINE
  5
48A
100
AcDbEntity
  8
RACCORDO
100
AcDbLine
 62
7
  6
CONTINUOUS
 10
22.6087518315
 20
-26.7736526274
 11
23.0363472169
 21
-26.1466911258
  0
LINE
  5
48B
100
AcDbEntity
  8
DRAFT
100
AcDbLine
 62
7
  6
CONTINUOUS
 10
22.8830464399
 20
-25.4828621036
 11
22.8626682478
 21
-25.512040245
  0
LINE
  5
48C
100
AcDbEntity
  8
DRAFT
100
AcDbLine
 62
7
  6
CONTINUOUS
 10
22.7403990948
 20
-25.6871090929
 11
22.6588863261
 21
-25.8038216582
  0
LINE
  5
48D
100
AcDbEntity
  8
DRAFT
100
AcDbLine
 62
7
  6
CONTINUOUS
 10
22.5366171731
 20
-25.9788905062
 11
22.4551044045
 21
-26.0956030715
  0
LINE
  5
48E
100
AcDbEntity
  8
DRAFT
100
AcDbLine
 62
7
  6
CONTINUOUS
 10
22.3328352515
 20
-26.2706719194
 11
22.2513224828
 21
-26.3873844847
  0
LINE
  5
48F
100
AcDbEntity
  8
DRAFT
100
AcDbLine
 62
7
  6
CONTINUOUS
 10
22.1290533299
 20
-26.5624533326
 11
22.0923130206
 21
-26.6150592718
  0
LINE
  5
490
100
AcDbEntity
  8
RACCORDO
100
AcDbLine
 62
250
  6
CONTINUOUS
 10
50.3241913813
 20
10.7390728212
 11
52.769687701
 21
13.6523282696
  0
LINE
  5
491
100
AcDbEntity
  8
RACCORDO
100
AcDbLine
 62
7
  6
CONTINUOUS
 10
22.8830464399
 20
-25.4828621036
 11
23.0328783345
 21
-25.4342251643
  0
LINE
  5
492
100
AcDbEntity
  8
RACCORDO
100
AcDbLine
 62
7
  6
CONTINUOUS
 10
50.0435559293
 20
16.7946146137
 11
-51.5001002225
 21
47.9776876673
  0
LINE
  5
493
100
AcDbEntity
  8
SCRITTA_VIMAR
100
AcDbLine
 62
250
  6
CONTINUOUS
 10
23.5648024187
 20
-34.4193684929
 11
23.6908039521
 21
-34.1299666664
  0
LINE
  5
494
100
AcDbEntity
  8
SCRITTA_VIMAR
100
AcDbLine
 62
250
  6
CONTINUOUS
 10
23.6908039521
 20
-34.1299666664
 11
23.8156895747
 21
-33.8450231798
  0
LINE
  5
495
100
AcDbEntity
  8
SCRITTA_VIMAR
100
AcDbLine
 62
250
  6
CONTINUOUS
 10
23.8156895747
 20
-33.8450231798
 11
23.9392665942
 21
-33.5648367287
  0
LINE
  5
496
100
AcDbEntity
  8
SCRITTA_VIMAR
100
AcDbLine
 62
250
  6
CONTINUOUS
 10
23.9392665942
 20
-33.5648367287
 11
24.0613911673
 21
-33.2896408479
  0
LWPOLYLINE
  5
497
100
AcDbEntity
  8
RACCORDO
100
AcDbPolyline
 62
250
  6
CONTINUOUS
 90
18
 70
0
 10
26.2266797791
 20
-30.4394191774
 10
26.1850129918
 20
-30.5301576781
 10
26.146072546
 20
-30.6251590891
 10
26.1102912768
 20
-30.7233674402
 10
26.0780669042
 20
-30.8236911155
 10
26.0497576118
 20
-30.9250149863
 10
26.0256780663
 20
-31.0262128065
 10
26.0060959191
 20
-31.1261597311
 10
25.991228832
 20
-31.2237448193
 10
25.9812420572
 20
-31.3178833826
 10
25.9762466007
 20
-31.407529042
 10
25.9762979887
 20
-31.4916853582
 10
25.9813935541
 20
-31.5693964561
 10
25.9914760073
 20
-31.6398230169
 10
26.0064476823
 20
-31.702230684
 10
26.0261599079
 20
-31.7559176657
 10
26.0504008038
 20
-31.8002444376
 10
26.0789103999
 20
-31.8346920082
  0
LWPOLYLINE
  5
498
100
AcDbEntity
  8
RACCORDO
100
AcDbPolyline
 62
250
  6
CONTINUOUS
 90
5
 70
0
 10
26.411003002
 20
-30.1383245021
 10
26.3632864452
 20
-30.2025634696
 10
26.3163146656
 20
-30.2747066578
 10
26.2706097689
 20
-30.3539521732
 10
26.2266797791
 20
-30.4394191774
  0
LINE
  5
499
100
AcDbEntity
  8
ASSI
100
AcDbLine
 62
250
  6
CONTINUOUS
 10
23.4248431021
 20
-27.9456046049
 11
24.0153575177
 21
-27.2056076065
  0
LINE
  5
49A
100
AcDbEntity
  8
ASSI
100
AcDbLine
 62
250
  6
CONTINUOUS
 10
25.6199868416
 20
-28.275444003
 11
25.39933476
 21
-28.5519518643
  0
LINE
  5
49B
100
AcDbEntity
  8
ASSI
100
AcDbLine
 62
250
  6
CONTINUOUS
 10
26.555222807
 20
-29.9575969535
 11
26.411003002
 21
-30.1383245021
  0
LINE
  5
49C
100
AcDbEntity
  8
RACCORDO
100
AcDbLine
 62
250
  6
CONTINUOUS
 10
49.1299631822
 20
10.1038901185
 11
49.13448933
 21
10.0372103721
  0
LINE
  5
49D
100
AcDbEntity
  8
RACCORDO
100
AcDbLine
 62
250
  6
CONTINUOUS
 10
49.1234916198
 20
10.2093565796
 11
49.1299631822
 21
10.1038901185
  0
LWPOLYLINE
  5
49E
100
AcDbEntity
  8
RACCORDO
100
AcDbPolyline
 62
250
  6
CONTINUOUS
 90
3
 70
0
 10
49.13448933
 20
10.0372103721
 10
49.1363895841
 20
10.0043138333
 10
49.1376927941
 20
9.9714872024
  0
LINE
  5
49F
100
AcDbEntity
  8
RACCORDO
100
AcDbLine
 62
250
  6
CONTINUOUS
 10
49.1191856188
 20
10.2875030837
 11
49.1234916198
 21
10.2093565796
  0
LINE
  5
4A0
100
AcDbEntity
  8
RACCORDO
100
AcDbLine
 62
250
  6
CONTINUOUS
 10
49.1149101916
 20
10.3728619988
 11
49.1191856188
 21
10.2875030837
  0
LINE
  5
4A1
100
AcDbEntity
  8
RACCORDO
100
AcDbLine
 62
250
  6
CONTINUOUS
 10
49.1107022927
 20
10.4656477481
 11
49.1149101916
 21
10.3728619988
  0
LWPOLYLINE
  5
4A2
100
AcDbEntity
  8
RACCORDO
100
AcDbPolyline
 62
250
  6
CONTINUOUS
 90
3
 70
0
 10
51.7339465565
 20
-46.0511498679
 10
51.735316075
 20
-46.0874099246
 10
51.7417775743
 20
-46.2456614501
  0
LINE
  5
4A3
100
AcDbEntity
  8
RACCORDO
100
AcDbLine
 62
250
  6
CONTINUOUS
 10
49.2568473272
 20
5.8147471604
 11
49.3220663764
 21
3.474312009
  0
LINE
  5
4A4
100
AcDbEntity
  8
RACCORDO
100
AcDbLine
 62
250
  6
CONTINUOUS
 10
49.1376927941
 20
9.9714872024
 11
49.2568473272
 21
5.8147471604
  0
LINE
  5
4A5
100
AcDbEntity
  8
RACCORDO
100
AcDbLine
 62
250
  6
CONTINUOUS
 10
49.3220663764
 20
3.474312009
 11
49.4633044967
 21
-1.6996017864
  0
LINE
  5
4A6
100
AcDbEntity
  8
RACCORDO
100
AcDbLine
 62
250
  6
CONTINUOUS
 10
49.4633044967
 20
-1.6996017864
 11
49.5314106298
 21
-4.2318943416
  0
LINE
  5
4A7
100
AcDbEntity
  8
RACCORDO
100
AcDbLine
 62
250
  6
CONTINUOUS
 10
49.5314106298
 20
-4.2318943416
 11
49.5995435008
 21
-6.7974939128
  0
LINE
  5
4A8
100
AcDbEntity
  8
RACCORDO
100
AcDbLine
 62
250
  6
CONTINUOUS
 10
49.5995435008
 20
-6.7974939128
 11
49.6641198315
 21
-9.2622207908
  0
LINE
  5
4A9
100
AcDbEntity
  8
RACCORDO
100
AcDbLine
 62
250
  6
CONTINUOUS
 10
49.6641198315
 20
-9.2622207908
 11
49.7366246457
 21
-12.0682804478
  0
LINE
  5
4AA
100
AcDbEntity
  8
RACCORDO
100
AcDbLine
 62
250
  6
CONTINUOUS
 10
49.7366246457
 20
-12.0682804478
 11
49.8180165667
 21
-15.2632475547
  0
LINE
  5
4AB
100
AcDbEntity
  8
RACCORDO
100
AcDbLine
 62
250
  6
CONTINUOUS
 10
49.8180165667
 20
-15.2632475547
 11
49.8904185742
 21
-18.1344423543
  0
LINE
  5
4AC
100
AcDbEntity
  8
RACCORDO
100
AcDbLine
 62
250
  6
CONTINUOUS
 10
49.8904187883
 20
-18.1344427272
 11
49.991173786
 21
-22.2486678102
  0
LWPOLYLINE
  5
4AD
100
AcDbEntity
  8
RACCORDO
100
AcDbPolyline
 62
250
  6
CONTINUOUS
 90
3
 70
0
 10
49.991173786
 20
-22.2486678102
 10
50.0211764646
 20
-23.4859360949
 10
50.0355558781
 20
-24.0813996697
  0
LINE
  5
4AE
100
AcDbEntity
  8
RACCORDO
100
AcDbLine
 62
250
  6
CONTINUOUS
 10
50.0355558781
 20
-24.0813996697
 11
50.0630949585
 21
-25.2271771328
  0
LWPOLYLINE
  5
4AF
100
AcDbEntity
  8
RACCORDO
100
AcDbPolyline
 62
250
  6
CONTINUOUS
 90
3
 70
0
 10
50.0630949585
 20
-25.2271771328
 10
50.0891105906
 20
-26.316033945
 10
50.1015561931
 20
-26.8395359385
  0
LINE
  5
4B0
100
AcDbEntity
  8
RACCORDO
100
AcDbLine
 62
250
  6
CONTINUOUS
 10
50.1015561931
 20
-26.8395359385
 11
50.1254268389
 21
-27.847808511
  0
LWPOLYLINE
  5
4B1
100
AcDbEntity
  8
RACCORDO
100
AcDbPolyline
 62
250
  6
CONTINUOUS
 90
3
 70
0
 10
50.1254268389
 20
-27.847808511
 10
50.14795877
 20
-28.8054156376
 10
50.1587592943
 20
-29.2663301124
  0
LWPOLYLINE
  5
4B2
100
AcDbEntity
  8
RACCORDO
100
AcDbPolyline
 62
250
  6
CONTINUOUS
 90
3
 70
0
 10
50.1587592943
 20
-29.2663301124
 10
50.1794512968
 20
-30.1532488976
 10
50.1893741872
 20
-30.5801813143
  0
LWPOLYLINE
  5
4B3
100
AcDbEntity
  8
RACCORDO
100
AcDbPolyline
 62
250
  6
CONTINUOUS
 90
3
 70
0
 10
50.1893741872
 20
-30.5801813143
 10
50.2083930539
 20
-31.4017945334
 10
50.2175180466
 20
-31.7973361439
  0
LWPOLYLINE
  5
4B4
100
AcDbEntity
  8
RACCORDO
100
AcDbPolyline
 62
250
  6
CONTINUOUS
 90
3
 70
0
 10
50.2175180466
 20
-31.7973361439
 10
50.2350163246
 20
-32.5586281255
 10
50.2434160071
 20
-32.9251740834
  0
LINE
  5
4B5
100
AcDbEntity
  8
RACCORDO
100
AcDbLine
 62
250
  6
CONTINUOUS
 10
50.2434160071
 20
-32.9251740834
 11
50.267271671
 21
-33.9704972705
  0
LINE
  5
4B6
100
AcDbEntity
  8
RACCORDO
100
AcDbLine
 62
250
  6
CONTINUOUS
 10
50.267271671
 20
-33.9704972705
 11
50.3342479948
 21
-36.9354108675
  0
LINE
  5
4B7
100
AcDbEntity
  8
RACCORDO
100
AcDbLine
 62
250
  6
CONTINUOUS
 10
50.3342479948
 20
-36.9354108675
 11
50.3946310944
 21
-39.6395094413
  0
LWPOLYLINE
  5
4B8
100
AcDbEntity
  8
RACCORDO
100
AcDbPolyline
 62
250
  6
CONTINUOUS
 90
4
 70
0
 10
50.3946310944
 20
-39.6395094413
 10
50.4029846522
 20
-40.0166926123
 10
50.4069918978
 20
-40.1982461059
 10
50.4108943222
 20
-40.3754368809
  0
LWPOLYLINE
  5
4B9
100
AcDbEntity
  8
RACCORDO
100
AcDbPolyline
 62
250
  6
CONTINUOUS
 90
3
 70
0
 10
50.4108943222
 20
-40.3754368809
 10
50.4183845835
 20
-40.7167331811
 10
50.4219812998
 20
-40.8811612172
  0
LWPOLYLINE
  5
4BA
100
AcDbEntity
  8
RACCORDO
100
AcDbPolyline
 62
250
  6
CONTINUOUS
 90
4
 70
0
 10
50.4219812998
 20
-40.8811612172
 10
50.428886534
 20
-41.1979399852
 10
50.4322022572
 20
-41.3505416902
 10
50.435429248
 20
-41.4993866049
  0
LWPOLYLINE
  5
4BB
100
AcDbEntity
  8
RACCORDO
100
AcDbPolyline
 62
250
  6
CONTINUOUS
 90
4
 70
0
 10
50.435429248
 20
-41.4993866049
 10
50.4416227416
 20
-41.7860059316
 10
50.4445960392
 20
-41.9240163656
 10
50.447486616
 20
-42.0584935039
  0
LWPOLYLINE
  5
4BC
100
AcDbEntity
  8
RACCORDO
100
AcDbPolyline
 62
250
  6
CONTINUOUS
 90
5
 70
0
 10
50.447486616
 20
-42.0584935039
 10
50.453039568
 20
-42.3175371707
 10
50.455701368
 20
-42.4421042352
 10
50.4582936569
 20
-42.5636161154
 10
50.4608160388
 20
-42.6820667322
  0
LWPOLYLINE
  5
4BD
100
AcDbEntity
  8
RACCORDO
100
AcDbPolyline
 62
250
  6
CONTINUOUS
 90
3
 70
0
 10
50.4608160388
 20
-42.6820667322
 10
50.4656579991
 20
-42.9100690746
 10
50.4679846995
 20
-43.0198851016
  0
LINE
  5
4BE
100
AcDbEntity
  8
RACCORDO
100
AcDbLine
 62
250
  6
CONTINUOUS
 10
50.4679846995
 20
-43.0198851016
 11
50.5154191188
 21
-45.2842343939
  0
LWPOLYLINE
  5
4BF
100
AcDbEntity
  8
RACCORDO
100
AcDbPolyline
 62
250
  6
CONTINUOUS
 90
3
 70
0
 10
50.5154191188
 20
-45.2842343939
 10
50.5281821173
 20
-45.9009473436
 10
50.5311563708
 20
-46.035146884
  0
LWPOLYLINE
  5
4C0
100
AcDbEntity
  8
RACCORDO
100
AcDbPolyline
 62
250
  6
CONTINUOUS
 90
5
 70
0
 10
50.5311563708
 20
-46.035146884
 10
50.532304243
 20
-46.0987817722
 10
50.532481353
 20
-46.1304236278
 10
50.5321164166
 20
-46.1618774058
 10
50.5307965069
 20
-46.2252561142
  0
LINE
  5
4C1
100
AcDbEntity
  8
RACCORDO
100
AcDbLine
 62
7
  6
CONTINUOUS
 10
53.381198942
 20
-10.929461355
 11
52.880279069
 21
-11.4843554492
  0
LINE
  5
4C2
100
AcDbEntity
  8
DRAFT
100
AcDbLine
 62
7
  6
CONTINUOUS
 10
53.2263581081
 20
-12.0239107282
 11
52.875714197
 21
-12.4123365941
  0
LWPOLYLINE
  5
4C3
100
AcDbEntity
  8
RACCORDO
100
AcDbPolyline
 62
250
  6
CONTINUOUS
 90
10
 70
0
 10
50.9742305125
 20
-17.8175547105
 10
50.8954939764
 20
-17.8923583908
 10
50.8011927944
 20
-17.9596909397
 10
50.6931921225
 20
-18.0182206058
 10
50.5736280752
 20
-18.0667897478
 10
50.4448654756
 20
-18.1044377303
 10
50.3094510823
 20
-18.1304199247
 10
50.1700632178
 20
-18.1442224366
 10
50.0294587949
 20
-18.1455722701
 10
49.8904187883
 20
-18.1344427272
  0
LINE
  5
4C4
100
AcDbEntity
  8
RACCORDO
100
AcDbLine
 62
250
  6
CONTINUOUS
 10
51.7293177432
 20
-45.9190993532
 11
51.7339465565
 21
-46.0511498679
  0
LINE
  5
4C5
100
AcDbEntity
  8
RACCORDO
100
AcDbLine
 62
250
  6
CONTINUOUS
 10
51.6457894561
 20
-43.026526667
 11
51.7293177432
 21
-45.9190993532
  0
LWPOLYLINE
  5
4C6
100
AcDbEntity
  8
RACCORDO
100
AcDbPolyline
 62
250
  6
CONTINUOUS
 90
5
 70
0
 10
51.6239279858
 20
-42.2559744943
 10
51.627280041
 20
-42.3745374814
 10
51.6305500149
 20
-42.4900443572
 10
51.6337446114
 20
-42.6027609796
 10
51.6457894561
 20
-43.026526667
  0
LWPOLYLINE
  5
4C7
100
AcDbEntity
  8
RACCORDO
100
AcDbPolyline
 62
250
  6
CONTINUOUS
 90
4
 70
0
 10
51.6096796733
 20
-41.7503905495
 10
51.6133726285
 20
-41.8816830072
 10
51.6169772392
 20
-42.0096675183
 10
51.6239279858
 20
-42.2559744943
  0
LWPOLYLINE
  5
4C8
100
AcDbEntity
  8
RACCORDO
100
AcDbPolyline
 62
250
  6
CONTINUOUS
 90
5
 70
0
 10
51.5898295514
 20
-41.0418326366
 10
51.593991969
 20
-41.1908018209
 10
51.5980546692
 20
-41.33600076
 10
51.6020235005
 20
-41.4776648124
 10
51.6096796733
 20
-41.7503905495
  0
LWPOLYLINE
  5
4C9
100
AcDbEntity
  8
RACCORDO
100
AcDbPolyline
 62
250
  6
CONTINUOUS
 90
3
 70
0
 10
51.5767381457
 20
-40.5720682553
 10
51.5812063731
 20
-40.7326068973
 10
51.5898295514
 20
-41.0418326366
  0
LINE
  5
4CA
100
AcDbEntity
  8
RACCORDO
100
AcDbLine
 62
250
  6
CONTINUOUS
 10
51.4132668332
 20
-34.6260890307
 11
51.5767381457
 21
-40.5720682553
  0
LWPOLYLINE
  5
4CB
100
AcDbEntity
  8
RACCORDO
100
AcDbPolyline
 62
250
  6
CONTINUOUS
 90
3
 70
0
 10
51.3777320073
 20
-33.3165751703
 10
51.3869358593
 20
-33.6565024185
 10
51.4132668332
 20
-34.6260890307
  0
LWPOLYLINE
  5
4CC
100
AcDbEntity
  8
RACCORDO
100
AcDbPolyline
 62
250
  6
CONTINUOUS
 90
4
 70
0
 10
51.3386712869
 20
-31.8678630095
 10
51.3487847956
 20
-32.2439611709
 10
51.3586638104
 20
-32.6106708372
 10
51.3777320073
 20
-33.3165751703
  0
LWPOLYLINE
  5
4CD
100
AcDbEntity
  8
RACCORDO
100
AcDbPolyline
 62
250
  6
CONTINUOUS
 90
3
 70
0
 10
51.3068768771
 20
-30.6808059728
 10
51.3177247896
 20
-31.0866625731
 10
51.3386712869
 20
-31.8678630095
  0
LINE
  5
4CE
100
AcDbEntity
  8
RACCORDO
100
AcDbLine
 62
250
  6
CONTINUOUS
 10
51.2844150549
 20
-29.8376961501
 11
51.3068768771
 21
-30.6808059728
  0
LWPOLYLINE
  5
4CF
100
AcDbEntity
  8
RACCORDO
100
AcDbPolyline
 62
250
  6
CONTINUOUS
 90
3
 70
0
 10
51.2487108028
 20
-28.489495779
 10
51.2608897304
 20
-28.9505268954
 10
51.2844150549
 20
-29.8376961501
  0
LINE
  5
4D0
100
AcDbEntity
  8
RACCORDO
100
AcDbLine
 62
250
  6
CONTINUOUS
 10
51.2235042229
 20
-27.531678465
 11
51.2487108028
 21
-28.489495779
  0
LWPOLYLINE
  5
4D1
100
AcDbEntity
  8
RACCORDO
100
AcDbPolyline
 62
250
  6
CONTINUOUS
 90
3
 70
0
 10
51.1834595327
 20
-25.999642338
 10
51.1971094237
 20
-26.5232227001
 10
51.2235042229
 20
-27.531678465
  0
LINE
  5
4D2
100
AcDbEntity
  8
RACCORDO
100
AcDbLine
 62
250
  6
CONTINUOUS
 10
51.1551928145
 20
-24.9106474834
 11
51.1834595327
 21
-25.999642338
  0
LWPOLYLINE
  5
4D3
100
AcDbEntity
  8
RACCORDO
100
AcDbPolyline
 62
250
  6
CONTINUOUS
 90
3
 70
0
 10
51.1103048815
 20
-23.1692554804
 10
51.1256128798
 20
-23.764763262
 10
51.1551928145
 20
-24.9106474834
  0
LINE
  5
4D4
100
AcDbEntity
  8
RACCORDO
100
AcDbLine
 62
250
  6
CONTINUOUS
 10
51.07862223
 20
-21.9319189403
 11
51.1103048815
 21
-23.1692554804
  0
LINE
  5
4D5
100
AcDbEntity
  8
RACCORDO
100
AcDbLine
 62
250
  6
CONTINUOUS
 10
50.9742495569
 20
-17.8183074116
 11
51.07862223
 21
-21.9319189403
  0
LINE
  5
4D6
100
AcDbEntity
  8
RACCORDO
100
AcDbLine
 62
7
  6
CONTINUOUS
 10
51.676199571
 20
-14.8099662252
 11
51.7842127843
 21
-19.1519274358
  0
LINE
  5
4D7
100
AcDbEntity
  8
DRAFT
100
AcDbLine
 62
7
  6
CONTINUOUS
 10
52.249592858
 20
-14.1416541976
 11
52.3537484567
 21
-18.328545365
  0
LINE
  5
4D8
100
AcDbEntity
  8
DRAFT
100
AcDbLine
 62
7
  6
CONTINUOUS
 10
53.2040146118
 20
-11.1257373339
 11
53.2263581081
 21
-12.0239107282
  0
LINE
  5
4D9
100
AcDbEntity
  8
DRAFT
100
AcDbLine
 62
7
  6
CONTINUOUS
 10
53.3806626987
 20
-18.2267124576
 11
53.4038083873
 21
-19.1571327171
  0
LINE
  5
4DA
100
AcDbEntity
  8
RACCORDO
100
AcDbLine
 62
7
  6
CONTINUOUS
 10
54.1971637654
 20
-43.7299632712
 11
53.5856525245
 21
-19.1481736466
  0
LINE
  5
4DB
100
AcDbEntity
  8
RACCORDO
100
AcDbLine
 62
7
  6
CONTINUOUS
 10
53.381198942
 20
-10.929461355
 11
52.769687701
 21
13.6523282696
  0
LINE
  5
4DC
100
AcDbEntity
  8
RACCORDO
100
AcDbLine
 62
250
  6
CONTINUOUS
 10
50.7601023816
 20
-8.9487233358
 11
50.9742495569
 21
-17.8183074116
  0
LINE
  5
4DD
100
AcDbEntity
  8
RACCORDO
100
AcDbLine
 62
250
  6
CONTINUOUS
 10
50.5318661688
 20
0.9962816328
 11
50.7601023816
 21
-8.9487233358
  0
LINE
  5
4DE
100
AcDbEntity
  8
RACCORDO
100
AcDbLine
 62
250
  6
CONTINUOUS
 10
50.3278392105
 20
10.4253286647
 11
50.5318661688
 21
0.9962816328
  0
LINE
  5
4DF
100
AcDbEntity
  8
RACCORDO
100
AcDbLine
 62
250
  6
CONTINUOUS
 10
50.3258249059
 20
10.5680263158
 11
50.3278392105
 21
10.4253286647
  0
LINE
  5
4E0
100
AcDbEntity
  8
RACCORDO
100
AcDbLine
 62
250
  6
CONTINUOUS
 10
50.3241913813
 20
10.7390728212
 11
50.3258249059
 21
10.5680263158
  0
LINE
  5
4E1
100
AcDbEntity
  8
RACCORDO
100
AcDbLine
 62
250
  6
CONTINUOUS
 10
50.5290262255
 20
-46.4767135594
 11
50.5293153455
 21
-46.5603663901
  0
LINE
  5
4E2
100
AcDbEntity
  8
RACCORDO
100
AcDbLine
 62
250
  6
CONTINUOUS
 10
50.5291250528
 20
-46.398315658
 11
50.5290262255
 21
-46.4767135594
  0
LINE
  5
4E3
100
AcDbEntity
  8
RACCORDO
100
AcDbLine
 62
250
  6
CONTINUOUS
 10
50.5295791697
 20
-46.3252532017
 11
50.5291250528
 21
-46.398315658
  0
LINE
  5
4E4
100
AcDbEntity
  8
RACCORDO
100
AcDbLine
 62
250
  6
CONTINUOUS
 10
50.5307965069
 20
-46.2252561142
 11
50.5295791697
 21
-46.3252532017
  0
LWPOLYLINE
  5
4E5
100
AcDbEntity
  8
RACCORDO
100
AcDbPolyline
 62
250
  6
CONTINUOUS
 90
9
 70
0
 10
51.7417775743
 20
-46.2456614501
 10
51.7383515153
 20
-46.4214243597
 10
51.7191335312
 20
-46.5915096787
 10
51.6842440844
 20
-46.7548785261
 10
51.6338961616
 20
-46.9105191655
 10
51.568386275
 20
-47.0574954276
 10
51.4880779698
 20
-47.1949421712
 10
51.393345166
 20
-47.3221052033
 10
51.3202511916
 20
-47.4029896348
  0
LWPOLYLINE
  5
4E6
100
AcDbEntity
  8
RACCORDO
100
AcDbPolyline
 62
250
  6
CONTINUOUS
 90
22
 70
0
 10
50.5293178936
 20
-46.5603618513
 10
50.524721662
 20
-46.6781438701
 10
50.5095349739
 20
-46.7923453728
 10
50.4837927403
 20
-46.9021690632
 10
50.4476685977
 20
-47.0069579941
 10
50.401373525
 20
-47.1061252086
 10
50.3451046354
 20
-47.1990982936
 10
50.2790973135
 20
-47.2853930824
 10
50.2037715571
 20
-47.3644378752
 10
50.1196959849
 20
-47.4355973842
 10
50.0274708965
 20
-47.4983903162
 10
49.9275599421
 20
-47.5526403096
 10
49.8203364012
 20
-47.5981746405
 10
49.7056266637
 20
-47.6348999419
 10
49.5847168165
 20
-47.6623286239
 10
49.4604307378
 20
-47.6801315451
 10
49.3338312921
 20
-47.688662857
 10
49.2056295345
 20
-47.6883665033
 10
49.0784583452
 20
-47.6799332469
 10
48.9537606057
 20
-47.6642980009
 10
48.8316534624
 20
-47.6422496532
 10
48.7128064674
 20
-47.6146264728
  0
LINE
  5
4E7
100
AcDbEntity
  8
DRAFT
100
AcDbLine
 62
7
  6
CONTINUOUS
 10
53.3806626987
 20
-18.2267124576
 11
53.0300187876
 21
-18.6151383236
  0
LINE
  5
4E8
100
AcDbEntity
  8
RACCORDO
100
AcDbLine
 62
7
  6
CONTINUOUS
 10
53.4038083873
 20
-19.1571327171
 11
53.0531644761
 21
-19.545558583
  0
LINE
  5
4E9
100
AcDbEntity
  8
RACCORDO
100
AcDbLine
 62
7
  6
CONTINUOUS
 10
53.5856525245
 20
-19.1481736466
 11
53.0847326515
 21
-19.7030677408
  0
LINE
  5
4EA
100
AcDbEntity
  8
RACCORDO
100
AcDbLine
 62
250
  6
CONTINUOUS
 10
51.7417775743
 20
-46.2456614501
 11
54.1971637654
 21
-43.7299632712
  0
LINE
  5
4EB
100
AcDbEntity
  8
RACCORDO
100
AcDbLine
 62
7
  6
CONTINUOUS
 10
53.7774319854
 20
-44.8854527722
 11
51.3190426719
 21
-47.4042263359
  0
LWPOLYLINE
  5
4EC
100
AcDbEntity
  8
RACCORDO
100
AcDbPolyline
 62
250
  6
CONTINUOUS
 90
13
 70
0
 10
51.7417198216
 20
-46.245641232
 10
51.6776036392
 20
-46.3105754252
 10
51.602563035
 20
-46.3704959541
 10
51.5176207533
 20
-46.4245861503
 10
51.4239344904
 20
-46.4721088091
 10
51.3227811163
 20
-46.5124162373
 10
51.215539272
 20
-46.5449590809
 10
51.1036705793
 20
-46.5692938131
 10
50.9886997207
 20
-46.5850887795
 10
50.8721936587
 20
-46.5921287184
 10
50.7557402796
 20
-46.5903176943
 10
50.6409267517
 20
-46.5796804063
 10
50.5293178936
 20
-46.5603618513
  0
ARC
  5
4ED
100
AcDbEntity
  8
RACCORDO
100
AcDbCircle
 62
7
  6
CONTINUOUS
 10
2.8072635619
 20
-19.918629063
 40
0.2
100
AcDbArc
 50
325.3898293783
 51
1.4513142515
  0
ARC
  5
4EE
100
AcDbEntity
  8
RACCORDO
100
AcDbCircle
 62
7
  6
CONTINUOUS
 10
-2.178774795
 20
-17.953153077
 40
0.2
100
AcDbArc
 50
72.9287850948
 51
137.5682709683
  0
ARC
  5
4EF
100
AcDbEntity
  8
RACCORDO
100
AcDbCircle
 62
7
  6
CONTINUOUS
 10
2.7963761875
 20
-19.4809737446
 40
0.2
100
AcDbArc
 50
1.3462915805
 51
72.9087568557
  0
ARC
  5
4F0
100
AcDbEntity
  8
RACCORDO
100
AcDbCircle
 62
7
  6
CONTINUOUS
 10
-17.1677068886
 20
-13.7539541952
 40
0.15
100
AcDbArc
 50
325.706691543
 51
1.4285363892
  0
ARC
  5
4F1
100
AcDbEntity
  8
RACCORDO
100
AcDbCircle
 62
7
  6
CONTINUOUS
 10
22.9124243067
 20
-26.0621741907
 40
0.15
100
AcDbArc
 50
325.706691543
 51
1.4285363892
  0
ELLIPSE
  5
4F2
100
AcDbEntity
  8
RACCORDO
100
AcDbEllipse
 62
7
  6
CONTINUOUS
 10
-22.2439959723
 20
-11.5322120778
 30
0.0
 11
0.1505926105
 21
-0.0294362225
 31
0.0
 40
0.2251237175
 41
2.1804824813
 42
2.6517213793
  0
ELLIPSE
  5
4F3
100
AcDbEntity
  8
RACCORDO
100
AcDbEllipse
 62
7
  6
CONTINUOUS
 10
-17.1843236025
 20
-13.0859884447
 30
0.0
 11
0.1505926105
 21
-0.0294362225
 31
0.0
 40
0.2251237175
 41
-0.3851515191
 42
0.0498062696
  0
ELLIPSE
  5
4F4
100
AcDbEntity
  8
DRAFT
100
AcDbEllipse
 62
7
  6
CONTINUOUS
 10
52.900788693
 20
-13.4202918751
 30
0.0
 11
0.4304630652
 21
1.2275589336
 31
0.0
 40
0.3985724632
 41
0.76003104
 42
2.3308273668
  0
ELLIPSE
  5
4F5
100
AcDbEntity
  8
DRAFT
100
AcDbEllipse
 62
7
  6
CONTINUOUS
 10
53.0049442916
 20
-17.6071830425
 30
0.0
 11
0.4304630652
 21
1.2275589336
 31
0.0
 40
0.3985724632
 41
2.3308273668
 42
3.9016236936
  0
ELLIPSE
  5
4F6
100
AcDbEntity
  8
RACCORDO
100
AcDbEllipse
 62
7
  6
CONTINUOUS
 10
53.0049442916
 20
-17.6071830425
 30
0.0
 11
0.8278135869
 21
2.3606902569
 31
0.0
 40
0.3985724632
 41
-3.6857723427
 42
-2.3815616136
  0
ELLIPSE
  5
4F7
100
AcDbEntity
  8
RACCORDO
100
AcDbEllipse
 62
7
  6
CONTINUOUS
 10
17.836135223
 20
-23.8404320733
 30
0.0
 11
0.1505926105
 21
-0.0294362225
 31
0.0
 40
0.2251237175
 41
2.1804824813
 42
2.6517213793
  0
ELLIPSE
  5
4F8
100
AcDbEntity
  8
RACCORDO
100
AcDbEllipse
 62
7
  6
CONTINUOUS
 10
22.8958075928
 20
-25.3942084402
 30
0.0
 11
0.1505926105
 21
-0.0294362225
 31
0.0
 40
0.2251237175
 41
-0.3851515191
 42
0.0498062696
  0
ELLIPSE
  5
4F9
100
AcDbEntity
  8
RACCORDO
100
AcDbEllipse
 62
7
  6
CONTINUOUS
 10
52.9284992535
 20
-13.4227309897
 30
0.0
 11
0.8278135869
 21
2.3606902569
 31
0.0
 40
0.3985724632
 41
0.76003104
 42
2.3308273668
  0
ELLIPSE
  5
4FA
100
AcDbEntity
  8
RACCORDO
100
AcDbEllipse
 62
7
  6
CONTINUOUS
 10
51.5213293879
 20
-42.9019092779
 30
0.0
 11
2.3475766321
 21
-1.8801564348
 31
0.0
 40
0.6836826228
 41
-0.0671024454
 42
0.522616035
  0
ELLIPSE
  5
4FB
100
AcDbEntity
  8
RACCORDO
100
AcDbEllipse
 62
7
  6
CONTINUOUS
 10
50.0941707448
 20
14.4676224272
 30
0.0
 11
2.3486830781
 21
-1.867365038
 31
0.0
 40
0.686928133
 41
0.5215401104
 42
2.0895973814
  0
ELLIPSE
  5
4FC
100
AcDbEntity
  8
RACCORDO
100
AcDbEllipse
 62
7
  6
CONTINUOUS
 10
-51.4348277756
 20
45.6461942642
 30
0.0
 11
2.3475766321
 21
-1.8801564348
 31
0.0
 40
0.6836826228
 41
2.0961514176
 42
3.2086951405
  0
ELLIPSE
  5
4FD
100
AcDbEntity
  8
RACCORDO
100
AcDbEllipse
 62
7
  6
CONTINUOUS
 10
53.0365124669
 20
-17.7646922003
 30
0.0
 11
0.8278135869
 21
2.3606902569
 31
0.0
 40
0.3985724632
 41
2.3308273668
 42
3.9016236936
  0
ENDSEC
  0
SECTION
  2
OBJECTS
  0
DICTIONARY
  5
C
100
AcDbDictionary
280
0
281
1
  3
ACAD_GROUP
350
D
  3
ACAD_MLINESTYLE
350
17
  3
ACAD_LAYOUT
350
1A
  3
ACAD_PLOTSETTINGS
350
19
  3
ACAD_PLOTSTYLENAME
350
E
  0
DICTIONARY
  5
D
102
{ACAD_REACTORS
330
C
102
}
100
AcDbDictionary
280
0
281
1
  0
ACDBDICTIONARYWDFLT
  5
E
102
{ACAD_REACTORS
330
C
102
}
100
AcDbDictionary
281
1
  3
Normal
350
F
100
AcDbDictionaryWithDefault
340
F
  0
DICTIONARY
  5
17
102
{ACAD_REACTORS
330
C
102
}
100
AcDbDictionary
280
0
281
1
  3
Standard
350
18
  0
DICTIONARY
  5
19
102
{ACAD_REACTORS
330
C
102
}
100
AcDbDictionary
281
1
  0
DICTIONARY
  5
1A
102
{ACAD_REACTORS
330
C
102
}
100
AcDbDictionary
281
1
  3
Model
350
4FE
  3
Layout1
350
4FF
  0
ACDBPLACEHOLDER
  5
F
102
{ACAD_REACTORS
330
E
102
}
  0
MLINESTYLE
  5
18
102
{ACAD_REACTORS
330
17
102
}
100
AcDbMlineStyle
  2
STANDARD
 70
0
  3

 62
256
 51
90.0
 52
90.0
 71
2
 49
0.5
 62
256
  6
BYLAYER
 49
-0.5
 62
256
  6
BYLAYER
  0
LAYOUT
  5
4FE
102
{ACAD_REACTORS
330
1A
102
}
100
AcDbPlotSettings
  1

  2
none_device
  4
ISO_A4_(297.00_x_210.00_MM)
  6

 40
0.0
 41
0.0
 42
0.0
 43
0.0
 44
297.0
 45
210.0
 46
0.0
 47
0.0
 48
0.0
 49
0.0
140
0.0
141
0.0
142
1.0
143
1.0
 70
1024
 72
1
 73
0
 74
0
  7

 75
0
147
1.0
148
0.0
149
0.0
100
AcDbLayout
  1
Model
 70
0
 71
0
 10
0.0
 20
0.0
 11
297.0
 21
210.0
 12
0.0
 22
0.0
 32
0.0
 14
0.0
 24
0.0
 34
0.0
 15
0.0
 25
0.0
 35
0.0
146
0.0
 13
0.0
 23
0.0
 33
0.0
 16
1.0
 26
0.0
 36
0.0
 17
0.0
 27
1.0
 37
0.0
 76
0
330
20E
345
0
346
0
  0
LAYOUT
  5
4FF
102
{ACAD_REACTORS
330
1A
102
}
100
AcDbPlotSettings
  1

  2
none_device
  4
ISO_A4_(297.00_x_210.00_MM)
  6

 40
0.0
 41
0.0
 42
0.0
 43
0.0
 44
297.0
 45
210.0
 46
0.0
 47
0.0
 48
0.0
 49
0.0
140
0.0
141
0.0
142
1.0
143
1.0
 70
0
 72
1
 73
0
 74
0
  7

 75
0
147
1.0
148
0.0
149
0.0
100
AcDbLayout
  1
Layout1
 70
0
 71
1
 10
0.0
 20
0.0
 11
297.0
 21
210.0
 12
0.0
 22
0.0
 32
0.0
 14
0.0
 24
0.0
 34
0.0
 15
0.0
 25
0.0
 35
0.0
146
0.0
 13
0.0
 23
0.0
 33
0.0
 16
1.0
 26
0.0
 36
0.0
 17
0.0
 27
1.0
 37
0.0
 76
0
330
20F
345
0
346
0
  0
ENDSEC
  0
EOF
