  0
SECTION
  2
HEADER
  9
$ACADVER
  1
AC1024
  9
$DWGCODEPAGE
  3
ANSI_1252
  9
$EXTMAX
 10
297.0
 20
210.0
 30
0.0
  9
$EXTMIN
 10
0.0
 20
0.0
 30
0.0
  9
$LIMMIN
 10
0.0
 20
0.0
  9
$LIMMAX
 10
297.0
 20
210.0
  9
$VIEWCTR
 10
148.5
 20
105.0
  9
$VIEWSIZE
 40
210.0
  9
$CLAYER
  8
0
  9
$LTSCALE
 40
16.335
  9
$CELTYPE
  6
BYLAYER
  9
$DIMSCALE
 40
1.0
  9
$DIMASZ
 40
3.0
  9
$DIMEXO
 40
0.5
  9
$DIMDLI
 40
11.286
  9
$DIMEXE
 40
1.5
  9
$DIMCEN
 40
2.673
  9
$DIMLFAC
 40
1.0
  9
$DIMBLK
  1
_FILLED
  9
$DIMALT
 70
0
  9
$DIMALTF
 40
0.0393700787
  9
$DIMTXT
 40
3.0
  9
$DIMTOL
 70
1
  9
$DIMLIM
 70
0
  9
$DIMTFAC
 40
1.0
  9
$DIMTP
 40
0.01
  9
$DIMTM
 40
0.01
  9
$DIMGAP
 40
0.625
  9
$DIMDSEP
 70
44
  9
$AUNITS
 70
0
  9
$PDMODE
 70
3
  9
$PDSIZE
 40
3.0
  9
$HANDSEED
  5
3E9
  9
$TILEMODE
 70
1
  9
$MEASUREMENT
 70
1
  9
$INSUNITS
 70
4
  0
ENDSEC
  0
SECTION
  2
CLASSES
  0
CLASS
  1
ACDBDICTIONARYWDFLT
  2
AcDbDictionaryWithDefault
  3
AutoCAD 2000
 90
0
 91
1
280
0
281
0
  0
CLASS
  1
ACDBPLACEHOLDER
  2
AcDbPlaceHolder
  3
AutoCAD 2000
 90
0
 91
1
280
0
281
0
  0
CLASS
  1
LAYOUT
  2
AcDbLayout
  3
AutoCAD 2000
 90
0
 91
0
280
0
281
0
  0
ENDSEC
  0
SECTION
  2
TABLES
  0
TABLE
  2
VPORT
  5
8
100
AcDbSymbolTable
 70
2
  0
VPORT
  5
1F4
100
AcDbSymbolTableRecord
100
AcDbViewportTableRecord
  2
*ACTIVE
 70
0
 10
0.0
 20
0.0
 11
1.0
 21
1.0
 12
148.5
 22
105.0
 13
0.0
 23
0.0
 14
1.0
 24
1.0
 15
0.0
 25
0.0
 16
0.0
 26
0.0
 36
1.0
 17
0.0
 27
0.0
 37
0.0
 40
210.0
 41
1.4142857143
 42
50.0
 43
0.0
 44
0.0
 50
0.0
 51
0.0
 71
0
 72
100
 73
1
 74
1
 75
0
 76
0
 77
0
 78
0
  0
ENDTAB
  0
TABLE
  2
LTYPE
  5
5
100
AcDbSymbolTable
 70
6
  0
LTYPE
  5
14
100
AcDbSymbolTableRecord
100
AcDbLinetypeTableRecord
  2
BYBLOCK
 70
0
  3

 72
65
 73
0
 40
0.0
  0
LTYPE
  5
15
100
AcDbSymbolTableRecord
100
AcDbLinetypeTableRecord
  2
BYLAYER
 70
0
  3

 72
65
 73
0
 40
0.0
  0
LTYPE
  5
16
100
AcDbSymbolTableRecord
100
AcDbLinetypeTableRecord
  2
CONTINUOUS
 70
64
  3
Solid line
 72
65
 73
0
 40
0.0
  0
LTYPE
  5
1F5
100
AcDbSymbolTableRecord
100
AcDbLinetypeTableRecord
  2
CENTER
 70
64
  3
____ _ ____ _ ____ _ ____ _ ____ _ ____ _ ____
 72
65
 73
4
 40
0.6
 49
0.375
 74
0
 49
-0.075
 74
0
 49
0.075
 74
0
 49
-0.075
 74
0
  0
LTYPE
  5
1F6
100
AcDbSymbolTableRecord
100
AcDbLinetypeTableRecord
  2
HIDDEN
 70
64
  3
- - - - - - - - - - - - - - - - - - - -
 72
65
 73
2
 40
0.2
 49
0.1
 74
0
 49
-0.1
 74
0
  0
LTYPE
  5
1F7
100
AcDbSymbolTableRecord
100
AcDbLinetypeTableRecord
  2
PHANTOM
 70
64
  3
_____ _ _ _____ _ _ _____ _ _ _____
 72
65
 73
6
 40
0.8
 49
0.45
 74
0
 49
-0.05
 74
0
 49
0.1
 74
0
 49
-0.05
 74
0
 49
0.1
 74
0
 49
-0.05
 74
0
  0
LTYPE
  5
1F8
100
AcDbSymbolTableRecord
100
AcDbLinetypeTableRecord
  2
DOT
 70
64
  3
. . . . . . . . . . . . . . . . . . . .
 72
65
 73
2
 40
0.2
 49
0.1
 74
0
 49
-0.1
 74
0
  0
LTYPE
  5
1F9
100
AcDbSymbolTableRecord
100
AcDbLinetypeTableRecord
  2
DASHED
 70
64
  3
- - - - - - - - - - - - - - - - - - - -
 72
65
 73
2
 40
0.2
 49
0.1
 74
0
 49
-0.1
 74
0
  0
ENDTAB
  0
TABLE
  2
LAYER
  5
2
100
AcDbSymbolTable
 70
36
  0
LAYER
  5
10
100
AcDbSymbolTableRecord
100
AcDbLayerTableRecord
  2
0
 70
0
 62
7
  6
CONTINUOUS
370
-3
390
F
  0
LAYER
  5
1FA
100
AcDbSymbolTableRecord
100
AcDbLayerTableRecord
  2
DEFAULT_1
 70
0
 62
7
  6
CENTER
370
-3
390
F
  0
LAYER
  5
1FB
100
AcDbSymbolTableRecord
100
AcDbLayerTableRecord
  2
DEFAULT_2
 70
0
 62
7
  6
HIDDEN
370
-3
390
F
  0
LAYER
  5
1FC
100
AcDbSymbolTableRecord
100
AcDbLayerTableRecord
  2
DEFAULT_3
 70
0
 62
7
  6
PHANTOM
370
-3
390
F
  0
LAYER
  5
1FD
100
AcDbSymbolTableRecord
100
AcDbLayerTableRecord
  2
AREE_SCRITTE
 70
0
 62
7
  6
CONTINUOUS
370
-3
390
F
  0
LAYER
  5
1FE
100
AcDbSymbolTableRecord
100
AcDbLayerTableRecord
  2
ASSI
 70
0
 62
7
  6
CONTINUOUS
370
-3
390
F
  0
LAYER
  5
1FF
100
AcDbSymbolTableRecord
100
AcDbLayerTableRecord
  2
COORDINATE
 70
0
 62
7
  6
CONTINUOUS
370
-3
390
F
  0
LAYER
  5
200
100
AcDbSymbolTableRecord
100
AcDbLayerTableRecord
  2
COPY_PUBLISH
 70
0
 62
7
  6
CONTINUOUS
370
-3
390
F
  0
LAYER
  5
201
100
AcDbSymbolTableRecord
100
AcDbLayerTableRecord
  2
COSMETICI
 70
0
 62
7
  6
CONTINUOUS
370
-3
390
F
  0
LAYER
  5
202
100
AcDbSymbolTableRecord
100
AcDbLayerTableRecord
  2
CURVE
 70
0
 62
7
  6
CONTINUOUS
370
-3
390
F
  0
LAYER
  5
203
100
AcDbSymbolTableRecord
100
AcDbLayerTableRecord
  2
DRAFT
 70
0
 62
7
  6
CONTINUOUS
370
-3
390
F
  0
LAYER
  5
204
100
AcDbSymbolTableRecord
100
AcDbLayerTableRecord
  2
IMPORT_IGES
 70
0
 62
7
  6
CONTINUOUS
370
-3
390
F
  0
LAYER
  5
205
100
AcDbSymbolTableRecord
100
AcDbLayerTableRecord
  2
INTFCLR
 70
0
 62
7
  6
CONTINUOUS
370
-3
390
F
  0
LAYER
  5
206
100
AcDbSymbolTableRecord
100
AcDbLayerTableRecord
  2
INTFCLR_17
 70
0
 62
7
  6
CONTINUOUS
370
-3
390
F
  0
LAYER
  5
207
100
AcDbSymbolTableRecord
100
AcDbLayerTableRecord
  2
INTF_1
 70
0
 62
7
  6
CONTINUOUS
370
-3
390
F
  0
LAYER
  5
208
100
AcDbSymbolTableRecord
100
AcDbLayerTableRecord
  2
INTF_11
 70
0
 62
7
  6
CONTINUOUS
370
-3
390
F
  0
LAYER
  5
209
100
AcDbSymbolTableRecord
100
AcDbLayerTableRecord
  2
INTF_2
 70
0
 62
7
  6
CONTINUOUS
370
-3
390
F
  0
LAYER
  5
20A
100
AcDbSymbolTableRecord
100
AcDbLayerTableRecord
  2
INTF_5
 70
0
 62
7
  6
CONTINUOUS
370
-3
390
F
  0
LAYER
  5
20B
100
AcDbSymbolTableRecord
100
AcDbLayerTableRecord
  2
INTF_8
 70
0
 62
7
  6
CONTINUOUS
370
-3
390
F
  0
LAYER
  5
20C
100
AcDbSymbolTableRecord
100
AcDbLayerTableRecord
  2
INTF_CYAN
 70
0
 62
7
  6
CONTINUOUS
370
-3
390
F
  0
LAYER
  5
20D
100
AcDbSymbolTableRecord
100
AcDbLayerTableRecord
  2
INTF_YELLOW
 70
0
 62
7
  6
CONTINUOUS
370
-3
390
F
  0
LAYER
  5
20E
100
AcDbSymbolTableRecord
100
AcDbLayerTableRecord
  2
NONE
 70
0
 62
7
  6
CONTINUOUS
370
-3
390
F
  0
LAYER
  5
20F
100
AcDbSymbolTableRecord
100
AcDbLayerTableRecord
  2
NOTE
 70
0
 62
7
  6
CONTINUOUS
370
-3
390
F
  0
LAYER
  5
210
100
AcDbSymbolTableRecord
100
AcDbLayerTableRecord
  2
PIANI
 70
0
 62
7
  6
CONTINUOUS
370
-3
390
F
  0
LAYER
  5
211
100
AcDbSymbolTableRecord
100
AcDbLayerTableRecord
  2
PUNTI
 70
0
 62
7
  6
CONTINUOUS
370
-3
390
F
  0
LAYER
  5
212
100
AcDbSymbolTableRecord
100
AcDbLayerTableRecord
  2
RACCORDO
 70
0
 62
7
  6
CONTINUOUS
370
-3
390
F
  0
LAYER
  5
213
100
AcDbSymbolTableRecord
100
AcDbLayerTableRecord
  2
RGB____0____0____0__
 70
0
 62
7
  6
CONTINUOUS
370
-3
390
F
  0
LAYER
  5
214
100
AcDbSymbolTableRecord
100
AcDbLayerTableRecord
  2
SIMBOLI
 70
0
 62
7
  6
CONTINUOUS
370
-3
390
F
  0
LAYER
  5
215
100
AcDbSymbolTableRecord
100
AcDbLayerTableRecord
  2
SMUSSO
 70
0
 62
7
  6
CONTINUOUS
370
-3
390
F
  0
LAYER
  5
216
100
AcDbSymbolTableRecord
100
AcDbLayerTableRecord
  2
SUPERFICI
 70
0
 62
7
  6
CONTINUOUS
370
-3
390
F
  0
LAYER
  5
217
100
AcDbSymbolTableRecord
100
AcDbLayerTableRecord
  2
TRASH
 70
0
 62
7
  6
CONTINUOUS
370
-3
390
F
  0
ENDTAB
  0
TABLE
  2
STYLE
  5
3
100
AcDbSymbolTable
 70
1
  0
STYLE
  5
11
100
AcDbSymbolTableRecord
100
AcDbTextStyleTableRecord
  2
STANDARD
 70
0
 40
0.0
 41
0.8
 50
0.0
 71
0
 42
0.2
  3
txt
  4

  0
STYLE
  5
218
100
AcDbSymbolTableRecord
100
AcDbTextStyleTableRecord
  2
TEXTSTYLE_1
 70
0
 40
0.0
 41
0.8
 50
0.0
 71
0
 42
0.2
  3
gdt
  4

  0
ENDTAB
  0
TABLE
  2
VIEW
  5
6
100
AcDbSymbolTable
 70
0
  0
ENDTAB
  0
TABLE
  2
UCS
  5
7
100
AcDbSymbolTable
 70
0
  0
ENDTAB
  0
TABLE
  2
APPID
  5
9
100
AcDbSymbolTable
 70
1
  0
APPID
  5
219
100
AcDbSymbolTableRecord
100
AcDbRegAppTableRecord
  2
ACAD
 70
0
  0
ENDTAB
  0
TABLE
  2
BLOCK_RECORD
  5
1
100
AcDbSymbolTable
 70
0
  0
BLOCK_RECORD
  5
21A
100
AcDbSymbolTableRecord
100
AcDbBlockTableRecord
  2
*Model_Space
  0
BLOCK_RECORD
  5
21B
100
AcDbSymbolTableRecord
100
AcDbBlockTableRecord
  2
*Paper_Space
  0
BLOCK_RECORD
  5
21C
100
AcDbSymbolTableRecord
100
AcDbBlockTableRecord
  2
_FILLED
  0
ENDTAB
  0
TABLE
  2
DIMSTYLE
  5
A
100
AcDbSymbolTable
 70
1
100
AcDbDimStyleTable
 71
0
  0
DIMSTYLE
105
21D
100
AcDbSymbolTableRecord
100
AcDbDimStyleTableRecord
  2
STANDARD
 70
0
  3

  4

 40
1.0
 41
3.0
 42
0.5
 43
0.38
 44
1.5
 45
0.0
 46
0.0
 47
0.01
 48
0.01
140
3.0
141
0.0
142
0.0
143
25.4
144
1.0
145
0.0
146
1.0
147
0.625
 71
1
 72
0
 73
0
 74
0
 75
0
 76
0
 77
1
 78
8
 79
2
170
0
171
1
172
0
173
0
174
0
175
0
176
0
177
0
178
0
270
2
179
2
271
2
272
2
273
2
274
2
275
0
280
0
281
0
282
0
283
1
284
8
285
0
286
0
287
3
288
0
340
11
278
44
341
21C
342
21C
343
21C
344
21C
  0
ENDTAB
  0
ENDSEC
  0
SECTION
  2
BLOCKS
  0
BLOCK
  5
20
100
AcDbEntity
  8
0
100
AcDbBlockBegin
  2
*Model_Space
 70
0
 10
0.0
 20
0.0
 30
0.0
  3
*Model_Space
  1

  0
ENDBLK
  5
21
100
AcDbEntity
  8
0
100
AcDbBlockEnd
  0
BLOCK
  5
1C
100
AcDbEntity
  8
0
100
AcDbBlockBegin
  2
*Paper_Space
 70
0
 10
0.0
 20
0.0
 30
0.0
  3
*Paper_Space
  1

  0
ENDBLK
  5
1D
100
AcDbEntity
  8
0
100
AcDbBlockEnd
  0
BLOCK
  5
21E
100
AcDbEntity
  8
0
100
AcDbBlockBegin
  2
_FILLED
 70
64
 10
0.0
 20
0.0
 30
0.0
  3
_FILLED
  1

  0
SOLID
  5
21F
100
AcDbEntity
  8
0
  6
BYBLOCK
 62
0
100
AcDbTrace
 10
0.0
 20
0.0
 30
0.0
 11
-1.0
 21
0.3166666667
 31
0.0
 12
-1.0
 22
-0.3166666667
 32
0.0
 13
-1.0
 23
-0.3166666667
 33
0.0
  0
ENDBLK
  5
220
100
AcDbEntity
  8
0
  6
BYBLOCK
 62
0
100
AcDbBlockEnd
  0
ENDSEC
  0
SECTION
  2
ENTITIES
  0
LWPOLYLINE
  5
221
100
AcDbEntity
  8
RACCORDO
100
AcDbPolyline
 62
7
  6
CONTINUOUS
 90
17
 70
0
 10
110.5791429013
 20
164.7298279883
 10
110.5098025491
 20
164.6685079644
 10
110.4358142144
 20
164.5943865426
 10
110.3653524558
 20
164.5142040466
 10
110.2986108026
 20
164.4281397374
 10
110.2357194047
 20
164.3363549001
 10
110.1767775845
 20
164.2389716433
 10
110.1218968228
 20
164.1361251296
 10
110.0711780022
 20
164.0279756325
 10
110.0247037393
 20
163.9146551143
 10
109.982556055
 20
163.7962660023
 10
109.9448282813
 20
163.6729636658
 10
109.9116081083
 20
163.5449027403
 10
109.8829824251
 20
163.412199638
 10
109.8590405354
 20
163.2750389035
 10
109.8398698102
 20
163.1336641353
 10
109.8319113964
 20
163.0595312229
  0
LINE
  5
222
100
AcDbEntity
  8
SUPERFICI
100
AcDbLine
 62
7
  6
CONTINUOUS
 10
110.5780308907
 20
164.7289050718
 30
0.0
 11
112.513907002
 21
166.3427016362
 31
0.0
  0
LINE
  5
223
100
AcDbEntity
  8
RACCORDO
100
AcDbLine
 62
7
  6
CONTINUOUS
 10
110.5780284515
 20
164.7289030384
 30
0.0
 11
110.5790584189
 21
164.729760762
 31
0.0
  0
LWPOLYLINE
  5
224
100
AcDbEntity
  8
RACCORDO
100
AcDbPolyline
 62
7
  6
CONTINUOUS
 90
9
 70
0
 10
108.6990560043
 20
147.0624712913
 10
108.6284065112
 20
145.1732216418
 10
108.5673453381
 20
143.225440496
 10
108.5155740519
 20
141.219068645
 10
108.4725256797
 20
139.1538849467
 10
108.4379137041
 20
137.0297543899
 10
108.4123336107
 20
134.847049266
 10
108.3965544535
 20
132.6062664922
 10
108.3913334657
 20
130.3737161014
  0
LINE
  5
225
100
AcDbEntity
  8
RACCORDO
100
AcDbLine
 62
250
  6
CONTINUOUS
 10
108.8384011254
 20
148.7252885315
 30
0.0
 11
108.8449690551
 21
148.864460991
 31
0.0
  0
LINE
  5
226
100
AcDbEntity
  8
RACCORDO
100
AcDbLine
 62
7
  6
CONTINUOUS
 10
108.7830060229
 20
148.9702795703
 30
0.0
 11
108.6990560043
 21
147.0624712913
 31
0.0
  0
LWPOLYLINE
  5
227
100
AcDbEntity
  8
RACCORDO
100
AcDbPolyline
 62
7
  6
CONTINUOUS
 90
9
 70
0
 10
109.6544003103
 20
161.2344574703
 10
109.5124608603
 20
159.6777591286
 10
109.3798271576
 20
158.1252515791
 10
109.2565060997
 20
156.5770144304
 10
109.1425042291
 20
155.0331289579
 10
109.0378276454
 20
153.4936757365
 10
108.9424820163
 20
151.9587355701
 10
108.8564725333
 20
150.4283896771
 10
108.7830060223
 20
148.9702795588
  0
LINE
  5
228
100
AcDbEntity
  8
RACCORDO
100
AcDbLine
 62
7
  6
CONTINUOUS
 10
109.8319246702
 20
163.0596628056
 30
0.0
 11
109.6544003103
 21
161.2344574703
 31
0.0
  0
LWPOLYLINE
  5
229
100
AcDbEntity
  8
RACCORDO
100
AcDbPolyline
 62
7
  6
CONTINUOUS
 90
9
 70
0
 10
108.8568294253
 20
110.8479651717
 10
108.9428965771
 20
109.416237339
 10
109.0383046615
 20
107.9906285024
 10
109.1430489851
 20
106.5712121211
 10
109.2571242984
 20
105.1580626883
 10
109.3805249532
 20
103.7512535519
 10
109.5132447487
 20
102.3508590877
 10
109.6552771796
 20
100.9569513177
 10
109.7997058213
 20
99.6309953422
  0
LINE
  5
22A
100
AcDbEntity
  8
RACCORDO
100
AcDbLine
 62
7
  6
CONTINUOUS
 10
108.7764673946
 20
112.3587509165
 30
0.0
 11
108.8568294253
 21
110.8479651717
 31
0.0
  0
LINE
  5
22B
100
AcDbEntity
  8
RACCORDO
100
AcDbLine
 62
250
  6
CONTINUOUS
 10
108.8449690546
 20
112.1232986397
 30
0.0
 11
108.8328043151
 21
112.3616208394
 31
0.0
  0
LWPOLYLINE
  5
22C
100
AcDbEntity
  8
RACCORDO
100
AcDbPolyline
 62
7
  6
CONTINUOUS
 90
10
 70
0
 10
108.3913334657
 20
130.3737171466
 10
108.3965802518
 20
128.1417121682
 10
108.4123856666
 20
125.9190734098
 10
108.4379944721
 20
123.7657946958
 10
108.4726274181
 20
121.6814873959
 10
108.5157116676
 20
119.6658240392
 10
108.5675122795
 20
117.7189775588
 10
108.6286160321
 20
115.841371497
 10
108.6993084634
 20
114.0332771647
 10
108.7764673804
 20
112.3587512024
  0
LWPOLYLINE
  5
22D
100
AcDbEntity
  8
RACCORDO
100
AcDbPolyline
 62
7
  6
CONTINUOUS
 90
34
 70
0
 10
109.8323335969
 20
99.3410210467
 10
109.8419161245
 20
99.2624220693
 10
109.8627361878
 20
99.1236865314
 10
109.8887031388
 20
98.9826733258
 10
109.9196617701
 20
98.8397856494
 10
109.9554717988
 20
98.6952836482
 10
109.9960251127
 20
98.5493000422
 10
110.0411847917
 20
98.4021365051
 10
110.0907988792
 20
98.2541150891
 10
110.1447607815
 20
98.1054157747
 10
110.202926771
 20
97.9563565255
 10
110.2651360602
 20
97.8072663826
 10
110.3312732688
 20
97.6583515301
 10
110.4011797588
 20
97.5099357127
 10
110.4746825365
 20
97.3623408242
 10
110.5516603203
 20
97.2157775587
 10
110.6319397465
 20
97.0705707712
 10
110.7153352255
 20
96.9270376719
 10
110.8017236027
 20
96.7853853994
 10
110.8909208185
 20
96.645932414
 10
110.9827299952
 20
96.5089888401
 10
111.0770250411
 20
96.3747601241
 10
111.1736111225
 20
96.2435578814
 10
111.2722836895
 20
96.1156792988
 10
111.3729181983
 20
95.9913219657
 10
111.4753081894
 20
95.8707906057
 10
111.5792466429
 20
95.7543659977
 10
111.6846267244
 20
95.6422262959
 10
111.7912415403
 20
95.5346651979
 10
111.8988990786
 20
95.4319452115
 10
112.0075408878
 20
95.3342174516
 10
112.1170127664
 20
95.2417294877
 10
112.2270373387
 20
95.1548183799
 10
112.2862283915
 20
95.1105829267
  0
LINE
  5
22E
100
AcDbEntity
  8
RACCORDO
100
AcDbLine
 62
7
  6
CONTINUOUS
 10
109.7997059162
 20
99.6309944978
 30
0.0
 11
109.8323569348
 21
99.3408168449
 31
0.0
  0
LINE
  5
22F
100
AcDbEntity
  8
RACCORDO
100
AcDbLine
 62
250
  6
CONTINUOUS
 10
109.8726589592
 20
99.4311132521
 30
0.0
 11
109.8496066893
 21
99.6364218043
 31
0.0
  0
LWPOLYLINE
  5
230
100
AcDbEntity
  8
RACCORDO
100
AcDbPolyline
 62
7
  6
CONTINUOUS
 90
17
 70
0
 10
193.4992670103
 20
48.2187610333
 10
193.5720041513
 20
48.1864919607
 10
193.7030086596
 20
48.1327705995
 10
193.8327198312
 20
48.0852298623
 10
193.9608786571
 20
48.0439170671
 10
194.0872802514
 20
48.0088497683
 10
194.2117920297
 20
47.9800073803
 10
194.3342447984
 20
47.9573882393
 10
194.4544652613
 20
47.9409922288
 10
194.5723352181
 20
47.9307991669
 10
194.6877066339
 20
47.9268014545
 10
194.8003907207
 20
47.9289976883
 10
194.9102182182
 20
47.9373648901
 10
195.0170428254
 20
47.9518763354
 10
195.1206633047
 20
47.9725023667
 10
195.2208235164
 20
47.9991736091
 10
195.3082114071
 20
48.0284077461
  0
LINE
  5
231
100
AcDbEntity
  8
RACCORDO
100
AcDbLine
 62
7
  6
CONTINUOUS
 10
170.4224749567
 20
79.8065446457
 30
0.0
 11
169.6230478471
 21
79.6160035426
 31
0.0
  0
LWPOLYLINE
  5
232
100
AcDbEntity
  8
RACCORDO
100
AcDbPolyline
 62
7
  6
CONTINUOUS
 90
12
 70
0
 10
169.7066116647
 20
60.3857908014
 10
172.0024368989
 20
59.0966487173
 10
174.264206082
 20
57.8432334929
 10
176.496273826
 20
56.6283701852
 10
178.7015474932
 20
55.4541935007
 10
180.8791923633
 20
54.3206623491
 10
183.0273368755
 20
53.2268895117
 10
185.1442398322
 20
52.1720017578
 10
187.2282531979
 20
51.1551571579
 10
189.2777872141
 20
50.1755101699
 10
191.2912934104
 20
49.2322067577
 10
193.4992864056
 20
48.2187554452
  0
LINE
  5
233
100
AcDbEntity
  8
RACCORDO
100
AcDbLine
 62
7
  6
CONTINUOUS
 10
167.4055915776
 20
61.6881580933
 30
0.0
 11
169.7066116647
 21
60.3857908014
 31
0.0
  0
LINE
  5
234
100
AcDbEntity
  8
RACCORDO
100
AcDbLine
 62
250
  6
CONTINUOUS
 10
167.4547897665
 20
61.7314045198
 30
0.0
 11
167.345304273
 21
61.7934850958
 31
0.0
  0
LWPOLYLINE
  5
235
100
AcDbEntity
  8
RACCORDO
100
AcDbPolyline
 62
7
  6
CONTINUOUS
 90
9
 70
0
 10
153.1699757905
 20
69.8271075404
 10
154.9504594352
 20
68.8020779706
 10
156.7327052525
 20
67.7780705007
 10
158.5167112493
 20
66.7550862765
 10
160.3024757622
 20
65.7331262503
 10
162.0899972593
 20
64.7121912981
 10
163.8792740749
 20
63.6922823716
 10
165.6703042052
 20
62.6734006112
 10
167.4055915763
 20
61.6881580941
  0
LINE
  5
236
100
AcDbEntity
  8
RACCORDO
100
AcDbLine
 62
250
  6
CONTINUOUS
 10
151.4740669691
 20
70.8759123248
 30
0.0
 11
151.3833634224
 21
70.928231769
 31
0.0
  0
LWPOLYLINE
  5
237
100
AcDbEntity
  8
RACCORDO
100
AcDbPolyline
 62
7
  6
CONTINUOUS
 90
9
 70
0
 10
137.3336013723
 20
79.0346147225
 10
139.0982564858
 20
78.0004937525
 10
140.8646894118
 20
76.9673858135
 10
142.632898175
 20
75.9352920614
 10
144.4028811266
 20
74.9042134569
 10
146.1746367484
 20
73.8741508838
 10
147.9481633893
 20
72.8451053023
 10
149.7234590631
 20
71.817077863
 10
153.1699757905
 20
69.8271075404
  0
LINE
  5
238
100
AcDbEntity
  8
RACCORDO
100
AcDbLine
 62
7
  6
CONTINUOUS
 10
135.6041929397
 20
80.0500771673
 30
0.0
 11
137.3336013723
 21
79.0346147225
 31
0.0
  0
LINE
  5
239
100
AcDbEntity
  8
RACCORDO
100
AcDbLine
 62
250
  6
CONTINUOUS
 10
135.6530689318
 20
80.0913001368
 30
0.0
 11
135.544169755
 21
80.1552514889
 31
0.0
  0
LWPOLYLINE
  5
23A
100
AcDbEntity
  8
RACCORDO
100
AcDbPolyline
 62
7
  6
CONTINUOUS
 90
13
 70
0
 10
112.5187997544
 20
94.9402739308
 10
114.0464758307
 20
93.8321494425
 10
115.681415522
 20
92.6688642459
 10
117.3792526024
 20
91.4848160543
 10
119.1414343921
 20
90.2809169096
 10
120.969402381
 20
89.0580978124
 10
122.8646211727
 20
87.8173064298
 10
124.828598727
 20
86.559549574
 10
126.8628372495
 20
85.2859276719
 10
128.9673880176
 20
83.996924508
 10
131.1385316386
 20
82.6908684026
 10
133.3714529592
 20
81.3651948206
 10
135.6041911087
 20
80.0500782435
  0
LINE
  5
23B
100
AcDbEntity
  8
RACCORDO
100
AcDbLine
 62
7
  6
CONTINUOUS
 10
112.2861854613
 20
95.1106180167
 30
0.0
 11
112.5188003612
 21
94.9402734865
 31
0.0
  0
LINE
  5
23C
100
AcDbEntity
  8
RACCORDO
100
AcDbLine
 62
250
  6
CONTINUOUS
 10
112.5482140251
 20
94.980534875
 30
0.0
 11
112.3846061349
 21
95.1001961772
 31
0.0
  0
LINE
  5
23D
100
AcDbEntity
  8
RACCORDO
100
AcDbLine
 62
7
  6
CONTINUOUS
 10
128.4561917441
 20
135.7449887545
 30
0.0
 11
128.4561917441
 21
102.0203501766
 31
0.0
  0
LINE
  5
23E
100
AcDbEntity
  8
RACCORDO
100
AcDbLine
 62
250
  6
CONTINUOUS
 10
166.0206301837
 20
77.0341128707
 30
0.0
 11
165.3430455294
 21
77.4184808261
 31
0.0
  0
LINE
  5
23F
100
AcDbEntity
  8
0
100
AcDbLine
 62
7
  6
CONTINUOUS
 10
153.6374542522
 20
79.8236066249
 30
0.0
 11
153.2819187902
 21
80.0281542865
 31
0.0
  0
LINE
  5
240
100
AcDbEntity
  8
0
100
AcDbLine
 62
7
  6
CONTINUOUS
 10
152.8605910323
 20
81.0076222773
 30
0.0
 11
152.6624785263
 21
81.1216829102
 31
0.0
  0
LINE
  5
241
100
AcDbEntity
  8
0
100
AcDbLine
 62
7
  6
CONTINUOUS
 10
152.6286242252
 20
81.4505235836
 30
0.0
 11
152.8397842714
 21
81.3289502266
 31
0.0
  0
LINE
  5
242
100
AcDbEntity
  8
0
100
AcDbLine
 62
7
  6
CONTINUOUS
 10
152.7160355909
 20
80.3538871668
 30
0.0
 11
152.3480888552
 21
80.5657945071
 31
0.0
  0
LINE
  5
243
100
AcDbEntity
  8
0
100
AcDbLine
 62
7
  6
CONTINUOUS
 10
152.2396198937
 20
80.6282802363
 30
0.0
 11
151.8503583339
 21
80.8525850812
 31
0.0
  0
LINE
  5
244
100
AcDbEntity
  8
0
100
AcDbLine
 62
7
  6
CONTINUOUS
 10
151.7270324488
 20
81.2992009096
 30
0.0
 11
151.2242144361
 21
81.5891158591
 31
0.0
  0
LINE
  5
245
100
AcDbEntity
  8
0
100
AcDbLine
 62
7
  6
CONTINUOUS
 10
151.2788140855
 20
81.8487682654
 30
0.0
 11
151.6323177613
 21
81.6449452154
 31
0.0
  0
LINE
  5
246
100
AcDbEntity
  8
0
100
AcDbLine
 62
7
  6
CONTINUOUS
 10
151.2081500225
 20
83.1121314807
 30
0.0
 11
151.5653303616
 21
82.9061917666
 31
0.0
  0
LINE
  5
247
100
AcDbEntity
  8
0
100
AcDbLine
 62
7
  6
CONTINUOUS
 10
151.1500110719
 20
81.2563929078
 30
0.0
 11
150.784905247
 21
81.4670317282
 31
0.0
  0
LINE
  5
248
100
AcDbEntity
  8
0
100
AcDbLine
 62
7
  6
CONTINUOUS
 10
150.7269513974
 20
81.5004746762
 30
0.0
 11
150.3659477121
 21
81.708844838
 31
0.0
  0
LINE
  5
249
100
AcDbEntity
  8
0
100
AcDbLine
 62
7
  6
CONTINUOUS
 10
150.0651155375
 20
83.771724044
 30
0.0
 11
150.43019477
 21
83.5609620846
 31
0.0
  0
LINE
  5
24A
100
AcDbEntity
  8
0
100
AcDbLine
 62
7
  6
CONTINUOUS
 10
150.1760506655
 20
83.7731456408
 30
0.0
 11
150.1218149829
 21
83.8044615931
 31
0.0
  0
LINE
  5
24B
100
AcDbEntity
  8
0
100
AcDbLine
 62
7
  6
CONTINUOUS
 10
149.8514870538
 20
82.0059351382
 30
0.0
 11
149.7997518583
 21
82.0358205873
 31
0.0
  0
LINE
  5
24C
100
AcDbEntity
  8
0
100
AcDbLine
 62
7
  6
CONTINUOUS
 10
148.9628008321
 20
84.4086175461
 30
0.0
 11
149.3312584146
 21
84.1956434353
 31
0.0
  0
LINE
  5
24D
100
AcDbEntity
  8
0
100
AcDbLine
 62
7
  6
CONTINUOUS
 10
149.287493573
 20
82.3318259486
 30
0.0
 11
148.934740583
 21
82.5357607162
 31
0.0
  0
LINE
  5
24E
100
AcDbEntity
  8
0
100
AcDbLine
 62
7
  6
CONTINUOUS
 10
148.7362735203
 20
82.6505345376
 30
0.0
 11
148.3676604984
 21
82.8637716493
 31
0.0
  0
LINE
  5
24F
100
AcDbEntity
  8
0
100
AcDbLine
 62
7
  6
CONTINUOUS
 10
148.2362211833
 20
84.8289628504
 30
0.0
 11
148.6048342052
 21
84.6157257388
 31
0.0
  0
LINE
  5
250
100
AcDbEntity
  8
0
100
AcDbLine
 62
7
  6
CONTINUOUS
 10
147.7311978066
 20
85.1211401214
 30
0.0
 11
148.0994544496
 21
84.9079887489
 31
0.0
  0
LINE
  5
251
100
AcDbEntity
  8
0
100
AcDbLine
 62
7
  6
CONTINUOUS
 10
147.6634472069
 20
83.2713930071
 30
0.0
 11
147.3387981647
 21
83.4594185329
 31
0.0
  0
LINE
  5
252
100
AcDbEntity
  8
0
100
AcDbLine
 62
7
  6
CONTINUOUS
 10
146.6480089017
 20
85.7486122653
 30
0.0
 11
147.0480836353
 21
85.5167674582
 31
0.0
  0
LINE
  5
253
100
AcDbEntity
  8
RACCORDO
100
AcDbLine
 62
250
  6
CONTINUOUS
 10
134.2008250303
 20
95.4064695704
 30
0.0
 11
133.5514621502
 21
95.7885054912
 31
0.0
  0
LINE
  5
254
100
AcDbEntity
  8
RACCORDO
100
AcDbLine
 62
7
  6
CONTINUOUS
 10
154.644592722
 20
88.7123785355
 30
0.0
 11
153.7131452704
 21
88.5980643233
 31
0.0
  0
LINE
  5
255
100
AcDbEntity
  8
RACCORDO
100
AcDbLine
 62
7
  6
CONTINUOUS
 10
128.8096912868
 20
101.4080710089
 30
0.0
 11
174.1862277433
 21
75.2082275605
 31
0.0
  0
LINE
  5
256
100
AcDbEntity
  8
DRAFT
100
AcDbLine
 62
7
  6
CONTINUOUS
 10
136.2766852534
 20
97.1947304912
 30
0.0
 11
140.6394145856
 21
94.6757452526
 31
0.0
  0
LINE
  5
257
100
AcDbEntity
  8
DRAFT
100
AcDbLine
 62
7
  6
CONTINUOUS
 10
168.0964904068
 20
78.8223737914
 30
0.0
 11
172.459219739
 21
76.3033885529
 31
0.0
  0
LINE
  5
258
100
AcDbEntity
  8
DRAFT
100
AcDbLine
 62
7
  6
CONTINUOUS
 10
168.2453233422
 20
78.8997493571
 30
0.0
 11
172.6937368487
 21
76.3313029867
 31
0.0
  0
LINE
  5
259
100
AcDbEntity
  8
DRAFT
100
AcDbLine
 62
7
  6
CONTINUOUS
 10
136.4255181889
 20
97.2721060569
 30
0.0
 11
140.8739316953
 21
94.7036596864
 31
0.0
  0
LINE
  5
25A
100
AcDbEntity
  8
DRAFT
100
AcDbLine
 62
7
  6
CONTINUOUS
 10
136.648767592
 20
97.3881694054
 30
0.0
 11
140.9744390281
 21
94.8905809317
 31
0.0
  0
LINE
  5
25B
100
AcDbEntity
  8
DRAFT
100
AcDbLine
 62
7
  6
CONTINUOUS
 10
168.4685727454
 20
79.0158127057
 30
0.0
 11
172.7942441815
 21
76.5182242319
 31
0.0
  0
LINE
  5
25C
100
AcDbEntity
  8
DRAFT
100
AcDbLine
 62
7
  6
CONTINUOUS
 10
168.6174056809
 20
79.0931882714
 30
0.0
 11
173.0287612913
 21
76.5461386657
 31
0.0
  0
LINE
  5
25D
100
AcDbEntity
  8
DRAFT
100
AcDbLine
 62
7
  6
CONTINUOUS
 10
136.7976005275
 20
97.4655449712
 30
0.0
 11
141.2089561379
 21
94.9184953655
 31
0.0
  0
LINE
  5
25E
100
AcDbEntity
  8
DRAFT
100
AcDbLine
 62
7
  6
CONTINUOUS
 10
137.0208499307
 20
97.5816083197
 30
0.0
 11
141.3094634706
 21
95.1054166107
 31
0.0
  0
LINE
  5
25F
100
AcDbEntity
  8
DRAFT
100
AcDbLine
 62
7
  6
CONTINUOUS
 10
168.8406550841
 20
79.20925162
 30
0.0
 11
173.129268624
 21
76.733059911
 31
0.0
  0
LINE
  5
260
100
AcDbEntity
  8
DRAFT
100
AcDbLine
 62
7
  6
CONTINUOUS
 10
168.9894880195
 20
79.2866271857
 30
0.0
 11
173.3637857338
 21
76.7609743448
 31
0.0
  0
LINE
  5
261
100
AcDbEntity
  8
DRAFT
100
AcDbLine
 62
7
  6
CONTINUOUS
 10
137.1696828662
 20
97.6589838854
 30
0.0
 11
141.5439805804
 21
95.1333310445
 31
0.0
  0
LINE
  5
262
100
AcDbEntity
  8
DRAFT
100
AcDbLine
 62
7
  6
CONTINUOUS
 10
137.3929322693
 20
97.775047234
 30
0.0
 11
141.6444879132
 21
95.3202522898
 31
0.0
  0
LINE
  5
263
100
AcDbEntity
  8
DRAFT
100
AcDbLine
 62
7
  6
CONTINUOUS
 10
169.2127374227
 20
79.4026905343
 30
0.0
 11
173.4642930666
 21
76.94789559
 31
0.0
  0
LINE
  5
264
100
AcDbEntity
  8
DRAFT
100
AcDbLine
 62
7
  6
CONTINUOUS
 10
169.3615703582
 20
79.4800661
 30
0.0
 11
173.6988101763
 21
76.9758100238
 31
0.0
  0
LINE
  5
265
100
AcDbEntity
  8
DRAFT
100
AcDbLine
 62
7
  6
CONTINUOUS
 10
137.5417652048
 20
97.8524227997
 30
0.0
 11
141.8790050229
 21
95.3481667236
 31
0.0
  0
LINE
  5
266
100
AcDbEntity
  8
DRAFT
100
AcDbLine
 62
7
  6
CONTINUOUS
 10
137.765014608
 20
97.9684861483
 30
0.0
 11
141.9795123557
 21
95.5350879688
 31
0.0
  0
LINE
  5
267
100
AcDbEntity
  8
DRAFT
100
AcDbLine
 62
7
  6
CONTINUOUS
 10
169.5848197614
 20
79.5961294485
 30
0.0
 11
173.7993175091
 21
77.1627312691
 31
0.0
  0
LINE
  5
268
100
AcDbEntity
  8
RACCORDO
100
AcDbLine
 62
250
  6
CONTINUOUS
 10
154.644592722
 20
88.7123785355
 30
0.0
 11
158.1218209231
 21
86.7046705521
 31
0.0
  0
LINE
  5
269
100
AcDbEntity
  8
RACCORDO
100
AcDbLine
 62
7
  6
CONTINUOUS
 10
154.8095414514
 20
88.6847889787
 30
0.0
 11
158.1568818578
 21
86.75207658
 31
0.0
  0
LINE
  5
26A
100
AcDbEntity
  8
RACCORDO
100
AcDbLine
 62
250
  6
CONTINUOUS
 10
138.6026698033
 20
98.1789013455
 30
0.0
 11
142.3439386884
 21
96.0187395803
 31
0.0
  0
LINE
  5
26B
100
AcDbEntity
  8
RACCORDO
100
AcDbLine
 62
250
  6
CONTINUOUS
 10
170.4224749567
 20
79.8065446457
 30
0.0
 11
174.1012115437
 21
77.6824882458
 31
0.0
  0
LINE
  5
26C
100
AcDbEntity
  8
RACCORDO
100
AcDbLine
 62
7
  6
CONTINUOUS
 10
138.7442392345
 20
98.1648107024
 30
0.0
 11
142.3851651408
 21
96.0625857156
 31
0.0
  0
LINE
  5
26D
100
AcDbEntity
  8
RACCORDO
100
AcDbLine
 62
7
  6
CONTINUOUS
 10
170.5640443879
 20
79.7924540026
 30
0.0
 11
174.0990736031
 21
77.751372438
 31
0.0
  0
LINE
  5
26E
100
AcDbEntity
  8
RACCORDO
100
AcDbLine
 62
7
  6
CONTINUOUS
 10
142.0139330787
 20
94.9784473662
 30
0.0
 11
142.0139330787
 21
95.5571603864
 31
0.0
  0
LINE
  5
26F
100
AcDbEntity
  8
RACCORDO
100
AcDbLine
 62
7
  6
CONTINUOUS
 10
142.426581665
 20
95.5622624956
 30
0.0
 11
142.426581665
 21
95.9710383433
 31
0.0
  0
LINE
  5
270
100
AcDbEntity
  8
RACCORDO
100
AcDbLine
 62
250
  6
CONTINUOUS
 10
142.2897715827
 20
95.3276796974
 30
0.0
 11
142.2775926541
 21
95.2712795387
 31
0.0
  0
LINE
  5
271
100
AcDbEntity
  8
RACCORDO
100
AcDbLine
 62
7
  6
CONTINUOUS
 10
142.3482816351
 20
95.4105266813
 30
0.0
 11
142.3337887547
 21
95.3434106992
 31
0.0
  0
LINE
  5
272
100
AcDbEntity
  8
0
100
AcDbLine
 62
7
  6
CONTINUOUS
 10
140.5992005546
 20
94.6009561149
 30
0.0
 11
140.6394145856
 21
94.6757452526
 31
0.0
  0
LINE
  5
273
100
AcDbEntity
  8
0
100
AcDbLine
 62
7
  6
CONTINUOUS
 10
136.2320230473
 20
97.122509674
 30
0.0
 11
136.2766852534
 21
97.1947304912
 31
0.0
  0
LINE
  5
274
100
AcDbEntity
  8
DRAFT
100
AcDbLine
 62
7
  6
CONTINUOUS
 10
136.5371428904
 20
97.2076671896
 30
0.0
 11
136.648767592
 21
97.3881694054
 31
0.0
  0
LINE
  5
275
100
AcDbEntity
  8
DRAFT
100
AcDbLine
 62
7
  6
CONTINUOUS
 10
136.9092252291
 20
97.4011061039
 30
0.0
 11
137.0208499307
 21
97.5816083197
 31
0.0
  0
LINE
  5
276
100
AcDbEntity
  8
DRAFT
100
AcDbLine
 62
7
  6
CONTINUOUS
 10
137.2813075678
 20
97.5945450182
 30
0.0
 11
137.3929322693
 21
97.775047234
 31
0.0
  0
LINE
  5
277
100
AcDbEntity
  8
DRAFT
100
AcDbLine
 62
7
  6
CONTINUOUS
 10
137.6533899064
 20
97.7879839325
 30
0.0
 11
137.765014608
 21
97.9684861483
 31
0.0
  0
LINE
  5
278
100
AcDbEntity
  8
RACCORDO
100
AcDbLine
 62
7
  6
CONTINUOUS
 10
138.6026698033
 20
98.1789013455
 30
0.0
 11
137.8032426937
 21
97.9883602423
 31
0.0
  0
LINE
  5
279
100
AcDbEntity
  8
0
100
AcDbLine
 62
7
  6
CONTINUOUS
 10
152.3480888301
 20
80.5657945222
 30
0.0
 11
152.3410657612
 21
80.6642007745
 31
0.0
  0
LINE
  5
27A
100
AcDbEntity
  8
0
100
AcDbLine
 62
7
  6
CONTINUOUS
 10
153.2336893471
 20
80.9464874384
 30
0.0
 11
153.2344691714
 21
80.9348774061
 31
0.0
  0
LINE
  5
27B
100
AcDbEntity
  8
0
100
AcDbLine
 62
7
  6
CONTINUOUS
 10
152.5934846415
 20
81.9905176765
 30
0.0
 11
152.6286242174
 21
81.4505235885
 31
0.0
  0
LINE
  5
27C
100
AcDbEntity
  8
DRAFT
100
AcDbLine
 62
7
  6
CONTINUOUS
 10
140.8739316953
 20
94.7036596864
 30
0.0
 11
140.9744390281
 21
94.8905809317
 31
0.0
  0
LINE
  5
27D
100
AcDbEntity
  8
DRAFT
100
AcDbLine
 62
7
  6
CONTINUOUS
 10
141.2089561379
 20
94.9184953655
 30
0.0
 11
141.3094634706
 21
95.1054166107
 31
0.0
  0
LINE
  5
27E
100
AcDbEntity
  8
DRAFT
100
AcDbLine
 62
7
  6
CONTINUOUS
 10
141.5439805804
 20
95.1333310445
 30
0.0
 11
141.6444879132
 21
95.3202522898
 31
0.0
  0
LINE
  5
27F
100
AcDbEntity
  8
DRAFT
100
AcDbLine
 62
7
  6
CONTINUOUS
 10
141.8790050229
 20
95.3481667236
 30
0.0
 11
141.9795123557
 21
95.5350879688
 31
0.0
  0
LINE
  5
280
100
AcDbEntity
  8
RACCORDO
100
AcDbLine
 62
250
  6
CONTINUOUS
 10
142.426581665
 20
95.5622624956
 30
0.0
 11
142.0139330787
 21
94.97797502
 31
0.0
  0
LINE
  5
281
100
AcDbEntity
  8
RACCORDO
100
AcDbLine
 62
7
  6
CONTINUOUS
 10
142.408528721
 20
95.4958332082
 30
0.0
 11
141.9940038695
 21
94.9088890454
 31
0.0
  0
LINE
  5
282
100
AcDbEntity
  8
RACCORDO
100
AcDbLine
 62
7
  6
CONTINUOUS
 10
142.0139330787
 20
95.5571603864
 30
0.0
 11
142.3439386884
 21
96.0187395803
 31
0.0
  0
LINE
  5
283
100
AcDbEntity
  8
RACCORDO
100
AcDbLine
 62
7
  6
CONTINUOUS
 10
157.9238356554
 20
86.1668644673
 30
0.0
 11
157.9238356554
 21
85.5881514471
 31
0.0
  0
LINE
  5
284
100
AcDbEntity
  8
RACCORDO
100
AcDbLine
 62
7
  6
CONTINUOUS
 10
158.1714021767
 20
86.6760587396
 30
0.0
 11
158.1714021767
 21
86.2664047736
 31
0.0
  0
LINE
  5
285
100
AcDbEntity
  8
0
100
AcDbLine
 62
7
  6
CONTINUOUS
 10
151.2561288781
 20
81.5109114081
 30
0.0
 11
151.2679657373
 21
81.5638820913
 31
0.0
  0
LINE
  5
286
100
AcDbEntity
  8
0
100
AcDbLine
 62
7
  6
CONTINUOUS
 10
150.784905247
 20
81.4670317284
 30
0.0
 11
150.8005546535
 21
81.5289404295
 31
0.0
  0
LINE
  5
287
100
AcDbEntity
  8
RACCORDO
100
AcDbLine
 62
250
  6
CONTINUOUS
 10
141.2703630399
 20
94.2134353075
 30
0.0
 11
141.8118373148
 21
94.7821193791
 31
0.0
  0
LINE
  5
288
100
AcDbEntity
  8
RACCORDO
100
AcDbLine
 62
250
  6
CONTINUOUS
 10
142.1705207156
 20
95.1588270939
 30
0.0
 11
142.2775926541
 21
95.2712795387
 31
0.0
  0
LINE
  5
289
100
AcDbEntity
  8
RACCORDO
100
AcDbLine
 62
7
  6
CONTINUOUS
 10
141.2884215916
 20
94.2030085261
 30
0.0
 11
141.8856211479
 21
94.8302181479
 31
0.0
  0
LINE
  5
28A
100
AcDbEntity
  8
RACCORDO
100
AcDbLine
 62
7
  6
CONTINUOUS
 10
142.0901451308
 20
95.0450197308
 30
0.0
 11
142.283138758
 21
95.2477115423
 31
0.0
  0
LINE
  5
28B
100
AcDbEntity
  8
RACCORDO
100
AcDbLine
 62
250
  6
CONTINUOUS
 10
141.0423522883
 20
94.3450858579
 30
0.0
 11
142.0139330787
 21
94.9784473662
 31
0.0
  0
LINE
  5
28C
100
AcDbEntity
  8
RACCORDO
100
AcDbLine
 62
7
  6
CONTINUOUS
 10
141.9682724327
 20
94.8840974989
 30
0.0
 11
141.0948907772
 21
94.3147507928
 31
0.0
  0
LINE
  5
28D
100
AcDbEntity
  8
SMUSSO
100
AcDbLine
 62
7
  6
CONTINUOUS
 10
142.0139330787
 20
95.5571603864
 30
0.0
 11
141.9795123557
 21
95.5350879688
 31
0.0
  0
LINE
  5
28E
100
AcDbEntity
  8
DRAFT
100
AcDbLine
 62
7
  6
CONTINUOUS
 10
141.7784976902
 20
95.4061865614
 30
0.0
 11
141.6444879132
 21
95.3202522898
 31
0.0
  0
LINE
  5
28F
100
AcDbEntity
  8
DRAFT
100
AcDbLine
 62
7
  6
CONTINUOUS
 10
141.4434732476
 20
95.1913508823
 30
0.0
 11
141.3094634706
 21
95.1054166107
 31
0.0
  0
LINE
  5
290
100
AcDbEntity
  8
DRAFT
100
AcDbLine
 62
7
  6
CONTINUOUS
 10
141.1084488051
 20
94.9765152033
 30
0.0
 11
140.9744390281
 21
94.8905809317
 31
0.0
  0
LINE
  5
291
100
AcDbEntity
  8
DRAFT
100
AcDbLine
 62
7
  6
CONTINUOUS
 10
140.7734243626
 20
94.7616795242
 30
0.0
 11
140.6394145856
 21
94.6757452526
 31
0.0
  0
LINE
  5
292
100
AcDbEntity
  8
SMUSSO
100
AcDbLine
 62
7
  6
CONTINUOUS
 10
137.8032426937
 20
97.9883602423
 30
0.0
 11
137.765014608
 21
97.9684861483
 31
0.0
  0
LINE
  5
293
100
AcDbEntity
  8
DRAFT
100
AcDbLine
 62
7
  6
CONTINUOUS
 10
137.5417652048
 20
97.8524227997
 30
0.0
 11
137.3929322693
 21
97.775047234
 31
0.0
  0
LINE
  5
294
100
AcDbEntity
  8
DRAFT
100
AcDbLine
 62
7
  6
CONTINUOUS
 10
137.1696828662
 20
97.6589838854
 30
0.0
 11
137.0208499307
 21
97.5816083197
 31
0.0
  0
LINE
  5
295
100
AcDbEntity
  8
DRAFT
100
AcDbLine
 62
7
  6
CONTINUOUS
 10
136.7976005275
 20
97.4655449712
 30
0.0
 11
136.648767592
 21
97.3881694054
 31
0.0
  0
LINE
  5
296
100
AcDbEntity
  8
DRAFT
100
AcDbLine
 62
7
  6
CONTINUOUS
 10
136.4255181889
 20
97.2721060569
 30
0.0
 11
136.2766852534
 21
97.1947304912
 31
0.0
  0
LINE
  5
297
100
AcDbEntity
  8
RACCORDO
100
AcDbLine
 62
250
  6
CONTINUOUS
 10
158.1714021767
 20
86.2670536837
 30
0.0
 11
157.9238356554
 21
85.5874498928
 31
0.0
  0
LINE
  5
298
100
AcDbEntity
  8
RACCORDO
100
AcDbLine
 62
7
  6
CONTINUOUS
 10
158.1627624718
 20
86.2200544189
 30
0.0
 11
157.9165853868
 21
85.5442648198
 31
0.0
  0
LINE
  5
299
100
AcDbEntity
  8
RACCORDO
100
AcDbLine
 62
7
  6
CONTINUOUS
 10
157.9238356554
 20
86.1668644673
 30
0.0
 11
158.1218209231
 21
86.7046705521
 31
0.0
  0
LINE
  5
29A
100
AcDbEntity
  8
0
100
AcDbLine
 62
7
  6
CONTINUOUS
 10
146.6480089018
 20
85.7486122644
 30
0.0
 11
146.7047084402
 21
85.7813498673
 31
0.0
  0
LWPOLYLINE
  5
29B
100
AcDbEntity
  8
RACCORDO
100
AcDbPolyline
 62
7
  6
CONTINUOUS
 90
6
 70
0
 10
169.7942660876
 20
111.8321932124
 10
170.672448542
 20
111.3404626112
 10
171.5253523792
 20
110.8652279084
 10
172.3530632804
 20
110.406547397
 10
173.1556119259
 20
109.964453366
 10
173.8792061798
 20
109.5682968311
  0
LINE
  5
29C
100
AcDbEntity
  8
RACCORDO
100
AcDbLine
 62
7
  6
CONTINUOUS
 10
167.9614415411
 20
112.8647517169
 30
0.0
 11
169.7942660876
 21
111.8321932124
 31
0.0
  0
LINE
  5
29D
100
AcDbEntity
  8
RACCORDO
100
AcDbLine
 62
7
  6
CONTINUOUS
 10
166.0824783378
 20
113.9291537242
 30
0.0
 11
167.9614415411
 21
112.8647517169
 31
0.0
  0
LINE
  5
29E
100
AcDbEntity
  8
RACCORDO
100
AcDbLine
 62
250
  6
CONTINUOUS
 10
166.0206301837
 20
114.0806737501
 30
0.0
 11
166.1324434885
 21
114.0172754091
 31
0.0
  0
LWPOLYLINE
  5
29F
100
AcDbEntity
  8
RACCORDO
100
AcDbPolyline
 62
7
  6
CONTINUOUS
 90
12
 70
0
 10
173.8792385383
 20
109.568279178
 10
173.8948708919
 20
109.5593271108
 10
173.9174784453
 20
109.5449338891
 10
173.941117772
 20
109.5280875597
 10
173.9653894111
 20
109.508881979
 10
173.9900597868
 20
109.4873447479
 10
174.0149152797
 20
109.4635131596
 10
174.0396190088
 20
109.4375838662
 10
174.0639443138
 20
109.4096954854
 10
174.0877067421
 20
109.3799690073
 10
174.1106588067
 20
109.3486405694
 10
174.1338695078
 20
109.3139503296
  0
LWPOLYLINE
  5
2A0
100
AcDbEntity
  8
RACCORDO
100
AcDbPolyline
 62
7
  6
CONTINUOUS
 90
7
 70
0
 10
153.608178852
 20
121.0553928664
 10
155.3924765552
 20
120.0301132611
 10
157.1785367262
 20
119.0058223262
 10
158.9663576981
 20
117.9825210161
 10
160.755937936
 20
116.9602102085
 10
162.5472757718
 20
115.9388908567
 10
166.082477817
 20
113.9291540197
  0
LINE
  5
2A1
100
AcDbEntity
  8
RACCORDO
100
AcDbLine
 62
7
  6
CONTINUOUS
 10
150.1018672675
 20
123.0760080612
 30
0.0
 11
153.608178852
 21
121.0553928664
 31
0.0
  0
LINE
  5
2A2
100
AcDbEntity
  8
RACCORDO
100
AcDbLine
 62
250
  6
CONTINUOUS
 10
150.0400874315
 20
123.2274911755
 30
0.0
 11
150.1520076836
 21
123.1629324389
 31
0.0
  0
LWPOLYLINE
  5
2A3
100
AcDbEntity
  8
RACCORDO
100
AcDbPolyline
 62
7
  6
CONTINUOUS
 90
7
 70
0
 10
137.7376149925
 20
130.2637151697
 10
139.50607826
 20
129.2296446351
 10
141.2763197951
 20
128.19655363
 10
143.0483379457
 20
127.1644431171
 10
144.8221311907
 20
126.1333139819
 10
146.5976978767
 20
125.1031671857
 10
150.1018672675
 20
123.0760080612
  0
LINE
  5
2A4
100
AcDbEntity
  8
RACCORDO
100
AcDbLine
 62
250
  6
CONTINUOUS
 10
134.2008250303
 20
132.4530304498
 30
0.0
 11
134.3128113607
 21
132.3872963139
 31
0.0
  0
LINE
  5
2A5
100
AcDbEntity
  8
RACCORDO
100
AcDbLine
 62
7
  6
CONTINUOUS
 10
133.3508400476
 20
132.8376083675
 30
0.0
 11
137.7376149925
 21
130.2637151697
 31
0.0
  0
LINE
  5
2A6
100
AcDbEntity
  8
RACCORDO
100
AcDbLine
 62
250
  6
CONTINUOUS
 10
126.6524753533
 20
136.9522210595
 30
0.0
 11
126.7644325384
 21
136.8841150443
 31
0.0
  0
LWPOLYLINE
  5
2A7
100
AcDbEntity
  8
RACCORDO
100
AcDbPolyline
 62
7
  6
CONTINUOUS
 90
8
 70
0
 10
126.7138609171
 20
136.800982059
 10
127.3947663598
 20
136.3863332882
 10
128.1598201152
 20
135.9232953073
 10
128.9536594818
 20
135.4456964174
 10
129.7762271751
 20
134.953519815
 10
130.627417326
 20
134.4467192746
 10
131.5070729624
 20
133.9252149097
 10
133.3508400476
 20
132.8376083675
  0
LWPOLYLINE
  5
2A8
100
AcDbEntity
  8
RACCORDO
100
AcDbPolyline
 62
7
  6
CONTINUOUS
 90
9
 70
0
 10
174.2747108733
 20
73.1215573935
 10
174.2751375272
 20
73.1059876998
 10
174.274829005
 20
73.0888703123
 10
174.2737426504
 20
73.0736081939
 10
174.2720138927
 20
73.0602403085
 10
174.2698328393
 20
73.0490018486
 10
174.2675149724
 20
73.0402947334
 10
174.2654072119
 20
73.0342063638
 10
174.2645209795
 20
73.0320696363
  0
LINE
  5
2A9
100
AcDbEntity
  8
RACCORDO
100
AcDbLine
 62
7
  6
CONTINUOUS
 10
157.9238356554
 20
86.1668644673
 30
0.0
 11
156.6363890197
 21
85.3412844883
 31
0.0
  0
LINE
  5
2AA
100
AcDbEntity
  8
0
100
AcDbLine
 62
7
  6
CONTINUOUS
 10
147.0480836353
 20
85.516767459
 30
0.0
 11
147.1047831529
 21
85.5495050499
 31
0.0
  0
LINE
  5
2AB
100
AcDbEntity
  8
0
100
AcDbLine
 62
7
  6
CONTINUOUS
 10
147.7311978066
 20
85.1211401208
 30
0.0
 11
147.787897295
 21
85.1538776948
 31
0.0
  0
LINE
  5
2AC
100
AcDbEntity
  8
0
100
AcDbLine
 62
7
  6
CONTINUOUS
 10
148.0994544496
 20
84.9079887494
 30
0.0
 11
148.1561539255
 21
84.9407263162
 31
0.0
  0
LINE
  5
2AD
100
AcDbEntity
  8
0
100
AcDbLine
 62
7
  6
CONTINUOUS
 10
148.2362211833
 20
84.8289628499
 30
0.0
 11
148.2929206532
 21
84.8617004132
 31
0.0
  0
LINE
  5
2AE
100
AcDbEntity
  8
0
100
AcDbLine
 62
7
  6
CONTINUOUS
 10
148.6048342051
 20
84.6157257392
 30
0.0
 11
148.6615336655
 21
84.648463297
 31
0.0
  0
LINE
  5
2AF
100
AcDbEntity
  8
0
100
AcDbLine
 62
7
  6
CONTINUOUS
 10
148.9628008321
 20
84.4086175458
 30
0.0
 11
149.0195002873
 21
84.4413551006
 31
0.0
  0
LINE
  5
2B0
100
AcDbEntity
  8
0
100
AcDbLine
 62
7
  6
CONTINUOUS
 10
147.6634472068
 20
83.2713930078
 30
0.0
 11
147.7201821563
 21
83.3041510566
 31
0.0
  0
LINE
  5
2B1
100
AcDbEntity
  8
0
100
AcDbLine
 62
7
  6
CONTINUOUS
 10
149.3312584146
 20
84.1956434355
 30
0.0
 11
149.3879578645
 21
84.2283809873
 31
0.0
  0
LINE
  5
2B2
100
AcDbEntity
  8
0
100
AcDbLine
 62
7
  6
CONTINUOUS
 10
150.0651155375
 20
83.771724044
 30
0.0
 11
150.1218149829
 21
83.8044615931
 31
0.0
  0
LINE
  5
2B3
100
AcDbEntity
  8
0
100
AcDbLine
 62
7
  6
CONTINUOUS
 10
148.7362735203
 20
82.6505345381
 30
0.0
 11
148.7930084361
 21
82.6832925674
 31
0.0
  0
LINE
  5
2B4
100
AcDbEntity
  8
0
100
AcDbLine
 62
7
  6
CONTINUOUS
 10
150.43019477
 20
83.5609620846
 30
0.0
 11
150.4868942161
 21
83.5936996341
 31
0.0
  0
LINE
  5
2B5
100
AcDbEntity
  8
0
100
AcDbLine
 62
7
  6
CONTINUOUS
 10
149.287493573
 20
82.3318259489
 30
0.0
 11
149.3442284785
 21
82.3645839723
 31
0.0
  0
LINE
  5
2B6
100
AcDbEntity
  8
0
100
AcDbLine
 62
7
  6
CONTINUOUS
 10
151.2081500225
 20
83.112131481
 30
0.0
 11
151.2648494765
 21
83.1448690352
 31
0.0
  0
LINE
  5
2B7
100
AcDbEntity
  8
0
100
AcDbLine
 62
7
  6
CONTINUOUS
 10
149.8514870538
 20
82.0059351382
 30
0.0
 11
149.9082219537
 21
82.0386931583
 31
0.0
  0
LINE
  5
2B8
100
AcDbEntity
  8
0
100
AcDbLine
 62
7
  6
CONTINUOUS
 10
151.5653303616
 20
82.9061917663
 30
0.0
 11
151.6220298224
 21
82.9389293243
 31
0.0
  0
LINE
  5
2B9
100
AcDbEntity
  8
RACCORDO
100
AcDbLine
 62
7
  6
CONTINUOUS
 10
153.7131452704
 20
88.5980643233
 30
0.0
 11
152.2832909246
 21
87.8547087713
 31
0.0
  0
LWPOLYLINE
  5
2BA
100
AcDbEntity
  8
RACCORDO
100
AcDbPolyline
 62
7
  6
CONTINUOUS
 90
15
 70
0
 10
174.1338706367
 20
109.3139485592
 10
174.1514701574
 20
109.2852848803
 10
174.1708883932
 20
109.2508335805
 10
174.1889351112
 20
109.2155610174
 10
174.2054415464
 20
109.1797938765
 10
174.2203175705
 20
109.143756202
 10
174.2334813749
 20
109.1076958997
 10
174.2448351374
 20
109.0719850361
 10
174.2543579093
 20
109.0368606983
 10
174.2620416173
 20
109.0025857762
 10
174.2678808149
 20
108.9695710206
 10
174.2719464559
 20
108.9380233803
 10
174.2743286537
 20
108.9081532083
 10
174.2751431119
 20
108.880355209
 10
174.274675974
 20
108.8572357129
  0
LWPOLYLINE
  5
2BB
100
AcDbEntity
  8
RACCORDO
100
AcDbPolyline
 62
7
  6
CONTINUOUS
 90
10
 70
0
 10
173.9140759772
 20
90.7743520201
 10
173.9189890968
 20
88.5937966612
 10
173.9338487213
 20
86.4157453213
 10
173.95793807
 20
84.3056385272
 10
173.9905415733
 20
82.2631002307
 10
174.0310227474
 20
80.2877704005
 10
174.0795702945
 20
78.3797667305
 10
174.1366869283
 20
76.5394755588
 10
174.2026416047
 20
74.7671585116
 10
174.2747089387
 20
73.1215982213
  0
LINE
  5
2BC
100
AcDbEntity
  8
RACCORDO
100
AcDbLine
 62
7
  6
CONTINUOUS
 10
173.8337382321
 20
76.6060906665
 30
0.0
 11
173.8337382321
 21
77.1848036866
 31
0.0
  0
LWPOLYLINE
  5
2BD
100
AcDbEntity
  8
RACCORDO
100
AcDbPolyline
 62
7
  6
CONTINUOUS
 90
10
 70
0
 10
174.2746742769
 20
108.8571979047
 10
174.2028328793
 20
107.1312819735
 10
174.136852879
 20
105.2802968033
 10
174.0797107567
 20
103.3718647833
 10
174.031142123
 20
101.4059302617
 10
173.9906309789
 20
99.3822784967
 10
173.9580101832
 20
97.3008291685
 10
173.9338976648
 20
95.1619763203
 10
173.9190134825
 20
92.9661985444
 10
173.9140759772
 20
90.7743511395
  0
LINE
  5
2BE
100
AcDbEntity
  8
RACCORDO
100
AcDbLine
 62
250
  6
CONTINUOUS
 10
157.1183019671
 20
85.0630339923
 30
0.0
 11
157.9238356554
 21
85.5881514471
 31
0.0
  0
LINE
  5
2BF
100
AcDbEntity
  8
RACCORDO
100
AcDbLine
 62
7
  6
CONTINUOUS
 10
157.8747132036
 20
85.4915448714
 30
0.0
 11
157.170840456
 21
85.0326989272
 31
0.0
  0
LINE
  5
2C0
100
AcDbEntity
  8
0
100
AcDbLine
 62
7
  6
CONTINUOUS
 10
152.2180896558
 20
82.5078492135
 30
0.0
 11
152.274789518
 21
82.5405870033
 31
0.0
  0
LINE
  5
2C1
100
AcDbEntity
  8
0
100
AcDbLine
 62
7
  6
CONTINUOUS
 10
151.2788140855
 20
81.8487682658
 30
0.0
 11
151.3355357363
 21
81.881518636
 31
0.0
  0
LINE
  5
2C2
100
AcDbEntity
  8
0
100
AcDbLine
 62
7
  6
CONTINUOUS
 10
150.7269513974
 20
81.5004746761
 30
0.0
 11
150.7836862978
 21
81.5332326966
 31
0.0
  0
LINE
  5
2C3
100
AcDbEntity
  8
0
100
AcDbLine
 62
7
  6
CONTINUOUS
 10
151.1500110719
 20
81.2563929076
 30
0.0
 11
151.2067459766
 21
81.2891509305
 31
0.0
  0
LINE
  5
2C4
100
AcDbEntity
  8
0
100
AcDbLine
 62
250
  6
CONTINUOUS
 10
153.1312256799
 20
81.9621198829
 30
0.0
 11
153.1879259259
 21
81.9948578944
 31
0.0
  0
LINE
  5
2C5
100
AcDbEntity
  8
0
100
AcDbLine
 62
7
  6
CONTINUOUS
 10
152.6286242251
 20
81.450523584
 30
0.0
 11
152.6853387633
 21
81.4832698475
 31
0.0
  0
LINE
  5
2C6
100
AcDbEntity
  8
0
100
AcDbLine
 62
250
  6
CONTINUOUS
 10
152.8397842714
 20
81.3289502262
 30
0.0
 11
152.8964988179
 21
81.3616964945
 31
0.0
  0
LINE
  5
2C7
100
AcDbEntity
  8
0
100
AcDbLine
 62
7
  6
CONTINUOUS
 10
152.2396198937
 20
80.6282802357
 30
0.0
 11
152.2963548221
 21
80.6610382723
 31
0.0
  0
LINE
  5
2C8
100
AcDbEntity
  8
0
100
AcDbLine
 62
7
  6
CONTINUOUS
 10
153.2344691714
 20
80.9348774061
 30
0.0
 11
153.2476188996
 21
80.9424698944
 31
0.0
  0
LINE
  5
2C9
100
AcDbEntity
  8
0
100
AcDbLine
 62
7
  6
CONTINUOUS
 10
152.716035591
 20
80.3538871661
 30
0.0
 11
152.7727705356
 21
80.3866452121
 31
0.0
  0
LINE
  5
2CA
100
AcDbEntity
  8
0
100
AcDbLine
 62
250
  6
CONTINUOUS
 10
153.4737682424
 20
80.4270979067
 30
0.0
 11
153.5304930112
 21
80.4598500773
 31
0.0
  0
LINE
  5
2CB
100
AcDbEntity
  8
0
100
AcDbLine
 62
7
  6
CONTINUOUS
 10
153.6374542523
 20
79.823606624
 30
0.0
 11
153.6941892391
 21
79.8563646944
 31
0.0
  0
LINE
  5
2CC
100
AcDbEntity
  8
RACCORDO
100
AcDbLine
 62
250
  6
CONTINUOUS
 10
174.1095767361
 20
76.9553229976
 30
0.0
 11
174.0973978075
 21
76.8989228389
 31
0.0
  0
LINE
  5
2CD
100
AcDbEntity
  8
0
100
AcDbLine
 62
7
  6
CONTINUOUS
 10
168.0518282007
 20
78.7501529743
 30
0.0
 11
168.0964904068
 21
78.8223737914
 31
0.0
  0
LINE
  5
2CE
100
AcDbEntity
  8
DRAFT
100
AcDbLine
 62
7
  6
CONTINUOUS
 10
168.3569480438
 20
78.8353104899
 30
0.0
 11
168.4685727454
 21
79.0158127057
 31
0.0
  0
LINE
  5
2CF
100
AcDbEntity
  8
DRAFT
100
AcDbLine
 62
7
  6
CONTINUOUS
 10
168.7290303825
 20
79.0287494042
 30
0.0
 11
168.8406550841
 21
79.20925162
 31
0.0
  0
LINE
  5
2D0
100
AcDbEntity
  8
DRAFT
100
AcDbLine
 62
7
  6
CONTINUOUS
 10
169.1011127211
 20
79.2221883185
 30
0.0
 11
169.2127374227
 21
79.4026905343
 31
0.0
  0
LINE
  5
2D1
100
AcDbEntity
  8
DRAFT
100
AcDbLine
 62
7
  6
CONTINUOUS
 10
169.4731950598
 20
79.4156272327
 30
0.0
 11
169.5848197614
 21
79.5961294485
 31
0.0
  0
LINE
  5
2D2
100
AcDbEntity
  8
RACCORDO
100
AcDbLine
 62
250
  6
CONTINUOUS
 10
167.345304273
 20
130.8937430254
 30
0.0
 11
167.3639749084
 21
130.8831526475
 31
0.0
  0
LINE
  5
2D3
100
AcDbEntity
  8
RACCORDO
100
AcDbLine
 62
250
  6
CONTINUOUS
 10
167.5243446631
 20
131.2083355185
 30
0.0
 11
167.5430134302
 21
131.1977462002
 31
0.0
  0
LINE
  5
2D4
100
AcDbEntity
  8
RACCORDO
100
AcDbLine
 62
250
  6
CONTINUOUS
 10
135.544169755
 20
149.2555093473
 30
0.0
 11
135.5625115841
 21
149.244729192
 31
0.0
  0
LINE
  5
2D5
100
AcDbEntity
  8
RACCORDO
100
AcDbLine
 62
250
  6
CONTINUOUS
 10
135.7264191411
 20
149.5682489871
 30
0.0
 11
135.7447591396
 21
149.557469908
 31
0.0
  0
LINE
  5
2D6
100
AcDbEntity
  8
0
100
AcDbLine
 62
7
  6
CONTINUOUS
 10
172.419005708
 20
76.2285994152
 30
0.0
 11
172.459219739
 21
76.3033885529
 31
0.0
  0
LINE
  5
2D7
100
AcDbEntity
  8
DRAFT
100
AcDbLine
 62
7
  6
CONTINUOUS
 10
172.6937368487
 20
76.3313029867
 30
0.0
 11
172.7942441815
 21
76.5182242319
 31
0.0
  0
LINE
  5
2D8
100
AcDbEntity
  8
DRAFT
100
AcDbLine
 62
7
  6
CONTINUOUS
 10
173.0287612913
 20
76.5461386657
 30
0.0
 11
173.129268624
 21
76.733059911
 31
0.0
  0
LINE
  5
2D9
100
AcDbEntity
  8
DRAFT
100
AcDbLine
 62
7
  6
CONTINUOUS
 10
173.3637857338
 20
76.7609743448
 30
0.0
 11
173.4642930666
 21
76.94789559
 31
0.0
  0
LINE
  5
2DA
100
AcDbEntity
  8
DRAFT
100
AcDbLine
 62
7
  6
CONTINUOUS
 10
173.6988101763
 20
76.9758100238
 30
0.0
 11
173.7993175091
 21
77.1627312691
 31
0.0
  0
LINE
  5
2DB
100
AcDbEntity
  8
RACCORDO
100
AcDbLine
 62
250
  6
CONTINUOUS
 10
174.1219674656
 20
77.0137349038
 30
0.0
 11
173.8337382321
 21
76.6056183203
 31
0.0
  0
LINE
  5
2DC
100
AcDbEntity
  8
RACCORDO
100
AcDbLine
 62
7
  6
CONTINUOUS
 10
174.1231824594
 20
76.9745879461
 30
0.0
 11
173.8138090229
 21
76.5365323457
 31
0.0
  0
LINE
  5
2DD
100
AcDbEntity
  8
RACCORDO
100
AcDbLine
 62
7
  6
CONTINUOUS
 10
173.8337382321
 20
77.1848036866
 30
0.0
 11
174.1048871703
 21
77.5640599922
 31
0.0
  0
LINE
  5
2DE
100
AcDbEntity
  8
SMUSSO
100
AcDbLine
 62
7
  6
CONTINUOUS
 10
169.6230478471
 20
79.6160035426
 30
0.0
 11
169.5848197614
 21
79.5961294485
 31
0.0
  0
LINE
  5
2DF
100
AcDbEntity
  8
DRAFT
100
AcDbLine
 62
7
  6
CONTINUOUS
 10
169.3615703582
 20
79.4800661
 30
0.0
 11
169.2127374227
 21
79.4026905343
 31
0.0
  0
LINE
  5
2E0
100
AcDbEntity
  8
DRAFT
100
AcDbLine
 62
7
  6
CONTINUOUS
 10
168.9894880195
 20
79.2866271857
 30
0.0
 11
168.8406550841
 21
79.20925162
 31
0.0
  0
LINE
  5
2E1
100
AcDbEntity
  8
DRAFT
100
AcDbLine
 62
7
  6
CONTINUOUS
 10
168.6174056809
 20
79.0931882714
 30
0.0
 11
168.4685727454
 21
79.0158127057
 31
0.0
  0
LINE
  5
2E2
100
AcDbEntity
  8
DRAFT
100
AcDbLine
 62
7
  6
CONTINUOUS
 10
168.2453233422
 20
78.8997493571
 30
0.0
 11
168.0964904068
 21
78.8223737914
 31
0.0
  0
LWPOLYLINE
  5
2E3
100
AcDbEntity
  8
RACCORDO
100
AcDbPolyline
 62
7
  6
CONTINUOUS
 90
11
 70
0
 10
126.61766221
 20
136.8360882568
 10
126.6183258486
 20
136.836180516
 10
126.6213532872
 20
136.8362960096
 10
126.6268636375
 20
136.8359696283
 10
126.6348768755
 20
136.8347763276
 10
126.6453608624
 20
136.8323251796
 10
126.6579970366
 20
136.8283463113
 10
126.6724105698
 20
136.822685991
 10
126.6883626028
 20
136.8152226085
 10
126.7056434621
 20
136.8058657609
 10
126.7137631581
 20
136.8010418464
  0
LWPOLYLINE
  5
2E4
100
AcDbEntity
  8
RACCORDO
100
AcDbPolyline
 62
7
  6
CONTINUOUS
 90
8
 70
0
 10
116.1178577302
 20
166.008936989
 10
116.0648772756
 20
166.0388659955
 10
115.9584610889
 20
166.0939036291
 10
115.8527141366
 20
166.1418080014
 10
115.7479211644
 20
166.1825427319
 10
115.6443070754
 20
166.2161167815
 10
115.5420497087
 20
166.2425394917
 10
115.4751554646
 20
166.2560989012
  0
LINE
  5
2E5
100
AcDbEntity
  8
RACCORDO
100
AcDbLine
 62
250
  6
CONTINUOUS
 10
197.0459710266
 20
119.2754130837
 30
0.0
 11
197.2725857925
 21
119.145768468
 31
0.0
  0
LWPOLYLINE
  5
2E6
100
AcDbEntity
  8
RACCORDO
100
AcDbPolyline
 62
7
  6
CONTINUOUS
 90
3
 70
0
 10
197.2935401337
 20
119.1391153487
 10
194.7299860509
 20
120.6144498217
 10
181.5108429336
 20
128.23457646
  0
LINE
  5
2E7
100
AcDbEntity
  8
RACCORDO
100
AcDbLine
 62
250
  6
CONTINUOUS
 10
156.6611996163
 20
142.5582317217
 30
0.0
 11
156.7988037616
 21
142.4787809644
 31
0.0
  0
LINE
  5
2E8
100
AcDbEntity
  8
RACCORDO
100
AcDbLine
 62
250
  6
CONTINUOUS
 10
172.5715999564
 20
133.3732006644
 30
0.0
 11
172.6064917262
 21
133.3530606165
 31
0.0
  0
LINE
  5
2E9
100
AcDbEntity
  8
RACCORDO
100
AcDbLine
 62
7
  6
CONTINUOUS
 10
181.5108429336
 20
128.23457646
 30
0.0
 11
172.6150948985
 21
133.3679652438
 31
0.0
  0
LINE
  5
2EA
100
AcDbEntity
  8
RACCORDO
100
AcDbLine
 62
250
  6
CONTINUOUS
 10
140.752812336
 20
151.7449698534
 30
0.0
 11
140.7876930192
 21
151.7248246969
 31
0.0
  0
LINE
  5
2EB
100
AcDbEntity
  8
RACCORDO
100
AcDbLine
 62
7
  6
CONTINUOUS
 10
172.6150908259
 20
133.3679675952
 30
0.0
 11
149.1755227032
 21
146.9011856048
 31
0.0
  0
LINE
  5
2EC
100
AcDbEntity
  8
RACCORDO
100
AcDbLine
 62
7
  6
CONTINUOUS
 10
149.1755227032
 20
146.9011856048
 30
0.0
 11
131.895839173
 21
156.8816613776
 31
0.0
  0
LINE
  5
2ED
100
AcDbEntity
  8
RACCORDO
100
AcDbLine
 62
7
  6
CONTINUOUS
 10
131.895839173
 20
156.8816613776
 30
0.0
 11
118.6740371674
 21
164.5282117685
 31
0.0
  0
LINE
  5
2EE
100
AcDbEntity
  8
RACCORDO
100
AcDbLine
 62
7
  6
CONTINUOUS
 10
118.6740371674
 20
164.5282117685
 30
0.0
 11
116.1178517554
 21
166.0089404589
 31
0.0
  0
LINE
  5
2EF
100
AcDbEntity
  8
RACCORDO
100
AcDbLine
 62
250
  6
CONTINUOUS
 10
116.0966411535
 20
166.0156772617
 30
0.0
 11
116.3407311108
 21
165.8735812867
 31
0.0
  0
LINE
  5
2F0
100
AcDbEntity
  8
RACCORDO
100
AcDbLine
 62
250
  6
CONTINUOUS
 10
194.7021283278
 20
62.6782466569
 30
0.0
 11
194.7086962574
 21
62.5466586779
 31
0.0
  0
LINE
  5
2F1
100
AcDbEntity
  8
RACCORDO
100
AcDbLine
 62
250
  6
CONTINUOUS
 10
173.0901681933
 20
75.8410786078
 30
0.0
 11
173.6316424682
 21
76.4097626794
 31
0.0
  0
LINE
  5
2F2
100
AcDbEntity
  8
RACCORDO
100
AcDbLine
 62
250
  6
CONTINUOUS
 10
173.990325869
 20
76.7864703942
 30
0.0
 11
174.0973978075
 21
76.8989228389
 31
0.0
  0
LINE
  5
2F3
100
AcDbEntity
  8
RACCORDO
100
AcDbLine
 62
7
  6
CONTINUOUS
 10
173.108226745
 20
75.8306518264
 30
0.0
 11
173.7054263013
 21
76.4578614482
 31
0.0
  0
LINE
  5
2F4
100
AcDbEntity
  8
RACCORDO
100
AcDbLine
 62
7
  6
CONTINUOUS
 10
173.9099502842
 20
76.6726630311
 30
0.0
 11
174.1029439114
 21
76.8753548426
 31
0.0
  0
LINE
  5
2F5
100
AcDbEntity
  8
RACCORDO
100
AcDbLine
 62
250
  6
CONTINUOUS
 10
172.8621574417
 20
75.9727291581
 30
0.0
 11
173.8337382321
 21
76.6060906665
 31
0.0
  0
LINE
  5
2F6
100
AcDbEntity
  8
RACCORDO
100
AcDbLine
 62
7
  6
CONTINUOUS
 10
173.7880775861
 20
76.5117407992
 30
0.0
 11
172.9146959306
 21
75.9423940931
 31
0.0
  0
LINE
  5
2F7
100
AcDbEntity
  8
SMUSSO
100
AcDbLine
 62
7
  6
CONTINUOUS
 10
173.8337382321
 20
77.1848036866
 30
0.0
 11
173.7993175091
 21
77.1627312691
 31
0.0
  0
LINE
  5
2F8
100
AcDbEntity
  8
DRAFT
100
AcDbLine
 62
7
  6
CONTINUOUS
 10
173.5983028436
 20
77.0338298616
 30
0.0
 11
173.4642930666
 21
76.94789559
 31
0.0
  0
LINE
  5
2F9
100
AcDbEntity
  8
DRAFT
100
AcDbLine
 62
7
  6
CONTINUOUS
 10
173.263278401
 20
76.8189941826
 30
0.0
 11
173.129268624
 21
76.733059911
 31
0.0
  0
LINE
  5
2FA
100
AcDbEntity
  8
DRAFT
100
AcDbLine
 62
7
  6
CONTINUOUS
 10
172.9282539585
 20
76.6041585035
 30
0.0
 11
172.7942441815
 21
76.5182242319
 31
0.0
  0
LINE
  5
2FB
100
AcDbEntity
  8
DRAFT
100
AcDbLine
 62
7
  6
CONTINUOUS
 10
172.593229516
 20
76.3893228245
 30
0.0
 11
172.459219739
 21
76.3033885529
 31
0.0
  0
LINE
  5
2FC
100
AcDbEntity
  8
RACCORDO
100
AcDbLine
 62
250
  6
CONTINUOUS
 10
194.7086893836
 20
99.2878241276
 30
0.0
 11
194.702135065
 21
99.1486455346
 31
0.0
  0
LWPOLYLINE
  5
2FD
100
AcDbEntity
  8
RACCORDO
100
AcDbPolyline
 62
7
  6
CONTINUOUS
 90
31
 70
0
 10
199.1816306968
 20
115.868664035
 10
199.1810916864
 20
115.9286650726
 10
199.1757142695
 20
116.0528833638
 10
199.1646356378
 20
116.1791748287
 10
199.147975921
 20
116.3071284032
 10
199.1258646446
 20
116.4364200501
 10
199.098403493
 20
116.5668076058
 10
199.0657038039
 20
116.697942288
 10
199.0278886296
 20
116.8294627498
 10
198.9850638946
 20
116.9610959963
 10
198.9373647793
 20
117.0924902371
 10
198.8849455671
 20
117.2232800677
 10
198.8279428206
 20
117.3531656911
 10
198.7665280093
 20
117.4817878906
 10
198.7008785212
 20
117.6087990087
 10
198.6311490048
 20
117.7339143407
 10
198.5575310466
 20
117.8567876348
 10
198.4802284296
 20
117.9770791858
 10
198.3994077515
 20
118.0945107523
 10
198.3152850038
 20
118.2087527415
 10
198.2280833658
 20
118.3194734644
 10
198.137993044
 20
118.426407455
 10
198.0452530781
 20
118.5292347475
 10
197.9501020491
 20
118.6276603262
 10
197.8527220624
 20
118.7214538898
 10
197.7533648554
 20
118.8103288189
 10
197.6522763538
 20
118.8940105605
 10
197.5496165737
 20
118.9722873653
 10
197.4456041494
 20
119.044879662
 10
197.3405401088
 20
119.1114756972
 10
197.2935364799
 20
119.1391174459
  0
LINE
  5
2FE
100
AcDbEntity
  8
RACCORDO
100
AcDbLine
 62
250
  6
CONTINUOUS
 10
199.1756673365
 20
52.4521875658
 30
0.0
 11
199.1767941001
 21
52.162140413
 31
0.0
  0
LINE
  5
2FF
100
AcDbEntity
  8
RACCORDO
100
AcDbLine
 62
7
  6
CONTINUOUS
 10
199.1816307188
 20
52.1840255381
 30
0.0
 11
199.1736848787
 21
57.860796366
 31
0.0
  0
LINE
  5
300
100
AcDbEntity
  8
RACCORDO
100
AcDbLine
 62
250
  6
CONTINUOUS
 10
199.1521398421
 20
65.668122134
 30
0.0
 11
199.1521711444
 21
65.6304617372
 31
0.0
  0
LINE
  5
301
100
AcDbEntity
  8
RACCORDO
100
AcDbLine
 62
7
  6
CONTINUOUS
 10
199.1736848787
 20
57.860796366
 30
0.0
 11
199.1679615609
 21
64.0671333012
 31
0.0
  0
LINE
  5
302
100
AcDbEntity
  8
RACCORDO
100
AcDbLine
 62
7
  6
CONTINUOUS
 10
199.1679615609
 20
64.0671333012
 30
0.0
 11
199.1644606178
 21
75.2428143067
 31
0.0
  0
LINE
  5
303
100
AcDbEntity
  8
RACCORDO
100
AcDbLine
 62
250
  6
CONTINUOUS
 10
199.146155266
 20
84.0366254554
 30
0.0
 11
199.1461552416
 21
83.9958362159
 31
0.0
  0
LINE
  5
304
100
AcDbEntity
  8
RACCORDO
100
AcDbLine
 62
7
  6
CONTINUOUS
 10
199.1644606178
 20
75.2428143067
 30
0.0
 11
199.1639940212
 21
88.5338506267
 31
0.0
  0
LINE
  5
305
100
AcDbEntity
  8
RACCORDO
100
AcDbLine
 62
7
  6
CONTINUOUS
 10
199.1639940212
 20
88.5338506267
 30
0.0
 11
199.1663823182
 21
100.6688768994
 31
0.0
  0
LINE
  5
306
100
AcDbEntity
  8
RACCORDO
100
AcDbLine
 62
250
  6
CONTINUOUS
 10
199.1522026329
 20
102.4013467344
 30
0.0
 11
199.1521711444
 21
102.3636733416
 31
0.0
  0
LINE
  5
307
100
AcDbEntity
  8
RACCORDO
100
AcDbLine
 62
7
  6
CONTINUOUS
 10
199.1663823182
 20
100.6688768994
 30
0.0
 11
199.1704984429
 21
107.1991839112
 31
0.0
  0
LINE
  5
308
100
AcDbEntity
  8
RACCORDO
100
AcDbLine
 62
7
  6
CONTINUOUS
 10
199.1704984429
 20
107.1991839112
 30
0.0
 11
199.1816307155
 21
115.8686712497
 31
0.0
  0
LINE
  5
309
100
AcDbEntity
  8
RACCORDO
100
AcDbLine
 62
250
  6
CONTINUOUS
 10
199.1767434619
 20
115.846814677
 30
0.0
 11
199.1757467329
 21
115.5785656655
 31
0.0
  0
LINE
  5
30A
100
AcDbEntity
  8
RACCORDO
100
AcDbLine
 62
7
  6
CONTINUOUS
 10
115.4750286096
 20
166.2561221739
 30
0.0
 11
115.4751581595
 21
166.2560988395
 31
0.0
  0
LINE
  5
30B
100
AcDbEntity
  8
SUPERFICI
100
AcDbLine
 62
7
  6
CONTINUOUS
 10
114.0437705976
 20
166.5173008194
 30
0.0
 11
115.4750290121
 21
166.2561221014
 31
0.0
  0
LWPOLYLINE
  5
30C
100
AcDbEntity
  8
RACCORDO
100
AcDbPolyline
 62
7
  6
CONTINUOUS
 90
8
 70
0
 10
199.0730854777
 20
51.500369879
 10
199.0965007652
 20
51.5700263176
 10
199.1247674816
 20
51.6722914781
 10
199.14748123
 20
51.7793911014
 10
199.1645348163
 20
51.8911767616
 10
199.1757990919
 20
52.0074507861
 10
199.1811591496
 20
52.1279420709
 10
199.1816307144
 20
52.184027289
  0
LINE
  5
30D
100
AcDbEntity
  8
SUPERFICI
100
AcDbLine
 62
7
  6
CONTINUOUS
 10
199.0729406436
 20
51.4999698533
 30
0.0
 11
198.5747587512
 21
50.1164397323
 31
0.0
  0
LINE
  5
30E
100
AcDbEntity
  8
RACCORDO
100
AcDbLine
 62
7
  6
CONTINUOUS
 10
199.073081064
 20
51.500357093
 30
0.0
 11
199.0729406421
 21
51.4999698492
 31
0.0
  0
LINE
  5
30F
100
AcDbEntity
  8
RACCORDO
100
AcDbLine
 62
7
  6
CONTINUOUS
 10
195.3081184255
 20
48.0283696504
 30
0.0
 11
195.3069639083
 21
48.0279445324
 31
0.0
  0
LINE
  5
310
100
AcDbEntity
  8
SUPERFICI
100
AcDbLine
 62
7
  6
CONTINUOUS
 10
197.6726118056
 20
48.8977575649
 30
0.0
 11
195.3069679973
 21
48.0279460358
 31
0.0
  0
ARC
  5
311
100
AcDbEntity
  8
RACCORDO
100
AcDbCircle
 62
250
  6
CONTINUOUS
 10
241.0144986945
 20
222.6005155834
 30
0.0
 40
115.4401811841
100
AcDbArc
 50
245.5010694823
 51
245.6622424912
  0
ARC
  5
312
100
AcDbEntity
  8
RACCORDO
100
AcDbCircle
 62
250
  6
CONTINUOUS
 10
240.7082597413
 20
221.9423243633
 30
0.0
 40
114.3527343561
100
AcDbArc
 50
245.5084527657
 51
245.6707886128
  0
ARC
  5
313
100
AcDbEntity
  8
RACCORDO
100
AcDbCircle
 62
250
  6
CONTINUOUS
 10
166.7153706751
 20
238.2898393484
 30
0.0
 40
91.879525639
100
AcDbArc
 50
233.6290096746
 51
233.8091401275
  0
ARC
  5
314
100
AcDbEntity
  8
RACCORDO
100
AcDbCircle
 62
250
  6
CONTINUOUS
 10
166.3428656688
 20
237.7837472419
 30
0.0
 40
90.8900199179
100
AcDbArc
 50
233.6185638013
 51
233.80022075
  0
ARC
  5
315
100
AcDbEntity
  8
RACCORDO
100
AcDbCircle
 62
250
  6
CONTINUOUS
 10
285.7177819405
 20
60.0331455992
 30
0.0
 40
90.5588154461
100
AcDbArc
 50
186.3889028749
 51
186.574015556
  0
ARC
  5
316
100
AcDbEntity
  8
RACCORDO
100
AcDbCircle
 62
250
  6
CONTINUOUS
 10
284.8017526829
 20
59.9272051511
 30
0.0
 40
89.2745837536
100
AcDbArc
 50
186.3977338513
 51
186.584921289
  0
ARC
  5
317
100
AcDbEntity
  8
SUPERFICI
100
AcDbCircle
 62
7
  6
CONTINUOUS
 10
158.1914711336
 20
118.1576529898
 30
0.0
 40
40.5617423633
100
AcDbArc
 50
354.2564267057
 51
354.7370936041
  0
ARC
  5
318
100
AcDbEntity
  8
SUPERFICI
100
AcDbCircle
 62
7
  6
CONTINUOUS
 10
180.1152467785
 20
85.6600186397
 30
0.0
 40
37.1403501644
100
AcDbArc
 50
65.0787775945
 51
65.5860879606
  0
ARC
  5
319
100
AcDbEntity
  8
SUPERFICI
100
AcDbCircle
 62
7
  6
CONTINUOUS
 10
170.2301791325
 20
47.8301893079
 30
0.0
 40
28.5021395468
100
AcDbArc
 50
5.882778238
 51
6.4914602643
  0
ARC
  5
31A
100
AcDbEntity
  8
SUPERFICI
100
AcDbCircle
 62
7
  6
CONTINUOUS
 10
99.1178039155
 20
144.6483908828
 30
0.0
 40
26.5397690317
100
AcDbArc
 50
53.7072665769
 51
54.3413811945
  0
ARC
  5
31B
100
AcDbEntity
  8
0
100
AcDbCircle
 62
7
  6
CONTINUOUS
 10
168.108198491
 20
83.8586379454
 30
0.0
 40
14.9593400219
100
AcDbArc
 50
195.2616538206
 51
195.5181392101
  0
ARC
  5
31C
100
AcDbEntity
  8
RACCORDO
100
AcDbCircle
 62
250
  6
CONTINUOUS
 10
194.9638676885
 20
51.6685141024
 30
0.0
 40
3.6754696457
100
AcDbArc
 50
245.5035514202
 51
247.0091168459
  0
ARC
  5
31D
100
AcDbEntity
  8
RACCORDO
100
AcDbCircle
 62
250
  6
CONTINUOUS
 10
194.9157892831
 20
51.5558565073
 30
0.0
 40
3.5529821016
100
AcDbArc
 50
247.0132623262
 51
247.7631035033
  0
ARC
  5
31E
100
AcDbEntity
  8
RACCORDO
100
AcDbCircle
 62
250
  6
CONTINUOUS
 10
195.9440023546
 20
116.8276944833
 30
0.0
 40
2.6717725434
100
AcDbArc
 50
57.3829142419
 51
59.2707816799
  0
ARC
  5
31F
100
AcDbEntity
  8
RACCORDO
100
AcDbCircle
 62
250
  6
CONTINUOUS
 10
196.5292777943
 20
115.8562281397
 30
0.0
 40
2.6474869382
100
AcDbArc
 50
0.2672014051
 51
1.9466190047
  0
ARC
  5
320
100
AcDbEntity
  8
RACCORDO
100
AcDbCircle
 62
250
  6
CONTINUOUS
 10
195.9849505091
 20
116.896425296
 30
0.0
 40
2.5917683585
100
AcDbArc
 50
59.2725178498
 51
60.2137802059
  0
ARC
  5
321
100
AcDbEntity
  8
RACCORDO
100
AcDbCircle
 62
250
  6
CONTINUOUS
 10
196.6009298611
 20
115.8568046897
 30
0.0
 40
2.5758329732
100
AcDbArc
 50
359.7777856673
 51
0.2618097268
  0
ARC
  5
322
100
AcDbEntity
  8
RACCORDO
100
AcDbCircle
 62
250
  6
CONTINUOUS
 10
173.0997768573
 20
108.6733241434
 30
0.0
 40
1.2829615885
100
AcDbArc
 50
28.4914147352
 51
31.7615531967
  0
ARC
  5
323
100
AcDbEntity
  8
RACCORDO
100
AcDbCircle
 62
250
  6
CONTINUOUS
 10
173.1122007205
 20
108.6809418014
 30
0.0
 40
1.268388425
100
AcDbArc
 50
31.7643925303
 51
32.5376873807
  0
ARC
  5
324
100
AcDbEntity
  8
RACCORDO
100
AcDbCircle
 62
250
  6
CONTINUOUS
 10
173.1199426942
 20
108.6858753945
 30
0.0
 40
1.2592080942
100
AcDbArc
 50
32.5379079593
 51
34.812507819
  0
ARC
  5
325
100
AcDbEntity
  8
0
100
AcDbCircle
 62
7
  6
CONTINUOUS
 10
152.8558519413
 20
80.5573503696
 30
0.0
 40
0.5347592434
100
AcDbArc
 50
39.2396386981
 51
42.0644229962
  0
ARC
  5
326
100
AcDbEntity
  8
0
100
AcDbCircle
 62
7
  6
CONTINUOUS
 10
152.9422155463
 20
80.6167138561
 30
0.0
 40
0.4949152574
100
AcDbArc
 50
41.8161494966
 51
43.18699693
  0
ARC
  5
327
100
AcDbEntity
  8
0
100
AcDbCircle
 62
7
  6
CONTINUOUS
 10
152.9032287657
 20
80.6002485173
 30
0.0
 40
0.47084679
100
AcDbArc
 50
42.051476683
 51
45.2915648876
  0
ARC
  5
328
100
AcDbEntity
  8
RACCORDO
100
AcDbCircle
 62
7
  6
CONTINUOUS
 10
173.9580998409
 20
77.0132685665
 30
0.0
 40
0.2
100
AcDbArc
 50
316.4040289336
 51
326.8114263315
  0
ARC
  5
329
100
AcDbEntity
  8
RACCORDO
100
AcDbCircle
 62
7
  6
CONTINUOUS
 10
142.1382946875
 20
95.3856252662
 30
0.0
 40
0.2
100
AcDbArc
 50
316.4040289336
 51
347.8155805138
  0
ARC
  5
32A
100
AcDbEntity
  8
RACCORDO
100
AcDbCircle
 62
250
  6
CONTINUOUS
 10
174.1848365679
 20
73.194499507
 30
0.0
 40
0.1799845822
100
AcDbArc
 50
280.0419683981
 51
285.0883360777
  0
ARC
  5
32B
100
AcDbEntity
  8
RACCORDO
100
AcDbCircle
 62
250
  6
CONTINUOUS
 10
174.1879458491
 20
73.1829055607
 30
0.0
 40
0.1679809598
100
AcDbArc
 50
285.0937613005
 51
290.346331327
  0
ARC
  5
32C
100
AcDbEntity
  8
RACCORDO
100
AcDbCircle
 62
250
  6
CONTINUOUS
 10
174.190983405
 20
73.1745973109
 30
0.0
 40
0.159134943
100
AcDbArc
 50
290.3609819891
 51
296.6891673589
  0
ARC
  5
32D
100
AcDbEntity
  8
RACCORDO
100
AcDbCircle
 62
250
  6
CONTINUOUS
 10
174.1924914138
 20
73.1714581426
 30
0.0
 40
0.1556529236
100
AcDbArc
 50
296.7122169312
 51
297.9257783677
  0
ARC
  5
32E
100
AcDbEntity
  8
0
100
AcDbCircle
 62
7
  6
CONTINUOUS
 10
434.0860391157
 20
178.6810596309
 30
0.0
 40
300.021297587
100
AcDbArc
 50
198.3565294477
 51
198.6189359381
  0
ARC
  5
32F
100
AcDbEntity
  8
0
100
AcDbCircle
 62
7
  6
CONTINUOUS
 10
433.5422605627
 20
179.2957021893
 30
0.0
 40
299.9488219932
100
AcDbArc
 50
198.6113703466
 51
198.9204407263
  0
ARC
  5
330
100
AcDbEntity
  8
0
100
AcDbCircle
 62
7
  6
CONTINUOUS
 10
433.9078290674
 20
178.6401704013
 30
0.0
 40
299.7751542235
100
AcDbArc
 50
198.3573129858
 51
198.6062541867
  0
ARC
  5
331
100
AcDbEntity
  8
0
100
AcDbCircle
 62
7
  6
CONTINUOUS
 10
417.4693056951
 20
166.2230791156
 30
0.0
 40
282.5248920216
100
AcDbArc
 50
196.549301065
 51
197.0342254348
  0
ARC
  5
332
100
AcDbEntity
  8
0
100
AcDbCircle
 62
7
  6
CONTINUOUS
 10
420.1564397561
 20
161.1736738191
 30
0.0
 40
279.7623684355
100
AcDbArc
 50
196.2461291328
 51
196.7326603673
  0
ARC
  5
333
100
AcDbEntity
  8
0
100
AcDbCircle
 62
7
  6
CONTINUOUS
 10
419.7522869026
 20
161.0748807481
 30
0.0
 40
279.2831209844
100
AcDbArc
 50
196.2466730981
 51
196.7340372579
  0
ARC
  5
334
100
AcDbEntity
  8
0
100
AcDbCircle
 62
7
  6
CONTINUOUS
 10
409.2254474007
 20
156.6278202573
 30
0.0
 40
271.6500541157
100
AcDbArc
 50
195.1753798454
 51
195.514077486
  0
ARC
  5
335
100
AcDbEntity
  8
0
100
AcDbCircle
 62
7
  6
CONTINUOUS
 10
408.9960330274
 20
156.5866608606
 30
0.0
 40
271.3545729604
100
AcDbArc
 50
195.1761351584
 51
195.4934445238
  0
ARC
  5
336
100
AcDbEntity
  8
0
100
AcDbCircle
 62
7
  6
CONTINUOUS
 10
408.7467446379
 20
149.9016969158
 30
0.0
 40
266.020323774
100
AcDbArc
 50
194.6832440466
 51
194.8675078801
  0
ARC
  5
337
100
AcDbEntity
  8
0
100
AcDbCircle
 62
7
  6
CONTINUOUS
 10
375.2130403236
 20
114.8831446154
 30
0.0
 40
226.9546359378
100
AcDbArc
 50
187.9327539986
 51
188.4583029313
  0
ARC
  5
338
100
AcDbEntity
  8
0
100
AcDbCircle
 62
7
  6
CONTINUOUS
 10
374.6979848672
 20
114.8377203008
 30
0.0
 40
226.3775651393
100
AcDbArc
 50
187.9331322334
 51
188.4600170306
  0
ARC
  5
339
100
AcDbEntity
  8
0
100
AcDbCircle
 62
7
  6
CONTINUOUS
 10
369.2759835112
 20
109.4524109473
 30
0.0
 40
220.6610732187
100
AcDbArc
 50
186.8774127488
 51
187.2228748794
  0
ARC
  5
33A
100
AcDbEntity
  8
0
100
AcDbCircle
 62
7
  6
CONTINUOUS
 10
362.847638926
 20
95.4342862453
 30
0.0
 40
210.6248401025
100
AcDbArc
 50
183.6663799362
 51
183.7978426295
  0
ARC
  5
33B
100
AcDbEntity
  8
0
100
AcDbCircle
 62
7
  6
CONTINUOUS
 10
358.5764815724
 20
97.67242491
 30
0.0
 40
210.3772090753
100
AcDbArc
 50
183.5582506845
 51
184.094664028
  0
ARC
  5
33C
100
AcDbEntity
  8
0
100
AcDbCircle
 62
7
  6
CONTINUOUS
 10
361.7162506124
 20
95.555988592
 30
0.0
 40
209.9041051905
100
AcDbArc
 50
183.5639399851
 51
184.0683052909
  0
ARC
  5
33D
100
AcDbEntity
  8
0
100
AcDbCircle
 62
7
  6
CONTINUOUS
 10
357.6545611534
 20
97.8486556359
 30
0.0
 40
209.8226716175
100
AcDbArc
 50
183.5575420804
 51
184.0953731153
  0
ARC
  5
33E
100
AcDbEntity
  8
0
100
AcDbCircle
 62
7
  6
CONTINUOUS
 10
358.0002086428
 20
97.666753802
 30
0.0
 40
209.7430731369
100
AcDbArc
 50
183.5585101234
 51
184.0965403281
  0
ARC
  5
33F
100
AcDbEntity
  8
0
100
AcDbCircle
 62
7
  6
CONTINUOUS
 10
361.3790566858
 20
95.2947924961
 30
0.0
 40
209.1972443157
100
AcDbArc
 50
183.8847638032
 51
184.095561865
  0
ARC
  5
340
100
AcDbEntity
  8
0
100
AcDbCircle
 62
7
  6
CONTINUOUS
 10
361.1797870482
 20
95.313779576
 30
0.0
 40
208.9409100009
100
AcDbArc
 50
183.904466651
 51
184.0968090457
  0
ARC
  5
341
100
AcDbEntity
  8
0
100
AcDbCircle
 62
7
  6
CONTINUOUS
 10
342.2344657975
 20
18.1172478716
 30
0.0
 40
203.0752801816
100
AcDbArc
 50
161.1373162402
 51
161.3992546746
  0
ARC
  5
342
100
AcDbEntity
  8
0
100
AcDbCircle
 62
7
  6
CONTINUOUS
 10
341.1297060583
 20
16.938315051
 30
0.0
 40
202.042451602
100
AcDbArc
 50
160.9338950994
 51
161.2130997756
  0
ARC
  5
343
100
AcDbEntity
  8
0
100
AcDbCircle
 62
7
  6
CONTINUOUS
 10
340.4714467423
 20
17.2196888065
 30
0.0
 40
201.2854837463
100
AcDbArc
 50
160.9457595441
 51
161.2145534407
  0
ARC
  5
344
100
AcDbEntity
  8
0
100
AcDbCircle
 62
7
  6
CONTINUOUS
 10
349.6693213744
 20
84.2889002151
 30
0.0
 40
200.3913846769
100
AcDbArc
 50
180.2061714716
 51
180.5595743471
  0
ARC
  5
345
100
AcDbEntity
  8
0
100
AcDbCircle
 62
7
  6
CONTINUOUS
 10
349.0814009847
 20
84.3208826203
 30
0.0
 40
199.7467526273
100
AcDbArc
 50
180.2649945265
 51
180.5611577986
  0
ARC
  5
346
100
AcDbEntity
  8
0
100
AcDbCircle
 62
7
  6
CONTINUOUS
 10
347.1285264361
 20
80.5029427784
 30
0.0
 40
198.2042105999
100
AcDbArc
 50
178.87089601
 51
179.4123539051
  0
ARC
  5
347
100
AcDbEntity
  8
0
100
AcDbCircle
 62
7
  6
CONTINUOUS
 10
336.7016974356
 20
33.7858846274
 30
0.0
 40
195.4079721742
100
AcDbArc
 50
164.8339519281
 51
165.3305588514
  0
ARC
  5
348
100
AcDbEntity
  8
0
100
AcDbCircle
 62
7
  6
CONTINUOUS
 10
335.8054241003
 20
34.075965413
 30
0.0
 40
194.420864361
100
AcDbArc
 50
164.833676745
 51
165.3327965183
  0
ARC
  5
349
100
AcDbEntity
  8
0
100
AcDbCircle
 62
7
  6
CONTINUOUS
 10
339.0868536965
 20
33.8983594471
 30
0.0
 40
194.217410785
100
AcDbArc
 50
165.3214822201
 51
165.8037686059
  0
ARC
  5
34A
100
AcDbEntity
  8
0
100
AcDbCircle
 62
7
  6
CONTINUOUS
 10
335.8104276813
 20
42.400837435
 30
0.0
 40
192.8699587074
100
AcDbArc
 50
167.2029692786
 51
167.5539589031
  0
ARC
  5
34B
100
AcDbEntity
  8
0
100
AcDbCircle
 62
7
  6
CONTINUOUS
 10
339.6975013367
 20
41.2765137778
 30
0.0
 40
192.7374108462
100
AcDbArc
 50
167.6583922929
 51
167.8480318176
  0
ARC
  5
34C
100
AcDbEntity
  8
0
100
AcDbCircle
 62
7
  6
CONTINUOUS
 10
339.3301279727
 20
41.4046034119
 30
0.0
 40
192.3027492684
100
AcDbArc
 50
167.7005660927
 51
167.8492023579
  0
ARC
  5
34D
100
AcDbEntity
  8
RACCORDO
100
AcDbCircle
 62
250
  6
CONTINUOUS
 10
310.3700990603
 20
101.6902072577
 30
0.0
 40
115.2103463968
100
AcDbArc
 50
174.1761230915
 51
174.3402959397
  0
ARC
  5
34E
100
AcDbEntity
  8
RACCORDO
100
AcDbCircle
 62
250
  6
CONTINUOUS
 10
309.2452073896
 20
101.7959541314
 30
0.0
 40
113.7178530258
100
AcDbArc
 50
174.1671567124
 51
174.3329803484
  0
ARC
  5
34F
100
AcDbEntity
  8
RACCORDO
100
AcDbCircle
 62
250
  6
CONTINUOUS
 10
507.8977034646
 20
732.3251384507
 30
0.0
 40
738.4538670137
100
AcDbArc
 50
239.1986356605
 51
239.5402741799
  0
ARC
  5
350
100
AcDbEntity
  8
RACCORDO
100
AcDbCircle
 62
250
  6
CONTINUOUS
 10
309.8083617928
 20
399.587144568
 30
0.0
 40
351.2151238582
100
AcDbArc
 50
238.5676130469
 51
239.1603744027
  0
ARC
  5
351
100
AcDbEntity
  8
RACCORDO
100
AcDbCircle
 62
250
  6
CONTINUOUS
 10
1372.7111929724
 20
2240.8414472962
 30
0.0
 40
2445.2430354094
100
AcDbArc
 50
240.0016850777
 51
240.4301062441
  0
ARC
  5
352
100
AcDbEntity
  8
RACCORDO
100
AcDbCircle
 62
250
  6
CONTINUOUS
 10
1356.2253079182
 20
2212.3283474819
 30
0.0
 40
2412.3070231503
100
AcDbArc
 50
239.5668462482
 51
239.9991303537
  0
ARC
  5
353
100
AcDbEntity
  8
RACCORDO
100
AcDbCircle
 62
250
  6
CONTINUOUS
 10
1353.7855337595
 20
2153.4777132994
 30
0.0
 40
2404.7418424146
100
AcDbArc
 50
240.0016345346
 51
240.4373272255
  0
ARC
  5
354
100
AcDbEntity
  8
0
100
AcDbCircle
 62
7
  6
CONTINUOUS
 10
1354.7594154522
 20
2222.1323628345
 30
0.0
 40
2402.0299337204
100
AcDbArc
 50
239.9991308514
 51
240.437769619
  0
ARC
  5
355
100
AcDbEntity
  8
RACCORDO
100
AcDbCircle
 62
250
  6
CONTINUOUS
 10
1351.5537461944
 20
2218.6710437792
 30
0.0
 40
2400.2424234775
100
AcDbArc
 50
239.9986446571
 51
240.4376534021
  0
ARC
  5
356
100
AcDbEntity
  8
RACCORDO
100
AcDbCircle
 62
250
  6
CONTINUOUS
 10
1351.6134962324
 20
2218.775316366
 30
0.0
 40
2400.0006288309
100
AcDbArc
 50
239.9986446506
 51
240.4376532935
  0
ARC
  5
357
100
AcDbEntity
  8
RACCORDO
100
AcDbCircle
 62
250
  6
CONTINUOUS
 10
1337.9134821157
 20
2125.946404999
 30
0.0
 40
2372.9630032666
100
AcDbArc
 50
239.5590905693
 51
239.9986445213
  0
ARC
  5
358
100
AcDbEntity
  8
RACCORDO
100
AcDbCircle
 62
250
  6
CONTINUOUS
 10
1335.6459447333
 20
2191.1604259526
 30
0.0
 40
2368.4636284302
100
AcDbArc
 50
239.5562121582
 51
239.9991405638
  0
ARC
  5
359
100
AcDbEntity
  8
RACCORDO
100
AcDbCircle
 62
250
  6
CONTINUOUS
 10
1335.7077340462
 20
2191.2682251709
 30
0.0
 40
2368.2259075736
100
AcDbArc
 50
239.5562123491
 51
239.9991405428
  0
ARC
  5
35A
100
AcDbEntity
  8
RACCORDO
100
AcDbCircle
 62
250
  6
CONTINUOUS
 10
1333.0566244587
 20
2135.1695390503
 30
0.0
 40
2365.5546489591
100
AcDbArc
 50
239.9991294221
 51
240.4450245531
  0
ARC
  5
35B
100
AcDbEntity
  8
RACCORDO
100
AcDbCircle
 62
250
  6
CONTINUOUS
 10
1332.5831681212
 20
2134.325956146
 30
0.0
 40
2365.0196332832
100
AcDbArc
 50
239.9990694614
 51
240.4262456022
  0
ARC
  5
35C
100
AcDbEntity
  8
0
100
AcDbCircle
 62
7
  6
CONTINUOUS
 10
1336.2227481736
 20
2190.0279915747
 30
0.0
 40
2364.9583989861
100
AcDbArc
 50
239.5556032522
 51
239.9991424023
  0
ARC
  5
35D
100
AcDbEntity
  8
RACCORDO
100
AcDbCircle
 62
250
  6
CONTINUOUS
 10
1317.6095120209
 20
2108.357388841
 30
0.0
 40
2335.0433665859
100
AcDbArc
 50
239.5488386803
 51
239.9986473227
  0
ARC
  5
35E
100
AcDbEntity
  8
RACCORDO
100
AcDbCircle
 62
250
  6
CONTINUOUS
 10
1317.7070169703
 20
2108.5448816024
 30
0.0
 40
2334.8222158756
100
AcDbArc
 50
239.5488493317
 51
239.9986473239
  0
SPLINE
  5
35F
100
AcDbEntity
  8
SUPERFICI
100
AcDbSpline
 62
7
  6
CONTINUOUS
 70
0
 71
3
 72
9
 73
5
 74
0
 42
0.0000001
 43
0.0000001
 44
0.0000000001
 40
0.0
 40
0.0
 40
0.0
 40
0.0
 40
0.2701397282
 40
1.0
 40
1.0
 40
1.0
 40
1.0
 10
198.582216929
 20
50.751474719
 30
0.0
 10
198.5908242751
 20
50.6675986744
 30
0.0
 10
198.6104949374
 20
50.3563299772
 30
0.0
 10
198.5775191857
 20
50.0391324399
 30
0.0
 10
198.5119502521
 20
49.820967342
 30
0.0
  0
SPLINE
  5
360
100
AcDbEntity
  8
SUPERFICI
100
AcDbSpline
 62
7
  6
CONTINUOUS
 70
0
 71
3
 72
11
 73
7
 74
0
 42
0.0000001
 43
0.0000001
 44
0.0000000001
 40
0.0
 40
0.0
 40
0.0
 40
0.0
 40
0.262180666
 40
0.510115669
 40
0.7527238548
 40
1.0
 40
1.0
 40
1.0
 40
1.0
 10
198.5119502521
 20
49.820967342
 30
0.0
 10
198.4794186805
 20
49.7127262418
 30
0.0
 10
198.395770198
 20
49.5072827566
 30
0.0
 10
198.2071962907
 20
49.2395161932
 30
0.0
 10
197.9636977614
 20
49.0299234562
 30
0.0
 10
197.7726620623
 20
48.9345445307
 30
0.0
 10
197.6726119031
 20
48.8977576007
 30
0.0
  0
SPLINE
  5
361
100
AcDbEntity
  8
SUPERFICI
100
AcDbSpline
 62
7
  6
CONTINUOUS
 70
0
 71
3
 72
9
 73
5
 74
0
 42
0.0000001
 43
0.0000001
 44
0.0000000001
 40
0.0
 40
0.0
 40
0.0
 40
0.0
 40
0.5041925865
 40
1.0
 40
1.0
 40
1.0
 40
1.0
 10
197.1292492057
 20
81.7553566902
 30
0.0
 10
197.1292492057
 20
78.7293259986
 30
0.0
 10
197.1866631838
 20
72.7276135377
 30
0.0
 10
197.3677047355
 20
66.7275372254
 30
0.0
 10
197.5169186227
 20
63.7555755749
 30
0.0
  0
SPLINE
  5
362
100
AcDbEntity
  8
SUPERFICI
100
AcDbSpline
 62
7
  6
CONTINUOUS
 70
0
 71
3
 72
9
 73
5
 74
0
 42
0.0000001
 43
0.0000001
 44
0.0000000001
 40
0.0
 40
0.0
 40
0.0
 40
0.0
 40
0.253367319
 40
1.0
 40
1.0
 40
1.0
 40
1.0
 10
197.5169186227
 20
63.7555755749
 30
0.0
 10
197.5708979967
 20
62.6804435446
 30
0.0
 10
197.8160577681
 20
58.4387653915
 30
0.0
 10
198.1912817807
 20
54.2044339135
 30
0.0
 10
198.5495834018
 20
51.0525022314
 30
0.0
  0
SPLINE
  5
363
100
AcDbEntity
  8
0
100
AcDbSpline
 62
7
  6
CONTINUOUS
 70
0
 71
3
 72
13
 73
9
 74
0
 42
0.0000001
 43
0.0000001
 44
0.0000000001
 40
0.0
 40
0.0
 40
0.0
 40
0.0
 40
0.2358521464
 40
0.4738505497
 40
0.5938467337
 40
0.7161538423
 40
0.8478687871
 40
1.0
 40
1.0
 40
1.0
 40
1.0
 10
153.3391508403
 20
80.9723047753
 30
0.0
 10
153.3315236677
 20
80.967895289
 30
0.0
 10
153.3156373233
 20
80.9600092794
 30
0.0
 10
153.2950604693
 20
80.9516842319
 30
0.0
 10
153.2781714585
 20
80.9456464006
 30
0.0
 10
153.2646630349
 20
80.9418755373
 30
0.0
 10
153.2493090784
 20
80.941309416
 30
0.0
 10
153.2388976625
 20
80.9442143361
 30
0.0
 10
153.2336893471
 20
80.9464874384
 30
0.0
  0
SPLINE
  5
364
100
AcDbEntity
  8
0
100
AcDbSpline
 62
7
  6
CONTINUOUS
 70
0
 71
3
 72
11
 73
7
 74
0
 42
0.0000001
 43
0.0000001
 44
0.0000000001
 40
0.0
 40
0.0
 40
0.0
 40
0.0
 40
0.2108392091
 40
0.4438588616
 40
0.7064879916
 40
1.0
 40
1.0
 40
1.0
 40
1.0
 10
153.0471218539
 20
81.2858078531
 30
0.0
 10
153.0594006463
 20
81.2928477045
 30
0.0
 10
153.080967806
 20
81.3152100519
 30
0.0
 10
153.0995219312
 20
81.3594365086
 30
0.0
 10
153.1085061226
 20
81.4119811337
 30
0.0
 10
153.108327546
 20
81.4495005145
 30
0.0
 10
153.10680021
 20
81.4691448297
 30
0.0
  0
SPLINE
  5
365
100
AcDbEntity
  8
SUPERFICI
100
AcDbSpline
 62
7
  6
CONTINUOUS
 70
0
 71
3
 72
14
 73
10
 74
0
 42
0.0000001
 43
0.0000001
 44
0.0000000001
 40
0.0
 40
0.0
 40
0.0
 40
0.0
 40
0.2489406071
 40
0.3700800445
 40
0.4907163511
 40
0.6117708773
 40
0.7354971903
 40
0.865091634
 40
1.0
 40
1.0
 40
1.0
 40
1.0
 10
195.4663021238
 20
119.4794022846
 30
0.0
 10
193.272283303
 20
120.4759528626
 30
0.0
 10
190.0284664751
 20
121.9973149998
 30
0.0
 10
185.7671100128
 20
124.0961979667
 30
0.0
 10
182.6364198696
 20
125.6883489847
 30
0.0
 10
179.5045990854
 20
127.3328680901
 30
0.0
 10
176.3198714763
 20
129.0623757579
 30
0.0
 10
173.0373173945
 20
130.8921559471
 30
0.0
 10
170.8092099993
 20
132.1535482526
 30
0.0
 10
169.6733069173
 20
132.7978472899
 30
0.0
  0
SPLINE
  5
366
100
AcDbEntity
  8
SUPERFICI
100
AcDbSpline
 62
7
  6
CONTINUOUS
 70
0
 71
3
 72
13
 73
9
 74
0
 42
0.0000001
 43
0.0000001
 44
0.0000000001
 40
0.0
 40
0.0
 40
0.0
 40
0.0
 40
0.2409505124
 40
0.3694847867
 40
0.5003871825
 40
0.6312329912
 40
0.7596023157
 40
1.0
 40
1.0
 40
1.0
 40
1.0
 10
198.582216929
 20
114.4370894351
 30
0.0
 10
198.6259815896
 20
114.9142308415
 30
0.0
 10
198.5509194594
 20
115.6626454336
 30
0.0
 10
198.2423765286
 20
116.6100620278
 30
0.0
 10
197.9015678846
 20
117.3103804811
 30
0.0
 10
197.4685301924
 20
117.9573533258
 30
0.0
 10
196.8065251891
 20
118.6999598326
 30
0.0
 10
196.1986589541
 20
119.1406883376
 30
0.0
 10
195.7651412845
 20
119.3421565215
 30
0.0
  0
SPLINE
  5
367
100
AcDbEntity
  8
SUPERFICI
100
AcDbSpline
 62
7
  6
CONTINUOUS
 70
0
 71
3
 72
9
 73
5
 74
0
 42
0.0000001
 43
0.0000001
 44
0.0000000001
 40
0.0
 40
0.0
 40
0.0
 40
0.0
 40
0.4975554147
 40
1.0
 40
1.0
 40
1.0
 40
1.0
 10
197.1292492057
 20
81.7553566902
 30
0.0
 10
197.1292492057
 20
84.8157683091
 30
0.0
 10
197.1884860342
 20
90.9666676622
 30
0.0
 10
197.3704220462
 20
97.1157984337
 30
0.0
 10
197.5169186227
 20
100.202808731
 30
0.0
  0
SPLINE
  5
368
100
AcDbEntity
  8
SUPERFICI
100
AcDbSpline
 62
7
  6
CONTINUOUS
 70
0
 71
3
 72
9
 73
5
 74
0
 42
0.0000001
 43
0.0000001
 44
0.0000000001
 40
0.0
 40
0.0
 40
0.0
 40
0.0
 40
0.2471908839
 40
1.0
 40
1.0
 40
1.0
 40
1.0
 10
197.5169186227
 20
100.202808731
 30
0.0
 10
197.5713454378
 20
101.3497033733
 30
0.0
 10
197.8231675592
 20
105.9878736276
 30
0.0
 10
198.1999700173
 20
110.6191502831
 30
0.0
 10
198.5495834018
 20
114.0983774767
 30
0.0
  0
SPLINE
  5
369
100
AcDbEntity
  8
RACCORDO
100
AcDbSpline
 62
7
  6
CONTINUOUS
 70
0
 71
3
 72
8
 73
4
 74
0
 42
0.0000001
 43
0.0000001
 44
0.0000000001
 40
0.0
 40
0.0
 40
0.0
 40
0.0
 40
1.0
 40
1.0
 40
1.0
 40
1.0
 10
141.96826379
 20
94.8841010775
 30
0.0
 10
141.9782482412
 20
94.8906062805
 30
0.0
 10
141.9871395958
 20
94.8991652036
 30
0.0
 10
141.9940167462
 20
94.9088971991
 30
0.0
  0
SPLINE
  5
36A
100
AcDbEntity
  8
RACCORDO
100
AcDbSpline
 62
7
  6
CONTINUOUS
 70
0
 71
3
 72
8
 73
4
 74
0
 42
0.0000001
 43
0.0000001
 44
0.0000000001
 40
0.0
 40
0.0
 40
0.0
 40
0.0
 40
1.0
 40
1.0
 40
1.0
 40
1.0
 10
173.7880689434
 20
76.5117443777
 30
0.0
 10
173.7980533946
 20
76.5182495808
 30
0.0
 10
173.8069447492
 20
76.5268085038
 30
0.0
 10
173.8138218996
 20
76.5365404993
 30
0.0
  0
SPLINE
  5
36B
100
AcDbEntity
  8
SUPERFICI
100
AcDbSpline
 62
7
  6
CONTINUOUS
 70
0
 71
3
 72
14
 73
10
 74
0
 42
0.0000001
 43
0.0000001
 44
0.0000000001
 40
0.0
 40
0.0
 40
0.0
 40
0.0
 40
0.2375172817
 40
0.3558644267
 40
0.4755902623
 40
0.5976630633
 40
0.7244325904
 40
0.8589188528
 40
1.0
 40
1.0
 40
1.0
 40
1.0
 10
114.8269841244
 20
166.0395338495
 30
0.0
 10
116.5802774141
 20
164.7526768785
 30
0.0
 10
119.2376696857
 20
162.8656939386
 30
0.0
 10
122.844424531
 20
160.4250702169
 30
0.0
 10
125.6027128811
 20
158.6173844734
 30
0.0
 10
128.4521895548
 20
156.808803812
 30
0.0
 10
131.4438125795
 20
154.9727351709
 30
0.0
 10
134.6056954818
 20
153.0819226673
 30
0.0
 10
136.7800082016
 20
151.8015603729
 30
0.0
 10
137.8937213938
 20
151.1469816794
 30
0.0
  0
SPLINE
  5
36C
100
AcDbEntity
  8
RACCORDO
100
AcDbSpline
 62
7
  6
CONTINUOUS
 70
0
 71
3
 72
9
 73
5
 74
0
 42
0.0000001
 43
0.0000001
 44
0.0000000001
 40
0.0
 40
0.0
 40
0.0
 40
0.0
 40
0.4984134239
 40
1.0
 40
1.0
 40
1.0
 40
1.0
 10
157.8747046189
 20
85.4915483902
 30
0.0
 10
157.8842014963
 20
85.4977361592
 30
0.0
 10
157.9014704599
 20
85.5132161525
 30
0.0
 10
157.9126978375
 20
85.5335326636
 30
0.0
 10
157.916573806
 20
85.5442609984
 30
0.0
  0
SPLINE
  5
36D
100
AcDbEntity
  8
RACCORDO
100
AcDbSpline
 62
7
  6
CONTINUOUS
 70
0
 71
3
 72
9
 73
5
 74
0
 42
0.0000001
 43
0.0000001
 44
0.0000000001
 40
0.0
 40
0.0
 40
0.0
 40
0.0
 40
0.2578381959
 40
1.0
 40
1.0
 40
1.0
 40
1.0
 10
158.1627617331
 20
86.2200538775
 30
0.0
 10
158.1641690566
 20
86.2239245271
 30
0.0
 10
158.1690301515
 20
86.2391408209
 30
0.0
 10
158.1714021767
 20
86.2551988324
 30
0.0
 10
158.1714021767
 20
86.2670536837
 30
0.0
  0
SPLINE
  5
36E
100
AcDbEntity
  8
SUPERFICI
100
AcDbSpline
 62
7
  6
CONTINUOUS
 70
0
 71
3
 72
11
 73
7
 74
0
 42
0.0000001
 43
0.0000001
 44
0.0000000001
 40
0.0
 40
0.0
 40
0.0
 40
0.0
 40
0.2475686562
 40
0.4903846891
 40
0.7382670739
 40
1.0
 40
1.0
 40
1.0
 40
1.0
 10
112.513906766
 20
166.3427014395
 30
0.0
 10
112.5966818282
 20
166.4117048888
 30
0.0
 10
112.7766185495
 20
166.5308269431
 30
0.0
 10
113.0827516231
 20
166.6386570755
 30
0.0
 10
113.411853311
 20
166.6694800467
 30
0.0
 10
113.633635729
 20
166.639813039
 30
0.0
 10
113.7446222119
 20
166.6140824316
 30
0.0
  0
SPLINE
  5
36F
100
AcDbEntity
  8
SUPERFICI
100
AcDbSpline
 62
7
  6
CONTINUOUS
 70
0
 71
3
 72
9
 73
5
 74
0
 42
0.0000001
 43
0.0000001
 44
0.0000000001
 40
0.0
 40
0.0
 40
0.0
 40
0.0
 40
0.2321164976
 40
1.0
 40
1.0
 40
1.0
 40
1.0
 10
113.7446222119
 20
166.6140824316
 30
0.0
 10
113.8153971569
 20
166.5976742864
 30
0.0
 10
114.1160257719
 20
166.5084381458
 30
0.0
 10
114.393989136
 20
166.3521750177
 30
0.0
 10
114.5892828043
 20
166.2120798355
 30
0.0
  0
LINE
  5
370
100
AcDbEntity
  8
0
100
AcDbLine
 62
7
  6
CONTINUOUS
 10
151.8503583338
 20
80.8525850817
 30
0.0
 11
151.7270324488
 21
81.2992009091
 31
0.0
  0
SPLINE
  5
371
100
AcDbEntity
  8
0
100
AcDbSpline
 62
7
  6
CONTINUOUS
 70
0
 71
3
 72
11
 73
7
 74
0
 42
0.0000001
 43
0.0000001
 44
0.0000000001
 40
0.0
 40
0.0
 40
0.0
 40
0.0
 40
0.2514131599
 40
0.5127994738
 40
0.7690073681
 40
1.0
 40
1.0
 40
1.0
 40
1.0
 10
153.0785274566
 20
80.7160909786
 30
0.0
 10
153.0684897812
 20
80.745518133
 30
0.0
 10
153.0434392946
 20
80.8040260489
 30
0.0
 10
152.9946313908
 20
80.8860391774
 30
0.0
 10
152.9339302687
 20
80.9567002969
 30
0.0
 10
152.8853484056
 20
80.9933701246
 30
0.0
 10
152.8605910323
 20
81.007622277
 30
0.0
  0
SPLINE
  5
372
100
AcDbEntity
  8
0
100
AcDbSpline
 62
7
  6
CONTINUOUS
 70
0
 71
3
 72
9
 73
5
 74
0
 42
0.0000001
 43
0.0000001
 44
0.0000000001
 40
0.0
 40
0.0
 40
0.0
 40
0.0
 40
0.4981083916
 40
1.0
 40
1.0
 40
1.0
 40
1.0
 10
153.2819187902
 20
80.0281542874
 30
0.0
 10
153.2489278299
 20
80.1426061506
 30
0.0
 10
153.1815082435
 20
80.3719794018
 30
0.0
 10
153.1172733198
 20
80.6025008306
 30
0.0
 10
153.0785274372
 20
80.7160909814
 30
0.0
  0
SPLINE
  5
373
100
AcDbEntity
  8
0
100
AcDbSpline
 62
7
  6
CONTINUOUS
 70
0
 71
3
 72
10
 73
6
 74
0
 42
0.0000001
 43
0.0000001
 44
0.0000000001
 40
0.0
 40
0.0
 40
0.0
 40
0.0
 40
0.5206352643
 40
0.7651605681
 40
1.0
 40
1.0
 40
1.0
 40
1.0
 10
152.8822050249
 20
81.8354605776
 30
0.0
 10
152.835486037
 20
81.8681140019
 30
0.0
 10
152.7642012842
 20
81.9126223866
 30
0.0
 10
152.6659715155
 20
81.9611218006
 30
0.0
 10
152.6174314464
 20
81.9811599539
 30
0.0
 10
152.5934846338
 20
81.9905176809
 30
0.0
  0
SPLINE
  5
374
100
AcDbEntity
  8
0
100
AcDbSpline
 62
7
  6
CONTINUOUS
 70
0
 71
3
 72
11
 73
7
 74
0
 42
0.0000001
 43
0.0000001
 44
0.0000000001
 40
0.0
 40
0.0
 40
0.0
 40
0.0
 40
0.2315270544
 40
0.4910074525
 40
0.7548675095
 40
1.0
 40
1.0
 40
1.0
 40
1.0
 10
153.1068002253
 20
81.4691448211
 30
0.0
 10
153.1041599768
 20
81.5031032108
 30
0.0
 10
153.0863431837
 20
81.5740846175
 30
0.0
 10
153.0379508969
 20
81.6747774899
 30
0.0
 10
152.9681504722
 20
81.7646638237
 30
0.0
 10
152.9117633286
 20
81.8148013152
 30
0.0
 10
152.8822050249
 20
81.8354605777
 30
0.0
  0
SPLINE
  5
375
100
AcDbEntity
  8
RACCORDO
100
AcDbSpline
 62
250
  6
CONTINUOUS
 70
0
 71
3
 72
12
 73
8
 74
0
 42
0.0000001
 43
0.0000001
 44
0.0000000001
 40
0.0
 40
0.0
 40
0.0
 40
0.0
 40
0.1249514802
 40
0.2499486118
 40
0.4999255025
 40
0.7499416471
 40
1.0
 40
1.0
 40
1.0
 40
1.0
 10
116.340728824
 20
165.873579731
 30
0.0
 10
117.356138521
 20
165.2827625574
 30
0.0
 10
119.3898203875
 20
164.1051991093
 30
0.0
 10
123.4585059595
 20
161.7518391027
 30
0.0
 10
128.5424172596
 20
158.8052109624
 30
0.0
 10
134.6455023151
 20
155.2722019349
 30
0.0
 10
138.7169306316
 20
152.9207846183
 30
0.0
 10
140.752812336
 20
151.7449698534
 30
0.0
  0
SPLINE
  5
376
100
AcDbEntity
  8
RACCORDO
100
AcDbSpline
 62
250
  6
CONTINUOUS
 70
0
 71
3
 72
9
 73
5
 74
0
 42
0.0000001
 43
0.0000001
 44
0.0000000001
 40
0.0
 40
0.0
 40
0.0
 40
0.0
 40
0.2444029072
 40
1.0
 40
1.0
 40
1.0
 40
1.0
 10
140.7883774714
 20
151.7249738698
 30
0.0
 10
142.0814126573
 20
150.9780406173
 30
0.0
 10
147.3720947176
 20
147.9220474017
 30
0.0
 10
152.6631060155
 20
144.8666241931
 30
0.0
 10
156.6611291411
 20
142.5582157584
 30
0.0
  0
SPLINE
  5
377
100
AcDbEntity
  8
RACCORDO
100
AcDbSpline
 62
250
  6
CONTINUOUS
 70
0
 71
3
 72
13
 73
9
 74
0
 42
0.0000001
 43
0.0000001
 44
0.0000000001
 40
0.0
 40
0.0
 40
0.0
 40
0.0
 40
0.1163145753
 40
0.2300449309
 40
0.3440735189
 40
0.4612426761
 40
0.7134570576
 40
1.0
 40
1.0
 40
1.0
 40
1.0
 10
110.5790622938
 20
164.7297608653
 30
0.0
 10
110.6387802795
 20
164.7794488583
 30
0.0
 10
110.7659943207
 20
164.8674890112
 30
0.0
 10
110.9779868285
 20
164.9598673808
 30
0.0
 10
111.2046626663
 20
165.0087395112
 30
0.0
 10
111.5292498071
 20
165.0153915369
 30
0.0
 10
111.9614021136
 20
164.9044058487
 30
0.0
 10
112.2754233148
 20
164.7213184498
 30
0.0
 10
112.4307170516
 20
164.609467738
 30
0.0
  0
SPLINE
  5
378
100
AcDbEntity
  8
RACCORDO
100
AcDbSpline
 62
250
  6
CONTINUOUS
 70
0
 71
3
 72
9
 73
5
 74
0
 42
0.0000001
 43
0.0000001
 44
0.0000000001
 40
0.0
 40
0.0
 40
0.0
 40
0.0
 40
0.5032014347
 40
1.0
 40
1.0
 40
1.0
 40
1.0
 10
195.0649492768
 20
99.1359748555
 30
0.0
 10
194.9201703011
 20
96.0445222788
 30
0.0
 10
194.7399280292
 20
89.8959654056
 30
0.0
 10
194.6811236841
 20
83.7456572343
 30
0.0
 10
194.6811253278
 20
80.6901959497
 30
0.0
  0
SPLINE
  5
379
100
AcDbEntity
  8
RACCORDO
100
AcDbSpline
 62
250
  6
CONTINUOUS
 70
0
 71
3
 72
11
 73
7
 74
0
 42
0.0000001
 43
0.0000001
 44
0.0000000001
 40
0.0
 40
0.0
 40
0.0
 40
0.0
 40
0.2217860937
 40
0.4579945282
 40
0.7162204003
 40
1.0
 40
1.0
 40
1.0
 40
1.0
 10
126.29482621
 20
137.012315285
 30
0.0
 10
126.3207157167
 20
137.0221763119
 30
0.0
 10
126.3775098819
 20
137.0345459024
 30
0.0
 10
126.4677134353
 20
137.0293461648
 30
0.0
 10
126.5616423642
 20
137.0017668404
 30
0.0
 10
126.6222242201
 20
136.9706982682
 30
0.0
 10
126.6524753533
 20
136.9522210595
 30
0.0
  0
SPLINE
  5
37A
100
AcDbEntity
  8
RACCORDO
100
AcDbSpline
 62
250
  6
CONTINUOUS
 70
0
 71
3
 72
9
 73
5
 74
0
 42
0.0000001
 43
0.0000001
 44
0.0000000001
 40
0.0
 40
0.0
 40
0.0
 40
0.0
 40
0.2472542857
 40
1.0
 40
1.0
 40
1.0
 40
1.0
 10
108.8449743305
 20
148.8644570742
 30
0.0
 10
108.8989810834
 20
150.0005912834
 30
0.0
 10
109.1481065081
 20
154.5940960716
 30
0.0
 10
109.5185345424
 20
159.1809216718
 30
0.0
 10
109.8614811066
 20
162.6266720014
 30
0.0
  0
LINE
  5
37B
100
AcDbEntity
  8
RACCORDO
100
AcDbLine
 62
250
  6
CONTINUOUS
 10
109.8614811066
 20
162.6266720014
 30
0.0
 11
109.8941738786
 21
162.9553272927
 31
0.0
  0
SPLINE
  5
37C
100
AcDbEntity
  8
RACCORDO
100
AcDbSpline
 62
250
  6
CONTINUOUS
 70
0
 71
3
 72
18
 73
14
 74
0
 42
0.0000001
 43
0.0000001
 44
0.0000000001
 40
0.0
 40
0.0
 40
0.0
 40
0.0
 40
0.1539865276
 40
0.2924723494
 40
0.4157864286
 40
0.4728312447
 40
0.5276399384
 40
0.5811552469
 40
0.6344420119
 40
0.6885859329
 40
0.7445876531
 40
0.8649699781
 40
1.0
 40
1.0
 40
1.0
 40
1.0
 10
109.8941738786
 20
162.9553272927
 30
0.0
 10
109.9115886546
 20
163.1330717488
 30
0.0
 10
109.968526217
 20
163.46925612
 30
0.0
 10
110.1333801148
 20
163.9255317297
 30
0.0
 10
110.3370651453
 20
164.2398379508
 30
0.0
 10
110.5331267103
 20
164.430901995
 30
0.0
 10
110.6908052181
 20
164.5416605733
 30
0.0
 10
110.8611875456
 20
164.6220471847
 30
0.0
 10
111.042317555
 20
164.6710308218
 30
0.0
 10
111.232030363
 20
164.6880785217
 30
0.0
 10
111.4997105791
 20
164.6678825162
 30
0.0
 10
111.8486841086
 20
164.5572221285
 30
0.0
 10
112.1036729606
 20
164.401852055
 30
0.0
 10
112.2297754516
 20
164.308982738
 30
0.0
  0
SPLINE
  5
37D
100
AcDbEntity
  8
RACCORDO
100
AcDbSpline
 62
250
  6
CONTINUOUS
 70
0
 71
3
 72
14
 73
10
 74
0
 42
0.0000001
 43
0.0000001
 44
0.0000000001
 40
0.0
 40
0.0
 40
0.0
 40
0.0
 40
0.2438945343
 40
0.3674617537
 40
0.4921062654
 40
0.6178278571
 40
0.7445728248
 40
0.8720710516
 40
1.0
 40
1.0
 40
1.0
 40
1.0
 10
112.4626304914
 20
164.1380530299
 30
0.0
 10
114.2653946143
 20
162.8190063186
 30
0.0
 10
117.0133065542
 20
160.8746323956
 30
0.0
 10
120.7513533073
 20
158.3562506745
 30
0.0
 10
123.6204016158
 20
156.4857451036
 30
0.0
 10
126.541663598
 20
154.6427570842
 30
0.0
 10
129.5120538168
 20
152.8294276803
 30
0.0
 10
132.5180513627
 20
151.0360984537
 30
0.0
 10
134.5340382963
 20
149.8492061351
 30
0.0
 10
135.544169755
 20
149.2555093473
 30
0.0
  0
SPLINE
  5
37E
100
AcDbEntity
  8
RACCORDO
100
AcDbSpline
 62
250
  6
CONTINUOUS
 70
0
 71
3
 72
9
 73
5
 74
0
 42
0.0000001
 43
0.0000001
 44
0.0000000001
 40
0.0
 40
0.0
 40
0.0
 40
0.0
 40
0.2489460288
 40
1.0
 40
1.0
 40
1.0
 40
1.0
 10
126.764213159
 20
136.8840022079
 30
0.0
 10
127.3774116857
 20
136.5098213088
 30
0.0
 10
129.8462399714
 20
135.0160059017
 30
0.0
 10
132.3322766072
 20
133.5509019176
 30
0.0
 10
134.2008250303
 20
132.4530304498
 30
0.0
  0
SPLINE
  5
37F
100
AcDbEntity
  8
RACCORDO
100
AcDbSpline
 62
250
  6
CONTINUOUS
 70
0
 71
3
 72
9
 73
5
 74
0
 42
0.0000001
 43
0.0000001
 44
0.0000000001
 40
0.0
 40
0.0
 40
0.0
 40
0.0
 40
0.4969485153
 40
1.0
 40
1.0
 40
1.0
 40
1.0
 10
125.6982041933
 20
118.5419637124
 30
0.0
 10
125.6982042112
 20
121.5369686029
 30
0.0
 10
125.7559062691
 20
127.5637672727
 30
0.0
 10
125.9313746534
 20
133.5888520395
 30
0.0
 10
126.0716290701
 20
136.6173923373
 30
0.0
  0
SPLINE
  5
380
100
AcDbEntity
  8
RACCORDO
100
AcDbSpline
 62
250
  6
CONTINUOUS
 70
0
 71
3
 72
9
 73
5
 74
0
 42
0.0000001
 43
0.0000001
 44
0.0000000001
 40
0.0
 40
0.0
 40
0.0
 40
0.0
 40
0.496824288
 40
1.0
 40
1.0
 40
1.0
 40
1.0
 10
108.453362585
 20
130.2682427448
 30
0.0
 10
108.453362585
 20
133.3257751176
 30
0.0
 10
108.5122760569
 20
139.4799328416
 30
0.0
 10
108.6928813063
 20
145.6323363348
 30
0.0
 10
108.8380464673
 20
148.7255518983
 30
0.0
  0
SPLINE
  5
381
100
AcDbEntity
  8
RACCORDO
100
AcDbSpline
 62
250
  6
CONTINUOUS
 70
0
 71
3
 72
11
 73
7
 74
0
 42
0.0000001
 43
0.0000001
 44
0.0000000001
 40
0.0
 40
0.0
 40
0.0
 40
0.0
 40
0.2915681516
 40
0.5505957009
 40
0.782328704
 40
1.0
 40
1.0
 40
1.0
 40
1.0
 10
126.0716290701
 20
136.6173923373
 30
0.0
 10
126.0737852029
 20
136.66386883
 30
0.0
 10
126.0854389982
 20
136.7516488014
 30
0.0
 10
126.129879594
 20
136.8697589953
 30
0.0
 10
126.1997020475
 20
136.9611710201
 30
0.0
 10
126.2623686675
 20
136.9999461849
 30
0.0
 10
126.29482621
 20
137.012315285
 30
0.0
  0
SPLINE
  5
382
100
AcDbEntity
  8
RACCORDO
100
AcDbSpline
 62
250
  6
CONTINUOUS
 70
0
 71
3
 72
9
 73
5
 74
0
 42
0.0000001
 43
0.0000001
 44
0.0000000001
 40
0.0
 40
0.0
 40
0.0
 40
0.0
 40
0.2527495871
 40
1.0
 40
1.0
 40
1.0
 40
1.0
 10
196.0831418285
 20
113.0252468413
 30
0.0
 10
195.9685480611
 20
111.8692550822
 30
0.0
 10
195.5436570965
 20
107.2928235225
 30
0.0
 10
195.2339451843
 20
102.7055965006
 30
0.0
 10
195.0714970597
 20
99.2750166674
 30
0.0
  0
LINE
  5
383
100
AcDbEntity
  8
RACCORDO
100
AcDbLine
 62
250
  6
CONTINUOUS
 10
195.0714970597
 20
99.2750166674
 30
0.0
 11
195.0649492768
 21
99.1359748555
 31
0.0
  0
SPLINE
  5
384
100
AcDbEntity
  8
RACCORDO
100
AcDbSpline
 62
250
  6
CONTINUOUS
 70
0
 71
3
 72
9
 73
5
 74
0
 42
0.0000001
 43
0.0000001
 44
0.0000000001
 40
0.0
 40
0.0
 40
0.0
 40
0.0
 40
0.500020129
 40
1.0
 40
1.0
 40
1.0
 40
1.0
 10
199.1521711444
 20
102.3636733416
 30
0.0
 10
199.1496279547
 20
99.3090432317
 30
0.0
 10
199.1469783392
 20
93.2000270344
 30
0.0
 10
199.1461589175
 20
87.0910106866
 30
0.0
 10
199.146155266
 20
84.0366254554
 30
0.0
  0
SPLINE
  5
385
100
AcDbEntity
  8
RACCORDO
100
AcDbSpline
 62
250
  6
CONTINUOUS
 70
0
 71
3
 72
9
 73
5
 74
0
 42
0.0000001
 43
0.0000001
 44
0.0000000001
 40
0.0
 40
0.0
 40
0.0
 40
0.0
 40
0.2682929291
 40
1.0
 40
1.0
 40
1.0
 40
1.0
 10
199.1767434619
 20
52.1620279817
 30
0.0
 10
199.1769776388
 20
52.1019685134
 30
0.0
 10
199.1699893277
 20
51.8783409377
 30
0.0
 10
199.1288993213
 20
51.6543525753
 30
0.0
 10
199.0730808562
 20
51.5003571061
 30
0.0
  0
SPLINE
  5
386
100
AcDbEntity
  8
RACCORDO
100
AcDbSpline
 62
250
  6
CONTINUOUS
 70
0
 71
3
 72
11
 73
7
 74
0
 42
0.0000001
 43
0.0000001
 44
0.0000000001
 40
0.0
 40
0.0
 40
0.0
 40
0.0
 40
0.2130736353
 40
0.4437872616
 40
0.7046456865
 40
1.0
 40
1.0
 40
1.0
 40
1.0
 10
193.2039967664
 20
48.3532300338
 30
0.0
 10
193.1958334432
 20
48.3569434803
 30
0.0
 10
193.1801418149
 20
48.3678546229
 30
0.0
 10
193.1622525227
 20
48.3920140876
 30
0.0
 10
193.1498943527
 20
48.4230388603
 30
0.0
 10
193.145575407
 20
48.4461816978
 30
0.0
 10
193.1441964236
 20
48.4585364158
 30
0.0
  0
SPLINE
  5
387
100
AcDbEntity
  8
RACCORDO
100
AcDbSpline
 62
250
  6
CONTINUOUS
 70
0
 71
3
 72
11
 73
7
 74
0
 42
0.0000001
 43
0.0000001
 44
0.0000000001
 40
0.0
 40
0.0
 40
0.0
 40
0.0
 40
0.2500797772
 40
0.500091096
 40
0.7500670929
 40
1.0
 40
1.0
 40
1.0
 40
1.0
 10
199.1757467329
 20
115.5785656655
 30
0.0
 10
199.1718966367
 20
114.4801185559
 30
0.0
 10
199.1679990576
 20
112.2835134827
 30
0.0
 10
199.1613862456
 20
108.9889156975
 30
0.0
 10
199.1555941573
 20
105.6949605995
 30
0.0
 10
199.1531236398
 20
103.4991550908
 30
0.0
 10
199.1522026329
 20
102.4013467344
 30
0.0
  0
SPLINE
  5
388
100
AcDbEntity
  8
RACCORDO
100
AcDbSpline
 62
250
  6
CONTINUOUS
 70
0
 71
3
 72
11
 73
7
 74
0
 42
0.0000001
 43
0.0000001
 44
0.0000000001
 40
0.0
 40
0.0
 40
0.0
 40
0.0
 40
0.2127785524
 40
0.4433556594
 40
0.7043102505
 40
1.0
 40
1.0
 40
1.0
 40
1.0
 10
193.4992689499
 20
48.2187652774
 30
0.0
 10
193.4911427934
 20
48.2224669434
 30
0.0
 10
193.475523868
 20
48.2333571908
 30
0.0
 10
193.4577484408
 20
48.2574750601
 30
0.0
 10
193.4454960001
 20
48.2884495162
 30
0.0
 10
193.4412365289
 20
48.3115511218
 30
0.0
 10
193.439884384
 20
48.3238862597
 30
0.0
  0
SPLINE
  5
389
100
AcDbEntity
  8
RACCORDO
100
AcDbSpline
 62
250
  6
CONTINUOUS
 70
0
 71
3
 72
15
 73
11
 74
0
 42
0.0000001
 43
0.0000001
 44
0.0000000001
 40
0.0
 40
0.0
 40
0.0
 40
0.0
 40
0.1158605684
 40
0.2395560061
 40
0.3687911286
 40
0.5008354857
 40
0.6327580883
 40
0.7616462362
 40
0.884811324
 40
1.0
 40
1.0
 40
1.0
 40
1.0
 10
197.3841464881
 20
119.0781063119
 30
0.0
 10
197.5054898317
 20
119.0004838937
 30
0.0
 10
197.7440386539
 20
118.8202406775
 30
0.0
 10
198.0724150754
 20
118.4987868498
 30
0.0
 10
198.374306067
 20
118.1260656476
 30
0.0
 10
198.6396477531
 20
117.7143867179
 30
0.0
 10
198.8597106202
 20
117.2773077307
 30
0.0
 10
199.0272588999
 20
116.8291969884
 30
0.0
 10
199.1368658794
 20
116.3849077041
 30
0.0
 10
199.1703867317
 20
116.0892881501
 30
0.0
 10
199.1752368896
 20
115.9461589691
 30
0.0
  0
SPLINE
  5
38A
100
AcDbEntity
  8
RACCORDO
100
AcDbSpline
 62
7
  6
CONTINUOUS
 70
0
 71
3
 72
9
 73
5
 74
0
 42
0.0000001
 43
0.0000001
 44
0.0000000001
 40
0.0
 40
0.0
 40
0.0
 40
0.0
 40
0.2424710524
 40
1.0
 40
1.0
 40
1.0
 40
1.0
 10
157.916573806
 20
85.5442609984
 30
0.0
 10
157.9177991089
 20
85.5476525271
 30
0.0
 10
157.9221669852
 20
85.5618856731
 30
0.0
 10
157.9238356554
 20
85.5768853097
 30
0.0
 10
157.9238356554
 20
85.5881514471
 30
0.0
  0
SPLINE
  5
38B
100
AcDbEntity
  8
RACCORDO
100
AcDbSpline
 62
250
  6
CONTINUOUS
 70
0
 71
3
 72
12
 73
8
 74
0
 42
0.0000001
 43
0.0000001
 44
0.0000000001
 40
0.0
 40
0.0
 40
0.0
 40
0.0
 40
0.249941474
 40
0.4999253336
 40
0.7499481833
 40
0.8749509077
 40
1.0
 40
1.0
 40
1.0
 40
1.0
 10
172.6064913022
 20
133.3530603755
 30
0.0
 10
174.6415821051
 20
132.178348356
 30
0.0
 10
178.7121053559
 20
129.8287180161
 30
0.0
 10
184.8219498839
 20
126.3101813975
 30
0.0
 10
189.915442604
 20
123.3804726751
 30
0.0
 10
193.9886929958
 20
121.0327638853
 30
0.0
 10
196.0260053824
 20
119.8598227161
 30
0.0
 10
197.0460889795
 20
119.2754027484
 30
0.0
  0
SPLINE
  5
38C
100
AcDbEntity
  8
RACCORDO
100
AcDbSpline
 62
250
  6
CONTINUOUS
 70
0
 71
3
 72
9
 73
5
 74
0
 42
0.0000001
 43
0.0000001
 44
0.0000000001
 40
0.0
 40
0.0
 40
0.0
 40
0.0
 40
0.2429739002
 40
1.0
 40
1.0
 40
1.0
 40
1.0
 10
174.1249798173
 20
76.9200682141
 30
0.0
 10
174.1229857311
 20
76.9180754822
 30
0.0
 10
174.1144975078
 20
76.9101576017
 30
0.0
 10
174.1049643009
 20
76.9033833656
 30
0.0
 10
174.0973978075
 20
76.8989228389
 30
0.0
  0
SPLINE
  5
38D
100
AcDbEntity
  8
RACCORDO
100
AcDbSpline
 62
250
  6
CONTINUOUS
 70
0
 71
3
 72
9
 73
5
 74
0
 42
0.0000001
 43
0.0000001
 44
0.0000000001
 40
0.0
 40
0.0
 40
0.0
 40
0.0
 40
0.252208859
 40
1.0
 40
1.0
 40
1.0
 40
1.0
 10
156.7988037616
 20
142.4787809644
 30
0.0
 10
158.1248075548
 20
141.7131659168
 30
0.0
 10
163.38244297
 20
138.6776535247
 30
0.0
 10
168.6403405754
 20
135.6425952338
 30
0.0
 10
172.5723579271
 20
133.3733661332
 30
0.0
  0
SPLINE
  5
38E
100
AcDbEntity
  8
RACCORDO
100
AcDbSpline
 62
250
  6
CONTINUOUS
 70
0
 71
3
 72
9
 73
5
 74
0
 42
0.0000001
 43
0.0000001
 44
0.0000000001
 40
0.0
 40
0.0
 40
0.0
 40
0.0
 40
0.2491954349
 40
1.0
 40
1.0
 40
1.0
 40
1.0
 10
166.1324085863
 20
114.0172545874
 30
0.0
 10
166.7685442759
 20
113.6563568632
 30
0.0
 10
169.3219927806
 20
112.2093546814
 30
0.0
 10
171.8830616448
 20
110.7755416926
 30
0.0
 10
173.8173003248
 20
109.719842235
 30
0.0
  0
SPLINE
  5
38F
100
AcDbEntity
  8
RACCORDO
100
AcDbSpline
 62
250
  6
CONTINUOUS
 70
0
 71
3
 72
9
 73
5
 74
0
 42
0.0000001
 43
0.0000001
 44
0.0000000001
 40
0.0
 40
0.0
 40
0.0
 40
0.0
 40
0.248982961
 40
1.0
 40
1.0
 40
1.0
 40
1.0
 10
167.3639749084
 20
130.8831526475
 30
0.0
 10
168.1085895513
 20
130.4607959494
 30
0.0
 10
171.1000681848
 20
128.7660429847
 30
0.0
 10
174.1030050416
 20
127.0909653813
 30
0.0
 10
176.3760260687
 20
125.8658369612
 30
0.0
  0
SPLINE
  5
390
100
AcDbEntity
  8
RACCORDO
100
AcDbSpline
 62
250
  6
CONTINUOUS
 70
0
 71
3
 72
9
 73
5
 74
0
 42
0.0000001
 43
0.0000001
 44
0.0000000001
 40
0.0
 40
0.0
 40
0.0
 40
0.0
 40
0.2464094166
 40
1.0
 40
1.0
 40
1.0
 40
1.0
 10
176.3760260687
 20
125.8658369612
 30
0.0
 10
177.7293472308
 20
125.1364146649
 30
0.0
 10
183.2474121904
 20
122.2244230646
 30
0.0
 10
188.8657089162
 20
119.5031337436
 30
0.0
 10
193.1441964238
 20
117.5535280381
 30
0.0
  0
SPLINE
  5
391
100
AcDbEntity
  8
RACCORDO
100
AcDbSpline
 62
250
  6
CONTINUOUS
 70
0
 71
3
 72
13
 73
9
 74
0
 42
0.0000001
 43
0.0000001
 44
0.0000000001
 40
0.0
 40
0.0
 40
0.0
 40
0.0
 40
0.2400556495
 40
0.3686564456
 40
0.4998542031
 40
0.6310706533
 40
0.7597266697
 40
1.0
 40
1.0
 40
1.0
 40
1.0
 10
193.4398825734
 20
117.4192846876
 30
0.0
 10
193.7987156729
 20
117.256975151
 30
0.0
 10
194.303944291
 20
116.8984510809
 30
0.0
 10
194.8538293742
 20
116.2883640436
 30
0.0
 10
195.2124560702
 20
115.7535740527
 30
0.0
 10
195.4923545089
 20
115.1735949198
 30
0.0
 10
195.740764293
 20
114.3902281658
 30
0.0
 10
195.7951105174
 20
113.7727879047
 30
0.0
 10
195.7544098083
 20
113.3807031484
 30
0.0
  0
SPLINE
  5
392
100
AcDbEntity
  8
RACCORDO
100
AcDbSpline
 62
250
  6
CONTINUOUS
 70
0
 71
3
 72
9
 73
5
 74
0
 42
0.0000001
 43
0.0000001
 44
0.0000000001
 40
0.0
 40
0.0
 40
0.0
 40
0.0
 40
0.25275021
 40
1.0
 40
1.0
 40
1.0
 40
1.0
 10
195.7213829254
 20
113.0522407685
 30
0.0
 10
195.606670344
 20
111.8950534901
 30
0.0
 10
195.1813396979
 20
107.3139003097
 30
0.0
 10
194.8713062291
 20
102.7219405475
 30
0.0
 10
194.7086893836
 20
99.2878241276
 30
0.0
  0
SPLINE
  5
393
100
AcDbEntity
  8
RACCORDO
100
AcDbSpline
 62
250
  6
CONTINUOUS
 70
0
 71
3
 72
9
 73
5
 74
0
 42
0.0000001
 43
0.0000001
 44
0.0000000001
 40
0.0
 40
0.0
 40
0.0
 40
0.0
 40
0.2400576372
 40
1.0
 40
1.0
 40
1.0
 40
1.0
 10
173.8173003248
 20
109.719842235
 30
0.0
 10
173.8307096549
 20
109.7125229732
 30
0.0
 10
173.8856029281
 20
109.6802752643
 30
0.0
 10
173.9365714829
 20
109.6415224854
 30
0.0
 10
173.9728619315
 20
109.6095564879
 30
0.0
  0
SPLINE
  5
394
100
AcDbEntity
  8
RACCORDO
100
AcDbSpline
 62
250
  6
CONTINUOUS
 70
0
 71
3
 72
9
 73
5
 74
0
 42
0.0000001
 43
0.0000001
 44
0.0000000001
 40
0.0
 40
0.0
 40
0.0
 40
0.0
 40
0.2425564875
 40
1.0
 40
1.0
 40
1.0
 40
1.0
 10
173.9728619315
 20
109.6095564879
 30
0.0
 10
173.9894647585
 20
109.5949320909
 30
0.0
 10
174.0558983745
 20
109.5323698313
 30
0.0
 10
174.1143377705
 20
109.4614729341
 30
0.0
 10
174.1537835177
 20
109.4047482457
 30
0.0
  0
SPLINE
  5
395
100
AcDbEntity
  8
RACCORDO
100
AcDbSpline
 62
250
  6
CONTINUOUS
 70
0
 71
3
 72
9
 73
5
 74
0
 42
0.0000001
 43
0.0000001
 44
0.0000000001
 40
0.0
 40
0.0
 40
0.0
 40
0.0
 40
0.5223205567
 40
1.0
 40
1.0
 40
1.0
 40
1.0
 10
174.2273571727
 20
109.2853315534
 30
0.0
 10
174.2753084186
 20
109.1969943905
 30
0.0
 10
174.3479128928
 20
109.0167331542
 30
0.0
 10
174.3733948455
 20
108.8227560976
 30
0.0
 10
174.3692947003
 20
108.7309255143
 30
0.0
  0
SPLINE
  5
396
100
AcDbEntity
  8
RACCORDO
100
AcDbSpline
 62
250
  6
CONTINUOUS
 70
0
 71
3
 72
9
 73
5
 74
0
 42
0.0000001
 43
0.0000001
 44
0.0000000001
 40
0.0
 40
0.0
 40
0.0
 40
0.0
 40
0.503175712
 40
1.0
 40
1.0
 40
1.0
 40
1.0
 10
194.7025696836
 20
99.148449696
 30
0.0
 10
194.5574045195
 20
96.0552341056
 30
0.0
 10
194.3767992667
 20
89.902830559
 30
0.0
 10
194.3178857938
 20
83.7486727817
 30
0.0
 10
194.3178857938
 20
80.6911403827
 30
0.0
  0
SPLINE
  5
397
100
AcDbEntity
  8
RACCORDO
100
AcDbSpline
 62
250
  6
CONTINUOUS
 70
0
 71
3
 72
9
 73
5
 74
0
 42
0.0000001
 43
0.0000001
 44
0.0000000001
 40
0.0
 40
0.0
 40
0.0
 40
0.0
 40
0.5031528427
 40
1.0
 40
1.0
 40
1.0
 40
1.0
 10
174.3692947003
 20
108.7309255143
 30
0.0
 10
174.2338957877
 20
105.7003652058
 30
0.0
 10
174.0644374909
 20
99.6728086562
 30
0.0
 10
174.0087039113
 20
93.6436521512
 30
0.0
 10
174.008703991
 20
90.6480866019
 30
0.0
  0
SPLINE
  5
398
100
AcDbEntity
  8
RACCORDO
100
AcDbSpline
 62
250
  6
CONTINUOUS
 70
0
 71
3
 72
9
 73
5
 74
0
 42
0.0000001
 43
0.0000001
 44
0.0000000001
 40
0.0
 40
0.0
 40
0.0
 40
0.0
 40
0.476887288
 40
1.0
 40
1.0
 40
1.0
 40
1.0
 10
142.3337878329
 20
95.3434108981
 30
0.0
 10
142.3306588185
 20
95.3288868012
 30
0.0
 10
142.3164105425
 20
95.2997788923
 30
0.0
 10
142.2916321705
 20
95.2795559798
 30
0.0
 10
142.2775926541
 20
95.2712795387
 30
0.0
  0
LINE
  5
399
100
AcDbEntity
  8
0
100
AcDbLine
 62
7
  6
CONTINUOUS
 10
150.4868942161
 20
83.5936996341
 30
0.0
 11
150.1760506655
 21
83.7731456408
 31
0.0
  0
SPLINE
  5
39A
100
AcDbEntity
  8
RACCORDO
100
AcDbSpline
 62
7
  6
CONTINUOUS
 70
0
 71
3
 72
8
 73
4
 74
0
 42
0.0000001
 43
0.0000001
 44
0.0000000001
 40
0.0
 40
0.0
 40
0.0
 40
0.0
 40
1.0
 40
1.0
 40
1.0
 40
1.0
 10
141.9940167462
 20
94.9088971991
 30
0.0
 10
141.9988445152
 20
94.9157290732
 30
0.0
 10
142.0028057316
 20
94.9232436124
 30
0.0
 10
142.0058042522
 20
94.9310532687
 30
0.0
  0
SPLINE
  5
39B
100
AcDbEntity
  8
RACCORDO
100
AcDbSpline
 62
7
  6
CONTINUOUS
 70
0
 71
3
 72
9
 73
5
 74
0
 42
0.0000001
 43
0.0000001
 44
0.0000000001
 40
0.0
 40
0.0
 40
0.0
 40
0.0
 40
0.2395923359
 40
1.0
 40
1.0
 40
1.0
 40
1.0
 10
142.0058042522
 20
94.9310532687
 30
0.0
 10
142.007185301
 20
94.9346502148
 30
0.0
 10
142.0121350855
 20
94.9499750255
 30
0.0
 10
142.0139330787
 20
94.9662190037
 30
0.0
 10
142.0139330787
 20
94.9784473662
 30
0.0
  0
SPLINE
  5
39C
100
AcDbEntity
  8
RACCORDO
100
AcDbSpline
 62
250
  6
CONTINUOUS
 70
0
 71
3
 72
13
 73
9
 74
0
 42
0.0000001
 43
0.0000001
 44
0.0000000001
 40
0.0
 40
0.0
 40
0.0
 40
0.0
 40
0.2874976327
 40
0.5399419416
 40
0.6569587433
 40
0.7706950614
 40
0.8840551567
 40
1.0
 40
1.0
 40
1.0
 40
1.0
 10
196.1161699647
 20
49.6896013529
 30
0.0
 10
196.1363220689
 20
49.4993907332
 30
0.0
 10
196.1399761044
 20
49.1365827134
 30
0.0
 10
196.023265104
 20
48.7070004477
 30
0.0
 10
195.8575906984
 20
48.4294052848
 30
0.0
 10
195.7036851109
 20
48.2578616322
 30
0.0
 10
195.5193270253
 20
48.1208619123
 30
0.0
 10
195.3804985809
 20
48.0550581908
 30
0.0
 10
195.3081214148
 20
48.0283745119
 30
0.0
  0
LINE
  5
39D
100
AcDbEntity
  8
0
100
AcDbLine
 62
7
  6
CONTINUOUS
 10
151.2067459766
 20
81.2891509305
 30
0.0
 11
151.2561288781
 21
81.5109114081
 31
0.0
  0
SPLINE
  5
39E
100
AcDbEntity
  8
RACCORDO
100
AcDbSpline
 62
7
  6
CONTINUOUS
 70
0
 71
3
 72
8
 73
4
 74
0
 42
0.0000001
 43
0.0000001
 44
0.0000000001
 40
0.0
 40
0.0
 40
0.0
 40
0.0
 40
1.0
 40
1.0
 40
1.0
 40
1.0
 10
173.8138218996
 20
76.5365404993
 30
0.0
 10
173.8186496686
 20
76.5433723735
 30
0.0
 10
173.822610885
 20
76.5508869126
 30
0.0
 10
173.8256094056
 20
76.558696569
 30
0.0
  0
SPLINE
  5
39F
100
AcDbEntity
  8
RACCORDO
100
AcDbSpline
 62
7
  6
CONTINUOUS
 70
0
 71
3
 72
9
 73
5
 74
0
 42
0.0000001
 43
0.0000001
 44
0.0000000001
 40
0.0
 40
0.0
 40
0.0
 40
0.0
 40
0.2395923359
 40
1.0
 40
1.0
 40
1.0
 40
1.0
 10
173.8256094056
 20
76.558696569
 30
0.0
 10
173.8269904544
 20
76.562293515
 30
0.0
 10
173.8319402388
 20
76.5776183258
 30
0.0
 10
173.8337382321
 20
76.593862304
 30
0.0
 10
173.8337382321
 20
76.6060906665
 30
0.0
  0
SPLINE
  5
3A0
100
AcDbEntity
  8
RACCORDO
100
AcDbSpline
 62
250
  6
CONTINUOUS
 70
0
 71
3
 72
9
 73
5
 74
0
 42
0.0000001
 43
0.0000001
 44
0.0000000001
 40
0.0
 40
0.0
 40
0.0
 40
0.0
 40
0.5033733959
 40
1.0
 40
1.0
 40
1.0
 40
1.0
 10
194.6811253278
 20
80.6901959497
 30
0.0
 10
194.6811265334
 20
77.6688201963
 30
0.0
 10
194.738112393
 20
71.6665832931
 30
0.0
 10
194.9175163382
 20
65.6659732695
 30
0.0
 10
195.0649492768
 20
62.6887416994
 30
0.0
  0
LINE
  5
3A1
100
AcDbEntity
  8
0
100
AcDbLine
 62
7
  6
CONTINUOUS
 10
151.6220298224
 20
82.9389293243
 30
0.0
 11
151.2648494765
 21
83.1448690352
 31
0.0
  0
LINE
  5
3A2
100
AcDbEntity
  8
0
100
AcDbLine
 62
7
  6
CONTINUOUS
 10
151.6104770217
 20
81.7229861196
 30
0.0
 11
151.3355357363
 21
81.881518636
 31
0.0
  0
LINE
  5
3A3
100
AcDbEntity
  8
RACCORDO
100
AcDbLine
 62
250
  6
CONTINUOUS
 10
195.0649492768
 20
62.6887416994
 30
0.0
 11
195.0714970597
 21
62.5572869587
 31
0.0
  0
SPLINE
  5
3A4
100
AcDbEntity
  8
RACCORDO
100
AcDbSpline
 62
250
  6
CONTINUOUS
 70
0
 71
3
 72
9
 73
5
 74
0
 42
0.0000001
 43
0.0000001
 44
0.0000000001
 40
0.0
 40
0.0
 40
0.0
 40
0.0
 40
0.2532970855
 40
1.0
 40
1.0
 40
1.0
 40
1.0
 10
195.0714970597
 20
62.5572869587
 30
0.0
 10
195.1248143718
 20
61.4931157291
 30
0.0
 10
195.3663429734
 20
57.2934710439
 30
0.0
 10
195.7335435844
 20
53.1008965747
 30
0.0
 10
196.0831418285
 20
49.979371596
 30
0.0
  0
SPLINE
  5
3A5
100
AcDbEntity
  8
0
100
AcDbSpline
 62
7
  6
CONTINUOUS
 70
0
 71
3
 72
9
 73
5
 74
0
 42
0.0000001
 43
0.0000001
 44
0.0000000001
 40
0.0
 40
0.0
 40
0.0
 40
0.0
 40
0.2497453294
 40
1.0
 40
1.0
 40
1.0
 40
1.0
 10
153.6764174868
 20
79.9209291018
 30
0.0
 10
153.6641763564
 20
79.9657681157
 30
0.0
 10
153.615821615
 20
80.1454860659
 30
0.0
 10
153.5676243155
 20
80.3252484439
 30
0.0
 10
153.5304929959
 20
80.459850133
 30
0.0
  0
SPLINE
  5
3A6
100
AcDbEntity
  8
0
100
AcDbSpline
 62
7
  6
CONTINUOUS
 70
0
 71
3
 72
11
 73
7
 74
0
 42
0.0000001
 43
0.0000001
 44
0.0000000001
 40
0.0
 40
0.0
 40
0.0
 40
0.0
 40
0.2365239723
 40
0.4815677258
 40
0.737938996
 40
1.0
 40
1.0
 40
1.0
 40
1.0
 10
153.5304929959
 20
80.459850133
 30
0.0
 10
153.519204711
 20
80.500770365
 30
0.0
 10
153.4968133564
 20
80.5842669223
 30
0.0
 10
153.4530552871
 20
80.7094680037
 30
0.0
 10
153.3950971232
 20
80.833878161
 30
0.0
 10
153.3424323806
 20
80.9116465319
 30
0.0
 10
153.3110699982
 20
80.9466949243
 30
0.0
  0
SPLINE
  5
3A7
100
AcDbEntity
  8
RACCORDO
100
AcDbSpline
 62
250
  6
CONTINUOUS
 70
0
 71
3
 72
8
 73
4
 74
0
 42
0.0000001
 43
0.0000001
 44
0.0000000001
 40
0.0
 40
0.0
 40
0.0
 40
0.0
 40
1.0
 40
1.0
 40
1.0
 40
1.0
 10
197.2935308878
 20
119.1391076959
 30
0.0
 10
197.2871343399
 20
119.1427693915
 30
0.0
 10
197.2797818948
 20
119.1450205193
 30
0.0
 10
197.2724508761
 20
119.1457820994
 30
0.0
  0
SPLINE
  5
3A8
100
AcDbEntity
  8
0
100
AcDbSpline
 62
7
  6
CONTINUOUS
 70
0
 71
3
 72
19
 73
15
 74
0
 42
0.0000001
 43
0.0000001
 44
0.0000000001
 40
0.0
 40
0.0
 40
0.0
 40
0.0
 40
0.0409851774
 40
0.0833678739
 40
0.1285378169
 40
0.1772702552
 40
0.2864587341
 40
0.4105066351
 40
0.4777002743
 40
0.5481607873
 40
0.6966183487
 40
0.849683879
 40
0.9258296718
 40
1.0
 40
1.0
 40
1.0
 40
1.0
 10
153.3958690667
 20
81.0050480384
 30
0.0
 10
153.4090474395
 20
81.0126555343
 30
0.0
 10
153.4342788857
 20
81.0312736006
 30
0.0
 10
153.4639021897
 20
81.0692899931
 30
0.0
 10
153.4862674254
 20
81.1149866235
 30
0.0
 10
153.5074338523
 20
81.187684202
 30
0.0
 10
153.5141952957
 20
81.2932263102
 30
0.0
 10
153.5013103865
 20
81.4044239478
 30
0.0
 10
153.479380091
 20
81.49917289
 30
0.0
 10
153.4471715883
 20
81.600507188
 30
0.0
 10
153.3900494607
 20
81.7268245149
 30
0.0
 10
153.3150833921
 20
81.8458642416
 30
0.0
 10
153.2456544746
 20
81.9346259197
 30
0.0
 10
153.2078609718
 20
81.9758605318
 30
0.0
 10
153.187926033
 20
81.9948577753
 30
0.0
  0
SPLINE
  5
3A9
100
AcDbEntity
  8
RACCORDO
100
AcDbSpline
 62
250
  6
CONTINUOUS
 70
0
 71
3
 72
9
 73
5
 74
0
 42
0.0000001
 43
0.0000001
 44
0.0000000001
 40
0.0
 40
0.0
 40
0.0
 40
0.0
 40
0.7431883824
 40
1.0
 40
1.0
 40
1.0
 40
1.0
 10
197.0678817364
 20
119.2686935787
 30
0.0
 10
197.0629537236
 20
119.2715038772
 30
0.0
 10
197.0556037524
 20
119.2741659253
 30
0.0
 10
197.0480413216
 20
119.2752259388
 30
0.0
 10
197.0460889795
 20
119.2754027484
 30
0.0
  0
SPLINE
  5
3AA
100
AcDbEntity
  8
0
100
AcDbSpline
 62
7
  6
CONTINUOUS
 70
0
 71
3
 72
11
 73
7
 74
0
 42
0.0000001
 43
0.0000001
 44
0.0000000001
 40
0.0
 40
0.0
 40
0.0
 40
0.0
 40
0.273767682
 40
0.528042853
 40
0.7686990421
 40
1.0
 40
1.0
 40
1.0
 40
1.0
 10
153.187926033
 20
81.9948577753
 30
0.0
 10
153.1173166849
 20
82.062183558
 30
0.0
 10
152.9687664632
 20
82.1791369185
 30
0.0
 10
152.7357644601
 20
82.3237075934
 30
0.0
 10
152.5051454932
 20
82.4417211782
 30
0.0
 10
152.3508817673
 20
82.5088939244
 30
0.0
 10
152.274789518
 20
82.5405870033
 30
0.0
  0
SPLINE
  5
3AB
100
AcDbEntity
  8
RACCORDO
100
AcDbSpline
 62
250
  6
CONTINUOUS
 70
0
 71
3
 72
9
 73
5
 74
0
 42
0.0000001
 43
0.0000001
 44
0.0000000001
 40
0.0
 40
0.0
 40
0.0
 40
0.0
 40
0.5000200482
 40
1.0
 40
1.0
 40
1.0
 40
1.0
 10
199.1461552416
 20
83.9958362159
 30
0.0
 10
199.1461552384
 20
80.9410945061
 30
0.0
 10
199.1469683004
 20
74.8318560957
 30
0.0
 10
199.1496062155
 20
68.7226178343
 30
0.0
 10
199.1521398421
 20
65.668122134
 30
0.0
  0
SPLINE
  5
3AC
100
AcDbEntity
  8
0
100
AcDbSpline
 62
7
  6
CONTINUOUS
 70
0
 71
3
 72
9
 73
5
 74
0
 42
0.0000001
 43
0.0000001
 44
0.0000000001
 40
0.0
 40
0.0
 40
0.0
 40
0.0
 40
0.2344520299
 40
1.0
 40
1.0
 40
1.0
 40
1.0
 10
153.0726911835
 20
81.3083076287
 30
0.0
 10
153.0681102236
 20
81.307669087
 30
0.0
 10
153.0483830753
 20
81.3062428078
 30
0.0
 10
153.0285823925
 20
81.3093022041
 30
0.0
 10
153.0138888786
 20
81.3127937786
 30
0.0
  0
SPLINE
  5
3AD
100
AcDbEntity
  8
0
100
AcDbSpline
 62
7
  6
CONTINUOUS
 70
0
 71
3
 72
9
 73
5
 74
0
 42
0.0000001
 43
0.0000001
 44
0.0000000001
 40
0.0
 40
0.0
 40
0.0
 40
0.0
 40
0.4787966348
 40
1.0
 40
1.0
 40
1.0
 40
1.0
 10
153.0138888786
 20
81.3127937786
 30
0.0
 10
152.9941007225
 20
81.3174959774
 30
0.0
 10
152.953886793
 20
81.3319212546
 30
0.0
 10
152.9158842427
 20
81.3510000115
 30
0.0
 10
152.8964988847
 20
81.3616964561
 30
0.0
  0
LINE
  5
3AE
100
AcDbEntity
  8
0
100
AcDbLine
 62
7
  6
CONTINUOUS
 10
148.1561539255
 20
84.9407263162
 30
0.0
 11
147.787897295
 21
85.1538776948
 31
0.0
  0
SPLINE
  5
3AF
100
AcDbEntity
  8
RACCORDO
100
AcDbSpline
 62
250
  6
CONTINUOUS
 70
0
 71
3
 72
9
 73
5
 74
0
 42
0.0000001
 43
0.0000001
 44
0.0000000001
 40
0.0
 40
0.0
 40
0.0
 40
0.0
 40
0.2329598113
 40
1.0
 40
1.0
 40
1.0
 40
1.0
 10
115.4751584488
 20
166.2560983838
 30
0.0
 10
115.5262349216
 20
166.2468960323
 30
0.0
 10
115.7433642808
 20
166.1956162332
 30
0.0
 10
115.9489819755
 20
166.1016843162
 30
0.0
 10
116.0966411535
 20
166.0156772617
 30
0.0
  0
LINE
  5
3B0
100
AcDbEntity
  8
0
100
AcDbLine
 62
7
  6
CONTINUOUS
 10
147.1047831529
 20
85.5495050499
 30
0.0
 11
146.7047084402
 21
85.7813498673
 31
0.0
  0
LINE
  5
3B1
100
AcDbEntity
  8
0
100
AcDbLine
 62
7
  6
CONTINUOUS
 10
152.8964988179
 20
81.3616964945
 30
0.0
 11
152.6853387633
 21
81.4832698475
 31
0.0
  0
LINE
  5
3B2
100
AcDbEntity
  8
0
100
AcDbLine
 62
7
  6
CONTINUOUS
 10
148.6615336655
 20
84.648463297
 30
0.0
 11
148.2929206532
 21
84.8617004132
 31
0.0
  0
SPLINE
  5
3B3
100
AcDbEntity
  8
RACCORDO
100
AcDbSpline
 62
250
  6
CONTINUOUS
 70
0
 71
3
 72
11
 73
7
 74
0
 42
0.0000001
 43
0.0000001
 44
0.0000000001
 40
0.0
 40
0.0
 40
0.0
 40
0.0
 40
0.2151150507
 40
0.4502769159
 40
0.7113710432
 40
1.0
 40
1.0
 40
1.0
 40
1.0
 10
174.1815001642
 20
72.6219874491
 30
0.0
 10
174.1560481295
 20
72.6124581322
 30
0.0
 10
174.099474874
 20
72.6007354587
 30
0.0
 10
174.0089798325
 20
72.6057112748
 30
0.0
 10
173.912676794
 20
72.6316449946
 30
0.0
 10
173.8493242515
 20
72.6608587891
 30
0.0
 10
173.8173003248
 20
72.6782993847
 30
0.0
  0
SPLINE
  5
3B4
100
AcDbEntity
  8
RACCORDO
100
AcDbSpline
 62
250
  6
CONTINUOUS
 70
0
 71
3
 72
9
 73
5
 74
0
 42
0.0000001
 43
0.0000001
 44
0.0000000001
 40
0.0
 40
0.0
 40
0.0
 40
0.0
 40
0.2532981479
 40
1.0
 40
1.0
 40
1.0
 40
1.0
 10
194.7086893836
 20
62.5466616719
 30
0.0
 10
194.7620618588
 20
61.4814143078
 30
0.0
 10
195.0038395966
 20
57.2775404988
 30
0.0
 10
195.3714203735
 20
53.0807443774
 30
0.0
 10
195.7213829254
 20
49.9560815764
 30
0.0
  0
LINE
  5
3B5
100
AcDbEntity
  8
0
100
AcDbLine
 62
7
  6
CONTINUOUS
 10
149.3879578645
 20
84.2283809873
 30
0.0
 11
149.0195002873
 21
84.4413551006
 31
0.0
  0
SPLINE
  5
3B6
100
AcDbEntity
  8
RACCORDO
100
AcDbSpline
 62
250
  6
CONTINUOUS
 70
0
 71
3
 72
14
 73
10
 74
0
 42
0.0000001
 43
0.0000001
 44
0.0000000001
 40
0.0
 40
0.0
 40
0.0
 40
0.0
 40
0.1278997415
 40
0.2553735132
 40
0.3821034938
 40
0.5078207431
 40
0.632469844
 40
0.7560506674
 40
1.0
 40
1.0
 40
1.0
 40
1.0
 10
135.544169755
 20
80.1552514889
 30
0.0
 10
134.5380560189
 20
80.7465908393
 30
0.0
 10
132.5300518841
 20
81.928793325
 30
0.0
 10
129.5358272673
 20
83.7150252376
 30
0.0
 10
126.5768313735
 20
85.5212166813
 30
0.0
 10
123.6664866407
 20
87.3569926333
 30
0.0
 10
120.8079335152
 20
89.220321236
 30
0.0
 10
117.0830925503
 20
91.7292594296
 30
0.0
 10
114.3447317625
 20
93.6663647856
 30
0.0
 10
112.5481246071
 20
94.9804936637
 30
0.0
  0
LINE
  5
3B7
100
AcDbEntity
  8
RACCORDO
100
AcDbLine
 62
250
  6
CONTINUOUS
 10
112.3846061349
 20
95.1001961772
 30
0.0
 11
112.2297754516
 21
95.2135826539
 31
0.0
  0
SPLINE
  5
3B8
100
AcDbEntity
  8
RACCORDO
100
AcDbSpline
 62
250
  6
CONTINUOUS
 70
0
 71
3
 72
15
 73
11
 74
0
 42
0.0000001
 43
0.0000001
 44
0.0000000001
 40
0.0
 40
0.0
 40
0.0
 40
0.0
 40
0.1110380544
 40
0.2338217163
 40
0.3649784687
 40
0.5004498342
 40
0.6358504227
 40
0.7668069437
 40
0.8893012743
 40
1.0
 40
1.0
 40
1.0
 40
1.0
 10
112.2297754516
 20
95.2135826539
 30
0.0
 10
112.0876217159
 20
95.3176928808
 30
0.0
 10
111.8045625659
 20
95.5594424883
 30
0.0
 10
111.4082995697
 20
95.9830601482
 30
0.0
 10
111.0307892566
 20
96.4733988429
 30
0.0
 10
110.6870165955
 20
97.0117353915
 30
0.0
 10
110.3904532614
 20
97.5770956249
 30
0.0
 10
110.1526193267
 20
98.1474352822
 30
0.0
 10
109.9822890266
 20
98.7005613944
 30
0.0
 10
109.9136006768
 20
99.0654116036
 30
0.0
 10
109.8941738786
 20
99.2399961345
 30
0.0
  0
LINE
  5
3B9
100
AcDbEntity
  8
RACCORDO
100
AcDbLine
 62
250
  6
CONTINUOUS
 10
109.8941738786
 20
99.2399961345
 30
0.0
 11
109.8726589592
 21
99.4311132521
 31
0.0
  0
SPLINE
  5
3BA
100
AcDbEntity
  8
RACCORDO
100
AcDbSpline
 62
250
  6
CONTINUOUS
 70
0
 71
3
 72
9
 73
5
 74
0
 42
0.0000001
 43
0.0000001
 44
0.0000000001
 40
0.0
 40
0.0
 40
0.0
 40
0.0
 40
0.24676949
 40
1.0
 40
1.0
 40
1.0
 40
1.0
 10
109.8496066893
 20
99.6364218043
 30
0.0
 10
109.7350639946
 20
100.6605727543
 30
0.0
 10
109.3038800131
 20
104.814447532
 30
0.0
 10
109.0029516168
 20
108.9816911559
 30
0.0
 10
108.8449743305
 20
112.1232946185
 30
0.0
  0
SPLINE
  5
3BB
100
AcDbEntity
  8
RACCORDO
100
AcDbSpline
 62
250
  6
CONTINUOUS
 70
0
 71
3
 72
9
 73
5
 74
0
 42
0.0000001
 43
0.0000001
 44
0.0000000001
 40
0.0
 40
0.0
 40
0.0
 40
0.0
 40
0.473095434
 40
1.0
 40
1.0
 40
1.0
 40
1.0
 10
126.6524753533
 20
99.9106782092
 30
0.0
 10
126.5837961376
 20
99.9527157204
 30
0.0
 10
126.4516615642
 20
100.0629756254
 30
0.0
 10
126.3446018993
 20
100.1965525316
 30
0.0
 10
126.29482621
 20
100.2711528293
 30
0.0
  0
SPLINE
  5
3BC
100
AcDbEntity
  8
RACCORDO
100
AcDbSpline
 62
250
  6
CONTINUOUS
 70
0
 71
3
 72
10
 73
6
 74
0
 42
0.0000001
 43
0.0000001
 44
0.0000000001
 40
0.0
 40
0.0
 40
0.0
 40
0.0
 40
0.5277098886
 40
0.7747053724
 40
1.0
 40
1.0
 40
1.0
 40
1.0
 10
126.29482621
 20
100.2711528293
 30
0.0
 10
126.230633021
 20
100.367367927
 30
0.0
 10
126.151644546
 20
100.520119496
 30
0.0
 10
126.0889920922
 20
100.7305977741
 30
0.0
 10
126.0740392367
 20
100.8336148364
 30
0.0
 10
126.0716290701
 20
100.8829362001
 30
0.0
  0
SPLINE
  5
3BD
100
AcDbEntity
  8
RACCORDO
100
AcDbSpline
 62
250
  6
CONTINUOUS
 70
0
 71
3
 72
9
 73
5
 74
0
 42
0.0000001
 43
0.0000001
 44
0.0000000001
 40
0.0
 40
0.0
 40
0.0
 40
0.0
 40
0.4966404146
 40
1.0
 40
1.0
 40
1.0
 40
1.0
 10
108.8328043151
 20
112.3616208394
 30
0.0
 10
108.6872474313
 20
115.3232916705
 30
0.0
 10
108.5098799378
 20
121.2922768497
 30
0.0
 10
108.4533785132
 20
127.2628677062
 30
0.0
 10
108.4533785132
 20
130.2682307515
 30
0.0
  0
LINE
  5
3BE
100
AcDbEntity
  8
0
100
AcDbLine
 62
7
  6
CONTINUOUS
 10
150.202649383
 20
83.0292486082
 30
0.0
 11
150.1708340642
 21
82.9372654675
 31
0.0
  0
SPLINE
  5
3BF
100
AcDbEntity
  8
RACCORDO
100
AcDbSpline
 62
250
  6
CONTINUOUS
 70
0
 71
3
 72
10
 73
6
 74
0
 42
0.0000001
 43
0.0000001
 44
0.0000000001
 40
0.0
 40
0.0
 40
0.0
 40
0.0
 40
0.2474013879
 40
0.4968039867
 40
1.0
 40
1.0
 40
1.0
 40
1.0
 10
126.0716290701
 20
100.8829362001
 30
0.0
 10
126.0005777348
 20
102.3379325216
 30
0.0
 10
125.8860117087
 20
105.2611063694
 30
0.0
 10
125.7401719769
 20
111.1475111228
 30
0.0
 10
125.6982041093
 20
115.5790830847
 30
0.0
 10
125.6982041933
 20
118.5419637124
 30
0.0
  0
LINE
  5
3C0
100
AcDbEntity
  8
0
100
AcDbLine
 62
7
  6
CONTINUOUS
 10
151.2242144361
 20
81.5891158596
 30
0.0
 11
151.1500110719
 21
81.2563929076
 31
0.0
  0
SPLINE
  5
3C1
100
AcDbEntity
  8
RACCORDO
100
AcDbSpline
 62
250
  6
CONTINUOUS
 70
0
 71
3
 72
18
 73
14
 74
0
 42
0.0000001
 43
0.0000001
 44
0.0000000001
 40
0.0
 40
0.0
 40
0.0
 40
0.0
 40
0.1370740589
 40
0.259462988
 40
0.3163241398
 40
0.3711487622
 40
0.4248702008
 40
0.4785275214
 40
0.5331695661
 40
0.589756244
 40
0.7114714631
 40
0.8479194568
 40
1.0
 40
1.0
 40
1.0
 40
1.0
 10
195.7544098083
 20
49.6653719901
 30
0.0
 10
195.7720387844
 20
49.514824013
 30
0.0
 10
195.7814229902
 20
49.2259730035
 30
0.0
 10
195.7123081713
 20
48.8786632541
 30
0.0
 10
195.6069797046
 20
48.6411879175
 30
0.0
 10
195.5069884132
 20
48.4870462053
 30
0.0
 10
195.3849325099
 20
48.3544209217
 30
0.0
 10
195.2420783649
 20
48.2448373526
 30
0.0
 10
195.0800087782
 20
48.1594794022
 30
0.0
 10
194.8349557384
 20
48.0770245239
 30
0.0
 10
194.4840348107
 20
48.0421709402
 30
0.0
 10
194.0316312653
 20
48.1034290984
 30
0.0
 10
193.72687468
 20
48.2034819438
 30
0.0
 10
193.5712096193
 20
48.2671200718
 30
0.0
  0
LINE
  5
3C2
100
AcDbEntity
  8
RACCORDO
100
AcDbLine
 62
250
  6
CONTINUOUS
 10
193.4398825734
 20
48.3238846035
 30
0.0
 11
193.2750585686
 21
48.3989558789
 31
0.0
  0
LINE
  5
3C3
100
AcDbEntity
  8
RACCORDO
100
AcDbLine
 62
250
  6
CONTINUOUS
 10
193.2750585686
 20
48.3989558789
 30
0.0
 11
193.1441964233
 21
48.4585364159
 31
0.0
  0
SPLINE
  5
3C4
100
AcDbEntity
  8
RACCORDO
100
AcDbSpline
 62
250
  6
CONTINUOUS
 70
0
 71
3
 72
14
 73
10
 74
0
 42
0.0000001
 43
0.0000001
 44
0.0000000001
 40
0.0
 40
0.0
 40
0.0
 40
0.0
 40
0.2438959042
 40
0.3674635749
 40
0.4921083885
 40
0.6178301462
 40
0.7445749084
 40
0.872072322
 40
1.0
 40
1.0
 40
1.0
 40
1.0
 10
112.6629873588
 20
164.4389015791
 30
0.0
 10
114.4643436793
 20
163.1208933465
 30
0.0
 10
117.2101101256
 20
161.1780549097
 30
0.0
 10
120.9452428626
 20
158.661675753
 30
0.0
 10
123.8120519158
 20
156.7926664342
 30
0.0
 10
126.7310329949
 20
154.9511643518
 30
0.0
 10
129.699094483
 20
153.1393034915
 30
0.0
 10
132.7027132063
 20
151.3474166257
 30
0.0
 10
134.7170944425
 20
150.1614715958
 30
0.0
 10
135.7264191411
 20
149.5682489871
 30
0.0
  0
SPLINE
  5
3C5
100
AcDbEntity
  8
0
100
AcDbSpline
 62
7
  6
CONTINUOUS
 70
0
 71
3
 72
9
 73
5
 74
0
 42
0.0000001
 43
0.0000001
 44
0.0000000001
 40
0.0
 40
0.0
 40
0.0
 40
0.0
 40
0.5003761168
 40
1.0
 40
1.0
 40
1.0
 40
1.0
 10
153.4737682426
 20
80.4270979067
 30
0.0
 10
153.5015012351
 20
80.326558382
 30
0.0
 10
153.5559115417
 20
80.1253529984
 30
0.0
 10
153.60958061
 20
79.9239445282
 30
0.0
 10
153.6374542523
 20
79.823606624
 30
0.0
  0
SPLINE
  5
3C6
100
AcDbEntity
  8
RACCORDO
100
AcDbSpline
 62
250
  6
CONTINUOUS
 70
0
 71
3
 72
10
 73
6
 74
0
 42
0.0000001
 43
0.0000001
 44
0.0000000001
 40
0.0
 40
0.0
 40
0.0
 40
0.0
 40
0.2474013238
 40
0.4968040898
 40
1.0
 40
1.0
 40
1.0
 40
1.0
 10
126.4983857962
 20
100.8899413076
 30
0.0
 10
126.4273890528
 20
102.3438638908
 30
0.0
 10
126.3129216875
 20
105.2648823015
 30
0.0
 10
126.1672155187
 20
111.1469447728
 30
0.0
 10
126.125284752
 20
115.5752475205
 30
0.0
 10
126.1252849166
 20
118.5359415877
 30
0.0
  0
SPLINE
  5
3C7
100
AcDbEntity
  8
RACCORDO
100
AcDbSpline
 62
250
  6
CONTINUOUS
 70
0
 71
3
 72
9
 73
5
 74
0
 42
0.0000001
 43
0.0000001
 44
0.0000000001
 40
0.0
 40
0.0
 40
0.0
 40
0.0
 40
0.4969486199
 40
1.0
 40
1.0
 40
1.0
 40
1.0
 10
126.1252849166
 20
118.5359415877
 30
0.0
 10
126.1252849525
 20
121.5287326122
 30
0.0
 10
126.1829373027
 20
127.5510748743
 30
0.0
 10
126.3582397182
 20
133.5717059146
 30
0.0
 10
126.4983857962
 20
136.5980065043
 30
0.0
  0
SPLINE
  5
3C8
100
AcDbEntity
  8
RACCORDO
100
AcDbSpline
 62
250
  6
CONTINUOUS
 70
0
 71
3
 72
9
 73
5
 74
0
 42
0.0000001
 43
0.0000001
 44
0.0000000001
 40
0.0
 40
0.0
 40
0.0
 40
0.0
 40
0.2510120969
 40
1.0
 40
1.0
 40
1.0
 40
1.0
 10
174.0192290037
 20
73.0607558503
 30
0.0
 10
173.3633532941
 20
73.4179925946
 30
0.0
 10
170.755776745
 20
74.8510142624
 30
0.0
 10
168.1653681259
 20
76.3149621133
 30
0.0
 10
166.2268242826
 20
77.4142050436
 30
0.0
  0
SPLINE
  5
3C9
100
AcDbEntity
  8
RACCORDO
100
AcDbSpline
 62
250
  6
CONTINUOUS
 70
0
 71
3
 72
9
 73
5
 74
0
 42
0.0000001
 43
0.0000001
 44
0.0000000001
 40
0.0
 40
0.0
 40
0.0
 40
0.0
 40
0.2508044197
 40
1.0
 40
1.0
 40
1.0
 40
1.0
 10
134.4107841606
 20
95.7843878615
 30
0.0
 10
133.7776334373
 20
96.1566264025
 30
0.0
 10
131.2538843877
 20
97.6420084025
 30
0.0
 10
128.7378565445
 20
99.1408202924
 30
0.0
 10
126.8665434549
 20
100.2861255242
 30
0.0
  0
SPLINE
  5
3CA
100
AcDbEntity
  8
0
100
AcDbSpline
 62
7
  6
CONTINUOUS
 70
0
 71
3
 72
12
 73
8
 74
0
 42
0.0000001
 43
0.0000001
 44
0.0000000001
 40
0.0
 40
0.0
 40
0.0
 40
0.0
 40
0.2627614416
 40
0.4555610349
 40
0.6421265071
 40
0.8228776083
 40
1.0
 40
1.0
 40
1.0
 40
1.0
 10
153.2700267449
 20
80.8956204991
 30
0.0
 10
153.2985443731
 20
80.8607354899
 30
0.0
 10
153.340790059
 20
80.7943124059
 30
0.0
 10
153.3877959088
 20
80.6946735266
 30
0.0
 10
153.4219597654
 20
80.6048072175
 30
0.0
 10
153.4497846826
 20
80.5156519227
 30
0.0
 10
153.4656918175
 20
80.4563771098
 30
0.0
 10
153.4737682424
 20
80.4270979067
 30
0.0
  0
SPLINE
  5
3CB
100
AcDbEntity
  8
0
100
AcDbSpline
 62
7
  6
CONTINUOUS
 70
0
 71
3
 72
19
 73
15
 74
0
 42
0.0000001
 43
0.0000001
 44
0.0000000001
 40
0.0
 40
0.0
 40
0.0
 40
0.0
 40
0.0741745519
 40
0.1503062325
 40
0.3033783338
 40
0.4518156845
 40
0.5222892518
 40
0.5894589156
 40
0.713521896
 40
0.8227191357
 40
0.8714519782
 40
0.9166272473
 40
0.9590126285
 40
1.0
 40
1.0
 40
1.0
 40
1.0
 10
153.1312256799
 20
81.9621198829
 30
0.0
 10
153.1511617763
 20
81.9431213352
 30
0.0
 10
153.1889552882
 20
81.9018909081
 30
0.0
 10
153.2583752555
 20
81.8131239781
 30
0.0
 10
153.3333651364
 20
81.6941063752
 30
0.0
 10
153.3904297808
 20
81.5677666044
 30
0.0
 10
153.4226949928
 20
81.466460846
 30
0.0
 10
153.4445612628
 20
81.3716941916
 30
0.0
 10
153.4574963285
 20
81.2605065548
 30
0.0
 10
153.450733445
 20
81.1549490061
 30
0.0
 10
153.4295507161
 20
81.0822512886
 30
0.0
 10
153.40719606
 20
81.0365465886
 30
0.0
 10
153.377565899
 20
80.9985261685
 30
0.0
 10
153.3523251068
 20
80.9799211951
 30
0.0
 10
153.3391508403
 20
80.9723047753
 30
0.0
  0
SPLINE
  5
3CC
100
AcDbEntity
  8
0
100
AcDbSpline
 62
7
  6
CONTINUOUS
 70
0
 71
3
 72
11
 73
7
 74
0
 42
0.0000001
 43
0.0000001
 44
0.0000000001
 40
0.0
 40
0.0
 40
0.0
 40
0.0
 40
0.2313013426
 40
0.4719576594
 40
0.7262326135
 40
1.0
 40
1.0
 40
1.0
 40
1.0
 10
152.2180896558
 20
82.5078492135
 30
0.0
 10
152.2941820945
 20
82.4761562621
 30
0.0
 10
152.4484460986
 20
82.408983754
 30
0.0
 10
152.6790652985
 20
82.2909704484
 30
0.0
 10
152.9120670433
 20
82.1463996649
 30
0.0
 10
153.060616774
 20
82.0294459573
 30
0.0
 10
153.1312256799
 20
81.9621198829
 30
0.0
  0
SPLINE
  5
3CD
100
AcDbEntity
  8
0
100
AcDbSpline
 62
7
  6
CONTINUOUS
 70
0
 71
3
 72
11
 73
7
 74
0
 42
0.0000001
 43
0.0000001
 44
0.0000000001
 40
0.0
 40
0.0
 40
0.0
 40
0.0
 40
0.2896676792
 40
0.5572444815
 40
0.7947103293
 40
1.0
 40
1.0
 40
1.0
 40
1.0
 10
152.8397842714
 20
81.3289502262
 30
0.0
 10
152.8583097146
 20
81.3187282734
 30
0.0
 10
152.8947056863
 20
81.3003451921
 30
0.0
 10
152.9493730851
 20
81.2803280253
 30
0.0
 10
153.0009418332
 20
81.2712835188
 30
0.0
 10
153.0341131018
 20
81.2783494909
 30
0.0
 10
153.0471218539
 20
81.2858078531
 30
0.0
  0
SPLINE
  5
3CE
100
AcDbEntity
  8
RACCORDO
100
AcDbSpline
 62
250
  6
CONTINUOUS
 70
0
 71
3
 72
14
 73
10
 74
0
 42
0.0000001
 43
0.0000001
 44
0.0000000001
 40
0.0
 40
0.0
 40
0.0
 40
0.0
 40
0.2553641248
 40
0.3816611892
 40
0.5070134471
 40
0.6314058979
 40
0.7548699742
 40
0.8776380043
 40
1.0
 40
1.0
 40
1.0
 40
1.0
 10
193.1441964233
 20
48.4585364159
 30
0.0
 10
190.9032170426
 20
49.4787370796
 30
0.0
 10
187.5725263499
 20
51.0450040601
 30
0.0
 10
183.1898400199
 20
53.2112708814
 30
0.0
 10
179.960696746
 20
54.8606396363
 30
0.0
 10
176.7781287322
 20
56.540435259
 30
0.0
 10
173.6409033972
 20
58.2519756688
 30
0.0
 10
170.5379363602
 20
59.9849463228
 30
0.0
 10
168.4810477716
 20
61.1493424827
 30
0.0
 10
167.4547740557
 20
61.7313951638
 30
0.0
  0
SPLINE
  5
3CF
100
AcDbEntity
  8
RACCORDO
100
AcDbSpline
 62
250
  6
CONTINUOUS
 70
0
 71
3
 72
9
 73
5
 74
0
 42
0.0000001
 43
0.0000001
 44
0.0000000001
 40
0.0
 40
0.0
 40
0.0
 40
0.0
 40
0.2510120099
 40
1.0
 40
1.0
 40
1.0
 40
1.0
 10
173.8173003248
 20
72.6782993847
 30
0.0
 10
173.1610660033
 20
73.0357302769
 30
0.0
 10
170.5520608303
 20
74.4695276883
 30
0.0
 10
167.9602336066
 20
75.9342696
 30
0.0
 10
166.0206301837
 20
77.0341128707
 30
0.0
  0
SPLINE
  5
3D0
100
AcDbEntity
  8
RACCORDO
100
AcDbSpline
 62
250
  6
CONTINUOUS
 70
0
 71
3
 72
11
 73
7
 74
0
 42
0.0000001
 43
0.0000001
 44
0.0000000001
 40
0.0
 40
0.0
 40
0.0
 40
0.0
 40
0.2930582347
 40
0.5497125199
 40
0.7792134696
 40
1.0
 40
1.0
 40
1.0
 40
1.0
 10
174.3692947003
 20
72.9964693771
 30
0.0
 10
174.3713542842
 20
72.9528146888
 30
0.0
 10
174.367852393
 20
72.8701750211
 30
0.0
 10
174.3340274727
 20
72.7573718904
 30
0.0
 10
174.2714041689
 20
72.6696723478
 30
0.0
 10
174.2123342186
 20
72.6335351519
 30
0.0
 10
174.1815001642
 20
72.6219874491
 30
0.0
  0
SPLINE
  5
3D1
100
AcDbEntity
  8
RACCORDO
100
AcDbSpline
 62
250
  6
CONTINUOUS
 70
0
 71
3
 72
10
 73
6
 74
0
 42
0.0000001
 43
0.0000001
 44
0.0000000001
 40
0.0
 40
0.0
 40
0.0
 40
0.0
 40
0.5033184493
 40
0.7526993989
 40
1.0
 40
1.0
 40
1.0
 40
1.0
 10
174.008703991
 20
90.6480866019
 30
0.0
 10
174.0087040077
 20
87.6857883276
 30
0.0
 10
174.0492235883
 20
83.2555838296
 30
0.0
 10
174.1900341722
 20
77.3716524792
 30
0.0
 10
174.3006721395
 20
74.4503471031
 30
0.0
 10
174.3692947003
 20
72.9964693771
 30
0.0
  0
SPLINE
  5
3D2
100
AcDbEntity
  8
RACCORDO
100
AcDbSpline
 62
250
  6
CONTINUOUS
 70
0
 71
3
 72
9
 73
5
 74
0
 42
0.0000001
 43
0.0000001
 44
0.0000000001
 40
0.0
 40
0.0
 40
0.0
 40
0.0
 40
0.5033913035
 40
1.0
 40
1.0
 40
1.0
 40
1.0
 10
194.3179065656
 20
80.6911311859
 30
0.0
 10
194.3179065656
 20
77.6676927057
 30
0.0
 10
194.3750179798
 20
71.6615726373
 30
0.0
 10
194.5547729562
 20
65.6570814917
 30
0.0
 10
194.7025904479
 20
62.6780453373
 30
0.0
  0
SPLINE
  5
3D3
100
AcDbEntity
  8
RACCORDO
100
AcDbSpline
 62
250
  6
CONTINUOUS
 70
0
 71
3
 72
9
 73
5
 74
0
 42
0.0000001
 43
0.0000001
 44
0.0000000001
 40
0.0
 40
0.0
 40
0.0
 40
0.0
 40
0.219076438
 40
1.0
 40
1.0
 40
1.0
 40
1.0
 10
174.2162203876
 20
73.0172722358
 30
0.0
 10
174.2015540723
 20
73.0146672408
 30
0.0
 10
174.133099878
 20
73.0109165181
 30
0.0
 10
174.0660037809
 20
73.0356258042
 30
0.0
 10
174.0192289364
 20
73.0607558086
 30
0.0
  0
SPLINE
  5
3D4
100
AcDbEntity
  8
RACCORDO
100
AcDbSpline
 62
250
  6
CONTINUOUS
 70
0
 71
3
 72
9
 73
5
 74
0
 42
0.0000001
 43
0.0000001
 44
0.0000000001
 40
0.0
 40
0.0
 40
0.0
 40
0.0
 40
0.4726935092
 40
1.0
 40
1.0
 40
1.0
 40
1.0
 10
126.8665434549
 20
100.2861255242
 30
0.0
 10
126.8238618863
 20
100.3126078217
 30
0.0
 10
126.7415824323
 20
100.3815950766
 30
0.0
 10
126.6743849943
 20
100.464645175
 30
0.0
 10
126.6429415063
 20
100.5110241988
 30
0.0
  0
SPLINE
  5
3D5
100
AcDbEntity
  8
RACCORDO
100
AcDbSpline
 62
250
  6
CONTINUOUS
 70
0
 71
3
 72
9
 73
5
 74
0
 42
0.0000001
 43
0.0000001
 44
0.0000000001
 40
0.0
 40
0.0
 40
0.0
 40
0.0
 40
0.5297713384
 40
1.0
 40
1.0
 40
1.0
 40
1.0
 10
126.6429415063
 20
100.5110241988
 30
0.0
 10
126.6024344635
 20
100.5707738987
 30
0.0
 10
126.5380553227
 20
100.6920411223
 30
0.0
 10
126.5028219276
 20
100.8260220986
 30
0.0
 10
126.4983857962
 20
100.8899413076
 30
0.0
  0
SPLINE
  5
3D6
100
AcDbEntity
  8
RACCORDO
100
AcDbSpline
 62
250
  6
CONTINUOUS
 70
0
 71
3
 72
11
 73
7
 74
0
 42
0.0000001
 43
0.0000001
 44
0.0000000001
 40
0.0
 40
0.0
 40
0.0
 40
0.0
 40
0.2876883438
 40
0.5475763441
 40
0.7822427666
 40
1.0
 40
1.0
 40
1.0
 40
1.0
 10
126.4983853765
 20
136.5980062786
 30
0.0
 10
126.5000886745
 20
136.6244431753
 30
0.0
 10
126.5072465954
 20
136.6746656631
 30
0.0
 10
126.5313358634
 20
136.7431480841
 30
0.0
 10
126.5677955391
 20
136.7985967722
 30
0.0
 10
126.6006210311
 20
136.8255839265
 30
0.0
 10
126.6180301601
 20
136.8355342936
 30
0.0
  0
SPLINE
  5
3D7
100
AcDbEntity
  8
RACCORDO
100
AcDbSpline
 62
250
  6
CONTINUOUS
 70
0
 71
3
 72
11
 73
7
 74
0
 42
0.0000001
 43
0.0000001
 44
0.0000000001
 40
0.0
 40
0.0
 40
0.0
 40
0.0
 40
0.2918192868
 40
0.5520929614
 40
0.784382711
 40
1.0
 40
1.0
 40
1.0
 40
1.0
 10
134.2008250303
 20
132.4530304498
 30
0.0
 10
134.2000199897
 20
132.4363882593
 30
0.0
 10
134.2010523137
 20
132.4046679728
 30
0.0
 10
134.2119638739
 20
132.3608014388
 30
0.0
 10
134.232147109
 20
132.3250752629
 30
0.0
 10
134.2518954822
 20
132.3078386947
 30
0.0
 10
134.2625114166
 20
132.301605023
 30
0.0
  0
SPLINE
  5
3D8
100
AcDbEntity
  8
RACCORDO
100
AcDbSpline
 62
250
  6
CONTINUOUS
 70
0
 71
3
 72
11
 73
7
 74
0
 42
0.0000001
 43
0.0000001
 44
0.0000000001
 40
0.0
 40
0.0
 40
0.0
 40
0.0
 40
0.292863154
 40
0.5534626947
 40
0.7853275705
 40
1.0
 40
1.0
 40
1.0
 40
1.0
 10
150.0400874315
 20
123.2274911755
 30
0.0
 10
150.0392835913
 20
123.2107713809
 30
0.0
 10
150.0403148423
 20
123.1789396998
 30
0.0
 10
150.0512330819
 20
123.13496829
 30
0.0
 10
150.0714375728
 20
123.0992623988
 30
0.0
 10
150.0912400997
 20
123.0821412235
 30
0.0
 10
150.1018678154
 20
123.0760090104
 30
0.0
  0
SPLINE
  5
3D9
100
AcDbEntity
  8
RACCORDO
100
AcDbSpline
 62
250
  6
CONTINUOUS
 70
0
 71
3
 72
11
 73
7
 74
0
 42
0.0000001
 43
0.0000001
 44
0.0000000001
 40
0.0
 40
0.0
 40
0.0
 40
0.0
 40
0.2939218838
 40
0.5548550418
 40
0.7862900143
 40
1.0
 40
1.0
 40
1.0
 40
1.0
 10
166.0206301837
 20
114.0806737501
 30
0.0
 10
166.0198279696
 20
114.0638784978
 30
0.0
 10
166.0208578406
 20
114.0319400305
 30
0.0
 10
166.0317777903
 20
113.9878704206
 30
0.0
 10
166.0519940126
 20
113.9521894684
 30
0.0
 10
166.071843322
 20
113.93518524
 30
0.0
 10
166.0824784673
 20
113.9291551661
 30
0.0
  0
SPLINE
  5
3DA
100
AcDbEntity
  8
RACCORDO
100
AcDbSpline
 62
250
  6
CONTINUOUS
 70
0
 71
3
 72
11
 73
7
 74
0
 42
0.0000001
 43
0.0000001
 44
0.0000000001
 40
0.0
 40
0.0
 40
0.0
 40
0.0
 40
0.2914679102
 40
0.5515104248
 40
0.7839319513
 40
1.0
 40
1.0
 40
1.0
 40
1.0
 10
174.008703991
 20
90.6480866153
 30
0.0
 10
173.9946022648
 20
90.6557331628
 30
0.0
 10
173.9689911199
 20
90.6723993653
 30
0.0
 10
173.9382296036
 20
90.7032134944
 30
0.0
 10
173.9186769093
 20
90.7376017839
 30
0.0
 10
173.9140739656
 20
90.7624594481
 30
0.0
 10
173.9140764812
 20
90.7743511395
 30
0.0
  0
SPLINE
  5
3DB
100
AcDbEntity
  8
RACCORDO
100
AcDbSpline
 62
250
  6
CONTINUOUS
 70
0
 71
3
 72
11
 73
7
 74
0
 42
0.0000001
 43
0.0000001
 44
0.0000000001
 40
0.0
 40
0.0
 40
0.0
 40
0.0
 40
0.2500669562
 40
0.5000908419
 40
0.750079193
 40
1.0
 40
1.0
 40
1.0
 40
1.0
 10
199.1521711444
 20
65.6304617372
 30
0.0
 10
199.1530861933
 20
64.5319766235
 30
0.0
 10
199.1555429408
 20
62.3351960601
 30
0.0
 10
199.1613244477
 20
59.0402788634
 30
0.0
 10
199.1679503056
 20
55.7460061253
 30
0.0
 10
199.171840638
 20
53.5500243923
 30
0.0
 10
199.1756673365
 20
52.4521875658
 30
0.0
  0
SPLINE
  5
3DC
100
AcDbEntity
  8
RACCORDO
100
AcDbSpline
 62
250
  6
CONTINUOUS
 70
0
 71
3
 72
14
 73
10
 74
0
 42
0.0000001
 43
0.0000001
 44
0.0000000001
 40
0.0
 40
0.0
 40
0.0
 40
0.0
 40
0.122356673
 40
0.2451143468
 40
0.3685669934
 40
0.4929519415
 40
0.618303554
 40
0.744606355
 40
1.0
 40
1.0
 40
1.0
 40
1.0
 10
167.5430134302
 20
131.1977462002
 30
0.0
 10
168.5721669639
 20
130.6139946766
 30
0.0
 10
170.6347096126
 20
129.4460907177
 30
0.0
 10
173.7459938046
 20
127.7075811606
 30
0.0
 10
176.8914115734
 20
125.9901827271
 30
0.0
 10
180.0823294957
 20
124.3044317992
 30
0.0
 10
183.3201447534
 20
122.6491576331
 30
0.0
 10
187.7149579023
 20
120.4749270046
 30
0.0
 10
191.0549817523
 20
118.9028215386
 30
0.0
 10
193.3023053583
 20
117.8787700142
 30
0.0
  0
SPLINE
  5
3DD
100
AcDbEntity
  8
RACCORDO
100
AcDbSpline
 62
250
  6
CONTINUOUS
 70
0
 71
3
 72
13
 73
9
 74
0
 42
0.0000001
 43
0.0000001
 44
0.0000000001
 40
0.0
 40
0.0
 40
0.0
 40
0.0
 40
0.2398563377
 40
0.3685369887
 40
0.4998643501
 40
0.6312096759
 40
0.7599428523
 40
1.0
 40
1.0
 40
1.0
 40
1.0
 10
193.5973383291
 20
117.7448778691
 30
0.0
 10
193.9850729363
 20
117.5654282181
 30
0.0
 10
194.5303146357
 20
117.172574879
 30
0.0
 10
195.1250466574
 20
116.5082015852
 30
0.0
 10
195.514160166
 20
115.9267572157
 30
0.0
 10
195.8192933221
 20
115.2970738415
 30
0.0
 10
196.0923811114
 20
114.4477293387
 30
0.0
 10
196.1565023859
 20
113.7784317865
 30
0.0
 10
196.1161699661
 20
113.3527330953
 30
0.0
  0
SPLINE
  5
3DE
100
AcDbEntity
  8
RACCORDO
100
AcDbSpline
 62
250
  6
CONTINUOUS
 70
0
 71
3
 72
9
 73
5
 74
0
 42
0.0000001
 43
0.0000001
 44
0.0000000001
 40
0.0
 40
0.0
 40
0.0
 40
0.0
 40
0.6586740667
 40
1.0
 40
1.0
 40
1.0
 40
1.0
 10
174.0973978075
 20
76.8989228389
 30
0.0
 10
174.1000736891
 20
76.8941385125
 30
0.0
 10
174.1039460735
 20
76.8873330865
 30
0.0
 10
174.1049026808
 20
76.8774121873
 30
0.0
 10
174.1029441468
 20
76.8753546184
 30
0.0
  0
SPLINE
  5
3DF
100
AcDbEntity
  8
RACCORDO
100
AcDbSpline
 62
250
  6
CONTINUOUS
 70
0
 71
3
 72
9
 73
5
 74
0
 42
0.0000001
 43
0.0000001
 44
0.0000000001
 40
0.0
 40
0.0
 40
0.0
 40
0.0
 40
0.6586740667
 40
1.0
 40
1.0
 40
1.0
 40
1.0
 10
142.2775926541
 20
95.2712795387
 30
0.0
 10
142.2802685357
 20
95.2664952123
 30
0.0
 10
142.2841409201
 20
95.2596897863
 30
0.0
 10
142.2850975274
 20
95.2497688871
 30
0.0
 10
142.2831389934
 20
95.2477113181
 30
0.0
  0
ELLIPSE
  5
3E0
100
AcDbEntity
  8
RACCORDO
100
AcDbEllipse
 62
7
  6
CONTINUOUS
 10
142.2734317453
 20
95.6512362672
 30
0.0
 11
-0.116626309
 21
0.1735966633
 31
0.0
 40
0.5718041711
 41
-2.9268941428
 42
-2.436447179
  0
ELLIPSE
  5
3E1
100
AcDbEntity
  8
RACCORDO
100
AcDbEllipse
 62
7
  6
CONTINUOUS
 10
138.6026698033
 20
98.0156072901
 30
0.0
 11
0.1850925488
 21
0.1063454104
 31
0.0
 40
0.717411293
 41
0.394379177
 42
1.1798252336
  0
ELLIPSE
  5
3E2
100
AcDbEntity
  8
RACCORDO
100
AcDbEllipse
 62
7
  6
CONTINUOUS
 10
170.4224749567
 20
79.6432505903
 30
0.0
 11
0.1850925488
 21
0.1063454104
 31
0.0
 40
0.717411293
 41
0.394379177
 42
1.1798252336
  0
ELLIPSE
  5
3E3
100
AcDbEntity
  8
RACCORDO
100
AcDbEllipse
 62
7
  6
CONTINUOUS
 10
154.644592722
 20
88.5490844801
 30
0.0
 11
0.2303502681
 21
0.0539884731
 31
0.0
 40
0.6804739304
 41
0.6271949615
 42
1.4126418276
  0
ELLIPSE
  5
3E4
100
AcDbEntity
  8
RACCORDO
100
AcDbEllipse
 62
7
  6
CONTINUOUS
 10
128.8097989908
 20
101.816306146
 30
0.0
 11
-0.2500120911
 21
0.4330057209
 31
0.0
 40
0.5775075436
 41
0.7855021057
 42
2.355993846
  0
ELLIPSE
  5
3E5
100
AcDbEntity
  8
RACCORDO
100
AcDbEllipse
 62
7
  6
CONTINUOUS
 10
142.3439386884
 20
95.8554455249
 30
0.0
 11
0.0532708159
 21
0.1993529293
 31
0.0
 40
0.316940028
 41
5.4128755409
 42
6.9836718677
  0
ELLIPSE
  5
3E6
100
AcDbEntity
  8
RACCORDO
100
AcDbEllipse
 62
7
  6
CONTINUOUS
 10
158.1218209231
 20
86.5413764968
 30
0.0
 11
0.0325759527
 21
0.2115919185
 31
0.0
 40
0.1766509255
 41
5.4292500487
 42
7.0000463755
  0
ENDSEC
  0
SECTION
  2
OBJECTS
  0
DICTIONARY
  5
C
100
AcDbDictionary
280
0
281
1
  3
ACAD_GROUP
350
D
  3
ACAD_MLINESTYLE
350
17
  3
ACAD_LAYOUT
350
1A
  3
ACAD_PLOTSETTINGS
350
19
  3
ACAD_PLOTSTYLENAME
350
E
  0
DICTIONARY
  5
D
102
{ACAD_REACTORS
330
C
102
}
100
AcDbDictionary
280
0
281
1
  0
ACDBDICTIONARYWDFLT
  5
E
102
{ACAD_REACTORS
330
C
102
}
100
AcDbDictionary
281
1
  3
Normal
350
F
100
AcDbDictionaryWithDefault
340
F
  0
DICTIONARY
  5
17
102
{ACAD_REACTORS
330
C
102
}
100
AcDbDictionary
280
0
281
1
  3
Standard
350
18
  0
DICTIONARY
  5
19
102
{ACAD_REACTORS
330
C
102
}
100
AcDbDictionary
281
1
  0
DICTIONARY
  5
1A
102
{ACAD_REACTORS
330
C
102
}
100
AcDbDictionary
281
1
  3
Model
350
3E7
  3
Layout1
350
3E8
  0
ACDBPLACEHOLDER
  5
F
102
{ACAD_REACTORS
330
E
102
}
  0
MLINESTYLE
  5
18
102
{ACAD_REACTORS
330
17
102
}
100
AcDbMlineStyle
  2
STANDARD
 70
0
  3

 62
256
 51
90.0
 52
90.0
 71
2
 49
0.5
 62
256
  6
BYLAYER
 49
-0.5
 62
256
  6
BYLAYER
  0
LAYOUT
  5
3E7
102
{ACAD_REACTORS
330
1A
102
}
100
AcDbPlotSettings
  1

  2
none_device
  4
ISO_A4_(297.00_x_210.00_MM)
  6

 40
0.0
 41
0.0
 42
0.0
 43
0.0
 44
297.0
 45
210.0
 46
0.0
 47
0.0
 48
0.0
 49
0.0
140
0.0
141
0.0
142
1.0
143
1.0
 70
1024
 72
1
 73
0
 74
0
  7

 75
0
147
1.0
148
0.0
149
0.0
100
AcDbLayout
  1
Model
 70
0
 71
0
 10
0.0
 20
0.0
 11
297.0
 21
210.0
 12
0.0
 22
0.0
 32
0.0
 14
0.0
 24
0.0
 34
0.0
 15
0.0
 25
0.0
 35
0.0
146
0.0
 13
0.0
 23
0.0
 33
0.0
 16
1.0
 26
0.0
 36
0.0
 17
0.0
 27
1.0
 37
0.0
 76
0
330
21A
345
0
346
0
  0
LAYOUT
  5
3E8
102
{ACAD_REACTORS
330
1A
102
}
100
AcDbPlotSettings
  1

  2
none_device
  4
ISO_A4_(297.00_x_210.00_MM)
  6

 40
0.0
 41
0.0
 42
0.0
 43
0.0
 44
297.0
 45
210.0
 46
0.0
 47
0.0
 48
0.0
 49
0.0
140
0.0
141
0.0
142
1.0
143
1.0
 70
0
 72
1
 73
0
 74
0
  7

 75
0
147
1.0
148
0.0
149
0.0
100
AcDbLayout
  1
Layout1
 70
0
 71
1
 10
0.0
 20
0.0
 11
297.0
 21
210.0
 12
0.0
 22
0.0
 32
0.0
 14
0.0
 24
0.0
 34
0.0
 15
0.0
 25
0.0
 35
0.0
146
0.0
 13
0.0
 23
0.0
 33
0.0
 16
1.0
 26
0.0
 36
0.0
 17
0.0
 27
1.0
 37
0.0
 76
0
330
21B
345
0
346
0
  0
ENDSEC
  0
EOF
