  0
SECTION
  2
HEADER
  9
$ACADVER
  1
AC1032
  9
$ACADMAINTVER
 90
      155
  9
$DWGCODEPAGE
  3
ANSI_1252
  9
$REQUIREDVERSIONS
160
                 0
  9
$INSBASE
 10
0.0
 20
0.0
 30
0.0
  9
$EXTMIN
 10
1.000000000000000E+20
 20
1.000000000000000E+20
 30
1.000000000000000E+20
  9
$EXTMAX
 10
-1.000000000000000E+20
 20
-1.000000000000000E+20
 30
-1.000000000000000E+20
  9
$LIMMIN
 10
0.0
 20
0.0
  9
$LIMMAX
 10
12.0
 20
9.0
  9
$ORTHOMODE
 70
     0
  9
$REGENMODE
 70
     1
  9
$FILLMODE
 70
     1
  9
$QTEXTMODE
 70
     0
  9
$MIRRTEXT
 70
     0
  9
$LTSCALE
 40
1.0
  9
$ATTMODE
 70
     1
  9
$TEXTSIZE
 40
0.2
  9
$TRACEWID
 40
0.05
  9
$TEXTSTYLE
  7
Standard
  9
$CLAYER
  8
0
  9
$CELTYPE
  6
ByLayer
  9
$CECOLOR
 62
   256
  9
$CELTSCALE
 40
1.0
  9
$DISPSILH
 70
     0
  9
$DIMSCALE
 40
1.0
  9
$DIMASZ
 40
0.18
  9
$DIMEXO
 40
0.0625
  9
$DIMDLI
 40
0.38
  9
$DIMRND
 40
0.0
  9
$DIMDLE
 40
0.0
  9
$DIMEXE
 40
0.18
  9
$DIMTP
 40
0.0
  9
$DIMTM
 40
0.0
  9
$DIMTXT
 40
0.18
  9
$DIMCEN
 40
0.09
  9
$DIMTSZ
 40
0.0
  9
$DIMTOL
 70
     0
  9
$DIMLIM
 70
     0
  9
$DIMTIH
 70
     1
  9
$DIMTOH
 70
     1
  9
$DIMSE1
 70
     0
  9
$DIMSE2
 70
     0
  9
$DIMTAD
 70
     0
  9
$DIMZIN
 70
     0
  9
$DIMBLK
  1

  9
$DIMASO
 70
     1
  9
$DIMSHO
 70
     1
  9
$DIMPOST
  1

  9
$DIMAPOST
  1

  9
$DIMALT
 70
     0
  9
$DIMALTD
 70
     2
  9
$DIMALTF
 40
25.4
  9
$DIMLFAC
 40
1.0
  9
$DIMTOFL
 70
     0
  9
$DIMTVP
 40
0.0
  9
$DIMTIX
 70
     0
  9
$DIMSOXD
 70
     0
  9
$DIMSAH
 70
     0
  9
$DIMBLK1
  1

  9
$DIMBLK2
  1

  9
$DIMSTYLE
  2
Standard
  9
$DIMCLRD
 70
     0
  9
$DIMCLRE
 70
     0
  9
$DIMCLRT
 70
     0
  9
$DIMTFAC
 40
1.0
  9
$DIMGAP
 40
0.09
  9
$DIMJUST
 70
     0
  9
$DIMSD1
 70
     0
  9
$DIMSD2
 70
     0
  9
$DIMTOLJ
 70
     1
  9
$DIMTZIN
 70
     0
  9
$DIMALTZ
 70
     0
  9
$DIMALTTZ
 70
     0
  9
$DIMUPT
 70
     0
  9
$DIMDEC
 70
     4
  9
$DIMTDEC
 70
     4
  9
$DIMALTU
 70
     2
  9
$DIMALTTD
 70
     2
  9
$DIMTXSTY
  7
Standard
  9
$DIMAUNIT
 70
     0
  9
$DIMADEC
 70
     0
  9
$DIMALTRND
 40
0.0
  9
$DIMAZIN
 70
     0
  9
$DIMDSEP
 70
    46
  9
$DIMATFIT
 70
     3
  9
$DIMFRAC
 70
     0
  9
$DIMLDRBLK
  1

  9
$DIMLUNIT
 70
     2
  9
$DIMLWD
 70
    -2
  9
$DIMLWE
 70
    -2
  9
$DIMTMOVE
 70
     0
  9
$DIMFXL
 40
1.0
  9
$DIMFXLON
 70
     0
  9
$DIMJOGANG
 40
0.7853981633974483
  9
$DIMTFILL
 70
     0
  9
$DIMTFILLCLR
 70
     0
  9
$DIMARCSYM
 70
     0
  9
$DIMLTYPE
  6

  9
$DIMLTEX1
  6

  9
$DIMLTEX2
  6

  9
$DIMTXTDIRECTION
 70
     0
  9
$LUNITS
 70
     2
  9
$LUPREC
 70
     4
  9
$SKETCHINC
 40
0.1
  9
$FILLETRAD
 40
0.0
  9
$AUNITS
 70
     0
  9
$AUPREC
 70
     0
  9
$MENU
  1
.
  9
$ELEVATION
 40
0.0
  9
$PELEVATION
 40
0.0
  9
$THICKNESS
 40
0.0
  9
$LIMCHECK
 70
     0
  9
$CHAMFERA
 40
0.0
  9
$CHAMFERB
 40
0.0
  9
$CHAMFERC
 40
0.0
  9
$CHAMFERD
 40
0.0
  9
$SKPOLY
 70
     0
  9
$TDCREATE
 40
2459975.671562500
  9
$TDUCREATE
 40
2459975.629895833
  9
$TDUPDATE
 40
2459975.671562500
  9
$TDUUPDATE
 40
2459975.629895833
  9
$TDINDWG
 40
0.0000000000
  9
$TDUSRTIMER
 40
0.0000000000
  9
$USRTIMER
 70
     1
  9
$ANGBASE
 50
0.0
  9
$ANGDIR
 70
     0
  9
$PDMODE
 70
     0
  9
$PDSIZE
 40
0.0
  9
$PLINEWID
 40
0.0
  9
$SPLFRAME
 70
     0
  9
$SPLINETYPE
 70
     6
  9
$SPLINESEGS
 70
     8
  9
$HANDSEED
  5
1CA
  9
$SURFTAB1
 70
     6
  9
$SURFTAB2
 70
     6
  9
$SURFTYPE
 70
     6
  9
$SURFU
 70
     6
  9
$SURFV
 70
     6
  9
$UCSBASE
  2

  9
$UCSNAME
  2

  9
$UCSORG
 10
0.0
 20
0.0
 30
0.0
  9
$UCSXDIR
 10
1.0
 20
0.0
 30
0.0
  9
$UCSYDIR
 10
0.0
 20
1.0
 30
0.0
  9
$UCSORTHOREF
  2

  9
$UCSORTHOVIEW
 70
     0
  9
$UCSORGTOP
 10
0.0
 20
0.0
 30
0.0
  9
$UCSORGBOTTOM
 10
0.0
 20
0.0
 30
0.0
  9
$UCSORGLEFT
 10
0.0
 20
0.0
 30
0.0
  9
$UCSORGRIGHT
 10
0.0
 20
0.0
 30
0.0
  9
$UCSORGFRONT
 10
0.0
 20
0.0
 30
0.0
  9
$UCSORGBACK
 10
0.0
 20
0.0
 30
0.0
  9
$PUCSBASE
  2

  9
$PUCSNAME
  2

  9
$PUCSORG
 10
0.0
 20
0.0
 30
0.0
  9
$PUCSXDIR
 10
1.0
 20
0.0
 30
0.0
  9
$PUCSYDIR
 10
0.0
 20
1.0
 30
0.0
  9
$PUCSORTHOREF
  2

  9
$PUCSORTHOVIEW
 70
     0
  9
$PUCSORGTOP
 10
0.0
 20
0.0
 30
0.0
  9
$PUCSORGBOTTOM
 10
0.0
 20
0.0
 30
0.0
  9
$PUCSORGLEFT
 10
0.0
 20
0.0
 30
0.0
  9
$PUCSORGRIGHT
 10
0.0
 20
0.0
 30
0.0
  9
$PUCSORGFRONT
 10
0.0
 20
0.0
 30
0.0
  9
$PUCSORGBACK
 10
0.0
 20
0.0
 30
0.0
  9
$USERI1
 70
     0
  9
$USERI2
 70
     0
  9
$USERI3
 70
     0
  9
$USERI4
 70
     0
  9
$USERI5
 70
     0
  9
$USERR1
 40
0.0
  9
$USERR2
 40
0.0
  9
$USERR3
 40
0.0
  9
$USERR4
 40
0.0
  9
$USERR5
 40
0.0
  9
$WORLDVIEW
 70
     1
  9
$SHADEDGE
 70
     3
  9
$SHADEDIF
 70
    70
  9
$TILEMODE
 70
     1
  9
$MAXACTVP
 70
    64
  9
$PINSBASE
 10
0.0
 20
0.0
 30
0.0
  9
$PLIMCHECK
 70
     0
  9
$PEXTMIN
 10
1.000000000000000E+20
 20
1.000000000000000E+20
 30
1.000000000000000E+20
  9
$PEXTMAX
 10
-1.000000000000000E+20
 20
-1.000000000000000E+20
 30
-1.000000000000000E+20
  9
$PLIMMIN
 10
0.0
 20
0.0
  9
$PLIMMAX
 10
12.0
 20
9.0
  9
$UNITMODE
 70
     0
  9
$VISRETAIN
 70
     1
  9
$PLINEGEN
 70
     0
  9
$PSLTSCALE
 70
     1
  9
$TREEDEPTH
 70
  3020
  9
$CMLSTYLE
  2
Standard
  9
$CMLJUST
 70
     0
  9
$CMLSCALE
 40
1.0
  9
$PROXYGRAPHICS
 70
     1
  9
$MEASUREMENT
 70
     0
  9
$CELWEIGHT
370
    -1
  9
$ENDCAPS
280
     0
  9
$JOINSTYLE
280
     0
  9
$LWDISPLAY
290
     1
  9
$INSUNITS
 70
     4
  9
$HYPERLINKBASE
  1

  9
$STYLESHEET
  1

  9
$XEDIT
290
     1
  9
$CEPSNTYPE
380
     0
  9
$PSTYLEMODE
290
     1
  9
$FINGERPRINTGUID
  2
{1FBE0DF1-0131-8044-BE1D-6E761361CA93}
  9
$VERSIONGUID
  2
{4D98C572-12CD-EF46-863D-A20C693BDB62}
  9
$EXTNAMES
290
     1
  9
$PSVPSCALE
 40
0.0
  9
$OLESTARTUP
290
     0
  9
$SORTENTS
280
   127
  9
$INDEXCTL
280
     0
  9
$HIDETEXT
280
     1
  9
$XCLIPFRAME
280
     2
  9
$HALOGAP
280
     0
  9
$OBSCOLOR
 70
   257
  9
$OBSLTYPE
280
     0
  9
$INTERSECTIONDISPLAY
280
     0
  9
$INTERSECTIONCOLOR
 70
   257
  9
$DIMASSOC
280
     2
  9
$PROJECTNAME
  1

  9
$CAMERADISPLAY
290
     0
  9
$LENSLENGTH
 40
50.0
  9
$CAMERAHEIGHT
 40
0.0
  9
$STEPSPERSEC
 40
2.0
  9
$STEPSIZE
 40
6.0
  9
$3DDWFPREC
 40
2.0
  9
$PSOLWIDTH
 40
0.25
  9
$PSOLHEIGHT
 40
4.0
  9
$LOFTANG1
 40
1.570796326794896
  9
$LOFTANG2
 40
1.570796326794896
  9
$LOFTMAG1
 40
0.0
  9
$LOFTMAG2
 40
0.0
  9
$LOFTPARAM
 70
     7
  9
$LOFTNORMALS
280
     1
  9
$LATITUDE
 40
37.795
  9
$LONGITUDE
 40
-122.394
  9
$NORTHDIRECTION
 40
0.0
  9
$TIMEZONE
 70
 -8000
  9
$LIGHTGLYPHDISPLAY
280
     1
  9
$TILEMODELIGHTSYNCH
280
     1
  9
$CMATERIAL
347
11
  9
$SOLIDHIST
280
     0
  9
$SHOWHIST
280
     1
  9
$DWFFRAME
280
     2
  9
$DGNFRAME
280
     0
  9
$REALWORLDSCALE
290
     1
  9
$INTERFERECOLOR
 62
     1
  9
$INTERFEREOBJVS
345
33
  9
$INTERFEREVPVS
346
30
  9
$CSHADOW
280
     0
  9
$SHADOWPLANELOCATION
 40
0.0
  0
ENDSEC
  0
SECTION
  2
CLASSES
  0
CLASS
  1
ACDBDICTIONARYWDFLT
  2
AcDbDictionaryWithDefault
  3
ObjectDBX Classes
 90
        0
 91
        1
280
     0
281
     0
  0
CLASS
  1
MATERIAL
  2
AcDbMaterial
  3
ObjectDBX Classes
 90
     1153
 91
        3
280
     0
281
     0
  0
CLASS
  1
VISUALSTYLE
  2
AcDbVisualStyle
  3
ObjectDBX Classes
 90
     4095
 91
       24
280
     0
281
     0
  0
CLASS
  1
SCALE
  2
AcDbScale
  3
ObjectDBX Classes
 90
     1153
 91
       17
280
     0
281
     0
  0
CLASS
  1
TABLESTYLE
  2
AcDbTableStyle
  3
ObjectDBX Classes
 90
     4095
 91
        1
280
     0
281
     0
  0
CLASS
  1
MLEADERSTYLE
  2
AcDbMLeaderStyle
  3
ACDB_MLEADERSTYLE_CLASS
 90
     4095
 91
        1
280
     0
281
     0
  0
CLASS
  1
ACDBSECTIONVIEWSTYLE
  2
AcDbSectionViewStyle
  3
ObjectDBX Classes
 90
     1025
 91
        1
280
     0
281
     0
  0
CLASS
  1
ACDBDETAILVIEWSTYLE
  2
AcDbDetailViewStyle
  3
ObjectDBX Classes
 90
     1025
 91
        1
280
     0
281
     0
  0
CLASS
  1
DICTIONARYVAR
  2
AcDbDictionaryVar
  3
ObjectDBX Classes
 90
        0
 91
        5
280
     0
281
     0
  0
CLASS
  1
CELLSTYLEMAP
  2
AcDbCellStyleMap
  3
ObjectDBX Classes
 90
     1152
 91
        1
280
     0
281
     0
  0
ENDSEC
  0
SECTION
  2
TABLES
  0
TABLE
  2
VPORT
  5
8
330
0
100
AcDbSymbolTable
 70
     1
  0
VPORT
  5
57
330
8
100
AcDbSymbolTableRecord
100
AcDbViewportTableRecord
  2
*Active
 70
     0
 10
0.0
 20
0.0
 11
1.0
 21
1.0
 12
0.0
 22
0.0
 13
0.0
 23
0.0
 14
1.0
 24
1.0
 15
0.0
 25
0.0
 16
0.0
 26
0.0
 36
1.0
 17
72.38207603296863
 27
174.0723627695821
 37
0.0
 40
355.1076200499476
 41
0.7905787902858091
 42
50.0
 43
0.0
 44
0.0
 50
0.0
 51
0.0
 71
     0
 72
   100
 73
     1
 74
     0
 75
     1
 76
     0
 77
     0
 78
     0
281
     0
 65
     1
110
0.0
120
0.0
130
0.0
111
1.0
121
0.0
131
0.0
112
0.0
122
1.0
132
0.0
 79
     0
146
0.0
 60
     3
 61
     5
292
     1
282
     1
141
0.0
142
0.0
 63
   250
421
  3355443
  0
ENDTAB
  0
TABLE
  2
LTYPE
  5
5
330
0
100
AcDbSymbolTable
 70
     1
  0
LTYPE
  5
5B
330
5
100
AcDbSymbolTableRecord
100
AcDbLinetypeTableRecord
  2
ByBlock
 70
     0
  3

 72
    65
 73
     0
 40
0.0
  0
LTYPE
  5
5C
330
5
100
AcDbSymbolTableRecord
100
AcDbLinetypeTableRecord
  2
ByLayer
 70
     0
  3

 72
    65
 73
     0
 40
0.0
  0
LTYPE
  5
5D
330
5
100
AcDbSymbolTableRecord
100
AcDbLinetypeTableRecord
  2
Continuous
 70
     0
  3
Solid line
 72
    65
 73
     0
 40
0.0
  0
ENDTAB
  0
TABLE
  2
LAYER
  5
2
330
0
100
AcDbSymbolTable
 70
     4
  0
LAYER
  5
54
330
2
100
AcDbSymbolTableRecord
100
AcDbLayerTableRecord
  2
0
 70
     0
 62
     7
  6
Continuous
370
     0
390
F
347
21
348
0
  0
LAYER
  5
78
330
2
100
AcDbSymbolTableRecord
100
AcDbLayerTableRecord
  2
RACCORDO
 70
     0
 62
     7
  6
Continuous
370
     0
390
F
347
21
348
0
  0
LAYER
  5
168
330
2
100
AcDbSymbolTableRecord
100
AcDbLayerTableRecord
  2
SUPERFICI
 70
     0
 62
     7
  6
Continuous
370
     0
390
F
347
21
348
0
  0
LAYER
  5
16B
330
2
100
AcDbSymbolTableRecord
100
AcDbLayerTableRecord
  2
DRAFT
 70
     0
 62
     7
  6
Continuous
370
     0
390
F
347
21
348
0
  0
ENDTAB
  0
TABLE
  2
STYLE
  5
3
330
0
100
AcDbSymbolTable
 70
     2
  0
STYLE
  5
55
330
3
100
AcDbSymbolTableRecord
100
AcDbTextStyleTableRecord
  2
Standard
 70
     0
 40
0.0
 41
1.0
 50
0.0
 71
     0
 42
0.2
  3
txt
  4

  0
STYLE
  5
5A
330
3
100
AcDbSymbolTableRecord
100
AcDbTextStyleTableRecord
  2
Annotative
 70
     0
 40
0.0
 41
1.0
 50
0.0
 71
     0
 42
0.2
  3
txt
  4

1001
AcadAnnotative
1000
AnnotativeData
1002
{
1070
     1
1070
     1
1002
}
  0
ENDTAB
  0
TABLE
  2
VIEW
  5
6
330
0
100
AcDbSymbolTable
 70
     0
  0
ENDTAB
  0
TABLE
  2
UCS
  5
7
330
0
100
AcDbSymbolTable
 70
     0
  0
ENDTAB
  0
TABLE
  2
APPID
  5
9
330
0
100
AcDbSymbolTable
 70
     2
  0
APPID
  5
56
330
9
100
AcDbSymbolTableRecord
100
AcDbRegAppTableRecord
  2
ACAD
 70
     0
  0
APPID
  5
5E
330
9
100
AcDbSymbolTableRecord
100
AcDbRegAppTableRecord
  2
AcadAnnotative
 70
     0
  0
ENDTAB
  0
TABLE
  2
DIMSTYLE
  5
A
330
0
100
AcDbSymbolTable
 70
     2
100
AcDbDimStyleTable
 71
     0
  0
DIMSTYLE
105
58
330
A
100
AcDbSymbolTableRecord
100
AcDbDimStyleTableRecord
  2
Standard
 70
     0
340
55
  0
DIMSTYLE
105
59
330
A
100
AcDbSymbolTableRecord
100
AcDbDimStyleTableRecord
  2
Annotative
 70
     0
340
55
1001
AcadAnnotative
1000
AnnotativeData
1002
{
1070
     1
1070
     1
1002
}
  0
ENDTAB
  0
TABLE
  2
BLOCK_RECORD
  5
1
330
0
100
AcDbSymbolTable
 70
     1
  0
BLOCK_RECORD
  5
70
330
1
100
AcDbSymbolTableRecord
100
AcDbBlockTableRecord
  2
*Model_Space
340
73
 70
     0
280
     1
281
     0
  0
BLOCK_RECORD
  5
6C
330
1
100
AcDbSymbolTableRecord
100
AcDbBlockTableRecord
  2
*Paper_Space
340
6F
 70
     0
280
     1
281
     0
  0
BLOCK_RECORD
  5
74
330
1
100
AcDbSymbolTableRecord
100
AcDbBlockTableRecord
  2
*Paper_Space0
340
77
 70
     0
280
     1
281
     0
  0
ENDTAB
  0
ENDSEC
  0
SECTION
  2
BLOCKS
  0
BLOCK
  5
71
330
70
100
AcDbEntity
  8
0
100
AcDbBlockBegin
  2
*Model_Space
 70
     0
 10
0.0
 20
0.0
 30
0.0
  3
*Model_Space
  1

  0
ENDBLK
  5
72
330
70
100
AcDbEntity
  8
0
100
AcDbBlockEnd
  0
BLOCK
  5
6D
330
6C
100
AcDbEntity
 67
     1
  8
0
100
AcDbBlockBegin
  2
*Paper_Space
 70
     0
 10
0.0
 20
0.0
 30
0.0
  3
*Paper_Space
  1

  0
ENDBLK
  5
6E
330
6C
100
AcDbEntity
 67
     1
  8
0
100
AcDbBlockEnd
  0
BLOCK
  5
75
330
74
100
AcDbEntity
 67
     1
  8
0
100
AcDbBlockBegin
  2
*Paper_Space0
 70
     0
 10
0.0
 20
0.0
 30
0.0
  3
*Paper_Space0
  1

  0
ENDBLK
  5
76
330
74
100
AcDbEntity
 67
     1
  8
0
100
AcDbBlockEnd
  0
ENDSEC
  0
SECTION
  2
ENTITIES
  0
LWPOLYLINE
  5
79
330
70
100
AcDbEntity
  8
RACCORDO
 62
    18
420
        0
370
    25
100
AcDbPolyline
 90
        8
 70
     0
 43
0.0
 10
-64.77174195360001
 20
344.7188132817644
 10
-64.85996830800004
 20
344.5766841260642
 10
-64.94120263029991
 20
344.4136668255644
 10
-65.00732182350002
 20
344.2414395521642
 10
-65.05759302389988
 20
344.0612330877645
 10
-65.0913874351001
 20
343.8746109743644
 10
-65.10848501360003
 20
343.6828478148644
 10
-65.11073559040011
 20
343.5654939902643
  0
LINE
  5
7A
330
70
100
AcDbEntity
  8
RACCORDO
 62
    18
420
        0
370
    25
100
AcDbLine
 10
-64.77063096690014
 20
344.7204405029645
 30
0.0
 11
-64.77157106750017
 21
344.7190691963643
 31
0.0
  0
LINE
  5
7B
330
70
100
AcDbEntity
  8
RACCORDO
 62
   250
420
  3355443
370
    25
100
AcDbLine
 10
-60.62274644189985
 20
347.8795674187644
 30
0.0
 11
-62.61474133010013
 21
345.1991602278643
 31
0.0
  0
LINE
  5
7C
330
70
100
AcDbEntity
  8
RACCORDO
 62
   250
420
  3355443
370
    25
100
AcDbLine
 10
-64.67181581470017
 20
342.8931207598641
 30
0.0
 11
-64.67900783969996
 21
342.6093041244645
 31
0.0
  0
LWPOLYLINE
  5
7D
330
70
100
AcDbEntity
  8
RACCORDO
 62
   250
420
  3355443
370
    25
100
AcDbPolyline
 90
        7
 70
     0
 43
0.0
 10
-64.67900783969996
 20
342.6093041244645
 10
-64.68085053279994
 20
342.5488070819645
 10
-64.68158373479998
 20
342.5190026530645
 10
-64.68211728849986
 20
342.4893142854642
 10
-64.68248025759995
 20
342.4598985231642
 10
-64.68254729899993
 20
342.4303013620645
 10
-64.68217084660015
 20
342.4003173818643
  0
LWPOLYLINE
  5
7E
330
70
100
AcDbEntity
  8
RACCORDO
 62
   250
420
  3355443
370
    25
100
AcDbPolyline
 90
       13
 70
     0
 43
0.0
 10
-63.06282429110007
 20
343.9968018617644
 10
-63.05450343860009
 20
344.0970293789643
 10
-63.03965727679989
 20
344.2020898849644
 10
-63.01848644359999
 20
344.3105634031643
 10
-62.9912770627
 20
344.4209838287643
 10
-62.95839687629993
 20
344.5318587442643
 10
-62.92029027460016
 20
344.6416895902642
 10
-62.87747228879992
 20
344.7489919194643
 10
-62.83052163120002
 20
344.8523154606643
 10
-62.78007287379988
 20
344.9502637197644
 10
-62.72680786849999
 20
345.0415128541645
 10
-62.67144653160006
 20
345.1248295646643
 10
-62.61473711430011
 20
345.1990877652642
  0
LWPOLYLINE
  5
7F
330
70
100
AcDbEntity
  8
RACCORDO
 62
   250
420
  3355443
370
    25
100
AcDbPolyline
 90
        3
 70
     0
 43
0.0
 10
-63.27452247339994
 20
286.1073915650644
 10
-63.25740621950014
 20
285.883646050064
 10
-63.23914295640009
 20
285.6373050327643
  0
LWPOLYLINE
  5
80
330
70
100
AcDbEntity
  8
RACCORDO
 62
    18
420
        0
370
    25
100
AcDbPolyline
 90
       18
 70
     0
 43
0.0
 10
-63.68247648640011
 20
286.1519615837644
 10
-63.6753277882999
 20
286.0464678259644
 10
-63.6465287555999
 20
285.8371098231641
 10
-63.59798811090005
 20
285.6256281744643
 10
-63.5298955312999
 20
285.4137646445641
 10
-63.44326676790016
 20
285.2043795589644
 10
-63.33863747940011
 20
284.9985178714641
 10
-63.21644671570014
 20
284.797030481164
 10
-63.07841016459986
 20
284.6024707872645
 10
-62.92538652000001
 20
284.4159155920646
 10
-62.75814812349999
 20
284.2383287341645
 10
-62.57904157320011
 20
284.0719391780643
 10
-62.3892054038001
 20
283.9176630409644
 10
-62.18971785719997
 20
283.7763927926646
 10
-61.98324148130009
 20
283.6498298000644
 10
-61.77142865970008
 20
283.5388377129642
 10
-61.55502204389994
 20
283.4437379458645
 10
-61.3984678076
 20
283.3858692033643
  0
LINE
  5
81
330
70
100
AcDbEntity
  8
RACCORDO
 62
    18
420
        0
370
    25
100
AcDbLine
 10
-63.68247648640011
 20
286.1519615837644
 30
0.0
 11
-63.68252262129994
 21
286.1530446225645
 31
0.0
  0
LWPOLYLINE
  5
82
330
70
100
AcDbEntity
  8
RACCORDO
 62
   250
420
  3355443
370
    25
100
AcDbPolyline
 90
        6
 70
     0
 43
0.0
 10
-63.28840149400002
 20
286.3530358668642
 10
-63.28662839510008
 20
286.3059725917644
 10
-63.28436385100011
 20
286.2582124384644
 10
-63.28160252089995
 20
286.2096947525642
 10
-63.27831366420006
 20
286.1594533981645
 10
-63.27452247339994
 20
286.1073915650644
  0
LINE
  5
83
330
70
100
AcDbEntity
  8
RACCORDO
 62
   250
420
  3355443
370
    25
100
AcDbLine
 10
-63.29131777530006
 20
286.4463278258644
 30
0.0
 11
-63.28840149400002
 21
286.3530358668642
 31
0.0
  0
LINE
  5
84
330
70
100
AcDbEntity
  8
RACCORDO
 62
   250
420
  3355443
370
    25
100
AcDbLine
 10
-63.70188247690002
 20
298.7147345245642
 30
0.0
 11
-63.29131777530006
 21
286.4463278258644
 31
0.0
  0
LINE
  5
85
330
70
100
AcDbEntity
  8
RACCORDO
 62
   250
420
  3355443
370
    25
100
AcDbLine
 10
-63.85599159349995
 20
304.3075763819643
 30
0.0
 11
-63.70188247690002
 21
298.7147345245642
 31
0.0
  0
LINE
  5
86
330
70
100
AcDbEntity
  8
RACCORDO
 62
    18
420
        0
370
    25
100
AcDbLine
 10
-64.26612009080007
 20
307.8488988187644
 30
0.0
 11
-63.68262468010002
 21
286.1530403472646
 31
0.0
  0
LINE
  5
87
330
70
100
AcDbEntity
  8
RACCORDO
 62
   250
420
  3355443
370
    25
100
AcDbLine
 10
-64.04611891359991
 20
312.1296239258644
 30
0.0
 11
-63.85599159349995
 21
304.3075763819643
 31
0.0
  0
LINE
  5
88
330
70
100
AcDbEntity
  8
RACCORDO
 62
    18
420
        0
370
    25
100
AcDbLine
 10
-65.00691061649995
 20
338.5937825274643
 30
0.0
 11
-64.26612009080007
 21
307.8488988187644
 31
0.0
  0
LINE
  5
89
330
70
100
AcDbEntity
  8
RACCORDO
 62
   250
420
  3355443
370
    25
100
AcDbLine
 10
-64.44915323669984
 20
328.4928690798644
 30
0.0
 11
-64.04611891359991
 21
312.1296239258644
 31
0.0
  0
LINE
  5
8A
330
70
100
AcDbEntity
  8
RACCORDO
 62
   250
420
  3355443
370
    25
100
AcDbLine
 10
-64.68217084660015
 20
342.4003173818643
 30
0.0
 11
-64.68087210589995
 21
342.3388909227642
 31
0.0
  0
LINE
  5
8B
330
70
100
AcDbEntity
  8
RACCORDO
 62
    18
420
        0
370
    25
100
AcDbLine
 10
-65.11084194760003
 20
343.5660410037645
 30
0.0
 11
-65.00691061649995
 21
338.5937825274643
 31
0.0
  0
LINE
  5
8C
330
70
100
AcDbEntity
  8
RACCORDO
 62
   250
420
  3355443
370
    25
100
AcDbLine
 10
-64.54861540200012
 20
333.7779466466643
 30
0.0
 11
-64.44915323669984
 21
328.4928690798644
 31
0.0
  0
LINE
  5
8D
330
70
100
AcDbEntity
  8
RACCORDO
 62
   250
420
  3355443
370
    25
100
AcDbLine
 10
-64.68087210589995
 20
342.3388909227642
 30
0.0
 11
-64.54861540200012
 21
333.7779466466643
 31
0.0
  0
LINE
  5
8E
330
70
100
AcDbEntity
  8
RACCORDO
 62
    18
420
        0
370
    25
100
AcDbLine
 10
-65.11083943830012
 20
343.5654934287644
 30
0.0
 11
-65.11084194760003
 21
343.5660410037645
 31
0.0
  0
LINE
  5
8F
330
70
100
AcDbEntity
  8
RACCORDO
 62
   250
420
  3355443
370
    25
100
AcDbLine
 10
-64.66775513340015
 20
343.0652654203644
 30
0.0
 11
-64.67181581470017
 21
342.8931207598641
 31
0.0
  0
LWPOLYLINE
  5
90
330
70
100
AcDbEntity
  8
RACCORDO
 62
   250
420
  3355443
370
    25
100
AcDbPolyline
 90
        7
 70
     0
 43
0.0
 10
-61.56247770159989
 20
283.6849734580646
 10
-61.54974776059996
 20
283.6078530398641
 10
-61.53061526670009
 20
283.5405264058642
 10
-61.50533882209994
 20
283.4839036037642
 10
-61.4742600764
 20
283.438749998064
 10
-61.43779910890003
 20
283.4056759242644
 10
-61.39848891029996
 20
283.3858072604641
  0
LWPOLYLINE
  5
91
330
70
100
AcDbEntity
  8
RACCORDO
 62
   250
420
  3355443
370
    25
100
AcDbPolyline
 90
       19
 70
     0
 43
0.0
 10
-63.23913648930006
 20
285.6373115328644
 10
-63.22424509709986
 20
285.513575734464
 10
-63.19778087559994
 20
285.3865347795643
 10
-63.15981838800004
 20
285.2572660393646
 10
-63.11061469800009
 20
285.126705670364
 10
-63.05047589170015
 20
284.9958515192644
 10
-62.97977557029994
 20
284.865778875764
 10
-62.89901862720015
 20
284.7374394292643
 10
-62.8088046170999
 20
284.6117679080643
 10
-62.70981414520004
 20
284.4897944739645
 10
-62.60279101019992
 20
284.3724505270643
 10
-62.48854333489995
 20
284.2604764219641
 10
-62.36787413950003
 20
284.1546013983641
 10
-62.24158220469985
 20
284.0555503661643
 10
-62.11066641799997
 20
283.9640207513645
 10
-61.97623868139986
 20
283.8806713872644
 10
-61.83932867990004
 20
283.8060792711645
 10
-61.70098278260002
 20
283.7407138393644
 10
-61.5624715251
 20
283.6849816790641
  0
LINE
  5
92
330
70
100
AcDbEntity
  8
RACCORDO
 62
   250
420
  3355443
370
    25
100
AcDbLine
 10
-45.44421402949987
 20
289.4606705300644
 30
0.0
 11
-45.48050721660014
 21
290.5057917652643
 31
0.0
  0
LINE
  5
93
330
70
100
AcDbEntity
  8
RACCORDO
 62
   250
420
  3355443
370
    25
100
AcDbLine
 10
-45.48050721660014
 20
290.5057917652643
 30
0.0
 11
-45.58190106030008
 21
294.0827412294643
 31
0.0
  0
LINE
  5
94
330
70
100
AcDbEntity
  8
RACCORDO
 62
   250
420
  3355443
370
    25
100
AcDbLine
 10
-45.58190106030008
 20
294.0827412294643
 30
0.0
 11
-45.97414154809993
 21
309.4663246184642
 31
0.0
  0
LINE
  5
95
330
70
100
AcDbEntity
  8
RACCORDO
 62
   250
420
  3355443
370
    25
100
AcDbLine
 10
-44.21765122989989
 20
288.6632170367643
 30
0.0
 11
-45.07789932229998
 21
323.2438366785644
 31
0.0
  0
LINE
  5
96
330
70
100
AcDbEntity
  8
RACCORDO
 62
   250
420
  3355443
370
    25
100
AcDbLine
 10
-45.97414154809993
 20
309.4663246184642
 30
0.0
 11
-46.2775152155001
 21
322.4070326551644
 31
0.0
  0
LWPOLYLINE
  5
97
330
70
100
AcDbEntity
  8
RACCORDO
 62
   250
420
  3355443
370
    25
100
AcDbPolyline
 90
        3
 70
     0
 43
0.0
 10
-46.2775152155001
 20
322.4070326551644
 10
-46.29668511370009
 20
323.4938031805644
 10
-46.30365786810008
 20
324.0089877633642
  0
LWPOLYLINE
  5
98
330
70
100
AcDbEntity
  8
RACCORDO
 62
   250
420
  3355443
370
    25
100
AcDbPolyline
 90
       75
 70
     0
 43
0.0
 10
-45.07789932229998
 20
323.2438366785644
 10
-45.07817882490014
 20
323.3033563468642
 10
-45.07576380099994
 20
323.3599663532643
 10
-45.07092828050008
 20
323.4136699418644
 10
-45.06396232370015
 20
323.4643320883644
 10
-45.05511711649987
 20
323.5121456513644
 10
-45.0445390398
 20
323.5576012105642
 10
-45.03236951119987
 20
323.6008392660643
 10
-45.01882802690015
 20
323.6417790129642
 10
-45.00410453749989
 20
323.6805662586645
 10
-44.98837320939991
 20
323.7172678883642
 10
-44.97178237359999
 20
323.7519229024643
 10
-44.95446110469994
 20
323.7846399523642
 10
-44.93658384050013
 20
323.8154298361642
 10
-44.9182541273001
 20
323.8444054775645
 10
-44.89945807270003
 20
323.8718133497642
 10
-44.88027684230003
 20
323.8977262779644
 10
-44.86082624789988
 20
323.9221703137644
 10
-44.84110470619992
 20
323.9452985086644
 10
-44.82116584090007
 20
323.9671806333644
 10
-44.80110752860007
 20
323.9878335956642
 10
-44.78097592259984
 20
324.0073208073643
 10
-44.76083431479988
 20
324.0256879435642
 10
-44.74074910829989
 20
324.0429757706644
 10
-44.72076311419986
 20
324.0592371097644
 10
-44.7009340197999
 20
324.0745129643643
 10
-44.68131421660014
 20
324.0888461159643
 10
-44.66193190220006
 20
324.1022888495643
 10
-44.64284910039991
 20
324.1148707112642
 10
-44.6240960212999
 20
324.1266409780643
 10
-44.60564453410009
 20
324.1376750869643
 10
-44.58756188050009
 20
324.1479892566644
 10
-44.56985297569988
 20
324.1576347155644
 10
-44.55238241770008
 20
324.1667257527644
 10
-44.53517903230014
 20
324.1752826488641
 10
-44.51826157240015
 20
324.1833313084642
 10
-44.50146357610009
 20
324.1909765843644
 10
-44.48475292290011
 20
324.1982544209642
 10
-44.46818923890001
 20
324.2051547551643
 10
-44.45173445810012
 20
324.2117023469644
 10
-44.43542440689986
 20
324.2179017415645
 10
-44.4192467151
 20
324.2237713968643
 10
-44.40308572499996
 20
324.2293495413644
 10
-44.38698425979992
 20
324.2346291925644
 10
-44.37091490889996
 20
324.2396302604642
 10
-44.3546472682001
 20
324.2444172001643
 10
-44.33821843139987
 20
324.2489783509642
 10
-44.32159453389991
 20
324.2533203005644
 10
-44.30442480400006
 20
324.2575124583642
 10
-44.28669666809984
 20
324.2615315160643
 10
-44.26840988619995
 20
324.2653667573644
 10
-44.24921594840008
 20
324.2690787368643
 10
-44.22899776049986
 20
324.2726490529642
 10
-44.20784230900014
 20
324.2760264256643
 10
-44.18569751990006
 20
324.2792046562643
 10
-44.16256011340009
 20
324.2821508825642
 10
-44.13840349820015
 20
324.2848195358642
 10
-44.11313779739984
 20
324.2871777948643
 10
-44.08678734720007
 20
324.2891747398643
 10
-44.05929843979984
 20
324.2907670114645
 10
-44.03045859860012
 20
324.2919163765642
 10
-44.00022552480009
 20
324.2925598255644
 10
-43.96860790810011
 20
324.2926305139643
 10
-43.93546393100011
 20
324.2920629381643
 10
-43.90063574210002
 20
324.2907753451643
 10
-43.86425103380012
 20
324.2886842168644
 10
-43.82660331489993
 20
324.2857294001644
 10
-43.78779935229987
 20
324.2818796300643
 10
-43.7477341956
 20
324.2770389532643
 10
-43.70639772010014
 20
324.2710667632644
 10
-43.66392704890006
 20
324.2639084365644
 10
-43.62021405869999
 20
324.2554854575644
 10
-43.57488755509995
 20
324.2455915009642
 10
-43.52784087409985
 20
324.2340789031643
 10
-43.47923492220002
 20
324.2208901417642
  0
LWPOLYLINE
  5
99
330
70
100
AcDbEntity
  8
RACCORDO
 62
   250
420
  3355443
370
    25
100
AcDbPolyline
 90
       76
 70
     0
 43
0.0
 10
-46.30365880129989
 20
324.0089866897641
 10
-46.30227980780008
 20
324.1226600841642
 10
-46.29566281299993
 20
324.2306713618643
 10
-46.28430836549999
 20
324.3331715704643
 10
-46.26856390979989
 20
324.4301291719641
 10
-46.24903179560004
 20
324.5217568360645
 10
-46.22659920920016
 20
324.6083179243643
 10
-46.2019594346001
 20
324.6896429606644
 10
-46.17548172169999
 20
324.7655844702642
 10
-46.14735912410007
 20
324.8368611002642
 10
-46.11795834290009
 20
324.9040528545644
 10
-46.08736672540007
 20
324.9674874222642
 10
-46.0553020406999
 20
325.0273011467643
 10
-46.0218973853001
 20
325.0834205577644
 10
-45.98753853400002
 20
325.1360881434645
 10
-45.95225859789996
 20
325.1858142367643
 10
-45.91621850279998
 20
325.2327419698643
 10
-45.87962618159987
 20
325.2768906920644
 10
-45.84250934979996
 20
325.3185516186642
 10
-45.80497014159997
 20
325.3578458931644
 10
-45.76718971090011
 20
325.3948019532644
 10
-45.7292798617999
 20
325.4295575402643
 10
-45.69136088589992
 20
325.4621940020644
 10
-45.65355447120008
 20
325.4927831533642
 10
-45.61595655589998
 20
325.5214463855643
 10
-45.57867142850012
 20
325.5482592062644
 10
-45.54179328810006
 20
325.5732991026643
 10
-45.50538933950011
 20
325.5966854930644
 10
-45.46957313190002
 20
325.6184733488644
 10
-45.43439718280011
 20
325.6387494880643
 10
-45.39981997629995
 20
325.6576708401643
 10
-45.36596403039996
 20
325.6752716245642
 10
-45.33283345790007
 20
325.6916402965645
 10
-45.30018417780005
 20
325.7069909118643
 10
-45.26807861880001
 20
325.7213581787642
 10
-45.23653686559991
 20
325.7347910486642
 10
-45.2052197228
 20
325.7474954402642
 10
-45.17408607589993
 20
325.7595009448642
 10
-45.14320095769989
 20
325.7708371346642
 10
-45.11227738709986
 20
325.7817100011643
 10
-45.08119125159988
 20
325.7921769357644
 10
-45.04983823640006
 20
325.8022785207645
 10
-45.01803456829989
 20
325.8121318943644
 10
-44.98591304479993
 20
325.8216766808641
 10
-44.95351656449997
 20
325.8308792760644
 10
-44.92050095920009
 20
325.8398755566641
 10
-44.88688249870008
 20
325.8486540662644
 10
-44.85262434079994
 20
325.8571787257642
 10
-44.8173277724999
 20
325.8655054707645
 10
-44.78113316039992
 20
325.8736820466642
 10
-44.74418189440006
 20
325.8815005194642
 10
-44.70613196410005
 20
325.8886148901643
 10
-44.66707381139991
 20
325.8948140405642
 10
-44.62732162570012
 20
325.9002337326644
 10
-44.5865938482001
 20
325.9050664936643
 10
-44.54458535860015
 20
325.9093650148645
 10
-44.50082923359985
 20
325.9130918045642
 10
-44.45485875330001
 20
325.9162433707643
 10
-44.40674667049996
 20
325.9187281215643
 10
-44.35661180929996
 20
325.9204335178643
 10
-44.30415980380011
 20
325.9212684312644
 10
-44.24929723959994
 20
325.9211252215643
 10
-44.19199815130009
 20
325.9198976821644
 10
-44.13205237589994
 20
325.9174779774643
 10
-44.06939077740015
 20
325.9136400481642
 10
-44.00421581559998
 20
325.9083762630644
 10
-43.93645958919999
 20
325.9018495078641
 10
-43.86560841680008
 20
325.8937602041644
 10
-43.79097496369998
 20
325.8839144120644
 10
-43.71246532030008
 20
325.8726057849644
 10
-43.63068362810003
 20
325.8600452146644
 10
-43.54606159979996
 20
325.8456015862644
 10
-43.45845287280006
 20
325.8283260913643
 10
-43.36770064659985
 20
325.8077599134645
 10
-43.27390878540009
 20
325.7839429552644
 10
-43.17712021360009
 20
325.7566659978644
  0
LWPOLYLINE
  5
9A
330
70
100
AcDbEntity
  8
RACCORDO
 62
   250
420
  3355443
370
    25
100
AcDbPolyline
 90
       10
 70
     0
 43
0.0
 10
-43.42910641989997
 20
324.2059251012644
 10
-43.38115092480015
 20
324.3872243639643
 10
-43.33785277800015
 20
324.5679212475643
 10
-43.2993838014999
 20
324.7472981481644
 10
-43.26589663959992
 20
324.9246427039644
 10
-43.23752415330002
 20
325.0992506236644
 10
-43.21437889239994
 20
325.2704284831644
 10
-43.19655264839999
 20
325.4374964794643
 10
-43.18411609050007
 20
325.5997911302645
 10
-43.1771184843999
 20
325.7566679085644
  0
LWPOLYLINE
  5
9B
330
70
100
AcDbEntity
  8
RACCORDO
 62
   250
420
  3355443
370
    25
100
AcDbPolyline
 90
        4
 70
     0
 43
0.0
 10
-43.3291814761001
 20
323.2344138171644
 10
-43.35827426240012
 20
323.2028169275645
 10
-43.43261903079994
 20
323.1405688997644
 10
-43.51820771259988
 20
323.0843292841644
  0
LWPOLYLINE
  5
9C
330
70
100
AcDbEntity
  8
RACCORDO
 62
   250
420
  3355443
370
    25
100
AcDbPolyline
 90
       16
 70
     0
 43
0.0
 10
-43.51820771259988
 20
323.0843292841644
 10
-43.61376454099984
 20
323.0349363765644
 10
-43.71786516660004
 20
322.9931264169644
 10
-43.82895788769999
 20
322.9595226157642
 10
-43.94538677979993
 20
322.9346258640644
 10
-44.06541637879994
 20
322.9188072673644
 10
-44.18725754929993
 20
322.9123026144644
 10
-44.30909415270015
 20
322.9152088621642
 10
-44.42911011879991
 20
322.9274826906644
 10
-44.54551651510015
 20
322.9489411489645
 10
-44.65657818799986
 20
322.9792643736643
 10
-44.76063970399984
 20
323.0180003775643
 10
-44.8561500082001
 20
323.0645718051643
 10
-44.94168544239993
 20
323.1182845007643
 10
-45.01597098490008
 20
323.1783378364644
 10
-45.07789932229998
 20
323.2438366785644
  0
LWPOLYLINE
  5
9D
330
70
100
AcDbEntity
  8
RACCORDO
 62
   250
420
  3355443
370
    25
100
AcDbPolyline
 90
       10
 70
     0
 43
0.0
 10
38.94892766370015
 20
263.1235634695643
 10
39.14611807069975
 20
263.1438641811642
 10
39.3444963439002
 20
263.1558915755646
 10
39.54319131060008
 20
263.1595929204642
 10
39.74133040820026
 20
263.1549520421646
 10
39.93804351480008
 20
263.1419893967646
 10
40.13246677119983
 20
263.1207619799644
 10
40.32374637409985
 20
263.0913630769646
 10
40.51104232570013
 20
263.0539218522641
 10
40.69353212219991
 20
263.0086027828641
  0
LWPOLYLINE
  5
9E
330
70
100
AcDbEntity
  8
RACCORDO
 62
   250
420
  3355443
370
    25
100
AcDbPolyline
 90
       13
 70
     0
 43
0.0
 10
61.70392259070029
 20
247.2685000330645
 10
61.81543535390004
 20
247.2494856334642
 10
61.93011722549971
 20
247.2392013633642
 10
62.04640951009994
 20
247.237787000664
 10
62.16273162430013
 20
247.245261767964
 10
62.27750257929987
 20
247.2615240715641
 10
62.38916246920002
 20
247.2863528820642
 10
62.49619367139982
 20
247.3194107391646
 10
62.59714147440004
 20
247.3602483370642
 10
62.69063384909972
 20
247.4083106313641
 10
62.77540009630001
 20
247.4629443840644
 10
62.85028811799994
 20
247.5234070416642
 10
62.91428007540026
 20
247.5888768267642
  0
LWPOLYLINE
  5
9F
330
70
100
AcDbEntity
  8
RACCORDO
 62
   250
420
  3355443
370
    25
100
AcDbPolyline
 90
       19
 70
     0
 43
0.0
 10
60.09063488349987
 20
246.3264912676642
 10
60.23394108349993
 20
246.295680038364
 10
60.3757736612
 20
246.2750054269645
 10
60.51495661499996
 20
246.2648121124646
 10
60.65052171120031
 20
246.2652493164641
 10
60.78150598200004
 20
246.2763519764644
 10
60.9068665240998
 20
246.2981229868645
 10
61.02566858510009
 20
246.3304587285641
 10
61.13715960600017
 20
246.3731106894643
 10
61.24057881150015
 20
246.425829849564
 10
61.33515787169994
 20
246.4883599620646
 10
61.42018502580018
 20
246.5602166226646
 10
61.49500959649995
 20
246.6407785078644
 10
61.55905819449976
 20
246.7294711037644
 10
61.61184245300022
 20
246.8256477326642
 10
61.65299422490016
 20
246.9284608404642
 10
61.68220750069977
 20
247.0371004982644
 10
61.69921735760018
 20
247.1507908185643
 10
61.70392660800001
 20
247.2685072997645
  0
LWPOLYLINE
  5
A0
330
70
100
AcDbEntity
  8
RACCORDO
 62
   250
420
  3355443
370
    25
100
AcDbPolyline
 90
       10
 70
     0
 43
0.0
 10
-63.23913648930006
 20
285.6373115328644
 10
-63.33203689969998
 20
285.681076480664
 10
-63.41612320609985
 20
285.7318367405642
 10
-63.49025267580003
 20
285.7889024835641
 10
-63.55341788949989
 20
285.8514981887643
 10
-63.60476043230012
 20
285.918773182564
 10
-63.64358255919993
 20
285.9898131992645
 10
-63.66935667750009
 20
286.0636528066645
 10
-63.68173251700013
 20
286.1392885250641
 10
-63.68247648640011
 20
286.1519615837644
  0
LWPOLYLINE
  5
A1
330
70
100
AcDbEntity
  8
RACCORDO
 62
   250
420
  3355443
370
    25
100
AcDbPolyline
 90
       10
 70
     0
 43
0.0
 10
-42.49556327419996
 20
286.6789078224645
 10
-42.4416369332001
 20
286.6202715900643
 10
-42.39211600859989
 20
286.5509006968642
 10
-42.34719715929992
 20
286.4710706247644
 10
-42.30705876840007
 20
286.3810983904642
 10
-42.27186023499989
 20
286.2813412861641
 10
-42.24174134120005
 20
286.1721954612645
 10
-42.21682169659985
 20
286.0540943485644
 10
-42.19720026390002
 20
285.9275069432641
 10
-42.18295496559994
 20
285.7929359408642
  0
LWPOLYLINE
  5
A2
330
70
100
AcDbEntity
  8
RACCORDO
 62
   250
420
  3355443
370
    25
100
AcDbPolyline
 90
       10
 70
     0
 43
0.0
 10
-44.21764984269993
 20
288.6632175035644
 10
-44.31370623890006
 20
288.7735755303643
 10
-44.42107818630001
 20
288.8794989773643
 10
-44.53929417690003
 20
288.9805227025642
 10
-44.66783508289998
 20
289.0762030803645
 10
-44.80613643590013
 20
289.166119949664
 10
-44.95359090619998
 20
289.2498784589644
 10
-45.10955096949999
 20
289.3271108002642
 10
-45.27333175019999
 20
289.3974778243641
 10
-45.44421402949987
 20
289.4606705300644
  0
LWPOLYLINE
  5
A3
330
70
100
AcDbEntity
  8
RACCORDO
 62
   250
420
  3355443
370
    25
100
AcDbPolyline
 90
        5
 70
     0
 43
0.0
 10
-31.28657445849986
 20
274.1541558830641
 10
-31.26079121679997
 20
274.0904199817644
 10
-31.22823808370005
 20
274.0413784084646
 10
-31.18947171200009
 20
274.0078697653642
 10
-31.15844708450008
 20
273.9938058118646
  0
LWPOLYLINE
  5
A4
330
70
100
AcDbEntity
  8
RACCORDO
 62
   250
420
  3355443
370
    25
100
AcDbPolyline
 90
       19
 70
     0
 43
0.0
 10
-42.16304618539989
 20
288.3748660051643
 10
-42.21864008200001
 20
288.2991568467642
 10
-42.27310216270015
 20
288.2128728477641
 10
-42.32560925129997
 20
288.1173181621644
 10
-42.37536772080011
 20
288.0139370669644
 10
-42.42162548860002
 20
287.9042921328641
 10
-42.46368338390011
 20
287.7900406062643
 10
-42.50090571589998
 20
287.6729093608645
 10
-42.53272988130005
 20
287.5546687961645
 10
-42.55867486860005
 20
287.4371060786641
 10
-42.57834852790002
 20
287.3219981297644
 10
-42.59145349859999
 20
287.2110847672642
 10
-42.59779170329993
 20
287.106042409764
 10
-42.59726734739997
 20
287.0084588595641
 10
-42.58988836910002
 20
286.9198089136645
 10
-42.5757662303999
 20
286.8414321963645
 10
-42.55511427439997
 20
286.7745133998642
 10
-42.52824459260011
 20
286.7200642458644
 10
-42.4955632499001
 20
286.6789078860646
  0
LWPOLYLINE
  5
A5
330
70
100
AcDbEntity
  8
RACCORDO
 62
    18
420
        0
370
    25
100
AcDbPolyline
 90
       13
 70
     0
 43
0.0
 10
60.23521576089973
 20
246.0333222854644
 10
60.44704293179988
 20
245.9827409917641
 10
60.69083374360016
 20
245.9436000228644
 10
60.9294705735999
 20
245.9258466370644
 10
61.16161574510003
 20
245.9291021896641
 10
61.38623507310018
 20
245.9529674788644
 10
61.60223128860033
 20
245.9971538231643
 10
61.80809879059976
 20
246.0610819268643
 10
62.00250906189989
 20
246.1440392742645
 10
62.1841441547
 20
246.2453090550646
 10
62.35139260749989
 20
246.3638260197646
 10
62.50281415599967
 20
246.4980777885642
 10
62.56054663900032
 20
246.5578430918642
  0
LINE
  5
A6
330
70
100
AcDbEntity
  8
RACCORDO
 62
   250
420
  3355443
370
    25
100
AcDbLine
 10
59.45035440830006
 20
246.4863408900644
 30
0.0
 11
60.09063004700009
 21
246.3264833464645
 31
0.0
  0
LINE
  5
A7
330
70
100
AcDbEntity
  8
RACCORDO
 62
    18
420
        0
370
    25
100
AcDbLine
 10
59.8277776962
 20
246.1472029364645
 30
0.0
 11
60.23486584360004
 21
246.0333500063643
 31
0.0
  0
LWPOLYLINE
  5
A8
330
70
100
AcDbEntity
  8
RACCORDO
 62
   250
420
  3355443
370
    25
100
AcDbPolyline
 90
        5
 70
     0
 43
0.0
 10
59.23644520319971
 20
246.5435577529642
 10
59.28721305380019
 20
246.5292860179644
 10
59.3395391838
 20
246.5150351031645
 10
59.39355987149983
 20
246.5008141676641
 10
59.45035440830006
 20
246.4863408900644
  0
LINE
  5
A9
330
70
100
AcDbEntity
  8
RACCORDO
 62
   250
420
  3355443
370
    25
100
AcDbLine
 10
52.36297559760015
 20
248.4967606294643
 30
0.0
 11
58.52633270120009
 21
246.7466883715646
 31
0.0
  0
LINE
  5
AA
330
70
100
AcDbEntity
  8
RACCORDO
 62
   250
420
  3355443
370
    25
100
AcDbLine
 10
58.52633270120009
 20
246.7466883715646
 30
0.0
 11
59.23644520319971
 21
246.5435577529642
 31
0.0
  0
LINE
  5
AB
330
70
100
AcDbEntity
  8
RACCORDO
 62
   250
420
  3355443
370
    25
100
AcDbLine
 10
51.26879121149982
 20
248.814077649564
 30
0.0
 11
52.36297559760015
 21
248.4967606294643
 31
0.0
  0
LINE
  5
AC
330
70
100
AcDbEntity
  8
RACCORDO
 62
   250
420
  3355443
370
    25
100
AcDbLine
 10
49.33613192290002
 20
249.3842254157643
 30
0.0
 11
50.42091967990028
 21
249.0656934946645
 31
0.0
  0
LINE
  5
AD
330
70
100
AcDbEntity
  8
RACCORDO
 62
   250
420
  3355443
370
    25
100
AcDbLine
 10
50.76487130799985
 20
248.9629956443643
 30
0.0
 11
51.26879121149982
 21
248.814077649564
 31
0.0
  0
LINE
  5
AE
330
70
100
AcDbEntity
  8
RACCORDO
 62
    18
420
        0
370
    25
100
AcDbLine
 10
51.98504120520017
 20
248.4673008754645
 30
0.0
 11
59.8277776962
 21
246.1472029364645
 31
0.0
  0
LINE
  5
AF
330
70
100
AcDbEntity
  8
RACCORDO
 62
   250
420
  3355443
370
    25
100
AcDbLine
 10
50.42091967990028
 20
249.0656934946645
 30
0.0
 11
50.76487130799985
 21
248.9629956443643
 31
0.0
  0
LINE
  5
B0
330
70
100
AcDbEntity
  8
RACCORDO
 62
   250
420
  3355443
370
    25
100
AcDbLine
 10
48.75812881099996
 20
249.5567276028641
 30
0.0
 11
49.33613192290002
 21
249.3842254157643
 31
0.0
  0
LINE
  5
B1
330
70
100
AcDbEntity
  8
RACCORDO
 62
    18
420
        0
370
    25
100
AcDbLine
 10
49.17732294189994
 20
249.312711261064
 30
0.0
 11
51.98504120520017
 21
248.4673008754645
 31
0.0
  0
LINE
  5
B2
330
70
100
AcDbEntity
  8
RACCORDO
 62
   250
420
  3355443
370
    25
100
AcDbLine
 10
48.26428019429999
 20
249.7064964093645
 30
0.0
 11
48.75812881099996
 21
249.5567276028641
 31
0.0
  0
LWPOLYLINE
  5
B3
330
70
100
AcDbEntity
  8
RACCORDO
 62
    18
420
        0
370
    25
100
AcDbPolyline
 90
        3
 70
     0
 43
0.0
 10
-31.15844708450008
 20
273.9938058118646
 10
38.38649805079999
 20
252.6315991252646
 10
49.17732294189994
 20
249.312711261064
  0
LINE
  5
B4
330
70
100
AcDbEntity
  8
RACCORDO
 62
   250
420
  3355443
370
    25
100
AcDbLine
 10
-31.28657445849986
 20
274.1541558830641
 30
0.0
 11
34.93091797909989
 21
253.8132962589646
 31
0.0
  0
LINE
  5
B5
330
70
100
AcDbEntity
  8
RACCORDO
 62
   250
420
  3355443
370
    25
100
AcDbLine
 10
34.93091797909989
 20
253.8132962589646
 30
0.0
 11
48.26428019429999
 21
249.7064964093645
 31
0.0
  0
LINE
  5
B6
330
70
100
AcDbEntity
  8
RACCORDO
 62
    18
420
        0
370
    25
100
AcDbLine
 10
-50.89562259220012
 20
280.0456356967645
 30
0.0
 11
-31.15843209300007
 21
273.9938012366641
 31
0.0
  0
LINE
  5
B7
330
70
100
AcDbEntity
  8
RACCORDO
 62
   250
420
  3355443
370
    25
100
AcDbLine
 10
-50.18968834009996
 20
279.9418526188645
 30
0.0
 11
-31.28657446580015
 21
274.1541559114645
 31
0.0
  0
LINE
  5
B8
330
70
100
AcDbEntity
  8
RACCORDO
 62
   250
420
  3355443
370
    25
100
AcDbLine
 10
-50.79126100610011
 20
280.1311309059644
 30
0.0
 11
-50.18968834009996
 21
279.9418526188645
 31
0.0
  0
LWPOLYLINE
  5
B9
330
70
100
AcDbEntity
  8
RACCORDO
 62
    18
420
        0
370
    25
100
AcDbPolyline
 90
        3
 70
     0
 43
0.0
 10
-60.21053803330004
 20
282.9996102371641
 10
-55.02237851179991
 20
281.3460359838641
 10
-50.89562259220012
 20
280.0456356967645
  0
LINE
  5
BA
330
70
100
AcDbEntity
  8
RACCORDO
 62
   250
420
  3355443
370
    25
100
AcDbLine
 10
-52.72974756109984
 20
280.749576670564
 30
0.0
 11
-51.89874095300005
 21
280.4860336916643
 31
0.0
  0
LINE
  5
BB
330
70
100
AcDbEntity
  8
RACCORDO
 62
   250
420
  3355443
370
    25
100
AcDbLine
 10
-51.89874095300005
 20
280.4860336916643
 30
0.0
 11
-50.79126100610011
 21
280.1311309059644
 31
0.0
  0
LINE
  5
BC
330
70
100
AcDbEntity
  8
RACCORDO
 62
    18
420
        0
370
    25
100
AcDbLine
 10
-61.39838822079995
 20
283.385773021064
 30
0.0
 11
-60.21053803330004
 21
282.9996102371641
 31
0.0
  0
LINE
  5
BD
330
70
100
AcDbEntity
  8
RACCORDO
 62
   250
420
  3355443
370
    25
100
AcDbLine
 10
-53.64023219429984
 20
281.0438765187641
 30
0.0
 11
-52.72974756109984
 21
280.749576670564
 31
0.0
  0
LINE
  5
BE
330
70
100
AcDbEntity
  8
RACCORDO
 62
   250
420
  3355443
370
    25
100
AcDbLine
 10
-55.3120962250001
 20
281.5934333033644
 30
0.0
 11
-53.64023219429984
 21
281.0438765187641
 31
0.0
  0
LINE
  5
BF
330
70
100
AcDbEntity
  8
RACCORDO
 62
    18
420
        0
370
    25
100
AcDbLine
 10
-61.39848891029996
 20
283.3858072604641
 30
0.0
 11
-61.39838822079995
 21
283.385773021064
 31
0.0
  0
LWPOLYLINE
  5
C0
330
70
100
AcDbEntity
  8
RACCORDO
 62
   250
420
  3355443
370
    25
100
AcDbPolyline
 90
        4
 70
     0
 43
0.0
 10
-60.9258703190001
 20
283.4519606613646
 10
-60.86782693349987
 20
283.4310727205641
 10
-60.81290964529994
 20
283.4119641368642
 10
-55.3120962250001
 20
281.5934333033644
  0
LINE
  5
C1
330
70
100
AcDbEntity
  8
RACCORDO
 62
   250
420
  3355443
370
    25
100
AcDbLine
 10
-61.56247770159989
 20
283.6849734580646
 30
0.0
 11
-60.9258703190001
 21
283.4519606613646
 31
0.0
  0
LINE
  5
C2
330
70
100
AcDbEntity
  8
RACCORDO
 62
   250
420
  3355443
370
    25
100
AcDbLine
 10
-26.23325198389989
 20
286.8407282828642
 30
0.0
 11
-26.20882045140006
 21
285.8586191212645
 31
0.0
  0
LINE
  5
C3
330
70
100
AcDbEntity
  8
RACCORDO
 62
    18
420
        0
370
    25
100
AcDbLine
 10
-26.20663884370013
 20
286.8941579692645
 30
0.0
 11
-26.18355243830015
 21
285.9661207999646
 31
0.0
  0
LWPOLYLINE
  5
C4
330
70
100
AcDbEntity
  8
RACCORDO
 62
    18
420
        0
370
    25
100
AcDbPolyline
 90
        4
 70
     0
 43
0.0
 10
-26.18357229300008
 20
285.9661191500645
 10
-26.18769531590015
 20
285.9241513698642
 10
-26.19822717189991
 20
285.8847133059644
 10
-26.21479173879993
 20
285.8500281701646
  0
LWPOLYLINE
  5
C5
330
70
100
AcDbEntity
  8
RACCORDO
 62
    18
420
        0
370
    25
100
AcDbPolyline
 90
        3
 70
     0
 43
0.0
 10
-26.20665884029993
 20
286.8941620214643
 10
-26.2114793006999
 20
286.8802301305647
 10
-26.22248421900005
 20
286.8598084287644
  0
LWPOLYLINE
  5
C6
330
70
100
AcDbEntity
  8
RACCORDO
 62
   250
420
  3355443
370
    25
100
AcDbPolyline
 90
       19
 70
     0
 43
0.0
 10
-42.43603348220005
 20
288.6895258700644
 10
-42.49802612839997
 20
288.6221973253645
 10
-42.5723708408
 20
288.559949330364
 10
-42.65795945419995
 20
288.5037097391642
 10
-42.75351620469989
 20
288.4543168461641
 10
-42.85761674559999
 20
288.4125068903641
 10
-42.96870937830012
 20
288.3789030811644
 10
-43.08513818180003
 20
288.3540063092642
 10
-43.20516769530007
 20
288.338187680064
 10
-43.32700878689995
 20
288.3316829824646
 10
-43.44884532150009
 20
288.3345891739642
 10
-43.56886123190004
 20
288.3468629354642
 10
-43.68526758890006
 20
288.3683213172644
 10
-43.79632919749993
 20
288.3986444434644
 10
-43.90039067679986
 20
288.4373803360645
 10
-43.99590108619995
 20
288.4839517037643
 10
-44.08143676410007
 20
288.5376644419643
 10
-44.15572260129985
 20
288.5977179261645
 10
-44.21765122989989
 20
288.6632170367643
  0
LINE
  5
C7
330
70
100
AcDbEntity
  8
RACCORDO
 62
   250
420
  3355443
370
    25
100
AcDbLine
 10
37.59363866449974
 20
261.2943137986647
 30
0.0
 11
36.64838651099985
 21
261.5711251346645
 31
0.0
  0
LINE
  5
C8
330
70
100
AcDbEntity
  8
RACCORDO
 62
   250
420
  3355443
370
    25
100
AcDbLine
 10
36.64838651099985
 20
261.5711251346645
 30
0.0
 11
34.68163514179988
 21
262.1627882511644
 31
0.0
  0
LINE
  5
C9
330
70
100
AcDbEntity
  8
RACCORDO
 62
   250
420
  3355443
370
    25
100
AcDbLine
 10
-32.79535786440013
 20
282.8907979210642
 30
0.0
 11
-38.2618642177
 21
284.5612872669645
 31
0.0
  0
LINE
  5
CA
330
70
100
AcDbEntity
  8
RACCORDO
 62
   250
420
  3355443
370
    25
100
AcDbLine
 10
-33.09534172900004
 20
283.7916234632642
 30
0.0
 11
-42.4955632499001
 21
286.6789078860646
 31
0.0
  0
LINE
  5
CB
330
70
100
AcDbEntity
  8
RACCORDO
 62
   250
420
  3355443
370
    25
100
AcDbLine
 10
37.30843130790027
 20
262.1718742950642
 30
0.0
 11
-33.09813153489999
 21
283.7924801856642
 31
0.0
  0
LWPOLYLINE
  5
CC
330
70
100
AcDbEntity
  8
RACCORDO
 62
   250
420
  3355443
370
    25
100
AcDbPolyline
 90
        3
 70
     0
 43
0.0
 10
34.68163514179988
 20
262.1627882511644
 10
31.54872822820028
 20
263.1249258757645
 10
-32.7953583555999
 20
282.8908024348645
  0
LWPOLYLINE
  5
CD
330
70
100
AcDbEntity
  8
RACCORDO
 62
   250
420
  3355443
370
    25
100
AcDbPolyline
 90
        4
 70
     0
 43
0.0
 10
-38.2618642177
 20
284.5612872669645
 10
-40.27418676219993
 20
285.1852374388644
 10
-41.24208192330016
 20
285.4905438670641
 10
-42.1829558689001
 20
285.7929347024647
  0
LWPOLYLINE
  5
CE
330
70
100
AcDbEntity
  8
RACCORDO
 62
   250
420
  3355443
370
    25
100
AcDbPolyline
 90
       76
 70
     0
 43
0.0
 10
-42.4955632499001
 20
286.6789078860646
 10
-42.54497375649988
 20
286.694667470964
 10
-42.59275659490014
 20
286.7111097597641
 10
-42.63887099890004
 20
286.7281002578642
 10
-42.6831538942
 20
286.7454599042641
 10
-42.72570998890016
 20
286.7631106477642
 10
-42.76690986479994
 20
286.7811042090644
 10
-42.80671258319986
 20
286.7993433910643
 10
-42.84513225419998
 20
286.8177543218645
 10
-42.88262453409993
 20
286.8364829743643
 10
-42.91943513609993
 20
286.8556105792641
 10
-42.95530259530005
 20
286.874966813264
 10
-42.98992751180006
 20
286.8943357054641
 10
-43.02322309289989
 20
286.9136044374645
 10
-43.05528667949995
 20
286.9327677530641
 10
-43.08610376899983
 20
286.951759130564
 10
-43.11563230210004
 20
286.9704935907642
 10
-43.14393593870009
 20
286.9889541756643
 10
-43.17115836109991
 20
287.0071844836646
 10
-43.19730157179998
 20
287.0251396867644
 10
-43.22238604609988
 20
287.0427885538646
 10
-43.2465782722
 20
287.0602086398642
 10
-43.26994844619995
 20
287.0774160016645
 10
-43.29244566089989
 20
287.0943410874645
 10
-43.3140522630001
 20
287.1109392202642
 10
-43.33466387009991
 20
287.1270933291646
 10
-43.35440958850004
 20
287.1428690698641
 10
-43.3736149506999
 20
287.1585048654643
 10
-43.39226848680016
 20
287.1739750692644
 10
-43.41039126770009
 20
287.1892780000642
 10
-43.42834241660015
 20
287.2047061100642
 10
-43.44616765700014
 20
287.2202984779644
 10
-43.46381502439998
 20
287.2360094383643
 10
-43.48148433750013
 20
287.2520184424642
 10
-43.49918894590003
 20
287.2683466281644
 10
-43.51689949560012
 20
287.2849754542646
 10
-43.53474322899991
 20
287.3020332757644
 10
-43.55273739250002
 20
287.319552411764
 10
-43.57084000059987
 20
287.3375093857644
 10
-43.58908416750013
 20
287.3559533799646
 10
-43.6073860777
 20
287.3748168147644
 10
-43.62580159030001
 20
287.3941756051643
 10
-43.64456203029987
 20
287.4143012635641
 10
-43.66369819180013
 20
287.4352670346641
 10
-43.68312399740008
 20
287.4570205305645
 10
-43.70288109090004
 20
287.4796523115641
 10
-43.72298916019992
 20
287.5032365263642
 10
-43.74335710170017
 20
287.5277204004646
 10
-43.76385950309994
 20
287.5530026430646
 10
-43.78440019810004
 20
287.5790095872645
 10
-43.80500810000009
 20
287.605824686564
 10
-43.82574195129985
 20
287.6335813432645
 10
-43.84655848920001
 20
287.662287948064
 10
-43.86740827229984
 20
287.6919458902641
 10
-43.88832497179989
 20
287.7226811431642
 10
-43.90924942329994
 20
287.7544965048641
 10
-43.93012060750005
 20
287.7873938566644
 10
-43.95095129029995
 20
287.8214993837644
 10
-43.97165986220007
 20
287.8568008967643
 10
-43.99217439800001
 20
287.8933052182641
 10
-44.01249866829994
 20
287.9311671325642
 10
-44.03253053619984
 20
287.9703695946646
 10
-44.05217272480012
 20
288.0109077653642
 10
-44.0714047043001
 20
288.0529525542646
 10
-44.0901407868999
 20
288.0965773020641
 10
-44.10820247549989
 20
288.1416602709645
 10
-44.12541532320008
 20
288.1880718335642
 10
-44.14162030869994
 20
288.2356770295643
 10
-44.15670801990013
 20
288.2845215308647
 10
-44.17055703439998
 20
288.3347291319642
 10
-44.18297413619998
 20
288.3861656999642
 10
-44.19380682440016
 20
288.4388101337641
 10
-44.20292362100002
 20
288.492926694464
 10
-44.2101062804001
 20
288.5485177043643
 10
-44.21509629549985
 20
288.6053307736645
 10
-44.21765122989989
 20
288.6632170367643
  0
LWPOLYLINE
  5
CF
330
70
100
AcDbEntity
  8
RACCORDO
 62
   250
420
  3355443
370
    25
100
AcDbPolyline
 90
       76
 70
     0
 43
0.0
 10
-42.18295496559994
 20
285.7929359408642
 10
-42.27847655769987
 20
285.8251152004645
 10
-42.37087093890012
 20
285.8584767362644
 10
-42.46004440769988
 20
285.8927560180646
 10
-42.54571514789996
 20
285.9277556127644
 10
-42.62793756000006
 20
285.9631033794644
 10
-42.70712120770011
 20
285.9983064016646
 10
-42.78286863310014
 20
286.0327807118646
 10
-42.85493986450003
 20
286.0665014691644
 10
-42.92389249150015
 20
286.0998728684644
 10
-42.99034001140017
 20
286.1330522020645
 10
-43.05449816839993
 20
286.1660376545644
 10
-43.11660750890009
 20
286.1991794944643
 10
-43.17667553200002
 20
286.2324867251642
 10
-43.23466034769999
 20
286.2657297421642
 10
-43.29046749429985
 20
286.2987645370645
 10
-43.34403902709987
 20
286.3314593482643
 10
-43.39551546009988
 20
286.3637972909641
 10
-43.44513884410006
 20
286.3958432016642
 10
-43.49276612170014
 20
286.427422239364
 10
-43.53833892649986
 20
286.4584054412642
 10
-43.5821816141001
 20
286.4889264434644
 10
-43.62465228079995
 20
286.519103803964
 10
-43.66613035459998
 20
286.5492474997641
 10
-43.70714040489984
 20
286.5799447441641
 10
-43.74753555480005
 20
286.6112487872643
 10
-43.78713099609991
 20
286.6427784192646
 10
-43.82615075570011
 20
286.6743021028643
 10
-43.86441916970011
 20
286.7055437765641
 10
-43.90178376540003
 20
286.736462972764
 10
-43.93855439899986
 20
286.7672522612646
 10
-43.9747302442001
 20
286.7978656809644
 10
-44.01029078800008
 20
286.8283035579645
 10
-44.04554976300006
 20
286.8588837385646
 10
-44.08047471649997
 20
286.8895756697644
 10
-44.11491099809988
 20
286.920245054164
 10
-44.14892460040014
 20
286.9510182772645
 10
-44.18253332959999
 20
286.981915663264
 10
-44.21597412140014
 20
287.0131759627643
 10
-44.24971587659992
 20
287.0453585899646
 10
-44.28374536400012
 20
287.0785189199641
 10
-44.31805971129997
 20
287.112664798564
 10
-44.35303698999997
 20
287.1482288380641
 10
-44.3887211746001
 20
287.1853206447646
 10
-44.42496793920002
 20
287.2238686967642
 10
-44.46186478889995
 20
287.2640664457641
 10
-44.49945936639993
 20
287.3060600124645
 10
-44.53758000709985
 20
287.3497545452643
 10
-44.57597648889985
 20
287.3949723414644
 10
-44.61446737609991
 20
287.4415803659644
 10
-44.65310904489991
 20
287.4897316376646
 10
-44.69200115469996
 20
287.5396755952642
 10
-44.73106637310008
 20
287.5914312989642
 10
-44.77021403709996
 20
287.6450060118643
 10
-44.80949423519992
 20
287.7006371971644
 10
-44.84879901759989
 20
287.7583314197646
 10
-44.88800714420014
 20
287.8180849859644
 10
-44.9271129965001
 20
287.8801186701642
 10
-44.96596630130001
 20
287.9444132970645
 10
-45.00444541399999
 20
288.0110018939644
 10
-45.04254629600008
 20
288.0801888164642
 10
-45.08009019999994
 20
288.151928697664
 10
-45.11683568610008
 20
288.2261285452646
 10
-45.15261584839989
 20
288.3029818216645
 10
-45.18703497139999
 20
288.382501605364
 10
-45.2201225317001
 20
288.4648287971641
 10
-45.25232140540014
 20
288.5504562236647
 10
-45.28360863049996
 20
288.6395187282645
 10
-45.31345672319988
 20
288.7319140529644
 10
-45.34146799319997
 20
288.8277545880645
 10
-45.36728532499995
 20
288.9267764100644
 10
-45.39041498839996
 20
289.0286576750645
 10
-45.41015473619993
 20
289.1332808043642
 10
-45.42594818360003
 20
289.2403459375641
 10
-45.43744748649987
 20
289.3495466113645
 10
-45.44420956699994
 20
289.4606757660641
  0
LWPOLYLINE
  5
D0
330
70
100
AcDbEntity
  8
RACCORDO
 62
    18
420
        0
370
    25
100
AcDbPolyline
 90
        3
 70
     0
 43
0.0
 10
-26.21666646290008
 20
286.9075471999645
 10
-26.20911966450011
 20
286.9031623627645
 10
-26.20665884029993
 20
286.8941620214643
  0
LINE
  5
D1
330
70
100
AcDbEntity
  8
RACCORDO
 62
    18
420
        0
370
    25
100
AcDbLine
 10
-26.22248421900005
 20
286.8598084287644
 30
0.0
 11
-26.23922524449993
 21
286.8322166514645
 31
0.0
  0
LINE
  5
D2
330
70
100
AcDbEntity
  8
RACCORDO
 62
    18
420
        0
370
    25
100
AcDbLine
 10
-26.20882045140006
 20
285.8586191212645
 30
0.0
 11
-26.47432736710011
 21
285.476631660464
 31
0.0
  0
LINE
  5
D3
330
70
100
AcDbEntity
  8
RACCORDO
 62
    18
420
        0
370
    25
100
AcDbLine
 10
-26.23922524449993
 20
286.8322166514645
 30
0.0
 11
-26.3479536661
 21
286.6772834750642
 31
0.0
  0
LINE
  5
D4
330
70
100
AcDbEntity
  8
RACCORDO
 62
    18
420
        0
370
    25
100
AcDbLine
 10
-31.57684468709993
 20
288.4816938335644
 30
0.0
 11
-31.71781544390016
 21
288.326316003964
 31
0.0
  0
LWPOLYLINE
  5
D5
330
70
100
AcDbEntity
  8
RACCORDO
 62
    18
420
        0
370
    25
100
AcDbPolyline
 90
        5
 70
     0
 43
0.0
 10
28.70087690819981
 20
270.0438252066643
 10
28.66957213769972
 20
270.0505990313644
 10
28.62238821529976
 20
270.0512175559641
 10
28.57938660219992
 20
270.0407494564645
 10
28.54335210589967
 20
270.0193638402642
  0
LWPOLYLINE
  5
D6
330
70
100
AcDbEntity
  8
RACCORDO
 62
    18
420
        0
370
    25
100
AcDbPolyline
 90
        5
 70
     0
 43
0.0
 10
8.665633329000016
 20
276.004097650364
 10
8.634328558499921
 20
276.0108714750641
 10
8.587144636099973
 20
276.0114899996644
 10
8.544143023000124
 20
276.0010219001642
 10
8.508108526699878
 20
275.9796362839645
  0
LWPOLYLINE
  5
D7
330
70
100
AcDbEntity
  8
RACCORDO
 62
    18
420
        0
370
    25
100
AcDbPolyline
 90
        5
 70
     0
 43
0.0
 10
-11.37443226869988
 20
282.1582076480644
 10
-11.40573703919997
 20
282.1649814728646
 10
-11.45292096159993
 20
282.1655999973641
 10
-11.49592257470009
 20
282.1551318978647
 10
-11.53195707100002
 20
282.1337462817644
  0
LWPOLYLINE
  5
D8
330
70
100
AcDbEntity
  8
RACCORDO
 62
    18
420
        0
370
    25
100
AcDbPolyline
 90
        5
 70
     0
 43
0.0
 10
-31.41931988480011
 20
288.5061551998644
 10
-31.45062465529988
 20
288.5129290246645
 10
-31.49780857770015
 20
288.5135475491641
 10
-31.5408101908
 20
288.5030794496646
 10
-31.57684468709993
 20
288.4816938335644
  0
LINE
  5
D9
330
70
100
AcDbEntity
  8
RACCORDO
 62
   250
420
  3355443
370
    25
100
AcDbLine
 10
-11.53929833270002
 20
282.1256547502646
 30
0.0
 11
-6.194337628400024
 21
280.4842690996646
 31
0.0
  0
LINE
  5
DA
330
70
100
AcDbEntity
  8
RACCORDO
 62
   250
420
  3355443
370
    25
100
AcDbLine
 10
8.500767264899771
 20
275.9715447524641
 30
0.0
 11
13.84572796930019
 21
274.3301591019642
 31
0.0
  0
LINE
  5
DB
330
70
100
AcDbEntity
  8
RACCORDO
 62
    18
420
        0
370
    25
100
AcDbLine
 10
-11.37493424840001
 20
282.1574382823645
 30
0.0
 11
-6.171944237200131
 21
280.5596504562646
 31
0.0
  0
LINE
  5
DC
330
70
100
AcDbEntity
  8
RACCORDO
 62
    18
420
        0
370
    25
100
AcDbLine
 10
8.665131349199784
 20
276.0033282846641
 30
0.0
 11
13.86812136049977
 21
274.4055404584641
 31
0.0
  0
LINE
  5
DD
330
70
100
AcDbEntity
  8
RACCORDO
 62
   250
420
  3355443
370
    25
100
AcDbLine
 10
-31.58418594879993
 20
288.4736023020646
 30
0.0
 11
-26.23922524449993
 21
286.8322166514645
 31
0.0
  0
LINE
  5
DE
330
70
100
AcDbEntity
  8
RACCORDO
 62
   250
420
  3355443
370
    25
100
AcDbLine
 10
28.53601084410021
 20
270.0112723087644
 30
0.0
 11
33.88097154849999
 21
268.3698866582645
 31
0.0
  0
LINE
  5
DF
330
70
100
AcDbEntity
  8
RACCORDO
 62
    18
420
        0
370
    25
100
AcDbLine
 10
-31.41982186460002
 20
288.5053858341645
 30
0.0
 11
-26.21683185330003
 21
286.9075980080645
 31
0.0
  0
LINE
  5
E0
330
70
100
AcDbEntity
  8
RACCORDO
 62
    18
420
        0
370
    25
100
AcDbLine
 10
28.70037492840022
 20
270.0430558409644
 30
0.0
 11
33.9033649397002
 21
268.4452680148645
 31
0.0
  0
LWPOLYLINE
  5
E1
330
70
100
AcDbEntity
  8
RACCORDO
 62
    18
420
        0
370
    25
100
AcDbPolyline
 90
        3
 70
     0
 43
0.0
 10
-6.171778846799849
 20
280.5595996481646
 10
-6.164232048399882
 20
280.5552148109646
 10
-6.161771224200026
 20
280.5462144696644
  0
LWPOLYLINE
  5
E2
330
70
100
AcDbEntity
  8
RACCORDO
 62
   250
420
  3355443
370
    25
100
AcDbPolyline
 90
       10
 70
     0
 43
0.0
 10
-45.07790383279996
 20
323.2438351607643
 10
-45.17386373219989
 20
323.3503904071644
 10
-45.28113990590013
 20
323.4525266611644
 10
-45.39926125280005
 20
323.5497953100643
 10
-45.52770904600001
 20
323.6417691215643
 10
-45.66591921060008
 20
323.7280441203645
 10
-45.81328480069998
 20
323.8082413621642
 10
-45.96915866529987
 20
323.8820085979643
 10
-46.13285628960005
 20
323.9490218210644
 10
-46.30365880129989
 20
324.0089866897644
  0
LINE
  5
E3
330
70
100
AcDbEntity
  8
RACCORDO
 62
   250
420
  3355443
370
    25
100
AcDbLine
 10
-6.188364367799986
 20
280.4927807310642
 30
0.0
 11
-6.168754853699836
 21
279.7045091235641
 31
0.0
  0
LINE
  5
E4
330
70
100
AcDbEntity
  8
RACCORDO
 62
    18
420
        0
370
    25
100
AcDbLine
 10
-6.161751227599907
 20
280.5462104174647
 30
0.0
 11
-6.143486840700036
 21
279.8120108022642
 31
0.0
  0
LWPOLYLINE
  5
E5
330
70
100
AcDbEntity
  8
RACCORDO
 62
    18
420
        0
370
    25
100
AcDbPolyline
 90
        3
 70
     0
 43
0.0
 10
13.86828675090005
 20
274.4054896504642
 10
13.87583354920023
 20
274.4011048132642
 10
13.87829437349987
 20
274.3921044719641
  0
LWPOLYLINE
  5
E6
330
70
100
AcDbEntity
  8
RACCORDO
 62
    18
420
        0
370
    25
100
AcDbPolyline
 90
        3
 70
     0
 43
0.0
 10
33.90353033009984
 20
268.4452172067645
 10
33.91107712840002
 20
268.4408323695645
 10
33.91353795269966
 20
268.4318320282644
  0
LWPOLYLINE
  5
E7
330
70
100
AcDbEntity
  8
RACCORDO
 62
    18
420
        0
370
    25
100
AcDbPolyline
 90
        4
 70
     0
 43
0.0
 10
-6.143506695399964
 20
279.8120091523642
 10
-6.147629718300034
 20
279.7700413721645
 10
-6.158161574200006
 20
279.730603308264
 10
-6.174726141200137
 20
279.6959181724642
  0
LWPOLYLINE
  5
E8
330
70
100
AcDbEntity
  8
RACCORDO
 62
    18
420
        0
370
    25
100
AcDbPolyline
 90
        3
 70
     0
 43
0.0
 10
-6.161771224200026
 20
280.5462144696644
 10
-6.166591684499896
 20
280.5322825787641
 10
-6.177596602900142
 20
280.5118608769645
  0
LWPOLYLINE
  5
E9
330
70
100
AcDbEntity
  8
RACCORDO
 62
   250
420
  3355443
370
    25
100
AcDbPolyline
 90
       10
 70
     0
 43
0.0
 10
38.08867853929978
 20
297.7041872243643
 10
38.28596411099974
 20
297.7206834860644
 10
38.48443701009989
 20
297.7289222491644
 10
38.68322567230002
 20
297.7288673293643
 10
38.88145714669994
 20
297.7205189625642
 10
39.07826092919986
 20
297.7039138043642
 10
39.2727727852003
 20
297.6791247684644
 10
39.46413854480026
 20
297.6462607073644
 10
39.65151785359987
 20
297.6054659332643
 10
39.83408786320021
 20
297.5569195852644
  0
LINE
  5
EA
330
70
100
AcDbEntity
  8
RACCORDO
 62
   250
420
  3355443
370
    25
100
AcDbLine
 10
63.68172402079992
 20
275.0834192320641
 30
0.0
 11
63.4625053761002
 21
275.1507391541641
 31
0.0
  0
LINE
  5
EB
330
70
100
AcDbEntity
  8
RACCORDO
 62
   250
420
  3355443
370
    25
100
AcDbLine
 10
63.43901749230004
 20
275.844661637864
 30
0.0
 11
64.25089782869972
 21
275.5953410519641
 31
0.0
  0
LINE
  5
EC
330
70
100
AcDbEntity
  8
RACCORDO
 62
    18
420
        0
370
    25
100
AcDbLine
 10
63.43662676199993
 20
275.9407652340644
 30
0.0
 11
64.3903599108
 21
275.6478830237643
 31
0.0
  0
LINE
  5
ED
330
70
100
AcDbEntity
  8
RACCORDO
 62
    18
420
        0
370
    25
100
AcDbLine
 10
-6.177596602900142
 20
280.5118608769645
 30
0.0
 11
-6.194337628400024
 21
280.4842690996646
 31
0.0
  0
LINE
  5
EE
330
70
100
AcDbEntity
  8
RACCORDO
 62
    18
420
        0
370
    25
100
AcDbLine
 10
-6.168754853699836
 20
279.7045091235641
 30
0.0
 11
-6.434261769399884
 21
279.3225216627643
 31
0.0
  0
LWPOLYLINE
  5
EF
330
70
100
AcDbEntity
  8
RACCORDO
 62
   250
420
  3355443
370
    25
100
AcDbPolyline
 90
       13
 70
     0
 43
0.0
 10
-43.34771529859994
 20
323.2401053744642
 10
-43.38616744379993
 20
323.2590388665644
 10
-43.42177242900014
 20
323.2927812788643
 10
-43.45182100390001
 20
323.3401762322642
 10
-43.47585899450002
 20
323.4005073680645
 10
-43.49352307449991
 20
323.4728628014643
 10
-43.50454625750002
 20
323.5561489045643
 10
-43.50876193050011
 20
323.6491067018645
 10
-43.50610639529986
 20
323.7503312790642
 10
-43.49661973589996
 20
323.8582931233642
 10
-43.48044523030011
 20
323.9713606509644
 10
-43.45782728190008
 20
324.0878247640643
 10
-43.42910768410003
 20
324.2059251344644
  0
LWPOLYLINE
  5
F0
330
70
100
AcDbEntity
  8
RACCORDO
 62
   250
420
  3355443
370
    25
100
AcDbPolyline
 90
       10
 70
     0
 43
0.0
 10
37.30843249429977
 20
262.1718773993641
 10
37.3591476560997
 20
262.1142262439644
 10
37.40547018229996
 20
262.0458365748644
 10
37.4472160015003
 20
261.9669800111641
 10
37.4842192162998
 20
261.877969737764
 10
37.51633276240009
 20
261.779159260664
 10
37.54342899289988
 20
261.6709410035641
 10
37.56540018449998
 20
261.5537447496643
 10
37.5821589659002
 20
261.4280359346642
 10
37.59363866449974
 20
261.2943137986647
  0
LINE
  5
F1
330
70
100
AcDbEntity
  8
RACCORDO
 62
   250
420
  3355443
370
    25
100
AcDbLine
 10
13.85170122989991
 20
274.3386707333645
 30
0.0
 11
13.87131074400006
 21
273.5503991257642
 31
0.0
  0
LINE
  5
F2
330
70
100
AcDbEntity
  8
RACCORDO
 62
    18
420
        0
370
    25
100
AcDbLine
 10
13.87831437000021
 20
274.3921004196641
 30
0.0
 11
13.89657875700018
 21
273.6579008044643
 31
0.0
  0
LINE
  5
F3
330
70
100
AcDbEntity
  8
RACCORDO
 62
   250
420
  3355443
370
    25
100
AcDbLine
 10
-43.47923492220002
 20
324.2208901417642
 30
0.0
 11
-43.42910768410003
 21
324.2059251344644
 31
0.0
  0
LINE
  5
F4
330
70
100
AcDbEntity
  8
RACCORDO
 62
   250
420
  3355443
370
    25
100
AcDbLine
 10
-43.1771184843999
 20
325.7566679085644
 30
0.0
 11
-41.26477727920013
 21
325.1849422410643
 31
0.0
  0
LINE
  5
F5
330
70
100
AcDbEntity
  8
RACCORDO
 62
   250
420
  3355443
370
    25
100
AcDbLine
 10
-41.26477727920013
 20
325.1849422410643
 30
0.0
 11
-37.13142750419996
 21
323.9270339618643
 31
0.0
  0
LINE
  5
F6
330
70
100
AcDbEntity
  8
RACCORDO
 62
   250
420
  3355443
370
    25
100
AcDbLine
 10
-37.13142750419996
 20
323.9270339618643
 30
0.0
 11
27.22005924289996
 21
304.1704308404643
 31
0.0
  0
LINE
  5
F7
330
70
100
AcDbEntity
  8
RACCORDO
 62
   250
420
  3355443
370
    25
100
AcDbLine
 10
26.9763079060997
 20
302.5882343149642
 30
0.0
 11
36.37488687359992
 21
299.6988915434642
 31
0.0
  0
LINE
  5
F8
330
70
100
AcDbEntity
  8
RACCORDO
 62
   250
420
  3355443
370
    25
100
AcDbLine
 10
-43.42910768410003
 20
324.2059251344644
 30
0.0
 11
26.97909771200028
 21
302.5873775925644
 31
0.0
  0
LINE
  5
F9
330
70
100
AcDbEntity
  8
RACCORDO
 62
   250
420
  3355443
370
    25
100
AcDbLine
 10
27.2200594876998
 20
304.1704362765642
 30
0.0
 11
33.69320071330023
 21
302.1704200992643
 31
0.0
  0
LWPOLYLINE
  5
FA
330
70
100
AcDbEntity
  8
RACCORDO
 62
   250
420
  3355443
370
    25
100
AcDbPolyline
 90
        3
 70
     0
 43
0.0
 10
33.69320071330023
 20
302.1704200992643
 10
35.65586117079984
 20
301.5570030688644
 10
36.5994779365997
 20
301.2580493702643
  0
LWPOLYLINE
  5
FB
330
70
100
AcDbEntity
  8
RACCORDO
 62
   250
420
  3355443
370
    25
100
AcDbPolyline
 90
       76
 70
     0
 43
0.0
 10
36.37488687359992
 20
299.6988915434642
 10
36.42440684769979
 20
299.6832691364644
 10
36.47225088059988
 20
299.6669035329644
 10
36.51837818460017
 20
299.6499292004644
 10
36.56261889340017
 20
299.6325166884643
 10
36.60508451779998
 20
299.6147525730642
 10
36.64616602320014
 20
299.5966106768643
 10
36.68581711359972
 20
299.5781814838642
 10
36.72405731519975
 20
299.5595456529642
 10
36.76137877580008
 20
299.5406029398644
 10
36.79803792759979
 20
299.5212855469644
 10
36.83376255800011
 20
299.5017503284643
 10
36.86825750770025
 20
299.4822185696643
 10
36.90143826279986
 20
299.4628059446644
 10
36.93339986089989
 20
299.4435148231643
 10
36.96412516630021
 20
299.4244084274643
 10
36.99357234300008
 20
299.4055720162644
 10
37.02180481459976
 20
299.3870222516644
 10
37.04896294610009
 20
299.3687113782643
 10
37.07504811220007
 20
299.3506834371642
 10
37.10008140999987
 20
299.3329704388644
 10
37.12422788779978
 20
299.3154930236642
 10
37.14756084240006
 20
299.2982390209645
 10
37.17002626190017
 20
299.2812740911643
 10
37.19159574689973
 20
299.2646294455644
 10
37.21216573139999
 20
299.2484231775642
 10
37.23186450830001
 20
299.2325886127643
 10
37.25100442859987
 20
299.2168708093641
 10
37.26956847859991
 20
299.2012884668644
 10
37.28758329640026
 20
299.1858502432643
 10
37.30541149629986
 20
299.1702680609644
 10
37.32309848499973
 20
299.1545024444642
 10
37.34059264410016
 20
299.1385994927642
 10
37.35809827220025
 20
299.1223853683644
 10
37.37562739460011
 20
299.1058372743644
 10
37.39315200939983
 20
299.0889754457644
 10
37.41080783699991
 20
299.0716821520645
 10
37.42861361680007
 20
299.0539269449644
 10
37.4465258746998
 20
299.0357314356641
 10
37.46458171309971
 20
299.0170514396642
 10
37.48269906479969
 20
298.9979567271644
 10
37.50093203370005
 20
298.9783691840645
 10
37.51951067400024
 20
298.9580157052645
 10
37.53846509390025
 20
298.9368221864644
 10
37.55770990069996
 20
298.9148418738642
 10
37.57728752530005
 20
298.8919851933642
 10
37.59721713770017
 20
298.8681773469642
 10
37.61740814870022
 20
298.8434717543644
 10
37.63773747789997
 20
298.8179726282645
 10
37.65810947689981
 20
298.7917542842645
 10
37.67855253079986
 20
298.7647326074644
 10
37.69912614120001
 20
298.7367751464644
 10
37.71978689800023
 20
298.7078733261643
 10
37.74048549629976
 20
298.6780259283644
 10
37.76125678989976
 20
298.6471084615642
 10
37.78204132960021
 20
298.6151177709644
 10
37.80277836879984
 20
298.5820523167643
 10
37.82348268900007
 20
298.5477884395643
 10
37.8440725743997
 20
298.5123381957643
 10
37.86447619150007
 20
298.4756948777642
 10
37.8846996205003
 20
298.4377065951643
 10
37.90463981419994
 20
298.3983892524643
 10
37.9242003914997
 20
298.3577488113644
 10
37.94336583649991
 20
298.3156206456643
 10
37.96205346240026
 20
298.2719351746643
 10
37.98008175679999
 20
298.2268103582644
 10
37.99727226489998
 20
298.1803708010643
 10
38.01347778609981
 20
298.1327662763642
 10
38.0285770851003
 20
298.0839362960643
 10
38.04240926460018
 20
298.0337075985644
 10
38.0547697615998
 20
297.9822000968642
 10
38.06551744070016
 20
297.9294491346644
 10
38.07451543039981
 20
297.8751836923642
 10
38.0815437129001
 20
297.8193992265643
 10
38.08634562590023
 20
297.7623504390645
 10
38.08867878210008
 20
297.7041862569642
  0
LWPOLYLINE
  5
FC
330
70
100
AcDbEntity
  8
RACCORDO
 62
   250
420
  3355443
370
    25
100
AcDbPolyline
 90
       76
 70
     0
 43
0.0
 10
36.5994788273999
 20
301.2580503800644
 10
36.69527398390019
 20
301.2262139347644
 10
36.7877501682003
 20
301.1929549097643
 10
36.87682966530003
 20
301.1585578681643
 10
36.96221682949969
 20
301.1232029131644
 10
37.04397740049991
 20
301.0872763950642
 10
37.12257397280017
 20
301.0513376855643
 10
37.19772048010017
 20
301.0161103409643
 10
37.26923723130018
 20
300.9816947425642
 10
37.33769517499996
 20
300.9477034360643
 10
37.40370970360006
 20
300.9139815039644
 10
37.46749993900002
 20
300.8805349942644
 10
37.5292897556001
 20
300.8469927462642
 10
37.5890786959998
 20
300.8133357861644
 10
37.6468260554002
 20
300.7797952032643
 10
37.70242648399987
 20
300.7465013617644
 10
37.75581547039997
 20
300.7135777944642
 10
37.80713065840019
 20
300.6810377892644
 10
37.85661272390022
 20
300.6488147867644
 10
37.90412252099971
 20
300.6170885294645
 10
37.9496034549999
 20
300.5859902006644
 10
37.99337595590013
 20
300.5553812447643
 10
38.03579049330018
 20
300.5251335463644
 10
38.07721326530021
 20
300.4949205497644
 10
38.1181537950998
 20
300.4641361864644
 10
38.15843157320003
 20
300.4326850600642
 10
38.19784047259971
 20
300.4009216650644
 10
38.23659608779995
 20
300.3690669716645
 10
38.2745295571
 20
300.3374055655641
 10
38.31149699980004
 20
300.3059886811644
 10
38.34781848510026
 20
300.2746365471643
 10
38.38350282799984
 20
300.2434072064644
 10
38.4185348428001
 20
300.2123070087643
 10
38.45322647299978
 20
300.1810158659642
 10
38.48755966620024
 20
300.1495823764644
 10
38.52139902779988
 20
300.1181649679643
 10
38.55481764409992
 20
300.0866461444644
 10
38.58783842389979
 20
300.0550119756642
 10
38.62069797009998
 20
300.0230232943642
 10
38.65386155079987
 20
299.9901161338643
 10
38.68732118309975
 20
299.9562416958642
 10
38.72107427599987
 20
299.9213924870641
 10
38.75548893560007
 20
299.8851234072643
 10
38.79060734799986
 20
299.8473226092644
 10
38.82628898480005
 20
299.8080663729644
 10
38.86262138569996
 20
299.7671612909644
 10
38.89965360990024
 20
299.7244630170643
 10
38.93721744930009
 20
299.6800707343644
 10
38.9750655091998
 20
299.6341656890644
 10
39.01301940200019
 20
299.5868847355644
 10
39.05113581939991
 20
299.5380752507642
 10
39.08951330339987
 20
299.4874863950643
 10
39.12807681430026
 20
299.4351019817642
 10
39.16673768719981
 20
299.3809172517644
 10
39.20554510409982
 20
299.3246936055642
 10
39.24439412690012
 20
299.2664282526643
 10
39.28316701060012
 20
299.2061292662644
 10
39.3218586685003
 20
299.1435765386643
 10
39.36032155850023
 20
299.0787926675645
 10
39.39843623590028
 20
299.0117473823643
 10
39.43619925950014
 20
298.9421370759643
 10
39.47343966039996
 20
298.8700168629645
 10
39.5099237950997
 20
298.7954895057644
 10
39.54548486029973
 20
298.7183616700643
 10
39.57971871650025
 20
298.6386097211642
 10
39.61267001710024
 20
298.5561117770643
 10
39.64482556529993
 20
298.4704300575644
 10
39.6761714344
 20
298.3814410421644
 10
39.70610439149983
 20
298.2891520643642
 10
39.73412590100005
 20
298.1933243607644
 10
39.75981593849986
 20
298.0941430211643
 10
39.78269105889999
 20
297.9919427782644
 10
39.80204448159972
 20
297.8868355296643
 10
39.81731099869988
 20
297.7791100793644
 10
39.82814182459993
 20
297.6690717104642
 10
39.83409180570028
 20
297.5569248818643
  0
LWPOLYLINE
  5
FD
330
70
100
AcDbEntity
  8
RACCORDO
 62
   250
420
  3355443
370
    25
100
AcDbPolyline
 90
       10
 70
     0
 43
0.0
 10
-64.66775513340015
 20
343.0652654203644
 10
-64.76063525909985
 20
343.1076290507645
 10
-64.84468397239989
 20
343.1563008928642
 10
-64.91875892749987
 20
343.2106194241645
 10
-64.98185333640012
 20
343.2698463752644
 10
-65.0331096532999
 20
343.3331767642644
 10
-65.07183122919986
 20
343.3997498375643
 10
-65.09749178070004
 20
343.4686607682644
 10
-65.10974254320015
 20
343.5389729551644
 10
-65.11083943830012
 20
343.5654934287644
  0
LWPOLYLINE
  5
FE
330
70
100
AcDbEntity
  8
RACCORDO
 62
    18
420
        0
370
    25
100
AcDbPolyline
 90
        4
 70
     0
 43
0.0
 10
13.89655890229993
 20
273.6578991545643
 10
13.89243587940018
 20
273.6159313743646
 10
13.88190402339979
 20
273.5764933104642
 10
13.86533945649976
 20
273.5418081746644
  0
LWPOLYLINE
  5
FF
330
70
100
AcDbEntity
  8
RACCORDO
 62
    18
420
        0
370
    25
100
AcDbPolyline
 90
        3
 70
     0
 43
0.0
 10
13.87829437349987
 20
274.3921044719641
 10
13.87347391310022
 20
274.3781725810643
 10
13.86246899480008
 20
274.3577508792641
  0
LWPOLYLINE
  5
100
330
70
100
AcDbEntity
  8
RACCORDO
 62
   250
420
  3355443
370
    25
100
AcDbPolyline
 90
       13
 70
     0
 43
0.0
 10
60.27531447210013
 20
304.6964671048643
 10
60.38685468280006
 20
304.6760604288644
 10
60.50157977459984
 20
304.6636948443642
 10
60.61793063380026
 20
304.6595383965643
 10
60.73432605259995
 20
304.6636475691642
 10
60.84918421740026
 20
304.6759665165642
 10
60.96094420619988
 20
304.6963278229641
 10
61.06808720089989
 20
304.7244547769642
 10
61.16915712849987
 20
304.7599651326645
 10
61.26278044899984
 20
304.8023763048641
 10
61.34768482149999
 20
304.8511119260642
 10
61.42271639570019
 20
304.9055096791644
 10
61.48685549250012
 20
304.9648302992644
  0
LWPOLYLINE
  5
101
330
70
100
AcDbEntity
  8
RACCORDO
 62
   250
420
  3355443
370
    25
100
AcDbPolyline
 90
       12
 70
     0
 43
0.0
 10
36.45627925910033
 20
298.7330717834644
 10
36.4178270868001
 20
298.7520052945644
 10
36.38222210199999
 20
298.7857477209644
 10
36.35217352899987
 20
298.8331426906644
 10
36.32813554200011
 20
298.8934738446645
 10
36.31047146719992
 20
298.9658292977642
 10
36.29944829100021
 20
299.0491154213641
 10
36.29523262609998
 20
299.1420732461644
 10
36.2978881719999
 20
299.2432978515642
 10
36.30737484149983
 20
299.3512597013642
 10
36.32354935119983
 20
299.4643272003642
 10
36.34616729420026
 20
299.5807912567642
  0
LINE
  5
102
330
70
100
AcDbEntity
  8
RACCORDO
 62
    18
420
        0
370
    25
100
AcDbLine
 10
13.86246899480008
 20
274.3577508792641
 30
0.0
 11
13.84572796930019
 21
274.3301591019642
 31
0.0
  0
LINE
  5
103
330
70
100
AcDbEntity
  8
RACCORDO
 62
    18
420
        0
370
    25
100
AcDbLine
 10
13.87131074400006
 20
273.5503991257642
 30
0.0
 11
13.60580382819991
 21
273.1684116649644
 31
0.0
  0
LWPOLYLINE
  5
104
330
70
100
AcDbEntity
  8
RACCORDO
 62
   250
420
  3355443
370
    25
100
AcDbPolyline
 90
       19
 70
     0
 43
0.0
 10
-63.06282429110007
 20
343.9968018617644
 10
-63.20087937949985
 20
344.0341934670642
 10
-63.3382527452999
 20
344.0604560933642
 10
-63.4736779978
 20
344.0753583322642
 10
-63.60611881139988
 20
344.0788362904644
 10
-63.73456065110001
 20
344.0709196515644
 10
-63.85790958630014
 20
344.0516694654642
 10
-63.97518803140004
 20
344.0212430271643
 10
-64.08562207519999
 20
343.9799156059645
 10
-64.1884335585999
 20
343.9279580066642
 10
-64.28283958959993
 20
343.8656447239643
 10
-64.36813149289986
 20
343.7934562954644
 10
-64.44366941520009
 20
343.7120004811644
 10
-64.50889100790006
 20
343.6218379591642
 10
-64.56333043929999
 20
343.5235871676645
 10
-64.60666065700003
 20
343.4180441631642
 10
-64.63861918310003
 20
343.3059643233642
 10
-64.65899001410012
 20
343.1880622333645
 10
-64.66774862389986
 20
343.0652713395645
  0
LINE
  5
105
330
70
100
AcDbEntity
  8
RACCORDO
 62
   250
420
  3355443
370
    25
100
AcDbLine
 10
58.96165662900028
 20
307.8642262415643
 30
0.0
 11
58.72063349239971
 21
307.9303111044645
 31
0.0
  0
LINE
  5
106
330
70
100
AcDbEntity
  8
RACCORDO
 62
   250
420
  3355443
370
    25
100
AcDbLine
 10
58.72063349239971
 20
307.9303111044645
 30
0.0
 11
58.50986036790018
 21
307.9894498427645
 31
0.0
  0
LINE
  5
107
330
70
100
AcDbEntity
  8
RACCORDO
 62
   250
420
  3355443
370
    25
100
AcDbLine
 10
58.50986036790018
 20
307.9894498427645
 30
0.0
 11
58.38682385739993
 21
308.0247349753642
 31
0.0
  0
LWPOLYLINE
  5
108
330
70
100
AcDbEntity
  8
RACCORDO
 62
   250
420
  3355443
370
    25
100
AcDbPolyline
 90
       14
 70
     0
 43
0.0
 10
-62.61474133010013
 20
345.1991602278643
 10
-62.82629555479993
 20
345.2606362837642
 10
-63.03633121720002
 20
345.3049698517644
 10
-63.24322231140011
 20
345.3318134371643
 10
-63.44543435789987
 20
345.3409157451643
 10
-63.64132389950004
 20
345.3322170187642
 10
-63.82917007069996
 20
345.3058897830645
 10
-64.00743700520007
 20
345.2621945616645
 10
-64.17486183549998
 20
345.2014484314644
 10
-64.33023976780005
 20
345.1241055241642
 10
-64.47240415900012
 20
345.0307068229641
 10
-64.60018468609985
 20
344.9219542472643
 10
-64.71252482109988
 20
344.7987188641643
 10
-64.77063096690014
 20
344.7204405029645
  0
LINE
  5
109
330
70
100
AcDbEntity
  8
RACCORDO
 62
   250
420
  3355443
370
    25
100
AcDbLine
 10
58.38682385739993
 20
308.0247349753642
 30
0.0
 11
58.27390116020001
 21
308.0576490564644
 31
0.0
  0
LWPOLYLINE
  5
10A
330
70
100
AcDbEntity
  8
RACCORDO
 62
   250
420
  3355443
370
    25
100
AcDbPolyline
 90
        8
 70
     0
 43
0.0
 10
-62.25717342020008
 20
343.7647075787643
 10
-62.31025125260014
 20
343.7803491177644
 10
-62.36530860799992
 20
343.7958177025642
 10
-62.4234727057999
 20
343.8114241701642
 10
-62.48472294769993
 20
343.8275461431643
 10
-62.54835540539992
 20
343.8446190196644
 10
-62.61452155710003
 20
343.8629779890643
 10
-62.68351525229996
 20
343.8826924873642
  0
LINE
  5
10B
330
70
100
AcDbEntity
  8
RACCORDO
 62
   250
420
  3355443
370
    25
100
AcDbLine
 10
58.27390116020001
 20
308.0576490564644
 30
0.0
 11
51.58148464149988
 21
310.0282900013643
 31
0.0
  0
LINE
  5
10C
330
70
100
AcDbEntity
  8
RACCORDO
 62
   250
420
  3355443
370
    25
100
AcDbLine
 10
-62.68351525229996
 20
343.8826924873642
 30
0.0
 11
-62.82891048599998
 21
343.9254652042645
 31
0.0
  0
LINE
  5
10D
330
70
100
AcDbEntity
  8
RACCORDO
 62
   250
420
  3355443
370
    25
100
AcDbLine
 10
51.58148464149988
 20
310.0282900013643
 30
0.0
 11
49.96611472320015
 21
310.5098232822641
 31
0.0
  0
LINE
  5
10E
330
70
100
AcDbEntity
  8
RACCORDO
 62
   250
420
  3355443
370
    25
100
AcDbLine
 10
-51.46164834029993
 20
340.5143432606644
 30
0.0
 11
-53.25576174469998
 21
341.0505001677644
 31
0.0
  0
LINE
  5
10F
330
70
100
AcDbEntity
  8
RACCORDO
 62
   250
420
  3355443
370
    25
100
AcDbLine
 10
49.96611472320015
 20
310.5098232822641
 30
0.0
 11
47.99997715659972
 21
311.1008572282644
 31
0.0
  0
LINE
  5
110
330
70
100
AcDbEntity
  8
RACCORDO
 62
   250
420
  3355443
370
    25
100
AcDbLine
 10
-61.95914123170015
 20
343.6741587037642
 30
0.0
 11
-62.25717342020008
 21
343.7647075787643
 31
0.0
  0
LWPOLYLINE
  5
111
330
70
100
AcDbEntity
  8
RACCORDO
 62
   250
420
  3355443
370
    25
100
AcDbPolyline
 90
        3
 70
     0
 43
0.0
 10
-62.82891048599998
 20
343.9254652042645
 10
-62.98268102489998
 20
343.9720429402644
 10
-63.06283043819988
 20
343.9967961316643
  0
LINE
  5
112
330
70
100
AcDbEntity
  8
RACCORDO
 62
   250
420
  3355443
370
    25
100
AcDbLine
 10
-53.71251958319996
 20
341.1908411314641
 30
0.0
 11
-61.95914123170015
 21
343.6741587037642
 31
0.0
  0
LINE
  5
113
330
70
100
AcDbEntity
  8
RACCORDO
 62
   250
420
  3355443
370
    25
100
AcDbLine
 10
-32.79478376669989
 20
334.7817965185642
 30
0.0
 11
-51.46164834029993
 21
340.5143432606644
 31
0.0
  0
LINE
  5
114
330
70
100
AcDbEntity
  8
RACCORDO
 62
   250
420
  3355443
370
    25
100
AcDbLine
 10
49.32814277139992
 20
309.5480498601643
 30
0.0
 11
48.74807181739988
 21
309.7257599908643
 31
0.0
  0
LINE
  5
115
330
70
100
AcDbEntity
  8
RACCORDO
 62
   250
420
  3355443
370
    25
100
AcDbLine
 10
47.99997715659972
 20
311.1008572282644
 30
0.0
 11
-32.4034938889001
 21
335.8037998191643
 31
0.0
  0
LINE
  5
116
330
70
100
AcDbEntity
  8
RACCORDO
 62
   250
420
  3355443
370
    25
100
AcDbLine
 10
-53.25576174469998
 20
341.0505001677644
 30
0.0
 11
-53.71251958319996
 21
341.1908411314641
 31
0.0
  0
LINE
  5
117
330
70
100
AcDbEntity
  8
RACCORDO
 62
   250
420
  3355443
370
    25
100
AcDbLine
 10
58.59027701839977
 20
306.6383055269642
 30
0.0
 11
58.42181042630032
 21
306.6900743739642
 31
0.0
  0
LINE
  5
118
330
70
100
AcDbEntity
  8
RACCORDO
 62
   250
420
  3355443
370
    25
100
AcDbLine
 10
-32.4034938889001
 20
335.8037998191643
 30
0.0
 11
-51.98986164600009
 21
341.8074790269642
 31
0.0
  0
LINE
  5
119
330
70
100
AcDbEntity
  8
RACCORDO
 62
   250
420
  3355443
370
    25
100
AcDbLine
 10
46.99223797120032
 20
310.2794796181643
 30
0.0
 11
-32.79478376119989
 21
334.7817965629644
 31
0.0
  0
LINE
  5
11A
330
70
100
AcDbEntity
  8
RACCORDO
 62
   250
420
  3355443
370
    25
100
AcDbLine
 10
57.72140733060004
 20
306.9208236178644
 30
0.0
 11
52.72821237180018
 21
308.4790837139643
 31
0.0
  0
LINE
  5
11B
330
70
100
AcDbEntity
  8
RACCORDO
 62
   250
420
  3355443
370
    25
100
AcDbLine
 10
49.7126213105999
 20
309.4279543954644
 30
0.0
 11
49.32814277139992
 21
309.5480498601643
 31
0.0
  0
LINE
  5
11C
330
70
100
AcDbEntity
  8
RACCORDO
 62
   250
420
  3355443
370
    25
100
AcDbLine
 10
48.74807181739988
 20
309.7257599908643
 30
0.0
 11
48.51549575250007
 21
309.7985146354643
 31
0.0
  0
LINE
  5
11D
330
70
100
AcDbEntity
  8
RACCORDO
 62
   250
420
  3355443
370
    25
100
AcDbLine
 10
52.72821237180018
 20
308.4790837139643
 30
0.0
 11
49.7126213105999
 21
309.4279543954644
 31
0.0
  0
LINE
  5
11E
330
70
100
AcDbEntity
  8
RACCORDO
 62
   250
420
  3355443
370
    25
100
AcDbLine
 10
48.51549575250007
 20
309.7985146354643
 30
0.0
 11
46.99223797120032
 21
310.2794796181643
 31
0.0
  0
LWPOLYLINE
  5
11F
330
70
100
AcDbEntity
  8
RACCORDO
 62
   250
420
  3355443
370
    25
100
AcDbPolyline
 90
        5
 70
     0
 43
0.0
 10
58.42181042630032
 20
306.6900743739642
 10
58.26682652860013
 20
306.7389404972642
 10
58.1943724517002
 20
306.7622766590642
 10
58.1250750672998
 20
306.7850836373644
 10
58.05909699449998
 20
306.8073689990642
  0
LINE
  5
120
330
70
100
AcDbEntity
  8
RACCORDO
 62
   250
420
  3355443
370
    25
100
AcDbLine
 10
-51.98986164600009
 20
341.8074790269642
 30
0.0
 11
-55.03283441270014
 21
342.7648897319644
 31
0.0
  0
LINE
  5
121
330
70
100
AcDbEntity
  8
RACCORDO
 62
   250
420
  3355443
370
    25
100
AcDbLine
 10
-55.03283441270014
 20
342.7648897319644
 30
0.0
 11
-61.94322534499987
 21
344.9750999801642
 31
0.0
  0
LINE
  5
122
330
70
100
AcDbEntity
  8
RACCORDO
 62
   250
420
  3355443
370
    25
100
AcDbLine
 10
-61.94322534499987
 20
344.9750999801642
 30
0.0
 11
-62.11780220450012
 21
345.0316740963642
 31
0.0
  0
LINE
  5
123
330
70
100
AcDbEntity
  8
RACCORDO
 62
   250
420
  3355443
370
    25
100
AcDbLine
 10
-62.11780220450012
 20
345.0316740963642
 30
0.0
 11
-62.24742489010004
 21
345.0745383691643
 31
0.0
  0
LWPOLYLINE
  5
124
330
70
100
AcDbEntity
  8
RACCORDO
 62
   250
420
  3355443
370
    25
100
AcDbPolyline
 90
        4
 70
     0
 43
0.0
 10
57.87898275619987
 20
306.8695642485643
 10
57.8247763348997
 20
306.8877004395643
 10
57.77231310119968
 20
306.9047476595643
 10
57.72140733060004
 20
306.9208236178644
  0
LINE
  5
125
330
70
100
AcDbEntity
  8
RACCORDO
 62
   250
420
  3355443
370
    25
100
AcDbLine
 10
-62.24742489010004
 20
345.0745383691643
 30
0.0
 11
-62.46116713610007
 21
345.1465711195643
 31
0.0
  0
LINE
  5
126
330
70
100
AcDbEntity
  8
RACCORDO
 62
   250
420
  3355443
370
    25
100
AcDbLine
 10
-62.46116713610007
 20
345.1465711195643
 30
0.0
 11
-62.61474133010013
 21
345.1991602278643
 31
0.0
  0
LINE
  5
127
330
70
100
AcDbEntity
  8
RACCORDO
 62
   250
420
  3355443
370
    25
100
AcDbLine
 10
58.05909699449998
 20
306.8073689990642
 30
0.0
 11
57.87898275619987
 21
306.8695642485643
 31
0.0
  0
LINE
  5
128
330
70
100
AcDbEntity
  8
RACCORDO
 62
   250
420
  3355443
370
    25
100
AcDbLine
 10
33.88694480909971
 20
268.3783982896641
 30
0.0
 11
33.91137634159986
 21
267.3962891280644
 31
0.0
  0
LINE
  5
129
330
70
100
AcDbEntity
  8
RACCORDO
 62
    18
420
        0
370
    25
100
AcDbLine
 10
33.9135579492
 20
268.4318279759644
 30
0.0
 11
33.93664435459998
 21
267.5037908067646
 31
0.0
  0
LWPOLYLINE
  5
12A
330
70
100
AcDbEntity
  8
RACCORDO
 62
    18
420
        0
370
    25
100
AcDbPolyline
 90
        4
 70
     0
 43
0.0
 10
33.93662449989973
 20
267.5037891568646
 10
33.93250147710009
 20
267.4618213766642
 10
33.92196962110033
 20
267.4223833127645
 10
33.9054050542003
 20
267.3876981769646
  0
LWPOLYLINE
  5
12B
330
70
100
AcDbEntity
  8
RACCORDO
 62
   250
420
  3355443
370
    25
100
AcDbPolyline
 90
       10
 70
     0
 43
0.0
 10
36.34616729420026
 20
299.5807912567642
 10
36.41963193590008
 20
299.8811768517644
 10
36.45973244450013
 20
300.0628559118643
 10
36.4950291344002
 20
300.2432072527643
 10
36.5253818429997
 20
300.4215146753645
 10
36.5506700405
 20
300.5970700971642
 10
36.5707933084997
 20
300.7691763647644
 10
36.58567173889973
 20
300.9371500212642
 10
36.59524625129986
 20
301.1003240214644
 10
36.5994788273999
 20
301.2580503800644
  0
LWPOLYLINE
  5
12C
330
70
100
AcDbEntity
  8
RACCORDO
 62
   250
420
  3355443
370
    25
100
AcDbPolyline
 90
       15
 70
     0
 43
0.0
 10
37.79334168600014
 20
263.7199977773641
 10
37.8028907333003
 20
263.6424462629646
 10
37.8271766329998
 20
263.5672689988641
 10
37.86585937229979
 20
263.4947389678645
 10
37.91836235459977
 20
263.4259372869645
 10
37.98390298160014
 20
263.3618894993645
 10
38.06150431870018
 20
263.3035502876645
 10
38.15000965699998
 20
263.2517892437643
 10
38.2480997550002
 20
263.2073779066641
 10
38.3543124769998
 20
263.1709782696644
 10
38.46706466149973
 20
263.1431328865641
 10
38.58467573220023
 20
263.1242568046643
 10
38.70539263840019
 20
263.1146314047642
 10
38.82741597259978
 20
263.1144001862641
 10
38.94892687440007
 20
263.123566615164
  0
LWPOLYLINE
  5
12D
330
70
100
AcDbEntity
  8
RACCORDO
 62
   250
420
  3355443
370
    25
100
AcDbPolyline
 90
       15
 70
     0
 43
0.0
 10
36.93309359360005
 20
298.3006174191643
 10
36.94264258929991
 20
298.2230661367643
 10
36.96692842529988
 20
298.1478889114645
 10
37.0056110850003
 20
298.0753589118644
 10
37.05811397380024
 20
298.0065572534643
 10
37.12365449569993
 20
297.9425094776642
 10
37.20125571890032
 20
297.8841702658641
 10
37.28976093769971
 20
297.8324092087642
 10
37.38785091370012
 20
297.7879978447644
 10
37.49406347050007
 20
297.7515981797644
 10
37.60681549010004
 20
297.7237527472642
 10
37.72442654770025
 20
297.7048765771645
 10
37.84514365620032
 20
297.6952510827644
 10
37.96716735950007
 20
297.6950198089643
 10
38.08867878210008
 20
297.7041862569642
  0
LINE
  5
12E
330
70
100
AcDbEntity
  8
RACCORDO
 62
   250
420
  3355443
370
    25
100
AcDbLine
 10
39.83408786320021
 20
297.5569195852644
 30
0.0
 11
39.93965105620004
 21
293.555964995164
 31
0.0
  0
LINE
  5
12F
330
70
100
AcDbEntity
  8
RACCORDO
 62
   250
420
  3355443
370
    25
100
AcDbLine
 10
38.48017876899972
 20
281.3490519170645
 30
0.0
 11
38.94892687440007
 21
263.123566615164
 31
0.0
  0
LINE
  5
130
330
70
100
AcDbEntity
  8
RACCORDO
 62
   250
420
  3355443
370
    25
100
AcDbLine
 10
39.93965105620004
 20
293.555964995164
 30
0.0
 11
40.6309203717003
 21
265.7561407934642
 31
0.0
  0
LINE
  5
131
330
70
100
AcDbEntity
  8
RACCORDO
 62
   250
420
  3355443
370
    25
100
AcDbLine
 10
38.08867878210008
 20
297.7041862569642
 30
0.0
 11
38.48017876899972
 21
281.3490519170645
 31
0.0
  0
LINE
  5
132
330
70
100
AcDbEntity
  8
RACCORDO
 62
   250
420
  3355443
370
    25
100
AcDbLine
 10
40.6309203717003
 20
265.7561407934642
 30
0.0
 11
40.69353294580009
 21
263.008603910964
 31
0.0
  0
LWPOLYLINE
  5
133
330
70
100
AcDbEntity
  8
RACCORDO
 62
   250
420
  3355443
370
    25
100
AcDbPolyline
 90
       76
 70
     0
 43
0.0
 10
38.94892687440007
 20
263.123566615164
 10
38.94943439020016
 20
263.0643326792644
 10
38.94721149939989
 20
263.0079634423645
 10
38.94253217849973
 20
262.9544555935643
 10
38.93568354910031
 20
262.9039404748644
 10
38.92691965779985
 20
262.8562288119643
 10
38.91639555139983
 20
262.8108408850644
 10
38.90424229769972
 20
262.7676232242642
 10
38.89068972590005
 20
262.726669583264
 10
38.87596748969983
 20
262.6878839078642
 10
38.86026194700005
 20
262.6512145909645
 10
38.84370924060027
 20
262.6166073582642
 10
38.82644157929989
 20
262.5839574860643
 10
38.8086362806001
 20
262.5532577852642
 10
38.79039402699997
 20
262.5243917428644
 10
38.7716954437003
 20
262.4971060158642
 10
38.7526205604002
 20
262.4713263554643
 10
38.73328634000007
 20
262.4470281523644
 10
38.71368914229974
 20
262.4240557779644
 10
38.69388270600025
 20
262.4023396052642
 10
38.67396480860024
 20
262.381862602564
 10
38.65397922270004
 20
262.3625583743646
 10
38.6339891185
 20
262.3443810932645
 10
38.61406103319985
 20
262.3272901609644
 10
38.59423577599972
 20
262.3112302476641
 10
38.57457101950004
 20
262.2961603313644
 10
38.55511917849972
 20
262.2820376599642
 10
38.53590650120001
 20
262.2688075052646
 10
38.51699476390005
 20
262.2564400112646
 10
38.49841442789989
 20
262.2448862157643
 10
38.48013615669972
 20
262.2340691705641
 10
38.46222679899987
 20
262.2239721647643
 10
38.44469166350012
 20
262.2145444630644
 10
38.4273953203998
 20
262.2056717414646
 10
38.41036618619994
 20
262.1973332065642
 10
38.39362342379979
 20
262.189503467364
 10
38.37700177340023
 20
262.1820791773643
 10
38.36047086680022
 20
262.1750265883645
 10
38.34408858339987
 20
262.1683535744641
 10
38.32781280730024
 20
262.1620303006641
 10
38.31168030409979
 20
262.1560533984641
 10
38.2956777585999
 20
262.1504032258645
 10
38.2796826227
 20
262.1450329196642
 10
38.26373648130014
 20
262.1399479110646
 10
38.24781313860022
 20
262.1351298118646
 10
38.2316789682002
 20
262.1305101289645
 10
38.2153713298002
 20
262.126100856664
 10
38.19885606890018
 20
262.1218950438641
 10
38.18177835199972
 20
262.1178181912641
 10
38.16412136320031
 20
262.1138882908641
 10
38.14588908300023
 20
262.1101213477643
 10
38.1267416370998
 20
262.1064676289641
 10
38.10656043149979
 20
262.1029436568641
 10
38.08543394720017
 20
262.0996025842641
 10
38.06332324399992
 20
262.0964670680645
 10
38.04022893700031
 20
262.0935748512645
 10
38.01612054350002
 20
262.0909666266646
 10
37.99090964619988
 20
262.0886770439644
 10
37.96461980849976
 20
262.0867560549643
 10
37.93719810060004
 20
262.0852479937645
 10
37.90843583370031
 20
262.0841958400642
 10
37.87829075730011
 20
262.0836626640645
 10
37.84677152540019
 20
262.0837152655645
 10
37.81373998859975
 20
262.0844237446643
 10
37.77904056629996
 20
262.0858727003644
 10
37.7427987064997
 20
262.0881428376644
 10
37.70530481410023
 20
262.0912904205645
 10
37.66667730929983
 20
262.095361316964
 10
37.62679962460021
 20
262.1004369221643
 10
37.58562357300002
 20
262.1066101458641
 10
37.54328166480032
 20
262.1139298303646
 10
37.49967032880011
 20
262.1224801963643
 10
37.45439399649979
 20
262.1324370246644
 10
37.40733786759982
 20
262.1439377828646
 10
37.35867096879973
 20
262.1570501693643
 10
37.30843130790027
 20
262.1718742950642
  0
LWPOLYLINE
  5
134
330
70
100
AcDbEntity
  8
RACCORDO
 62
   250
420
  3355443
370
    25
100
AcDbPolyline
 90
       76
 70
     0
 43
0.0
 10
40.69353212219991
 20
263.0086027828641
 10
40.69300167859966
 20
262.8959927400642
 10
40.68708549819985
 20
262.7888596806646
 10
40.67626507079981
 20
262.6870286736642
 10
40.66087460180027
 20
262.5905146669641
 10
40.64154161470013
 20
262.4991365369643
 10
40.61921698059971
 20
262.4127107280644
 10
40.59461201099995
 20
262.3314293070646
 10
40.56809303640018
 20
262.2554360909644
 10
40.53991543850029
 20
262.1840905378643
 10
40.51052993290007
 20
262.1169179259644
 10
40.4800723520997
 20
262.0536513249646
 10
40.44822217340001
 20
261.9941064064643
 10
40.41507429530023
 20
261.9383087731644
 10
40.38100021910025
 20
261.8859980505645
 10
40.34603630219969
 20
261.8366679732646
 10
40.31034563369985
 20
261.7901781205643
 10
40.27413396890029
 20
261.7465064140646
 10
40.23742733350018
 20
261.7053595207644
 10
40.20032343209988
 20
261.6666107464642
 10
40.16299837989975
 20
261.6302253392644
 10
40.12556297800004
 20
261.5960643008641
 10
40.08813507879994
 20
261.5640432265645
 10
40.05083336729993
 20
261.5340865388644
 10
40.0137525212997
 20
261.5060712666641
 10
39.97699404920029
 20
261.4799184187646
 10
39.94064935060031
 20
261.4555469992642
 10
39.90478468579993
 20
261.4328364066643
 10
39.86951055790012
 20
261.4117278524645
 10
39.83487721420021
 20
261.3921316735641
 10
39.80084425180016
 20
261.3738923353643
 10
39.7675316412001
 20
261.3569724259644
 10
39.73494221289985
 20
261.3412818831645
 10
39.70283508939969
 20
261.3266106657643
 10
39.67126996809989
 20
261.3129206426643
 10
39.64026529330008
 20
261.3001608070645
 10
39.60949028570001
 20
261.2881357865642
 10
39.5789060306999
 20
261.2768187466643
 10
39.54857841130014
 20
261.266181180664
 10
39.51822013719996
 20
261.2560167096644
 10
39.48769850800008
 20
261.2462571801645
 10
39.45690401630022
 20
261.2368555030646
 10
39.42565319920018
 20
261.2276949289643
 10
39.39406621430032
 20
261.2188199940643
 10
39.36217333120013
 20
261.2102484762642
 10
39.3296313616999
 20
261.2018457275644
 10
39.29645056200028
 20
261.1936156679645
 10
39.26258602159982
 20
261.1855842662643
 10
39.2276355778001
 20
261.1776912635646
 10
39.19173556000031
 20
261.1698838553646
 10
39.15500435380024
 20
261.1623411481646
 10
39.11709160520024
 20
261.1553986852643
 10
39.07810924210032
 20
261.1492945100644
 10
39.03841659070013
 20
261.1439494225645
 10
38.99775093020005
 20
261.1391945029644
 10
38.9558092901003
 20
261.1349797534646
 10
38.91213180520017
 20
261.1313515107643
 10
38.86626388490011
 20
261.1283284664644
 10
38.81828086600016
 20
261.1260054508644
 10
38.76829818289991
 20
261.1244907549644
 10
38.71602044560003
 20
261.1238742238644
 10
38.66135560230017
 20
261.1242652055641
 10
38.60428125259979
 20
261.1257743737646
 10
38.54459914179992
 20
261.1285244870644
 10
38.48224649560029
 20
261.1327495766645
 10
38.41744456800003
 20
261.1384808256641
 10
38.35013503410009
 20
261.1455673490644
 10
38.27977219149982
 20
261.1542685980641
 10
38.2056672726001
 20
261.1647767173641
 10
38.1277544168003
 20
261.1768332025642
 10
38.04660957310016
 20
261.1901918328642
 10
37.96252779689979
 20
261.2053124726642
 10
37.87524707110021
 20
261.222998998864
 10
37.78459610060025
 20
261.2436920642644
 10
37.69071112220006
 20
261.2673923336642
 10
37.59363698049987
 20
261.2943114320644
  0
LWPOLYLINE
  5
135
330
70
100
AcDbEntity
  8
RACCORDO
 62
    18
420
        0
370
    25
100
AcDbPolyline
 90
        3
 70
     0
 43
0.0
 10
33.91353795270031
 20
268.4318320282644
 10
33.90871749230001
 20
268.4179001373646
 10
33.89771257399987
 20
268.3974784355644
  0
LINE
  5
136
330
70
100
AcDbEntity
  8
RACCORDO
 62
    18
420
        0
370
    25
100
AcDbLine
 10
33.89771257399987
 20
268.3974784355644
 30
0.0
 11
33.88097154849999
 21
268.3698866582645
 31
0.0
  0
LINE
  5
137
330
70
100
AcDbEntity
  8
RACCORDO
 62
    18
420
        0
370
    25
100
AcDbLine
 10
33.91137634159986
 20
267.3962891280644
 30
0.0
 11
33.64557999500013
 21
267.0138852601643
 31
0.0
  0
LINE
  5
138
330
70
100
AcDbEntity
  8
RACCORDO
 62
    18
420
        0
370
    25
100
AcDbLine
 10
33.88097154849999
 20
268.3698866582645
 30
0.0
 11
33.77224312679981
 21
268.2149534817642
 31
0.0
  0
LINE
  5
139
330
70
100
AcDbEntity
  8
RACCORDO
 62
   250
420
  3355443
370
    25
100
AcDbLine
 10
58.96165662900028
 20
307.8642262415643
 30
0.0
 11
60.95365151720024
 21
310.5446334324643
 31
0.0
  0
LINE
  5
13A
330
70
100
AcDbEntity
  8
RACCORDO
 62
   250
420
  3355443
370
    25
100
AcDbLine
 10
63.68352448500032
 20
307.3980347841644
 30
0.0
 11
61.48696255380015
 21
304.9647928450645
 31
0.0
  0
LINE
  5
13B
330
70
100
AcDbEntity
  8
RACCORDO
 62
    18
420
        0
370
    25
100
AcDbLine
 10
28.54335210589967
 20
270.0193638402642
 30
0.0
 11
28.40238134899998
 21
269.863986010764
 31
0.0
  0
LWPOLYLINE
  5
13C
330
70
100
AcDbEntity
  8
RACCORDO
 62
   250
420
  3355443
370
    25
100
AcDbPolyline
 90
       16
 70
     0
 43
0.0
 10
37.47838532209978
 20
263.6102846015645
 10
37.42862685659968
 20
263.506903519364
 10
37.38236909170025
 20
263.3972585988646
 10
37.3403111980997
 20
263.2830070859644
 10
37.30308886659972
 20
263.1658758537643
 10
37.27126470009977
 20
263.0476353012643
 10
37.24531971019993
 20
262.9300725944643
 10
37.22564604659994
 20
262.8149646539644
 10
37.21254107009996
 20
262.704051297364
 10
37.20620285810006
 20
262.5990089426641
 10
37.20672720489976
 20
262.5014253982645
 10
37.21410617189973
 20
262.4127754532646
 10
37.2282283007998
 20
262.3343987164647
 10
37.24888025430031
 20
262.2674798831643
 10
37.27574994399982
 20
262.2130306889645
 10
37.30843130790027
 20
262.1718742950642
  0
LWPOLYLINE
  5
13D
330
70
100
AcDbEntity
  8
RACCORDO
 62
   250
420
  3355443
370
    25
100
AcDbPolyline
 90
        4
 70
     0
 43
0.0
 10
37.64094837240017
 20
263.8678324141645
 10
37.58535448140015
 20
263.7921232639641
 10
37.53089240600014
 20
263.7058392752646
 10
37.47838532209978
 20
263.6102846015645
  0
LWPOLYLINE
  5
13E
330
70
100
AcDbEntity
  8
RACCORDO
 62
   250
420
  3355443
370
    25
100
AcDbPolyline
 90
        8
 70
     0
 43
0.0
 10
60.09063488349987
 20
246.3264912676642
 10
60.10127510960003
 20
246.2500246292641
 10
60.11730889749976
 20
246.1836610113646
 10
60.13851951899995
 20
246.1282973724646
 10
60.1646202804997
 20
246.0846819975645
 10
60.19525839789988
 20
246.0534043840642
 10
60.23001976440001
 20
246.0348872746646
 10
60.23488347329998
 20
246.0334140453642
  0
LWPOLYLINE
  5
13F
330
70
100
AcDbEntity
  8
RACCORDO
 62
   250
420
  3355443
370
    25
100
AcDbPolyline
 90
       13
 70
     0
 43
0.0
 10
58.59027701839977
 20
306.6383055269642
 10
58.59650349269991
 20
306.7391794259644
 10
58.60824733059983
 20
306.8451972200642
 10
58.62534979869982
 20
306.9549258701644
 10
58.64757973119996
 20
307.0668821777644
 10
58.67463665489996
 20
307.1795528334642
 10
58.70615485019989
 20
307.2914148717644
 10
58.74170829439988
 20
307.4009562573645
 10
58.78081642160026
 20
307.5066963228642
 10
58.82295061890013
 20
307.6072057827644
 10
58.86754136889972
 20
307.7011260536643
 10
58.91398594779992
 20
307.7871876180641
 10
58.96165657450013
 20
307.8642271842645
  0
LINE
  5
140
330
70
100
AcDbEntity
  8
RACCORDO
 62
    18
420
        0
370
    25
100
AcDbLine
 10
63.68172402079992
 20
275.0834192320641
 30
0.0
 11
64.25089782869972
 21
275.5953410519641
 31
0.0
  0
LWPOLYLINE
  5
141
330
70
100
AcDbEntity
  8
RACCORDO
 62
   250
420
  3355443
370
    25
100
AcDbPolyline
 90
       19
 70
     0
 43
0.0
 10
60.27531447210013
 20
304.6964671048643
 10
60.26447244369997
 20
304.8252773213643
 10
60.24136920100017
 20
304.9565300518643
 10
60.20615196489999
 20
305.0892389755642
 10
60.15912671890017
 20
305.2225292388643
 10
60.10064308250008
 20
305.3554575487644
 10
60.03111575320019
 20
305.4870001153643
 10
59.95107216039984
 20
305.6162334891644
 10
59.86112289890025
 20
305.7422367774643
 10
59.76195939730009
 20
305.8639933811642
 10
59.6543285395999
 20
305.9805757667644
 10
59.53902388639994
 20
306.0912253308642
 10
59.41683107319987
 20
306.1951910485642
 10
59.28852752799991
 20
306.2917212523642
 10
59.15506930689985
 20
306.3800648417643
 10
59.01751728689973
 20
306.4594990427643
 10
58.87684958830028
 20
306.5293822397643
 10
58.73404448650031
 20
306.5891596657644
 10
58.59028212120016
 20
306.6383114551644
  0
LINE
  5
142
330
70
100
AcDbEntity
  8
RACCORDO
 62
   250
420
  3355443
370
    25
100
AcDbLine
 10
60.29844812089972
 20
304.2306038231643
 30
0.0
 11
60.29430667300005
 21
304.2958944460644
 31
0.0
  0
LWPOLYLINE
  5
143
330
70
100
AcDbEntity
  8
RACCORDO
 62
   250
420
  3355443
370
    25
100
AcDbPolyline
 90
       19
 70
     0
 43
0.0
 10
61.48696255380015
 20
304.9647928450645
 10
61.47530686669984
 20
305.1572905404642
 10
61.4446518419
 20
305.3538703760644
 10
61.39520948660002
 20
305.5530549254643
 10
61.3272998035002
 20
305.7533537371643
 10
61.24144647220007
 20
305.9532303834645
 10
61.13840546010028
 20
306.1511174096642
 10
61.01898297280016
 20
306.3455248491644
 10
60.88408059709979
 20
306.5349448016644
 10
60.73483772579999
 20
306.7178318519644
 10
60.57250536180019
 20
306.8927405141641
 10
60.39826776349983
 20
307.0584078666643
 10
60.21331156029993
 20
307.2136453942642
 10
60.01896638710024
 20
307.3573398863642
 10
59.81677339189996
 20
307.4882858993643
 10
59.60833482240023
 20
307.6052904151643
 10
59.39526518910025
 20
307.7074127011643
 10
59.1791612516998
 20
307.7939424781644
 10
58.96165662900028
 20
307.8642262415643
  0
LINE
  5
144
330
70
100
AcDbEntity
  8
RACCORDO
 62
   250
420
  3355443
370
    25
100
AcDbLine
 10
60.29430667300005
 20
304.2958944460644
 30
0.0
 11
60.29025252100029
 21
304.3657627827642
 31
0.0
  0
LINE
  5
145
330
70
100
AcDbEntity
  8
RACCORDO
 62
   250
420
  3355443
370
    25
100
AcDbLine
 10
60.29025252100029
 20
304.3657627827642
 30
0.0
 11
60.2862830632998
 21
304.4408018548645
 31
0.0
  0
LINE
  5
146
330
70
100
AcDbEntity
  8
RACCORDO
 62
   250
420
  3355443
370
    25
100
AcDbLine
 10
60.2862830632998
 20
304.4408018548645
 30
0.0
 11
60.28244656509997
 21
304.5211663639642
 31
0.0
  0
LINE
  5
147
330
70
100
AcDbEntity
  8
RACCORDO
 62
   250
420
  3355443
370
    25
100
AcDbLine
 10
62.91428001639988
 20
247.5888768474642
 30
0.0
 11
62.90603786020007
 21
247.7703053378642
 31
0.0
  0
LINE
  5
148
330
70
100
AcDbEntity
  8
RACCORDO
 62
   250
420
  3355443
370
    25
100
AcDbLine
 10
60.28244656509997
 20
304.5211663639642
 30
0.0
 11
60.27878094959993
 21
304.6064126127643
 31
0.0
  0
LINE
  5
149
330
70
100
AcDbEntity
  8
RACCORDO
 62
   250
420
  3355443
370
    25
100
AcDbLine
 10
62.90603786020007
 20
247.7703053378642
 30
0.0
 11
62.89932414559999
 21
247.9382139609642
 31
0.0
  0
LINE
  5
14A
330
70
100
AcDbEntity
  8
RACCORDO
 62
   250
420
  3355443
370
    25
100
AcDbLine
 10
60.27878094959993
 20
304.6064126127643
 30
0.0
 11
60.27531042950013
 21
304.6964604280644
 31
0.0
  0
LINE
  5
14B
330
70
100
AcDbEntity
  8
RACCORDO
 62
   250
420
  3355443
370
    25
100
AcDbLine
 10
62.89932414559999
 20
247.9382139609642
 30
0.0
 11
62.89412079070017
 21
248.0900602571643
 31
0.0
  0
LINE
  5
14C
330
70
100
AcDbEntity
  8
RACCORDO
 62
   250
420
  3355443
370
    25
100
AcDbLine
 10
62.89412079070017
 20
248.0900602571643
 30
0.0
 11
62.55122908310011
 21
260.2672923347645
 31
0.0
  0
LINE
  5
14D
330
70
100
AcDbEntity
  8
RACCORDO
 62
   250
420
  3355443
370
    25
100
AcDbLine
 10
60.85213081849992
 20
284.6873009173643
 30
0.0
 11
60.31260172759989
 21
303.9557645680643
 31
0.0
  0
LINE
  5
14E
330
70
100
AcDbEntity
  8
RACCORDO
 62
   250
420
  3355443
370
    25
100
AcDbLine
 10
62.55122908310011
 20
260.2672923347645
 30
0.0
 11
62.38460352009996
 21
266.7276569313646
 31
0.0
  0
LINE
  5
14F
330
70
100
AcDbEntity
  8
RACCORDO
 62
    18
420
        0
370
    25
100
AcDbLine
 10
63.33629280530024
 20
279.9740324085641
 30
0.0
 11
63.4543941353002
 21
275.2265447853642
 31
0.0
  0
LINE
  5
150
330
70
100
AcDbEntity
  8
RACCORDO
 62
    18
420
        0
370
    25
100
AcDbLine
 10
65.11084194760003
 20
250.0221187865645
 30
0.0
 11
64.47822771430018
 21
275.452215498664
 31
0.0
  0
LINE
  5
151
330
70
100
AcDbEntity
  8
RACCORDO
 62
    18
420
        0
370
    25
100
AcDbLine
 10
64.31613871840027
 20
281.9679380719644
 30
0.0
 11
63.68352448500032
 21
307.3980347841644
 31
0.0
  0
LINE
  5
152
330
70
100
AcDbEntity
  8
RACCORDO
 62
   250
420
  3355443
370
    25
100
AcDbLine
 10
60.98143156520007
 20
279.4126585084646
 30
0.0
 11
60.85213081849992
 21
284.6873009173643
 31
0.0
  0
LINE
  5
153
330
70
100
AcDbEntity
  8
RACCORDO
 62
   250
420
  3355443
370
    25
100
AcDbLine
 10
62.38460352009996
 20
266.7276569313646
 30
0.0
 11
61.75710300799995
 21
292.1903953170643
 31
0.0
  0
LWPOLYLINE
  5
154
330
70
100
AcDbEntity
  8
RACCORDO
 62
   250
420
  3355443
370
    25
100
AcDbPolyline
 90
        7
 70
     0
 43
0.0
 10
60.31260172759989
 20
303.9557645680643
 10
60.31123866369993
 20
304.0170662142644
 10
60.31026243219987
 20
304.0471713359643
 10
60.30878834160013
 20
304.0771832230644
 10
60.30699836660005
 20
304.1072073040642
 10
60.30504548290013
 20
304.1376116688643
 10
60.29844812089972
 20
304.2306038231643
  0
LINE
  5
155
330
70
100
AcDbEntity
  8
RACCORDO
 62
   250
420
  3355443
370
    25
100
AcDbLine
 10
61.70561928550004
 20
247.9734453241643
 30
0.0
 11
61.70233848769978
 21
248.1136748300645
 31
0.0
  0
LINE
  5
156
330
70
100
AcDbEntity
  8
RACCORDO
 62
   250
420
  3355443
370
    25
100
AcDbLine
 10
61.50589417970003
 20
257.6949551384641
 30
0.0
 11
60.98143156520007
 21
279.4126585084646
 31
0.0
  0
LINE
  5
157
330
70
100
AcDbEntity
  8
RACCORDO
 62
   250
420
  3355443
370
    25
100
AcDbLine
 10
61.75710300799995
 20
292.1903953170643
 30
0.0
 11
61.49363495970027
 21
304.3728230692642
 31
0.0
  0
LINE
  5
158
330
70
100
AcDbEntity
  8
RACCORDO
 62
   250
420
  3355443
370
    25
100
AcDbLine
 10
61.70233848769978
 20
248.1136748300645
 30
0.0
 11
61.50589417970003
 21
257.6949551384641
 31
0.0
  0
LINE
  5
159
330
70
100
AcDbEntity
  8
RACCORDO
 62
   250
420
  3355443
370
    25
100
AcDbLine
 10
61.49363495970027
 20
304.3728230692642
 30
0.0
 11
61.49091770920016
 21
304.5187650389643
 31
0.0
  0
LINE
  5
15A
330
70
100
AcDbEntity
  8
RACCORDO
 62
   250
420
  3355443
370
    25
100
AcDbLine
 10
61.49091770920016
 20
304.5187650389643
 30
0.0
 11
61.48878245130024
 21
304.6826054958645
 31
0.0
  0
LINE
  5
15B
330
70
100
AcDbEntity
  8
RACCORDO
 62
   250
420
  3355443
370
    25
100
AcDbLine
 10
61.70392259070029
 20
247.2685000330645
 30
0.0
 11
61.70279062989983
 21
247.3937416938642
 31
0.0
  0
LINE
  5
15C
330
70
100
AcDbEntity
  8
RACCORDO
 62
   250
420
  3355443
370
    25
100
AcDbLine
 10
61.48878245130024
 20
304.6826054958645
 30
0.0
 11
61.48752740169975
 21
304.8365261341642
 31
0.0
  0
LINE
  5
15D
330
70
100
AcDbEntity
  8
RACCORDO
 62
   250
420
  3355443
370
    25
100
AcDbLine
 10
61.48752740169975
 20
304.8365261341642
 30
0.0
 11
61.48696255380015
 21
304.9647928450645
 31
0.0
  0
LWPOLYLINE
  5
15E
330
70
100
AcDbEntity
  8
RACCORDO
 62
   250
420
  3355443
370
    25
100
AcDbPolyline
 90
        4
 70
     0
 43
0.0
 10
61.70279062989983
 20
247.3937416938642
 10
61.70248033180021
 20
247.5131694803644
 10
61.70269986410029
 20
247.5707322753645
 10
61.70327101510025
 20
247.6266041590641
  0
LWPOLYLINE
  5
15F
330
70
100
AcDbEntity
  8
RACCORDO
 62
   250
420
  3355443
370
    25
100
AcDbPolyline
 90
        5
 70
     0
 43
0.0
 10
61.70608305590015
 20
247.7833708359644
 10
61.70662430690001
 20
247.8323650877641
 10
61.70675926720029
 20
247.8798100441641
 10
61.70643236570016
 20
247.9268023436642
 10
61.70561928550004
 20
247.9734453241643
  0
LINE
  5
160
330
70
100
AcDbEntity
  8
RACCORDO
 62
   250
420
  3355443
370
    25
100
AcDbLine
 10
61.70327101510025
 20
247.6266041590641
 30
0.0
 11
61.70608305590015
 21
247.7833708359644
 31
0.0
  0
LINE
  5
161
330
70
100
AcDbEntity
  8
RACCORDO
 62
    18
420
        0
370
    25
100
AcDbLine
 10
64.10793189449994
 20
281.3423466376644
 30
0.0
 11
63.54449962909982
 21
280.5996238428642
 31
0.0
  0
LWPOLYLINE
  5
162
330
70
100
AcDbEntity
  8
RACCORDO
 62
   250
420
  3355443
370
    25
100
AcDbPolyline
 90
        8
 70
     0
 43
0.0
 10
62.56042009049981
 20
246.5576085560644
 10
62.61919017829982
 20
246.6259019734642
 10
62.71394615199992
 20
246.7610603538644
 10
62.79116993349987
 20
246.9080778717643
 10
62.8501767901001
 20
247.0656585866641
 10
62.89051343920001
 20
247.2325091162645
 10
62.91192824749993
 20
247.4073715233643
 10
62.91428001639988
 20
247.5888768474642
  0
LINE
  5
163
330
70
100
AcDbEntity
  8
RACCORDO
 62
   250
420
  3355443
370
    25
100
AcDbLine
 10
62.91428001639988
 20
247.5888768474642
 30
0.0
 11
65.11084194760003
 21
250.0221187865645
 31
0.0
  0
SPLINE
  5
164
330
70
100
AcDbEntity
  8
RACCORDO
 62
    18
420
        0
370
    25
100
AcDbSpline
210
0.0
220
0.0
230
1.0
 70
     8
 71
     3
 72
     8
 73
     4
 74
     0
 42
0.0000000001
 43
0.0000000001
 40
0.0
 40
0.0
 40
0.0
 40
0.0
 40
1.0
 40
1.0
 40
1.0
 40
1.0
 10
64.1079318945564
 20
281.3423466376464
 30
0.0
 10
64.23191349992298
 20
281.5057805943181
 30
0.0
 10
64.32097839639185
 20
281.773390633667
 30
0.0
 10
64.31613871843236
 20
281.9679380719741
 30
0.0
  0
SPLINE
  5
165
330
70
100
AcDbEntity
  8
RACCORDO
 62
    18
420
        0
370
    25
100
AcDbSpline
210
0.0
220
0.0
230
1.0
 70
     8
 71
     3
 72
     8
 73
     4
 74
     0
 42
0.0000000001
 43
0.0000000001
 40
0.0
 40
0.0
 40
0.0
 40
0.0
 40
1.0
 40
1.0
 40
1.0
 40
1.0
 10
63.54449962914089
 20
280.5996238428789
 30
0.0
 10
63.42051802377496
 20
280.436189886206
 30
0.0
 10
63.33145312730738
 20
280.1685798468559
 30
0.0
 10
63.33629280526751
 20
279.9740324085506
 30
0.0
  0
SPLINE
  5
166
330
70
100
AcDbEntity
  8
RACCORDO
 62
    18
420
        0
370
    25
100
AcDbSpline
210
0.0
220
0.0
230
1.0
 70
     8
 71
     3
 72
     8
 73
     4
 74
     0
 42
0.0000000001
 43
0.0000000001
 40
0.0
 40
0.0
 40
0.0
 40
0.0
 40
1.0
 40
1.0
 40
1.0
 40
1.0
 10
64.47822771423218
 20
275.452215498682
 30
0.0
 10
64.47338803627076
 20
275.646762936986
 30
0.0
 10
64.3761428435114
 20
275.7079879359996
 30
0.0
 10
64.25089782867406
 20
275.5953410519789
 30
0.0
  0
SPLINE
  5
167
330
70
100
AcDbEntity
  8
RACCORDO
 62
    18
420
        0
370
    25
100
AcDbSpline
210
0.0
220
0.0
230
1.0
 70
     8
 71
     3
 72
     8
 73
     4
 74
     0
 42
0.0000000001
 43
0.0000000001
 40
0.0
 40
0.0
 40
0.0
 40
0.0
 40
1.0
 40
1.0
 40
1.0
 40
1.0
 10
63.45439413526747
 20
275.2265447853507
 30
0.0
 10
63.45923381322825
 20
275.0319973470448
 30
0.0
 10
63.55647900598568
 20
274.9707723480286
 30
0.0
 10
63.68172402082302
 20
275.0834192320474
 30
0.0
  0
LINE
  5
169
330
70
100
AcDbEntity
  8
SUPERFICI
 62
    18
420
        0
370
    25
100
AcDbLine
 10
-62.97016801559991
 20
347.3432069800644
 30
0.0
 11
-64.77062814720013
 21
344.7204446103642
 31
0.0
  0
LINE
  5
16A
330
70
100
AcDbEntity
  8
SUPERFICI
 62
    18
420
        0
370
    25
100
AcDbLine
 10
64.71763539559983
 20
248.8944749674645
 30
0.0
 11
62.56041159280027
 21
246.5575993506645
 31
0.0
  0
LINE
  5
16C
330
70
100
AcDbEntity
  8
DRAFT
 62
    18
420
        0
370
    25
100
AcDbLine
 10
-41.52056635570008
 20
289.8619701100642
 30
0.0
 11
-41.52505253699985
 21
289.9041586194643
 31
0.0
  0
LINE
  5
16D
330
70
100
AcDbEntity
  8
DRAFT
 62
    18
420
        0
370
    25
100
AcDbLine
 10
-41.52505253699985
 20
289.9041586194643
 30
0.0
 11
-42.34669021270003
 21
322.9327002684644
 31
0.0
  0
LINE
  5
16E
330
70
100
AcDbEntity
  8
DRAFT
 62
    18
420
        0
370
    25
100
AcDbLine
 10
-41.88538284619995
 20
319.0627313305644
 30
0.0
 11
-41.97879907030007
 21
322.8197244627642
 31
0.0
  0
LINE
  5
16F
330
70
100
AcDbEntity
  8
DRAFT
 62
    18
420
        0
370
    25
100
AcDbLine
 10
-41.16866344099991
 20
290.2189992564646
 30
0.0
 11
-41.88538284619995
 21
319.0627313305644
 31
0.0
  0
LWPOLYLINE
  5
170
330
70
100
AcDbEntity
  8
DRAFT
 62
    18
420
        0
370
    25
100
AcDbPolyline
 90
        6
 70
     0
 43
0.0
 10
-41.41661274499992
 20
289.6559346321641
 10
-41.44738848459989
 20
289.6951283923643
 10
-41.47405639190007
 20
289.7366878796646
 10
-41.49528945220008
 20
289.7785745049646
 10
-41.51064532740011
 20
289.8201087385643
 10
-41.52056635570008
 20
289.8619701100642
  0
LWPOLYLINE
  5
171
330
70
100
AcDbEntity
  8
DRAFT
 62
    18
420
        0
370
    25
100
AcDbPolyline
 90
        7
 70
     0
 43
0.0
 10
-41.10449435590015
 20
290.0524226183645
 10
-41.11716296080005
 20
290.0704137654646
 10
-41.12857116399995
 20
290.0887826128641
 10
-41.13865364260006
 20
290.1074220287646
 10
-41.14735088820009
 20
290.1262173081646
 10
-41.15461643900011
 20
290.1450652902644
 10
-41.16041269140014
 20
290.1638749404644
  0
LWPOLYLINE
  5
172
330
70
100
AcDbEntity
  8
DRAFT
 62
    18
420
        0
370
    25
100
AcDbPolyline
 90
        4
 70
     0
 43
0.0
 10
-41.16041269140014
 20
290.1638749404644
 10
-41.16470379489987
 20
290.1825427671644
 10
-41.16746035730002
 20
290.2009535159646
 10
-41.16866344099991
 20
290.2189992564646
  0
LINE
  5
173
330
70
100
AcDbEntity
  8
DRAFT
 62
   250
420
  3355443
370
    25
100
AcDbLine
 10
-40.89587612710008
 20
289.9035143391642
 30
0.0
 11
-41.16559135980007
 21
289.4898243014644
 31
0.0
  0
LWPOLYLINE
  5
174
330
70
100
AcDbEntity
  8
DRAFT
 62
    18
420
        0
370
    25
100
AcDbPolyline
 90
       10
 70
     0
 43
0.0
 10
-41.05807100619997
 20
290.0002138990645
 10
-41.06371364899998
 20
290.005688587264
 10
-41.06924382790002
 20
290.0112540267646
 10
-41.0746577037001
 20
290.0169063723644
 10
-41.07995150589985
 20
290.0226417292646
 10
-41.08512157020014
 20
290.0284561236643
 10
-41.09016434070014
 20
290.0343455064645
 10
-41.09507632679998
 20
290.0403057980643
 10
-41.0998541048999
 20
290.0463328903645
 10
-41.10449435590015
 20
290.0524226183645
  0
LINE
  5
175
330
70
100
AcDbEntity
  8
DRAFT
 62
    18
420
        0
370
    25
100
AcDbLine
 10
-27.00562971499993
 20
285.6397894642642
 30
0.0
 11
-26.95727348750008
 21
285.8090297655646
 31
0.0
  0
LINE
  5
176
330
70
100
AcDbEntity
  8
DRAFT
 62
    18
420
        0
370
    25
100
AcDbLine
 10
-26.80766870819994
 20
285.9111984574645
 30
0.0
 11
-26.75416688039988
 21
286.0984476686642
 31
0.0
  0
LINE
  5
177
330
70
100
AcDbEntity
  8
DRAFT
 62
    18
420
        0
370
    25
100
AcDbLine
 10
-26.60388678649987
 20
286.2029798707642
 30
0.0
 11
-26.55106027329999
 21
286.3878655718646
 31
0.0
  0
LINE
  5
178
330
70
100
AcDbEntity
  8
DRAFT
 62
    18
420
        0
370
    25
100
AcDbLine
 10
-26.40010486489991
 20
286.4947612839645
 30
0.0
 11
-26.3479536661
 21
286.6772834750642
 31
0.0
  0
LINE
  5
179
330
70
100
AcDbEntity
  8
DRAFT
 62
    18
420
        0
370
    25
100
AcDbLine
 10
-32.52665892110008
 20
287.3352629233641
 30
0.0
 11
-32.46668219729994
 21
287.5009158053645
 31
0.0
  0
LINE
  5
17A
330
70
100
AcDbEntity
  8
DRAFT
 62
    18
420
        0
370
    25
100
AcDbLine
 10
-32.28342561610013
 20
287.5927503550645
 30
0.0
 11
-32.21705994620015
 21
287.7760492049644
 31
0.0
  0
LINE
  5
17B
330
70
100
AcDbEntity
  8
DRAFT
 62
    18
420
        0
370
    25
100
AcDbLine
 10
-32.03296567960006
 20
287.8701974021644
 30
0.0
 11
-31.96743769510005
 21
288.0511826044642
 31
0.0
  0
LINE
  5
17C
330
70
100
AcDbEntity
  8
DRAFT
 62
    18
420
        0
370
    25
100
AcDbLine
 10
-31.78250574309999
 20
288.1476444492641
 30
0.0
 11
-31.71781544390016
 21
288.326316003964
 31
0.0
  0
LINE
  5
17D
330
70
100
AcDbEntity
  8
DRAFT
 62
   250
420
  3355443
370
    25
100
AcDbLine
 10
-41.16866344099991
 20
290.2189992564646
 30
0.0
 11
-41.52505253699985
 21
289.9041586194643
 31
0.0
  0
LINE
  5
17E
330
70
100
AcDbEntity
  8
DRAFT
 62
    18
420
        0
370
    25
100
AcDbLine
 10
-26.45783907319987
 20
286.5207016456646
 30
0.0
 11
-26.55106027329999
 21
286.3878655718646
 31
0.0
  0
LINE
  5
17F
330
70
100
AcDbEntity
  8
DRAFT
 62
    18
420
        0
370
    25
100
AcDbLine
 10
-26.66236860459986
 20
286.2292561384644
 30
0.0
 11
-26.75416688039988
 21
286.0984476686642
 31
0.0
  0
LINE
  5
180
330
70
100
AcDbEntity
  8
DRAFT
 62
    18
420
        0
370
    25
100
AcDbLine
 10
-26.86689813609996
 20
285.9378106312643
 30
0.0
 11
-26.95727348750008
 21
285.8090297655646
 31
0.0
  0
LINE
  5
181
330
70
100
AcDbEntity
  8
DRAFT
 62
    18
420
        0
370
    25
100
AcDbLine
 10
-31.8528668983
 20
288.1774624239644
 30
0.0
 11
-31.96743769510005
 21
288.0511826044642
 31
0.0
  0
LINE
  5
182
330
70
100
AcDbEntity
  8
DRAFT
 62
    18
420
        0
370
    25
100
AcDbLine
 10
-32.10423795300009
 20
287.900401494764
 30
0.0
 11
-32.21705994620015
 21
287.7760492049644
 31
0.0
  0
LINE
  5
183
330
70
100
AcDbEntity
  8
DRAFT
 62
    18
420
        0
370
    25
100
AcDbLine
 10
-32.35560900779997
 20
287.6233405655644
 30
0.0
 11
-32.46668219729994
 21
287.5009158053645
 31
0.0
  0
LINE
  5
184
330
70
100
AcDbEntity
  8
DRAFT
 62
    18
420
        0
370
    25
100
AcDbLine
 10
37.7551804388003
 20
265.2540198631641
 30
0.0
 11
-41.16559135980007
 21
289.4898243014644
 31
0.0
  0
LINE
  5
185
330
70
100
AcDbEntity
  8
DRAFT
 62
    18
420
        0
370
    25
100
AcDbLine
 10
33.16292330539973
 20
267.3466997722645
 30
0.0
 11
27.65351459569998
 21
269.0385858121644
 31
0.0
  0
LINE
  5
186
330
70
100
AcDbEntity
  8
DRAFT
 62
    18
420
        0
370
    25
100
AcDbLine
 10
-26.95727348750008
 20
285.8090297655646
 30
0.0
 11
-32.46668219729994
 21
287.5009158053645
 31
0.0
  0
LINE
  5
187
330
70
100
AcDbEntity
  8
DRAFT
 62
    18
420
        0
370
    25
100
AcDbLine
 10
33.25329865689996
 20
267.4754806380642
 30
0.0
 11
27.76458778519995
 21
269.1610105723643
 31
0.0
  0
LINE
  5
188
330
70
100
AcDbEntity
  8
DRAFT
 62
    18
420
        0
370
    25
100
AcDbLine
 10
-26.86689813609996
 20
285.9378106312643
 30
0.0
 11
-32.35560900779997
 21
287.6233405655644
 31
0.0
  0
LINE
  5
189
330
70
100
AcDbEntity
  8
DRAFT
 62
    18
420
        0
370
    25
100
AcDbLine
 10
33.36602991260004
 20
267.6361176754642
 30
0.0
 11
27.90313684679976
 21
269.3137192116643
 31
0.0
  0
LINE
  5
18A
330
70
100
AcDbEntity
  8
DRAFT
 62
    18
420
        0
370
    25
100
AcDbLine
 10
-26.75416688039988
 20
286.0984476686642
 30
0.0
 11
-32.21705994620015
 21
287.7760492049644
 31
0.0
  0
LINE
  5
18B
330
70
100
AcDbEntity
  8
DRAFT
 62
    18
420
        0
370
    25
100
AcDbLine
 10
33.45782818830027
 20
267.7669261452644
 30
0.0
 11
28.01595883989972
 21
269.438071501564
 31
0.0
  0
LINE
  5
18C
330
70
100
AcDbEntity
  8
DRAFT
 62
    18
420
        0
370
    25
100
AcDbLine
 10
-26.66236860459986
 20
286.2292561384644
 30
0.0
 11
-32.10423795300009
 21
287.900401494764
 31
0.0
  0
LINE
  5
18D
330
70
100
AcDbEntity
  8
DRAFT
 62
    18
420
        0
370
    25
100
AcDbLine
 10
33.56913651970025
 20
267.9255355786645
 30
0.0
 11
28.15275909790019
 21
269.5888526112641
 31
0.0
  0
LINE
  5
18E
330
70
100
AcDbEntity
  8
DRAFT
 62
    18
420
        0
370
    25
100
AcDbLine
 10
-26.55106027329999
 20
286.3878655718646
 30
0.0
 11
-31.96743769510005
 21
288.0511826044642
 31
0.0
  0
LINE
  5
18F
330
70
100
AcDbEntity
  8
DRAFT
 62
    18
420
        0
370
    25
100
AcDbLine
 10
33.66235771980004
 20
268.0583716524645
 30
0.0
 11
28.26732989470024
 21
269.7151324307644
 31
0.0
  0
LINE
  5
190
330
70
100
AcDbEntity
  8
DRAFT
 62
    18
420
        0
370
    25
100
AcDbLine
 10
-26.45783907319987
 20
286.5207016456646
 30
0.0
 11
-31.8528668983
 21
288.1774624239644
 31
0.0
  0
LINE
  5
191
330
70
100
AcDbEntity
  8
DRAFT
 62
    18
420
        0
370
    25
100
AcDbLine
 10
33.77224312679981
 20
268.2149534817642
 30
0.0
 11
28.40238134899998
 21
269.863986010764
 31
0.0
  0
LINE
  5
192
330
70
100
AcDbEntity
  8
DRAFT
 62
    18
420
        0
370
    25
100
AcDbLine
 10
-26.3479536661
 20
286.6772834750642
 30
0.0
 11
-31.71781544390016
 21
288.326316003964
 31
0.0
  0
LINE
  5
193
330
70
100
AcDbEntity
  8
DRAFT
 62
    18
420
        0
370
    25
100
AcDbLine
 10
37.7427350515002
 20
265.7543048471642
 30
0.0
 11
-40.89587612710008
 21
289.9035143391642
 31
0.0
  0
LWPOLYLINE
  5
194
330
70
100
AcDbEntity
  8
DRAFT
 62
    18
420
        0
370
    25
100
AcDbPolyline
 90
       10
 70
     0
 43
0.0
 10
-40.89587612710008
 20
289.9035143391642
 10
-40.91327165370015
 20
289.9093529144644
 10
-40.93105732650005
 20
289.916341311464
 10
-40.94914695540005
 20
289.9245226374646
 10
-40.96742894759991
 20
289.9339245062645
 10
-40.98580782700003
 20
289.9445790704642
 10
-41.0042013741999
 20
289.9565291762645
 10
-41.02248517379996
 20
289.9697945432646
 10
-41.04049579540004
 20
289.9843626810644
 10
-41.05807100619997
 20
290.0002138990645
  0
LWPOLYLINE
  5
195
330
70
100
AcDbEntity
  8
DRAFT
 62
    18
420
        0
370
    25
100
AcDbPolyline
 90
        7
 70
     0
 43
0.0
 10
-41.16559135980007
 20
289.4898243014644
 10
-41.21290797640015
 20
289.5073464877643
 10
-41.2580327054001
 20
289.5289338215643
 10
-41.30096554679989
 20
289.5545863028642
 10
-41.34234514870014
 20
289.5848704052646
 10
-41.38153286299991
 20
289.6192196551642
 10
-41.41661274499992
 20
289.6559346321641
  0
LINE
  5
196
330
70
100
AcDbEntity
  8
DRAFT
 62
    18
420
        0
370
    25
100
AcDbLine
 10
-26.86689813609996
 20
285.9378106312643
 30
0.0
 11
-26.80766870819994
 21
285.9111984574645
 31
0.0
  0
LINE
  5
197
330
70
100
AcDbEntity
  8
DRAFT
 62
    18
420
        0
370
    25
100
AcDbLine
 10
-26.66236860459986
 20
286.2292561384644
 30
0.0
 11
-26.60388678649987
 21
286.2029798707642
 31
0.0
  0
LINE
  5
198
330
70
100
AcDbEntity
  8
DRAFT
 62
    18
420
        0
370
    25
100
AcDbLine
 10
-26.45783907319987
 20
286.5207016456646
 30
0.0
 11
-26.40010486489991
 21
286.4947612839645
 31
0.0
  0
LINE
  5
199
330
70
100
AcDbEntity
  8
DRAFT
 62
    18
420
        0
370
    25
100
AcDbLine
 10
33.25329865689996
 20
267.4754806380642
 30
0.0
 11
33.3125280848003
 21
267.4488684642645
 31
0.0
  0
LINE
  5
19A
330
70
100
AcDbEntity
  8
DRAFT
 62
    18
420
        0
370
    25
100
AcDbLine
 10
33.45782818830027
 20
267.7669261452644
 30
0.0
 11
33.51631000650005
 21
267.7406498775642
 31
0.0
  0
LINE
  5
19B
330
70
100
AcDbEntity
  8
DRAFT
 62
    18
420
        0
370
    25
100
AcDbLine
 10
33.66235771980004
 20
268.0583716524645
 30
0.0
 11
33.72009192810033
 21
268.0324312907645
 31
0.0
  0
LINE
  5
19C
330
70
100
AcDbEntity
  8
DRAFT
 62
    18
420
        0
370
    25
100
AcDbLine
 10
27.5935317209999
 20
268.8729159416645
 30
0.0
 11
27.65351459569998
 21
269.0385858121644
 31
0.0
  0
LINE
  5
19D
330
70
100
AcDbEntity
  8
DRAFT
 62
    18
420
        0
370
    25
100
AcDbLine
 10
27.83677117680001
 20
269.1304203618646
 30
0.0
 11
27.90313684679976
 21
269.3137192116643
 31
0.0
  0
LINE
  5
19E
330
70
100
AcDbEntity
  8
DRAFT
 62
    18
420
        0
370
    25
100
AcDbLine
 10
28.08723111340018
 20
269.4078674089643
 30
0.0
 11
28.15275909790019
 21
269.5888526112641
 31
0.0
  0
LINE
  5
19F
330
70
100
AcDbEntity
  8
DRAFT
 62
    18
420
        0
370
    25
100
AcDbLine
 10
28.33769104990025
 20
269.685314455964
 30
0.0
 11
28.40238134899998
 21
269.863986010764
 31
0.0
  0
LINE
  5
1A0
330
70
100
AcDbEntity
  8
DRAFT
 62
    18
420
        0
370
    25
100
AcDbLine
 10
33.11449615220001
 20
267.1772112401645
 30
0.0
 11
33.16292330539973
 21
267.3466997722645
 31
0.0
  0
LINE
  5
1A1
330
70
100
AcDbEntity
  8
DRAFT
 62
    18
420
        0
370
    25
100
AcDbLine
 10
33.3125280848003
 20
267.4488684642645
 30
0.0
 11
33.36602991260004
 21
267.6361176754642
 31
0.0
  0
LINE
  5
1A2
330
70
100
AcDbEntity
  8
DRAFT
 62
    18
420
        0
370
    25
100
AcDbLine
 10
33.51631000650005
 20
267.7406498775642
 30
0.0
 11
33.56913651970025
 21
267.9255355786645
 31
0.0
  0
LINE
  5
1A3
330
70
100
AcDbEntity
  8
DRAFT
 62
    18
420
        0
370
    25
100
AcDbLine
 10
33.72009192810033
 20
268.0324312907645
 30
0.0
 11
33.77224312679981
 21
268.2149534817642
 31
0.0
  0
LINE
  5
1A4
330
70
100
AcDbEntity
  8
DRAFT
 62
    18
420
        0
370
    25
100
AcDbLine
 10
33.66235771980004
 20
268.0583716524645
 30
0.0
 11
33.56913651970025
 21
267.9255355786645
 31
0.0
  0
LINE
  5
1A5
330
70
100
AcDbEntity
  8
DRAFT
 62
    18
420
        0
370
    25
100
AcDbLine
 10
33.45782818830027
 20
267.7669261452644
 30
0.0
 11
33.36602991260004
 21
267.6361176754642
 31
0.0
  0
LINE
  5
1A6
330
70
100
AcDbEntity
  8
DRAFT
 62
    18
420
        0
370
    25
100
AcDbLine
 10
33.25329865689996
 20
267.4754806380642
 30
0.0
 11
33.16292330539973
 21
267.3466997722645
 31
0.0
  0
LINE
  5
1A7
330
70
100
AcDbEntity
  8
DRAFT
 62
    18
420
        0
370
    25
100
AcDbLine
 10
28.26732989470024
 20
269.7151324307644
 30
0.0
 11
28.15275909790019
 21
269.5888526112641
 31
0.0
  0
LINE
  5
1A8
330
70
100
AcDbEntity
  8
DRAFT
 62
    18
420
        0
370
    25
100
AcDbLine
 10
28.01595883989972
 20
269.438071501564
 30
0.0
 11
27.90313684679976
 21
269.3137192116643
 31
0.0
  0
LINE
  5
1A9
330
70
100
AcDbEntity
  8
DRAFT
 62
    18
420
        0
370
    25
100
AcDbLine
 10
27.76458778519995
 20
269.1610105723643
 30
0.0
 11
27.65351459569998
 21
269.0385858121644
 31
0.0
  0
LINE
  5
1AA
330
70
100
AcDbEntity
  8
0
 62
   250
420
  3355443
370
    25
100
AcDbLine
 10
-43.29513257970008
 20
323.2239577308645
 30
0.0
 11
-42.43603348220005
 21
288.6895258700644
 31
0.0
  0
LINE
  5
1AB
330
70
100
AcDbEntity
  8
0
 62
    18
420
        0
370
    25
100
AcDbLine
 10
-41.52754976589988
 20
289.8279827907646
 30
0.0
 11
-42.35111624889994
 21
322.9340594612642
 31
0.0
  0
LWPOLYLINE
  5
1AC
330
70
100
AcDbEntity
  8
0
 62
   250
420
  3355443
370
    25
100
AcDbPolyline
 90
       10
 70
     0
 43
0.0
 10
-42.43603348220005
 20
288.6895258700644
 10
-42.43096929879987
 20
288.6478878276643
 10
-42.41794022479998
 20
288.6050217424642
 10
-42.39734214180003
 20
288.5622300789641
 10
-42.3698009123001
 20
288.5208130399643
 10
-42.33615336250007
 20
288.4820290614643
 10
-42.29742185630011
 20
288.4470565748643
 10
-42.2547832307999
 20
288.416958201464
 10
-42.20953303910009
 20
288.3926484652646
 10
-42.16304618539989
 20
288.3748660051643
  0
LINE
  5
1AD
330
70
100
AcDbEntity
  8
0
 62
   250
420
  3355443
370
    25
100
AcDbLine
 10
-41.52754976589988
 20
289.8279827907646
 30
0.0
 11
-42.43603348220005
 21
288.6895258700644
 31
0.0
  0
LINE
  5
1AE
330
70
100
AcDbEntity
  8
0
 62
   250
420
  3355443
370
    25
100
AcDbLine
 10
-41.25456246910004
 20
289.5133229258645
 30
0.0
 11
-42.16304618539989
 21
288.3748660051643
 31
0.0
  0
LWPOLYLINE
  5
1AF
330
70
100
AcDbEntity
  8
0
 62
   250
420
  3355443
370
    25
100
AcDbPolyline
 90
        5
 70
     0
 43
0.0
 10
37.64094837240017
 20
263.8678324141645
 10
37.68725940859989
 20
263.857117541264
 10
37.73198748990008
 20
263.8537958215646
 10
37.77377357610016
 20
263.8579681838641
 10
37.78978710900009
 20
263.8628861775645
  0
LWPOLYLINE
  5
1B0
330
70
100
AcDbEntity
  8
0
 62
    18
420
        0
370
    25
100
AcDbPolyline
 90
       10
 70
     0
 43
0.0
 10
-41.25456246910004
 20
289.5133229258645
 10
-41.30318273550002
 20
289.5326105674644
 10
-41.3479746258001
 20
289.5566740906644
 10
-41.38893813999995
 20
289.5855134955645
 10
-41.42706489129983
 20
289.6202717688642
 10
-41.46136326650012
 20
289.6598059238641
 10
-41.48885842549987
 20
289.7006869995642
 10
-41.50855875510013
 20
289.7417720091642
 10
-41.52145586849985
 20
289.7842039395645
 10
-41.52754976589988
 20
289.8279827907646
  0
LINE
  5
1B1
330
70
100
AcDbEntity
  8
0
 62
   250
420
  3355443
370
    25
100
AcDbLine
 10
-42.16304618539989
 20
288.3748660051643
 30
0.0
 11
37.64094837240017
 21
263.8678324141645
 31
0.0
  0
LINE
  5
1B2
330
70
100
AcDbEntity
  8
0
 62
    18
420
        0
370
    25
100
AcDbLine
 10
37.75527628770007
 20
265.2501668875645
 30
0.0
 11
-41.25456246910004
 21
289.5133229258645
 31
0.0
  0
LINE
  5
1B3
330
70
100
AcDbEntity
  8
0
 62
    18
420
        0
370
    25
100
AcDbLine
 10
-6.188364367799986
 20
280.4927807310642
 30
0.0
 11
-6.907613060000138
 21
279.4678832582644
 31
0.0
  0
LINE
  5
1B4
330
70
100
AcDbEntity
  8
0
 62
    18
420
        0
370
    25
100
AcDbLine
 10
-11.53195707100002
 20
282.1337462817644
 30
0.0
 11
-12.41592869650004
 21
281.1594336259641
 31
0.0
  0
LWPOLYLINE
  5
1B5
330
70
100
AcDbEntity
  8
0
 62
    18
420
        0
370
    25
100
AcDbPolyline
 90
        7
 70
     0
 43
0.0
 10
-43.34771529859994
 20
323.2401053744642
 10
-43.38173978839988
 20
323.2492477003644
 10
-43.4088931671999
 20
323.2544090082641
 10
-43.42826671110006
 20
323.2565626714645
 10
-43.43922542340012
 20
323.2569148544643
 10
-43.44149330340015
 20
323.2568579114644
 10
-43.44111213199987
 20
323.2569030948644
  0
LINE
  5
1B6
330
70
100
AcDbEntity
  8
0
 62
    18
420
        0
370
    25
100
AcDbLine
 10
36.45627925910033
 20
298.7330717834644
 30
0.0
 11
-43.34771529859994
 21
323.2401053744642
 31
0.0
  0
LINE
  5
1B7
330
70
100
AcDbEntity
  8
0
 62
    18
420
        0
370
    25
100
AcDbLine
 10
8.508108526699878
 20
275.9796362839645
 30
0.0
 11
7.624136901199855
 21
275.0053236281642
 31
0.0
  0
LINE
  5
1B8
330
70
100
AcDbEntity
  8
0
 62
    18
420
        0
370
    25
100
AcDbLine
 10
13.85170122989991
 20
274.3386707333645
 30
0.0
 11
13.13245253770008
 21
273.313773260564
 31
0.0
  0
LWPOLYLINE
  5
1B9
330
70
100
AcDbEntity
  8
0
 62
    18
420
        0
370
    25
100
AcDbPolyline
 90
        3
 70
     0
 43
0.0
 10
36.93309359360005
 20
298.3006174191643
 10
36.9334628686997
 20
298.2943318331644
 10
36.93322093659971
 20
298.2954984344643
  0
LINE
  5
1BA
330
70
100
AcDbEntity
  8
0
 62
    18
420
        0
370
    25
100
AcDbLine
 10
37.79334168600014
 20
263.7199977773641
 30
0.0
 11
36.93309359360005
 21
298.3006174191643
 31
0.0
  0
LWPOLYLINE
  5
1BB
330
70
100
AcDbEntity
  8
0
 62
    18
420
        0
370
    25
100
AcDbPolyline
 90
       14
 70
     0
 43
0.0
 10
-60.62274644180007
 20
347.8795674186643
 10
-60.85827125809995
 20
347.9425600493644
 10
-61.08813628370003
 20
347.9869317813641
 10
-61.31234151859997
 20
348.0126826145642
 10
-61.53249894120015
 20
348.0197255391642
 10
-61.74699657319997
 20
348.0081475649645
 10
-61.95099847939996
 20
347.9782097221642
 10
-62.1442662376001
 20
347.9294949457643
 10
-62.32703827000009
 20
347.8624203008644
 10
-62.49519390780008
 20
347.7784980120642
 10
-62.64840112319985
 20
347.6773453662644
 10
-62.78699194410005
 20
347.5593450767641
 10
-62.90784178459986
 20
347.4271575071644
 10
-62.97050258399986
 20
347.3427193899644
  0
LINE
  5
1BC
330
70
100
AcDbEntity
  8
0
 62
    18
420
        0
370
    25
100
AcDbLine
 10
60.95365151720024
 20
310.5446334324643
 30
0.0
 11
-60.62274644180007
 21
347.8795674186643
 31
0.0
  0
LWPOLYLINE
  5
1BD
330
70
100
AcDbEntity
  8
0
 62
    18
420
        0
370
    25
100
AcDbPolyline
 90
       19
 70
     0
 43
0.0
 10
60.95365151720024
 20
310.5446334324643
 10
61.18964434270004
 20
310.4628275633642
 10
61.42082381870017
 20
310.3656169954645
 10
61.64718994499979
 20
310.2530017287643
 10
61.87038388099999
 20
310.1238957462642
 10
62.0887644673003
 20
309.9793850649643
 10
62.29740822609986
 20
309.8227277361644
 10
62.49609397440032
 20
309.6536478351643
 10
62.6850428952
 20
309.4724212866643
 10
62.85999505920023
 20
309.2831339159645
 10
63.02063251450025
 20
309.0856026123641
 10
63.16727321300018
 20
308.8800104865645
 10
63.29661108140005
 20
308.6709926953643
 10
63.40825306660012
 20
308.4584714210643
 10
63.50259222149992
 20
308.2425244814643
 10
63.57750163230004
 20
308.0280204869643
 10
63.63227232750002
 20
307.8165823076643
 10
63.66761327840011
 20
307.6065870733644
 10
63.68352448500032
 20
307.3980347841644
  0
LWPOLYLINE
  5
1BE
330
70
100
AcDbEntity
  8
0
 62
    18
420
        0
370
    25
100
AcDbPolyline
 90
       17
 70
     0
 43
0.0
 10
36.93299423549978
 20
298.2965915913642
 10
36.9302588160999
 20
298.3070126362644
 10
36.92399713410026
 20
298.3250728591644
 10
36.91336201850023
 20
298.3495873166642
 10
36.89801041759974
 20
298.3789742891644
 10
36.87775697190001
 20
298.4120101843642
 10
36.85252572969995
 20
298.4476631532643
 10
36.82246511290018
 20
298.4848503350644
 10
36.78775607020026
 20
298.5226697811644
 10
36.7490415215003
 20
298.5599290391643
 10
36.70739668640015
 20
298.5953514740644
 10
36.66369207589981
 20
298.6281470945643
 10
36.61894959910005
 20
298.6576204110642
 10
36.57470916590017
 20
298.6830018051643
 10
36.53223140930025
 20
298.7039859078642
 10
36.49242362310013
 20
298.7206266610644
 10
36.45627925910033
 20
298.7330717834644
  0
LINE
  5
1BF
330
70
100
AcDbEntity
  8
0
 62
   250
420
  3355443
370
    25
100
AcDbLine
 10
37.64094837240017
 20
263.8678324141645
 30
0.0
 11
37.78516817729985
 21
264.0485599628643
 31
0.0
  0
LWPOLYLINE
  5
1C0
330
70
100
AcDbEntity
  8
0
 62
    18
420
        0
370
    25
100
AcDbPolyline
 90
        8
 70
     0
 43
0.0
 10
64.71723810080018
 20
248.8940447648641
 10
64.78179276549989
 20
248.9690260491645
 10
64.88449861959992
 20
249.1157231785643
 10
64.9694634934998
 20
249.276607588064
 10
65.03477181999987
 20
249.4480520738644
 10
65.07978507659995
 20
249.6288475683645
 10
65.10514178580021
 20
249.8202031392641
 10
65.11084194760003
 20
250.0221187865645
  0
ENDSEC
  0
SECTION
  2
OBJECTS
  0
DICTIONARY
  5
C
330
0
100
AcDbDictionary
281
     1
  3
ACAD_COLOR
350
63
  3
ACAD_DETAILVIEWSTYLE
350
6A
  3
ACAD_GROUP
350
D
  3
ACAD_LAYOUT
350
62
  3
ACAD_MATERIAL
350
10
  3
ACAD_MLEADERSTYLE
350
66
  3
ACAD_MLINESTYLE
350
5F
  3
ACAD_PLOTSETTINGS
350
61
  3
ACAD_PLOTSTYLENAME
350
E
  3
ACAD_SCALELIST
350
42
  3
ACAD_SECTIONVIEWSTYLE
350
68
  3
ACAD_TABLESTYLE
350
64
  3
ACAD_VISUALSTYLE
350
29
  3
ACDB_RECOMPOSE_DATA
350
1C9
  3
AcDbVariableDictionary
350
1C1
  0
DICTIONARY
  5
63
102
{ACAD_REACTORS
330
C
102
}
330
C
100
AcDbDictionary
281
     1
  0
DICTIONARY
  5
6A
102
{ACAD_REACTORS
330
C
102
}
330
C
100
AcDbDictionary
281
     1
  3
Imperial24
350
6B
  0
DICTIONARY
  5
D
102
{ACAD_REACTORS
330
C
102
}
330
C
100
AcDbDictionary
281
     1
  0
DICTIONARY
  5
62
102
{ACAD_REACTORS
330
C
102
}
330
C
100
AcDbDictionary
281
     1
  3
Layout1
350
6F
  3
Layout2
350
77
  3
Model
350
73
  0
DICTIONARY
  5
10
102
{ACAD_REACTORS
330
C
102
}
330
C
100
AcDbDictionary
281
     1
  3
ByBlock
350
19
  3
ByLayer
350
11
  3
Global
350
21
  0
DICTIONARY
  5
66
102
{ACAD_REACTORS
330
C
102
}
330
C
100
AcDbDictionary
281
     1
  3
Standard
350
67
  0
DICTIONARY
  5
5F
102
{ACAD_REACTORS
330
C
102
}
330
C
100
AcDbDictionary
281
     1
  3
Standard
350
60
  0
DICTIONARY
  5
61
102
{ACAD_REACTORS
330
C
102
}
330
C
100
AcDbDictionary
281
     1
  0
ACDBDICTIONARYWDFLT
  5
E
102
{ACAD_REACTORS
330
C
102
}
330
C
100
AcDbDictionary
281
     1
  3
Normal
350
F
100
AcDbDictionaryWithDefault
340
F
  0
DICTIONARY
  5
42
102
{ACAD_REACTORS
330
C
102
}
330
C
100
AcDbDictionary
281
     1
  3
A0
350
43
  3
A1
350
44
  3
A2
350
45
  3
A3
350
46
  3
A4
350
47
  3
A5
350
48
  3
A6
350
49
  3
A7
350
4A
  3
A8
350
4B
  3
A9
350
4C
  3
B0
350
4D
  3
B1
350
4E
  3
B2
350
4F
  3
B3
350
50
  3
B4
350
51
  3
B5
350
52
  3
B6
350
53
  0
DICTIONARY
  5
68
102
{ACAD_REACTORS
330
C
102
}
330
C
100
AcDbDictionary
281
     1
  3
Imperial24
350
69
  0
DICTIONARY
  5
64
102
{ACAD_REACTORS
330
C
102
}
330
C
100
AcDbDictionary
281
     1
  3
Standard
350
65
  0
DICTIONARY
  5
29
102
{ACAD_REACTORS
330
C
102
}
330
C
100
AcDbDictionary
281
     1
  3
2dWireframe
350
2F
  3
Basic
350
2E
  3
Brighten
350
35
  3
ColorChange
350
39
  3
Conceptual
350
32
  3
Dim
350
34
  3
EdgeColorOff
350
41
  3
Facepattern
350
38
  3
Flat
350
2A
  3
FlatWithEdges
350
2B
  3
Gouraud
350
2C
  3
GouraudWithEdges
350
2D
  3
Hidden
350
31
  3
JitterOff
350
3F
  3
Linepattern
350
37
  3
OverhangOff
350
40
  3
Realistic
350
33
  3
Shaded
350
3E
  3
Shaded with edges
350
3D
  3
Shades of Gray
350
3A
  3
Sketchy
350
3B
  3
Thicken
350
36
  3
Wireframe
350
30
  3
X-Ray
350
3C
  0
XRECORD
  5
1C9
102
{ACAD_REACTORS
330
C
102
}
330
C
100
AcDbXrecord
280
     1
 90
        1
330
65
  0
DICTIONARY
  5
1C1
102
{ACAD_REACTORS
330
C
102
}
330
C
100
AcDbDictionary
281
     1
  3
CANNOSCALE
350
1C6
  3
CMLEADERSTYLE
350
1C3
  3
CTABLESTYLE
350
1C2
  3
CVIEWDETAILSTYLE
350
1C4
  3
CVIEWSECTIONSTYLE
350
1C5
  0
ACDBDETAILVIEWSTYLE
  5
6B
102
{ACAD_REACTORS
330
6A
102
}
330
6A
100
AcDbModelDocViewStyle
 70
     0
  3
Imperial24
290
     1
300
Imperial24
 90
        0
100
AcDbDetailViewStyle
 70
     0
 71
     0
 90
        3
 71
     1
340
55
 62
   256
 40
0.24
340
0
 62
   256
 40
0.24
300

 40
0.36
280
     3
 71
     2
340
5D
 90
       25
 62
   256
 71
     3
340
55
 62
   256
 40
0.24
 90
        1
 40
0.75
 90
        1
300
%<\AcVar ViewType \f "%tc1">% %<\AcVar ViewDetailId>%\PSCALE %<\AcVar ViewScale \f "%sn">%
 71
     4
340
5D
 90
       25
 62
   256
340
5D
 90
       25
 62
   256
280
     0
  0
LAYOUT
  5
6F
102
{ACAD_REACTORS
330
62
102
}
330
62
100
AcDbPlotSettings
  1

  2

  4

  6

 40
0.0
 41
0.0
 42
0.0
 43
0.0
 44
0.0
 45
0.0
 46
0.0
 47
0.0
 48
0.0
 49
0.0
140
0.0
141
0.0
142
1.0
143
1.0
 70
   688
 72
     0
 73
     0
 74
     5
  7

 75
    16
147
1.0
 76
     0
 77
     2
 78
   300
148
0.0
149
0.0
100
AcDbLayout
  1
Layout1
 70
     1
 71
     1
 10
0.0
 20
0.0
 11
12.0
 21
9.0
 12
0.0
 22
0.0
 32
0.0
 14
0.0
 24
0.0
 34
0.0
 15
0.0
 25
0.0
 35
0.0
146
0.0
 13
0.0
 23
0.0
 33
0.0
 16
1.0
 26
0.0
 36
0.0
 17
0.0
 27
1.0
 37
0.0
 76
     0
330
6C
  0
LAYOUT
  5
77
102
{ACAD_REACTORS
330
62
102
}
330
62
100
AcDbPlotSettings
  1

  2

  4

  6

 40
0.0
 41
0.0
 42
0.0
 43
0.0
 44
0.0
 45
0.0
 46
0.0
 47
0.0
 48
0.0
 49
0.0
140
0.0
141
0.0
142
1.0
143
1.0
 70
   688
 72
     0
 73
     0
 74
     5
  7

 75
    16
147
1.0
 76
     0
 77
     2
 78
   300
148
0.0
149
0.0
100
AcDbLayout
  1
Layout2
 70
     1
 71
     2
 10
0.0
 20
0.0
 11
12.0
 21
9.0
 12
0.0
 22
0.0
 32
0.0
 14
0.0
 24
0.0
 34
0.0
 15
0.0
 25
0.0
 35
0.0
146
0.0
 13
0.0
 23
0.0
 33
0.0
 16
1.0
 26
0.0
 36
0.0
 17
0.0
 27
1.0
 37
0.0
 76
     0
330
74
  0
LAYOUT
  5
73
102
{ACAD_REACTORS
330
62
102
}
330
62
100
AcDbPlotSettings
  1

  2

  4

  6

 40
0.0
 41
0.0
 42
0.0
 43
0.0
 44
0.0
 45
0.0
 46
0.0
 47
0.0
 48
0.0
 49
0.0
140
0.0
141
0.0
142
1.0
143
1.0
 70
  1712
 72
     0
 73
     0
 74
     0
  7

 75
     0
147
1.0
 76
     0
 77
     2
 78
   300
148
0.0
149
0.0
100
AcDbLayout
  1
Model
 70
     1
 71
     0
 10
0.0
 20
0.0
 11
12.0
 21
9.0
 12
0.0
 22
0.0
 32
0.0
 14
0.0
 24
0.0
 34
0.0
 15
0.0
 25
0.0
 35
0.0
146
0.0
 13
0.0
 23
0.0
 33
0.0
 16
1.0
 26
0.0
 36
0.0
 17
0.0
 27
1.0
 37
0.0
 76
     0
330
70
  0
MATERIAL
  5
19
102
{ACAD_XDICTIONARY
360
1A
102
}
102
{ACAD_REACTORS
330
10
102
}
330
10
100
AcDbMaterial
  1
ByBlock
 72
     0
 43
0.0208333333333333
 43
0.0
 43
0.0
 43
0.0
 43
0.0
 43
0.0208333333333333
 43
0.0
 43
0.0
 43
0.0
 43
0.0
 43
1.0
 43
0.0
 43
0.0
 43
0.0
 43
0.0
 43
1.0
 77
     0
 47
0.0208333333333333
 47
0.0
 47
0.0
 47
0.0
 47
0.0
 47
0.0208333333333333
 47
0.0
 47
0.0
 47
0.0
 47
0.0
 47
1.0
 47
0.0
 47
0.0
 47
0.0
 47
0.0
 47
1.0
171
     0
 49
0.0208333333333333
 49
0.0
 49
0.0
 49
0.0
 49
0.0
 49
0.0208333333333333
 49
0.0
 49
0.0
 49
0.0
 49
0.0
 49
1.0
 49
0.0
 49
0.0
 49
0.0
 49
0.0
 49
1.0
175
     0
142
0.0208333333333333
142
0.0
142
0.0
142
0.0
142
0.0
142
0.0208333333333333
142
0.0
142
0.0
142
0.0
142
0.0
142
1.0
142
0.0
142
0.0
142
0.0
142
0.0
142
1.0
179
     0
144
0.0208333333333333
144
0.0
144
0.0
144
0.0
144
0.0
144
0.0208333333333333
144
0.0
144
0.0
144
0.0
144
0.0
144
1.0
144
0.0
144
0.0
144
0.0
144
0.0
144
1.0
147
0.0208333333333333
147
0.0
147
0.0
147
0.0
147
0.0
147
0.0208333333333333
147
0.0
147
0.0
147
0.0
147
0.0
147
1.0
147
0.0
147
0.0
147
0.0
147
0.0
147
1.0
  0
MATERIAL
  5
11
102
{ACAD_XDICTIONARY
360
12
102
}
102
{ACAD_REACTORS
330
10
102
}
330
10
100
AcDbMaterial
  1
ByLayer
 72
     0
 43
0.0208333333333333
 43
0.0
 43
0.0
 43
0.0
 43
0.0
 43
0.0208333333333333
 43
0.0
 43
0.0
 43
0.0
 43
0.0
 43
1.0
 43
0.0
 43
0.0
 43
0.0
 43
0.0
 43
1.0
 77
     0
 47
0.0208333333333333
 47
0.0
 47
0.0
 47
0.0
 47
0.0
 47
0.0208333333333333
 47
0.0
 47
0.0
 47
0.0
 47
0.0
 47
1.0
 47
0.0
 47
0.0
 47
0.0
 47
0.0
 47
1.0
171
     0
 49
0.0208333333333333
 49
0.0
 49
0.0
 49
0.0
 49
0.0
 49
0.0208333333333333
 49
0.0
 49
0.0
 49
0.0
 49
0.0
 49
1.0
 49
0.0
 49
0.0
 49
0.0
 49
0.0
 49
1.0
175
     0
142
0.0208333333333333
142
0.0
142
0.0
142
0.0
142
0.0
142
0.0208333333333333
142
0.0
142
0.0
142
0.0
142
0.0
142
1.0
142
0.0
142
0.0
142
0.0
142
0.0
142
1.0
179
     0
144
0.0208333333333333
144
0.0
144
0.0
144
0.0
144
0.0
144
0.0208333333333333
144
0.0
144
0.0
144
0.0
144
0.0
144
1.0
144
0.0
144
0.0
144
0.0
144
0.0
144
1.0
147
0.0208333333333333
147
0.0
147
0.0
147
0.0
147
0.0
147
0.0208333333333333
147
0.0
147
0.0
147
0.0
147
0.0
147
1.0
147
0.0
147
0.0
147
0.0
147
0.0
147
1.0
  0
MATERIAL
  5
21
102
{ACAD_XDICTIONARY
360
22
102
}
102
{ACAD_REACTORS
330
10
102
}
330
10
100
AcDbMaterial
  1
Global
 72
     0
 43
0.0208333333333333
 43
0.0
 43
0.0
 43
0.0
 43
0.0
 43
0.0208333333333333
 43
0.0
 43
0.0
 43
0.0
 43
0.0
 43
1.0
 43
0.0
 43
0.0
 43
0.0
 43
0.0
 43
1.0
 77
     0
 47
0.0208333333333333
 47
0.0
 47
0.0
 47
0.0
 47
0.0
 47
0.0208333333333333
 47
0.0
 47
0.0
 47
0.0
 47
0.0
 47
1.0
 47
0.0
 47
0.0
 47
0.0
 47
0.0
 47
1.0
171
     0
 49
0.0208333333333333
 49
0.0
 49
0.0
 49
0.0
 49
0.0
 49
0.0208333333333333
 49
0.0
 49
0.0
 49
0.0
 49
0.0
 49
1.0
 49
0.0
 49
0.0
 49
0.0
 49
0.0
 49
1.0
175
     0
142
0.0208333333333333
142
0.0
142
0.0
142
0.0
142
0.0
142
0.0208333333333333
142
0.0
142
0.0
142
0.0
142
0.0
142
1.0
142
0.0
142
0.0
142
0.0
142
0.0
142
1.0
179
     0
144
0.0208333333333333
144
0.0
144
0.0
144
0.0
144
0.0
144
0.0208333333333333
144
0.0
144
0.0
144
0.0
144
0.0
144
1.0
144
0.0
144
0.0
144
0.0
144
0.0
144
1.0
147
0.0208333333333333
147
0.0
147
0.0
147
0.0
147
0.0
147
0.0208333333333333
147
0.0
147
0.0
147
0.0
147
0.0
147
1.0
147
0.0
147
0.0
147
0.0
147
0.0
147
1.0
  0
MLEADERSTYLE
  5
67
102
{ACAD_REACTORS
330
66
102
}
330
66
100
AcDbMLeaderStyle
179
     2
170
     2
171
     1
172
     0
 90
        2
 40
0.0
 41
0.0
173
     1
 91
-1056964608
340
5B
 92
       -2
290
     1
 42
0.09
291
     1
 43
0.36
  3
Standard
 44
0.18
300

342
55
174
     1
178
     6
175
     1
176
     0
 93
-1056964608
 45
0.18
292
     0
297
     0
 46
0.18
 94
-1056964608
 47
1.0
 49
1.0
140
1.0
293
     1
141
0.0
294
     1
177
     0
142
1.0
295
     1
296
     0
143
0.125
271
     0
272
     9
273
     9
298
     1
  0
MLINESTYLE
  5
60
102
{ACAD_REACTORS
330
5F
102
}
330
5F
100
AcDbMlineStyle
  2
STANDARD
 70
     0
  3

 62
   256
 51
90.0
 52
90.0
 71
     2
 49
0.5
 62
   256
  6
BYLAYER
 49
-0.5
 62
   256
  6
BYLAYER
  0
ACDBPLACEHOLDER
  5
F
102
{ACAD_REACTORS
330
E
102
}
330
E
  0
SCALE
  5
43
102
{ACAD_REACTORS
330
42
102
}
330
42
100
AcDbScale
 70
     0
300
1:1
140
1.0
141
1.0
290
     1
  0
SCALE
  5
44
102
{ACAD_REACTORS
330
42
102
}
330
42
100
AcDbScale
 70
     0
300
1/128" = 1'-0"
140
0.0078125
141
12.0
290
     0
  0
SCALE
  5
45
102
{ACAD_REACTORS
330
42
102
}
330
42
100
AcDbScale
 70
     0
300
1/64" = 1'-0"
140
0.015625
141
12.0
290
     0
  0
SCALE
  5
46
102
{ACAD_REACTORS
330
42
102
}
330
42
100
AcDbScale
 70
     0
300
1/32" = 1'-0"
140
0.03125
141
12.0
290
     0
  0
SCALE
  5
47
102
{ACAD_REACTORS
330
42
102
}
330
42
100
AcDbScale
 70
     0
300
1/16" = 1'-0"
140
0.0625
141
12.0
290
     0
  0
SCALE
  5
48
102
{ACAD_REACTORS
330
42
102
}
330
42
100
AcDbScale
 70
     0
300
3/32" = 1'-0"
140
0.09375
141
12.0
290
     0
  0
SCALE
  5
49
102
{ACAD_REACTORS
330
42
102
}
330
42
100
AcDbScale
 70
     0
300
1/8" = 1'-0"
140
0.125
141
12.0
290
     0
  0
SCALE
  5
4A
102
{ACAD_REACTORS
330
42
102
}
330
42
100
AcDbScale
 70
     0
300
3/16" = 1'-0"
140
0.1875
141
12.0
290
     0
  0
SCALE
  5
4B
102
{ACAD_REACTORS
330
42
102
}
330
42
100
AcDbScale
 70
     0
300
1/4" = 1'-0"
140
0.25
141
12.0
290
     0
  0
SCALE
  5
4C
102
{ACAD_REACTORS
330
42
102
}
330
42
100
AcDbScale
 70
     0
300
3/8" = 1'-0"
140
0.375
141
12.0
290
     0
  0
SCALE
  5
4D
102
{ACAD_REACTORS
330
42
102
}
330
42
100
AcDbScale
 70
     0
300
1/2" = 1'-0"
140
0.5
141
12.0
290
     0
  0
SCALE
  5
4E
102
{ACAD_REACTORS
330
42
102
}
330
42
100
AcDbScale
 70
     0
300
3/4" = 1'-0"
140
0.75
141
12.0
290
     0
  0
SCALE
  5
4F
102
{ACAD_REACTORS
330
42
102
}
330
42
100
AcDbScale
 70
     0
300
1" = 1'-0"
140
1.0
141
12.0
290
     0
  0
SCALE
  5
50
102
{ACAD_REACTORS
330
42
102
}
330
42
100
AcDbScale
 70
     0
300
1-1/2" = 1'-0"
140
1.5
141
12.0
290
     0
  0
SCALE
  5
51
102
{ACAD_REACTORS
330
42
102
}
330
42
100
AcDbScale
 70
     0
300
3" = 1'-0"
140
3.0
141
12.0
290
     0
  0
SCALE
  5
52
102
{ACAD_REACTORS
330
42
102
}
330
42
100
AcDbScale
 70
     0
300
6" = 1'-0"
140
6.0
141
12.0
290
     0
  0
SCALE
  5
53
102
{ACAD_REACTORS
330
42
102
}
330
42
100
AcDbScale
 70
     0
300
1'-0" = 1'-0"
140
12.0
141
12.0
290
     0
  0
ACDBSECTIONVIEWSTYLE
  5
69
102
{ACAD_REACTORS
330
68
102
}
330
68
100
AcDbModelDocViewStyle
 70
     0
  3
Imperial24
290
     1
300
Imperial24
 90
        0
100
AcDbSectionViewStyle
 70
     0
 71
     0
 90
       78
 71
     1
340
55
 62
   256
 40
0.24
340
0
340
0
 62
   256
 40
0.24
300
I, O, Q, S, X, Z
 40
0.48
 90
        3
 40
0.18
 90
        1
 71
     2
340
5D
 90
       25
 62
   256
340
5D
 90
       50
 62
   256
 40
0.24
 40
0.0
 40
0.24
 71
     3
340
55
 62
   256
 40
0.24
 90
        1
 40
0.75
 90
        1
300
%<\AcVar ViewType \f "%tc1">% %<\AcVar ViewSectionStartId>%-%<\AcVar ViewSectionEndId>%\PSCALE %<\AcVar ViewScale \f "%sn">%
 71
     4
 62
   256
 62
   257
300
ANSI31
 40
1.0
 90
        0
290
     0
290
     0
 90
        6
 40
0.0
 40
1.570796326794896
 40
0.2617993877991494
 40
1.308996938995747
 40
-0.2617993877991494
 40
1.832595714594046
  0
TABLESTYLE
  5
65
102
{ACAD_XDICTIONARY
360
1C7
102
}
102
{ACAD_REACTORS
330
64
102
}
330
64
100
AcDbTableStyle
280
     0
  3
Standard
 70
     0
 71
     0
 40
0.06
 41
0.06
280
     0
281
     0
  7
Standard
140
0.18
170
     2
 62
     0
 63
     7
283
     0
 90
      512
 91
        0
  1

274
    -2
284
     1
 64
     0
275
    -2
285
     1
 65
     0
276
    -2
286
     1
 66
     0
277
    -2
287
     1
 67
     0
278
    -2
288
     1
 68
     0
279
    -2
289
     1
 69
     0
  7
Standard
140
0.25
170
     5
 62
     0
 63
     7
283
     0
 90
      512
 91
        0
  1

274
    -2
284
     1
 64
     0
275
    -2
285
     1
 65
     0
276
    -2
286
     1
 66
     0
277
    -2
287
     1
 67
     0
278
    -2
288
     1
 68
     0
279
    -2
289
     1
 69
     0
  7
Standard
140
0.18
170
     5
 62
     0
 63
     7
283
     0
 90
      512
 91
        0
  1

274
    -2
284
     1
 64
     0
275
    -2
285
     1
 65
     0
276
    -2
286
     1
 66
     0
277
    -2
287
     1
 67
     0
278
    -2
288
     1
 68
     0
279
    -2
289
     1
 69
     0
  0
VISUALSTYLE
  5
2F
102
{ACAD_REACTORS
330
29
102
}
330
29
100
AcDbVisualStyle
  2
2dWireframe
 70
     4
177
     3
291
     0
 70
    58
 90
        0
176
     1
 90
        2
176
     1
 90
        0
176
     1
 90
        0
176
     1
 40
0.6
176
     1
 40
30.0
176
     1
 62
     7
420
 16777215
176
     1
 90
        1
176
     1
 90
        4
176
     1
 62
     7
176
     1
 62
   257
176
     1
 90
        1
176
     1
 90
        1
176
     1
 40
1.0
176
     1
 90
        0
176
     1
 62
   257
176
     1
 40
1.0
176
     1
 90
        1
176
     1
 90
        6
176
     1
 90
        2
176
     1
 62
     7
176
     1
 90
        5
176
     1
 90
        0
176
     1
 90
        0
176
     1
290
     0
176
     1
 90
        1
176
     1
 40
0.0
176
     1
 90
        0
176
     1
290
     1
176
     1
290
     1
176
     1
290
     0
176
     1
290
     0
176
     1
290
     0
176
     1
290
     0
176
     1
290
     0
176
     1
290
     0
176
     1
290
     0
176
     1
 90
       50
176
     1
 40
0.0
176
     1
 40
1.0
176
     1
 90
        0
176
     1
 62
    18
420
        0
176
     1
 90
       50
176
     1
 90
        3
176
     1
 62
     5
420
      255
176
     1
290
     0
176
     1
 90
       50
176
     1
 90
       50
176
     1
 90
       50
176
     1
290
     0
176
     1
 90
       50
176
     1
 62
   256
176
     0
 40
1.0
176
     0
 90
        2
176
     1
  1
strokes_ogs.tif
176
     1
290
     0
176
     1
 40
1.0
176
     1
 40
1.0
176
     1
  0
VISUALSTYLE
  5
2E
102
{ACAD_REACTORS
330
29
102
}
330
29
100
AcDbVisualStyle
  2
Basic
 70
     7
177
     3
291
     1
 70
    58
 90
        1
176
     1
 90
        0
176
     1
 90
        1
176
     1
 90
        0
176
     1
 40
0.6
176
     1
 40
30.0
176
     1
 62
     7
420
 16777215
176
     1
 90
        0
176
     1
 90
        4
176
     1
 62
     7
176
     1
 62
   257
176
     1
 90
        1
176
     1
 90
        1
176
     1
 40
1.0
176
     1
 90
        8
176
     1
 62
     7
176
     1
 40
1.0
176
     1
 90
        1
176
     1
 90
        6
176
     1
 90
        2
176
     1
 62
     7
176
     1
 90
        5
176
     1
 90
        0
176
     1
 90
        0
176
     1
290
     0
176
     1
 90
        1
176
     1
 40
0.0
176
     1
 90
        0
176
     1
290
     0
176
     1
290
     1
176
     1
290
     1
176
     1
290
     0
176
     1
290
     0
176
     1
290
     0
176
     1
290
     0
176
     1
290
     0
176
     1
290
     0
176
     1
 90
       50
176
     1
 40
0.0
176
     1
 40
1.0
176
     1
 90
        0
176
     1
 62
    18
420
        0
176
     1
 90
       50
176
     1
 90
        3
176
     1
 62
     5
420
      255
176
     1
290
     0
176
     1
 90
       50
176
     1
 90
       50
176
     1
 90
       50
176
     1
290
     0
176
     1
 90
       50
176
     1
 62
   256
176
     0
 40
1.0
176
     0
 90
        2
176
     1
  1
strokes_ogs.tif
176
     1
290
     0
176
     1
 40
1.0
176
     1
 40
1.0
176
     1
  0
VISUALSTYLE
  5
35
102
{ACAD_REACTORS
330
29
102
}
330
29
100
AcDbVisualStyle
  2
Brighten
 70
    12
177
     3
291
     1
 70
    58
 90
        2
176
     1
 90
        2
176
     1
 90
        0
176
     1
 90
        0
176
     1
 40
0.6
176
     1
 40
30.0
176
     1
 62
     7
420
 16777215
176
     1
 90
        1
176
     1
 90
        4
176
     1
 62
     7
176
     1
 62
   257
176
     1
 90
        1
176
     1
 90
        1
176
     1
 40
1.0
176
     1
 90
        8
176
     1
 62
     7
176
     1
 40
1.0
176
     1
 90
        1
176
     1
 90
        6
176
     1
 90
        2
176
     1
 62
     7
176
     1
 90
        5
176
     1
 90
        0
176
     1
 90
        0
176
     1
290
     0
176
     1
 90
        1
176
     1
 40
50.0
176
     1
 90
        0
176
     1
290
     0
176
     1
290
     1
176
     1
290
     1
176
     1
290
     0
176
     1
290
     0
176
     1
290
     0
176
     1
290
     0
176
     1
290
     0
176
     1
290
     0
176
     1
 90
       50
176
     1
 40
0.0
176
     1
 40
1.0
176
     1
 90
        0
176
     1
 62
    18
420
        0
176
     1
 90
       50
176
     1
 90
        3
176
     1
 62
     5
420
      255
176
     1
290
     0
176
     1
 90
       50
176
     1
 90
       50
176
     1
 90
       50
176
     1
290
     0
176
     1
 90
       50
176
     1
 62
   256
176
     0
 40
1.0
176
     0
 90
        2
176
     1
  1
strokes_ogs.tif
176
     1
290
     0
176
     1
 40
1.0
176
     1
 40
1.0
176
     1
  0
VISUALSTYLE
  5
39
102
{ACAD_REACTORS
330
29
102
}
330
29
100
AcDbVisualStyle
  2
ColorChange
 70
    16
177
     3
291
     1
 70
    58
 90
        2
176
     1
 90
        2
176
     1
 90
        3
176
     1
 90
        0
176
     1
 40
0.6
176
     1
 40
30.0
176
     1
 62
     8
420
  8421504
176
     1
 90
        1
176
     1
 90
        4
176
     1
 62
     7
176
     1
 62
   257
176
     1
 90
        1
176
     1
 90
        1
176
     1
 40
1.0
176
     1
 90
        8
176
     1
 62
     8
420
  8421504
176
     1
 40
1.0
176
     1
 90
        1
176
     1
 90
        6
176
     1
 90
        2
176
     1
 62
     7
176
     1
 90
        5
176
     1
 90
        0
176
     1
 90
        0
176
     1
290
     0
176
     1
 90
        1
176
     1
 40
0.0
176
     1
 90
        0
176
     1
290
     0
176
     1
290
     1
176
     1
290
     1
176
     1
290
     0
176
     1
290
     0
176
     1
290
     0
176
     1
290
     0
176
     1
290
     0
176
     1
290
     0
176
     1
 90
       50
176
     1
 40
0.0
176
     1
 40
1.0
176
     1
 90
        0
176
     1
 62
    18
420
        0
176
     1
 90
       50
176
     1
 90
        3
176
     1
 62
     5
420
      255
176
     1
290
     0
176
     1
 90
       50
176
     1
 90
       50
176
     1
 90
       50
176
     1
290
     0
176
     1
 90
       50
176
     1
 62
   256
176
     0
 40
1.0
176
     0
 90
        2
176
     1
  1
strokes_ogs.tif
176
     1
290
     0
176
     1
 40
1.0
176
     1
 40
1.0
176
     1
  0
VISUALSTYLE
  5
32
102
{ACAD_REACTORS
330
29
102
}
330
29
100
AcDbVisualStyle
  2
Conceptual
 70
     9
177
     3
291
     0
 70
    58
 90
        3
176
     1
 90
        2
176
     1
 90
        0
176
     1
 90
        0
176
     1
 40
0.6
176
     1
 40
30.0
176
     1
 62
     7
420
 16777215
176
     1
 90
        2
176
     1
 90
        2
176
     1
 62
     7
176
     1
 62
   257
176
     1
 90
        1
176
     1
 90
        1
176
     1
 40
179.0
176
     1
 90
        8
176
     1
 62
     7
176
     1
 40
1.0
176
     1
 90
        1
176
     1
 90
        6
176
     1
 90
        2
176
     1
 62
     7
176
     1
 90
        3
176
     1
 90
        0
176
     1
 90
        0
176
     1
290
     0
176
     1
 90
        1
176
     1
 40
0.0
176
     1
 90
        0
176
     1
290
     0
176
     1
290
     1
176
     1
290
     1
176
     1
290
     0
176
     1
290
     0
176
     1
290
     0
176
     1
290
     0
176
     1
290
     0
176
     1
290
     0
176
     1
 90
       50
176
     1
 40
0.0
176
     1
 40
1.0
176
     1
 90
        0
176
     1
 62
    18
420
        0
176
     1
 90
       50
176
     1
 90
        3
176
     1
 62
     5
420
      255
176
     1
290
     0
176
     1
 90
       50
176
     1
 90
       50
176
     1
 90
       50
176
     1
290
     0
176
     1
 90
       50
176
     1
 62
   256
176
     0
 40
1.0
176
     0
 90
        2
176
     1
  1
strokes_ogs.tif
176
     1
290
     0
176
     1
 40
1.0
176
     1
 40
1.0
176
     1
  0
VISUALSTYLE
  5
34
102
{ACAD_REACTORS
330
29
102
}
330
29
100
AcDbVisualStyle
  2
Dim
 70
    11
177
     3
291
     1
 70
    58
 90
        2
176
     1
 90
        2
176
     1
 90
        0
176
     1
 90
        0
176
     1
 40
0.6
176
     1
 40
30.0
176
     1
 62
     7
420
 16777215
176
     1
 90
        1
176
     1
 90
        4
176
     1
 62
     7
176
     1
 62
   257
176
     1
 90
        1
176
     1
 90
        1
176
     1
 40
1.0
176
     1
 90
        8
176
     1
 62
     7
176
     1
 40
1.0
176
     1
 90
        1
176
     1
 90
        6
176
     1
 90
        2
176
     1
 62
     7
176
     1
 90
        5
176
     1
 90
        0
176
     1
 90
        0
176
     1
290
     0
176
     1
 90
        1
176
     1
 40
-50.0
176
     1
 90
        0
176
     1
290
     0
176
     1
290
     1
176
     1
290
     1
176
     1
290
     0
176
     1
290
     0
176
     1
290
     0
176
     1
290
     0
176
     1
290
     0
176
     1
290
     0
176
     1
 90
       50
176
     1
 40
0.0
176
     1
 40
1.0
176
     1
 90
        0
176
     1
 62
    18
420
        0
176
     1
 90
       50
176
     1
 90
        3
176
     1
 62
     5
420
      255
176
     1
290
     0
176
     1
 90
       50
176
     1
 90
       50
176
     1
 90
       50
176
     1
290
     0
176
     1
 90
       50
176
     1
 62
   256
176
     0
 40
1.0
176
     0
 90
        2
176
     1
  1
strokes_ogs.tif
176
     1
290
     0
176
     1
 40
1.0
176
     1
 40
1.0
176
     1
  0
VISUALSTYLE
  5
41
102
{ACAD_REACTORS
330
29
102
}
330
29
100
AcDbVisualStyle
  2
EdgeColorOff
 70
    22
177
     3
291
     1
 70
    58
 90
        2
176
     0
 90
        2
176
     0
 90
        0
176
     0
 90
        0
176
     0
 40
0.6
176
     0
 40
30.0
176
     0
 62
     7
420
 16777215
176
     0
 90
        1
176
     0
 90
        4
176
     0
 62
     7
176
     0
 62
   257
176
     0
 90
        1
176
     0
 90
        1
176
     0
 40
1.0
176
     0
 90
        8
176
     2
 62
     7
176
     0
 40
1.0
176
     0
 90
        1
176
     0
 90
        6
176
     0
 90
        2
176
     0
 62
     7
176
     0
 90
        5
176
     0
 90
        0
176
     0
 90
        0
176
     0
290
     0
176
     0
 90
        1
176
     0
 40
0.0
176
     0
 90
        0
176
     0
290
     0
176
     0
290
     1
176
     0
290
     1
176
     0
290
     0
176
     0
290
     0
176
     0
290
     0
176
     0
290
     0
176
     0
290
     0
176
     0
290
     0
176
     0
 90
       50
176
     0
 40
0.0
176
     0
 40
1.0
176
     0
 90
        0
176
     0
 62
    18
420
        0
176
     0
 90
       50
176
     0
 90
        3
176
     0
 62
     5
420
      255
176
     0
290
     0
176
     0
 90
       50
176
     0
 90
       50
176
     0
 90
       50
176
     0
290
     0
176
     0
 90
       50
176
     0
 62
   256
176
     0
 40
1.0
176
     0
 90
        2
176
     0
  1
strokes_ogs.tif
176
     0
290
     0
176
     0
 40
1.0
176
     0
 40
1.0
176
     0
  0
VISUALSTYLE
  5
38
102
{ACAD_REACTORS
330
29
102
}
330
29
100
AcDbVisualStyle
  2
Facepattern
 70
    15
177
     3
291
     1
 70
    58
 90
        2
176
     1
 90
        2
176
     1
 90
        0
176
     1
 90
        0
176
     1
 40
0.6
176
     1
 40
30.0
176
     1
 62
     7
420
 16777215
176
     1
 90
        1
176
     1
 90
        4
176
     1
 62
     7
176
     1
 62
   257
176
     1
 90
        1
176
     1
 90
        1
176
     1
 40
1.0
176
     1
 90
        8
176
     1
 62
     7
176
     1
 40
1.0
176
     1
 90
        1
176
     1
 90
        6
176
     1
 90
        2
176
     1
 62
     7
176
     1
 90
        5
176
     1
 90
        0
176
     1
 90
        0
176
     1
290
     0
176
     1
 90
        1
176
     1
 40
0.0
176
     1
 90
        0
176
     1
290
     0
176
     1
290
     1
176
     1
290
     1
176
     1
290
     0
176
     1
290
     0
176
     1
290
     0
176
     1
290
     0
176
     1
290
     0
176
     1
290
     0
176
     1
 90
       50
176
     1
 40
0.0
176
     1
 40
1.0
176
     1
 90
        0
176
     1
 62
    18
420
        0
176
     1
 90
       50
176
     1
 90
        3
176
     1
 62
     5
420
      255
176
     1
290
     0
176
     1
 90
       50
176
     1
 90
       50
176
     1
 90
       50
176
     1
290
     0
176
     1
 90
       50
176
     1
 62
   256
176
     0
 40
1.0
176
     0
 90
        2
176
     1
  1
strokes_ogs.tif
176
     1
290
     0
176
     1
 40
1.0
176
     1
 40
1.0
176
     1
  0
VISUALSTYLE
  5
2A
102
{ACAD_REACTORS
330
29
102
}
330
29
100
AcDbVisualStyle
  2
Flat
 70
     0
177
     3
291
     1
 70
    58
 90
        2
176
     1
 90
        1
176
     1
 90
        1
176
     1
 90
        2
176
     1
 40
0.6
176
     1
 40
30.0
176
     1
 62
     7
420
 16777215
176
     1
 90
        0
176
     1
 90
        0
176
     1
 62
     7
176
     1
 62
   257
176
     1
 90
        1
176
     1
 90
        1
176
     1
 40
1.0
176
     1
 90
        8
176
     1
 62
     7
176
     1
 40
1.0
176
     1
 90
        1
176
     1
 90
        6
176
     1
 90
        2
176
     1
 62
     7
176
     1
 90
        5
176
     1
 90
        0
176
     1
 90
        0
176
     1
290
     0
176
     1
 90
       13
176
     1
 40
0.0
176
     1
 90
        0
176
     1
290
     0
176
     1
290
     1
176
     1
290
     1
176
     1
290
     0
176
     1
290
     0
176
     1
290
     0
176
     1
290
     0
176
     1
290
     0
176
     1
290
     0
176
     1
 90
       50
176
     1
 40
0.0
176
     1
 40
1.0
176
     1
 90
        0
176
     1
 62
    18
420
        0
176
     1
 90
       50
176
     1
 90
        3
176
     1
 62
     5
420
      255
176
     1
290
     0
176
     1
 90
       50
176
     1
 90
       50
176
     1
 90
       50
176
     1
290
     0
176
     1
 90
       50
176
     1
 62
   256
176
     0
 40
1.0
176
     0
 90
        2
176
     1
  1
strokes_ogs.tif
176
     1
290
     0
176
     1
 40
1.0
176
     1
 40
1.0
176
     1
  0
VISUALSTYLE
  5
2B
102
{ACAD_REACTORS
330
29
102
}
330
29
100
AcDbVisualStyle
  2
FlatWithEdges
 70
     1
177
     3
291
     1
 70
    58
 90
        2
176
     1
 90
        1
176
     1
 90
        1
176
     1
 90
        2
176
     1
 40
0.6
176
     1
 40
30.0
176
     1
 62
     7
420
 16777215
176
     1
 90
        1
176
     1
 90
        0
176
     1
 62
     7
176
     1
 62
   257
176
     1
 90
        1
176
     1
 90
        1
176
     1
 40
1.0
176
     1
 90
        0
176
     1
 62
   257
176
     1
 40
1.0
176
     1
 90
        1
176
     1
 90
        6
176
     1
 90
        2
176
     1
 62
     7
176
     1
 90
        5
176
     1
 90
        0
176
     1
 90
        0
176
     1
290
     0
176
     1
 90
       13
176
     1
 40
0.0
176
     1
 90
        0
176
     1
290
     0
176
     1
290
     1
176
     1
290
     1
176
     1
290
     0
176
     1
290
     0
176
     1
290
     0
176
     1
290
     0
176
     1
290
     0
176
     1
290
     0
176
     1
 90
       50
176
     1
 40
0.0
176
     1
 40
1.0
176
     1
 90
        0
176
     1
 62
    18
420
        0
176
     1
 90
       50
176
     1
 90
        3
176
     1
 62
     5
420
      255
176
     1
290
     0
176
     1
 90
       50
176
     1
 90
       50
176
     1
 90
       50
176
     1
290
     0
176
     1
 90
       50
176
     1
 62
   256
176
     0
 40
1.0
176
     0
 90
        2
176
     1
  1
strokes_ogs.tif
176
     1
290
     0
176
     1
 40
1.0
176
     1
 40
1.0
176
     1
  0
VISUALSTYLE
  5
2C
102
{ACAD_REACTORS
330
29
102
}
330
29
100
AcDbVisualStyle
  2
Gouraud
 70
     2
177
     3
291
     1
 70
    58
 90
        2
176
     1
 90
        2
176
     1
 90
        1
176
     1
 90
        2
176
     1
 40
0.6
176
     1
 40
30.0
176
     1
 62
     7
420
 16777215
176
     1
 90
        0
176
     1
 90
        0
176
     1
 62
     7
176
     1
 62
   257
176
     1
 90
        1
176
     1
 90
        1
176
     1
 40
1.0
176
     1
 90
        0
176
     1
 62
     7
176
     1
 40
1.0
176
     1
 90
        1
176
     1
 90
        6
176
     1
 90
        2
176
     1
 62
     7
176
     1
 90
        5
176
     1
 90
        0
176
     1
 90
        0
176
     1
290
     0
176
     1
 90
       13
176
     1
 40
0.0
176
     1
 90
        0
176
     1
290
     0
176
     1
290
     1
176
     1
290
     1
176
     1
290
     0
176
     1
290
     0
176
     1
290
     0
176
     1
290
     0
176
     1
290
     0
176
     1
290
     0
176
     1
 90
       50
176
     1
 40
0.0
176
     1
 40
1.0
176
     1
 90
        0
176
     1
 62
    18
420
        0
176
     1
 90
       50
176
     1
 90
        3
176
     1
 62
     5
420
      255
176
     1
290
     0
176
     1
 90
       50
176
     1
 90
       50
176
     1
 90
       50
176
     1
290
     0
176
     1
 90
       50
176
     1
 62
   256
176
     0
 40
1.0
176
     0
 90
        2
176
     1
  1
strokes_ogs.tif
176
     1
290
     0
176
     1
 40
1.0
176
     1
 40
1.0
176
     1
  0
VISUALSTYLE
  5
2D
102
{ACAD_REACTORS
330
29
102
}
330
29
100
AcDbVisualStyle
  2
GouraudWithEdges
 70
     3
177
     3
291
     1
 70
    58
 90
        2
176
     1
 90
        2
176
     1
 90
        1
176
     1
 90
        2
176
     1
 40
0.6
176
     1
 40
30.0
176
     1
 62
     7
420
 16777215
176
     1
 90
        1
176
     1
 90
        0
176
     1
 62
     7
176
     1
 62
   257
176
     1
 90
        1
176
     1
 90
        1
176
     1
 40
1.0
176
     1
 90
        0
176
     1
 62
   257
176
     1
 40
1.0
176
     1
 90
        1
176
     1
 90
        6
176
     1
 90
        2
176
     1
 62
     7
176
     1
 90
        5
176
     1
 90
        0
176
     1
 90
        0
176
     1
290
     0
176
     1
 90
       13
176
     1
 40
0.0
176
     1
 90
        0
176
     1
290
     0
176
     1
290
     1
176
     1
290
     1
176
     1
290
     0
176
     1
290
     0
176
     1
290
     0
176
     1
290
     0
176
     1
290
     0
176
     1
290
     0
176
     1
 90
       50
176
     1
 40
0.0
176
     1
 40
1.0
176
     1
 90
        0
176
     1
 62
    18
420
        0
176
     1
 90
       50
176
     1
 90
        3
176
     1
 62
     5
420
      255
176
     1
290
     0
176
     1
 90
       50
176
     1
 90
       50
176
     1
 90
       50
176
     1
290
     0
176
     1
 90
       50
176
     1
 62
   256
176
     0
 40
1.0
176
     0
 90
        2
176
     1
  1
strokes_ogs.tif
176
     1
290
     0
176
     1
 40
1.0
176
     1
 40
1.0
176
     1
  0
VISUALSTYLE
  5
31
102
{ACAD_REACTORS
330
29
102
}
330
29
100
AcDbVisualStyle
  2
Hidden
 70
     6
177
     3
291
     0
 70
    58
 90
        1
176
     1
 90
        2
176
     1
 90
        2
176
     1
 90
        0
176
     1
 40
0.6
176
     1
 40
30.0
176
     1
 62
     7
420
 16777215
176
     1
 90
        2
176
     1
 90
        2
176
     1
 62
     7
176
     1
 62
   257
176
     1
 90
        2
176
     1
 90
        1
176
     1
 40
40.0
176
     1
 90
        0
176
     1
 62
   257
176
     1
 40
1.0
176
     1
 90
        1
176
     1
 90
        6
176
     1
 90
        2
176
     1
 62
     7
176
     1
 90
        3
176
     1
 90
        0
176
     1
 90
        0
176
     1
290
     0
176
     1
 90
        1
176
     1
 40
0.0
176
     1
 90
        0
176
     1
290
     0
176
     1
290
     1
176
     1
290
     1
176
     1
290
     0
176
     1
290
     0
176
     1
290
     0
176
     1
290
     0
176
     1
290
     0
176
     1
290
     0
176
     1
 90
       50
176
     1
 40
0.0
176
     1
 40
1.0
176
     1
 90
        0
176
     1
 62
    18
420
        0
176
     1
 90
       50
176
     1
 90
        3
176
     1
 62
     5
420
      255
176
     1
290
     0
176
     1
 90
       50
176
     1
 90
       50
176
     1
 90
       50
176
     1
290
     0
176
     1
 90
       50
176
     1
 62
   256
176
     0
 40
1.0
176
     0
 90
        2
176
     1
  1
strokes_ogs.tif
176
     1
290
     0
176
     1
 40
1.0
176
     1
 40
1.0
176
     1
  0
VISUALSTYLE
  5
3F
102
{ACAD_REACTORS
330
29
102
}
330
29
100
AcDbVisualStyle
  2
JitterOff
 70
    20
177
     3
291
     1
 70
    58
 90
        2
176
     0
 90
        2
176
     0
 90
        0
176
     0
 90
        0
176
     0
 40
0.6
176
     0
 40
30.0
176
     0
 62
     7
420
 16777215
176
     0
 90
        1
176
     0
 90
        4
176
     0
 62
     7
176
     0
 62
   257
176
     0
 90
        1
176
     0
 90
        1
176
     0
 40
1.0
176
     0
 90
       10
176
     2
 62
     7
176
     0
 40
1.0
176
     0
 90
        1
176
     0
 90
        6
176
     0
 90
        2
176
     0
 62
     7
176
     0
 90
        5
176
     0
 90
        0
176
     0
 90
        0
176
     0
290
     0
176
     0
 90
        1
176
     0
 40
0.0
176
     0
 90
        0
176
     0
290
     0
176
     0
290
     1
176
     0
290
     1
176
     0
290
     0
176
     0
290
     0
176
     0
290
     0
176
     0
290
     0
176
     0
290
     0
176
     0
290
     0
176
     0
 90
       50
176
     0
 40
0.0
176
     0
 40
1.0
176
     0
 90
        0
176
     0
 62
    18
420
        0
176
     0
 90
       50
176
     0
 90
        3
176
     0
 62
     5
420
      255
176
     0
290
     0
176
     0
 90
       50
176
     0
 90
       50
176
     0
 90
       50
176
     0
290
     0
176
     0
 90
       50
176
     0
 62
   256
176
     0
 40
1.0
176
     0
 90
        2
176
     0
  1
strokes_ogs.tif
176
     0
290
     0
176
     0
 40
1.0
176
     0
 40
1.0
176
     0
  0
VISUALSTYLE
  5
37
102
{ACAD_REACTORS
330
29
102
}
330
29
100
AcDbVisualStyle
  2
Linepattern
 70
    14
177
     3
291
     1
 70
    58
 90
        2
176
     1
 90
        2
176
     1
 90
        0
176
     1
 90
        0
176
     1
 40
0.6
176
     1
 40
30.0
176
     1
 62
     7
420
 16777215
176
     1
 90
        1
176
     1
 90
        4
176
     1
 62
     7
176
     1
 62
   257
176
     1
 90
        7
176
     1
 90
        7
176
     1
 40
1.0
176
     1
 90
        8
176
     1
 62
     7
176
     1
 40
1.0
176
     1
 90
        1
176
     1
 90
        6
176
     1
 90
        2
176
     1
 62
     7
176
     1
 90
        5
176
     1
 90
        0
176
     1
 90
        0
176
     1
290
     0
176
     1
 90
        1
176
     1
 40
0.0
176
     1
 90
        0
176
     1
290
     0
176
     1
290
     1
176
     1
290
     1
176
     1
290
     0
176
     1
290
     0
176
     1
290
     0
176
     1
290
     0
176
     1
290
     0
176
     1
290
     0
176
     1
 90
       50
176
     1
 40
0.0
176
     1
 40
1.0
176
     1
 90
        0
176
     1
 62
    18
420
        0
176
     1
 90
       50
176
     1
 90
        3
176
     1
 62
     5
420
      255
176
     1
290
     0
176
     1
 90
       50
176
     1
 90
       50
176
     1
 90
       50
176
     1
290
     0
176
     1
 90
       50
176
     1
 62
   256
176
     0
 40
1.0
176
     0
 90
        2
176
     1
  1
strokes_ogs.tif
176
     1
290
     0
176
     1
 40
1.0
176
     1
 40
1.0
176
     1
  0
VISUALSTYLE
  5
40
102
{ACAD_REACTORS
330
29
102
}
330
29
100
AcDbVisualStyle
  2
OverhangOff
 70
    21
177
     3
291
     1
 70
    58
 90
        2
176
     0
 90
        2
176
     0
 90
        0
176
     0
 90
        0
176
     0
 40
0.6
176
     0
 40
30.0
176
     0
 62
     7
420
 16777215
176
     0
 90
        1
176
     0
 90
        4
176
     0
 62
     7
176
     0
 62
   257
176
     0
 90
        1
176
     0
 90
        1
176
     0
 40
1.0
176
     0
 90
        9
176
     2
 62
     7
176
     0
 40
1.0
176
     0
 90
        1
176
     0
 90
        6
176
     0
 90
        2
176
     0
 62
     7
176
     0
 90
        5
176
     0
 90
        0
176
     0
 90
        0
176
     0
290
     0
176
     0
 90
        1
176
     0
 40
0.0
176
     0
 90
        0
176
     0
290
     0
176
     0
290
     1
176
     0
290
     1
176
     0
290
     0
176
     0
290
     0
176
     0
290
     0
176
     0
290
     0
176
     0
290
     0
176
     0
290
     0
176
     0
 90
       50
176
     0
 40
0.0
176
     0
 40
1.0
176
     0
 90
        0
176
     0
 62
    18
420
        0
176
     0
 90
       50
176
     0
 90
        3
176
     0
 62
     5
420
      255
176
     0
290
     0
176
     0
 90
       50
176
     0
 90
       50
176
     0
 90
       50
176
     0
290
     0
176
     0
 90
       50
176
     0
 62
   256
176
     0
 40
1.0
176
     0
 90
        2
176
     0
  1
strokes_ogs.tif
176
     0
290
     0
176
     0
 40
1.0
176
     0
 40
1.0
176
     0
  0
VISUALSTYLE
  5
33
102
{ACAD_REACTORS
330
29
102
}
330
29
100
AcDbVisualStyle
  2
Realistic
 70
     8
177
     3
291
     0
 70
    58
 90
        2
176
     1
 90
        3
176
     1
 90
        0
176
     1
 90
        2
176
     1
 40
0.6
176
     1
 40
30.0
176
     1
 62
     7
420
 16777215
176
     1
 90
        0
176
     1
 90
        0
176
     1
 62
     7
176
     1
 62
   257
176
     1
 90
        1
176
     1
 90
        1
176
     1
 40
1.0
176
     1
 90
        8
176
     1
 62
   257
176
     1
 40
1.0
176
     1
 90
        1
176
     1
 90
        6
176
     1
 90
        2
176
     1
 62
     7
176
     1
 90
        3
176
     1
 90
        0
176
     1
 90
        0
176
     1
290
     0
176
     1
 90
       13
176
     1
 40
0.0
176
     1
 90
        0
176
     1
290
     0
176
     1
290
     1
176
     1
290
     1
176
     1
290
     0
176
     1
290
     0
176
     1
290
     0
176
     1
290
     0
176
     1
290
     0
176
     1
290
     0
176
     1
 90
       50
176
     1
 40
0.0
176
     1
 40
1.0
176
     1
 90
        0
176
     1
 62
    18
420
        0
176
     1
 90
       50
176
     1
 90
        3
176
     1
 62
     5
420
      255
176
     1
290
     0
176
     1
 90
       50
176
     1
 90
       50
176
     1
 90
       50
176
     1
290
     0
176
     1
 90
       50
176
     1
 62
   256
176
     0
 40
1.0
176
     0
 90
        2
176
     1
  1
strokes_ogs.tif
176
     1
290
     0
176
     1
 40
1.0
176
     1
 40
1.0
176
     1
  0
VISUALSTYLE
  5
3E
102
{ACAD_REACTORS
330
29
102
}
330
29
100
AcDbVisualStyle
  2
Shaded
 70
    27
177
     3
291
     0
 70
    58
 90
        2
176
     1
 90
        2
176
     1
 90
        1
176
     1
 90
        2
176
     1
 40
0.6
176
     1
 40
30.0
176
     1
 62
     7
420
 16777215
176
     1
 90
        0
176
     1
 90
        4
176
     1
 62
     7
176
     1
 62
   257
176
     1
 90
        1
176
     1
 90
        1
176
     1
 40
1.0
176
     1
 90
        8
176
     1
 62
   257
176
     1
 40
1.0
176
     1
 90
        1
176
     1
 90
        6
176
     1
 90
        2
176
     1
 62
     8
420
  7895160
176
     1
 90
        3
176
     1
 90
        0
176
     1
 90
        0
176
     1
290
     0
176
     1
 90
        5
176
     1
 40
0.0
176
     1
 90
        0
176
     1
290
     0
176
     1
290
     1
176
     1
290
     1
176
     1
290
     0
176
     1
290
     0
176
     1
290
     0
176
     1
290
     0
176
     1
290
     0
176
     1
290
     0
176
     1
 90
       50
176
     1
 40
0.0
176
     1
 40
1.0
176
     1
 90
        0
176
     1
 62
    18
420
        0
176
     1
 90
       50
176
     1
 90
        3
176
     1
 62
     5
420
      255
176
     1
290
     0
176
     1
 90
       50
176
     1
 90
       50
176
     1
 90
       50
176
     1
290
     0
176
     1
 90
       50
176
     1
 62
   256
176
     0
 40
1.0
176
     0
 90
        2
176
     1
  1
strokes_ogs.tif
176
     1
290
     0
176
     1
 40
1.0
176
     1
 40
1.0
176
     1
  0
VISUALSTYLE
  5
3D
102
{ACAD_REACTORS
330
29
102
}
330
29
100
AcDbVisualStyle
  2
Shaded with edges
 70
    26
177
     3
291
     0
 70
    58
 90
        2
176
     1
 90
        2
176
     1
 90
        1
176
     1
 90
        2
176
     1
 40
0.6
176
     1
 40
30.0
176
     1
 62
     7
420
 16777215
176
     1
 90
        1
176
     1
 90
        2
176
     1
 62
     7
176
     1
 62
   257
176
     1
 90
        2
176
     1
 90
        1
176
     1
 40
1.0
176
     1
 90
        8
176
     1
 62
   257
176
     1
 40
1.0
176
     1
 90
        1
176
     1
 90
        6
176
     1
 90
        2
176
     1
 62
     7
176
     1
 90
        3
176
     1
 90
        0
176
     1
 90
        0
176
     1
290
     0
176
     1
 90
        5
176
     1
 40
0.0
176
     1
 90
        0
176
     1
290
     0
176
     1
290
     1
176
     1
290
     1
176
     1
290
     0
176
     1
290
     0
176
     1
290
     0
176
     1
290
     0
176
     1
290
     0
176
     1
290
     0
176
     1
 90
       50
176
     1
 40
0.0
176
     1
 40
1.0
176
     1
 90
        0
176
     1
 62
    18
420
        0
176
     1
 90
       50
176
     1
 90
        3
176
     1
 62
     5
420
      255
176
     1
290
     0
176
     1
 90
       50
176
     1
 90
       50
176
     1
 90
       50
176
     1
290
     0
176
     1
 90
       50
176
     1
 62
   256
176
     0
 40
1.0
176
     0
 90
        2
176
     1
  1
strokes_ogs.tif
176
     1
290
     0
176
     1
 40
1.0
176
     1
 40
1.0
176
     1
  0
VISUALSTYLE
  5
3A
102
{ACAD_REACTORS
330
29
102
}
330
29
100
AcDbVisualStyle
  2
Shades of Gray
 70
    23
177
     3
291
     0
 70
    58
 90
        2
176
     1
 90
        2
176
     1
 90
        3
176
     1
 90
        0
176
     1
 40
0.6
176
     1
 40
30.0
176
     1
 62
     7
420
 16777215
176
     1
 90
        2
176
     1
 90
        2
176
     1
 62
     7
176
     1
 62
     7
176
     1
 90
        1
176
     1
 90
        1
176
     1
 40
40.0
176
     1
 90
        8
176
     1
 62
     7
176
     1
 40
1.0
176
     1
 90
        1
176
     1
 90
        6
176
     1
 90
        2
176
     1
 62
     7
176
     1
 90
        3
176
     1
 90
        0
176
     1
 90
        0
176
     1
290
     0
176
     1
 90
        1
176
     1
 40
0.0
176
     1
 90
        0
176
     1
290
     0
176
     1
290
     1
176
     1
290
     1
176
     1
290
     0
176
     1
290
     0
176
     1
290
     0
176
     1
290
     0
176
     1
290
     0
176
     1
290
     0
176
     1
 90
       50
176
     1
 40
0.0
176
     1
 40
1.0
176
     1
 90
        0
176
     1
 62
    18
420
        0
176
     1
 90
       50
176
     1
 90
        3
176
     1
 62
     5
420
      255
176
     1
290
     0
176
     1
 90
       50
176
     1
 90
       50
176
     1
 90
       50
176
     1
290
     0
176
     1
 90
       50
176
     1
 62
   256
176
     0
 40
1.0
176
     0
 90
        2
176
     1
  1
strokes_ogs.tif
176
     1
290
     0
176
     1
 40
1.0
176
     1
 40
1.0
176
     1
  0
VISUALSTYLE
  5
3B
102
{ACAD_REACTORS
330
29
102
}
330
29
100
AcDbVisualStyle
  2
Sketchy
 70
    24
177
     3
291
     0
 70
    58
 90
        1
176
     1
 90
        2
176
     1
 90
        2
176
     1
 90
        0
176
     1
 40
0.6
176
     1
 40
30.0
176
     1
 62
     7
420
 16777215
176
     1
 90
        2
176
     1
 90
        2
176
     1
 62
     7
176
     1
 62
     7
176
     1
 90
        1
176
     1
 90
        1
176
     1
 40
40.0
176
     1
 90
       11
176
     1
 62
     7
176
     1
 40
1.0
176
     1
 90
        1
176
     1
 90
        6
176
     1
 90
        2
176
     1
 62
     7
176
     1
 90
        6
176
     1
 90
        0
176
     1
 90
        0
176
     1
290
     0
176
     1
 90
        1
176
     1
 40
0.0
176
     1
 90
        0
176
     1
290
     0
176
     1
290
     1
176
     1
290
     1
176
     1
290
     0
176
     1
290
     0
176
     1
290
     0
176
     1
290
     0
176
     1
290
     0
176
     1
290
     0
176
     1
 90
       50
176
     1
 40
0.0
176
     1
 40
1.0
176
     1
 90
        0
176
     1
 62
    18
420
        0
176
     1
 90
       50
176
     1
 90
        3
176
     1
 62
     5
420
      255
176
     1
290
     0
176
     1
 90
       50
176
     1
 90
       50
176
     1
 90
       50
176
     1
290
     0
176
     1
 90
       50
176
     1
 62
   256
176
     0
 40
1.0
176
     0
 90
        2
176
     1
  1
strokes_ogs.tif
176
     1
290
     0
176
     1
 40
1.0
176
     1
 40
1.0
176
     1
  0
VISUALSTYLE
  5
36
102
{ACAD_REACTORS
330
29
102
}
330
29
100
AcDbVisualStyle
  2
Thicken
 70
    13
177
     3
291
     1
 70
    58
 90
        2
176
     1
 90
        2
176
     1
 90
        0
176
     1
 90
        0
176
     1
 40
0.6
176
     1
 40
30.0
176
     1
 62
     7
420
 16777215
176
     1
 90
        1
176
     1
 90
        4
176
     1
 62
     7
176
     1
 62
   257
176
     1
 90
        1
176
     1
 90
        1
176
     1
 40
1.0
176
     1
 90
       12
176
     1
 62
     7
176
     1
 40
1.0
176
     1
 90
        1
176
     1
 90
        6
176
     1
 90
        2
176
     1
 62
     7
176
     1
 90
        5
176
     1
 90
        0
176
     1
 90
        0
176
     1
290
     0
176
     1
 90
        1
176
     1
 40
0.0
176
     1
 90
        0
176
     1
290
     0
176
     1
290
     1
176
     1
290
     1
176
     1
290
     0
176
     1
290
     0
176
     1
290
     0
176
     1
290
     0
176
     1
290
     0
176
     1
290
     0
176
     1
 90
       50
176
     1
 40
0.0
176
     1
 40
1.0
176
     1
 90
        0
176
     1
 62
    18
420
        0
176
     1
 90
       50
176
     1
 90
        3
176
     1
 62
     5
420
      255
176
     1
290
     0
176
     1
 90
       50
176
     1
 90
       50
176
     1
 90
       50
176
     1
290
     0
176
     1
 90
       50
176
     1
 62
   256
176
     0
 40
1.0
176
     0
 90
        2
176
     1
  1
strokes_ogs.tif
176
     1
290
     0
176
     1
 40
1.0
176
     1
 40
1.0
176
     1
  0
VISUALSTYLE
  5
30
102
{ACAD_REACTORS
330
29
102
}
330
29
100
AcDbVisualStyle
  2
Wireframe
 70
     5
177
     3
291
     0
 70
    58
 90
        0
176
     1
 90
        2
176
     1
 90
        0
176
     1
 90
        0
176
     1
 40
0.6
176
     1
 40
30.0
176
     1
 62
     7
420
 16777215
176
     1
 90
        1
176
     1
 90
        4
176
     1
 62
     7
176
     1
 62
   257
176
     1
 90
        1
176
     1
 90
        1
176
     1
 40
1.0
176
     1
 90
        0
176
     1
 62
   257
176
     1
 40
1.0
176
     1
 90
        1
176
     1
 90
        6
176
     1
 90
        2
176
     1
 62
     7
176
     1
 90
        3
176
     1
 90
        0
176
     1
 90
        0
176
     1
290
     0
176
     1
 90
        1
176
     1
 40
0.0
176
     1
 90
        0
176
     1
290
     0
176
     1
290
     1
176
     1
290
     1
176
     1
290
     0
176
     1
290
     0
176
     1
290
     0
176
     1
290
     0
176
     1
290
     0
176
     1
290
     0
176
     1
 90
       50
176
     1
 40
0.0
176
     1
 40
1.0
176
     1
 90
        0
176
     1
 62
    18
420
        0
176
     1
 90
       50
176
     1
 90
        3
176
     1
 62
     5
420
      255
176
     1
290
     0
176
     1
 90
       50
176
     1
 90
       50
176
     1
 90
       50
176
     1
290
     0
176
     1
 90
       50
176
     1
 62
   256
176
     0
 40
1.0
176
     0
 90
        2
176
     1
  1
strokes_ogs.tif
176
     1
290
     0
176
     1
 40
1.0
176
     1
 40
1.0
176
     1
  0
VISUALSTYLE
  5
3C
102
{ACAD_REACTORS
330
29
102
}
330
29
100
AcDbVisualStyle
  2
X-Ray
 70
    25
177
     3
291
     0
 70
    58
 90
        2
176
     1
 90
        2
176
     1
 90
        1
176
     1
 90
        1
176
     1
 40
0.5
176
     1
 40
30.0
176
     1
 62
     7
420
 16777215
176
     1
 90
        1
176
     1
 90
        0
176
     1
 62
     7
176
     1
 62
   257
176
     1
 90
        1
176
     1
 90
        1
176
     1
 40
1.0
176
     1
 90
        8
176
     1
 62
     7
176
     1
 40
1.0
176
     1
 90
        1
176
     1
 90
        6
176
     1
 90
        2
176
     1
 62
     7
176
     1
 90
        3
176
     1
 90
        0
176
     1
 90
        0
176
     1
290
     0
176
     1
 90
       13
176
     1
 40
0.0
176
     1
 90
        0
176
     1
290
     0
176
     1
290
     1
176
     1
290
     1
176
     1
290
     0
176
     1
290
     0
176
     1
290
     0
176
     1
290
     0
176
     1
290
     0
176
     1
290
     0
176
     1
 90
       50
176
     1
 40
0.0
176
     1
 40
1.0
176
     1
 90
        0
176
     1
 62
    18
420
        0
176
     1
 90
       50
176
     1
 90
        3
176
     1
 62
     5
420
      255
176
     1
290
     0
176
     1
 90
       50
176
     1
 90
       50
176
     1
 90
       50
176
     1
290
     0
176
     1
 90
       50
176
     1
 62
   256
176
     0
 40
1.0
176
     0
 90
        2
176
     1
  1
strokes_ogs.tif
176
     1
290
     0
176
     1
 40
1.0
176
     1
 40
1.0
176
     1
  0
DICTIONARYVAR
  5
1C6
102
{ACAD_REACTORS
330
1C1
102
}
330
1C1
100
DictionaryVariables
280
     0
  1
1:1
  0
DICTIONARYVAR
  5
1C3
102
{ACAD_REACTORS
330
1C1
102
}
330
1C1
100
DictionaryVariables
280
     0
  1
STANDARD
  0
DICTIONARYVAR
  5
1C2
102
{ACAD_REACTORS
330
1C1
102
}
330
1C1
100
DictionaryVariables
280
     0
  1
STANDARD
  0
DICTIONARYVAR
  5
1C4
102
{ACAD_REACTORS
330
1C1
102
}
330
1C1
100
DictionaryVariables
280
     0
  1
Imperial24
  0
DICTIONARYVAR
  5
1C5
102
{ACAD_REACTORS
330
1C1
102
}
330
1C1
100
DictionaryVariables
280
     0
  1
Imperial24
  0
DICTIONARY
  5
1A
330
19
100
AcDbDictionary
280
     1
281
     1
  3
BUMPTILE
360
1C
  3
DIFFUSETILE
360
1B
  3
OPACITYTILE
360
1F
  3
REFLECTIONTILE
360
1E
  3
REFRACTIONTILE
360
20
  3
SPECULARTILE
360
1D
  0
DICTIONARY
  5
12
330
11
100
AcDbDictionary
280
     1
281
     1
  3
BUMPTILE
360
14
  3
DIFFUSETILE
360
13
  3
OPACITYTILE
360
17
  3
REFLECTIONTILE
360
16
  3
REFRACTIONTILE
360
18
  3
SPECULARTILE
360
15
  0
DICTIONARY
  5
22
330
21
100
AcDbDictionary
280
     1
281
     1
  3
BUMPTILE
360
24
  3
DIFFUSETILE
360
23
  3
OPACITYTILE
360
27
  3
REFLECTIONTILE
360
26
  3
REFRACTIONTILE
360
28
  3
SPECULARTILE
360
25
  0
DICTIONARY
  5
1C7
330
65
100
AcDbDictionary
280
     1
281
     1
  3
ACAD_ROUNDTRIP_2008_TABLESTYLE_CELLSTYLEMAP
360
1C8
  0
XRECORD
  5
1C
102
{ACAD_REACTORS
330
1A
102
}
330
1A
100
AcDbXrecord
280
     1
270
     1
271
     1
  0
XRECORD
  5
1B
102
{ACAD_REACTORS
330
1A
102
}
330
1A
100
AcDbXrecord
280
     1
270
     1
271
     1
  0
XRECORD
  5
1F
102
{ACAD_REACTORS
330
1A
102
}
330
1A
100
AcDbXrecord
280
     1
270
     1
271
     1
  0
XRECORD
  5
1E
102
{ACAD_REACTORS
330
1A
102
}
330
1A
100
AcDbXrecord
280
     1
270
     1
271
     1
  0
XRECORD
  5
20
102
{ACAD_REACTORS
330
1A
102
}
330
1A
100
AcDbXrecord
280
     1
270
     1
271
     1
  0
XRECORD
  5
1D
102
{ACAD_REACTORS
330
1A
102
}
330
1A
100
AcDbXrecord
280
     1
270
     1
271
     1
  0
XRECORD
  5
14
102
{ACAD_REACTORS
330
12
102
}
330
12
100
AcDbXrecord
280
     1
270
     1
271
     1
  0
XRECORD
  5
13
102
{ACAD_REACTORS
330
12
102
}
330
12
100
AcDbXrecord
280
     1
270
     1
271
     1
  0
XRECORD
  5
17
102
{ACAD_REACTORS
330
12
102
}
330
12
100
AcDbXrecord
280
     1
270
     1
271
     1
  0
XRECORD
  5
16
102
{ACAD_REACTORS
330
12
102
}
330
12
100
AcDbXrecord
280
     1
270
     1
271
     1
  0
XRECORD
  5
18
102
{ACAD_REACTORS
330
12
102
}
330
12
100
AcDbXrecord
280
     1
270
     1
271
     1
  0
XRECORD
  5
15
102
{ACAD_REACTORS
330
12
102
}
330
12
100
AcDbXrecord
280
     1
270
     1
271
     1
  0
XRECORD
  5
24
102
{ACAD_REACTORS
330
22
102
}
330
22
100
AcDbXrecord
280
     1
270
     1
271
     1
  0
XRECORD
  5
23
102
{ACAD_REACTORS
330
22
102
}
330
22
100
AcDbXrecord
280
     1
270
     1
271
     1
  0
XRECORD
  5
27
102
{ACAD_REACTORS
330
22
102
}
330
22
100
AcDbXrecord
280
     1
270
     1
271
     1
  0
XRECORD
  5
26
102
{ACAD_REACTORS
330
22
102
}
330
22
100
AcDbXrecord
280
     1
270
     1
271
     1
  0
XRECORD
  5
28
102
{ACAD_REACTORS
330
22
102
}
330
22
100
AcDbXrecord
280
     1
270
     1
271
     1
  0
XRECORD
  5
25
102
{ACAD_REACTORS
330
22
102
}
330
22
100
AcDbXrecord
280
     1
270
     1
271
     1
  0
CELLSTYLEMAP
  5
1C8
102
{ACAD_REACTORS
330
1C7
102
}
330
1C7
100
AcDbCellStyleMap
 90
        3
300
CELLSTYLE
  1
TABLEFORMAT_BEGIN
 90
        5
170
     1
 91
        0
 92
    32768
 62
   257
 93
        1
300
CONTENTFORMAT
  1
CONTENTFORMAT_BEGIN
 90
        0
 91
        0
 92
      512
 93
        0
300

 40
0.0
140
1.0
 94
        5
 62
     0
340
55
144
0.25
309
CONTENTFORMAT_END
171
     0
 94
        0
309
TABLEFORMAT_END
  1
CELLSTYLE_BEGIN
 90
        1
 91
        1
300
_TITLE
309
CELLSTYLE_END
300
CELLSTYLE
  1
TABLEFORMAT_BEGIN
 90
        5
170
     1
 91
        0
 92
        0
 62
   257
 93
        1
300
CONTENTFORMAT
  1
CONTENTFORMAT_BEGIN
 90
        0
 91
        0
 92
      512
 93
        0
300

 40
0.0
140
1.0
 94
        5
 62
     0
340
55
144
0.18
309
CONTENTFORMAT_END
171
     0
 94
        0
309
TABLEFORMAT_END
  1
CELLSTYLE_BEGIN
 90
        2
 91
        1
300
_HEADER
309
CELLSTYLE_END
300
CELLSTYLE
  1
TABLEFORMAT_BEGIN
 90
        5
170
     1
 91
        0
 92
        0
 62
   257
 93
        1
300
CONTENTFORMAT
  1
CONTENTFORMAT_BEGIN
 90
        0
 91
        0
 92
      512
 93
        0
300

 40
0.0
140
1.0
 94
        2
 62
     0
340
55
144
0.18
309
CONTENTFORMAT_END
171
     0
 94
        0
309
TABLEFORMAT_END
  1
CELLSTYLE_BEGIN
 90
        3
 91
        2
300
_DATA
309
CELLSTYLE_END
  0
ENDSEC
  0
EOF
