  0
SECTION
  2
HEADER
  9
$ACADVER
  1
AC1024
  9
$DWGCODEPAGE
  3
ANSI_1252
  9
$EXTMAX
 10
558.8
 20
431.8
 30
0.0
  9
$EXTMIN
 10
0.0
 20
0.0
 30
0.0
  9
$LIMMIN
 10
0.0
 20
0.0
  9
$LIMMAX
 10
558.8
 20
431.8
  9
$VIEWCTR
 10
279.4
 20
215.9
  9
$VIEWSIZE
 40
431.8
  9
$CLAYER
  8
0
  9
$LTSCALE
 40
30.734
  9
$CELTYPE
  6
BYLAYER
  9
$DIMSCALE
 40
1.0
  9
$DIMASZ
 40
3.0
  9
$DIMEXO
 40
0.5
  9
$DIMDLI
 40
21.2344
  9
$DIMEXE
 40
1.5
  9
$DIMCEN
 40
5.0292
  9
$DIMLFAC
 40
1.0
  9
$DIMBLK
  1
_FILLED
  9
$DIMALT
 70
0
  9
$DIMALTF
 40
0.0393700787
  9
$DIMTXT
 40
3.0
  9
$DIMTOL
 70
1
  9
$DIMLIM
 70
0
  9
$DIMTFAC
 40
1.0
  9
$DIMTP
 40
0.01
  9
$DIMTM
 40
0.01
  9
$DIMGAP
 40
0.625
  9
$DIMDSEP
 70
44
  9
$AUNITS
 70
0
  9
$PDMODE
 70
3
  9
$PDSIZE
 40
3.0
  9
$HANDSEED
  5
3B3
  9
$TILEMODE
 70
1
  9
$MEASUREMENT
 70
1
  9
$INSUNITS
 70
4
  0
ENDSEC
  0
SECTION
  2
CLASSES
  0
CLASS
  1
ACDBDICTIONARYWDFLT
  2
AcDbDictionaryWithDefault
  3
AutoCAD 2000
 90
0
 91
1
280
0
281
0
  0
CLASS
  1
ACDBPLACEHOLDER
  2
AcDbPlaceHolder
  3
AutoCAD 2000
 90
0
 91
1
280
0
281
0
  0
CLASS
  1
LAYOUT
  2
AcDbLayout
  3
AutoCAD 2000
 90
0
 91
0
280
0
281
0
  0
ENDSEC
  0
SECTION
  2
TABLES
  0
TABLE
  2
VPORT
  5
8
100
AcDbSymbolTable
 70
2
  0
VPORT
  5
1F4
100
AcDbSymbolTableRecord
100
AcDbViewportTableRecord
  2
*ACTIVE
 70
0
 10
0.0
 20
0.0
 11
1.0
 21
1.0
 12
279.4
 22
215.9
 13
0.0
 23
0.0
 14
1.0
 24
1.0
 15
0.0
 25
0.0
 16
0.0
 26
0.0
 36
1.0
 17
0.0
 27
0.0
 37
0.0
 40
431.8
 41
1.2941176471
 42
50.0
 43
0.0
 44
0.0
 50
0.0
 51
0.0
 71
0
 72
100
 73
1
 74
1
 75
0
 76
0
 77
0
 78
0
  0
ENDTAB
  0
TABLE
  2
LTYPE
  5
5
100
AcDbSymbolTable
 70
6
  0
LTYPE
  5
14
100
AcDbSymbolTableRecord
100
AcDbLinetypeTableRecord
  2
BYBLOCK
 70
0
  3

 72
65
 73
0
 40
0.0
  0
LTYPE
  5
15
100
AcDbSymbolTableRecord
100
AcDbLinetypeTableRecord
  2
BYLAYER
 70
0
  3

 72
65
 73
0
 40
0.0
  0
LTYPE
  5
16
100
AcDbSymbolTableRecord
100
AcDbLinetypeTableRecord
  2
CONTINUOUS
 70
64
  3
Solid line
 72
65
 73
0
 40
0.0
  0
LTYPE
  5
1F5
100
AcDbSymbolTableRecord
100
AcDbLinetypeTableRecord
  2
CENTER
 70
64
  3
____ _ ____ _ ____ _ ____ _ ____ _ ____ _ ____
 72
65
 73
4
 40
0.6
 49
0.375
 74
0
 49
-0.075
 74
0
 49
0.075
 74
0
 49
-0.075
 74
0
  0
LTYPE
  5
1F6
100
AcDbSymbolTableRecord
100
AcDbLinetypeTableRecord
  2
HIDDEN
 70
64
  3
- - - - - - - - - - - - - - - - - - - -
 72
65
 73
2
 40
0.2
 49
0.1
 74
0
 49
-0.1
 74
0
  0
LTYPE
  5
1F7
100
AcDbSymbolTableRecord
100
AcDbLinetypeTableRecord
  2
PHANTOM
 70
64
  3
_____ _ _ _____ _ _ _____ _ _ _____
 72
65
 73
6
 40
0.8
 49
0.45
 74
0
 49
-0.05
 74
0
 49
0.1
 74
0
 49
-0.05
 74
0
 49
0.1
 74
0
 49
-0.05
 74
0
  0
LTYPE
  5
1F8
100
AcDbSymbolTableRecord
100
AcDbLinetypeTableRecord
  2
DOT
 70
64
  3
. . . . . . . . . . . . . . . . . . . .
 72
65
 73
2
 40
0.2
 49
0.1
 74
0
 49
-0.1
 74
0
  0
LTYPE
  5
1F9
100
AcDbSymbolTableRecord
100
AcDbLinetypeTableRecord
  2
DASHED
 70
64
  3
- - - - - - - - - - - - - - - - - - - -
 72
65
 73
2
 40
0.2
 49
0.1
 74
0
 49
-0.1
 74
0
  0
ENDTAB
  0
TABLE
  2
LAYER
  5
2
100
AcDbSymbolTable
 70
36
  0
LAYER
  5
10
100
AcDbSymbolTableRecord
100
AcDbLayerTableRecord
  2
0
 70
0
 62
7
  6
CONTINUOUS
370
-3
390
F
  0
LAYER
  5
1FA
100
AcDbSymbolTableRecord
100
AcDbLayerTableRecord
  2
DEFAULT_1
 70
0
 62
7
  6
CENTER
370
-3
390
F
  0
LAYER
  5
1FB
100
AcDbSymbolTableRecord
100
AcDbLayerTableRecord
  2
DEFAULT_2
 70
0
 62
7
  6
HIDDEN
370
-3
390
F
  0
LAYER
  5
1FC
100
AcDbSymbolTableRecord
100
AcDbLayerTableRecord
  2
DEFAULT_3
 70
0
 62
7
  6
PHANTOM
370
-3
390
F
  0
LAYER
  5
1FD
100
AcDbSymbolTableRecord
100
AcDbLayerTableRecord
  2
ASSI
 70
0
 62
7
  6
CONTINUOUS
370
-3
390
F
  0
LAYER
  5
1FE
100
AcDbSymbolTableRecord
100
AcDbLayerTableRecord
  2
COORDINATE
 70
0
 62
7
  6
CONTINUOUS
370
-3
390
F
  0
LAYER
  5
1FF
100
AcDbSymbolTableRecord
100
AcDbLayerTableRecord
  2
COORD_ORIGINE
 70
0
 62
7
  6
CONTINUOUS
370
-3
390
F
  0
LAYER
  5
200
100
AcDbSymbolTableRecord
100
AcDbLayerTableRecord
  2
CURVE
 70
0
 62
7
  6
CONTINUOUS
370
-3
390
F
  0
LAYER
  5
201
100
AcDbSymbolTableRecord
100
AcDbLayerTableRecord
  2
DRAFT
 70
0
 62
7
  6
CONTINUOUS
370
-3
390
F
  0
LAYER
  5
202
100
AcDbSymbolTableRecord
100
AcDbLayerTableRecord
  2
IGES-VIMAR
 70
0
 62
7
  6
CONTINUOUS
370
-3
390
F
  0
LAYER
  5
203
100
AcDbSymbolTableRecord
100
AcDbLayerTableRecord
  2
INTF_1
 70
0
 62
7
  6
CONTINUOUS
370
-3
390
F
  0
LAYER
  5
204
100
AcDbSymbolTableRecord
100
AcDbLayerTableRecord
  2
INTF_11
 70
0
 62
7
  6
CONTINUOUS
370
-3
390
F
  0
LAYER
  5
205
100
AcDbSymbolTableRecord
100
AcDbLayerTableRecord
  2
INTF_7
 70
0
 62
7
  6
CONTINUOUS
370
-3
390
F
  0
LAYER
  5
206
100
AcDbSymbolTableRecord
100
AcDbLayerTableRecord
  2
NOTE
 70
0
 62
7
  6
CONTINUOUS
370
-3
390
F
  0
LAYER
  5
207
100
AcDbSymbolTableRecord
100
AcDbLayerTableRecord
  2
PIANI
 70
0
 62
7
  6
CONTINUOUS
370
-3
390
F
  0
LAYER
  5
208
100
AcDbSymbolTableRecord
100
AcDbLayerTableRecord
  2
PIANI_ORIGINE
 70
0
 62
7
  6
CONTINUOUS
370
-3
390
F
  0
LAYER
  5
209
100
AcDbSymbolTableRecord
100
AcDbLayerTableRecord
  2
PPP
 70
0
 62
7
  6
CONTINUOUS
370
-3
390
F
  0
LAYER
  5
20A
100
AcDbSymbolTableRecord
100
AcDbLayerTableRecord
  2
PUNTI
 70
0
 62
7
  6
CONTINUOUS
370
-3
390
F
  0
LAYER
  5
20B
100
AcDbSymbolTableRecord
100
AcDbLayerTableRecord
  2
RACCORDO
 70
0
 62
7
  6
CONTINUOUS
370
-3
390
F
  0
LAYER
  5
20C
100
AcDbSymbolTableRecord
100
AcDbLayerTableRecord
  2
RGB__255__255__255__
 70
0
 62
7
  6
CONTINUOUS
370
-3
390
F
  0
LAYER
  5
20D
100
AcDbSymbolTableRecord
100
AcDbLayerTableRecord
  2
RGB____0____0____0__
 70
0
 62
7
  6
CONTINUOUS
370
-3
390
F
  0
LAYER
  5
20E
100
AcDbSymbolTableRecord
100
AcDbLayerTableRecord
  2
SNAPLINE
 70
0
 62
7
  6
CONTINUOUS
370
-3
390
F
  0
LAYER
  5
20F
100
AcDbSymbolTableRecord
100
AcDbLayerTableRecord
  2
SUPERFICI
 70
0
 62
7
  6
CONTINUOUS
370
-3
390
F
  0
LAYER
  5
210
100
AcDbSymbolTableRecord
100
AcDbLayerTableRecord
  2
TRASH
 70
0
 62
7
  6
CONTINUOUS
370
-3
390
F
  0
ENDTAB
  0
TABLE
  2
STYLE
  5
3
100
AcDbSymbolTable
 70
1
  0
STYLE
  5
11
100
AcDbSymbolTableRecord
100
AcDbTextStyleTableRecord
  2
STANDARD
 70
0
 40
0.0
 41
0.8
 50
0.0
 71
0
 42
0.2
  3
txt
  4

  0
STYLE
  5
211
100
AcDbSymbolTableRecord
100
AcDbTextStyleTableRecord
  2
TEXTSTYLE_1
 70
0
 40
0.0
 41
0.8
 50
0.0
 71
0
 42
0.2
  3
gdt
  4

  0
ENDTAB
  0
TABLE
  2
VIEW
  5
6
100
AcDbSymbolTable
 70
0
  0
ENDTAB
  0
TABLE
  2
UCS
  5
7
100
AcDbSymbolTable
 70
0
  0
ENDTAB
  0
TABLE
  2
APPID
  5
9
100
AcDbSymbolTable
 70
1
  0
APPID
  5
212
100
AcDbSymbolTableRecord
100
AcDbRegAppTableRecord
  2
ACAD
 70
0
  0
ENDTAB
  0
TABLE
  2
BLOCK_RECORD
  5
1
100
AcDbSymbolTable
 70
0
  0
BLOCK_RECORD
  5
213
100
AcDbSymbolTableRecord
100
AcDbBlockTableRecord
  2
*Model_Space
  0
BLOCK_RECORD
  5
214
100
AcDbSymbolTableRecord
100
AcDbBlockTableRecord
  2
*Paper_Space
  0
BLOCK_RECORD
  5
215
100
AcDbSymbolTableRecord
100
AcDbBlockTableRecord
  2
_FILLED
  0
ENDTAB
  0
TABLE
  2
DIMSTYLE
  5
A
100
AcDbSymbolTable
 70
1
100
AcDbDimStyleTable
 71
0
  0
DIMSTYLE
105
216
100
AcDbSymbolTableRecord
100
AcDbDimStyleTableRecord
  2
STANDARD
 70
0
  3

  4

 40
1.0
 41
3.0
 42
0.5
 43
0.38
 44
1.5
 45
0.0
 46
0.0
 47
0.01
 48
0.01
140
3.0
141
0.09
142
0.0
143
25.4
144
1.0
145
0.0
146
1.0
147
0.625
 71
1.0
 72
0.0
 73
0
 74
0
 75
0
 76
0
 77
1
 78
8
 79
2
170
0
171
1
172
0
173
0
174
0
175
0
176
0
177
0
178
0
270
2
179
2
271
2
272
2
273
2
274
2
275
0
280
0
281
0
282
0
283
1
284
8
285
0
286
0
287
3
288
0
340
11
278
44
341
215
342
215
343
215
344
215
  0
ENDTAB
  0
ENDSEC
  0
SECTION
  2
BLOCKS
  0
BLOCK
  5
20
100
AcDbEntity
  8
0
100
AcDbBlockBegin
  2
*Model_Space
 70
0
 10
0.0
 20
0.0
 30
0.0
  3
*Model_Space
  1

  0
ENDBLK
  5
21
100
AcDbEntity
  8
0
100
AcDbBlockEnd
  0
BLOCK
  5
1C
100
AcDbEntity
  8
0
100
AcDbBlockBegin
  2
*Paper_Space
 70
0
 10
0.0
 20
0.0
 30
0.0
  3
*Paper_Space
  1

  0
ENDBLK
  5
1D
100
AcDbEntity
  8
0
100
AcDbBlockEnd
  0
BLOCK
  5
217
100
AcDbEntity
  8
0
100
AcDbBlockBegin
  2
_FILLED
 70
64
 10
0.0
 20
0.0
  3
_FILLED
  1

  0
SOLID
  5
218
100
AcDbEntity
  8
0
  6
BYBLOCK
 62
0
100
AcDbTrace
 10
0.0
 20
0.0
 11
-1.0
 21
0.3166666667
 12
-1.0
 22
-0.3166666667
 13
-1.0
 23
-0.3166666667
  0
ENDBLK
  5
219
100
AcDbEntity
  8
0
  6
BYBLOCK
 62
0
100
AcDbBlockEnd
  0
ENDSEC
  0
SECTION
  2
ENTITIES
  0
LWPOLYLINE
  5
21A
100
AcDbEntity
  8
0
100
AcDbPolyline
 62
7
  6
CONTINUOUS
 90
14
 70
0
 10
-63.0806142269
 20
49.8618395066
 10
-63.1350740542
 20
49.7883232953
 10
-63.1929724964
 20
49.7015669956
 10
-63.2467076662
 20
49.6111685213
 10
-63.2960488408
 20
49.5173530124
 10
-63.3408231978
 20
49.4203123386
 10
-63.3808697055
 20
49.3202454429
 10
-63.4160251026
 20
49.2173984142
 10
-63.4461691312
 20
49.1119818624
 10
-63.4712039906
 20
49.0041966868
 10
-63.4910369876
 20
48.8942563021
 10
-63.5055931867
 20
48.7823619717
 10
-63.5148207445
 20
48.6687379188
 10
-63.5167546882
 20
48.6292962251
  0
LINE
  5
21B
100
AcDbEntity
  8
0
100
AcDbLine
 62
7
  6
CONTINUOUS
 10
-61.273008459
 20
52.1892702276
 11
-63.0809637348
 21
49.8613937549
  0
LINE
  5
21C
100
AcDbEntity
  8
0
100
AcDbLine
 62
250
  6
CONTINUOUS
 10
-58.9106954556
 20
52.7340851014
 11
-60.9116176604
 21
50.3494544333
  0
LWPOLYLINE
  5
21D
100
AcDbEntity
  8
0
100
AcDbPolyline
 62
7
  6
CONTINUOUS
 90
31
 70
0
 10
-65.025314034
 20
-12.2322850565
 10
-65.0252813
 20
-12.2735221152
 10
-65.020847352
 20
-12.3975676052
 10
-65.0099329923
 20
-12.5224010171
 10
-64.9925554298
 20
-12.6478108679
 10
-64.9687643322
 20
-12.7735001085
 10
-64.9386475673
 20
-12.8990566289
 10
-64.9022698211
 20
-13.0242588297
 10
-64.8597071696
 20
-13.148880584
 10
-64.8111042581
 20
-13.272501377
 10
-64.756548163
 20
-13.3949185955
 10
-64.6961453178
 20
-13.5158995168
 10
-64.6301245378
 20
-13.6349782591
 10
-64.5586177962
 20
-13.7519431793
 10
-64.4817590251
 20
-13.8665749023
 10
-64.3998580638
 20
-13.9784083985
 10
-64.3130832172
 20
-14.0872457372
 10
-64.2215940905
 20
-14.1928802131
 10
-64.1257740109
 20
-14.2948743003
 10
-64.0258221022
 20
-14.3930441092
 10
-63.9219328971
 20
-14.4871913712
 10
-63.8145598506
 20
-14.5769238111
 10
-63.7039218415
 20
-14.6620834678
 10
-63.5902286995
 20
-14.7425075802
 10
-63.4739700555
 20
-14.8178745171
 10
-63.355385583
 20
-14.8880487472
 10
-63.2346952002
 20
-14.9529073379
 10
-63.1123621101
 20
-15.0122195979
 10
-62.9886839359
 20
-15.0658569783
 10
-62.863842601
 20
-15.1137601828
 10
-62.8074302712
 20
-15.1333931452
  0
LINE
  5
21E
100
AcDbEntity
  8
0
100
AcDbLine
 62
7
  6
CONTINUOUS
 10
-65.025315739
 20
-12.2325044035
 11
-65.025314034
 21
-12.2322850565
  0
LINE
  5
21F
100
AcDbEntity
  8
0
100
AcDbLine
 62
7
  6
CONTINUOUS
 10
-65.0093817367
 20
-11.3014245741
 11
-65.0253193748
 21
-12.2325043748
  0
LINE
  5
220
100
AcDbEntity
  8
0
100
AcDbLine
 62
7
  6
CONTINUOUS
 10
-64.7266939944
 20
1.2993940032
 11
-65.0093817367
 21
-11.3014245741
  0
LINE
  5
221
100
AcDbEntity
  8
0
100
AcDbLine
 62
7
  6
CONTINUOUS
 10
-64.565693667
 20
7.9737488015
 11
-64.7266939944
 21
1.2993940032
  0
LINE
  5
222
100
AcDbEntity
  8
0
100
AcDbLine
 62
7
  6
CONTINUOUS
 10
-64.3481478646
 20
16.6905627501
 11
-64.565693667
 21
7.9737488015
  0
LINE
  5
223
100
AcDbEntity
  8
0
100
AcDbLine
 62
7
  6
CONTINUOUS
 10
-63.9060901873
 20
34.4361291129
 11
-64.3481478646
 21
16.6905627501
  0
LINE
  5
224
100
AcDbEntity
  8
0
100
AcDbLine
 62
7
  6
CONTINUOUS
 10
-63.7588891134
 20
39.9564281132
 11
-63.9060901873
 21
34.4361291129
  0
LWPOLYLINE
  5
225
100
AcDbEntity
  8
0
100
AcDbPolyline
 62
7
  6
CONTINUOUS
 90
3
 70
0
 10
-63.5167549732
 20
48.6293787426
 10
-63.5441625763
 20
47.7983896004
 10
-63.7588891134
 20
39.9564281132
  0
LINE
  5
226
100
AcDbEntity
  8
0
100
AcDbLine
 62
7
  6
CONTINUOUS
 10
-63.5167583648
 20
48.6292963755
 11
-63.5167549732
 21
48.6293787426
  0
LINE
  5
227
100
AcDbEntity
  8
0
100
AcDbLine
 62
250
  6
CONTINUOUS
 10
-42.1856582825
 20
27.761665653
 11
-42.2074519922
 21
27.7376986992
  0
LINE
  5
228
100
AcDbEntity
  8
0
100
AcDbLine
 62
7
  6
CONTINUOUS
 10
-41.9226092367
 20
-7.4514902026
 11
-41.0583651396
 21
27.4154837158
  0
LINE
  5
229
100
AcDbEntity
  8
RACCORDO
100
AcDbLine
 62
250
  6
CONTINUOUS
 10
-32.1273631319
 20
33.3155107331
 11
-32.1219657581
 21
33.3603031679
  0
LINE
  5
22A
100
AcDbEntity
  8
RACCORDO
100
AcDbLine
 62
250
  6
CONTINUOUS
 10
-32.0926157911
 20
33.6011008363
 11
-32.0906721027
 21
33.6168859846
  0
LINE
  5
22B
100
AcDbEntity
  8
RACCORDO
100
AcDbLine
 62
250
  6
CONTINUOUS
 10
-31.8881246782
 20
35.1641828324
 11
-31.8795241819
 21
35.2285530268
  0
LINE
  5
22C
100
AcDbEntity
  8
RACCORDO
100
AcDbLine
 62
250
  6
CONTINUOUS
 10
-31.8884637366
 20
35.1639558568
 11
-31.8728756207
 21
35.2764128922
  0
LINE
  5
22D
100
AcDbEntity
  8
RACCORDO
100
AcDbLine
 62
250
  6
CONTINUOUS
 10
-31.8795241819
 20
35.2285530268
 11
-31.8726144872
 21
35.2765864864
  0
LINE
  5
22E
100
AcDbEntity
  8
RACCORDO
100
AcDbLine
 62
250
  6
CONTINUOUS
 10
-31.5924970232
 20
37.1631066148
 11
-31.5757583014
 21
37.2715705401
  0
LWPOLYLINE
  5
22F
100
AcDbEntity
  8
0
100
AcDbPolyline
 62
7
  6
CONTINUOUS
 90
21
 70
0
 10
58.8200001236
 20
-52.4840183541
 10
58.8815501296
 20
-52.5004736062
 10
59.0204587764
 20
-52.5326012574
 10
59.1589293254
 20
-52.5577070856
 10
59.2966779853
 20
-52.5757681306
 10
59.4334310422
 20
-52.5867860153
 10
59.5688656192
 20
-52.5907571857
 10
59.7027093295
 20
-52.5877029962
 10
59.8346716117
 20
-52.5776547555
 10
59.9643673854
 20
-52.5606592308
 10
60.0914757874
 20
-52.5367994887
 10
60.2157177375
 20
-52.5061658476
 10
60.3367423358
 20
-52.4688767505
 10
60.4542289852
 20
-52.4250866945
 10
60.5678810915
 20
-52.3749633989
 10
60.6773629728
 20
-52.3187119997
 10
60.7823881433
 20
-52.2565634803
 10
60.8826617924
 20
-52.1887862568
 10
60.9778442673
 20
-52.1157165397
 10
61.0676750075
 20
-52.037702451
 10
61.0824800064
 20
-52.0238973604
  0
LWPOLYLINE
  5
230
100
AcDbEntity
  8
0
100
AcDbPolyline
 62
7
  6
CONTINUOUS
 90
3
 70
0
 10
55.8601283833
 20
-51.6107569648
 10
57.8894677311
 20
-52.2147393571
 10
58.8200391844
 20
-52.4840312748
  0
LWPOLYLINE
  5
231
100
AcDbEntity
  8
0
100
AcDbPolyline
 62
7
  6
CONTINUOUS
 90
4
 70
0
 10
48.1045994464
 20
-49.2959313576
 10
50.4304731421
 20
-49.9972796316
 10
51.5584374685
 20
-50.3344952583
 10
55.8601283833
 20
-51.6107569648
  0
LINE
  5
232
100
AcDbEntity
  8
0
100
AcDbLine
 62
7
  6
CONTINUOUS
 10
-36.2513860088
 20
-23.3843053274
 11
-32.5701256066
 21
-24.5130058443
  0
LWPOLYLINE
  5
233
100
AcDbEntity
  8
0
100
AcDbPolyline
 62
7
  6
CONTINUOUS
 90
3
 70
0
 10
45.6840172775
 20
-48.5540886187
 10
46.906863795
 20
-48.9299228803
 10
48.1045994464
 20
-49.2959313576
  0
LINE
  5
234
100
AcDbEntity
  8
0
100
AcDbLine
 62
7
  6
CONTINUOUS
 10
-51.9147509596
 20
-18.5820281062
 11
-36.2513860088
 21
-23.3843053274
  0
LINE
  5
235
100
AcDbEntity
  8
0
100
AcDbLine
 62
7
  6
CONTINUOUS
 10
-32.5701656171
 20
-24.5129935932
 11
31.659803892
 21
-44.2389063564
  0
LINE
  5
236
100
AcDbEntity
  8
0
100
AcDbLine
 62
7
  6
CONTINUOUS
 10
31.659803892
 20
-44.2389063564
 11
45.6840172775
 21
-48.5540886187
  0
LWPOLYLINE
  5
237
100
AcDbEntity
  8
0
100
AcDbPolyline
 62
7
  6
CONTINUOUS
 90
3
 70
0
 10
-55.8304842512
 20
-17.3548357014
 10
-54.5579935764
 20
-17.7563061972
 10
-51.9147509596
 20
-18.5820281062
  0
LINE
  5
238
100
AcDbEntity
  8
0
100
AcDbLine
 62
7
  6
CONTINUOUS
 10
-61.7677710629
 20
-15.4703699883
 11
-59.4692873143
 21
-16.1986150349
  0
LINE
  5
239
100
AcDbEntity
  8
0
100
AcDbLine
 62
7
  6
CONTINUOUS
 10
-59.4692873143
 20
-16.1986150349
 11
-55.8304842512
 21
-17.3548357014
  0
LINE
  5
23A
100
AcDbEntity
  8
0
100
AcDbLine
 62
7
  6
CONTINUOUS
 10
-62.8075691691
 20
-15.1333483563
 11
-61.7677710629
 21
-15.4703699883
  0
LINE
  5
23B
100
AcDbEntity
  8
0
100
AcDbLine
 62
7
  6
CONTINUOUS
 10
-62.8075691691
 20
-15.1333483563
 11
-62.8074308937
 21
-15.1333949929
  0
LINE
  5
23C
100
AcDbEntity
  8
0
100
AcDbLine
 62
250
  6
CONTINUOUS
 10
-32.7115015807
 20
-24.3025015742
 11
28.2993647944
 21
-43.0383475673
  0
LINE
  5
23D
100
AcDbEntity
  8
0
100
AcDbLine
 62
250
  6
CONTINUOUS
 10
-27.1345513639
 20
-11.9609226922
 11
-27.1162012957
 21
-11.2206094519
  0
LINE
  5
23E
100
AcDbEntity
  8
0
100
AcDbLine
 62
7
  6
CONTINUOUS
 10
-27.1168432693
 20
-11.8997989553
 11
-27.0993200712
 21
-11.1928448751
  0
LINE
  5
23F
100
AcDbEntity
  8
DRAFT
100
AcDbLine
 62
7
  6
CONTINUOUS
 10
-27.716196837
 20
-12.0626223102
 11
-27.6667957667
 21
-11.9083974122
  0
LINE
  5
240
100
AcDbEntity
  8
DRAFT
100
AcDbLine
 62
7
  6
CONTINUOUS
 10
-27.5310575505
 20
-11.8638382959
 11
-27.4642750759
 21
-11.6553504988
  0
LINE
  5
241
100
AcDbEntity
  8
DRAFT
100
AcDbLine
 62
7
  6
CONTINUOUS
 10
-27.3272993594
 20
-11.6069280378
 11
-27.2617543852
 21
-11.4023035854
  0
LINE
  5
242
100
AcDbEntity
  8
DRAFT
100
AcDbLine
 62
7
  6
CONTINUOUS
 10
-33.0813847725
 20
-10.415025073
 11
-33.0212055308
 21
-10.2641100469
  0
LINE
  5
243
100
AcDbEntity
  8
DRAFT
100
AcDbLine
 62
7
  6
CONTINUOUS
 10
-32.8430106365
 20
-10.202697944
 11
-32.7722768192
 21
-10.0253145872
  0
LINE
  5
244
100
AcDbEntity
  8
DRAFT
100
AcDbLine
 62
7
  6
CONTINUOUS
 10
-32.5927712049
 20
-9.9606155146
 11
-32.5233481075
 21
-9.7865191274
  0
LINE
  5
245
100
AcDbEntity
  8
0
100
AcDbLine
 62
250
  6
CONTINUOUS
 10
-41.9226092367
 20
-7.4514902026
 11
-43.1121068517
 21
-8.7596031784
  0
LINE
  5
246
100
AcDbEntity
  8
0
100
AcDbLine
 62
250
  6
CONTINUOUS
 10
-42.8510178908
 20
-9.0882606885
 11
-41.661520895
 21
-7.7801483938
  0
LINE
  5
247
100
AcDbEntity
  8
RACCORDO
100
AcDbLine
 62
250
  6
CONTINUOUS
 10
-34.1536002244
 20
-14.5448537158
 11
27.3170319992
 21
-33.4213072826
  0
LINE
  5
248
100
AcDbEntity
  8
RACCORDO
100
AcDbLine
 62
250
  6
CONTINUOUS
 10
-33.9366753815
 20
-13.6651411581
 11
27.074190995
 21
-32.4009871531
  0
LINE
  5
249
100
AcDbEntity
  8
DRAFT
100
AcDbLine
 62
7
  6
CONTINUOUS
 10
-27.5921871695
 20
-11.815174961
 11
-27.5310575505
 21
-11.8638382959
  0
LINE
  5
24A
100
AcDbEntity
  8
DRAFT
100
AcDbLine
 62
7
  6
CONTINUOUS
 10
-27.3872962272
 20
-11.5591664498
 11
-27.3272993594
 21
-11.6069280378
  0
LINE
  5
24B
100
AcDbEntity
  8
0
100
AcDbLine
 62
250
  6
CONTINUOUS
 10
-34.45328054
 20
-11.6671253404
 11
27.4673464096
 21
-30.6823501255
  0
LINE
  5
24C
100
AcDbEntity
  8
0
100
AcDbLine
 62
7
  6
CONTINUOUS
 10
36.9811269569
 20
-31.9305436625
 11
-41.661520895
 21
-7.7801483938
  0
LINE
  5
24D
100
AcDbEntity
  8
DRAFT
100
AcDbLine
 62
7
  6
CONTINUOUS
 10
-33.0212055308
 20
-10.2641100469
 11
-27.6667957667
 21
-11.9083974122
  0
LINE
  5
24E
100
AcDbEntity
  8
DRAFT
100
AcDbLine
 62
7
  6
CONTINUOUS
 10
32.4534010263
 20
-30.3707274054
 11
27.0989912621
 21
-28.7264400401
  0
LINE
  5
24F
100
AcDbEntity
  8
DRAFT
100
AcDbLine
 62
7
  6
CONTINUOUS
 10
-32.9295002246
 20
-10.1761378294
 11
-27.5921871695
 21
-11.815174961
  0
LINE
  5
250
100
AcDbEntity
  8
DRAFT
100
AcDbLine
 62
7
  6
CONTINUOUS
 10
32.5280096234
 20
-30.2775049542
 11
27.1906965684
 21
-28.6384678227
  0
LINE
  5
251
100
AcDbEntity
  8
DRAFT
100
AcDbLine
 62
7
  6
CONTINUOUS
 10
-32.7722768192
 20
-10.0253145872
 11
-27.4642750759
 21
-11.6553504988
  0
LINE
  5
252
100
AcDbEntity
  8
DRAFT
100
AcDbLine
 62
7
  6
CONTINUOUS
 10
32.655921717
 20
-30.117680492
 11
27.3479199738
 21
-28.4876445804
  0
LINE
  5
253
100
AcDbEntity
  8
DRAFT
100
AcDbLine
 62
7
  6
CONTINUOUS
 10
-32.6776581135
 20
-9.9345475673
 11
-27.3872962272
 21
-11.5591664498
  0
LINE
  5
254
100
AcDbEntity
  8
DRAFT
100
AcDbLine
 62
7
  6
CONTINUOUS
 10
32.7329005657
 20
-30.021496443
 11
27.4425386795
 21
-28.3968775605
  0
LINE
  5
255
100
AcDbEntity
  8
DRAFT
100
AcDbLine
 62
7
  6
CONTINUOUS
 10
-32.5233481075
 20
-9.7865191274
 11
-27.2617543852
 21
-11.4023035854
  0
LINE
  5
256
100
AcDbEntity
  8
DRAFT
100
AcDbLine
 62
7
  6
CONTINUOUS
 10
32.8584424078
 20
-29.8646335787
 11
27.5968486855
 21
-28.2488491206
  0
LINE
  5
257
100
AcDbEntity
  8
RACCORDO
100
AcDbLine
 62
250
  6
CONTINUOUS
 10
-12.3147291868
 20
-15.9804873022
 11
-7.0855130815
 21
-17.5863289077
  0
LINE
  5
258
100
AcDbEntity
  8
RACCORDO
100
AcDbLine
 62
250
  6
CONTINUOUS
 10
7.7253364108
 20
-22.1345972999
 11
12.9545525161
 21
-23.7404389054
  0
LINE
  5
259
100
AcDbEntity
  8
RACCORDO
100
AcDbLine
 62
7
  6
CONTINUOUS
 10
-12.2227558479
 20
-15.9651670676
 11
-7.0682124232
 21
-17.5480774164
  0
LINE
  5
25A
100
AcDbEntity
  8
RACCORDO
100
AcDbLine
 62
7
  6
CONTINUOUS
 10
7.8173097498
 20
-22.1192770654
 11
12.9718531745
 21
-23.7021874141
  0
LINE
  5
25B
100
AcDbEntity
  8
0
100
AcDbLine
 62
250
  6
CONTINUOUS
 10
-32.349094649
 20
-9.619359082
 11
-27.1199871678
 21
-11.2251673301
  0
LINE
  5
25C
100
AcDbEntity
  8
0
100
AcDbLine
 62
250
  6
CONTINUOUS
 10
27.771102144
 20
-28.0816890753
 11
33.0002096252
 21
-29.6874973234
  0
LINE
  5
25D
100
AcDbEntity
  8
0
100
AcDbLine
 62
7
  6
CONTINUOUS
 10
-32.2577040293
 20
-9.6046005618
 11
-27.1031606046
 21
-11.1875109106
  0
LINE
  5
25E
100
AcDbEntity
  8
0
100
AcDbLine
 62
7
  6
CONTINUOUS
 10
27.8624927637
 20
-28.0669305551
 11
33.0170361884
 21
-29.6498409038
  0
LINE
  5
25F
100
AcDbEntity
  8
0
100
AcDbLine
 62
7
  6
CONTINUOUS
 10
-27.1388225005
 20
-11.9665262574
 11
-27.3131917825
 21
-12.1863812582
  0
LINE
  5
260
100
AcDbEntity
  8
0
100
AcDbLine
 62
7
  6
CONTINUOUS
 10
-27.1199871678
 20
-11.2251673301
 11
-27.2617543852
 21
-11.4023035854
  0
LINE
  5
261
100
AcDbEntity
  8
DRAFT
100
AcDbLine
 62
7
  6
CONTINUOUS
 10
-27.5921871695
 20
-11.815174961
 11
-27.6667957667
 21
-11.9083974122
  0
LINE
  5
262
100
AcDbEntity
  8
DRAFT
100
AcDbLine
 62
7
  6
CONTINUOUS
 10
-27.3872962272
 20
-11.5591664498
 11
-27.4642750759
 21
-11.6553504988
  0
LINE
  5
263
100
AcDbEntity
  8
DRAFT
100
AcDbLine
 62
7
  6
CONTINUOUS
 10
-32.6776581135
 20
-9.9345475673
 11
-32.7722768192
 21
-10.0253145872
  0
LINE
  5
264
100
AcDbEntity
  8
0
100
AcDbLine
 62
7
  6
CONTINUOUS
 10
-32.349094649
 20
-9.619359082
 11
-32.5233481075
 21
-9.7865191274
  0
LINE
  5
265
100
AcDbEntity
  8
DRAFT
100
AcDbLine
 62
7
  6
CONTINUOUS
 10
-32.9295002246
 20
-10.1761378294
 11
-33.0212055308
 21
-10.2641100469
  0
LINE
  5
266
100
AcDbEntity
  8
RACCORDO
100
AcDbLine
 62
250
  6
CONTINUOUS
 10
-7.0812531143
 20
-17.5811759577
 11
-7.0995795436
 21
-18.3205355159
  0
LINE
  5
267
100
AcDbEntity
  8
RACCORDO
100
AcDbLine
 62
7
  6
CONTINUOUS
 10
-7.0643718898
 20
-17.5534113809
 11
-7.081871449
 21
-18.259411779
  0
LINE
  5
268
100
AcDbEntity
  8
0
100
AcDbLine
 62
250
  6
CONTINUOUS
 10
63.6774447941
 20
-21.960582517
 11
63.4704231828
 21
-21.8970081858
  0
LINE
  5
269
100
AcDbEntity
  8
0
100
AcDbLine
 62
250
  6
CONTINUOUS
 10
63.4711600247
 20
-21.2813599056
 11
64.2200331591
 21
-21.5113315901
  0
LINE
  5
26A
100
AcDbEntity
  8
0
100
AcDbLine
 62
7
  6
CONTINUOUS
 10
63.4731929906
 20
-21.1993421425
 11
64.3368715973
 21
-21.4645694754
  0
LINE
  5
26B
100
AcDbEntity
  8
DRAFT
100
AcDbLine
 62
7
  6
CONTINUOUS
 10
32.5280096234
 20
-30.2775049542
 11
32.5891392425
 21
-30.3261682892
  0
LINE
  5
26C
100
AcDbEntity
  8
DRAFT
100
AcDbLine
 62
7
  6
CONTINUOUS
 10
32.7329005657
 20
-30.021496443
 11
32.7928974336
 21
-30.069258031
  0
LINE
  5
26D
100
AcDbEntity
  8
0
100
AcDbLine
 62
7
  6
CONTINUOUS
 10
-7.0855130815
 20
-17.5863289077
 11
-7.6032445793
 21
-18.2391150952
  0
LINE
  5
26E
100
AcDbEntity
  8
0
100
AcDbLine
 62
7
  6
CONTINUOUS
 10
-7.1038506802
 20
-18.3261390811
 11
-7.1461575716
 21
-18.379482087
  0
LINE
  5
26F
100
AcDbEntity
  8
0
100
AcDbLine
 62
7
  6
CONTINUOUS
 10
-12.3147291868
 20
-15.9804873022
 11
-12.9510653817
 21
-16.5968511362
  0
LINE
  5
270
100
AcDbEntity
  8
RACCORDO
100
AcDbLine
 62
250
  6
CONTINUOUS
 10
12.9588124834
 20
-23.7352859554
 11
12.940486054
 21
-24.4746455136
  0
LINE
  5
271
100
AcDbEntity
  8
RACCORDO
100
AcDbLine
 62
7
  6
CONTINUOUS
 10
12.9756937079
 20
-23.7075213787
 11
12.9581941486
 21
-24.4135217767
  0
LINE
  5
272
100
AcDbEntity
  8
RACCORDO
100
AcDbLine
 62
7
  6
CONTINUOUS
 10
-42.2072677537
 20
27.768300523
 11
-42.2073238078
 21
27.768317723
  0
LINE
  5
273
100
AcDbEntity
  8
0
100
AcDbLine
 62
7
  6
CONTINUOUS
 10
37.4184798455
 20
3.3160060488
 11
-42.207267411
 21
27.7683016398
  0
LINE
  5
274
100
AcDbEntity
  8
RACCORDO
100
AcDbLine
 62
250
  6
CONTINUOUS
 10
28.0566235176
 20
7.2341683605
 11
-32.9542428559
 21
25.970014359
  0
LINE
  5
275
100
AcDbEntity
  8
RACCORDO
100
AcDbLine
 62
250
  6
CONTINUOUS
 10
28.365073083
 20
8.860753137
 11
-32.6457932921
 21
27.5965991302
  0
LINE
  5
276
100
AcDbEntity
  8
RACCORDO
100
AcDbLine
 62
7
  6
CONTINUOUS
 10
37.4185368366
 20
3.31598733
 11
37.4184795522
 21
3.3160049357
  0
LINE
  5
277
100
AcDbEntity
  8
0
100
AcDbLine
 62
7
  6
CONTINUOUS
 10
7.7253364108
 20
-22.1345972999
 11
7.0890002159
 21
-22.7509611339
  0
LINE
  5
278
100
AcDbEntity
  8
0
100
AcDbLine
 62
7
  6
CONTINUOUS
 10
12.9545525161
 20
-23.7404389054
 11
12.4368210184
 21
-24.3932250929
  0
LINE
  5
279
100
AcDbEntity
  8
0
100
AcDbLine
 62
7
  6
CONTINUOUS
 10
12.9362149174
 20
-24.4802490788
 11
12.893908026
 21
-24.5335920847
  0
LINE
  5
27A
100
AcDbEntity
  8
0
100
AcDbLine
 62
250
  6
CONTINUOUS
 10
32.9856454291
 20
-30.4232526854
 11
33.0039954972
 21
-29.6829394451
  0
LINE
  5
27B
100
AcDbEntity
  8
0
100
AcDbLine
 62
7
  6
CONTINUOUS
 10
33.0033535237
 20
-30.3621289485
 11
33.0208767218
 21
-29.6551748684
  0
LINE
  5
27C
100
AcDbEntity
  8
0
100
AcDbLine
 62
250
  6
CONTINUOUS
 10
49.6022252944
 20
16.293360271
 11
49.5443241456
 21
16.3109921929
  0
LINE
  5
27D
100
AcDbEntity
  8
0
100
AcDbLine
 62
250
  6
CONTINUOUS
 10
-39.3495810824
 20
43.6148351034
 11
-39.9574652401
 21
43.8010233941
  0
LINE
  5
27E
100
AcDbEntity
  8
0
100
AcDbLine
 62
250
  6
CONTINUOUS
 10
-48.3065437605
 20
46.3596949116
 11
-48.3901516993
 21
46.3853431994
  0
LINE
  5
27F
100
AcDbEntity
  8
0
100
AcDbLine
 62
250
  6
CONTINUOUS
 10
29.8925736457
 20
21.2379045317
 11
-31.1182927294
 21
39.9737505248
  0
LINE
  5
280
100
AcDbEntity
  8
0
100
AcDbLine
 62
250
  6
CONTINUOUS
 10
30.3106767667
 20
22.2286761692
 11
-30.7006839034
 21
40.9646739556
  0
LINE
  5
281
100
AcDbEntity
  8
0
100
AcDbLine
 62
7
  6
CONTINUOUS
 10
62.6657025034
 20
15.3991511151
 11
-58.9106954554
 21
52.7340851013
  0
LINE
  5
282
100
AcDbEntity
  8
0
100
AcDbLine
 62
250
  6
CONTINUOUS
 10
41.1991532959
 20
18.8773204354
 11
40.6765135142
 21
19.0382239951
  0
LINE
  5
283
100
AcDbEntity
  8
RACCORDO
100
AcDbLine
 62
7
  6
CONTINUOUS
 10
37.8437868036
 20
2.872521741
 11
37.8437842985
 21
2.8724200294
  0
LINE
  5
284
100
AcDbEntity
  8
0
100
AcDbLine
 62
7
  6
CONTINUOUS
 10
37.8437845318
 20
2.8724200237
 11
36.9391348013
 21
-33.6246743369
  0
LINE
  5
285
100
AcDbEntity
  8
RACCORDO
100
AcDbLine
 62
7
  6
CONTINUOUS
 10
36.9391345742
 20
-33.624674356
 11
36.9391319346
 21
-33.6247801543
  0
LINE
  5
286
100
AcDbEntity
  8
DRAFT
100
AcDbLine
 62
7
  6
CONTINUOUS
 10
27.0388120205
 20
-28.8773550662
 11
27.0989912621
 21
-28.7264400401
  0
LINE
  5
287
100
AcDbEntity
  8
DRAFT
100
AcDbLine
 62
7
  6
CONTINUOUS
 10
27.2771861564
 20
-28.6650279372
 11
27.3479199738
 21
-28.4876445804
  0
LINE
  5
288
100
AcDbEntity
  8
DRAFT
100
AcDbLine
 62
7
  6
CONTINUOUS
 10
27.5274255881
 20
-28.4229455078
 11
27.5968486855
 21
-28.2488491206
  0
LINE
  5
289
100
AcDbEntity
  8
0
100
AcDbLine
 62
250
  6
CONTINUOUS
 10
60.6647802987
 20
13.014520447
 11
62.6657025036
 21
15.3991511151
  0
LINE
  5
28A
100
AcDbEntity
  8
0
100
AcDbLine
 62
250
  6
CONTINUOUS
 10
65.2765859209
 20
12.112569204
 11
63.0802321089
 21
9.9851512333
  0
LINE
  5
28B
100
AcDbEntity
  8
0
100
AcDbLine
 62
7
  6
CONTINUOUS
 10
27.771102144
 20
-28.0816890753
 11
27.5968486855
 21
-28.2488491206
  0
LINE
  5
28C
100
AcDbEntity
  8
DRAFT
100
AcDbLine
 62
7
  6
CONTINUOUS
 10
27.4425386795
 20
-28.3968775605
 11
27.3479199738
 21
-28.4876445804
  0
LINE
  5
28D
100
AcDbEntity
  8
DRAFT
100
AcDbLine
 62
7
  6
CONTINUOUS
 10
27.1906965684
 20
-28.6384678227
 11
27.0989912621
 21
-28.7264400401
  0
LINE
  5
28E
100
AcDbEntity
  8
DRAFT
100
AcDbLine
 62
7
  6
CONTINUOUS
 10
32.4039999559
 20
-30.5249523035
 11
32.4534010263
 21
-30.3707274054
  0
LINE
  5
28F
100
AcDbEntity
  8
DRAFT
100
AcDbLine
 62
7
  6
CONTINUOUS
 10
32.5891392425
 20
-30.3261682892
 11
32.655921717
 21
-30.117680492
  0
LINE
  5
290
100
AcDbEntity
  8
DRAFT
100
AcDbLine
 62
7
  6
CONTINUOUS
 10
32.7928974336
 20
-30.069258031
 11
32.8584424078
 21
-29.8646335787
  0
LINE
  5
291
100
AcDbEntity
  8
0
100
AcDbLine
 62
7
  6
CONTINUOUS
 10
32.9813742925
 20
-30.4288562506
 11
32.8070050104
 21
-30.6487112514
  0
LINE
  5
292
100
AcDbEntity
  8
0
100
AcDbLine
 62
7
  6
CONTINUOUS
 10
33.0002096252
 20
-29.6874973234
 11
32.8584424078
 21
-29.8646335787
  0
LINE
  5
293
100
AcDbEntity
  8
DRAFT
100
AcDbLine
 62
7
  6
CONTINUOUS
 10
32.7329005657
 20
-30.021496443
 11
32.655921717
 21
-30.117680492
  0
LINE
  5
294
100
AcDbEntity
  8
DRAFT
100
AcDbLine
 62
7
  6
CONTINUOUS
 10
32.5280096234
 20
-30.2775049542
 11
32.4534010263
 21
-30.3707274054
  0
LINE
  5
295
100
AcDbEntity
  8
0
100
AcDbLine
 62
7
  6
CONTINUOUS
 10
27.496952315
 20
-33.6189349188
 11
27.4058895973
 21
-33.719078308
  0
LINE
  5
296
100
AcDbEntity
  8
0
100
AcDbLine
 62
7
  6
CONTINUOUS
 10
28.0130282648
 20
-33.7781740403
 11
27.9219680303
 21
-33.8783146988
  0
LINE
  5
297
100
AcDbEntity
  8
0
100
AcDbLine
 62
7
  6
CONTINUOUS
 10
29.1537254585
 20
-34.1303985846
 11
29.0626740535
 21
-34.230529533
  0
LINE
  5
298
100
AcDbEntity
  8
0
100
AcDbLine
 62
7
  6
CONTINUOUS
 10
29.6696928807
 20
-34.289757056
 11
29.5786460354
 21
-34.3898829901
  0
LINE
  5
299
100
AcDbEntity
  8
0
100
AcDbLine
 62
7
  6
CONTINUOUS
 10
30.0136707156
 20
-34.395987757
 11
29.9226268533
 21
-34.4961104106
  0
LINE
  5
29A
100
AcDbEntity
  8
0
100
AcDbLine
 62
7
  6
CONTINUOUS
 10
28.9139356267
 20
-36.2731159442
 11
28.822343162
 21
-36.3738419062
  0
LINE
  5
29B
100
AcDbEntity
  8
0
100
AcDbLine
 62
7
  6
CONTINUOUS
 10
30.5296618571
 20
-34.5553101198
 11
30.4386221678
 21
-34.6554281843
  0
LINE
  5
29C
100
AcDbEntity
  8
0
100
AcDbLine
 62
7
  6
CONTINUOUS
 10
31.045675639
 20
-34.7145812715
 11
30.9546395321
 21
-34.8146953964
  0
LINE
  5
29D
100
AcDbEntity
  8
0
100
AcDbLine
 62
7
  6
CONTINUOUS
 10
31.8258916173
 20
-34.9552416805
 11
31.7348592748
 21
-35.0553516655
  0
LINE
  5
29E
100
AcDbEntity
  8
0
100
AcDbLine
 62
7
  6
CONTINUOUS
 10
30.6012022566
 20
-36.7955845619
 11
30.5096179121
 21
-36.8963015939
  0
LINE
  5
29F
100
AcDbEntity
  8
0
100
AcDbLine
 62
7
  6
CONTINUOUS
 10
32.7899301042
 20
-35.2522420977
 11
32.6988985519
 21
-35.3523512138
  0
LINE
  5
2A0
100
AcDbEntity
  8
0
100
AcDbLine
 62
7
  6
CONTINUOUS
 10
31.6332068155
 20
-37.1141885014
 11
31.5416248491
 21
-37.2149029181
  0
LINE
  5
2A1
100
AcDbEntity
  8
0
100
AcDbLine
 62
7
  6
CONTINUOUS
 10
33.5706285472
 20
-35.4923706782
 11
33.4795932863
 21
-35.5924838726
  0
LINE
  5
2A2
100
AcDbEntity
  8
0
100
AcDbLine
 62
7
  6
CONTINUOUS
 10
32.6381642717
 20
-37.4228777472
 11
32.5465804479
 21
-37.5235942066
  0
LINE
  5
2A3
100
AcDbEntity
  8
0
100
AcDbLine
 62
250
  6
CONTINUOUS
 10
36.9458812201
 20
-33.3524968468
 11
36.774842761
 21
-33.5405910681
  0
LINE
  5
2A4
100
AcDbEntity
  8
0
100
AcDbLine
 62
7
  6
CONTINUOUS
 10
34.7445902657
 20
-35.8525484669
 11
34.65353837
 21
-35.9526799549
  0
LINE
  5
2A5
100
AcDbEntity
  8
0
100
AcDbLine
 62
7
  6
CONTINUOUS
 10
33.6446554428
 20
-37.7299194445
 11
33.5530647437
 21
-37.8306434649
  0
LINE
  5
2A6
100
AcDbEntity
  8
0
100
AcDbLine
 62
7
  6
CONTINUOUS
 10
35.2616582187
 20
-36.0107242298
 11
35.1705927222
 21
-36.1108706749
  0
LINE
  5
2A7
100
AcDbEntity
  8
0
100
AcDbLine
 62
7
  6
CONTINUOUS
 10
34.7918809129
 20
-37.2340541993
 11
34.7004686474
 21
-37.3345819928
  0
LINE
  5
2A8
100
AcDbEntity
  8
0
100
AcDbLine
 62
7
  6
CONTINUOUS
 10
34.5084320116
 20
-37.9912800834
 11
34.4168314556
 21
-38.0920149436
  0
LINE
  5
2A9
100
AcDbEntity
  8
0
100
AcDbLine
 62
7
  6
CONTINUOUS
 10
36.4375312368
 20
-36.3688232655
 11
36.346409789
 21
-36.4690312413
  0
LINE
  5
2AA
100
AcDbEntity
  8
0
100
AcDbLine
 62
7
  6
CONTINUOUS
 10
37.6525097399
 20
-36.7345335361
 11
37.5612822258
 21
-36.834858155
  0
LINE
  5
2AB
100
AcDbEntity
  8
0
100
AcDbLine
 62
7
  6
CONTINUOUS
 10
36.9816042112
 20
-37.480562652
 11
36.8901541398
 21
-37.5811320214
  0
LINE
  5
2AC
100
AcDbEntity
  8
0
100
AcDbLine
 62
7
  6
CONTINUOUS
 10
36.1774343151
 20
-38.489310279
 11
36.0858082169
 21
-38.5900732283
  0
LINE
  5
2AD
100
AcDbEntity
  8
0
100
AcDbLine
 62
7
  6
CONTINUOUS
 10
37.6170029715
 20
-37.6660161878
 11
37.5255064386
 21
-37.7666366518
  0
LINE
  5
2AE
100
AcDbEntity
  8
0
100
AcDbLine
 62
7
  6
CONTINUOUS
 10
37.046903378
 20
-38.7444195456
 11
36.9552647253
 21
-38.8451963014
  0
LINE
  5
2AF
100
AcDbEntity
  8
ASSI
100
AcDbLine
 62
7
  6
CONTINUOUS
 10
38.3712380236
 20
-37.9772811689
 11
38.2796979226
 21
-38.0779495455
  0
LINE
  5
2B0
100
AcDbEntity
  8
0
100
AcDbLine
 62
7
  6
CONTINUOUS
 10
38.6188421754
 20
-39.1970182417
 11
38.5271941378
 21
-39.2978053183
  0
LINE
  5
2B1
100
AcDbEntity
  8
0
100
AcDbLine
 62
250
  6
CONTINUOUS
 10
60.7377660402
 20
-38.6861503485
 11
60.7397512488
 21
-38.6154304637
  0
LINE
  5
2B2
100
AcDbEntity
  8
0
100
AcDbLine
 62
7
  6
CONTINUOUS
 10
64.3681620631
 20
-15.5352345017
 11
63.8216977898
 21
-16.140854671
  0
LINE
  5
2B3
100
AcDbEntity
  8
0
100
AcDbLine
 62
7
  6
CONTINUOUS
 10
63.6774447941
 20
-21.960582517
 11
64.2200331591
 21
-21.5113315901
  0
LINE
  5
2B4
100
AcDbEntity
  8
0
100
AcDbLine
 62
250
  6
CONTINUOUS
 10
61.7266178839
 20
-43.4206468555
 11
61.72770509
 21
-43.3703410432
  0
LINE
  5
2B5
100
AcDbEntity
  8
0
100
AcDbLine
 62
250
  6
CONTINUOUS
 10
62.4396737654
 20
-13.8278841932
 11
62.4410007945
 21
-13.7736802419
  0
LINE
  5
2B6
100
AcDbEntity
  8
0
100
AcDbLine
 62
250
  6
CONTINUOUS
 10
62.2484558383
 20
-21.5936166109
 11
62.2759535302
 21
-20.4780718797
  0
LINE
  5
2B7
100
AcDbEntity
  8
0
100
AcDbLine
 62
7
  6
CONTINUOUS
 10
63.5829397492
 20
-16.7717303323
 11
63.4589843298
 21
-21.7725748757
  0
LINE
  5
2B8
100
AcDbEntity
  8
0
100
AcDbLine
 62
7
  6
CONTINUOUS
 10
63.7688278061
 20
-48.7162672758
 11
64.4384936234
 21
-21.6993392314
  0
LINE
  5
2B9
100
AcDbEntity
  8
0
100
AcDbLine
 62
7
  6
CONTINUOUS
 10
64.6069201036
 20
-14.9043588404
 11
65.2765859209
 21
12.112569204
  0
LINE
  5
2BA
100
AcDbEntity
  8
0
100
AcDbLine
 62
250
  6
CONTINUOUS
 10
62.1975665854
 20
-23.6378745634
 11
62.2008381739
 21
-23.5070295671
  0
LINE
  5
2BB
100
AcDbEntity
  8
0
100
AcDbLine
 62
250
  6
CONTINUOUS
 10
62.8009650931
 20
0.1999730927
 11
62.8013721143
 21
0.2147477807
  0
LINE
  5
2BC
100
AcDbEntity
  8
0
100
AcDbLine
 62
250
  6
CONTINUOUS
 10
62.9611469592
 20
5.9401334051
 11
62.9642029655
 21
6.049334711
  0
LINE
  5
2BD
100
AcDbEntity
  8
0
100
AcDbLine
 62
250
  6
CONTINUOUS
 10
61.5724739941
 20
-50.8436852465
 11
63.7688278061
 21
-48.7162672758
  0
LINE
  5
2BE
100
AcDbEntity
  8
0
100
AcDbLine
 62
7
  6
CONTINUOUS
 10
63.2274731865
 20
-50.0044772744
 11
61.0819615182
 21
-52.0243898858
  0
ARC
  5
2BF
100
AcDbEntity
  8
RACCORDO
100
AcDbCircle
 62
250
  6
CONTINUOUS
 10
-42.6438046142
 20
28.1364767713
 40
0.5911249093
100
AcDbArc
 50
313.1114651579
 51
315.3777671962
  0
ARC
  5
2C0
100
AcDbEntity
  8
RACCORDO
100
AcDbCircle
 62
250
  6
CONTINUOUS
 10
-42.6178455048
 20
28.1108637141
 40
0.5546570599
100
AcDbArc
 50
315.3773276617
 51
317.7234459868
  0
ARC
  5
2C1
100
AcDbEntity
  8
0
100
AcDbCircle
 62
250
  6
CONTINUOUS
 10
-41.9907541448
 20
27.7324340923
 40
0.2167620125
100
AcDbArc
 50
172.9930122763
 51
178.6083588557
  0
ARC
  5
2C2
100
AcDbEntity
  8
0
100
AcDbCircle
 62
250
  6
CONTINUOUS
 10
-42.0007501326
 20
27.7335685407
 40
0.2067023113
100
AcDbArc
 50
170.5451019095
 51
172.9671119397
  0
ARC
  5
2C3
100
AcDbEntity
  8
0
100
AcDbCircle
 62
7
  6
CONTINUOUS
 10
163.1946963425
 20
-85.6961419845
 40
137.2437866089
100
AcDbArc
 50
159.13202922
 51
159.3223742889
  0
ARC
  5
2C4
100
AcDbEntity
  8
0
100
AcDbCircle
 62
7
  6
CONTINUOUS
 10
151.3624661703
 20
-81.4725792516
 40
124.7323327711
100
AcDbArc
 50
159.4595669653
 51
159.6478448295
  0
ARC
  5
2C5
100
AcDbEntity
  8
0
100
AcDbCircle
 62
7
  6
CONTINUOUS
 10
149.6099471696
 20
-80.6938314359
 40
122.8178031334
100
AcDbArc
 50
159.0283515347
 51
159.3268051725
  0
ARC
  5
2C6
100
AcDbEntity
  8
0
100
AcDbCircle
 62
7
  6
CONTINUOUS
 10
142.1958182265
 20
-77.9074526685
 40
114.8471766464
100
AcDbArc
 50
159.5471522823
 51
159.6619134179
  0
ARC
  5
2C7
100
AcDbEntity
  8
0
100
AcDbCircle
 62
7
  6
CONTINUOUS
 10
151.0815274989
 20
-33.0177996286
 40
114.2749421643
100
AcDbArc
 50
182.4952725833
 51
182.9230390002
  0
ARC
  5
2C8
100
AcDbEntity
  8
0
100
AcDbCircle
 62
7
  6
CONTINUOUS
 10
127.0640764984
 20
-72.5374756705
 40
104.6353379098
100
AcDbArc
 50
158.5595826858
 51
159.7218161693
  0
ARC
  5
2C9
100
AcDbEntity
  8
0
100
AcDbCircle
 62
7
  6
CONTINUOUS
 10
126.2518526394
 20
-72.4046320837
 40
104.4174245026
100
AcDbArc
 50
158.5560228143
 51
159.3644588627
  0
ARC
  5
2CA
100
AcDbEntity
  8
0
100
AcDbCircle
 62
7
  6
CONTINUOUS
 10
131.8789081444
 20
-69.2098398166
 40
104.207179225
100
AcDbArc
 50
161.6284087641
 51
162.2396581411
  0
ARC
  5
2CB
100
AcDbEntity
  8
0
100
AcDbCircle
 62
7
  6
CONTINUOUS
 10
130.4535908834
 20
-68.8934684557
 40
102.8097840812
100
AcDbArc
 50
161.4619635331
 51
162.2342928849
  0
ARC
  5
2CC
100
AcDbEntity
  8
0
100
AcDbCircle
 62
7
  6
CONTINUOUS
 10
125.0143302011
 20
-71.9069530544
 40
102.5451137715
100
AcDbArc
 50
158.5395330319
 51
159.7258795621
  0
ARC
  5
2CD
100
AcDbEntity
  8
0
100
AcDbCircle
 62
7
  6
CONTINUOUS
 10
133.8409992489
 20
-33.7306116272
 40
96.9238632397
100
AcDbArc
 50
182.5372790492
 51
182.9651965654
  0
ARC
  5
2CE
100
AcDbEntity
  8
0
100
AcDbCircle
 62
7
  6
CONTINUOUS
 10
116.5710894415
 20
-64.3220151119
 40
88.7343554155
100
AcDbArc
 50
160.9449599065
 51
161.8445917661
  0
ARC
  5
2CF
100
AcDbEntity
  8
0
100
AcDbCircle
 62
7
  6
CONTINUOUS
 10
121.668125463
 20
-33.940887276
 40
84.7604635635
100
AcDbArc
 50
182.1143976972
 51
182.3934207823
  0
ARC
  5
2D0
100
AcDbEntity
  8
0
100
AcDbCircle
 62
7
  6
CONTINUOUS
 10
105.8847654787
 20
-34.6743375015
 40
69.0558169034
100
AcDbArc
 50
181.9628231155
 51
182.4124872819
  0
ARC
  5
2D1
100
AcDbEntity
  8
0
100
AcDbCircle
 62
7
  6
CONTINUOUS
 10
101.1623855902
 20
-34.2821214161
 40
68.2112241189
100
AcDbArc
 50
181.6168375517
 51
182.8494748372
  0
ARC
  5
2D2
100
AcDbEntity
  8
0
100
AcDbCircle
 62
7
  6
CONTINUOUS
 10
96.4337627743
 20
-33.8811941356
 40
64.8811552389
100
AcDbArc
 50
181.9303453984
 51
182.8562018349
  0
ARC
  5
2D3
100
AcDbEntity
  8
0
100
AcDbCircle
 62
7
  6
CONTINUOUS
 10
95.1728725224
 20
-34.0473264198
 40
63.7100401925
100
AcDbArc
 50
181.529098934
 51
182.8498431179
  0
ARC
  5
2D4
100
AcDbEntity
  8
0
100
AcDbCircle
 62
7
  6
CONTINUOUS
 10
92.1426587407
 20
-33.6386857878
 40
62.2259394872
100
AcDbArc
 50
180.7895158718
 51
182.853736273
  0
ARC
  5
2D5
100
AcDbEntity
  8
0
100
AcDbCircle
 62
7
  6
CONTINUOUS
 10
92.4184529186
 20
-33.7002474561
 40
61.8946976017
100
AcDbArc
 50
180.7915547245
 51
182.8665421599
  0
ARC
  5
2D6
100
AcDbEntity
  8
0
100
AcDbCircle
 62
7
  6
CONTINUOUS
 10
89.5405030927
 20
-33.904513384
 40
59.10665108
100
AcDbArc
 50
180.7279283379
 51
182.9013675393
  0
ARC
  5
2D7
100
AcDbEntity
  8
0
100
AcDbCircle
 62
7
  6
CONTINUOUS
 10
184.8152075305
 20
44.0784794271
 40
168.3798910807
100
AcDbArc
 50
209.2647581586
 51
209.6808098018
  0
ARC
  5
2D8
100
AcDbEntity
  8
0
100
AcDbCircle
 62
7
  6
CONTINUOUS
 10
176.6141497419
 20
39.5135513162
 40
158.8649069823
100
AcDbArc
 50
209.2907531835
 51
209.6998232421
  0
ARC
  5
2D9
100
AcDbEntity
  8
0
100
AcDbCircle
 62
7
  6
CONTINUOUS
 10
154.8895994827
 20
27.4380845724
 40
134.5706228955
100
AcDbArc
 50
209.1572354924
 51
209.647532099
  0
ARC
  5
2DA
100
AcDbEntity
  8
RACCORDO
100
AcDbCircle
 62
250
  6
CONTINUOUS
 10
83.9213851373
 20
19.0682793473
 40
116.9237623788
100
AcDbArc
 50
169.7003767945
 51
171.0437633997
  0
ARC
  5
2DB
100
AcDbEntity
  8
RACCORDO
100
AcDbCircle
 62
250
  6
CONTINUOUS
 10
79.752078951
 20
19.7179779862
 40
112.7041374402
100
AcDbArc
 50
171.0959707774
 51
171.5906768388
  0
ARC
  5
2DC
100
AcDbEntity
  8
RACCORDO
100
AcDbCircle
 62
250
  6
CONTINUOUS
 10
77.0968132497
 20
20.1140612343
 40
110.0194982733
100
AcDbArc
 50
171.8860908916
 51
172.078562998
  0
ARC
  5
2DD
100
AcDbEntity
  8
RACCORDO
100
AcDbCircle
 62
250
  6
CONTINUOUS
 10
76.8487085556
 20
20.1493558014
 40
109.7688960918
100
AcDbArc
 50
171.5917935228
 51
171.7894205042
  0
ARC
  5
2DE
100
AcDbEntity
  8
RACCORDO
100
AcDbCircle
 62
250
  6
CONTINUOUS
 10
73.1798274491
 20
20.6443503773
 40
106.0667938422
100
AcDbArc
 50
172.1320097693
 51
172.9748307783
  0
ARC
  5
2DF
100
AcDbEntity
  8
RACCORDO
100
AcDbCircle
 62
250
  6
CONTINUOUS
 10
72.2463881336
 20
20.7614051449
 40
105.1260458947
100
AcDbArc
 50
172.9845952068
 51
173.1168060128
  0
ARC
  5
2E0
100
AcDbEntity
  8
0
100
AcDbCircle
 62
7
  6
CONTINUOUS
 10
110.3078980852
 20
-9.4537302418
 40
80.1650273648
100
AcDbArc
 50
200.8252289354
 51
201.1942017197
  0
ARC
  5
2E1
100
AcDbEntity
  8
0
100
AcDbCircle
 62
7
  6
CONTINUOUS
 10
97.8777413991
 20
-14.3076724248
 40
69.7681110892
100
AcDbArc
 50
197.8965851387
 51
199.2983175194
  0
ARC
  5
2E2
100
AcDbEntity
  8
0
100
AcDbCircle
 62
7
  6
CONTINUOUS
 10
93.3130401351
 20
-11.3400939918
 40
69.60295562
100
AcDbArc
 50
198.7550833752
 51
200.9389354442
  0
ARC
  5
2E3
100
AcDbEntity
  8
0
100
AcDbCircle
 62
7
  6
CONTINUOUS
 10
92.4204605183
 20
-11.9205317133
 40
68.0152472434
100
AcDbArc
 50
198.7454253629
 51
200.2246339854
  0
ARC
  5
2E4
100
AcDbEntity
  8
0
100
AcDbCircle
 62
7
  6
CONTINUOUS
 10
92.3264946177
 20
-12.0397653904
 40
68.0063620616
100
AcDbArc
 50
198.7309793573
 51
200.2748620309
  0
ARC
  5
2E5
100
AcDbEntity
  8
0
100
AcDbCircle
 62
7
  6
CONTINUOUS
 10
98.8124056712
 20
-13.6617800035
 40
67.9240735127
100
AcDbArc
 50
199.8595139699
 51
200.5329096906
  0
ARC
  5
2E6
100
AcDbEntity
  8
0
100
AcDbCircle
 62
7
  6
CONTINUOUS
 10
87.9547604421
 20
-17.8003158987
 40
58.6919193257
100
AcDbArc
 50
196.9949666985
 51
198.5629570333
  0
ARC
  5
2E7
100
AcDbEntity
  8
0
100
AcDbCircle
 62
7
  6
CONTINUOUS
 10
85.7442910388
 20
-18.5994458894
 40
56.4607434806
100
AcDbArc
 50
196.945233134
 51
198.6692517198
  0
ARC
  5
2E8
100
AcDbEntity
  8
0
100
AcDbCircle
 62
7
  6
CONTINUOUS
 10
129.7464525704
 20
278.2231561823
 40
329.958978164
100
AcDbArc
 50
253.23304543
 51
253.3817169921
  0
ARC
  5
2E9
100
AcDbEntity
  8
0
100
AcDbCircle
 62
7
  6
CONTINUOUS
 10
109.7164558986
 20
210.7139451008
 40
259.9499105566
100
AcDbArc
 50
253.6256140934
 51
253.7454854327
  0
ARC
  5
2EA
100
AcDbEntity
  8
0
100
AcDbCircle
 62
7
  6
CONTINUOUS
 10
103.502145462
 20
189.2946971302
 40
237.6473784313
100
AcDbArc
 50
253.9846141168
 51
254.1327718122
  0
ARC
  5
2EB
100
AcDbEntity
  8
0
100
AcDbCircle
 62
7
  6
CONTINUOUS
 10
97.4616024136
 20
169.0460942687
 40
215.7106346887
100
AcDbArc
 50
253.6989291272
 51
253.8250883682
  0
ARC
  5
2EC
100
AcDbEntity
  8
0
100
AcDbCircle
 62
7
  6
CONTINUOUS
 10
90.9298122042
 20
146.1749391141
 40
191.4151312582
100
AcDbArc
 50
253.6300201666
 51
253.8281479596
  0
ARC
  5
2ED
100
AcDbEntity
  8
0
100
AcDbCircle
 62
7
  6
CONTINUOUS
 10
90.8062647882
 20
145.9004473924
 40
191.2392140007
100
AcDbArc
 50
253.6245608399
 51
253.8228618144
  0
ARC
  5
2EE
100
AcDbEntity
  8
0
100
AcDbCircle
 62
7
  6
CONTINUOUS
 10
91.0088700854
 20
144.767425441
 40
189.6967544683
100
AcDbArc
 50
253.4172557467
 51
253.6168212561
  0
ARC
  5
2EF
100
AcDbEntity
  8
0
100
AcDbCircle
 62
250
  6
CONTINUOUS
 10
4217.8711581217
 20
-113.8269868103
 40
4156.6345108249
100
AcDbArc
 50
178.428035171
 51
178.6207144496
  0
SPLINE
  5
2F0
100
AcDbEntity
  8
0
100
AcDbSpline
 62
7
  6
CONTINUOUS
 70
0
 71
3
 72
14
 73
10
 74
0
 42
0.0000001
 43
0.0000001
 44
0.0000000001
 40
0.0
 40
0.0
 40
0.0
 40
0.0
 40
0.1254437476
 40
0.2549785527
 40
0.3865459599
 40
0.5178663975
 40
0.6466877208
 40
0.7710206938
 40
1.0
 40
1.0
 40
1.0
 40
1.0
 10
62.6657025034
 20
15.3991511151
 30
0.0
 10
62.8441354426
 20
15.3443560881
 30
0.0
 10
63.1978803211
 20
15.2019732525
 30
0.0
 10
63.6941739013
 20
14.9073492173
 30
0.0
 10
64.1492760902
 20
14.5381854699
 30
0.0
 10
64.5459990348
 20
14.1085566765
 30
0.0
 10
64.8696523007
 20
13.6337121905
 30
0.0
 10
65.1784182104
 20
12.9848719405
 30
0.0
 10
65.2850285969
 20
12.4531796451
 30
0.0
 10
65.2765859209
 20
12.112569204
 30
0.0
  0
SPLINE
  5
2F1
100
AcDbEntity
  8
0
100
AcDbSpline
 62
7
  6
CONTINUOUS
 70
0
 71
3
 72
12
 73
8
 74
0
 42
0.0000001
 43
0.0000001
 44
0.0000000001
 40
0.0
 40
0.0
 40
0.0
 40
0.0
 40
0.2773837809
 40
0.5336291382
 40
0.7712719052
 40
0.8861061675
 40
1.0
 40
1.0
 40
1.0
 40
1.0
 10
-58.9106954554
 20
52.7340851013
 30
0.0
 10
-59.1381269893
 20
52.803927122
 30
0.0
 10
-59.5925875331
 20
52.8915211468
 30
0.0
 10
-60.2607968594
 20
52.8465415635
 30
0.0
 10
-60.7564376232
 20
52.6512234632
 30
0.0
 10
-61.0784476536
 20
52.4108622098
 30
0.0
 10
-61.2130891721
 20
52.2664228132
 30
0.0
 10
-61.2730082965
 20
52.1892700923
 30
0.0
  0
SPLINE
  5
2F2
100
AcDbEntity
  8
0
100
AcDbSpline
 62
7
  6
CONTINUOUS
 70
0
 71
3
 72
8
 73
4
 74
0
 42
0.0000001
 43
0.0000001
 44
0.0000000001
 40
0.0
 40
0.0
 40
0.0
 40
0.0
 40
1.0
 40
1.0
 40
1.0
 40
1.0
 10
33.0208759356
 20
-29.6551754678
 30
0.0
 10
33.0209298193
 20
-29.652985186
 30
0.0
 10
33.0191318189
 20
-29.6504823121
 30
0.0
 10
33.0170370895
 20
-29.6498401701
 30
0.0
  0
SPLINE
  5
2F3
100
AcDbEntity
  8
0
100
AcDbSpline
 62
7
  6
CONTINUOUS
 70
0
 71
3
 72
8
 73
4
 74
0
 42
0.0000001
 43
0.0000001
 44
0.0000000001
 40
0.0
 40
0.0
 40
0.0
 40
0.0
 40
1.0
 40
1.0
 40
1.0
 40
1.0
 10
-27.0993208574
 20
-11.1928454745
 30
0.0
 10
-27.0992669737
 20
-11.1906551927
 30
0.0
 10
-27.101064974
 20
-11.1881523189
 30
0.0
 10
-27.1031597035
 20
-11.1875101769
 30
0.0
  0
SPLINE
  5
2F4
100
AcDbEntity
  8
RACCORDO
100
AcDbSpline
 62
7
  6
CONTINUOUS
 70
0
 71
3
 72
8
 73
4
 74
0
 42
0.0000001
 43
0.0000001
 44
0.0000000001
 40
0.0
 40
0.0
 40
0.0
 40
0.0
 40
1.0
 40
1.0
 40
1.0
 40
1.0
 10
-7.0643643963
 20
-17.5534056192
 30
0.0
 10
-7.0643137897
 20
-17.551215395
 30
0.0
 10
-7.06611875
 20
-17.5487210861
 30
0.0
 10
-7.0682130055
 20
-17.5480778621
 30
0.0
  0
SPLINE
  5
2F5
100
AcDbEntity
  8
RACCORDO
100
AcDbSpline
 62
7
  6
CONTINUOUS
 70
0
 71
3
 72
8
 73
4
 74
0
 42
0.0000001
 43
0.0000001
 44
0.0000000001
 40
0.0
 40
0.0
 40
0.0
 40
0.0
 40
1.0
 40
1.0
 40
1.0
 40
1.0
 10
12.9757012014
 20
-23.707515617
 30
0.0
 10
12.975751808
 20
-23.7053253927
 30
0.0
 10
12.9739468476
 20
-23.7028310839
 30
0.0
 10
12.9718525921
 20
-23.7021878599
 30
0.0
  0
SPLINE
  5
2F6
100
AcDbEntity
  8
0
100
AcDbSpline
 62
7
  6
CONTINUOUS
 70
0
 71
3
 72
11
 73
7
 74
0
 42
0.0000001
 43
0.0000001
 44
0.0000000001
 40
0.0
 40
0.0
 40
0.0
 40
0.0
 40
0.4645311014
 40
0.782237407
 40
0.9565118447
 40
1.0
 40
1.0
 40
1.0
 40
1.0
 10
-42.2073238078
 20
27.768317723
 30
0.0
 10
-42.2189909458
 20
27.7719005881
 30
0.0
 10
-42.2371984366
 20
27.7772443456
 30
0.0
 10
-42.2670226018
 20
27.7808103526
 30
0.0
 10
-42.2734309482
 20
27.7823208472
 30
0.0
 10
-42.2858350324
 20
27.7816437652
 30
0.0
 10
-42.2846974073
 20
27.7817501426
 30
0.0
  0
SPLINE
  5
2F7
100
AcDbEntity
  8
0
100
AcDbSpline
 62
7
  6
CONTINUOUS
 70
0
 71
3
 72
9
 73
5
 74
0
 42
0.0000001
 43
0.0000001
 44
0.0000000001
 40
0.0
 40
0.0
 40
0.0
 40
0.0
 40
0.4739935255
 40
1.0
 40
1.0
 40
1.0
 40
1.0
 10
38.2796978265
 20
-38.0779494941
 30
0.0
 10
38.2378243161
 20
-38.1239934922
 30
0.0
 10
38.1257847164
 20
-38.2008439593
 30
0.0
 10
37.9945226053
 20
-38.228570181
 30
0.0
 10
37.9256217725
 20
-38.2333503191
 30
0.0
  0
SPLINE
  5
2F8
100
AcDbEntity
  8
0
100
AcDbSpline
 62
7
  6
CONTINUOUS
 70
0
 71
3
 72
13
 73
9
 74
0
 42
0.0000001
 43
0.0000001
 44
0.0000000001
 40
0.0
 40
0.0
 40
0.0
 40
0.0
 40
0.0974333588
 40
0.2003635772
 40
0.3141553694
 40
0.4402754033
 40
0.7183752058
 40
1.0
 40
1.0
 40
1.0
 40
1.0
 10
37.7883647799
 20
-37.7199097506
 30
0.0
 10
37.8026887577
 20
-37.7041535627
 30
0.0
 10
37.8257731562
 20
-37.6653351909
 30
0.0
 10
37.8360221125
 20
-37.5960386682
 30
0.0
 10
37.8231156167
 20
-37.5211959072
 30
0.0
 10
37.7760697287
 20
-37.4171991504
 30
0.0
 10
37.6726156877
 20
-37.3037322355
 30
0.0
 10
37.562092389
 20
-37.2443936395
 30
0.0
 10
37.5030407752
 20
-37.227039344
 30
0.0
  0
SPLINE
  5
2F9
100
AcDbEntity
  8
0
100
AcDbSpline
 62
7
  6
CONTINUOUS
 70
0
 71
3
 72
20
 73
16
 74
0
 42
0.0000001
 43
0.0000001
 44
0.0000000001
 40
0.0
 40
0.0
 40
0.0
 40
0.0
 40
0.0024111728
 40
0.0154744962
 40
0.0408010964
 40
0.0788607571
 40
0.1295782374
 40
0.1919925001
 40
0.26455482
 40
0.345217027
 40
0.4316839908
 40
0.5215919902
 40
0.7020314056
 40
0.8675910443
 40
1.0
 40
1.0
 40
1.0
 40
1.0
 10
37.8437868036
 20
2.872521741
 30
0.0
 10
37.8437740484
 20
2.8720071451
 30
0.0
 10
37.8436545938
 20
2.8790487736
 30
0.0
 10
37.8424860278
 20
2.8827780665
 30
0.0
 10
37.8392959711
 20
2.9021517216
 30
0.0
 10
37.8324473274
 20
2.9239291349
 30
0.0
 10
37.8208865913
 20
2.9547718428
 30
0.0
 10
37.8036834911
 20
2.9902928959
 30
0.0
 10
37.7804613788
 20
3.0301817019
 30
0.0
 10
37.7512213798
 20
3.0722135711
 30
0.0
 10
37.7164771469
 20
3.1147685043
 30
0.0
 10
37.6638832476
 20
3.1699524179
 30
0.0
 10
37.5921725546
 20
3.2298904019
 30
0.0
 10
37.5046086361
 20
3.2831559687
 30
0.0
 10
37.4455589713
 20
3.3076890938
 30
0.0
 10
37.4185368366
 20
3.31598733
 30
0.0
  0
SPLINE
  5
2FA
100
AcDbEntity
  8
0
100
AcDbSpline
 62
7
  6
CONTINUOUS
 70
0
 71
3
 72
11
 73
7
 74
0
 42
0.0000001
 43
0.0000001
 44
0.0000000001
 40
0.0
 40
0.0
 40
0.0
 40
0.0
 40
0.2412532073
 40
0.4855828713
 40
0.7373768349
 40
1.0
 40
1.0
 40
1.0
 40
1.0
 10
63.2274723574
 20
-50.0044764553
 30
0.0
 10
63.3113662247
 20
-49.9254897538
 30
0.0
 10
63.4638013019
 20
-49.7479695095
 30
0.0
 10
63.6329818258
 20
-49.4362987215
 30
0.0
 10
63.7391040792
 20
-49.0874441129
 30
0.0
 10
63.7657196701
 20
-48.8416615913
 30
0.0
 10
63.7688278061
 20
-48.7162672758
 30
0.0
  0
SPLINE
  5
2FB
100
AcDbEntity
  8
0
100
AcDbSpline
 62
7
  6
CONTINUOUS
 70
0
 71
3
 72
10
 73
6
 74
0
 42
0.0000001
 43
0.0000001
 44
0.0000000001
 40
0.0
 40
0.0
 40
0.0
 40
0.0
 40
0.2563297634
 40
0.5212164736
 40
1.0
 40
1.0
 40
1.0
 40
1.0
 10
-41.661520895
 20
-7.7801483938
 30
0.0
 10
-41.6976434501
 20
-7.769055507
 30
0.0
 10
-41.7675703353
 20
-7.7334216671
 30
0.0
 10
-41.8759695198
 20
-7.6330620747
 30
0.0
 10
-41.9243581831
 20
-7.5220495147
 30
0.0
 10
-41.9226092367
 20
-7.4514902026
 30
0.0
  0
LINE
  5
2FC
100
AcDbEntity
  8
0
100
AcDbLine
 62
7
  6
CONTINUOUS
 10
28.822343162
 20
-36.3738419062
 11
28.3065358629
 21
-36.2142941467
  0
LINE
  5
2FD
100
AcDbEntity
  8
0
100
AcDbLine
 62
7
  6
CONTINUOUS
 10
30.5096179121
 20
-36.8963015939
 11
29.993886693
 21
-36.7366977338
  0
LINE
  5
2FE
100
AcDbEntity
  8
0
100
AcDbLine
 62
7
  6
CONTINUOUS
 10
32.5465804479
 20
-37.5235942066
 11
32.0298546571
 21
-37.3651036903
  0
LINE
  5
2FF
100
AcDbEntity
  8
0
100
AcDbLine
 62
7
  6
CONTINUOUS
 10
31.5416248491
 20
-37.2149029181
 11
31.0255001293
 21
-37.0557262009
  0
SPLINE
  5
300
100
AcDbEntity
  8
0
100
AcDbSpline
 62
7
  6
CONTINUOUS
 70
0
 71
3
 72
9
 73
5
 74
0
 42
0.0000001
 43
0.0000001
 44
0.0000000001
 40
0.0
 40
0.0
 40
0.0
 40
0.0
 40
0.2459931942
 40
1.0
 40
1.0
 40
1.0
 40
1.0
 10
31.0255001293
 20
-37.0557262009
 30
0.0
 10
31.0163587464
 20
-36.8720967474
 30
0.0
 10
30.982726763
 20
-36.1254484862
 30
0.0
 10
30.9614170318
 20
-35.3782040351
 30
0.0
 10
30.9546395321
 20
-34.8146953964
 30
0.0
  0
LINE
  5
301
100
AcDbEntity
  8
0
100
AcDbLine
 62
7
  6
CONTINUOUS
 10
33.5530647437
 20
-37.8306434649
 11
33.0354989708
 21
-37.673052754
  0
LINE
  5
302
100
AcDbEntity
  8
0
100
AcDbLine
 62
7
  6
CONTINUOUS
 10
34.4168314556
 20
-38.0920149436
 11
33.8983859212
 21
-37.9353968667
  0
SPLINE
  5
303
100
AcDbEntity
  8
0
100
AcDbSpline
 62
7
  6
CONTINUOUS
 70
0
 71
3
 72
9
 73
5
 74
0
 42
0.0000001
 43
0.0000001
 44
0.0000000001
 40
0.0
 40
0.0
 40
0.0
 40
0.0
 40
0.4934939386
 40
1.0
 40
1.0
 40
1.0
 40
1.0
 10
33.8983859212
 20
-37.9353968667
 30
0.0
 10
34.0197033544
 20
-37.608148818
 30
0.0
 10
34.2684179989
 20
-36.9460928951
 30
0.0
 10
34.5224045312
 20
-36.2860286869
 30
0.0
 10
34.65353837
 20
-35.9526799549
 30
0.0
  0
SPLINE
  5
304
100
AcDbEntity
  8
0
100
AcDbSpline
 62
7
  6
CONTINUOUS
 70
0
 71
3
 72
8
 73
4
 74
0
 42
0.0000001
 43
0.0000001
 44
0.0000000001
 40
0.0
 40
0.0
 40
0.0
 40
0.0
 40
1.0
 40
1.0
 40
1.0
 40
1.0
 10
36.0858082169
 20
-38.5900732283
 30
0.0
 10
35.9122237399
 20
-38.5388177344
 30
0.0
 10
35.7386892284
 20
-38.4873927611
 30
0.0
 10
35.5652017052
 20
-38.4358100543
 30
0.0
  0
SPLINE
  5
305
100
AcDbEntity
  8
0
100
AcDbSpline
 62
7
  6
CONTINUOUS
 70
0
 71
3
 72
9
 73
5
 74
0
 42
0.0000001
 43
0.0000001
 44
0.0000000001
 40
0.0
 40
0.0
 40
0.0
 40
0.0
 40
0.4960132701
 40
1.0
 40
1.0
 40
1.0
 40
1.0
 10
36.4333093019
 20
-38.6924229479
 30
0.0
 10
36.4143375588
 20
-38.3250129361
 30
0.0
 10
36.3810284121
 20
-37.5840527773
 30
0.0
 10
36.353708362
 20
-36.8427735048
 30
0.0
 10
36.346409789
 20
-36.4690312413
 30
0.0
  0
SPLINE
  5
306
100
AcDbEntity
  8
0
100
AcDbSpline
 62
7
  6
CONTINUOUS
 70
0
 71
3
 72
9
 73
5
 74
0
 42
0.0000001
 43
0.0000001
 44
0.0000000001
 40
0.0
 40
0.0
 40
0.0
 40
0.0
 40
0.7425924609
 40
1.0
 40
1.0
 40
1.0
 40
1.0
 10
27.7757565674
 20
-28.0773979207
 30
0.0
 10
27.783465281
 20
-28.0705796432
 30
0.0
 10
27.7964681031
 20
-28.0640169531
 30
0.0
 10
27.8101180772
 20
-28.0616114035
 30
0.0
 10
27.8136623599
 20
-28.0612063774
 30
0.0
  0
SPLINE
  5
307
100
AcDbEntity
  8
0
100
AcDbSpline
 62
7
  6
CONTINUOUS
 70
0
 71
3
 72
9
 73
5
 74
0
 42
0.0000001
 43
0.0000001
 44
0.0000000001
 40
0.0
 40
0.0
 40
0.0
 40
0.0
 40
0.2376676726
 40
1.0
 40
1.0
 40
1.0
 40
1.0
 10
27.8136623599
 20
-28.0612063774
 30
0.0
 10
27.8175486148
 20
-28.0607622721
 30
0.0
 10
27.8340327238
 20
-28.0600252423
 30
0.0
 10
27.8504993379
 20
-28.0632450512
 30
0.0
 10
27.8624926538
 20
-28.0669295109
 30
0.0
  0
SPLINE
  5
308
100
AcDbEntity
  8
0
100
AcDbSpline
 62
7
  6
CONTINUOUS
 70
0
 71
3
 72
9
 73
5
 74
0
 42
0.0000001
 43
0.0000001
 44
0.0000000001
 40
0.0
 40
0.0
 40
0.0
 40
0.0
 40
0.2348895647
 40
1.0
 40
1.0
 40
1.0
 40
1.0
 10
32.9856454291
 20
-30.4232526854
 30
0.0
 10
32.9878056121
 20
-30.4203083558
 30
0.0
 10
32.9960010852
 20
-30.4070343312
 30
0.0
 10
33.0002724315
 20
-30.3916259944
 30
0.0
 10
33.0019324297
 20
-30.3798473914
 30
0.0
  0
SPLINE
  5
309
100
AcDbEntity
  8
0
100
AcDbSpline
 62
7
  6
CONTINUOUS
 70
0
 71
3
 72
8
 73
4
 74
0
 42
0.0000001
 43
0.0000001
 44
0.0000000001
 40
0.0
 40
0.0
 40
0.0
 40
0.0
 40
1.0
 40
1.0
 40
1.0
 40
1.0
 10
33.0019324297
 20
-30.3798473914
 30
0.0
 10
33.0027593184
 20
-30.3739801596
 30
0.0
 10
33.0032061815
 20
-30.3680519865
 30
0.0
 10
33.0033527614
 20
-30.3621285864
 30
0.0
  0
SPLINE
  5
30A
100
AcDbEntity
  8
0
100
AcDbSpline
 62
7
  6
CONTINUOUS
 70
0
 71
3
 72
9
 73
5
 74
0
 42
0.0000001
 43
0.0000001
 44
0.0000000001
 40
0.0
 40
0.0
 40
0.0
 40
0.0
 40
0.7425924609
 40
1.0
 40
1.0
 40
1.0
 40
1.0
 10
-32.3444402256
 20
-9.6150679274
 30
0.0
 10
-32.336731512
 20
-9.60824965
 30
0.0
 10
-32.3237286899
 20
-9.6016869598
 30
0.0
 10
-32.3100787158
 20
-9.5992814103
 30
0.0
 10
-32.3065344331
 20
-9.5988763842
 30
0.0
  0
SPLINE
  5
30B
100
AcDbEntity
  8
0
100
AcDbSpline
 62
7
  6
CONTINUOUS
 70
0
 71
3
 72
9
 73
5
 74
0
 42
0.0000001
 43
0.0000001
 44
0.0000000001
 40
0.0
 40
0.0
 40
0.0
 40
0.0
 40
0.2376676726
 40
1.0
 40
1.0
 40
1.0
 40
1.0
 10
-32.3065344331
 20
-9.5988763842
 30
0.0
 10
-32.3026481781
 20
-9.5984322789
 30
0.0
 10
-32.2861640692
 20
-9.5976952491
 30
0.0
 10
-32.2696974551
 20
-9.6009150579
 30
0.0
 10
-32.2577041392
 20
-9.6045995177
 30
0.0
  0
SPLINE
  5
30C
100
AcDbEntity
  8
0
100
AcDbSpline
 62
7
  6
CONTINUOUS
 70
0
 71
3
 72
9
 73
5
 74
0
 42
0.0000001
 43
0.0000001
 44
0.0000000001
 40
0.0
 40
0.0
 40
0.0
 40
0.0
 40
0.2348895647
 40
1.0
 40
1.0
 40
1.0
 40
1.0
 10
-27.1345513639
 20
-11.9609226922
 30
0.0
 10
-27.1323911809
 20
-11.9579783625
 30
0.0
 10
-27.1241957077
 20
-11.944704338
 30
0.0
 10
-27.1199243615
 20
-11.9292960011
 30
0.0
 10
-27.1182643633
 20
-11.9175173982
 30
0.0
  0
SPLINE
  5
30D
100
AcDbEntity
  8
0
100
AcDbSpline
 62
7
  6
CONTINUOUS
 70
0
 71
3
 72
8
 73
4
 74
0
 42
0.0000001
 43
0.0000001
 44
0.0000000001
 40
0.0
 40
0.0
 40
0.0
 40
0.0
 40
1.0
 40
1.0
 40
1.0
 40
1.0
 10
-27.1182643633
 20
-11.9175173982
 30
0.0
 10
-27.1174374746
 20
-11.9116501663
 30
0.0
 10
-27.1169906115
 20
-11.9057219933
 30
0.0
 10
-27.1168440316
 20
-11.8997985932
 30
0.0
  0
SPLINE
  5
30E
100
AcDbEntity
  8
RACCORDO
100
AcDbSpline
 62
7
  6
CONTINUOUS
 70
0
 71
3
 72
9
 73
5
 74
0
 42
0.0000001
 43
0.0000001
 44
0.0000000001
 40
0.0
 40
0.0
 40
0.0
 40
0.0
 40
0.2362733819
 40
1.0
 40
1.0
 40
1.0
 40
1.0
 10
-7.0995795436
 20
-18.3205355159
 30
0.0
 10
-7.0976789614
 20
-18.3179450221
 30
0.0
 10
-7.0904181387
 20
-18.3064052103
 30
0.0
 10
-7.0861772169
 20
-18.2931506915
 30
0.0
 10
-7.0842479543
 20
-18.2829460577
 30
0.0
  0
SPLINE
  5
30F
100
AcDbEntity
  8
RACCORDO
100
AcDbSpline
 62
7
  6
CONTINUOUS
 70
0
 71
3
 72
8
 73
4
 74
0
 42
0.0000001
 43
0.0000001
 44
0.0000000001
 40
0.0
 40
0.0
 40
0.0
 40
0.0
 40
1.0
 40
1.0
 40
1.0
 40
1.0
 10
-7.0842479543
 20
-18.2829460577
 30
0.0
 10
-7.0827834011
 20
-18.2751994561
 30
0.0
 10
-7.0820566132
 20
-18.2672964859
 30
0.0
 10
-7.0818641784
 20
-18.2594150062
 30
0.0
  0
SPLINE
  5
310
100
AcDbEntity
  8
RACCORDO
100
AcDbSpline
 62
7
  6
CONTINUOUS
 70
0
 71
3
 72
8
 73
4
 74
0
 42
0.0000001
 43
0.0000001
 44
0.0000000001
 40
0.0
 40
0.0
 40
0.0
 40
0.0
 40
1.0
 40
1.0
 40
1.0
 40
1.0
 10
-12.3094920442
 20
-15.9756344333
 30
0.0
 10
-12.3004133897
 20
-15.9676044573
 30
0.0
 10
-12.2885121773
 20
-15.9623132805
 30
0.0
 10
-12.2765824621
 20
-15.9601721648
 30
0.0
  0
SPLINE
  5
311
100
AcDbEntity
  8
RACCORDO
100
AcDbSpline
 62
7
  6
CONTINUOUS
 70
0
 71
3
 72
9
 73
5
 74
0
 42
0.0000001
 43
0.0000001
 44
0.0000000001
 40
0.0
 40
0.0
 40
0.0
 40
0.0
 40
0.2366337433
 40
1.0
 40
1.0
 40
1.0
 40
1.0
 10
-12.2765824621
 20
-15.9601721648
 30
0.0
 10
-12.2723614146
 20
-15.9594145817
 30
0.0
 10
-12.2542504256
 20
-15.9576962678
 30
0.0
 10
-12.2359805899
 20
-15.9611066394
 30
0.0
 10
-12.2227556656
 20
-15.9651677482
 30
0.0
  0
SPLINE
  5
312
100
AcDbEntity
  8
RACCORDO
100
AcDbSpline
 62
7
  6
CONTINUOUS
 70
0
 71
3
 72
9
 73
5
 74
0
 42
0.0000001
 43
0.0000001
 44
0.0000000001
 40
0.0
 40
0.0
 40
0.0
 40
0.0
 40
0.2362733819
 40
1.0
 40
1.0
 40
1.0
 40
1.0
 10
12.940486054
 20
-24.4746455136
 30
0.0
 10
12.9423866362
 20
-24.4720550199
 30
0.0
 10
12.949647459
 20
-24.460515208
 30
0.0
 10
12.9538883808
 20
-24.4472606893
 30
0.0
 10
12.9558176434
 20
-24.4370560555
 30
0.0
  0
SPLINE
  5
313
100
AcDbEntity
  8
RACCORDO
100
AcDbSpline
 62
7
  6
CONTINUOUS
 70
0
 71
3
 72
8
 73
4
 74
0
 42
0.0000001
 43
0.0000001
 44
0.0000000001
 40
0.0
 40
0.0
 40
0.0
 40
0.0
 40
1.0
 40
1.0
 40
1.0
 40
1.0
 10
12.9558176434
 20
-24.4370560555
 30
0.0
 10
12.9572821966
 20
-24.4293094539
 30
0.0
 10
12.9580089845
 20
-24.4214064836
 30
0.0
 10
12.9582014193
 20
-24.413525004
 30
0.0
  0
SPLINE
  5
314
100
AcDbEntity
  8
RACCORDO
100
AcDbSpline
 62
7
  6
CONTINUOUS
 70
0
 71
3
 72
8
 73
4
 74
0
 42
0.0000001
 43
0.0000001
 44
0.0000000001
 40
0.0
 40
0.0
 40
0.0
 40
0.0
 40
1.0
 40
1.0
 40
1.0
 40
1.0
 10
7.7305735535
 20
-22.129744431
 30
0.0
 10
7.739652208
 20
-22.121714455
 30
0.0
 10
7.7515534203
 20
-22.1164232783
 30
0.0
 10
7.7634831355
 20
-22.1142821625
 30
0.0
  0
SPLINE
  5
315
100
AcDbEntity
  8
RACCORDO
100
AcDbSpline
 62
7
  6
CONTINUOUS
 70
0
 71
3
 72
9
 73
5
 74
0
 42
0.0000001
 43
0.0000001
 44
0.0000000001
 40
0.0
 40
0.0
 40
0.0
 40
0.0
 40
0.2366337433
 40
1.0
 40
1.0
 40
1.0
 40
1.0
 10
7.7634831355
 20
-22.1142821625
 30
0.0
 10
7.767704183
 20
-22.1135245794
 30
0.0
 10
7.7858151721
 20
-22.1118062656
 30
0.0
 10
7.8040850077
 20
-22.1152166371
 30
0.0
 10
7.8173099321
 20
-22.119277746
 30
0.0
  0
SPLINE
  5
316
100
AcDbEntity
  8
RACCORDO
100
AcDbSpline
 62
250
  6
CONTINUOUS
 70
0
 71
3
 72
13
 73
9
 74
0
 42
0.0000001
 43
0.0000001
 44
0.0000000001
 40
0.0
 40
0.0
 40
0.0
 40
0.0
 40
0.0879695416
 40
0.1838265199
 40
0.2925250113
 40
0.4155040153
 40
0.6966149987
 40
1.0
 40
1.0
 40
1.0
 40
1.0
 10
36.9391363806
 20
-33.6247809782
 30
0.0
 10
36.9381026559
 20
-33.6667087079
 30
0.0
 10
36.9537943335
 20
-33.755458
 30
0.0
 10
37.0259588135
 20
-33.8774037922
 30
0.0
 10
37.1402000268
 20
-33.9860912239
 30
0.0
 10
37.3501123841
 20
-34.1140787899
 30
0.0
 10
37.6782085553
 20
-34.212241997
 30
0.0
 10
37.9594899155
 20
-34.2250639174
 30
0.0
 10
38.1036892945
 20
-34.213754138
 30
0.0
  0
LINE
  5
317
100
AcDbEntity
  8
0
100
AcDbLine
 62
7
  6
CONTINUOUS
 10
30.5296618571
 20
-34.5553101198
 11
30.0136707156
 21
-34.395987757
  0
SPLINE
  5
318
100
AcDbEntity
  8
RACCORDO
100
AcDbSpline
 62
250
  6
CONTINUOUS
 70
0
 71
3
 72
13
 73
9
 74
0
 42
0.0000001
 43
0.0000001
 44
0.0000000001
 40
0.0
 40
0.0
 40
0.0
 40
0.0
 40
0.0881071549
 40
0.1839951896
 40
0.2925890128
 40
0.4153709571
 40
0.6961649267
 40
1.0
 40
1.0
 40
1.0
 40
1.0
 10
37.3914611233
 20
-15.376129391
 30
0.0
 10
37.390438486
 20
-15.4176963946
 30
0.0
 10
37.4058154729
 20
-15.5056144021
 30
0.0
 10
37.4767216273
 20
-15.6266403161
 30
0.0
 10
37.5891273105
 20
-15.734734222
 30
0.0
 10
37.7959263121
 20
-15.8624548296
 30
0.0
 10
38.1200598355
 20
-15.9615495735
 30
0.0
 10
38.3984010945
 20
-15.976169033
 30
0.0
 10
38.5414389994
 20
-15.966183485
 30
0.0
  0
SPLINE
  5
319
100
AcDbEntity
  8
0
100
AcDbSpline
 62
7
  6
CONTINUOUS
 70
0
 71
3
 72
9
 73
5
 74
0
 42
0.0000001
 43
0.0000001
 44
0.0000000001
 40
0.0
 40
0.0
 40
0.0
 40
0.0
 40
0.4945144027
 40
1.0
 40
1.0
 40
1.0
 40
1.0
 10
33.6446554428
 20
-37.7299194445
 30
0.0
 10
33.6260407782
 20
-37.3613383943
 30
0.0
 10
33.5943051753
 20
-36.6156962321
 30
0.0
 10
33.5752220898
 20
-35.8695811994
 30
0.0
 10
33.5706285472
 20
-35.4923706782
 30
0.0
  0
LINE
  5
31A
100
AcDbEntity
  8
0
100
AcDbLine
 62
7
  6
CONTINUOUS
 10
33.5706285472
 20
-35.4923706782
 11
32.7899301042
 21
-35.2522420977
  0
SPLINE
  5
31B
100
AcDbEntity
  8
RACCORDO
100
AcDbSpline
 62
250
  6
CONTINUOUS
 70
0
 71
3
 72
13
 73
9
 74
0
 42
0.0000001
 43
0.0000001
 44
0.0000000001
 40
0.0
 40
0.0
 40
0.0
 40
0.0
 40
0.0879704976
 40
0.18383153
 40
0.2925344505
 40
0.4155159147
 40
0.696624226
 40
1.0
 40
1.0
 40
1.0
 40
1.0
 10
37.8437887756
 20
2.8724199191
 30
0.0
 10
37.8427682495
 20
2.8304943205
 30
0.0
 10
37.8584851863
 20
2.7417542429
 30
0.0
 10
37.9306717318
 20
2.6198291117
 30
0.0
 10
38.0449224567
 20
2.5111610318
 30
0.0
 10
38.2548322253
 20
2.3831991425
 30
0.0
 10
38.582903326
 20
2.2850565642
 30
0.0
 10
38.8641591462
 20
2.2722391019
 30
0.0
 10
39.0083441379
 20
2.2835477317
 30
0.0
  0
LINE
  5
31C
100
AcDbEntity
  8
0
100
AcDbLine
 62
7
  6
CONTINUOUS
 10
31.8258916173
 20
-34.9552416805
 11
31.045675639
 21
-34.7145812715
  0
SPLINE
  5
31D
100
AcDbEntity
  8
RACCORDO
100
AcDbSpline
 62
250
  6
CONTINUOUS
 70
0
 71
3
 72
9
 73
5
 74
0
 42
0.0000001
 43
0.0000001
 44
0.0000000001
 40
0.0
 40
0.0
 40
0.0
 40
0.0
 40
0.5304735253
 40
1.0
 40
1.0
 40
1.0
 40
1.0
 10
40.3190501871
 20
-16.1561835761
 30
0.0
 10
43.9387242524
 20
-17.250461412
 30
0.0
 10
50.8554537177
 20
-19.0150221029
 30
0.0
 10
57.8805917818
 20
-20.2572561639
 30
0.0
 10
61.1939135929
 20
-20.7309134864
 30
0.0
  0
LINE
  5
31E
100
AcDbEntity
  8
0
100
AcDbLine
 62
7
  6
CONTINUOUS
 10
35.1496961533
 20
-37.3417144228
 11
34.7918809129
 21
-37.2340541993
  0
LINE
  5
31F
100
AcDbEntity
  8
0
100
AcDbLine
 62
7
  6
CONTINUOUS
 10
34.5885984546
 20
-37.7756668049
 11
34.6084252258
 21
-37.7225387327
  0
SPLINE
  5
320
100
AcDbEntity
  8
0
100
AcDbSpline
 62
7
  6
CONTINUOUS
 70
0
 71
3
 72
9
 73
5
 74
0
 42
0.0000001
 43
0.0000001
 44
0.0000000001
 40
0.0
 40
0.0
 40
0.0
 40
0.0
 40
0.4967549944
 40
1.0
 40
1.0
 40
1.0
 40
1.0
 10
36.1774343151
 20
-38.489310279
 30
0.0
 10
36.0187434782
 20
-38.0815462543
 30
0.0
 10
35.7051872648
 20
-37.2584104902
 30
0.0
 10
35.4047563116
 20
-36.430262697
 30
0.0
 10
35.2616582187
 20
-36.0107242298
 30
0.0
  0
LINE
  5
321
100
AcDbEntity
  8
0
100
AcDbLine
 62
7
  6
CONTINUOUS
 10
35.2616582187
 20
-36.0107242298
 11
34.7445902657
 21
-35.8525484669
  0
SPLINE
  5
322
100
AcDbEntity
  8
0
100
AcDbSpline
 62
7
  6
CONTINUOUS
 70
0
 71
3
 72
9
 73
5
 74
0
 42
0.0000001
 43
0.0000001
 44
0.0000000001
 40
0.0
 40
0.0
 40
0.0
 40
0.0
 40
0.5002939865
 40
1.0
 40
1.0
 40
1.0
 40
1.0
 10
37.6525097399
 20
-36.7345335361
 30
0.0
 10
37.4495983544
 20
-36.6745372415
 30
0.0
 10
37.0446495977
 20
-36.5524756132
 30
0.0
 10
36.6397809768
 20
-36.4301620934
 30
0.0
 10
36.4375312368
 20
-36.3688232655
 30
0.0
  0
SPLINE
  5
323
100
AcDbEntity
  8
0
100
AcDbSpline
 62
250
  6
CONTINUOUS
 70
0
 71
3
 72
11
 73
7
 74
0
 42
0.0000001
 43
0.0000001
 44
0.0000000001
 40
0.0
 40
0.0
 40
0.0
 40
0.0
 40
0.2765938156
 40
0.5324438842
 40
0.7705238231
 40
1.0
 40
1.0
 40
1.0
 40
1.0
 10
-60.9116176604
 20
50.3494544333
 30
0.0
 10
-61.1185350913
 20
50.4174860204
 30
0.0
 10
-61.5338701468
 20
50.5041717591
 30
0.0
 10
-62.1477600739
 20
50.4670496014
 30
0.0
 10
-62.688153955
 20
50.2561825304
 30
0.0
 10
-62.9697484321
 20
50.0044898003
 30
0.0
 10
-63.0806409813
 20
49.8618052433
 30
0.0
  0
SPLINE
  5
324
100
AcDbEntity
  8
RACCORDO
100
AcDbSpline
 62
250
  6
CONTINUOUS
 70
0
 71
3
 72
15
 73
11
 74
0
 42
0.0000001
 43
0.0000001
 44
0.0000000001
 40
0.0
 40
0.0
 40
0.0
 40
0.0
 40
0.1143749227
 40
0.2494725301
 40
0.3971495364
 40
0.5477386652
 40
0.6912592525
 40
0.8185232307
 40
0.922418109
 40
1.0
 40
1.0
 40
1.0
 40
1.0
 10
36.7748418917
 20
-33.5405920245
 30
0.0
 10
36.7277626459
 20
-33.5923659593
 30
0.0
 10
36.6382828718
 20
-33.7172105657
 30
0.0
 10
36.5247764236
 20
-33.9325485638
 30
0.0
 10
36.4272035683
 20
-34.1796309613
 30
0.0
 10
36.3530664177
 20
-34.4400285714
 30
0.0
 10
36.3077396537
 20
-34.6942571817
 30
0.0
 10
36.2945173109
 20
-34.9240410953
 30
0.0
 10
36.3131757144
 20
-35.1124135398
 30
0.0
 10
36.3526172406
 20
-35.2197986867
 30
0.0
 10
36.3807811584
 20
-35.2580078094
 30
0.0
  0
SPLINE
  5
325
100
AcDbEntity
  8
0
100
AcDbSpline
 62
250
  6
CONTINUOUS
 70
0
 71
3
 72
9
 73
5
 74
0
 42
0.0000001
 43
0.0000001
 44
0.0000000001
 40
0.0
 40
0.0
 40
0.0
 40
0.0
 40
0.5252305418
 40
1.0
 40
1.0
 40
1.0
 40
1.0
 10
36.7748418914
 20
-33.5405920244
 30
0.0
 10
36.8031349514
 20
-33.549280549
 30
0.0
 10
36.859635031
 20
-33.5587962411
 30
0.0
 10
36.9166760095
 20
-33.5487006226
 30
0.0
 10
36.9414137555
 20
-33.53851251
 30
0.0
  0
SPLINE
  5
326
100
AcDbEntity
  8
RACCORDO
100
AcDbSpline
 62
250
  6
CONTINUOUS
 70
0
 71
3
 72
15
 73
11
 74
0
 42
0.0000001
 43
0.0000001
 44
0.0000000001
 40
0.0
 40
0.0
 40
0.0
 40
0.0
 40
0.1144791039
 40
0.249717579
 40
0.3975356828
 40
0.5482253158
 40
0.6917685282
 40
0.8189516202
 40
0.9226600141
 40
1.0
 40
1.0
 40
1.0
 40
1.0
 10
27.4673449054
 20
-30.6823496636
 30
0.0
 10
27.4201843448
 20
-30.7342130222
 30
0.0
 10
27.3305647564
 20
-30.8593003696
 30
0.0
 10
27.2169204475
 20
-31.075058405
 30
0.0
 10
27.1192819193
 20
-31.3226013091
 30
0.0
 10
27.0451800384
 20
-31.5834087198
 30
0.0
 10
26.9999985015
 20
-31.8379048465
 30
0.0
 10
26.9870367652
 20
-32.0677502159
 30
0.0
 10
27.0060217571
 20
-32.2559303796
 30
0.0
 10
27.0458377773
 20
-32.3630548026
 30
0.0
 10
27.074190995
 20
-32.4009871531
 30
0.0
  0
LINE
  5
327
100
AcDbEntity
  8
0
100
AcDbLine
 62
250
  6
CONTINUOUS
 10
27.4673464096
 20
-30.6823501255
 11
36.774842761
 21
-33.5405910681
  0
SPLINE
  5
328
100
AcDbEntity
  8
0
100
AcDbSpline
 62
250
  6
CONTINUOUS
 70
0
 71
3
 72
11
 73
7
 74
0
 42
0.0000001
 43
0.0000001
 44
0.0000000001
 40
0.0
 40
0.0
 40
0.0
 40
0.0
 40
0.2536262359
 40
0.5226307299
 40
0.7797619808
 40
1.0
 40
1.0
 40
1.0
 40
1.0
 10
-61.3944213648
 20
49.1717022468
 30
0.0
 10
-61.384186688
 20
49.2803165878
 30
0.0
 10
-61.3426363293
 20
49.5023229268
 30
0.0
 10
-61.2367214281
 20
49.8215716676
 30
0.0
 10
-61.0953851164
 20
50.1107635911
 30
0.0
 10
-60.9761931159
 20
50.2801377989
 30
0.0
 10
-60.911617651
 20
50.3494522897
 30
0.0
  0
SPLINE
  5
329
100
AcDbEntity
  8
RACCORDO
100
AcDbSpline
 62
250
  6
CONTINUOUS
 70
0
 71
3
 72
15
 73
11
 74
0
 42
0.0000001
 43
0.0000001
 44
0.0000000001
 40
0.0
 40
0.0
 40
0.0
 40
0.0
 40
0.1144706495
 40
0.2497106102
 40
0.3975300825
 40
0.5482211166
 40
0.6917656633
 40
0.8189499381
 40
0.9226592968
 40
1.0
 40
1.0
 40
1.0
 40
1.0
 10
-33.5435694326
 20
-11.9464889415
 30
0.0
 10
-33.5907019708
 20
-11.9983698934
 30
0.0
 10
-33.6802935584
 20
-12.1234645831
 30
0.0
 10
-33.7939494453
 20
-12.3392105331
 30
0.0
 10
-33.8915834614
 20
-12.5867558048
 30
0.0
 10
-33.9656865823
 20
-12.8475625966
 30
0.0
 10
-34.0108678162
 20
-13.1020588771
 30
0.0
 10
-34.0238296225
 20
-13.3319042126
 30
0.0
 10
-34.0048446149
 20
-13.5200843828
 30
0.0
 10
-33.9650286015
 20
-13.6272088047
 30
0.0
 10
-33.936675387
 20
-13.6651411564
 30
0.0
  0
SPLINE
  5
32A
100
AcDbEntity
  8
RACCORDO
100
AcDbSpline
 62
250
  6
CONTINUOUS
 70
0
 71
3
 72
15
 73
11
 74
0
 42
0.0000001
 43
0.0000001
 44
0.0000000001
 40
0.0
 40
0.0
 40
0.0
 40
0.0
 40
0.1143662825
 40
0.2494655323
 40
0.3971439148
 40
0.5477344615
 40
0.6912563933
 40
0.8185215577
 40
0.9224173956
 40
1.0
 40
1.0
 40
1.0
 40
1.0
 10
-42.8510667123
 20
-9.0882468995
 30
0.0
 10
-42.8981164477
 20
-9.1400396325
 30
0.0
 10
-42.9875687978
 20
-9.2648907051
 30
0.0
 10
-43.1010884243
 20
-9.4802160195
 30
0.0
 10
-43.1986559538
 20
-9.7273012162
 30
0.0
 10
-43.2727945234
 20
-9.9876981547
 30
0.0
 10
-43.3181209446
 20
-10.241926955
 30
0.0
 10
-43.3313433415
 20
-10.4717108349
 30
0.0
 10
-43.312684905
 20
-10.6600832776
 30
0.0
 10
-43.2732433428
 20
-10.7674684067
 30
0.0
 10
-43.2450794025
 20
-10.8056775065
 30
0.0
  0
LINE
  5
32B
100
AcDbEntity
  8
0
100
AcDbLine
 62
250
  6
CONTINUOUS
 10
-42.8510178908
 20
-9.0882606885
 11
-34.45328054
 21
-11.6671253404
  0
SPLINE
  5
32C
100
AcDbEntity
  8
RACCORDO
100
AcDbSpline
 62
250
  6
CONTINUOUS
 70
0
 71
3
 72
15
 73
11
 74
0
 42
0.0000001
 43
0.0000001
 44
0.0000000001
 40
0.0
 40
0.0
 40
0.0
 40
0.0
 40
0.1038856626
 40
0.2241975507
 40
0.3576732837
 40
0.4984471852
 40
0.6394660356
 40
0.7736389145
 40
0.8949799
 40
1.0
 40
1.0
 40
1.0
 40
1.0
 10
-43.1121070909
 20
-8.7596034414
 30
0.0
 10
-43.1573056754
 20
-8.8093091778
 30
0.0
 10
-43.2746230829
 20
-8.8987064859
 30
0.0
 10
-43.4883289127
 20
-8.9909267013
 30
0.0
 10
-43.7386677034
 20
-9.0468159448
 30
0.0
 10
-44.0078623491
 20
-9.0622345233
 30
0.0
 10
-44.2766922947
 20
-9.036260977
 30
0.0
 10
-44.5259402733
 20
-8.9705801651
 30
0.0
 10
-44.7378710563
 20
-8.8700396967
 30
0.0
 10
-44.8534144397
 20
-8.7762582616
 30
0.0
 10
-44.8977563777
 20
-8.7248143118
 30
0.0
  0
SPLINE
  5
32D
100
AcDbEntity
  8
0
100
AcDbSpline
 62
250
  6
CONTINUOUS
 70
0
 71
3
 72
10
 73
6
 74
0
 42
0.0000001
 43
0.0000001
 44
0.0000000001
 40
0.0
 40
0.0
 40
0.0
 40
0.0
 40
0.47876099
 40
0.7433864765
 40
1.0
 40
1.0
 40
1.0
 40
1.0
 10
-43.1121070909
 20
-8.7596034414
 30
0.0
 10
-43.1138559932
 20
-8.8301609733
 30
0.0
 10
-43.0653881394
 20
-8.9410477323
 30
0.0
 10
-42.9571881431
 20
-9.0416368358
 30
0.0
 10
-42.8871820823
 20
-9.0771562232
 30
0.0
 10
-42.8510187491
 20
-9.0882616325
 30
0.0
  0
SPLINE
  5
32E
100
AcDbEntity
  8
RACCORDO
100
AcDbSpline
 62
250
  6
CONTINUOUS
 70
0
 71
3
 72
15
 73
11
 74
0
 42
0.0000001
 43
0.0000001
 44
0.0000000001
 40
0.0
 40
0.0
 40
0.0
 40
0.0
 40
0.1036897517
 40
0.2236654921
 40
0.3567658301
 40
0.4972357669
 40
0.6381412693
 40
0.7724819192
 40
0.894292803
 40
1.0
 40
1.0
 40
1.0
 40
1.0
 10
-42.6597784682
 20
9.4890896963
 30
0.0
 10
-42.7046455856
 20
9.4397210735
 30
0.0
 10
-42.8209351977
 20
9.3508431535
 30
0.0
 10
-43.0327915085
 20
9.2588690156
 30
0.0
 10
-43.2810186965
 20
9.2026685701
 30
0.0
 10
-43.5482460517
 20
9.1863754256
 30
0.0
 10
-43.8156297859
 20
9.2109663484
 30
0.0
 10
-44.0642883976
 20
9.2748564411
 30
0.0
 10
-44.2767316895
 20
9.3733744596
 30
0.0
 10
-44.3934354857
 20
9.4655175499
 30
0.0
 10
-44.43875133
 20
9.5162290265
 30
0.0
  0
LINE
  5
32F
100
AcDbEntity
  8
0
100
AcDbLine
 62
250
  6
CONTINUOUS
 10
-42.6597784729
 20
9.4890896912
 11
-43.1121068517
 21
-8.7596031784
  0
SPLINE
  5
330
100
AcDbEntity
  8
RACCORDO
100
AcDbSpline
 62
250
  6
CONTINUOUS
 70
0
 71
3
 72
15
 73
11
 74
0
 42
0.0000001
 43
0.0000001
 44
0.0000000001
 40
0.0
 40
0.0
 40
0.0
 40
0.0
 40
0.1070120798
 40
0.229448642
 40
0.363681528
 40
0.5039604902
 40
0.6436272604
 40
0.7761121989
 40
0.8959443389
 40
1.0
 40
1.0
 40
1.0
 40
1.0
 10
-42.2398181062
 20
27.7049404927
 30
0.0
 10
-42.2891410908
 20
27.6587472967
 30
0.0
 10
-42.4111916973
 20
27.5769366201
 30
0.0
 10
-42.6266501865
 20
27.4938933906
 30
0.0
 10
-42.8738858957
 20
27.4459361832
 30
0.0
 10
-43.1362417468
 20
27.4364283571
 30
0.0
 10
-43.3960118395
 20
27.4658910046
 30
0.0
 10
-43.6356876048
 20
27.5324869059
 30
0.0
 10
-43.8392007057
 20
27.6316054107
 30
0.0
 10
-43.9502007013
 20
27.7227155681
 30
0.0
 10
-43.9931015206
 20
27.7724875731
 30
0.0
  0
LINE
  5
331
100
AcDbEntity
  8
0
100
AcDbLine
 62
250
  6
CONTINUOUS
 10
-42.2074519922
 20
27.7376986992
 11
-42.6597784729
 21
9.4890896912
  0
SPLINE
  5
332
100
AcDbEntity
  8
0
100
AcDbSpline
 62
250
  6
CONTINUOUS
 70
0
 71
3
 72
24
 73
20
 74
0
 42
0.0000001
 43
0.0000001
 44
0.0000000001
 40
0.0
 40
0.0
 40
0.0
 40
0.0
 40
0.015296374
 40
0.030656343
 40
0.0383628527
 40
0.0460887752
 40
0.0538641662
 40
0.0616846667
 40
0.0773099177
 40
0.0929389214
 40
0.124196266
 40
0.1554555208
 40
0.1867163004
 40
0.2492424655
 40
0.3117736394
 40
0.3743078377
 40
0.4993774798
 40
0.7495749867
 40
1.0
 40
1.0
 40
1.0
 40
1.0
 10
60.3608300207
 20
-51.1000659813
 30
0.0
 10
60.3632239344
 20
-51.0367849344
 30
0.0
 10
60.3685094857
 20
-50.9099763014
 30
0.0
 10
60.3769482881
 20
-50.7513781488
 30
0.0
 10
60.384753521
 20
-50.624134148
 30
0.0
 10
60.3920890058
 20
-50.5283366744
 30
0.0
 10
60.397656721
 20
-50.4319243718
 30
0.0
 10
60.3997142053
 20
-50.3026709912
 30
0.0
 10
60.4055139011
 20
-50.1410057914
 30
0.0
 10
60.4126222727
 20
-49.882306947
 30
0.0
 10
60.4223574861
 20
-49.5589344047
 30
0.0
 10
60.4336438459
 20
-49.1708641583
 30
0.0
 10
60.4488255827
 20
-48.6534011255
 30
0.0
 10
60.4677161338
 20
-48.0065267799
 30
0.0
 10
60.4903582559
 20
-47.2302362547
 30
0.0
 10
60.520470197
 20
-46.1951262566
 30
0.0
 10
60.5732248339
 20
-44.3834159536
 30
0.0
 10
60.6492141983
 20
-41.7941929459
 30
0.0
 10
60.7086608931
 20
-39.7224901999
 30
0.0
 10
60.7377660402
 20
-38.6861503485
 30
0.0
  0
LINE
  5
333
100
AcDbEntity
  8
0
100
AcDbLine
 62
250
  6
CONTINUOUS
 10
60.7397512488
 20
-38.6154304637
 11
60.7790995071
 21
-37.1992511214
  0
SPLINE
  5
334
100
AcDbEntity
  8
0
100
AcDbSpline
 62
250
  6
CONTINUOUS
 70
0
 71
3
 72
9
 73
5
 74
0
 42
0.0000001
 43
0.0000001
 44
0.0000000001
 40
0.0
 40
0.0
 40
0.0
 40
0.0
 40
0.4997426935
 40
1.0
 40
1.0
 40
1.0
 40
1.0
 10
60.7790995071
 20
-37.1992511214
 30
0.0
 10
60.8545440109
 20
-34.4561071107
 30
0.0
 10
60.9948547325
 20
-28.9667022834
 30
0.0
 10
61.1249631356
 20
-23.4770551381
 30
0.0
 10
61.1939135929
 20
-20.7309134864
 30
0.0
  0
SPLINE
  5
335
100
AcDbEntity
  8
0
100
AcDbSpline
 62
250
  6
CONTINUOUS
 70
0
 71
3
 72
14
 73
10
 74
0
 42
0.0000001
 43
0.0000001
 44
0.0000000001
 40
0.0
 40
0.0
 40
0.0
 40
0.0
 40
0.2783967915
 40
0.4062207934
 40
0.5273508194
 40
0.6441318215
 40
0.7597060395
 40
0.8773861835
 40
1.0
 40
1.0
 40
1.0
 40
1.0
 10
58.6737761546
 20
-52.1282159592
 30
0.0
 10
58.8797822816
 20
-52.1797632224
 30
0.0
 10
59.1967109634
 20
-52.2113253783
 30
0.0
 10
59.5933202213
 20
-52.1305460181
 30
0.0
 10
59.8501609479
 20
-52.0150759206
 30
0.0
 10
60.0641527745
 20
-51.8463561509
 30
0.0
 10
60.2264285725
 20
-51.6305288472
 30
0.0
 10
60.3302976396
 20
-51.3767799759
 30
0.0
 10
60.3572891703
 20
-51.1935271117
 30
0.0
 10
60.3608300207
 20
-51.1000659813
 30
0.0
  0
SPLINE
  5
336
100
AcDbEntity
  8
0
100
AcDbSpline
 62
250
  6
CONTINUOUS
 70
0
 71
3
 72
37
 73
33
 74
0
 42
0.0000001
 43
0.0000001
 44
0.0000000001
 40
0.0
 40
0.0
 40
0.0
 40
0.0
 40
0.1250659171
 40
0.2501347351
 40
0.3751937629
 40
0.4377159566
 40
0.5002313511
 40
0.5314860775
 40
0.5627385592
 40
0.5939887948
 40
0.6252203699
 40
0.656410431
 40
0.6720078827
 40
0.6798204126
 40
0.6876471738
 40
0.7032788867
 40
0.7188823029
 40
0.7500941959
 40
0.7813189708
 40
0.8125547585
 40
0.8750494068
 40
0.9063027189
 40
0.9219306258
 40
0.9375594004
 40
0.9531893134
 40
0.9610037684
 40
0.9688206331
 40
0.9766212313
 40
0.9804852698
 40
0.9843624884
 40
0.9921626668
 40
1.0
 40
1.0
 40
1.0
 40
1.0
 10
28.2993647879
 20
-43.0383475376
 30
0.0
 10
29.5627078043
 20
-43.4272517211
 30
0.0
 10
32.08909175
 20
-44.2061454681
 30
0.0
 10
35.8782134132
 20
-45.3756584425
 30
0.0
 10
39.0357900683
 20
-46.3499234985
 30
0.0
 10
41.5619000256
 20
-47.128337728
 30
0.0
 10
43.1407024469
 20
-47.6142510102
 30
0.0
 10
44.4037637772
 20
-48.0025134384
 30
0.0
 10
45.3510272343
 20
-48.2934757599
 30
0.0
 10
46.2981744192
 20
-48.5839765293
 30
0.0
 10
47.2446206348
 20
-48.8745367161
 30
0.0
 10
48.0351921061
 20
-49.1090245109
 30
0.0
 10
48.5892908352
 20
-49.2702495957
 30
0.0
 10
48.9062178509
 20
-49.3627473062
 30
0.0
 10
49.2228106273
 20
-49.4576499745
 30
0.0
 10
49.6184807482
 20
-49.575521878
 30
0.0
 10
50.2520477251
 20
-49.7604986648
 30
0.0
 10
51.0445520449
 20
-49.9891270306
 30
0.0
 10
51.9967434151
 20
-50.260274934
 30
0.0
 10
53.2676071283
 20
-50.619573747
 30
0.0
 10
54.538883121
 20
-50.978522763
 30
0.0
 10
55.6510389348
 20
-51.2939343306
 30
0.0
 10
56.2865615474
 20
-51.4745176533
 30
0.0
 10
56.7631923836
 20
-51.6101570298
 30
0.0
 10
57.1603318665
 20
-51.723399619
 30
0.0
 10
57.4780527466
 20
-51.8140964565
 30
0.0
 10
57.7162496014
 20
-51.8818245647
 30
0.0
 10
57.9138412471
 20
-51.9399660681
 30
0.0
 10
58.0735665331
 20
-51.9784052157
 30
0.0
 10
58.2330481356
 20
-52.017721938
 30
0.0
 10
58.4330879291
 20
-52.0679857316
 30
0.0
 10
58.593420073
 20
-52.1081052262
 30
0.0
 10
58.6737761546
 20
-52.1282159592
 30
0.0
  0
SPLINE
  5
337
100
AcDbEntity
  8
RACCORDO
100
AcDbSpline
 62
250
  6
CONTINUOUS
 70
0
 71
3
 72
10
 73
6
 74
0
 42
0.0000001
 43
0.0000001
 44
0.0000000001
 40
0.0
 40
0.0
 40
0.0
 40
0.0
 40
0.4955175107
 40
0.7578949175
 40
1.0
 40
1.0
 40
1.0
 40
1.0
 10
27.3170320579
 20
-33.4213119492
 30
0.0
 10
27.3371407504
 20
-35.0202356345
 30
0.0
 10
27.4541038092
 20
-37.4669231929
 30
0.0
 10
27.8418392964
 20
-40.6718895194
 30
0.0
 10
28.132894265
 20
-42.2750083159
 30
0.0
 10
28.2993647879
 20
-43.0383475376
 30
0.0
  0
SPLINE
  5
338
100
AcDbEntity
  8
RACCORDO
100
AcDbSpline
 62
250
  6
CONTINUOUS
 70
0
 71
3
 72
9
 73
5
 74
0
 42
0.0000001
 43
0.0000001
 44
0.0000000001
 40
0.0
 40
0.0
 40
0.0
 40
0.0
 40
0.1985146385
 40
1.0
 40
1.0
 40
1.0
 40
1.0
 10
-32.6457932921
 20
27.5965991302
 30
0.0
 10
-32.6233210972
 20
27.9759437422
 30
0.0
 10
-32.4974130174
 20
29.8860818671
 30
0.0
 10
-32.3105819058
 20
31.7922344096
 30
0.0
 10
-32.1273631319
 20
33.3155107331
 30
0.0
  0
LINE
  5
339
100
AcDbEntity
  8
RACCORDO
100
AcDbLine
 62
250
  6
CONTINUOUS
 10
-31.8213264085
 20
35.6423854745
 11
-31.7950429622
 21
35.8256374187
  0
SPLINE
  5
33A
100
AcDbEntity
  8
RACCORDO
100
AcDbSpline
 62
250
  6
CONTINUOUS
 70
0
 71
3
 72
9
 73
5
 74
0
 42
0.0000001
 43
0.0000001
 44
0.0000000001
 40
0.0
 40
0.0
 40
0.0
 40
0.0
 40
0.5493165808
 40
1.0
 40
1.0
 40
1.0
 40
1.0
 10
-45.7104131104
 20
10.2626311525
 30
0.0
 10
-49.1615717757
 20
11.3390453469
 30
0.0
 10
-55.3655251051
 20
13.5662489273
 30
0.0
 10
-61.3452653335
 20
16.3365723873
 30
0.0
 10
-63.9754863768
 20
17.7073966085
 30
0.0
  0
SPLINE
  5
33B
100
AcDbEntity
  8
0
100
AcDbSpline
 62
250
  6
CONTINUOUS
 70
0
 71
3
 72
29
 73
25
 74
0
 42
0.0000001
 43
0.0000001
 44
0.0000000001
 40
0.0
 40
0.0
 40
0.0
 40
0.0
 40
0.007867787
 40
0.0156653806
 40
0.0195308215
 40
0.021467391
 40
0.023420119
 40
0.0273326159
 40
0.0312402364
 40
0.0390582313
 40
0.0468758431
 40
0.0625109101
 40
0.0937800223
 40
0.125048263
 40
0.1563162439
 40
0.1875839466
 40
0.2501143686
 40
0.3126344978
 40
0.3751432259
 40
0.5001331261
 40
0.6251005736
 40
0.7500621524
 40
0.8750274717
 40
1.0
 40
1.0
 40
1.0
 40
1.0
 10
-63.0731097638
 20
48.1527519681
 30
0.0
 10
-63.0786848017
 20
48.0730636967
 30
0.0
 10
-63.0899038394
 20
47.9144074094
 30
0.0
 10
-63.1037994897
 20
47.7165913148
 30
0.0
 10
-63.1148621987
 20
47.57895693
 30
0.0
 10
-63.1198737633
 20
47.5003717332
 30
0.0
 10
-63.1222699954
 20
47.4211883762
 30
0.0
 10
-63.1254069013
 20
47.3220154728
 30
0.0
 10
-63.1311826896
 20
47.1633424678
 30
0.0
 10
-63.1377748718
 20
46.9650265895
 30
0.0
 10
-63.1487391751
 20
46.6477189793
 30
0.0
 10
-63.1676405427
 20
46.0924405722
 30
0.0
 10
-63.1946445244
 20
45.2992014364
 30
0.0
 10
-63.2267986257
 20
44.3473220286
 30
0.0
 10
-63.2588272497
 20
43.3954526906
 30
0.0
 10
-63.3015448552
 20
42.1263528635
 30
0.0
 10
-63.3550528236
 20
40.5401279079
 30
0.0
 10
-63.4184028474
 20
38.6368587394
 30
0.0
 10
-63.499987852
 20
36.0996844109
 30
0.0
 10
-63.5952268684
 20
32.9285849236
 30
0.0
 10
-63.6977373701
 20
29.123341473
 30
0.0
 10
-63.7914562244
 20
25.3181243558
 30
0.0
 10
-63.8816342713
 20
21.5127721875
 30
0.0
 10
-63.9432341129
 20
18.9758550941
 30
0.0
 10
-63.9754863768
 20
17.7073966085
 30
0.0
  0
SPLINE
  5
33C
100
AcDbEntity
  8
0
100
AcDbSpline
 62
250
  6
CONTINUOUS
 70
0
 71
3
 72
14
 73
10
 74
0
 42
0.0000001
 43
0.0000001
 44
0.0000000001
 40
0.0
 40
0.0
 40
0.0
 40
0.0
 40
0.2717163839
 40
0.3973911386
 40
0.5174751091
 40
0.6345401173
 40
0.7518661565
 40
0.8727791961
 40
1.0
 40
1.0
 40
1.0
 40
1.0
 10
-61.3944214841
 20
49.1717021529
 30
0.0
 10
-61.592404614
 20
49.2322198772
 30
0.0
 10
-61.9025184776
 20
49.2730389259
 30
0.0
 10
-62.2924011853
 20
49.1986314024
 30
0.0
 10
-62.5474371893
 20
49.0849514383
 30
0.0
 10
-62.761514719
 20
48.9155423947
 30
0.0
 10
-62.9258963272
 20
48.6967480498
 30
0.0
 10
-63.034375756
 20
48.4375187806
 30
0.0
 10
-63.0663397948
 20
48.2494472128
 30
0.0
 10
-63.0731097638
 20
48.1527519681
 30
0.0
  0
SPLINE
  5
33D
100
AcDbEntity
  8
0
100
AcDbSpline
 62
250
  6
CONTINUOUS
 70
0
 71
3
 72
40
 73
36
 74
0
 42
0.0000001
 43
0.0000001
 44
0.0000000001
 40
0.0
 40
0.0
 40
0.0
 40
0.0
 40
0.2507185863
 40
0.3760834193
 40
0.43876074
 40
0.5014322129
 40
0.5640959362
 40
0.595424358
 40
0.6110877365
 40
0.6267411733
 40
0.6423731616
 40
0.657986
 40
0.6657854761
 40
0.6735805838
 40
0.6774769938
 40
0.6813774992
 40
0.6891839767
 40
0.7047980323
 40
0.7203949876
 40
0.7515466091
 40
0.7826568569
 40
0.8137426074
 40
0.8448201889
 40
0.8759011639
 40
0.9069880965
 40
0.9225342747
 40
0.9380825646
 40
0.9536333106
 40
0.9614091333
 40
0.9691867677
 40
0.9769535491
 40
0.9808022367
 40
0.9846449834
 40
0.9923277192
 40
1.0
 40
1.0
 40
1.0
 40
1.0
 10
-31.1182927378
 20
39.9737504787
 30
0.0
 10
-33.6460519673
 20
40.750762976
 30
0.0
 10
-37.4370721493
 20
41.9184918738
 30
0.0
 10
-41.8604232793
 20
43.2791192237
 30
0.0
 10
-44.3883075052
 20
44.0555471905
 30
0.0
 10
-46.2842403755
 20
44.6369872462
 30
0.0
 10
-47.8641807525
 20
45.1210491993
 30
0.0
 10
-48.9703654759
 20
45.4588252447
 30
0.0
 10
-49.6020698093
 20
45.6526119114
 30
0.0
 10
-50.0762092642
 20
45.7954953148
 30
0.0
 10
-50.5503509034
 20
45.9365060902
 30
0.0
 10
-50.9450687591
 20
46.0539687658
 30
0.0
 10
-51.260636251
 20
46.1475991202
 30
0.0
 10
-51.45769467
 20
46.2061851055
 30
0.0
 10
-51.615430679
 20
46.2527340237
 30
0.0
 10
-51.7726684686
 20
46.3013471068
 30
0.0
 10
-52.0479654554
 20
46.3865170816
 30
0.0
 10
-52.4416083843
 20
46.5065850847
 30
0.0
 10
-53.0722483444
 20
46.6935823783
 30
0.0
 10
-53.8593041161
 20
46.9280062918
 30
0.0
 10
-54.8029982726
 20
47.2088479912
 30
0.0
 10
-55.7457870691
 20
47.489992484
 30
0.0
 10
-56.688102692
 20
47.771642984
 30
0.0
 10
-57.630255314
 20
48.0538812344
 30
0.0
 10
-58.4153920749
 20
48.2893980901
 30
0.0
 10
-59.0435293905
 20
48.4780883149
 30
0.0
 10
-59.5146990775
 20
48.6197251719
 30
0.0
 10
-59.9073144605
 20
48.7379664863
 30
0.0
 10
-60.2214804574
 20
48.832510106
 30
0.0
 10
-60.457034313
 20
48.9032605513
 30
0.0
 10
-60.652504699
 20
48.9638019458
 30
0.0
 10
-60.8107250904
 20
49.0032869385
 30
0.0
 10
-60.9673027641
 20
49.0454835515
 30
0.0
 10
-61.1619008539
 20
49.1015094841
 30
0.0
 10
-61.3170329695
 20
49.1480425476
 30
0.0
 10
-61.3944214841
 20
49.1717021529
 30
0.0
  0
SPLINE
  5
33E
100
AcDbEntity
  8
RACCORDO
100
AcDbSpline
 62
250
  6
CONTINUOUS
 70
0
 71
3
 72
10
 73
6
 74
0
 42
0.0000001
 43
0.0000001
 44
0.0000000001
 40
0.0
 40
0.0
 40
0.0
 40
0.0
 40
0.49551751
 40
0.7578949173
 40
1.0
 40
1.0
 40
1.0
 40
1.0
 10
-33.6938343178
 20
-14.6854659049
 30
0.0
 10
-33.6737256265
 20
-16.2843895963
 30
0.0
 10
-33.5567625689
 20
-18.731077167
 30
0.0
 10
-33.1690270814
 20
-21.9360435107
 30
0.0
 10
-32.8779721111
 20
-23.5391623179
 30
0.0
 10
-32.7115015872
 20
-24.3025015445
 30
0.0
  0
SPLINE
  5
33F
100
AcDbEntity
  8
0
100
AcDbSpline
 62
250
  6
CONTINUOUS
 70
0
 71
3
 72
37
 73
33
 74
0
 42
0.0000001
 43
0.0000001
 44
0.0000000001
 40
0.0
 40
0.0
 40
0.0
 40
0.0
 40
0.0077900234
 40
0.0156172096
 40
0.0195524075
 40
0.0234991532
 40
0.0313232052
 40
0.0391316011
 40
0.0469424181
 40
0.06256311
 40
0.0781849818
 40
0.0938077541
 40
0.1250558809
 40
0.1875642976
 40
0.2188298759
 40
0.25010596
 40
0.2813941373
 40
0.2970404834
 40
0.3126587109
 40
0.3204570672
 40
0.3282693387
 40
0.3439213331
 40
0.3752299162
 40
0.4064974494
 40
0.4377466951
 40
0.4689937246
 40
0.5002385224
 40
0.5627222015
 40
0.6251991043
 40
0.7501382979
 40
0.8750677059
 40
1.0
 40
1.0
 40
1.0
 40
1.0
 10
-62.9793310713
 20
-14.7697253003
 30
0.0
 10
-62.9019523607
 20
-14.7980717036
 30
0.0
 10
-62.7468159495
 20
-14.8548710806
 30
0.0
 10
-62.552488176
 20
-14.9257174075
 30
0.0
 10
-62.3965777277
 20
-14.9832192776
 30
0.0
 10
-62.2409645534
 20
-15.0414935838
 30
0.0
 10
-62.0436729241
 20
-15.1047338733
 30
0.0
 10
-61.8081850353
 20
-15.1824471488
 30
0.0
 10
-61.494258001
 20
-15.2857261515
 30
0.0
 10
-61.1018589111
 20
-15.4149418584
 30
0.0
 10
-60.6310448788
 20
-15.5702540278
 30
0.0
 10
-60.0033191492
 20
-15.7776028303
 30
0.0
 10
-58.9048099877
 20
-16.1410705089
 30
0.0
 10
-57.6496773159
 20
-16.5579632392
 30
0.0
 10
-56.3941149104
 20
-16.9745000649
 30
0.0
 10
-55.4514249471
 20
-17.2852526988
 30
0.0
 10
-54.664768302
 20
-17.5415620091
 30
0.0
 10
-54.0349494895
 20
-17.7445493965
 30
0.0
 10
-53.6409568643
 20
-17.8691688332
 30
0.0
 10
-53.3258251246
 20
-17.9683077263
 30
0.0
 10
-53.0110627221
 20
-18.0697847547
 30
0.0
 10
-52.4597322955
 20
-18.2479975857
 30
0.0
 10
-51.6710023601
 20
-18.4985055701
 30
0.0
 10
-50.7222129389
 20
-18.7899579256
 30
0.0
 10
-49.774127877
 20
-19.0814616087
 30
0.0
 10
-48.8261524075
 20
-19.3725095319
 30
0.0
 10
-47.5622288138
 20
-19.7602595215
 30
0.0
 10
-45.9822997178
 20
-20.2443623243
 30
0.0
 10
-43.4544403466
 20
-21.0179733041
 30
0.0
 10
-40.2945575357
 20
-21.9837389364
 30
0.0
 10
-36.5027289584
 20
-23.14226168
 30
0.0
 10
-33.9751438131
 20
-23.9153929416
 30
0.0
 10
-32.7115015872
 20
-24.3025015445
 30
0.0
  0
SPLINE
  5
340
100
AcDbEntity
  8
0
100
AcDbSpline
 62
250
  6
CONTINUOUS
 70
0
 71
3
 72
11
 73
7
 74
0
 42
0.0000001
 43
0.0000001
 44
0.0000000001
 40
0.0
 40
0.0
 40
0.0
 40
0.0
 40
0.2289475762
 40
0.4821492415
 40
0.7451999297
 40
1.0
 40
1.0
 40
1.0
 40
1.0
 10
-64.5822355324
 20
-12.7312609931
 30
0.0
 10
-64.5777977887
 20
-12.9393435689
 30
0.0
 10
-64.4752174117
 20
-13.3766605852
 30
0.0
 10
-64.1243765937
 20
-13.9656843626
 30
0.0
 10
-63.6149894526
 20
-14.458238681
 30
0.0
 10
-63.1968245049
 20
-14.6900394151
 30
0.0
 10
-62.9793310713
 20
-14.7697253003
 30
0.0
  0
SPLINE
  5
341
100
AcDbEntity
  8
0
100
AcDbSpline
 62
250
  6
CONTINUOUS
 70
0
 71
3
 72
29
 73
25
 74
0
 42
0.0000001
 43
0.0000001
 44
0.0000000001
 40
0.0
 40
0.0
 40
0.0
 40
0.0
 40
0.1250247274
 40
0.2500567019
 40
0.3750923746
 40
0.500122357
 40
0.6251307404
 40
0.687621694
 40
0.7501015619
 40
0.8125712718
 40
0.8438036329
 40
0.875035709
 40
0.906267552
 40
0.937498556
 40
0.9531135629
 40
0.9609209875
 40
0.9687280312
 40
0.9726329914
 40
0.9765331696
 40
0.9784862588
 40
0.9804568858
 40
0.9844057956
 40
0.9922385607
 40
1.0
 40
1.0
 40
1.0
 40
1.0
 10
-63.9754863768
 20
17.7073966085
 30
0.0
 10
-64.0061160176
 20
16.4389523001
 30
0.0
 10
-64.0702804385
 20
13.9020607808
 30
0.0
 10
-64.1687479821
 20
10.0967081667
 30
0.0
 10
-64.2636749583
 20
6.291210129
 30
0.0
 10
-64.349812686
 20
2.4857391175
 30
0.0
 10
-64.4117793753
 20
-0.6853662067
 30
0.0
 10
-64.4559544478
 20
-3.2218972911
 30
0.0
 10
-64.4869247276
 20
-5.1238865701
 30
0.0
 10
-64.5120155899
 20
-6.7087011249
 30
0.0
 10
-64.5321764503
 20
-7.9764356393
 30
0.0
 10
-64.5473088975
 20
-8.9271923926
 30
0.0
 10
-64.562314235
 20
-9.8779373655
 30
0.0
 10
-64.5746125431
 20
-10.6702154877
 30
0.0
 10
-64.5832171401
 20
-11.2247992673
 30
0.0
 10
-64.5879784247
 20
-11.5416962299
 30
0.0
 10
-64.5911987131
 20
-11.7397625661
 30
0.0
 10
-64.593306869
 20
-11.898190382
 30
0.0
 10
-64.5950149264
 20
-11.9972038567
 30
0.0
 10
-64.5966282682
 20
-12.0765956517
 30
0.0
 10
-64.5954378167
 20
-12.1564922576
 30
0.0
 10
-64.5914699497
 20
-12.295998245
 30
0.0
 10
-64.5873195672
 20
-12.4942915316
 30
0.0
 10
-64.5839109367
 20
-12.652511808
 30
0.0
 10
-64.5822355324
 20
-12.7312609931
 30
0.0
  0
SPLINE
  5
342
100
AcDbEntity
  8
0
100
AcDbSpline
 62
250
  6
CONTINUOUS
 70
0
 71
3
 72
12
 73
8
 74
0
 42
0.0000001
 43
0.0000001
 44
0.0000000001
 40
0.0
 40
0.0
 40
0.0
 40
0.0
 40
0.2302289183
 40
0.3546036939
 40
0.4832916534
 40
0.7451696393
 40
1.0
 40
1.0
 40
1.0
 40
1.0
 10
63.0802321089
 20
9.9851512333
 30
0.0
 10
63.0921148654
 20
10.30170861
 30
0.0
 10
62.998152152
 20
10.7966904164
 30
0.0
 10
62.7141566051
 20
11.399385426
 30
0.0
 10
62.3135918897
 20
11.9873512054
 30
0.0
 10
61.6535743094
 20
12.6005739766
 30
0.0
 10
61.0018938221
 20
12.9181041239
 30
0.0
 10
60.6647802987
 20
13.014520447
 30
0.0
  0
LINE
  5
343
100
AcDbEntity
  8
0
100
AcDbLine
 62
7
  6
CONTINUOUS
 10
29.6696928807
 20
-34.289757056
 11
29.1537254585
 21
-34.1303985846
  0
SPLINE
  5
344
100
AcDbEntity
  8
0
100
AcDbSpline
 62
250
  6
CONTINUOUS
 70
0
 71
3
 72
11
 73
7
 74
0
 42
0.0000001
 43
0.0000001
 44
0.0000000001
 40
0.0
 40
0.0
 40
0.0
 40
0.0
 40
0.272997539
 40
0.5444950936
 40
0.7921456725
 40
1.0
 40
1.0
 40
1.0
 40
1.0
 10
61.8699559261
 20
9.7839471785
 30
0.0
 10
61.9820933128
 20
9.7579720051
 30
0.0
 10
62.2115229888
 20
9.7291698565
 30
0.0
 10
62.5469538595
 20
9.7491783636
 30
0.0
 10
62.8451427353
 20
9.8283237105
 30
0.0
 10
63.0155347738
 20
9.9260303971
 30
0.0
 10
63.080228405
 20
9.9851525136
 30
0.0
  0
SPLINE
  5
345
100
AcDbEntity
  8
0
100
AcDbSpline
 62
250
  6
CONTINUOUS
 70
0
 71
3
 72
11
 73
7
 74
0
 42
0.0000001
 43
0.0000001
 44
0.0000000001
 40
0.0
 40
0.0
 40
0.0
 40
0.0
 40
0.2565618571
 40
0.5276523495
 40
0.7843038638
 40
1.0
 40
1.0
 40
1.0
 40
1.0
 10
60.2586857415
 20
11.8132114936
 30
0.0
 10
60.2672428383
 20
11.9224100359
 30
0.0
 10
60.3019921119
 20
12.1457260571
 30
0.0
 10
60.3906573868
 20
12.4693300902
 30
0.0
 10
60.5089962145
 20
12.7644291663
 30
0.0
 10
60.6095022511
 20
12.9408707293
 30
0.0
 10
60.6647802987
 20
13.014520447
 30
0.0
  0
SPLINE
  5
346
100
AcDbEntity
  8
0
100
AcDbSpline
 62
250
  6
CONTINUOUS
 70
0
 71
3
 72
11
 73
7
 74
0
 42
0.0000001
 43
0.0000001
 44
0.0000000001
 40
0.0
 40
0.0
 40
0.0
 40
0.0
 40
0.2670688055
 40
0.5356232831
 40
0.7857710275
 40
1.0
 40
1.0
 40
1.0
 40
1.0
 10
29.8925736457
 20
21.2379045317
 30
0.0
 10
29.9098276855
 20
21.3329350811
 30
0.0
 10
29.9556654949
 20
21.5215981082
 30
0.0
 10
30.0511390681
 20
21.7898187505
 30
0.0
 10
30.1671570735
 20
22.0286809663
 30
0.0
 10
30.2606300314
 20
22.1694025763
 30
0.0
 10
30.3104296483
 20
22.2287520569
 30
0.0
  0
SPLINE
  5
347
100
AcDbEntity
  8
0
100
AcDbSpline
 62
250
  6
CONTINUOUS
 70
0
 71
3
 72
11
 73
7
 74
0
 42
0.0000001
 43
0.0000001
 44
0.0000000001
 40
0.0
 40
0.0
 40
0.0
 40
0.0
 40
0.2670885145
 40
0.535654169
 40
0.7857974922
 40
1.0
 40
1.0
 40
1.0
 40
1.0
 10
-31.1182927294
 20
39.9737505248
 30
0.0
 10
-31.1010570555
 20
40.0687859394
 30
0.0
 10
-31.0552672352
 20
40.257459575
 30
0.0
 10
-30.9598936618
 20
40.5257072502
 30
0.0
 10
-30.8439976866
 20
40.7646025489
 30
0.0
 10
-30.7506177307
 20
40.9053589814
 30
0.0
 10
-30.7008651456
 20
40.964729528
 30
0.0
  0
SPLINE
  5
348
100
AcDbEntity
  8
0
100
AcDbSpline
 62
250
  6
CONTINUOUS
 70
0
 71
3
 72
11
 73
7
 74
0
 42
0.0000001
 43
0.0000001
 44
0.0000000001
 40
0.0
 40
0.0
 40
0.0
 40
0.0
 40
0.3063879345
 40
0.572535331
 40
0.7992429595
 40
1.0
 40
1.0
 40
1.0
 40
1.0
 10
-63.073109764
 20
48.152751968
 30
0.0
 10
-63.1386636329
 20
48.1784672928
 30
0.0
 10
-63.2578106765
 20
48.2363789097
 30
0.0
 10
-63.4037858295
 20
48.350736271
 30
0.0
 10
-63.4979903175
 20
48.4831571043
 30
0.0
 10
-63.5186471721
 20
48.5831949955
 30
0.0
 10
-63.5167585305
 20
48.6292963822
 30
0.0
  0
SPLINE
  5
349
100
AcDbEntity
  8
0
100
AcDbSpline
 62
250
  6
CONTINUOUS
 70
0
 71
3
 72
11
 73
7
 74
0
 42
0.0000001
 43
0.0000001
 44
0.0000000001
 40
0.0
 40
0.0
 40
0.0
 40
0.0
 40
0.2951259731
 40
0.5563606441
 40
0.7873994205
 40
1.0
 40
1.0
 40
1.0
 40
1.0
 10
-63.9754863781
 20
17.7073966077
 30
0.0
 10
-64.0262062564
 20
17.7338379724
 30
0.0
 10
-64.1181712875
 20
17.7915216136
 30
0.0
 10
-64.2285637115
 20
17.8989514253
 30
0.0
 10
-64.2981152489
 20
18.0190197438
 30
0.0
 10
-64.3131796669
 20
18.1060603541
 30
0.0
 10
-64.3121674929
 20
18.1472520316
 30
0.0
  0
SPLINE
  5
34A
100
AcDbEntity
  8
0
100
AcDbSpline
 62
250
  6
CONTINUOUS
 70
0
 71
3
 72
11
 73
7
 74
0
 42
0.0000001
 43
0.0000001
 44
0.0000000001
 40
0.0
 40
0.0
 40
0.0
 40
0.0
 40
0.2968099951
 40
0.5595702481
 40
0.7900579779
 40
1.0
 40
1.0
 40
1.0
 40
1.0
 10
-64.5822353113
 20
-12.7312607982
 30
0.0
 10
-64.6468972496
 20
-12.7051461039
 30
0.0
 10
-64.7650854146
 20
-12.6453272708
 30
0.0
 10
-64.9096891759
 20
-12.5259304687
 30
0.0
 10
-65.0035540383
 20
-12.3863716275
 30
0.0
 10
-65.025676212
 20
-12.2818294842
 30
0.0
 10
-65.0253147347
 20
-12.2325044113
 30
0.0
  0
SPLINE
  5
34B
100
AcDbEntity
  8
0
100
AcDbSpline
 62
250
  6
CONTINUOUS
 70
0
 71
3
 72
12
 73
8
 74
0
 42
0.0000001
 43
0.0000001
 44
0.0000000001
 40
0.0
 40
0.0
 40
0.0
 40
0.0
 40
0.3230214181
 40
0.5301309193
 40
0.7078885552
 40
0.8612003311
 40
1.0
 40
1.0
 40
1.0
 40
1.0
 10
-62.9793310766
 20
-14.7697253065
 30
0.0
 10
-62.9768057031
 20
-14.8152638673
 30
0.0
 10
-62.9681682779
 20
-14.8900040268
 30
0.0
 10
-62.9407604357
 20
-14.986517492
 30
0.0
 10
-62.9067682917
 20
-15.0551234803
 30
0.0
 10
-62.8628799106
 20
-15.1060884137
 30
0.0
 10
-62.826135759
 20
-15.1270755424
 30
0.0
 10
-62.8075691616
 20
-15.133348334
 30
0.0
  0
SPLINE
  5
34C
100
AcDbEntity
  8
0
100
AcDbSpline
 62
250
  6
CONTINUOUS
 70
0
 71
3
 72
11
 73
7
 74
0
 42
0.0000001
 43
0.0000001
 44
0.0000000001
 40
0.0
 40
0.0
 40
0.0
 40
0.0
 40
0.3118940154
 40
0.5762567987
 40
0.8002081906
 40
1.0
 40
1.0
 40
1.0
 40
1.0
 10
-32.7115015807
 20
-24.3025015742
 30
0.0
 10
-32.7056416011
 20
-24.3293721104
 30
0.0
 10
-32.6917794508
 20
-24.3784892467
 30
0.0
 10
-32.6606243233
 20
-24.44236318
 30
0.0
 10
-32.6206455983
 20
-24.4891818753
 30
0.0
 10
-32.5870058167
 20
-24.5078193606
 30
0.0
 10
-32.5701654996
 20
-24.5129932104
 30
0.0
  0
SPLINE
  5
34D
100
AcDbEntity
  8
0
100
AcDbSpline
 62
250
  6
CONTINUOUS
 70
0
 71
3
 72
11
 73
7
 74
0
 42
0.0000001
 43
0.0000001
 44
0.0000000001
 40
0.0
 40
0.0
 40
0.0
 40
0.0
 40
0.3117867579
 40
0.5761171844
 40
0.8001119165
 40
1.0
 40
1.0
 40
1.0
 40
1.0
 10
28.2993647944
 20
-43.0383475673
 30
0.0
 10
28.3052320238
 20
-43.0652171825
 30
0.0
 10
28.3191109234
 20
-43.1143364327
 30
0.0
 10
28.3502972516
 20
-43.1782149919
 30
0.0
 10
28.3903118747
 20
-43.2250441032
 30
0.0
 10
28.4239725415
 20
-43.2436938679
 30
0.0
 10
28.4408255193
 20
-43.2488774678
 30
0.0
  0
SPLINE
  5
34E
100
AcDbEntity
  8
0
100
AcDbSpline
 62
250
  6
CONTINUOUS
 70
0
 71
3
 72
11
 73
7
 74
0
 42
0.0000001
 43
0.0000001
 44
0.0000000001
 40
0.0
 40
0.0
 40
0.0
 40
0.0
 40
0.3414974057
 40
0.61785961
 40
0.8309316323
 40
1.0
 40
1.0
 40
1.0
 40
1.0
 10
58.6737762563
 20
-52.1282158102
 30
0.0
 10
58.6755146965
 20
-52.174252824
 30
0.0
 10
58.6828670251
 20
-52.2575944975
 30
0.0
 10
58.7106031838
 20
-52.3667805071
 30
0.0
 10
58.753198553
 20
-52.4465651977
 30
0.0
 10
58.7980267573
 20
-52.4779039148
 30
0.0
 10
58.8200001442
 20
-52.4840182802
 30
0.0
  0
SPLINE
  5
34F
100
AcDbEntity
  8
0
100
AcDbSpline
 62
250
  6
CONTINUOUS
 70
0
 71
3
 72
11
 73
7
 74
0
 42
0.0000001
 43
0.0000001
 44
0.0000000001
 40
0.0
 40
0.0
 40
0.0
 40
0.0
 40
0.2688758708
 40
0.5377929586
 40
0.7863558328
 40
1.0
 40
1.0
 40
1.0
 40
1.0
 10
60.3608300183
 20
-51.1000659852
 30
0.0
 10
60.4730128618
 20
-51.124906008
 30
0.0
 10
60.7035411165
 20
-51.1492652332
 30
0.0
 10
61.0403568711
 20
-51.1167408679
 30
0.0
 10
61.3401228682
 20
-51.0203420551
 30
0.0
 10
61.5086612526
 20
-50.9089783211
 30
0.0
 10
61.5724739941
 20
-50.8436852465
 30
0.0
  0
SPLINE
  5
350
100
AcDbEntity
  8
0
100
AcDbSpline
 62
250
  6
CONTINUOUS
 70
0
 71
3
 72
11
 73
7
 74
0
 42
0.0000001
 43
0.0000001
 44
0.0000000001
 40
0.0
 40
0.0
 40
0.0
 40
0.0
 40
0.2754015318
 40
0.5442335409
 40
0.7895759086
 40
1.0
 40
1.0
 40
1.0
 40
1.0
 10
61.1939135925
 20
-20.7309134875
 30
0.0
 10
61.297764628
 20
-20.745770559
 30
0.0
 10
61.5060999215
 20
-20.7562735369
 30
0.0
 10
61.8061650217
 20
-20.7181289472
 30
0.0
 10
62.0697082215
 20
-20.6301768951
 30
0.0
 10
62.2183502621
 20
-20.5341599985
 30
0.0
 10
62.2759451045
 20
-20.4784113137
 30
0.0
  0
LINE
  5
351
100
AcDbEntity
  8
0
100
AcDbLine
 62
7
  6
CONTINUOUS
 10
27.4058895973
 20
-33.719078308
 11
27.9219680303
 21
-33.8783146988
  0
LINE
  5
352
100
AcDbEntity
  8
0
100
AcDbLine
 62
7
  6
CONTINUOUS
 10
29.0626740535
 20
-34.230529533
 11
29.5786460354
 21
-34.3898829901
  0
LINE
  5
353
100
AcDbEntity
  8
0
100
AcDbLine
 62
7
  6
CONTINUOUS
 10
29.9226268533
 20
-34.4961104106
 11
30.4386221678
 21
-34.6554281843
  0
LINE
  5
354
100
AcDbEntity
  8
0
100
AcDbLine
 62
7
  6
CONTINUOUS
 10
30.9546395321
 20
-34.8146953964
 11
31.7348592748
 21
-35.0553516655
  0
LINE
  5
355
100
AcDbEntity
  8
0
100
AcDbLine
 62
7
  6
CONTINUOUS
 10
32.6988985519
 20
-35.3523512138
 11
33.4795932863
 21
-35.5924838726
  0
SPLINE
  5
356
100
AcDbEntity
  8
0
100
AcDbSpline
 62
7
  6
CONTINUOUS
 70
0
 71
3
 72
9
 73
5
 74
0
 42
0.0000001
 43
0.0000001
 44
0.0000000001
 40
0.0
 40
0.0
 40
0.0
 40
0.0
 40
0.5054871672
 40
1.0
 40
1.0
 40
1.0
 40
1.0
 10
33.4795932863
 20
-35.5924838726
 30
0.0
 10
33.4841036829
 20
-35.9697963739
 30
0.0
 10
33.5029640642
 20
-36.7161146148
 30
0.0
 10
33.5345605907
 20
-37.4619602691
 30
0.0
 10
33.5530647437
 20
-37.8306434649
 30
0.0
  0
LINE
  5
357
100
AcDbEntity
  8
0
100
AcDbLine
 62
7
  6
CONTINUOUS
 10
34.7004686474
 20
-37.3345819928
 11
35.2034886553
 21
-37.4858316868
  0
LINE
  5
358
100
AcDbEntity
  8
0
100
AcDbLine
 62
7
  6
CONTINUOUS
 10
34.65353837
 20
-35.9526799549
 11
35.1705927222
 21
-36.1108706749
  0
SPLINE
  5
359
100
AcDbEntity
  8
0
100
AcDbSpline
 62
7
  6
CONTINUOUS
 70
0
 71
3
 72
9
 73
5
 74
0
 42
0.0000001
 43
0.0000001
 44
0.0000000001
 40
0.0
 40
0.0
 40
0.0
 40
0.0
 40
0.5032609248
 40
1.0
 40
1.0
 40
1.0
 40
1.0
 10
35.1705927222
 20
-36.1108706749
 30
0.0
 10
35.313579999
 20
-36.5305300447
 30
0.0
 10
35.6137273964
 20
-37.3589180696
 30
0.0
 10
35.9272105605
 20
-38.1822195228
 30
0.0
 10
36.0858082169
 20
-38.5900732283
 30
0.0
  0
SPLINE
  5
35A
100
AcDbEntity
  8
0
100
AcDbSpline
 62
7
  6
CONTINUOUS
 70
0
 71
3
 72
11
 73
7
 74
0
 42
0.0000001
 43
0.0000001
 44
0.0000000001
 40
0.0
 40
0.0
 40
0.0
 40
0.0
 40
0.2854638983
 40
0.5462681224
 40
0.7821823449
 40
1.0
 40
1.0
 40
1.0
 40
1.0
 10
37.5255062906
 20
-37.7666384137
 30
0.0
 10
37.5511075644
 20
-37.7740640876
 30
0.0
 10
37.6016070935
 20
-37.7837942189
 30
0.0
 10
37.6753276471
 20
-37.7813275974
 30
0.0
 10
37.7398966227
 20
-37.7609751822
 30
0.0
 10
37.7746827432
 20
-37.7349598115
 30
0.0
 10
37.7883647799
 20
-37.7199097506
 30
0.0
  0
SPLINE
  5
35B
100
AcDbEntity
  8
0
100
AcDbSpline
 62
7
  6
CONTINUOUS
 70
0
 71
3
 72
9
 73
5
 74
0
 42
0.0000001
 43
0.0000001
 44
0.0000000001
 40
0.0
 40
0.0
 40
0.0
 40
0.0
 40
0.4997069658
 40
1.0
 40
1.0
 40
1.0
 40
1.0
 10
36.346409789
 20
-36.4690312413
 30
0.0
 10
36.5486436755
 20
-36.5303847322
 30
0.0
 10
36.9534784917
 20
-36.6527316319
 30
0.0
 10
37.3583843617
 20
-36.7748575124
 30
0.0
 10
37.5612822258
 20
-36.834858155
 30
0.0
  0
SPLINE
  5
35C
100
AcDbEntity
  8
0
100
AcDbSpline
 62
7
  6
CONTINUOUS
 70
0
 71
3
 72
13
 73
9
 74
0
 42
0.0000001
 43
0.0000001
 44
0.0000000001
 40
0.0
 40
0.0
 40
0.0
 40
0.0
 40
0.281590971
 40
0.559789459
 40
0.685878346
 40
0.7995987267
 40
0.9024868992
 40
1.0
 40
1.0
 40
1.0
 40
1.0
 10
37.561282342
 20
-36.8348565183
 30
0.0
 10
37.7100042491
 20
-36.8788363308
 30
0.0
 10
37.9882866073
 20
-37.0289352986
 30
0.0
 10
38.2485132571
 20
-37.3152335205
 30
0.0
 10
38.3671455385
 20
-37.5772479313
 30
0.0
 10
38.3998151732
 20
-37.7657501516
 30
0.0
 10
38.3740507495
 20
-37.940385915
 30
0.0
 10
38.3158317097
 20
-38.0382167745
 30
0.0
 10
38.2796978265
 20
-38.0779494941
 30
0.0
  0
SPLINE
  5
35D
100
AcDbEntity
  8
0
100
AcDbSpline
 62
250
  6
CONTINUOUS
 70
0
 71
3
 72
28
 73
24
 74
0
 42
0.0000001
 43
0.0000001
 44
0.0000000001
 40
0.0
 40
0.0
 40
0.0
 40
0.0
 40
0.2493621055
 40
0.4989104837
 40
0.6239255573
 40
0.7491120664
 40
0.8117428987
 40
0.8430601592
 40
0.8743776684
 40
0.9056971375
 40
0.9213580348
 40
0.9370198657
 40
0.9526826243
 40
0.9605144808
 40
0.9683461638
 40
0.9722630509
 40
0.9761773845
 40
0.978135965
 40
0.9801053802
 40
0.9820843024
 40
0.9840658728
 40
0.9920157558
 40
1.0
 40
1.0
 40
1.0
 40
1.0
 10
61.1939135929
 20
-20.7309134864
 30
0.0
 10
61.2559665682
 20
-18.1946067219
 30
0.0
 10
61.3867512405
 20
-13.1202648781
 30
0.0
 10
61.5412231589
 20
-6.7741791383
 30
0.0
 10
61.6518951915
 20
-1.690813492
 30
0.0
 10
61.7170126547
 20
1.491347388
 30
0.0
 10
61.7623827717
 20
3.7204100556
 30
0.0
 10
61.7885216579
 20
4.9946221909
 30
0.0
 10
61.8081355391
 20
5.950332349
 30
0.0
 10
61.8244098537
 20
6.7467861728
 30
0.0
 10
61.8374027976
 20
7.3839894105
 30
0.0
 10
61.8471025048
 20
7.8619318664
 30
0.0
 10
61.8552468079
 20
8.2602349171
 30
0.0
 10
61.8615985403
 20
8.5788926405
 30
0.0
 10
61.8658749056
 20
8.7780618742
 30
0.0
 10
61.8687022769
 20
8.9373964852
 30
0.0
 10
61.8711246101
 20
9.0369678348
 30
0.0
 10
61.8729771401
 20
9.1167424767
 30
0.0
 10
61.8723242144
 20
9.1768463288
 30
0.0
 10
61.8707241973
 20
9.2371566129
 30
0.0
 10
61.8687626795
 20
9.3583213269
 30
0.0
 10
61.8676643711
 20
9.5406032788
 30
0.0
 10
61.8689450912
 20
9.7027197846
 30
0.0
 10
61.8699557893
 20
9.7839469798
 30
0.0
  0
SPLINE
  5
35E
100
AcDbEntity
  8
0
100
AcDbSpline
 62
250
  6
CONTINUOUS
 70
0
 71
3
 72
18
 73
14
 74
0
 42
0.0000001
 43
0.0000001
 44
0.0000000001
 40
0.0
 40
0.0
 40
0.0
 40
0.0
 40
0.0627979538
 40
0.0940431714
 40
0.1252904938
 40
0.187791912
 40
0.2503025832
 40
0.3753497917
 40
0.5004260265
 40
0.7504441473
 40
0.8752376571
 40
0.9376519195
 40
1.0
 40
1.0
 40
1.0
 40
1.0
 10
60.6647802987
 20
13.014520447
 30
0.0
 10
60.4318584765
 20
13.0784186915
 30
0.0
 10
60.0838088902
 20
13.1769513126
 30
0.0
 10
59.6221357519
 20
13.3150378542
 30
0.0
 10
59.1611766548
 20
13.4515210744
 30
0.0
 10
58.5849927566
 20
13.6224050457
 30
0.0
 10
57.6627675476
 20
13.8953011038
 30
0.0
 10
56.5096150584
 20
14.2359821125
 30
0.0
 10
54.6644975473
 20
14.7798191472
 30
0.0
 10
52.8201003876
 20
15.3227082608
 30
0.0
 10
51.2104687606
 20
15.8094715657
 30
0.0
 10
50.2908656913
 20
16.084393825
 30
0.0
 10
49.8316313514
 20
16.2235347405
 30
0.0
 10
49.6022252944
 20
16.293360271
 30
0.0
  0
SPLINE
  5
35F
100
AcDbEntity
  8
0
100
AcDbSpline
 62
250
  6
CONTINUOUS
 70
0
 71
3
 72
11
 73
7
 74
0
 42
0.0000001
 43
0.0000001
 44
0.0000000001
 40
0.0
 40
0.0
 40
0.0
 40
0.0
 40
0.125045063
 40
0.2500509134
 40
0.5000477169
 40
1.0
 40
1.0
 40
1.0
 40
1.0
 10
49.5443241456
 20
16.3109921929
 30
0.0
 10
49.1962044761
 20
16.417050106
 30
0.0
 10
48.5006523009
 20
16.6310248906
 30
0.0
 10
47.1095785812
 20
17.05852781
 30
0.0
 10
44.675745716
 20
17.8071659573
 30
0.0
 10
42.5897504003
 20
18.4492106888
 30
0.0
 10
41.1991532959
 20
18.8773204354
 30
0.0
  0
SPLINE
  5
360
100
AcDbEntity
  8
0
100
AcDbSpline
 62
250
  6
CONTINUOUS
 70
0
 71
3
 72
8
 73
4
 74
0
 42
0.0000001
 43
0.0000001
 44
0.0000000001
 40
0.0
 40
0.0
 40
0.0
 40
0.0
 40
1.0
 40
1.0
 40
1.0
 40
1.0
 10
40.6765135142
 20
19.0382239951
 30
0.0
 10
37.2213199782
 20
20.1019854142
 30
0.0
 10
33.7662437102
 20
21.1661283695
 30
0.0
 10
30.3106767667
 20
22.2286761692
 30
0.0
  0
SPLINE
  5
361
100
AcDbEntity
  8
0
100
AcDbSpline
 62
250
  6
CONTINUOUS
 70
0
 71
3
 72
8
 73
4
 74
0
 42
0.0000001
 43
0.0000001
 44
0.0000000001
 40
0.0
 40
0.0
 40
0.0
 40
0.0
 40
1.0
 40
1.0
 40
1.0
 40
1.0
 10
-30.7006839034
 20
40.9646739556
 30
0.0
 10
-33.5834266588
 20
41.848788351
 30
0.0
 10
-36.466511693
 20
42.7317864334
 30
0.0
 10
-39.3495810824
 20
43.6148351034
 30
0.0
  0
SPLINE
  5
362
100
AcDbEntity
  8
0
100
AcDbSpline
 62
250
  6
CONTINUOUS
 70
0
 71
3
 72
8
 73
4
 74
0
 42
0.0000001
 43
0.0000001
 44
0.0000000001
 40
0.0
 40
0.0
 40
0.0
 40
0.0
 40
1.0
 40
1.0
 40
1.0
 40
1.0
 10
-39.9574652401
 20
43.8010233941
 30
0.0
 10
-42.7406242137
 20
44.6534804457
 30
0.0
 10
-45.5237547977
 20
45.506030759
 30
0.0
 10
-48.3065437605
 20
46.3596949116
 30
0.0
  0
SPLINE
  5
363
100
AcDbEntity
  8
0
100
AcDbSpline
 62
250
  6
CONTINUOUS
 70
0
 71
3
 72
18
 73
14
 74
0
 42
0.0000001
 43
0.0000001
 44
0.0000000001
 40
0.0
 40
0.0
 40
0.0
 40
0.0
 40
0.1254515149
 40
0.1880773829
 40
0.2506359416
 40
0.313225978
 40
0.3757658448
 40
0.5007003978
 40
0.6255552349
 40
0.7504293949
 40
0.812881666
 40
0.8753448966
 40
1.0
 40
1.0
 40
1.0
 40
1.0
 10
-48.3901516993
 20
46.3853431994
 30
0.0
 10
-48.9152306135
 20
46.5464224762
 30
0.0
 10
-49.7026531259
 20
46.7871962006
 30
0.0
 10
-50.7503287331
 20
47.1134368472
 30
0.0
 10
-51.5343033871
 20
47.3608335469
 30
0.0
 10
-52.3187827343
 20
47.6053631263
 30
0.0
 10
-53.3629258647
 20
47.9345042318
 30
0.0
 10
-54.665859047
 20
48.3493746143
 30
0.0
 10
-56.228126974
 20
48.849244047
 30
0.0
 10
-57.530110755
 20
49.2649449835
 30
0.0
 10
-58.57216216
 20
49.5967218476
 30
0.0
 10
-59.6131063663
 20
49.9287061562
 30
0.0
 10
-60.3951341403
 20
50.1731555159
 30
0.0
 10
-60.9116176604
 20
50.3494544333
 30
0.0
  0
SPLINE
  5
364
100
AcDbEntity
  8
0
100
AcDbSpline
 62
250
  6
CONTINUOUS
 70
0
 71
3
 72
14
 73
10
 74
0
 42
0.0000001
 43
0.0000001
 44
0.0000000001
 40
0.0
 40
0.0
 40
0.0
 40
0.0
 40
0.0618135894
 40
0.1243072273
 40
0.249395024
 40
0.3744902054
 40
0.4995913583
 40
0.7497953945
 40
1.0
 40
1.0
 40
1.0
 40
1.0
 10
61.5724739941
 20
-50.8436852465
 30
0.0
 10
61.5731063529
 20
-50.6907047817
 30
0.0
 10
61.5760330273
 20
-50.3830606042
 30
0.0
 10
61.5903740672
 20
-49.7659963696
 30
0.0
 10
61.6064081762
 20
-48.992324783
 30
0.0
 10
61.6265550535
 20
-48.0637559612
 30
0.0
 10
61.6531895065
 20
-46.8256072921
 30
0.0
 10
61.6865979561
 20
-45.2779003934
 30
0.0
 10
61.7132366923
 20
-44.0397311171
 30
0.0
 10
61.7266176474
 20
-43.4206470866
 30
0.0
  0
SPLINE
  5
365
100
AcDbEntity
  8
0
100
AcDbSpline
 62
250
  6
CONTINUOUS
 70
0
 71
3
 72
9
 73
5
 74
0
 42
0.0000001
 43
0.0000001
 44
0.0000000001
 40
0.0
 40
0.0
 40
0.0
 40
0.0
 40
0.2498629658
 40
1.0
 40
1.0
 40
1.0
 40
1.0
 10
61.72770509
 20
-43.3703410432
 30
0.0
 10
61.7388136675
 20
-42.8565066817
 30
0.0
 10
61.7834194313
 20
-40.8000452304
 30
0.0
 10
61.8294260904
 20
-38.743613892
 30
0.0
 10
61.8650427712
 20
-37.201034251
 30
0.0
  0
SPLINE
  5
366
100
AcDbEntity
  8
0
100
AcDbSpline
 62
250
  6
CONTINUOUS
 70
0
 71
3
 72
9
 73
5
 74
0
 42
0.0000001
 43
0.0000001
 44
0.0000000001
 40
0.0
 40
0.0
 40
0.0
 40
0.0
 40
0.2497615938
 40
1.0
 40
1.0
 40
1.0
 40
1.0
 10
61.8650427712
 20
-37.201034251
 30
0.0
 10
61.8911154671
 20
-36.0718102748
 30
0.0
 10
61.9977949891
 20
-31.5506551841
 30
0.0
 10
62.1127390864
 20
-27.0297014715
 30
0.0
 10
62.1975665854
 20
-23.6378745634
 30
0.0
  0
LINE
  5
367
100
AcDbEntity
  8
0
100
AcDbLine
 62
250
  6
CONTINUOUS
 10
62.2008381739
 20
-23.5070295671
 11
62.2484558383
 21
-21.5936166109
  0
SPLINE
  5
368
100
AcDbEntity
  8
0
100
AcDbSpline
 62
250
  6
CONTINUOUS
 70
0
 71
3
 72
9
 73
5
 74
0
 42
0.0000001
 43
0.0000001
 44
0.0000000001
 40
0.0
 40
0.0
 40
0.0
 40
0.0
 40
0.2500655256
 40
1.0
 40
1.0
 40
1.0
 40
1.0
 10
62.2759535302
 20
-20.4780718797
 30
0.0
 10
62.2898304678
 20
-19.9237500241
 30
0.0
 10
62.3449322496
 20
-17.7070337967
 30
0.0
 10
62.3989763002
 20
-15.4902915031
 30
0.0
 10
62.4396737654
 20
-13.8278841932
 30
0.0
  0
SPLINE
  5
369
100
AcDbEntity
  8
0
100
AcDbSpline
 62
250
  6
CONTINUOUS
 70
0
 71
3
 72
9
 73
5
 74
0
 42
0.0000001
 43
0.0000001
 44
0.0000000001
 40
0.0
 40
0.0
 40
0.0
 40
0.0
 40
0.249947989
 40
1.0
 40
1.0
 40
1.0
 40
1.0
 10
62.8013721143
 20
0.2147477807
 30
0.0
 10
62.8145141627
 20
0.6917686988
 30
0.0
 10
62.8674334243
 20
2.6002400491
 30
0.0
 10
62.9210884145
 20
4.5086908597
 30
0.0
 10
62.9611469592
 20
5.9401334051
 30
0.0
  0
SPLINE
  5
36A
100
AcDbEntity
  8
0
100
AcDbSpline
 62
250
  6
CONTINUOUS
 70
0
 71
3
 72
12
 73
8
 74
0
 42
0.0000001
 43
0.0000001
 44
0.0000000001
 40
0.0
 40
0.0
 40
0.0
 40
0.0
 40
0.2496280391
 40
0.4992673738
 40
0.7489221134
 40
0.8738158401
 40
1.0
 40
1.0
 40
1.0
 40
1.0
 10
62.9642029655
 20
6.049334711
 30
0.0
 10
62.9733685741
 20
6.3768475562
 30
0.0
 10
62.9917501439
 20
7.0318865185
 30
0.0
 10
63.0190918716
 20
8.014479962
 30
0.0
 10
63.0427454073
 20
8.8333938506
 30
0.0
 10
63.0599328079
 20
9.4903945277
 30
0.0
 10
63.0728483808
 20
9.8196970396
 30
0.0
 10
63.0802321089
 20
9.9851512333
 30
0.0
  0
SPLINE
  5
36B
100
AcDbEntity
  8
RACCORDO
100
AcDbSpline
 62
250
  6
CONTINUOUS
 70
0
 71
3
 72
14
 73
10
 74
0
 42
0.0000001
 43
0.0000001
 44
0.0000000001
 40
0.0
 40
0.0
 40
0.0
 40
0.0
 40
0.0651776621
 40
0.1439004769
 40
0.242901603
 40
0.3633815973
 40
0.5034827189
 40
0.6595789909
 40
1.0
 40
1.0
 40
1.0
 40
1.0
 10
-42.2073232546
 20
27.7683195243
 30
0.0
 10
-42.230616328
 20
27.7754767185
 30
0.0
 10
-42.2775001666
 20
27.8070312156
 30
0.0
 10
-42.3245892743
 20
27.8866214999
 30
0.0
 10
-42.3554775752
 20
27.9944727275
 30
0.0
 10
-42.3700317968
 20
28.1285880263
 30
0.0
 10
-42.3679967149
 20
28.2846468284
 30
0.0
 10
-42.3422414569
 20
28.5214986207
 30
0.0
 10
-42.2998468828
 20
28.7031665491
 30
0.0
 10
-42.2627600434
 20
28.82491583
 30
0.0
  0
SPLINE
  5
36C
100
AcDbEntity
  8
RACCORDO
100
AcDbSpline
 62
250
  6
CONTINUOUS
 70
0
 71
3
 72
9
 73
5
 74
0
 42
0.0000001
 43
0.0000001
 44
0.0000000001
 40
0.0
 40
0.0
 40
0.0
 40
0.0
 40
0.4523861574
 40
1.0
 40
1.0
 40
1.0
 40
1.0
 10
28.3650733795
 20
8.8607581423
 30
0.0
 10
28.4763326803
 20
10.7388823377
 30
0.0
 10
28.8576312942
 20
14.882990067
 30
0.0
 10
29.4857231474
 20
18.9970828485
 30
0.0
 10
29.8925736373
 20
21.2379044856
 30
0.0
  0
SPLINE
  5
36D
100
AcDbEntity
  8
0
100
AcDbSpline
 62
250
  6
CONTINUOUS
 70
0
 71
3
 72
39
 73
35
 74
0
 42
0.0000001
 43
0.0000001
 44
0.0000000001
 40
0.0
 40
0.0
 40
0.0
 40
0.0
 40
0.0079342795
 40
0.0158606443
 40
0.0198231486
 40
0.0237811839
 40
0.0316365236
 40
0.0394825185
 40
0.0473301574
 40
0.0630262427
 40
0.0787245636
 40
0.0944247984
 40
0.125830181
 40
0.1572409325
 40
0.1886547949
 40
0.220061335
 40
0.2514457051
 40
0.2827921111
 40
0.2984455693
 40
0.3140826549
 40
0.3219018458
 40
0.3258137085
 40
0.3297299661
 40
0.3375597769
 40
0.345385583
 40
0.3610240042
 40
0.3766439771
 40
0.3922428568
 40
0.4078319064
 40
0.4390083355
 40
0.5013543308
 40
0.6260250028
 40
0.7506796399
 40
1.0
 40
1.0
 40
1.0
 40
1.0
 10
60.2586857418
 20
11.8132114939
 30
0.0
 10
60.1783290419
 20
11.8379937557
 30
0.0
 10
60.0179471246
 20
11.8883469061
 30
0.0
 10
59.8181762473
 20
11.953434436
 30
0.0
 10
59.6593583197
 20
12.0080795293
 30
0.0
 10
59.5022485673
 20
12.0653561557
 30
0.0
 10
59.3028837038
 20
12.1261707311
 30
0.0
 10
59.0647594888
 20
12.2008553601
 30
0.0
 10
58.7472771065
 20
12.300294428
 30
0.0
 10
58.3503560609
 20
12.4245074623
 30
0.0
 10
57.8740803605
 20
12.5738239378
 30
0.0
 10
57.2389723285
 20
12.7730635811
 30
0.0
 10
56.4450676802
 20
13.0224579363
 30
0.0
 10
55.4923826242
 20
13.3220978433
 30
0.0
 10
54.5398721605
 20
13.6223335435
 30
0.0
 10
53.5878136289
 20
13.9230719047
 30
0.0
 10
52.6366077605
 20
14.2241365922
 30
0.0
 10
51.844521307
 20
14.4746371722
 30
0.0
 10
51.2118235687
 20
14.6756415536
 30
0.0
 10
50.8157847667
 20
14.7979973995
 30
0.0
 10
50.5383733392
 20
14.8827154097
 30
0.0
 10
50.3797010578
 20
14.9309466791
 30
0.0
 10
50.221644005
 20
14.9815276794
 30
0.0
 10
50.023869151
 20
15.0440803805
 30
0.0
 10
49.7077579724
 20
15.1444731461
 30
0.0
 10
49.3128369053
 20
15.2694793927
 30
0.0
 10
48.8394083753
 20
15.4194573451
 30
0.0
 10
48.3659427543
 20
15.567581246
 30
0.0
 10
47.7341542059
 20
15.7618056649
 30
0.0
 10
46.6292280228
 20
16.103034677
 30
0.0
 10
44.4190504298
 20
16.7833679953
 30
0.0
 10
41.2614966666
 20
17.7535648982
 30
0.0
 10
36.2087040423
 20
19.302551836
 30
0.0
 10
32.4187831886
 20
20.4628918877
 30
0.0
 10
29.8925736373
 20
21.2379044856
 30
0.0
  0
SPLINE
  5
36E
100
AcDbEntity
  8
0
100
AcDbSpline
 62
7
  6
CONTINUOUS
 70
0
 71
3
 72
13
 73
9
 74
0
 42
0.0000001
 43
0.0000001
 44
0.0000000001
 40
0.0
 40
0.0
 40
0.0
 40
0.0
 40
0.0975325553
 40
0.2004264591
 40
0.3141428531
 40
0.4402170087
 40
0.7184021777
 40
1.0
 40
1.0
 40
1.0
 40
1.0
 10
38.3712344718
 20
-37.9772791547
 30
0.0
 10
38.4073783995
 20
-37.9375438896
 30
0.0
 10
38.4656068633
 20
-37.8397043472
 30
0.0
 10
38.4913568499
 20
-37.6650579693
 30
0.0
 10
38.4586325215
 20
-37.476576824
 30
0.0
 10
38.3399014331
 20
-37.2146355416
 30
0.0
 10
38.0795210836
 20
-36.9285125344
 30
0.0
 10
37.8012311489
 20
-36.7785056309
 30
0.0
 10
37.6525096996
 20
-36.7345320715
 30
0.0
  0
SPLINE
  5
36F
100
AcDbEntity
  8
0
100
AcDbSpline
 62
7
  6
CONTINUOUS
 70
0
 71
3
 72
9
 73
5
 74
0
 42
0.0000001
 43
0.0000001
 44
0.0000000001
 40
0.0
 40
0.0
 40
0.0
 40
0.0
 40
0.2331950659
 40
1.0
 40
1.0
 40
1.0
 40
1.0
 10
37.8227761058
 20
-37.66049199
 30
0.0
 10
37.813159556
 20
-37.6649144437
 30
0.0
 10
37.7703923117
 20
-37.6805694813
 30
0.0
 10
37.7235712311
 20
-37.6831524472
 30
0.0
 10
37.688916638
 20
-37.679917692
 30
0.0
  0
SPLINE
  5
370
100
AcDbEntity
  8
0
100
AcDbSpline
 62
7
  6
CONTINUOUS
 70
0
 71
3
 72
9
 73
5
 74
0
 42
0.0000001
 43
0.0000001
 44
0.0000000001
 40
0.0
 40
0.0
 40
0.0
 40
0.0
 40
0.243567269
 40
1.0
 40
1.0
 40
1.0
 40
1.0
 10
37.688916638
 20
-37.679917692
 30
0.0
 10
37.6829906897
 20
-37.6793645477
 30
0.0
 10
37.6587217515
 20
-37.6764642289
 30
0.0
 10
37.634755719
 20
-37.6711651366
 30
0.0
 10
37.6170030381
 20
-37.6660177138
 30
0.0
  0
SPLINE
  5
371
100
AcDbEntity
  8
0
100
AcDbSpline
 62
250
  6
CONTINUOUS
 70
0
 71
3
 72
11
 73
7
 74
0
 42
0.0000001
 43
0.0000001
 44
0.0000000001
 40
0.0
 40
0.0
 40
0.0
 40
0.0
 40
0.2424241493
 40
0.4870739401
 40
0.7384344842
 40
1.0
 40
1.0
 40
1.0
 40
1.0
 10
61.0824731919
 20
-52.0239039815
 30
0.0
 10
61.1596023714
 20
-51.9512247538
 30
0.0
 10
61.2994957704
 20
-51.7881703155
 30
0.0
 10
61.4539448509
 20
-51.5020869133
 30
0.0
 10
61.5491494224
 20
-51.1826532209
 30
0.0
 10
61.5711357516
 20
-50.9580224496
 30
0.0
 10
61.5724739941
 20
-50.8436852465
 30
0.0
  0
SPLINE
  5
372
100
AcDbEntity
  8
0
100
AcDbSpline
 62
7
  6
CONTINUOUS
 70
0
 71
3
 72
9
 73
5
 74
0
 42
0.0000001
 43
0.0000001
 44
0.0000000001
 40
0.0
 40
0.0
 40
0.0
 40
0.0
 40
0.6444844981
 40
1.0
 40
1.0
 40
1.0
 40
1.0
 10
33.0039954972
 20
-29.6829394451
 30
0.0
 10
33.0085981634
 20
-29.6776087278
 30
0.0
 10
33.0152322238
 20
-29.6692114826
 30
0.0
 10
33.0207803886
 20
-29.6590592982
 30
0.0
 10
33.0208759356
 20
-29.6551754678
 30
0.0
  0
SPLINE
  5
373
100
AcDbEntity
  8
0
100
AcDbSpline
 62
7
  6
CONTINUOUS
 70
0
 71
3
 72
9
 73
5
 74
0
 42
0.0000001
 43
0.0000001
 44
0.0000000001
 40
0.0
 40
0.0
 40
0.0
 40
0.0
 40
0.6444844981
 40
1.0
 40
1.0
 40
1.0
 40
1.0
 10
-27.1162012957
 20
-11.2206094519
 30
0.0
 10
-27.1115986296
 20
-11.2152787346
 30
0.0
 10
-27.1049645692
 20
-11.2068814893
 30
0.0
 10
-27.0994164044
 20
-11.196729305
 30
0.0
 10
-27.0993208574
 20
-11.1928454745
 30
0.0
  0
SPLINE
  5
374
100
AcDbEntity
  8
0
100
AcDbSpline
 62
250
  6
CONTINUOUS
 70
0
 71
3
 72
12
 73
8
 74
0
 42
0.0000001
 43
0.0000001
 44
0.0000000001
 40
0.0
 40
0.0
 40
0.0
 40
0.0
 40
0.2314182179
 40
0.4830993738
 40
0.6136625173
 40
0.7446943632
 40
1.0
 40
1.0
 40
1.0
 40
1.0
 10
61.8699557893
 20
9.7839469798
 30
0.0
 10
61.8725824819
 20
9.9959572341
 30
0.0
 10
61.7806034994
 20
10.4412867102
 30
0.0
 10
61.4911944725
 20
10.9329453198
 30
0.0
 10
61.1718946254
 20
11.2802055081
 30
0.0
 10
60.8043480163
 20
11.5803346822
 30
0.0
 10
60.4822062032
 20
11.7442653822
 30
0.0
 10
60.2586857418
 20
11.8132114939
 30
0.0
  0
SPLINE
  5
375
100
AcDbEntity
  8
RACCORDO
100
AcDbSpline
 62
250
  6
CONTINUOUS
 70
0
 71
3
 72
11
 73
7
 74
0
 42
0.0000001
 43
0.0000001
 44
0.0000000001
 40
0.0
 40
0.0
 40
0.0
 40
0.0
 40
0.2499928662
 40
0.4999860939
 40
0.7499813733
 40
1.0
 40
1.0
 40
1.0
 40
1.0
 10
38.541438999
 20
-15.9661834999
 30
0.0
 10
38.5799539018
 20
-14.4454247766
 30
0.0
 10
38.6569435515
 20
-11.4039042353
 30
0.0
 10
38.7723864458
 20
-6.8416080474
 30
0.0
 10
38.8883145096
 20
-2.2791699052
 30
0.0
 10
38.9657105036
 20
0.7625147261
 30
0.0
 10
39.0083363251
 20
2.2833205941
 30
0.0
  0
SPLINE
  5
376
100
AcDbEntity
  8
RACCORDO
100
AcDbSpline
 62
250
  6
CONTINUOUS
 70
0
 71
3
 72
9
 73
5
 74
0
 42
0.0000001
 43
0.0000001
 44
0.0000000001
 40
0.0
 40
0.0
 40
0.0
 40
0.0
 40
0.4925595499
 40
1.0
 40
1.0
 40
1.0
 40
1.0
 10
40.3190501871
 20
-16.1561835761
 30
0.0
 10
40.0369482164
 20
-16.0709570079
 30
0.0
 10
39.445780939
 20
-15.9562790014
 30
0.0
 10
38.8443018797
 20
-15.9450683417
 30
0.0
 10
38.541438999
 20
-15.9661834999
 30
0.0
  0
SPLINE
  5
377
100
AcDbEntity
  8
RACCORDO
100
AcDbSpline
 62
250
  6
CONTINUOUS
 70
0
 71
3
 72
11
 73
7
 74
0
 42
0.0000001
 43
0.0000001
 44
0.0000000001
 40
0.0
 40
0.0
 40
0.0
 40
0.0
 40
0.2498661986
 40
0.4997376729
 40
0.7496473844
 40
1.0
 40
1.0
 40
1.0
 40
1.0
 10
40.3190501871
 20
-16.1561835761
 30
0.0
 10
40.3570803288
 20
-14.6356882695
 30
0.0
 10
40.4332563261
 20
-11.5946687654
 30
0.0
 10
40.5472354943
 20
-7.0328814622
 30
0.0
 10
40.6608967553
 20
-2.4681315217
 30
0.0
 10
40.7348014631
 20
0.5761533517
 30
0.0
 10
40.7653450114
 20
2.0997789552
 30
0.0
  0
SPLINE
  5
378
100
AcDbEntity
  8
RACCORDO
100
AcDbSpline
 62
250
  6
CONTINUOUS
 70
0
 71
3
 72
15
 73
11
 74
0
 42
0.0000001
 43
0.0000001
 44
0.0000000001
 40
0.0
 40
0.0
 40
0.0
 40
0.0
 40
0.1116039135
 40
0.2298824861
 40
0.3541233923
 40
0.4828134093
 40
0.6139681545
 40
0.7453481078
 40
0.8747259625
 40
1.0
 40
1.0
 40
1.0
 40
1.0
 10
39.0083441379
 20
2.2835477317
 30
0.0
 10
39.0116163762
 20
2.3887802808
 30
0.0
 10
38.9938246332
 20
2.6068135976
 30
0.0
 10
38.9018808056
 20
2.9296852843
 30
0.0
 10
38.7519232594
 20
3.2477760199
 30
0.0
 10
38.5485448906
 20
3.549110075
 30
0.0
 10
38.3010850452
 20
3.8247881131
 30
0.0
 10
38.0126589992
 20
4.058345913
 30
0.0
 10
37.6999991845
 20
4.2472109998
 30
0.0
 10
37.476208281
 20
4.3383362536
 30
0.0
 10
37.3631006484
 20
4.3725856718
 30
0.0
  0
SPLINE
  5
379
100
AcDbEntity
  8
RACCORDO
100
AcDbSpline
 62
250
  6
CONTINUOUS
 70
0
 71
3
 72
14
 73
10
 74
0
 42
0.0000001
 43
0.0000001
 44
0.0000000001
 40
0.0
 40
0.0
 40
0.0
 40
0.0
 40
0.0651800845
 40
0.1439112053
 40
0.2429196197
 40
0.3634032102
 40
0.5035036278
 40
0.6595953204
 40
1.0
 40
1.0
 40
1.0
 40
1.0
 10
37.4184799112
 20
3.3160068066
 30
0.0
 10
37.3951904447
 20
3.3231744724
 30
0.0
 10
37.3483203136
 20
3.354748739
 30
0.0
 10
37.3012483304
 20
3.434349232
 30
0.0
 10
37.2703720473
 20
3.5422050197
 30
0.0
 10
37.2558268563
 20
3.6763177378
 30
0.0
 10
37.2578677007
 20
3.8323675808
 30
0.0
 10
37.2836259153
 20
4.0691982911
 30
0.0
 10
37.3260175375
 20
4.2508485995
 30
0.0
 10
37.3631006484
 20
4.3725856718
 30
0.0
  0
SPLINE
  5
37A
100
AcDbEntity
  8
RACCORDO
100
AcDbSpline
 62
250
  6
CONTINUOUS
 70
0
 71
3
 72
9
 73
5
 74
0
 42
0.0000001
 43
0.0000001
 44
0.0000000001
 40
0.0
 40
0.0
 40
0.0
 40
0.0
 40
0.4940272433
 40
1.0
 40
1.0
 40
1.0
 40
1.0
 10
40.7653430464
 20
2.0997766412
 30
0.0
 10
40.4851756375
 20
2.1821444627
 30
0.0
 10
39.9008859003
 20
2.293155189
 30
0.0
 10
39.3067070427
 20
2.3039974729
 30
0.0
 10
39.0083371099
 20
2.2833211487
 30
0.0
  0
SPLINE
  5
37B
100
AcDbEntity
  8
RACCORDO
100
AcDbSpline
 62
250
  6
CONTINUOUS
 70
0
 71
3
 72
23
 73
19
 74
0
 42
0.0000001
 43
0.0000001
 44
0.0000000001
 40
0.0
 40
0.0
 40
0.0
 40
0.0
 40
0.0552206273
 40
0.112097353
 40
0.1704990759
 40
0.2303253545
 40
0.3545035564
 40
0.4833629538
 40
0.5488694631
 40
0.6146174323
 40
0.6475025601
 40
0.6803606382
 40
0.7131397917
 40
0.745804193
 40
0.8106209857
 40
0.8745945924
 40
0.9378260619
 40
1.0
 40
1.0
 40
1.0
 40
1.0
 10
40.7653430464
 20
2.0997766412
 30
0.0
 10
40.7672377463
 20
2.1971797961
 30
0.0
 10
40.7608405726
 20
2.3953251817
 30
0.0
 10
40.7169906007
 20
2.6934274171
 30
0.0
 10
40.6455408403
 20
2.9942871786
 30
0.0
 10
40.5154081821
 20
3.4021273211
 30
0.0
 10
40.2765603254
 20
3.9030137903
 30
0.0
 10
39.9550247142
 20
4.3668393035
 30
0.0
 10
39.6515991875
 20
4.7116145986
 30
0.0
 10
39.4445729976
 20
4.9144201704
 30
0.0
 10
39.2725878918
 20
5.0700958494
 30
0.0
 10
39.1402398294
 20
5.1828968843
 30
0.0
 10
39.0015086116
 20
5.2870825093
 30
0.0
 10
38.8140994196
 20
5.4201149156
 30
0.0
 10
38.5718388616
 20
5.5706391982
 30
0.0
 10
38.2713646037
 20
5.7274202472
 30
0.0
 10
37.9685636292
 20
5.8691086032
 30
0.0
 10
37.760523985
 20
5.94543855
 30
0.0
 10
37.6560396782
 20
5.9788250519
 30
0.0
  0
SPLINE
  5
37C
100
AcDbEntity
  8
RACCORDO
100
AcDbSpline
 62
250
  6
CONTINUOUS
 70
0
 71
3
 72
9
 73
5
 74
0
 42
0.0000001
 43
0.0000001
 44
0.0000000001
 40
0.0
 40
0.0
 40
0.0
 40
0.0
 40
0.4999991291
 40
1.0
 40
1.0
 40
1.0
 40
1.0
 10
37.3632320996
 20
4.3725457255
 30
0.0
 10
35.8110037683
 20
4.8457937429
 30
0.0
 10
32.7088411283
 20
5.7998208155
 30
0.0
 10
29.6075073777
 20
6.7565135973
 30
0.0
 10
28.0566229694
 20
7.2341665858
 30
0.0
  0
SPLINE
  5
37D
100
AcDbEntity
  8
RACCORDO
100
AcDbSpline
 62
250
  6
CONTINUOUS
 70
0
 71
3
 72
9
 73
5
 74
0
 42
0.0000001
 43
0.0000001
 44
0.0000000001
 40
0.0
 40
0.0
 40
0.0
 40
0.0
 40
0.4812475712
 40
1.0
 40
1.0
 40
1.0
 40
1.0
 10
37.6560404876
 20
5.9788258475
 30
0.0
 10
37.6417195255
 20
5.7168710026
 30
0.0
 10
37.5719310839
 20
5.1745661608
 30
0.0
 10
37.4436119938
 20
4.6436729986
 30
0.0
 10
37.3632320996
 20
4.3725457255
 30
0.0
  0
SPLINE
  5
37E
100
AcDbEntity
  8
RACCORDO
100
AcDbSpline
 62
250
  6
CONTINUOUS
 70
0
 71
3
 72
10
 73
6
 74
0
 42
0.0000001
 43
0.0000001
 44
0.0000000001
 40
0.0
 40
0.0
 40
0.0
 40
0.0
 40
0.250557147
 40
0.5005322398
 40
1.0
 40
1.0
 40
1.0
 40
1.0
 10
37.6560404876
 20
5.9788258475
 30
0.0
 10
36.8820758385
 20
6.2259116927
 30
0.0
 10
35.3335278967
 20
6.711929549
 30
0.0
 10
32.2357456621
 20
7.6700456521
 30
0.0
 10
29.9125075949
 20
8.3828293038
 30
0.0
 10
28.3650733775
 20
8.8607581411
 30
0.0
  0
SPLINE
  5
37F
100
AcDbEntity
  8
RACCORDO
100
AcDbSpline
 62
250
  6
CONTINUOUS
 70
0
 71
3
 72
9
 73
5
 74
0
 42
0.0000001
 43
0.0000001
 44
0.0000000001
 40
0.0
 40
0.0
 40
0.0
 40
0.0
 40
0.4806702425
 40
1.0
 40
1.0
 40
1.0
 40
1.0
 10
28.365073083
 20
8.860753137
 30
0.0
 10
28.3493601678
 20
8.595509375
 30
0.0
 10
28.2750786611
 20
8.0459876787
 30
0.0
 10
28.1406258087
 20
7.5086827155
 30
0.0
 10
28.0566235176
 20
7.2341683605
 30
0.0
  0
SPLINE
  5
380
100
AcDbEntity
  8
RACCORDO
100
AcDbSpline
 62
250
  6
CONTINUOUS
 70
0
 71
3
 72
9
 73
5
 74
0
 42
0.0000001
 43
0.0000001
 44
0.0000000001
 40
0.0
 40
0.0
 40
0.0
 40
0.0
 40
0.4999993387
 40
1.0
 40
1.0
 40
1.0
 40
1.0
 10
-32.9542434374
 20
25.9700125409
 30
0.0
 10
-34.5058370827
 20
26.4451009343
 30
0.0
 10
-37.6094425988
 20
27.3939195197
 30
0.0
 10
-40.7122781384
 20
28.3452798773
 30
0.0
 10
-42.2625006372
 20
28.8248379609
 30
0.0
  0
SPLINE
  5
381
100
AcDbEntity
  8
RACCORDO
100
AcDbSpline
 62
250
  6
CONTINUOUS
 70
0
 71
3
 72
9
 73
5
 74
0
 42
0.0000001
 43
0.0000001
 44
0.0000000001
 40
0.0
 40
0.0
 40
0.0
 40
0.0
 40
0.4806629203
 40
1.0
 40
1.0
 40
1.0
 40
1.0
 10
-32.6457932921
 20
27.5965991302
 30
0.0
 10
-32.6615788337
 20
27.3313656954
 30
0.0
 10
-32.7359238511
 20
26.7818641836
 30
0.0
 10
-32.8703064599
 20
26.2445508913
 30
0.0
 10
-32.9542428559
 20
25.970014359
 30
0.0
  0
SPLINE
  5
382
100
AcDbEntity
  8
RACCORDO
100
AcDbSpline
 62
250
  6
CONTINUOUS
 70
0
 71
3
 72
10
 73
6
 74
0
 42
0.0000001
 43
0.0000001
 44
0.0000000001
 40
0.0
 40
0.0
 40
0.0
 40
0.0
 40
0.5005370928
 40
0.7505655213
 40
1.0
 40
1.0
 40
1.0
 40
1.0
 10
-32.645792995
 20
27.5966041884
 30
0.0
 10
-34.1970169584
 20
28.0702425583
 30
0.0
 10
-36.521795569
 20
28.7847691312
 30
0.0
 10
-39.6212536896
 20
29.7299169508
 30
0.0
 10
-41.1713643189
 20
30.1952757566
 30
0.0
 10
-41.9465788391
 20
30.4240190362
 30
0.0
  0
SPLINE
  5
383
100
AcDbEntity
  8
RACCORDO
100
AcDbSpline
 62
250
  6
CONTINUOUS
 70
0
 71
3
 72
15
 73
11
 74
0
 42
0.0000001
 43
0.0000001
 44
0.0000000001
 40
0.0
 40
0.0
 40
0.0
 40
0.0
 40
0.1421875082
 40
0.2765839821
 40
0.4031573649
 40
0.5235602896
 40
0.6400460959
 40
0.7559613928
 40
0.8748172595
 40
1.0
 40
1.0
 40
1.0
 40
1.0
 10
-42.2627600434
 20
28.82491583
 30
0.0
 10
-42.370493223
 20
28.8584635721
 30
0.0
 10
-42.5864964464
 20
28.9052466523
 30
0.0
 10
-42.9080965703
 20
28.9129824661
 30
0.0
 10
-43.2087827026
 20
28.8600189827
 30
0.0
 10
-43.4741433384
 20
28.7393405453
 30
0.0
 10
-43.6952477185
 20
28.5626752891
 30
0.0
 10
-43.8614676461
 20
28.3348056323
 30
0.0
 10
-43.9663879844
 20
28.0659617732
 30
0.0
 10
-43.9909295162
 20
27.8718050329
 30
0.0
 10
-43.9931015206
 20
27.7724875731
 30
0.0
  0
SPLINE
  5
384
100
AcDbEntity
  8
RACCORDO
100
AcDbSpline
 62
250
  6
CONTINUOUS
 70
0
 71
3
 72
9
 73
5
 74
0
 42
0.0000001
 43
0.0000001
 44
0.0000000001
 40
0.0
 40
0.0
 40
0.0
 40
0.0
 40
0.4808315886
 40
1.0
 40
1.0
 40
1.0
 40
1.0
 10
-41.9465684661
 20
30.424029012
 30
0.0
 10
-41.9645758111
 20
30.1629534763
 30
0.0
 10
-42.0422050707
 20
29.6225934814
 30
0.0
 10
-42.1781918796
 20
29.0945260678
 30
0.0
 10
-42.2625009337
 20
28.8248361737
 30
0.0
  0
SPLINE
  5
385
100
AcDbEntity
  8
RACCORDO
100
AcDbSpline
 62
250
  6
CONTINUOUS
 70
0
 71
3
 72
23
 73
19
 74
0
 42
0.0000001
 43
0.0000001
 44
0.0000000001
 40
0.0
 40
0.0
 40
0.0
 40
0.0
 40
0.0715115856
 40
0.1414266422
 40
0.1758922969
 40
0.2099871728
 40
0.276521998
 40
0.3408663475
 40
0.4033592691
 40
0.4647827666
 40
0.5248025557
 40
0.6412914097
 40
0.6990482909
 40
0.757046894
 40
0.8157402742
 40
0.8754893609
 40
0.9367862102
 40
1.0
 40
1.0
 40
1.0
 40
1.0
 10
-41.9465684661
 20
30.424029012
 30
0.0
 10
-42.0486669471
 20
30.4540932568
 30
0.0
 10
-42.2532696529
 20
30.5050164961
 30
0.0
 10
-42.5123389328
 20
30.5445405101
 30
0.0
 10
-42.7173147445
 20
30.5660545274
 30
0.0
 10
-42.9178473552
 20
30.5815195973
 30
0.0
 10
-43.1637968779
 20
30.5807789117
 30
0.0
 10
-43.4508420153
 20
30.5510071915
 30
0.0
 10
-43.7233918834
 20
30.4835580595
 30
0.0
 10
-43.9834696621
 20
30.3967669554
 30
0.0
 10
-44.3040125797
 20
30.2443589162
 30
0.0
 10
-44.5859897284
 20
30.0303533828
 30
0.0
 10
-44.8118149693
 20
29.7673920856
 30
0.0
 10
-44.9509677947
 20
29.547108993
 30
0.0
 10
-45.0613409247
 20
29.3081679071
 30
0.0
 10
-45.1461300912
 20
29.0538835745
 30
0.0
 10
-45.2029839245
 20
28.7849645501
 30
0.0
 10
-45.2193015767
 20
28.5998915804
 30
0.0
 10
-45.2227136121
 20
28.5058704521
 30
0.0
  0
SPLINE
  5
386
100
AcDbEntity
  8
RACCORDO
100
AcDbSpline
 62
250
  6
CONTINUOUS
 70
0
 71
3
 72
11
 73
7
 74
0
 42
0.0000001
 43
0.0000001
 44
0.0000000001
 40
0.0
 40
0.0
 40
0.0
 40
0.0
 40
0.1250811889
 40
0.2500919124
 40
0.5000680622
 40
1.0
 40
1.0
 40
1.0
 40
1.0
 10
-43.9930979937
 20
27.7726032515
 30
0.0
 10
-44.0105689208
 20
27.0114006156
 30
0.0
 10
-44.0474565857
 20
25.4894696877
 30
0.0
 10
-44.1214711373
 20
22.4463200762
 30
0.0
 10
-44.2521937904
 20
17.1220563994
 30
0.0
 10
-44.3641257356
 20
12.5585351826
 30
0.0
 10
-44.4387513179
 20
9.5162290738
 30
0.0
  0
SPLINE
  5
387
100
AcDbEntity
  8
RACCORDO
100
AcDbSpline
 62
250
  6
CONTINUOUS
 70
0
 71
3
 72
9
 73
5
 74
0
 42
0.0000001
 43
0.0000001
 44
0.0000000001
 40
0.0
 40
0.0
 40
0.0
 40
0.0
 40
0.5395450839
 40
1.0
 40
1.0
 40
1.0
 40
1.0
 10
-45.2227089988
 20
28.5058751119
 30
0.0
 10
-44.9753725547
 20
28.4266311705
 30
0.0
 10
-44.5288121386
 20
28.2375106336
 30
0.0
 10
-44.139339108
 20
27.9391622756
 30
0.0
 10
-43.9930979937
 20
27.7726032515
 30
0.0
  0
SPLINE
  5
388
100
AcDbEntity
  8
RACCORDO
100
AcDbSpline
 62
250
  6
CONTINUOUS
 70
0
 71
3
 72
12
 73
8
 74
0
 42
0.0000001
 43
0.0000001
 44
0.0000000001
 40
0.0
 40
0.0
 40
0.0
 40
0.0
 40
0.125043644
 40
0.2500500411
 40
0.5000354639
 40
0.7500168534
 40
1.0
 40
1.0
 40
1.0
 40
1.0
 10
-45.2227089988
 20
28.5058751119
 30
0.0
 10
-45.2500531394
 20
27.7456929851
 30
0.0
 10
-45.2967326489
 20
26.2252721369
 30
0.0
 10
-45.3784938948
 20
23.1845253386
 30
0.0
 10
-45.4764351048
 20
19.3839065585
 30
0.0
 10
-45.5936032152
 20
14.8232669615
 30
0.0
 10
-45.6713943641
 20
11.782844494
 30
0.0
 10
-45.7104131104
 20
10.2626311525
 30
0.0
  0
SPLINE
  5
389
100
AcDbEntity
  8
RACCORDO
100
AcDbSpline
 62
250
  6
CONTINUOUS
 70
0
 71
3
 72
11
 73
7
 74
0
 42
0.0000001
 43
0.0000001
 44
0.0000000001
 40
0.0
 40
0.0
 40
0.0
 40
0.0
 40
0.5000682678
 40
0.7500922035
 40
0.875081467
 40
1.0
 40
1.0
 40
1.0
 40
1.0
 10
-44.4387513296
 20
9.5162290415
 30
0.0
 10
-44.5149011227
 20
6.475668686
 30
0.0
 10
-44.6291343494
 20
1.9148905136
 30
0.0
 10
-44.7622634793
 20
-3.4058624679
 30
0.0
 10
-44.839031451
 20
-6.445576271
 30
0.0
 10
-44.8775156231
 20
-7.9650781385
 30
0.0
 10
-44.8977491478
 20
-8.7245878148
 30
0.0
  0
SPLINE
  5
38A
100
AcDbEntity
  8
RACCORDO
100
AcDbSpline
 62
250
  6
CONTINUOUS
 70
0
 71
3
 72
9
 73
5
 74
0
 42
0.0000001
 43
0.0000001
 44
0.0000000001
 40
0.0
 40
0.0
 40
0.0
 40
0.0
 40
0.5383868017
 40
1.0
 40
1.0
 40
1.0
 40
1.0
 10
-45.7104131648
 20
10.2626311695
 30
0.0
 10
-45.4555842454
 20
10.1832017654
 30
0.0
 10
-44.9943193045
 20
9.9914082447
 30
0.0
 10
-44.5912297125
 20
9.6868937085
 30
0.0
 10
-44.4387513296
 20
9.5162290415
 30
0.0
  0
SPLINE
  5
38B
100
AcDbEntity
  8
RACCORDO
100
AcDbSpline
 62
250
  6
CONTINUOUS
 70
0
 71
3
 72
12
 73
8
 74
0
 42
0.0000001
 43
0.0000001
 44
0.0000000001
 40
0.0
 40
0.0
 40
0.0
 40
0.0
 40
0.250016462
 40
0.5000346963
 40
0.7500489154
 40
0.8750424783
 40
1.0
 40
1.0
 40
1.0
 40
1.0
 10
-45.7104131648
 20
10.2626311695
 30
0.0
 10
-45.7467180312
 20
8.7439959114
 30
0.0
 10
-45.8195737123
 20
5.7067203538
 30
0.0
 10
-45.9283784747
 20
1.1508155052
 30
0.0
 10
-46.0187401028
 20
-2.6456923221
 30
0.0
 10
-46.0876439506
 20
-5.6826353756
 30
0.0
 10
-46.1162551271
 20
-7.2010539724
 30
0.0
 10
-46.1265900527
 20
-7.9602101002
 30
0.0
  0
SPLINE
  5
38C
100
AcDbEntity
  8
RACCORDO
100
AcDbSpline
 62
250
  6
CONTINUOUS
 70
0
 71
3
 72
11
 73
7
 74
0
 42
0.0000001
 43
0.0000001
 44
0.0000000001
 40
0.0
 40
0.0
 40
0.0
 40
0.0
 40
0.2294470214
 40
0.4822423959
 40
0.7449564151
 40
1.0
 40
1.0
 40
1.0
 40
1.0
 10
-44.8977563777
 20
-8.7248143118
 30
0.0
 10
-44.9037451817
 20
-8.9403862406
 30
0.0
 10
-44.8111960435
 20
-9.3976393108
 30
0.0
 10
-44.4514379459
 20
-10.0097058699
 30
0.0
 10
-43.9166860689
 20
-10.5116406716
 30
0.0
 10
-43.474298844
 20
-10.7355290676
 30
0.0
 10
-43.2450794025
 20
-10.8056775065
 30
0.0
  0
SPLINE
  5
38D
100
AcDbEntity
  8
RACCORDO
100
AcDbSpline
 62
250
  6
CONTINUOUS
 70
0
 71
3
 72
9
 73
5
 74
0
 42
0.0000001
 43
0.0000001
 44
0.0000000001
 40
0.0
 40
0.0
 40
0.0
 40
0.0
 40
0.5376716492
 40
1.0
 40
1.0
 40
1.0
 40
1.0
 10
-46.1265922686
 20
-7.9602123841
 30
0.0
 10
-45.878707994
 20
-8.0439748385
 30
0.0
 10
-45.4305859076
 20
-8.2433230569
 30
0.0
 10
-45.0431375249
 20
-8.5528838642
 30
0.0
 10
-44.8977487888
 20
-8.7245871119
 30
0.0
  0
SPLINE
  5
38E
100
AcDbEntity
  8
RACCORDO
100
AcDbSpline
 62
250
  6
CONTINUOUS
 70
0
 71
3
 72
24
 73
20
 74
0
 42
0.0000001
 43
0.0000001
 44
0.0000000001
 40
0.0
 40
0.0
 40
0.0
 40
0.0
 40
0.0549294813
 40
0.1117320587
 40
0.1701891019
 40
0.2300548844
 40
0.3540872397
 40
0.4180056317
 40
0.482825449
 40
0.5482590639
 40
0.6140010124
 40
0.6469032651
 40
0.6797818046
 40
0.7125803592
 40
0.7452750728
 40
0.8101904728
 40
0.8743586287
 40
0.9377939717
 40
1.0
 40
1.0
 40
1.0
 40
1.0
 10
-46.1265922686
 20
-7.9602123841
 30
0.0
 10
-46.1278578301
 20
-8.05706965
 30
0.0
 10
-46.1202341165
 20
-8.254416598
 30
0.0
 10
-46.0759043618
 20
-8.5517122535
 30
0.0
 10
-46.0048900813
 20
-8.8525697794
 30
0.0
 10
-45.8752112339
 20
-9.2602485737
 30
0.0
 10
-45.6842393919
 20
-9.6564179222
 30
0.0
 10
-45.4423996477
 20
-10.0312347319
 30
0.0
 10
-45.233459574
 20
-10.303036843
 30
0.0
 10
-45.0010732535
 20
-10.5593956261
 30
0.0
 10
-44.7904790837
 20
-10.758107547
 30
0.0
 10
-44.6169206326
 20
-10.9119418538
 30
0.0
 10
-44.4840859194
 20
-11.0241827411
 30
0.0
 10
-44.3452760433
 20
-11.1283437194
 30
0.0
 10
-44.1571266301
 20
-11.260613874
 30
0.0
 10
-43.9137327783
 20
-11.4102090713
 30
0.0
 10
-43.610856242
 20
-11.5640006696
 30
0.0
 10
-43.306105778
 20
-11.7028075207
 30
0.0
 10
-43.0978617334
 20
-11.7792947747
 30
0.0
 10
-42.9935046794
 20
-11.8131048357
 30
0.0
  0
SPLINE
  5
38F
100
AcDbEntity
  8
RACCORDO
100
AcDbSpline
 62
250
  6
CONTINUOUS
 70
0
 71
3
 72
10
 73
6
 74
0
 42
0.0000001
 43
0.0000001
 44
0.0000000001
 40
0.0
 40
0.0
 40
0.0
 40
0.0
 40
0.249889714
 40
0.4998919972
 40
1.0
 40
1.0
 40
1.0
 40
1.0
 10
-43.2452086926
 20
-10.8056351838
 30
0.0
 10
-42.469594998
 20
-11.0430237798
 30
0.0
 10
-40.9185527245
 20
-11.5196523696
 30
0.0
 10
-37.8156261919
 20
-12.4725525168
 30
0.0
 10
-35.4883777318
 20
-13.1882729761
 30
0.0
 10
-33.9366758699
 20
-13.6651405232
 30
0.0
  0
SPLINE
  5
390
100
AcDbEntity
  8
RACCORDO
100
AcDbSpline
 62
250
  6
CONTINUOUS
 70
0
 71
3
 72
11
 73
7
 74
0
 42
0.0000001
 43
0.0000001
 44
0.0000000001
 40
0.0
 40
0.0
 40
0.0
 40
0.0
 40
0.3040631159
 40
0.5725083593
 40
0.8039131857
 40
1.0
 40
1.0
 40
1.0
 40
1.0
 10
-42.993503851
 20
-11.8131038302
 30
0.0
 10
-42.9960179079
 20
-11.706466918
 30
0.0
 10
-43.0088584961
 20
-11.5057049967
 30
0.0
 10
-43.0567526762
 20
-11.2270669813
 30
0.0
 10
-43.1311578035
 20
-10.993630282
 30
0.0
 10
-43.2038395189
 20
-10.8605932091
 30
0.0
 10
-43.2452086926
 20
-10.8056351838
 30
0.0
  0
SPLINE
  5
391
100
AcDbEntity
  8
RACCORDO
100
AcDbSpline
 62
250
  6
CONTINUOUS
 70
0
 71
3
 72
11
 73
7
 74
0
 42
0.0000001
 43
0.0000001
 44
0.0000000001
 40
0.0
 40
0.0
 40
0.0
 40
0.0
 40
0.2502387022
 40
0.5002187712
 40
0.7501126221
 40
1.0
 40
1.0
 40
1.0
 40
1.0
 10
-42.993503851
 20
-11.8131038302
 30
0.0
 10
-42.2592339254
 20
-12.050762877
 30
0.0
 10
-40.7878492025
 20
-12.5146789043
 30
0.0
 10
-38.5769583265
 20
-13.1958906249
 30
0.0
 10
-36.3652523337
 20
-13.8707590129
 30
0.0
 10
-34.8906086247
 20
-14.3194669493
 30
0.0
 10
-34.1535868917
 20
-14.5447707354
 30
0.0
  0
SPLINE
  5
392
100
AcDbEntity
  8
RACCORDO
100
AcDbSpline
 62
250
  6
CONTINUOUS
 70
0
 71
3
 72
11
 73
7
 74
0
 42
0.0000001
 43
0.0000001
 44
0.0000000001
 40
0.0
 40
0.0
 40
0.0
 40
0.0
 40
0.305730111
 40
0.5748098054
 40
0.805656897
 40
1.0
 40
1.0
 40
1.0
 40
1.0
 10
-33.6938343759
 20
-14.6854612895
 30
0.0
 10
-33.6951968674
 20
-14.577123423
 30
0.0
 10
-33.7059098742
 20
-14.3733667464
 30
0.0
 10
-33.7511099489
 20
-14.090723418
 30
0.0
 10
-33.8234730275
 20
-13.8546456856
 30
0.0
 10
-33.8954413591
 20
-13.7203060919
 30
0.0
 10
-33.9366753815
 20
-13.6651411581
 30
0.0
  0
SPLINE
  5
393
100
AcDbEntity
  8
RACCORDO
100
AcDbSpline
 62
250
  6
CONTINUOUS
 70
0
 71
3
 72
10
 73
6
 74
0
 42
0.0000001
 43
0.0000001
 44
0.0000000001
 40
0.0
 40
0.0
 40
0.0
 40
0.0
 40
0.4998918375
 40
0.7498897513
 40
1.0
 40
1.0
 40
1.0
 40
1.0
 10
27.0741904735
 20
-32.4009865481
 30
0.0
 10
28.6249661546
 20
-32.8768605028
 30
0.0
 10
30.951442288
 20
-33.5902282253
 30
0.0
 10
34.0534534461
 20
-34.5428695391
 30
0.0
 10
35.6049185302
 20
-35.0188916375
 30
0.0
 10
36.3805275397
 20
-35.2579235754
 30
0.0
  0
SPLINE
  5
394
100
AcDbEntity
  8
RACCORDO
100
AcDbSpline
 62
250
  6
CONTINUOUS
 70
0
 71
3
 72
11
 73
7
 74
0
 42
0.0000001
 43
0.0000001
 44
0.0000000001
 40
0.0
 40
0.0
 40
0.0
 40
0.0
 40
0.3056945897
 40
0.574754677
 40
0.8056089154
 40
1.0
 40
1.0
 40
1.0
 40
1.0
 10
27.3170319992
 20
-33.4213072826
 30
0.0
 10
27.3157013558
 20
-33.312978234
 30
0.0
 10
27.3050367318
 20
-33.1092312547
 30
0.0
 10
27.2598633018
 20
-32.8265901774
 30
0.0
 10
27.1874736056
 20
-32.5904965762
 30
0.0
 10
27.1154545997
 20
-32.4561538794
 30
0.0
 10
27.074190995
 20
-32.4009871531
 30
0.0
  0
SPLINE
  5
395
100
AcDbEntity
  8
RACCORDO
100
AcDbSpline
 62
250
  6
CONTINUOUS
 70
0
 71
3
 72
11
 73
7
 74
0
 42
0.0000001
 43
0.0000001
 44
0.0000000001
 40
0.0
 40
0.0
 40
0.0
 40
0.0
 40
0.2501012559
 40
0.5002101287
 40
0.7502372763
 40
1.0
 40
1.0
 40
1.0
 40
1.0
 10
27.3170320552
 20
-33.4213119525
 30
0.0
 10
28.0911526847
 20
-33.6595878714
 30
0.0
 10
29.6385642272
 20
-34.1389124952
 30
0.0
 10
31.9597293753
 20
-34.856895036
 30
0.0
 10
34.2817021774
 20
-35.5685174258
 30
0.0
 10
35.8324084793
 20
-36.0324883909
 30
0.0
 10
36.6091155398
 20
-36.2582969502
 30
0.0
  0
SPLINE
  5
396
100
AcDbEntity
  8
RACCORDO
100
AcDbSpline
 62
250
  6
CONTINUOUS
 70
0
 71
3
 72
14
 73
10
 74
0
 42
0.0000001
 43
0.0000001
 44
0.0000000001
 40
0.0
 40
0.0
 40
0.0
 40
0.0
 40
0.2761390919
 40
0.4029485241
 40
0.5226710724
 40
0.6388754247
 40
0.7550154498
 40
0.8745133943
 40
1.0
 40
1.0
 40
1.0
 40
1.0
 10
36.3807811584
 20
-35.2580078094
 30
0.0
 10
36.5891230041
 20
-35.322215448
 30
0.0
 10
36.9139582071
 20
-35.3677540118
 30
0.0
 10
37.3233417971
 20
-35.2957210656
 30
0.0
 10
37.5877129126
 20
-35.1777511081
 30
0.0
 10
37.8073360832
 20
-35.0022813515
 30
0.0
 10
37.9727293949
 20
-34.7750781108
 30
0.0
 10
38.0776621036
 20
-34.5068174239
 30
0.0
 10
38.1018587708
 20
-34.3128086869
 30
0.0
 10
38.1036892945
 20
-34.213754138
 30
0.0
  0
SPLINE
  5
397
100
AcDbEntity
  8
RACCORDO
100
AcDbSpline
 62
250
  6
CONTINUOUS
 70
0
 71
3
 72
11
 73
7
 74
0
 42
0.0000001
 43
0.0000001
 44
0.0000000001
 40
0.0
 40
0.0
 40
0.0
 40
0.0
 40
0.3059088533
 40
0.5750687929
 40
0.8058961211
 40
1.0
 40
1.0
 40
1.0
 40
1.0
 10
36.6091258113
 20
-36.2582842228
 30
0.0
 10
36.6082402978
 20
-36.1522811134
 30
0.0
 10
36.5987813558
 20
-35.9529147113
 30
0.0
 10
36.5566276256
 20
-35.6761616839
 30
0.0
 10
36.4882906532
 20
-35.4446948857
 30
0.0
 10
36.4198871302
 20
-35.3124669169
 30
0.0
 10
36.3805273436
 20
-35.25792233
 30
0.0
  0
SPLINE
  5
398
100
AcDbEntity
  8
RACCORDO
100
AcDbSpline
 62
250
  6
CONTINUOUS
 70
0
 71
3
 72
23
 73
19
 74
0
 42
0.0000001
 43
0.0000001
 44
0.0000000001
 40
0.0
 40
0.0
 40
0.0
 40
0.0
 40
0.0719698606
 40
0.1419784759
 40
0.1764314528
 40
0.2105331186
 40
0.2771809987
 40
0.3417996502
 40
0.4042043956
 40
0.4649479589
 40
0.524285769
 40
0.6400296135
 40
0.6977268828
 40
0.7559221003
 40
0.8150538418
 40
0.8752612691
 40
0.9367796711
 40
1.0
 40
1.0
 40
1.0
 40
1.0
 10
36.6091258113
 20
-36.2582842228
 30
0.0
 10
36.7113212257
 20
-36.287933605
 30
0.0
 10
36.915283333
 20
-36.338768145
 30
0.0
 10
37.1730118334
 20
-36.3806141425
 30
0.0
 10
37.3765499587
 20
-36.4040249663
 30
0.0
 10
37.5757870991
 20
-36.4210394794
 30
0.0
 10
37.8207552051
 20
-36.421702289
 30
0.0
 10
38.106365399
 20
-36.3921970652
 30
0.0
 10
38.3766850362
 20
-36.3268403083
 30
0.0
 10
38.6340043945
 20
-36.2443208676
 30
0.0
 10
38.9507699373
 20
-36.0965184928
 30
0.0
 10
39.2295560675
 20
-35.8855396164
 30
0.0
 10
39.4531714522
 20
-35.6248798987
 30
0.0
 10
39.591658744
 20
-35.4051986452
 30
0.0
 10
39.7020476248
 20
-35.1664081384
 30
0.0
 10
39.787072235
 20
-34.9123062109
 30
0.0
 10
39.8433558923
 20
-34.6440390472
 30
0.0
 10
39.8586628338
 20
-34.4597424211
 30
0.0
 10
39.8614598541
 20
-34.3663111831
 30
0.0
  0
SPLINE
  5
399
100
AcDbEntity
  8
RACCORDO
100
AcDbSpline
 62
250
  6
CONTINUOUS
 70
0
 71
3
 72
11
 73
7
 74
0
 42
0.0000001
 43
0.0000001
 44
0.0000000001
 40
0.0
 40
0.0
 40
0.0
 40
0.0
 40
0.2499814326
 40
0.499986137
 40
0.749992888
 40
1.0
 40
1.0
 40
1.0
 40
1.0
 10
38.103685387
 20
-34.2138702347
 30
0.0
 10
38.136458429
 20
-32.6932581406
 30
0.0
 10
38.2098195
 20
-29.6520658566
 30
0.0
 10
38.3200619256
 20
-25.0902083999
 30
0.0
 10
38.4307801009
 20
-20.5282036493
 30
0.0
 10
38.5045662653
 20
-17.4868579683
 30
0.0
 10
38.5414390384
 20
-15.9661834761
 30
0.0
  0
SPLINE
  5
39A
100
AcDbEntity
  8
RACCORDO
100
AcDbSpline
 62
250
  6
CONTINUOUS
 70
0
 71
3
 72
9
 73
5
 74
0
 42
0.0000001
 43
0.0000001
 44
0.0000000001
 40
0.0
 40
0.0
 40
0.0
 40
0.0
 40
0.4932803977
 40
1.0
 40
1.0
 40
1.0
 40
1.0
 10
39.8614639495
 20
-34.3663062658
 30
0.0
 10
39.5807965909
 20
-34.2885545089
 30
0.0
 10
38.9953059062
 20
-34.1876510799
 30
0.0
 10
38.401712817
 20
-34.1877196978
 30
0.0
 10
38.103685387
 20
-34.2138702347
 30
0.0
  0
SPLINE
  5
39B
100
AcDbEntity
  8
RACCORDO
100
AcDbSpline
 62
250
  6
CONTINUOUS
 70
0
 71
3
 72
11
 73
7
 74
0
 42
0.0000001
 43
0.0000001
 44
0.0000000001
 40
0.0
 40
0.0
 40
0.0
 40
0.0
 40
0.2496432072
 40
0.4997347093
 40
0.7498647025
 40
1.0
 40
1.0
 40
1.0
 40
1.0
 10
39.8614639495
 20
-34.3663062658
 30
0.0
 10
39.9063475492
 20
-32.8511475397
 30
0.0
 10
39.9829364348
 20
-29.8177303252
 30
0.0
 10
40.0953065977
 20
-25.2659752031
 30
0.0
 10
40.2072816338
 20
-20.7112139255
 30
0.0
 10
40.2817566574
 20
-17.6745369584
 30
0.0
 10
40.3190501323
 20
-16.1561835596
 30
0.0
  0
SPLINE
  5
39C
100
AcDbEntity
  8
RACCORDO
100
AcDbSpline
 62
7
  6
CONTINUOUS
 70
0
 71
3
 72
9
 73
5
 74
0
 42
0.0000001
 43
0.0000001
 44
0.0000000001
 40
0.0
 40
0.0
 40
0.0
 40
0.0
 40
0.643820699
 40
1.0
 40
1.0
 40
1.0
 40
1.0
 10
-7.0812531143
 20
-17.5811759577
 30
0.0
 10
-7.0766542515
 20
-17.5758496453
 30
0.0
 10
-7.0700435095
 20
-17.5674405193
 30
0.0
 10
-7.0644543238
 20
-17.5572976333
 30
0.0
 10
-7.0643643963
 20
-17.5534056192
 30
0.0
  0
SPLINE
  5
39D
100
AcDbEntity
  8
RACCORDO
100
AcDbSpline
 62
250
  6
CONTINUOUS
 70
0
 71
3
 72
14
 73
10
 74
0
 42
0.0000001
 43
0.0000001
 44
0.0000000001
 40
0.0
 40
0.0
 40
0.0
 40
0.0
 40
0.0651289902
 40
0.1438433551
 40
0.2428778446
 40
0.3634154487
 40
0.503574524
 40
0.659702651
 40
1.0
 40
1.0
 40
1.0
 40
1.0
 10
28.1110403167
 20
6.1742314674
 30
0.0
 10
28.087692375
 20
6.1814055565
 30
0.0
 10
28.0406969002
 20
6.2130860693
 30
0.0
 10
27.9935712401
 20
6.2929793577
 30
0.0
 10
27.9627120611
 20
6.4012320814
 30
0.0
 10
27.9482619906
 20
6.5358361472
 30
0.0
 10
27.9504746362
 20
6.6924323175
 30
0.0
 10
27.9765631981
 20
6.9299788397
 30
0.0
 10
28.0192801991
 20
7.1121326754
 30
0.0
 10
28.056623523
 20
7.2341683588
 30
0.0
  0
SPLINE
  5
39E
100
AcDbEntity
  8
RACCORDO
100
AcDbSpline
 62
7
  6
CONTINUOUS
 70
0
 71
3
 72
9
 73
5
 74
0
 42
0.0000001
 43
0.0000001
 44
0.0000000001
 40
0.0
 40
0.0
 40
0.0
 40
0.0
 40
0.643820699
 40
1.0
 40
1.0
 40
1.0
 40
1.0
 10
12.9588124834
 20
-23.7352859554
 30
0.0
 10
12.9634113462
 20
-23.729959643
 30
0.0
 10
12.9700220881
 20
-23.721550517
 30
0.0
 10
12.9756112738
 20
-23.7114076311
 30
0.0
 10
12.9757012014
 20
-23.707515617
 30
0.0
  0
SPLINE
  5
39F
100
AcDbEntity
  8
RACCORDO
100
AcDbSpline
 62
250
  6
CONTINUOUS
 70
0
 71
3
 72
14
 73
10
 74
0
 42
0.0000001
 43
0.0000001
 44
0.0000000001
 40
0.0
 40
0.0
 40
0.0
 40
0.0
 40
0.0651290633
 40
0.1438434078
 40
0.2428778936
 40
0.3634154895
 40
0.503574556
 40
0.6597026728
 40
1.0
 40
1.0
 40
1.0
 40
1.0
 10
-32.8998259893
 20
24.9100774394
 30
0.0
 10
-32.923173959
 20
24.917251537
 30
0.0
 10
-32.9701694815
 20
24.9489320271
 30
0.0
 10
-33.0172951248
 20
25.028825364
 30
0.0
 10
-33.04815432
 20
25.1370780718
 30
0.0
 10
-33.0626043822
 20
25.2716821437
 30
0.0
 10
-33.0603917396
 20
25.4282783132
 30
0.0
 10
-33.0343031755
 20
25.6658248374
 30
0.0
 10
-32.9915861751
 20
25.8479786734
 30
0.0
 10
-32.9542428559
 20
25.970014359
 30
0.0
  0
LINE
  5
3A0
100
AcDbEntity
  8
0
100
AcDbLine
 62
7
  6
CONTINUOUS
 10
28.0130282648
 20
-33.7781740403
 11
27.496952315
 21
-33.6189349188
  0
ELLIPSE
  5
3A1
100
AcDbEntity
  8
0
100
AcDbEllipse
 62
7
  6
CONTINUOUS
 10
64.3564838976
 20
-15.1469347324
 30
0.0
 11
0.163760862
 21
0.4727023835
 31
0.0
 40
0.4014120048
 41
-2.3829659172
 42
-0.899436053
  0
ELLIPSE
  5
3A2
100
AcDbEntity
  8
0
100
AcDbEllipse
 62
7
  6
CONTINUOUS
 10
-32.3537523902
 20
-9.7843230571
 30
0.0
 11
0.0655043448
 21
0.1890809534
 31
0.0
 40
0.4014120048
 41
0.6190003963
 42
0.6655425096
  0
ELLIPSE
  5
3A3
100
AcDbEntity
  8
0
100
AcDbEllipse
 62
7
  6
CONTINUOUS
 10
-27.1347474785
 20
-11.8021239967
 30
0.0
 11
0.0523362197
 21
0.1931338561
 31
0.0
 40
0.3241916259
 41
-2.4953119934
 42
-2.4429521159
  0
ELLIPSE
  5
3A4
100
AcDbEntity
  8
0
100
AcDbEllipse
 62
7
  6
CONTINUOUS
 10
27.7664444028
 20
-28.2466530504
 30
0.0
 11
0.0655043448
 21
0.1890809534
 31
0.0
 40
0.4014120048
 41
0.6190003963
 42
0.6655425096
  0
ELLIPSE
  5
3A5
100
AcDbEntity
  8
0
100
AcDbEllipse
 62
7
  6
CONTINUOUS
 10
32.9854493144
 20
-30.2644539899
 30
0.0
 11
0.0523362197
 21
0.1931338561
 31
0.0
 40
0.3241916259
 41
-2.4953119934
 42
-2.4429521159
  0
ELLIPSE
  5
3A6
100
AcDbEntity
  8
RACCORDO
100
AcDbEllipse
 62
7
  6
CONTINUOUS
 10
12.9402899394
 20
-24.3158468181
 30
0.0
 11
0.0523362197
 21
0.1931338561
 31
0.0
 40
0.3241916259
 41
-2.4953119934
 42
-2.4429521159
  0
ELLIPSE
  5
3A7
100
AcDbEntity
  8
RACCORDO
100
AcDbEllipse
 62
7
  6
CONTINUOUS
 10
-7.0997756583
 20
-18.1617368203
 30
0.0
 11
0.0523362197
 21
0.1931338561
 31
0.0
 40
0.3241916259
 41
-2.4953119934
 42
-2.4429521159
  0
ELLIPSE
  5
3A8
100
AcDbEntity
  8
0
100
AcDbEllipse
 62
7
  6
CONTINUOUS
 10
63.8333759552
 20
-16.5291544403
 30
0.0
 11
0.163760862
 21
0.4727023835
 31
0.0
 40
0.4014120048
 41
0.7586267364
 42
2.2421566006
  0
ELLIPSE
  5
3A9
100
AcDbEntity
  8
RACCORDO
100
AcDbEllipse
 62
7
  6
CONTINUOUS
 10
-12.3188042087
 20
-16.1448895629
 30
0.0
 11
0.0655043448
 21
0.1890809534
 31
0.0
 40
0.4014120048
 41
0.6190003963
 42
0.6713602738
  0
ELLIPSE
  5
3AA
100
AcDbEntity
  8
RACCORDO
100
AcDbEllipse
 62
7
  6
CONTINUOUS
 10
7.7212613889
 20
-22.2989995607
 30
0.0
 11
0.0655043448
 21
0.1890809534
 31
0.0
 40
0.4014120048
 41
0.6190003963
 42
0.6713602738
  0
ELLIPSE
  5
3AB
100
AcDbEntity
  8
0
100
AcDbEllipse
 62
7
  6
CONTINUOUS
 10
-27.1245362849
 20
-11.3901646626
 30
0.0
 11
0.0523362197
 21
0.1931338561
 31
0.0
 40
0.3241916259
 41
0.5939207826
 42
0.640462896
  0
ELLIPSE
  5
3AC
100
AcDbEntity
  8
0
100
AcDbEllipse
 62
7
  6
CONTINUOUS
 10
32.9956605081
 20
-29.8524946559
 30
0.0
 11
0.0523362197
 21
0.1931338561
 31
0.0
 40
0.3241916259
 41
0.5939207826
 42
0.640462896
  0
ELLIPSE
  5
3AD
100
AcDbEntity
  8
0
100
AcDbEllipse
 62
7
  6
CONTINUOUS
 10
64.1880574174
 20
-21.9419151234
 30
0.0
 11
0.163760862
 21
0.4727023835
 31
0.0
 40
0.4014120048
 41
5.3837492542
 42
6.8672791184
  0
ELLIPSE
  5
3AE
100
AcDbEntity
  8
RACCORDO
100
AcDbEllipse
 62
7
  6
CONTINUOUS
 10
12.9504774942
 20
-23.9048411662
 30
0.0
 11
0.0523362197
 21
0.1931338561
 31
0.0
 40
0.3241916259
 41
0.5939207826
 42
0.6462806601
  0
ELLIPSE
  5
3AF
100
AcDbEntity
  8
RACCORDO
100
AcDbEllipse
 62
7
  6
CONTINUOUS
 10
-7.0895881035
 20
-17.7507311685
 30
0.0
 11
0.0523362197
 21
0.1931338561
 31
0.0
 40
0.3241916259
 41
0.5939207826
 42
0.6462806601
  0
ELLIPSE
  5
3B0
100
AcDbEntity
  8
0
100
AcDbEllipse
 62
7
  6
CONTINUOUS
 10
63.7094205358
 20
-21.5299989837
 30
0.0
 11
0.163760862
 21
0.4727023835
 31
0.0
 40
0.4014120048
 41
2.2421566006
 42
3.7256864648
  0
ENDSEC
  0
SECTION
  2
OBJECTS
  0
DICTIONARY
  5
C
100
AcDbDictionary
280
0
281
1
  3
ACAD_GROUP
350
D
  3
ACAD_MLINESTYLE
350
17
  3
ACAD_LAYOUT
350
1A
  3
ACAD_PLOTSETTINGS
350
19
  3
ACAD_PLOTSTYLENAME
350
E
  0
DICTIONARY
  5
D
102
{ACAD_REACTORS
330
C
102
}
100
AcDbDictionary
280
0
281
1
  0
ACDBDICTIONARYWDFLT
  5
E
102
{ACAD_REACTORS
330
C
102
}
100
AcDbDictionary
281
1
  3
Normal
350
F
100
AcDbDictionaryWithDefault
340
F
  0
DICTIONARY
  5
17
102
{ACAD_REACTORS
330
C
102
}
100
AcDbDictionary
280
0
281
1
  3
Standard
350
18
  0
DICTIONARY
  5
19
102
{ACAD_REACTORS
330
C
102
}
100
AcDbDictionary
281
1
  0
DICTIONARY
  5
1A
102
{ACAD_REACTORS
330
C
102
}
100
AcDbDictionary
281
1
  3
Model
350
3B1
  3
Layout1
350
3B2
  0
ACDBPLACEHOLDER
  5
F
102
{ACAD_REACTORS
330
E
102
}
  0
MLINESTYLE
  5
18
102
{ACAD_REACTORS
330
17
102
}
100
AcDbMlineStyle
  2
STANDARD
 70
0
  3

 62
256
 51
90.0
 52
90.0
 71
2
 49
0.5
 62
256
  6
BYLAYER
 49
-0.5
 62
256
  6
BYLAYER
  0
LAYOUT
  5
3B1
102
{ACAD_REACTORS
330
1A
102
}
100
AcDbPlotSettings
  1

  2
none_device
  4
ANSI_C_(22.00_x_17.00_Inches)
  6

 40
0.0
 41
0.0
 42
0.0
 43
0.0
 44
558.8
 45
431.8
 46
0.0
 47
0.0
 48
0.0
 49
0.0
140
0.0
141
0.0
142
1.0
143
1.0
 70
1024
 72
1
 73
0
 74
0
  7

 75
0
147
1.0
148
0.0
149
0.0
100
AcDbLayout
  1
Model
 70
0
 71
0
 10
0.0
 20
0.0
 11
558.8
 21
431.8
 12
0.0
 22
0.0
 32
0.0
 14
0.0
 24
0.0
 34
0.0
 15
0.0
 25
0.0
 35
0.0
146
0.0
 13
0.0
 23
0.0
 33
0.0
 16
1.0
 26
0.0
 36
0.0
 17
0.0
 27
1.0
 37
0.0
 76
0
330
213
345
0
346
0
  0
LAYOUT
  5
3B2
102
{ACAD_REACTORS
330
1A
102
}
100
AcDbPlotSettings
  1

  2
none_device
  4
ANSI_C_(22.00_x_17.00_Inches)
  6

 40
0.0
 41
0.0
 42
0.0
 43
0.0
 44
558.8
 45
431.8
 46
0.0
 47
0.0
 48
0.0
 49
0.0
140
0.0
141
0.0
142
1.0
143
1.0
 70
0
 72
1
 73
0
 74
0
  7

 75
0
147
1.0
148
0.0
149
0.0
100
AcDbLayout
  1
Layout1
 70
0
 71
1
 10
0.0
 20
0.0
 11
558.8
 21
431.8
 12
0.0
 22
0.0
 32
0.0
 14
0.0
 24
0.0
 34
0.0
 15
0.0
 25
0.0
 35
0.0
146
0.0
 13
0.0
 23
0.0
 33
0.0
 16
1.0
 26
0.0
 36
0.0
 17
0.0
 27
1.0
 37
0.0
 76
0
330
214
345
0
346
0
  0
ENDSEC
  0
EOF
