  0
SECTION
  2
HEADER
  9
$ACADVER
  1
AC1024
  9
$DWGCODEPAGE
  3
ANSI_1252
  9
$EXTMAX
 10
297.0
 20
210.0
 30
0.0
  9
$EXTMIN
 10
0.0
 20
0.0
 30
0.0
  9
$LIMMIN
 10
0.0
 20
0.0
  9
$LIMMAX
 10
297.0
 20
210.0
  9
$VIEWCTR
 10
148.5
 20
105.0
  9
$VIEWSIZE
 40
210.0
  9
$CLAYER
  8
0
  9
$LTSCALE
 40
16.335
  9
$CELTYPE
  6
BYLAYER
  9
$DIMSCALE
 40
1.0
  9
$DIMASZ
 40
3.0
  9
$DIMEXO
 40
0.5
  9
$DIMDLI
 40
11.286
  9
$DIMEXE
 40
1.5
  9
$DIMCEN
 40
2.673
  9
$DIMLFAC
 40
1.0
  9
$DIMBLK
  1
_FILLED
  9
$DIMALT
 70
0
  9
$DIMALTF
 40
0.0393700787
  9
$DIMTXT
 40
3.0
  9
$DIMTOL
 70
1
  9
$DIMLIM
 70
0
  9
$DIMTFAC
 40
1.0
  9
$DIMTP
 40
0.01
  9
$DIMTM
 40
0.01
  9
$DIMGAP
 40
0.625
  9
$DIMDSEP
 70
44
  9
$AUNITS
 70
0
  9
$PDMODE
 70
3
  9
$PDSIZE
 40
3.0
  9
$HANDSEED
  5
383
  9
$TILEMODE
 70
1
  9
$MEASUREMENT
 70
1
  9
$INSUNITS
 70
4
  0
ENDSEC
  0
SECTION
  2
CLASSES
  0
CLASS
  1
ACDBDICTIONARYWDFLT
  2
AcDbDictionaryWithDefault
  3
AutoCAD 2000
 90
0
 91
1
280
0
281
0
  0
CLASS
  1
ACDBPLACEHOLDER
  2
AcDbPlaceHolder
  3
AutoCAD 2000
 90
0
 91
1
280
0
281
0
  0
CLASS
  1
LAYOUT
  2
AcDbLayout
  3
AutoCAD 2000
 90
0
 91
0
280
0
281
0
  0
ENDSEC
  0
SECTION
  2
TABLES
  0
TABLE
  2
VPORT
  5
8
100
AcDbSymbolTable
 70
2
  0
VPORT
  5
1F4
100
AcDbSymbolTableRecord
100
AcDbViewportTableRecord
  2
*ACTIVE
 70
0
 10
0.0
 20
0.0
 11
1.0
 21
1.0
 12
148.5
 22
105.0
 13
0.0
 23
0.0
 14
1.0
 24
1.0
 15
0.0
 25
0.0
 16
0.0
 26
0.0
 36
1.0
 17
0.0
 27
0.0
 37
0.0
 40
210.0
 41
1.4142857143
 42
50.0
 43
0.0
 44
0.0
 50
0.0
 51
0.0
 71
0
 72
100
 73
1
 74
1
 75
0
 76
0
 77
0
 78
0
  0
ENDTAB
  0
TABLE
  2
LTYPE
  5
5
100
AcDbSymbolTable
 70
6
  0
LTYPE
  5
14
100
AcDbSymbolTableRecord
100
AcDbLinetypeTableRecord
  2
BYBLOCK
 70
0
  3

 72
65
 73
0
 40
0.0
  0
LTYPE
  5
15
100
AcDbSymbolTableRecord
100
AcDbLinetypeTableRecord
  2
BYLAYER
 70
0
  3

 72
65
 73
0
 40
0.0
  0
LTYPE
  5
16
100
AcDbSymbolTableRecord
100
AcDbLinetypeTableRecord
  2
CONTINUOUS
 70
64
  3
Solid line
 72
65
 73
0
 40
0.0
  0
LTYPE
  5
1F5
100
AcDbSymbolTableRecord
100
AcDbLinetypeTableRecord
  2
CENTER
 70
64
  3
____ _ ____ _ ____ _ ____ _ ____ _ ____ _ ____
 72
65
 73
4
 40
0.6
 49
0.375
 74
0
 49
-0.075
 74
0
 49
0.075
 74
0
 49
-0.075
 74
0
  0
LTYPE
  5
1F6
100
AcDbSymbolTableRecord
100
AcDbLinetypeTableRecord
  2
HIDDEN
 70
64
  3
- - - - - - - - - - - - - - - - - - - -
 72
65
 73
2
 40
0.2
 49
0.1
 74
0
 49
-0.1
 74
0
  0
LTYPE
  5
1F7
100
AcDbSymbolTableRecord
100
AcDbLinetypeTableRecord
  2
PHANTOM
 70
64
  3
_____ _ _ _____ _ _ _____ _ _ _____
 72
65
 73
6
 40
0.8
 49
0.45
 74
0
 49
-0.05
 74
0
 49
0.1
 74
0
 49
-0.05
 74
0
 49
0.1
 74
0
 49
-0.05
 74
0
  0
LTYPE
  5
1F8
100
AcDbSymbolTableRecord
100
AcDbLinetypeTableRecord
  2
DOT
 70
64
  3
. . . . . . . . . . . . . . . . . . . .
 72
65
 73
2
 40
0.2
 49
0.1
 74
0
 49
-0.1
 74
0
  0
LTYPE
  5
1F9
100
AcDbSymbolTableRecord
100
AcDbLinetypeTableRecord
  2
DASHED
 70
64
  3
- - - - - - - - - - - - - - - - - - - -
 72
65
 73
2
 40
0.2
 49
0.1
 74
0
 49
-0.1
 74
0
  0
ENDTAB
  0
TABLE
  2
LAYER
  5
2
100
AcDbSymbolTable
 70
36
  0
LAYER
  5
10
100
AcDbSymbolTableRecord
100
AcDbLayerTableRecord
  2
0
 70
0
 62
7
  6
CONTINUOUS
370
-3
390
F
  0
LAYER
  5
1FA
100
AcDbSymbolTableRecord
100
AcDbLayerTableRecord
  2
DEFAULT_1
 70
0
 62
7
  6
CENTER
370
-3
390
F
  0
LAYER
  5
1FB
100
AcDbSymbolTableRecord
100
AcDbLayerTableRecord
  2
DEFAULT_2
 70
0
 62
7
  6
HIDDEN
370
-3
390
F
  0
LAYER
  5
1FC
100
AcDbSymbolTableRecord
100
AcDbLayerTableRecord
  2
DEFAULT_3
 70
0
 62
7
  6
PHANTOM
370
-3
390
F
  0
LAYER
  5
1FD
100
AcDbSymbolTableRecord
100
AcDbLayerTableRecord
  2
262146410
 70
0
 62
7
  6
CONTINUOUS
370
-3
390
F
  0
LAYER
  5
1FE
100
AcDbSymbolTableRecord
100
AcDbLayerTableRecord
  2
262146420
 70
0
 62
7
  6
CONTINUOUS
370
-3
390
F
  0
LAYER
  5
1FF
100
AcDbSymbolTableRecord
100
AcDbLayerTableRecord
  2
262146520
 70
0
 62
7
  6
CONTINUOUS
370
-3
390
F
  0
LAYER
  5
200
100
AcDbSymbolTableRecord
100
AcDbLayerTableRecord
  2
262146530
 70
0
 62
7
  6
CONTINUOUS
370
-3
390
F
  0
LAYER
  5
201
100
AcDbSymbolTableRecord
100
AcDbLayerTableRecord
  2
262146540
 70
0
 62
7
  6
CONTINUOUS
370
-3
390
F
  0
LAYER
  5
202
100
AcDbSymbolTableRecord
100
AcDbLayerTableRecord
  2
262146570
 70
0
 62
7
  6
CONTINUOUS
370
-3
390
F
  0
LAYER
  5
203
100
AcDbSymbolTableRecord
100
AcDbLayerTableRecord
  2
ASSI
 70
0
 62
7
  6
CONTINUOUS
370
-3
390
F
  0
LAYER
  5
204
100
AcDbSymbolTableRecord
100
AcDbLayerTableRecord
  2
COORDINATE
 70
0
 62
7
  6
CONTINUOUS
370
-3
390
F
  0
LAYER
  5
205
100
AcDbSymbolTableRecord
100
AcDbLayerTableRecord
  2
COORD_ORIGINE
 70
0
 62
7
  6
CONTINUOUS
370
-3
390
F
  0
LAYER
  5
206
100
AcDbSymbolTableRecord
100
AcDbLayerTableRecord
  2
COPY_GEOMETRY
 70
0
 62
7
  6
CONTINUOUS
370
-3
390
F
  0
LAYER
  5
207
100
AcDbSymbolTableRecord
100
AcDbLayerTableRecord
  2
CURVE
 70
0
 62
7
  6
CONTINUOUS
370
-3
390
F
  0
LAYER
  5
208
100
AcDbSymbolTableRecord
100
AcDbLayerTableRecord
  2
DRAFT
 70
0
 62
7
  6
CONTINUOUS
370
-3
390
F
  0
LAYER
  5
209
100
AcDbSymbolTableRecord
100
AcDbLayerTableRecord
  2
IGES
 70
0
 62
7
  6
CONTINUOUS
370
-3
390
F
  0
LAYER
  5
20A
100
AcDbSymbolTableRecord
100
AcDbLayerTableRecord
  2
IGES_VERIFICA
 70
0
 62
7
  6
CONTINUOUS
370
-3
390
F
  0
LAYER
  5
20B
100
AcDbSymbolTableRecord
100
AcDbLayerTableRecord
  2
IGES_VIMAR
 70
0
 62
7
  6
CONTINUOUS
370
-3
390
F
  0
LAYER
  5
20C
100
AcDbSymbolTableRecord
100
AcDbLayerTableRecord
  2
INTF_1
 70
0
 62
7
  6
CONTINUOUS
370
-3
390
F
  0
LAYER
  5
20D
100
AcDbSymbolTableRecord
100
AcDbLayerTableRecord
  2
INTF_7
 70
0
 62
7
  6
CONTINUOUS
370
-3
390
F
  0
LAYER
  5
20E
100
AcDbSymbolTableRecord
100
AcDbLayerTableRecord
  2
INTF_GREEN
 70
0
 62
7
  6
CONTINUOUS
370
-3
390
F
  0
LAYER
  5
20F
100
AcDbSymbolTableRecord
100
AcDbLayerTableRecord
  2
INTF_YELLOW
 70
0
 62
7
  6
CONTINUOUS
370
-3
390
F
  0
LAYER
  5
210
100
AcDbSymbolTableRecord
100
AcDbLayerTableRecord
  2
PIANI
 70
0
 62
7
  6
CONTINUOUS
370
-3
390
F
  0
LAYER
  5
211
100
AcDbSymbolTableRecord
100
AcDbLayerTableRecord
  2
PIANI_ANGOLO
 70
0
 62
7
  6
CONTINUOUS
370
-3
390
F
  0
LAYER
  5
212
100
AcDbSymbolTableRecord
100
AcDbLayerTableRecord
  2
PIANI_DENTINI
 70
0
 62
7
  6
CONTINUOUS
370
-3
390
F
  0
LAYER
  5
213
100
AcDbSymbolTableRecord
100
AcDbLayerTableRecord
  2
PIANI_ORIGINE
 70
0
 62
7
  6
CONTINUOUS
370
-3
390
F
  0
LAYER
  5
214
100
AcDbSymbolTableRecord
100
AcDbLayerTableRecord
  2
PIANI_RIFERIMENTO
 70
0
 62
7
  6
CONTINUOUS
370
-3
390
F
  0
LAYER
  5
215
100
AcDbSymbolTableRecord
100
AcDbLayerTableRecord
  2
PUBLISH_GEOM
 70
0
 62
7
  6
CONTINUOUS
370
-3
390
F
  0
LAYER
  5
216
100
AcDbSymbolTableRecord
100
AcDbLayerTableRecord
  2
PUNTI
 70
0
 62
7
  6
CONTINUOUS
370
-3
390
F
  0
LAYER
  5
217
100
AcDbSymbolTableRecord
100
AcDbLayerTableRecord
  2
RACCORDO
 70
0
 62
7
  6
CONTINUOUS
370
-3
390
F
  0
LAYER
  5
218
100
AcDbSymbolTableRecord
100
AcDbLayerTableRecord
  2
RGB__255__255__255__
 70
0
 62
7
  6
CONTINUOUS
370
-3
390
F
  0
LAYER
  5
219
100
AcDbSymbolTableRecord
100
AcDbLayerTableRecord
  2
RGB____0____0____0__
 70
0
 62
7
  6
CONTINUOUS
370
-3
390
F
  0
LAYER
  5
21A
100
AcDbSymbolTableRecord
100
AcDbLayerTableRecord
  2
SNAPLINE
 70
0
 62
7
  6
CONTINUOUS
370
-3
390
F
  0
LAYER
  5
21B
100
AcDbSymbolTableRecord
100
AcDbLayerTableRecord
  2
SOLIDO
 70
0
 62
7
  6
CONTINUOUS
370
-3
390
F
  0
LAYER
  5
21C
100
AcDbSymbolTableRecord
100
AcDbLayerTableRecord
  2
SUPERFICE_ANGOLO
 70
0
 62
7
  6
CONTINUOUS
370
-3
390
F
  0
LAYER
  5
21D
100
AcDbSymbolTableRecord
100
AcDbLayerTableRecord
  2
SUPERFICI
 70
0
 62
7
  6
CONTINUOUS
370
-3
390
F
  0
LAYER
  5
21E
100
AcDbSymbolTableRecord
100
AcDbLayerTableRecord
  2
SUPERFICI_SCRITTA_VIMAR
 70
0
 62
7
  6
CONTINUOUS
370
-3
390
F
  0
LAYER
  5
21F
100
AcDbSymbolTableRecord
100
AcDbLayerTableRecord
  2
SUPERFICI_UTENSILE_INTERNO
 70
0
 62
7
  6
CONTINUOUS
370
-3
390
F
  0
LAYER
  5
220
100
AcDbSymbolTableRecord
100
AcDbLayerTableRecord
  2
TRASH
 70
0
 62
7
  6
CONTINUOUS
370
-3
390
F
  0
ENDTAB
  0
TABLE
  2
STYLE
  5
3
100
AcDbSymbolTable
 70
1
  0
STYLE
  5
11
100
AcDbSymbolTableRecord
100
AcDbTextStyleTableRecord
  2
STANDARD
 70
0
 40
0.0
 41
0.8
 50
0.0
 71
0
 42
0.2
  3
txt
  4

  0
STYLE
  5
221
100
AcDbSymbolTableRecord
100
AcDbTextStyleTableRecord
  2
TEXTSTYLE_1
 70
0
 40
0.0
 41
0.8
 50
0.0
 71
0
 42
0.2
  3
gdt
  4

  0
ENDTAB
  0
TABLE
  2
VIEW
  5
6
100
AcDbSymbolTable
 70
0
  0
ENDTAB
  0
TABLE
  2
UCS
  5
7
100
AcDbSymbolTable
 70
0
  0
ENDTAB
  0
TABLE
  2
APPID
  5
9
100
AcDbSymbolTable
 70
1
  0
APPID
  5
222
100
AcDbSymbolTableRecord
100
AcDbRegAppTableRecord
  2
ACAD
 70
0
  0
ENDTAB
  0
TABLE
  2
BLOCK_RECORD
  5
1
100
AcDbSymbolTable
 70
0
  0
BLOCK_RECORD
  5
223
100
AcDbSymbolTableRecord
100
AcDbBlockTableRecord
  2
*Model_Space
  0
BLOCK_RECORD
  5
224
100
AcDbSymbolTableRecord
100
AcDbBlockTableRecord
  2
*Paper_Space
  0
BLOCK_RECORD
  5
225
100
AcDbSymbolTableRecord
100
AcDbBlockTableRecord
  2
_FILLED
  0
ENDTAB
  0
TABLE
  2
DIMSTYLE
  5
A
100
AcDbSymbolTable
 70
1
100
AcDbDimStyleTable
 71
0
  0
DIMSTYLE
105
226
100
AcDbSymbolTableRecord
100
AcDbDimStyleTableRecord
  2
STANDARD
 70
0
  3

  4

 40
1.0
 41
3.0
 42
0.5
 43
0.38
 44
1.5
 45
0.0
 46
0.0
 47
0.01
 48
0.01
140
3.0
141
0.09
142
0.0
143
25.4
144
1.0
145
0.0
146
1.0
147
0.625
 71
1
 72
0
 73
0
 74
0
 75
0
 76
0
 77
1
 78
8
 79
2
170
0
171
1
172
0
173
0
174
0
175
0
176
0
177
0
178
0
270
2
179
2
271
2
272
2
273
2
274
2
275
0
280
0
281
0
282
0
283
1
284
8
285
0
286
0
287
3
288
0
340
11
278
44
341
225
342
225
343
225
344
225
  0
ENDTAB
  0
ENDSEC
  0
SECTION
  2
BLOCKS
  0
BLOCK
  5
20
100
AcDbEntity
  8
0
100
AcDbBlockBegin
  2
*Model_Space
 70
0
 10
0.0
 20
0.0
 30
0.0
  3
*Model_Space
  1

  0
ENDBLK
  5
21
100
AcDbEntity
  8
0
100
AcDbBlockEnd
  0
BLOCK
  5
1C
100
AcDbEntity
  8
0
100
AcDbBlockBegin
  2
*Paper_Space
 70
0
 10
0.0
 20
0.0
 30
0.0
  3
*Paper_Space
  1

  0
ENDBLK
  5
1D
100
AcDbEntity
  8
0
100
AcDbBlockEnd
  0
BLOCK
  5
227
100
AcDbEntity
  8
0
100
AcDbBlockBegin
  2
_FILLED
 70
64
 10
0.0
 20
0.0
  3
_FILLED
  1

  0
SOLID
  5
228
100
AcDbEntity
  8
0
  6
BYBLOCK
 62
0
100
AcDbTrace
 10
0.0
 20
0.0
 11
-1.0
 21
0.3166666667
 12
-1.0
 22
-0.3166666667
 13
-1.0
 23
-0.3166666667
  0
ENDBLK
  5
229
100
AcDbEntity
  8
0
  6
BYBLOCK
 62
0
100
AcDbBlockEnd
  0
ENDSEC
  0
SECTION
  2
ENTITIES
  0
LWPOLYLINE
  5
22A
100
AcDbEntity
  8
RACCORDO
100
AcDbPolyline
 62
7
  6
CONTINUOUS
 90
8
 70
0
 10
-64.6460941541
 20
47.8958185778
 10
-64.7343205085
 20
47.7536894221
 10
-64.8155548308
 20
47.5906721216
 10
-64.881674024
 20
47.4184448482
 10
-64.9319452244
 20
47.2382383838
 10
-64.9657396356
 20
47.0516162704
 10
-64.9828372141
 20
46.8598531109
 10
-64.9850877909
 20
46.7424992863
  0
LINE
  5
22B
100
AcDbEntity
  8
RACCORDO
100
AcDbLine
 62
7
  6
CONTINUOUS
 10
-64.6449831674
 20
47.897445799
 11
-64.645923268
 21
47.8960744924
  0
LINE
  5
22C
100
AcDbEntity
  8
SUPERFICI
100
AcDbLine
 62
7
  6
CONTINUOUS
 10
-62.8445202161
 20
50.5202122761
 11
-64.6449803477
 21
47.8974499064
  0
LINE
  5
22D
100
AcDbEntity
  8
RACCORDO
100
AcDbLine
 62
250
  6
CONTINUOUS
 10
-60.4970986424
 20
51.0565727148
 11
-62.4890935306
 21
48.3761655239
  0
LINE
  5
22E
100
AcDbEntity
  8
RACCORDO
100
AcDbLine
 62
250
  6
CONTINUOUS
 10
-64.5461680152
 20
46.0701260559
 11
-64.5533600402
 21
45.7863094205
  0
LWPOLYLINE
  5
22F
100
AcDbEntity
  8
RACCORDO
100
AcDbPolyline
 62
250
  6
CONTINUOUS
 90
7
 70
0
 10
-64.5533600402
 20
45.7863094205
 10
-64.5552027333
 20
45.725812378
 10
-64.5559359353
 20
45.6960079491
 10
-64.556469489
 20
45.6663195815
 10
-64.5568324581
 20
45.6369038192
 10
-64.5568994995
 20
45.6073066581
 10
-64.5565230471
 20
45.5773226779
  0
LWPOLYLINE
  5
230
100
AcDbEntity
  8
RACCORDO
100
AcDbPolyline
 62
250
  6
CONTINUOUS
 90
13
 70
0
 10
-62.9371764916
 20
47.1738071578
 10
-62.9288556391
 20
47.274034675
 10
-62.9140094773
 20
47.379095181
 10
-62.8928386441
 20
47.4875686992
 10
-62.8656292632
 20
47.5979891248
 10
-62.8327490768
 20
47.7088640403
 10
-62.7946424751
 20
47.8186948863
 10
-62.7518244893
 20
47.9259972155
 10
-62.7048738317
 20
48.0293207567
 10
-62.6544250743
 20
48.1272690158
 10
-62.601160069
 20
48.2185181502
 10
-62.5457987321
 20
48.3018348607
 10
-62.4890893148
 20
48.3760930613
  0
LWPOLYLINE
  5
231
100
AcDbEntity
  8
RACCORDO
100
AcDbPolyline
 62
250
  6
CONTINUOUS
 90
3
 70
0
 10
-63.1488746739
 20
-10.7156031389
 10
-63.13175842
 20
-10.9393486539
 10
-63.1134951569
 20
-11.1856896712
  0
LWPOLYLINE
  5
232
100
AcDbEntity
  8
RACCORDO
100
AcDbPolyline
 62
7
  6
CONTINUOUS
 90
18
 70
0
 10
-63.5568286869
 20
-10.6710331202
 10
-63.5496799888
 20
-10.776526878
 10
-63.5208809561
 20
-10.9858848808
 10
-63.4723403114
 20
-11.1973665295
 10
-63.4042477318
 20
-11.4092300594
 10
-63.3176189684
 20
-11.618615145
 10
-63.2129896799
 20
-11.8244768325
 10
-63.0907989162
 20
-12.0259642228
 10
-62.9527623651
 20
-12.2205239167
 10
-62.7997387205
 20
-12.4070791119
 10
-62.632500324
 20
-12.5846659698
 10
-62.4533937737
 20
-12.7510555259
 10
-62.2635576043
 20
-12.905331663
 10
-62.0640700577
 20
-13.0466019113
 10
-61.8575936818
 20
-13.1731649039
 10
-61.6457808602
 20
-13.284156991
 10
-61.4293742444
 20
-13.3792567581
 10
-61.2728200081
 20
-13.4371255006
  0
LINE
  5
233
100
AcDbEntity
  8
RACCORDO
100
AcDbLine
 62
7
  6
CONTINUOUS
 10
-63.5568286869
 20
-10.6710331202
 11
-63.5568748218
 21
-10.6699500814
  0
LWPOLYLINE
  5
234
100
AcDbEntity
  8
RACCORDO
100
AcDbPolyline
 62
250
  6
CONTINUOUS
 90
6
 70
0
 10
-63.1627536945
 20
-10.4699588371
 10
-63.1609805956
 20
-10.5170221122
 10
-63.1587160515
 20
-10.5647822655
 10
-63.1559547214
 20
-10.6132999514
 10
-63.1526658647
 20
-10.6635413058
 10
-63.1488746739
 20
-10.7156031389
  0
LINE
  5
235
100
AcDbEntity
  8
RACCORDO
100
AcDbLine
 62
250
  6
CONTINUOUS
 10
-63.1656699758
 20
-10.3766668781
 11
-63.1627536945
 21
-10.4699588371
  0
LINE
  5
236
100
AcDbEntity
  8
RACCORDO
100
AcDbLine
 62
250
  6
CONTINUOUS
 10
-63.5762346774
 20
1.8917398206
 11
-63.1656699758
 21
-10.3766668781
  0
LINE
  5
237
100
AcDbEntity
  8
RACCORDO
100
AcDbLine
 62
250
  6
CONTINUOUS
 10
-63.730343794
 20
7.484581678
 11
-63.5762346774
 21
1.8917398206
  0
LINE
  5
238
100
AcDbEntity
  8
RACCORDO
100
AcDbLine
 62
7
  6
CONTINUOUS
 10
-64.1404722913
 20
11.0259041148
 11
-63.5569768806
 21
-10.6699543567
  0
LINE
  5
239
100
AcDbEntity
  8
RACCORDO
100
AcDbLine
 62
250
  6
CONTINUOUS
 10
-63.9204711141
 20
15.3066292219
 11
-63.730343794
 21
7.484581678
  0
LINE
  5
23A
100
AcDbEntity
  8
RACCORDO
100
AcDbLine
 62
7
  6
CONTINUOUS
 10
-64.881262817
 20
41.7707878235
 11
-64.1404722913
 21
11.0259041148
  0
LINE
  5
23B
100
AcDbEntity
  8
RACCORDO
100
AcDbLine
 62
250
  6
CONTINUOUS
 10
-64.3235054372
 20
31.6698743759
 11
-63.9204711141
 21
15.3066292219
  0
LINE
  5
23C
100
AcDbEntity
  8
RACCORDO
100
AcDbLine
 62
250
  6
CONTINUOUS
 10
-64.5565230471
 20
45.5773226779
 11
-64.5552243064
 21
45.5158962188
  0
LINE
  5
23D
100
AcDbEntity
  8
RACCORDO
100
AcDbLine
 62
7
  6
CONTINUOUS
 10
-64.9851941481
 20
46.7430462998
 11
-64.881262817
 21
41.7707878235
  0
LINE
  5
23E
100
AcDbEntity
  8
RACCORDO
100
AcDbLine
 62
250
  6
CONTINUOUS
 10
-64.4229676025
 20
36.9549519427
 11
-64.3235054372
 21
31.6698743759
  0
LINE
  5
23F
100
AcDbEntity
  8
RACCORDO
100
AcDbLine
 62
250
  6
CONTINUOUS
 10
-64.5552243064
 20
45.5158962188
 11
-64.4229676025
 21
36.9549519427
  0
LINE
  5
240
100
AcDbEntity
  8
RACCORDO
100
AcDbLine
 62
7
  6
CONTINUOUS
 10
-64.9851916388
 20
46.7424987248
 11
-64.9851941481
 21
46.7430462998
  0
LINE
  5
241
100
AcDbEntity
  8
RACCORDO
100
AcDbLine
 62
250
  6
CONTINUOUS
 10
-64.5421073339
 20
46.2422707164
 11
-64.5461680152
 21
46.0701260559
  0
LWPOLYLINE
  5
242
100
AcDbEntity
  8
RACCORDO
100
AcDbPolyline
 62
250
  6
CONTINUOUS
 90
7
 70
0
 10
-61.4368299021
 20
-13.1380212459
 10
-61.4240999611
 20
-13.2151416641
 10
-61.4049674672
 20
-13.2824682981
 10
-61.3796910226
 20
-13.3390911002
 10
-61.3486122769
 20
-13.3842447059
 10
-61.3121513094
 20
-13.4173187797
 10
-61.2728411108
 20
-13.4371874435
  0
LWPOLYLINE
  5
243
100
AcDbEntity
  8
RACCORDO
100
AcDbPolyline
 62
250
  6
CONTINUOUS
 90
19
 70
0
 10
-63.1134886898
 20
-11.1856831711
 10
-63.0985972976
 20
-11.3094189695
 10
-63.0721330761
 20
-11.4364599244
 10
-63.0341705885
 20
-11.5657286646
 10
-62.9849668985
 20
-11.6962890336
 10
-62.9248280922
 20
-11.8271431847
 10
-62.8541277708
 20
-11.9572158282
 10
-62.7733708277
 20
-12.0855552747
 10
-62.6831568176
 20
-12.2112267959
 10
-62.5841663457
 20
-12.33320023
 10
-62.4771432107
 20
-12.4505441769
 10
-62.3628955354
 20
-12.562518282
 10
-62.24222634
 20
-12.6683933056
 10
-62.1159344052
 20
-12.7674443378
 10
-61.9850186185
 20
-12.8589739526
 10
-61.8505908819
 20
-12.9423233167
 10
-61.7136808804
 20
-13.0169154328
 10
-61.5753349831
 20
-13.0822808646
 10
-61.4368237256
 20
-13.1380130249
  0
LINE
  5
244
100
AcDbEntity
  8
RACCORDO
100
AcDbLine
 62
250
  6
CONTINUOUS
 10
-45.31856623
 20
-7.3623241739
 11
-45.3548594171
 21
-6.3172029387
  0
LINE
  5
245
100
AcDbEntity
  8
RACCORDO
100
AcDbLine
 62
250
  6
CONTINUOUS
 10
-45.3548594171
 20
-6.3172029387
 11
-45.4562532608
 21
-2.7402534745
  0
LINE
  5
246
100
AcDbEntity
  8
RACCORDO
100
AcDbLine
 62
250
  6
CONTINUOUS
 10
-45.4562532608
 20
-2.7402534745
 11
-45.8484937486
 21
12.6433299145
  0
LINE
  5
247
100
AcDbEntity
  8
RACCORDO
100
AcDbLine
 62
250
  6
CONTINUOUS
 10
-44.0920034304
 20
-8.1597776672
 11
-44.9522515228
 21
26.4208419746
  0
LINE
  5
248
100
AcDbEntity
  8
RACCORDO
100
AcDbLine
 62
250
  6
CONTINUOUS
 10
-45.8484937486
 20
12.6433299145
 11
-46.151867416
 21
25.5840379512
  0
LWPOLYLINE
  5
249
100
AcDbEntity
  8
RACCORDO
100
AcDbPolyline
 62
250
  6
CONTINUOUS
 90
3
 70
0
 10
-46.151867416
 20
25.5840379512
 10
-46.1710373142
 20
26.6708084766
 10
-46.1780100686
 20
27.1859930594
  0
LWPOLYLINE
  5
24A
100
AcDbEntity
  8
RACCORDO
100
AcDbPolyline
 62
250
  6
CONTINUOUS
 90
75
 70
0
 10
-44.9522515228
 20
26.4208419746
 10
-44.9525310254
 20
26.4803616429
 10
-44.9501160015
 20
26.5369716493
 10
-44.945280481
 20
26.5906752379
 10
-44.9383145242
 20
26.6413373844
 10
-44.929469317
 20
26.6891509474
 10
-44.9188912403
 20
26.7346065066
 10
-44.9067217117
 20
26.7778445621
 10
-44.8931802274
 20
26.818784309
 10
-44.878456738
 20
26.8575715547
 10
-44.8627254099
 20
26.8942731844
 10
-44.8461345741
 20
26.9289281985
 10
-44.8288133052
 20
26.9616452484
 10
-44.810936041
 20
26.9924351322
 10
-44.7926063278
 20
27.0214107736
 10
-44.7738102732
 20
27.0488186458
 10
-44.7546290428
 20
27.074731574
 10
-44.7351784484
 20
27.0991756098
 10
-44.7154569067
 20
27.1223038047
 10
-44.6955180414
 20
27.1441859294
 10
-44.6754597291
 20
27.1648388917
 10
-44.6553281231
 20
27.1843261034
 10
-44.6351865153
 20
27.2026932396
 10
-44.6151013088
 20
27.2199810667
 10
-44.5951153147
 20
27.2362424058
 10
-44.5752862203
 20
27.2515182604
 10
-44.5556664171
 20
27.265851412
 10
-44.5362841027
 20
27.2792941456
 10
-44.5172013009
 20
27.2918760073
 10
-44.4984482218
 20
27.3036462741
 10
-44.4799967346
 20
27.314680383
 10
-44.461914081
 20
27.3249945527
 10
-44.4442051762
 20
27.3346400116
 10
-44.4267346182
 20
27.3437310488
 10
-44.4095312328
 20
27.3522879449
 10
-44.3926137729
 20
27.3603366045
 10
-44.3758157766
 20
27.3679818804
 10
-44.3591051234
 20
27.375259717
 10
-44.3425414394
 20
27.3821600512
 10
-44.3260866586
 20
27.388707643
 10
-44.3097766074
 20
27.3949070376
 10
-44.2935989156
 20
27.4007766929
 10
-44.2774379255
 20
27.4063548374
 10
-44.2613364603
 20
27.4116344886
 10
-44.2452671094
 20
27.4166355565
 10
-44.2289994687
 20
27.4214224962
 10
-44.2125706319
 20
27.425983647
 10
-44.1959467344
 20
27.4303255966
 10
-44.1787770045
 20
27.4345177544
 10
-44.1610488686
 20
27.4385368121
 10
-44.1427620867
 20
27.4423720534
 10
-44.1235681489
 20
27.4460840329
 10
-44.103349961
 20
27.449654349
 10
-44.0821945095
 20
27.4530317217
 10
-44.0600497204
 20
27.4562099523
 10
-44.0369123139
 20
27.4591561786
 10
-44.0127556987
 20
27.4618248319
 10
-43.9874899979
 20
27.4641830909
 10
-43.9611395477
 20
27.4661800359
 10
-43.9336506403
 20
27.4677723075
 10
-43.9048107991
 20
27.4689216726
 10
-43.8745777253
 20
27.4695651216
 10
-43.8429601086
 20
27.46963581
 10
-43.8098161315
 20
27.4690682342
 10
-43.7749879426
 20
27.4677806412
 10
-43.7386032343
 20
27.4656895129
 10
-43.7009555154
 20
27.4627346962
 10
-43.6621515528
 20
27.4588849261
 10
-43.6220863961
 20
27.4540442493
 10
-43.5807499206
 20
27.4480720593
 10
-43.5382792494
 20
27.4409137326
 10
-43.4945662592
 20
27.4324907536
 10
-43.4492397556
 20
27.422596797
 10
-43.4021930746
 20
27.4110841992
 10
-43.3535871227
 20
27.3978954378
  0
LWPOLYLINE
  5
24B
100
AcDbEntity
  8
RACCORDO
100
AcDbPolyline
 62
250
  6
CONTINUOUS
 90
76
 70
0
 10
-46.1780110018
 20
27.1859919858
 10
-46.1766320083
 20
27.2996653802
 10
-46.1700150135
 20
27.4076766579
 10
-46.158660566
 20
27.5101768665
 10
-46.1429161103
 20
27.607134468
 10
-46.1233839961
 20
27.6987621321
 10
-46.1009514097
 20
27.7853232204
 10
-46.0763116351
 20
27.8666482567
 10
-46.0498339222
 20
27.9425897663
 10
-46.0217113246
 20
28.0138663963
 10
-45.9923105434
 20
28.0810581506
 10
-45.9617189259
 20
28.1444927183
 10
-45.9296542412
 20
28.2043064428
 10
-45.8962495858
 20
28.2604258538
 10
-45.8618907345
 20
28.3130934395
 10
-45.8266107984
 20
28.3628195328
 10
-45.7905707033
 20
28.4097472659
 10
-45.7539783821
 20
28.4538959881
 10
-45.7168615503
 20
28.4955569147
 10
-45.6793223421
 20
28.5348511892
 10
-45.6415419114
 20
28.5718072493
 10
-45.6036320623
 20
28.6065628363
 10
-45.5657130864
 20
28.6391992981
 10
-45.5279066717
 20
28.6697884494
 10
-45.4903087564
 20
28.6984516816
 10
-45.453023629
 20
28.7252645023
 10
-45.4161454886
 20
28.7503043987
 10
-45.37974154
 20
28.7736907891
 10
-45.3439253324
 20
28.7954786449
 10
-45.3087493833
 20
28.8157547841
 10
-45.2741721768
 20
28.8346761362
 10
-45.2403162309
 20
28.8522769206
 10
-45.2071856584
 20
28.8686455926
 10
-45.1745363783
 20
28.8839962079
 10
-45.1424308193
 20
28.8983634748
 10
-45.1108890661
 20
28.9117963447
 10
-45.0795719233
 20
28.9245007363
 10
-45.0484382764
 20
28.9365062409
 10
-45.0175531582
 20
28.9478424307
 10
-44.9866295876
 20
28.9587152972
 10
-44.9555434521
 20
28.9691822318
 10
-44.9241904369
 20
28.9792838168
 10
-44.8923867688
 20
28.9891371904
 10
-44.8602652453
 20
28.9986819769
 10
-44.827868765
 20
29.0078845721
 10
-44.7948531597
 20
29.0168808527
 10
-44.7612346992
 20
29.0256593623
 10
-44.7269765413
 20
29.0341840218
 10
-44.691679973
 20
29.0425107668
 10
-44.6554853609
 20
29.0506873427
 10
-44.6185340949
 20
29.0585058155
 10
-44.5804841646
 20
29.0656201862
 10
-44.5414260119
 20
29.0718193366
 10
-44.5016738262
 20
29.0772390287
 10
-44.4609460487
 20
29.0820717897
 10
-44.4189375591
 20
29.0863703109
 10
-44.3751814341
 20
29.0900971006
 10
-44.3292109538
 20
29.0932486668
 10
-44.281098871
 20
29.0957334176
 10
-44.2309640098
 20
29.0974388139
 10
-44.1785120043
 20
29.0982737273
 10
-44.1236494401
 20
29.0981305176
 10
-44.0663503518
 20
29.0969029782
 10
-44.0064045764
 20
29.0944832735
 10
-43.9437429779
 20
29.0906453442
 10
-43.8785680161
 20
29.0853815591
 10
-43.8108117897
 20
29.0788548039
 10
-43.7399606173
 20
29.0707655002
 10
-43.6653271642
 20
29.0609197081
 10
-43.5868175208
 20
29.049611081
 10
-43.5050358286
 20
29.0370505107
 10
-43.4204138003
 20
29.0226068823
 10
-43.3328050733
 20
29.0053313874
 10
-43.2420528471
 20
28.9847652095
 10
-43.1482609859
 20
28.9609482513
 10
-43.0514724141
 20
28.9336712939
  0
LWPOLYLINE
  5
24C
100
AcDbEntity
  8
RACCORDO
100
AcDbPolyline
 62
250
  6
CONTINUOUS
 90
10
 70
0
 10
-43.3034586204
 20
27.3829303973
 10
-43.2555031253
 20
27.56422966
 10
-43.2122049785
 20
27.7449265436
 10
-43.173736002
 20
27.9243034442
 10
-43.1402488401
 20
28.101648
 10
-43.1118763538
 20
28.2762559197
 10
-43.0887310929
 20
28.4474337792
 10
-43.0709048489
 20
28.6145017755
 10
-43.058468291
 20
28.7767964263
 10
-43.0514706849
 20
28.9336732046
  0
LWPOLYLINE
  5
24D
100
AcDbEntity
  8
RACCORDO
100
AcDbPolyline
 62
250
  6
CONTINUOUS
 90
4
 70
0
 10
-43.2035336766
 20
26.4114191132
 10
-43.2326264629
 20
26.3798222236
 10
-43.3069712313
 20
26.3175741958
 10
-43.3925599131
 20
26.2613345802
  0
LINE
  5
24E
100
AcDbEntity
  8
DRAFT
100
AcDbLine
 62
7
  6
CONTINUOUS
 10
-41.3949185562
 20
-6.9610245939
 11
-41.3994047375
 21
-6.9188360845
  0
LINE
  5
24F
100
AcDbEntity
  8
0
100
AcDbLine
 62
250
  6
CONTINUOUS
 10
-43.1694847802
 20
26.4009630269
 11
-42.3103856827
 21
-8.1334688339
  0
LINE
  5
250
100
AcDbEntity
  8
0
100
AcDbLine
 62
7
  6
CONTINUOUS
 10
-41.4019019664
 20
-6.9950119132
 11
-42.2254684494
 21
26.1110647573
  0
LINE
  5
251
100
AcDbEntity
  8
DRAFT
100
AcDbLine
 62
7
  6
CONTINUOUS
 10
-41.3994047375
 20
-6.9188360845
 11
-42.2210424132
 21
26.1097055645
  0
LINE
  5
252
100
AcDbEntity
  8
DRAFT
100
AcDbLine
 62
7
  6
CONTINUOUS
 10
-41.7597350467
 20
22.2397366266
 11
-41.8531512708
 21
25.9967297588
  0
LINE
  5
253
100
AcDbEntity
  8
DRAFT
100
AcDbLine
 62
7
  6
CONTINUOUS
 10
-41.0430156415
 20
-6.6039954475
 11
-41.7597350467
 21
22.2397366266
  0
LWPOLYLINE
  5
254
100
AcDbEntity
  8
RACCORDO
100
AcDbPolyline
 62
250
  6
CONTINUOUS
 90
10
 70
0
 10
-32.6691359617
 20
37.958801859
 10
-32.648014821
 20
38.0813591254
 10
-32.6198296714
 20
38.2065665226
 10
-32.5850630465
 20
38.3322832032
 10
-32.5443109638
 20
38.4563599015
 10
-32.4982702061
 20
38.5766749057
 10
-32.4477263921
 20
38.6911703344
 10
-32.3935438879
 20
38.7978883591
 10
-32.3366510117
 20
38.8950046775
 10
-32.2780216325
 20
38.9808589292
  0
LWPOLYLINE
  5
255
100
AcDbEntity
  8
RACCORDO
100
AcDbPolyline
 62
250
  6
CONTINUOUS
 90
10
 70
0
 10
-33.9061208636
 20
24.5002288817
 10
-33.8586974639
 20
24.6855391153
 10
-33.8161007563
 20
24.8702429119
 10
-33.778506475
 20
25.0535782698
 10
-33.7460697163
 20
25.2347888331
 10
-33.7189242993
 20
25.4131270116
 10
-33.6971822132
 20
25.5878570654
 10
-33.6809331558
 20
25.7582581399
 10
-33.670244163
 20
25.9236272398
 10
-33.6651593327
 20
26.0832821296
  0
LWPOLYLINE
  5
256
100
AcDbEntity
  8
RACCORDO
100
AcDbPolyline
 62
250
  6
CONTINUOUS
 90
16
 70
0
 10
-43.3925599131
 20
26.2613345802
 10
-43.4881167415
 20
26.2119416726
 10
-43.5922173671
 20
26.170131713
 10
-43.7033100882
 20
26.1365279118
 10
-43.8197389803
 20
26.1116311601
 10
-43.9397685793
 20
26.0958125634
 10
-44.0616097498
 20
26.0893079105
 10
-44.1834463532
 20
26.0922141582
 10
-44.3034623193
 20
26.1044879867
 10
-44.4198687156
 20
26.125946445
 10
-44.5309303885
 20
26.1562696697
 10
-44.6349919045
 20
26.1950056736
 10
-44.7305022087
 20
26.2415771012
 10
-44.8160376429
 20
26.2952897968
 10
-44.8903231854
 20
26.3553431325
 10
-44.9522515228
 20
26.4208419746
  0
LWPOLYLINE
  5
257
100
AcDbEntity
  8
RACCORDO
100
AcDbPolyline
 62
250
  6
CONTINUOUS
 90
10
 70
0
 10
39.0745754632
 20
-33.6994312344
 10
39.2717658702
 20
-33.6791305228
 10
39.4701441434
 20
-33.6671031284
 10
39.6688391101
 20
-33.6634017835
 10
39.8669782077
 20
-33.6680426618
 10
40.0636913143
 20
-33.6810053072
 10
40.2581145707
 20
-33.702232724
 10
40.4493941736
 20
-33.731631627
 10
40.6366901252
 20
-33.7690728517
 10
40.8191799217
 20
-33.8143919211
  0
LWPOLYLINE
  5
258
100
AcDbEntity
  8
RACCORDO
100
AcDbPolyline
 62
250
  6
CONTINUOUS
 90
13
 70
0
 10
61.8295703902
 20
-49.5544946709
 10
61.9410831534
 20
-49.5735090705
 10
62.055765025
 20
-49.5837933406
 10
62.1720573096
 20
-49.5852077033
 10
62.2883794238
 20
-49.577732936
 10
62.4031503788
 20
-49.5614706324
 10
62.5148102687
 20
-49.5366418219
 10
62.6218414709
 20
-49.5035839648
 10
62.7227892739
 20
-49.4627463669
 10
62.8162816486
 20
-49.4146840726
 10
62.9010478958
 20
-49.3600503199
 10
62.9759359175
 20
-49.2995876623
 10
63.0399278749
 20
-49.2341178772
  0
LWPOLYLINE
  5
259
100
AcDbEntity
  8
RACCORDO
100
AcDbPolyline
 62
250
  6
CONTINUOUS
 90
19
 70
0
 10
60.216282683
 20
-50.4965034363
 10
60.359588883
 20
-50.5273146656
 10
60.5014214607
 20
-50.547989277
 10
60.6406044145
 20
-50.5581825915
 10
60.7761695107
 20
-50.5577453875
 10
60.9071537815
 20
-50.5466427275
 10
61.0325143236
 20
-50.5248717171
 10
61.1513163846
 20
-50.4925359754
 10
61.2628074055
 20
-50.4498840145
 10
61.366226611
 20
-50.3971648544
 10
61.4608056712
 20
-50.3346347419
 10
61.5458328253
 20
-50.2627780813
 10
61.620657396
 20
-50.1822161961
 10
61.684705994
 20
-50.0935236002
 10
61.7374902525
 20
-49.9973469713
 10
61.7786420244
 20
-49.8945338635
 10
61.8078553002
 20
-49.7858942057
 10
61.8248651571
 20
-49.6722038854
 10
61.8295744075
 20
-49.5544874042
  0
LWPOLYLINE
  5
25A
100
AcDbEntity
  8
RACCORDO
100
AcDbPolyline
 62
250
  6
CONTINUOUS
 90
10
 70
0
 10
-63.1134886898
 20
-11.1856831711
 10
-63.2063891002
 20
-11.1419182233
 10
-63.2904754066
 20
-11.0911579634
 10
-63.3646048763
 20
-11.0340922204
 10
-63.42777009
 20
-10.9714965152
 10
-63.4791126328
 20
-10.9042215214
 10
-63.5179347597
 20
-10.8331815047
 10
-63.543708878
 20
-10.7593418973
 10
-63.5560847175
 20
-10.6837061789
 10
-63.5568286869
 20
-10.6710331202
  0
LWPOLYLINE
  5
25B
100
AcDbEntity
  8
RACCORDO
100
AcDbPolyline
 62
250
  6
CONTINUOUS
 90
10
 70
0
 10
-42.3699154747
 20
-10.1440868815
 10
-42.3159891337
 20
-10.2027231139
 10
-42.2664682091
 20
-10.2720940071
 10
-42.2215493598
 20
-10.3519240792
 10
-42.1814109689
 20
-10.4418963135
 10
-42.1462124355
 20
-10.5416534178
 10
-42.1160935417
 20
-10.6507992427
 10
-42.0911738971
 20
-10.7689003554
 10
-42.0715524644
 20
-10.8954877607
 10
-42.0573071661
 20
-11.0300587631
  0
LWPOLYLINE
  5
25C
100
AcDbEntity
  8
RACCORDO
100
AcDbPolyline
 62
250
  6
CONTINUOUS
 90
10
 70
0
 10
-44.0920020432
 20
-8.1597772004
 10
-44.1880584394
 20
-8.0494191736
 10
-44.2954303868
 20
-7.9434957266
 10
-44.4136463774
 20
-7.8424720014
 10
-44.5421872834
 20
-7.7467916236
 10
-44.6804886364
 20
-7.6568747543
 10
-44.8279431067
 20
-7.573116245
 10
-44.98390317
 20
-7.4958839037
 10
-45.1476839507
 20
-7.4255168796
 10
-45.31856623
 20
-7.3623241739
  0
LWPOLYLINE
  5
25D
100
AcDbEntity
  8
DRAFT
100
AcDbPolyline
 62
7
  6
CONTINUOUS
 90
6
 70
0
 10
-41.2909649455
 20
-7.1670600718
 10
-41.3217406851
 20
-7.1278663116
 10
-41.3484085924
 20
-7.0863068243
 10
-41.3696416527
 20
-7.044420199
 10
-41.3849975279
 20
-7.0028859654
 10
-41.3949185562
 20
-6.9610245939
  0
LWPOLYLINE
  5
25E
100
AcDbEntity
  8
DRAFT
100
AcDbPolyline
 62
7
  6
CONTINUOUS
 90
7
 70
0
 10
-40.9788465564
 20
-6.7705720856
 10
-40.9915151613
 20
-6.7525809385
 10
-41.0029233645
 20
-6.7342120911
 10
-41.0130058431
 20
-6.7155726752
 10
-41.0217030887
 20
-6.6967773958
 10
-41.0289686395
 20
-6.6779294137
 10
-41.0347648919
 20
-6.6591197635
  0
LWPOLYLINE
  5
25F
100
AcDbEntity
  8
RACCORDO
100
AcDbPolyline
 62
250
  6
CONTINUOUS
 90
5
 70
0
 10
-31.160926659
 20
-22.6688388209
 10
-31.1351434173
 20
-22.7325747222
 10
-31.1025902842
 20
-22.7816162955
 10
-31.0638239125
 20
-22.8151249386
 10
-31.032799285
 20
-22.8291888921
  0
LWPOLYLINE
  5
260
100
AcDbEntity
  8
DRAFT
100
AcDbPolyline
 62
7
  6
CONTINUOUS
 90
4
 70
0
 10
-41.0347648919
 20
-6.6591197635
 10
-41.0390559954
 20
-6.6404519368
 10
-41.0418125578
 20
-6.622041188
 10
-41.0430156415
 20
-6.6039954475
  0
LWPOLYLINE
  5
261
100
AcDbEntity
  8
0
100
AcDbPolyline
 62
250
  6
CONTINUOUS
 90
10
 70
0
 10
-42.3103856827
 20
-8.1334688339
 10
-42.3053214993
 20
-8.1751068763
 10
-42.2922924253
 20
-8.2179729615
 10
-42.2716943423
 20
-8.260764625
 10
-42.2441531128
 20
-8.302181664
 10
-42.210505563
 20
-8.3409656425
 10
-42.1717740568
 20
-8.3759381291
 10
-42.1291354313
 20
-8.4060365025
 10
-42.0838852396
 20
-8.4303462387
 10
-42.0373983859
 20
-8.4481286988
  0
LWPOLYLINE
  5
262
100
AcDbEntity
  8
RACCORDO
100
AcDbPolyline
 62
250
  6
CONTINUOUS
 90
13
 70
0
 10
-32.6697102314
 20
-13.9321970126
 10
-32.62666478
 20
-14.5152773648
 10
-32.5741262185
 20
-15.1309925303
 10
-32.5049975369
 20
-15.8327754356
 10
-32.4163319283
 20
-16.6097217101
 10
-32.308344906
 20
-17.4270334407
 10
-32.1847782968
 20
-18.2404963238
 10
-32.0522460249
 20
-19.0086417348
 10
-31.9108783637
 20
-19.7381035442
 10
-31.7548714315
 20
-20.4598978404
 10
-31.5779005875
 20
-21.1951106856
 10
-31.3800200378
 20
-21.93400187
 10
-31.1609266673
 20
-22.6688387945
  0
LWPOLYLINE
  5
263
100
AcDbEntity
  8
RACCORDO
100
AcDbPolyline
 62
250
  6
CONTINUOUS
 90
13
 70
0
 10
-33.6651593327
 20
26.0832821296
 10
-33.6528497065
 20
26.7357285736
 10
-33.6331955946
 20
27.4419094206
 10
-33.6021071766
 20
28.2692767672
 10
-33.556289614
 20
29.2147493113
 10
-33.4942663833
 20
30.2451088718
 10
-33.417419797
 20
31.3097189536
 10
-33.3299630929
 20
32.3535424794
 10
-33.2323387335
 20
33.3824958274
 10
-33.1205902532
 20
34.4398262115
 10
-32.9897927987
 20
35.5607168803
 10
-32.839527328
 20
36.7358848879
 10
-32.6691359617
 20
37.958801859
  0
LINE
  5
264
100
AcDbEntity
  8
DRAFT
100
AcDbLine
 62
250
  6
CONTINUOUS
 10
-40.7702283276
 20
-6.9194803648
 11
-41.0399435603
 21
-7.3331704025
  0
LWPOLYLINE
  5
265
100
AcDbEntity
  8
RACCORDO
100
AcDbPolyline
 62
250
  6
CONTINUOUS
 90
19
 70
0
 10
-42.0373983859
 20
-8.4481286988
 10
-42.0929922825
 20
-8.5238378572
 10
-42.1474543632
 20
-8.6101218562
 10
-42.1999614518
 20
-8.7056765418
 10
-42.2497199213
 20
-8.809057637
 10
-42.2959776891
 20
-8.9187025711
 10
-42.3380355844
 20
-9.0329540977
 10
-42.3752579164
 20
-9.1500853431
 10
-42.4070820818
 20
-9.2683259078
 10
-42.4330270691
 20
-9.3858886253
 10
-42.4527007284
 20
-9.5009965742
 10
-42.4658056991
 20
-9.6119099367
 10
-42.4721439038
 20
-9.7169522942
 10
-42.4716195479
 20
-9.8145358444
 10
-42.4642405696
 20
-9.9031857903
 10
-42.4501184309
 20
-9.9815625076
 10
-42.4294664749
 20
-10.0484813041
 10
-42.4025967931
 20
-10.1029304581
 10
-42.3699154504
 20
-10.1440868179
  0
LWPOLYLINE
  5
266
100
AcDbEntity
  8
RACCORDO
100
AcDbPolyline
 62
7
  6
CONTINUOUS
 90
13
 70
0
 10
60.3608635604
 20
-50.7896724185
 10
60.5726907313
 20
-50.8402537122
 10
60.8164815431
 20
-50.8793946811
 10
61.0551183731
 20
-50.8971480669
 10
61.2872635446
 20
-50.8938925143
 10
61.5118828726
 20
-50.8700272251
 10
61.7278790881
 20
-50.8258408808
 10
61.9337465901
 20
-50.7619127771
 10
62.1281568614
 20
-50.6789554297
 10
62.3097919542
 20
-50.5776856489
 10
62.477040407
 20
-50.4591686842
 10
62.6284619555
 20
-50.3249169154
 10
62.6861944385
 20
-50.2651516121
  0
LINE
  5
267
100
AcDbEntity
  8
RACCORDO
100
AcDbLine
 62
250
  6
CONTINUOUS
 10
59.5760022078
 20
-50.3366538139
 11
60.2162778465
 21
-50.4965113575
  0
LINE
  5
268
100
AcDbEntity
  8
RACCORDO
100
AcDbLine
 62
7
  6
CONTINUOUS
 10
59.9534254957
 20
-50.6757917675
 11
60.3605136431
 21
-50.7896446976
  0
LWPOLYLINE
  5
269
100
AcDbEntity
  8
RACCORDO
100
AcDbPolyline
 62
250
  6
CONTINUOUS
 90
5
 70
0
 10
59.3620930027
 20
-50.279436951
 10
59.4128608533
 20
-50.293708686
 10
59.4651869833
 20
-50.3079596008
 10
59.519207671
 20
-50.3221805363
 10
59.5760022078
 20
-50.3366538139
  0
LINE
  5
26A
100
AcDbEntity
  8
RACCORDO
100
AcDbLine
 62
250
  6
CONTINUOUS
 10
52.4886233971
 20
-48.3262340745
 11
58.6519805007
 21
-50.0763063324
  0
LINE
  5
26B
100
AcDbEntity
  8
RACCORDO
100
AcDbLine
 62
250
  6
CONTINUOUS
 10
58.6519805007
 20
-50.0763063324
 11
59.3620930027
 21
-50.279436951
  0
LINE
  5
26C
100
AcDbEntity
  8
RACCORDO
100
AcDbLine
 62
250
  6
CONTINUOUS
 10
51.394439011
 20
-48.0089170544
 11
52.4886233971
 21
-48.3262340745
  0
LINE
  5
26D
100
AcDbEntity
  8
RACCORDO
100
AcDbLine
 62
250
  6
CONTINUOUS
 10
49.4617797224
 20
-47.4387692882
 11
50.5465674794
 21
-47.7573012093
  0
LINE
  5
26E
100
AcDbEntity
  8
RACCORDO
100
AcDbLine
 62
250
  6
CONTINUOUS
 10
50.8905191075
 20
-47.8599990596
 11
51.394439011
 21
-48.0089170544
  0
LINE
  5
26F
100
AcDbEntity
  8
RACCORDO
100
AcDbLine
 62
7
  6
CONTINUOUS
 10
52.1106890047
 20
-48.3556938285
 11
59.9534254957
 21
-50.6757917675
  0
LINE
  5
270
100
AcDbEntity
  8
RACCORDO
100
AcDbLine
 62
250
  6
CONTINUOUS
 10
50.5465674794
 20
-47.7573012093
 11
50.8905191075
 21
-47.8599990596
  0
LINE
  5
271
100
AcDbEntity
  8
RACCORDO
100
AcDbLine
 62
250
  6
CONTINUOUS
 10
48.8837766105
 20
-47.2662671011
 11
49.4617797224
 21
-47.4387692882
  0
LINE
  5
272
100
AcDbEntity
  8
RACCORDO
100
AcDbLine
 62
7
  6
CONTINUOUS
 10
49.3029707414
 20
-47.5102834429
 11
52.1106890047
 21
-48.3556938285
  0
LINE
  5
273
100
AcDbEntity
  8
RACCORDO
100
AcDbLine
 62
250
  6
CONTINUOUS
 10
48.3899279938
 20
-47.1164982946
 11
48.8837766105
 21
-47.2662671011
  0
LWPOLYLINE
  5
274
100
AcDbEntity
  8
RACCORDO
100
AcDbPolyline
 62
7
  6
CONTINUOUS
 90
3
 70
0
 10
-31.032799285
 20
-22.8291888921
 10
38.5121458503
 20
-44.1913955787
 10
49.3029707414
 20
-47.5102834429
  0
LINE
  5
275
100
AcDbEntity
  8
RACCORDO
100
AcDbLine
 62
250
  6
CONTINUOUS
 10
-31.160926659
 20
-22.6688388209
 11
35.0565657786
 21
-43.009698445
  0
LINE
  5
276
100
AcDbEntity
  8
RACCORDO
100
AcDbLine
 62
250
  6
CONTINUOUS
 10
35.0565657786
 20
-43.009698445
 11
48.3899279938
 21
-47.1164982946
  0
LINE
  5
277
100
AcDbEntity
  8
RACCORDO
100
AcDbLine
 62
7
  6
CONTINUOUS
 10
-50.7699747927
 20
-16.7773590072
 11
-31.0327842935
 21
-22.8291934673
  0
LINE
  5
278
100
AcDbEntity
  8
RACCORDO
100
AcDbLine
 62
250
  6
CONTINUOUS
 10
-50.0640405406
 20
-16.8811420851
 11
-31.1609266663
 21
-22.6688387925
  0
LINE
  5
279
100
AcDbEntity
  8
RACCORDO
100
AcDbLine
 62
250
  6
CONTINUOUS
 10
-50.6656132066
 20
-16.691863798
 11
-50.0640405406
 21
-16.8811420851
  0
LWPOLYLINE
  5
27A
100
AcDbEntity
  8
RACCORDO
100
AcDbPolyline
 62
7
  6
CONTINUOUS
 90
3
 70
0
 10
-60.0848902338
 20
-13.8233844668
 10
-54.8967307123
 20
-15.4769587201
 10
-50.7699747927
 20
-16.7773590072
  0
LINE
  5
27B
100
AcDbEntity
  8
RACCORDO
100
AcDbLine
 62
250
  6
CONTINUOUS
 10
-52.6040997616
 20
-16.0734180334
 11
-51.7730931535
 21
-16.3369610123
  0
LINE
  5
27C
100
AcDbEntity
  8
RACCORDO
100
AcDbLine
 62
250
  6
CONTINUOUS
 10
-51.7730931535
 20
-16.3369610123
 11
-50.6656132066
 21
-16.691863798
  0
LINE
  5
27D
100
AcDbEntity
  8
RACCORDO
100
AcDbLine
 62
7
  6
CONTINUOUS
 10
-61.2727404213
 20
-13.4372216829
 11
-60.0848902338
 21
-13.8233844668
  0
LINE
  5
27E
100
AcDbEntity
  8
RACCORDO
100
AcDbLine
 62
250
  6
CONTINUOUS
 10
-53.5145843948
 20
-15.7791181852
 11
-52.6040997616
 21
-16.0734180334
  0
LINE
  5
27F
100
AcDbEntity
  8
RACCORDO
100
AcDbLine
 62
250
  6
CONTINUOUS
 10
-55.1864484255
 20
-15.2295614006
 11
-53.5145843948
 21
-15.7791181852
  0
LINE
  5
280
100
AcDbEntity
  8
RACCORDO
100
AcDbLine
 62
7
  6
CONTINUOUS
 10
-61.2728411108
 20
-13.4371874435
 11
-61.2727404213
 21
-13.4372216829
  0
LWPOLYLINE
  5
281
100
AcDbEntity
  8
RACCORDO
100
AcDbPolyline
 62
250
  6
CONTINUOUS
 90
4
 70
0
 10
-60.8002225195
 20
-13.3710340426
 10
-60.742179134
 20
-13.3919219834
 10
-60.6872618458
 20
-13.4110305671
 10
-55.1864484255
 20
-15.2295614006
  0
LINE
  5
282
100
AcDbEntity
  8
RACCORDO
100
AcDbLine
 62
250
  6
CONTINUOUS
 10
-61.4368299021
 20
-13.1380212459
 11
-60.8002225195
 21
-13.3710340426
  0
LWPOLYLINE
  5
283
100
AcDbEntity
  8
DRAFT
100
AcDbPolyline
 62
7
  6
CONTINUOUS
 90
10
 70
0
 10
-40.9324232067
 20
-6.8227808049
 10
-40.9380658495
 20
-6.8173061167
 10
-40.9435960284
 20
-6.8117406772
 10
-40.9490099042
 20
-6.8060883316
 10
-40.9543037064
 20
-6.8003529747
 10
-40.9594737707
 20
-6.7945385803
 10
-40.9645165412
 20
-6.7886491975
 10
-40.9694285273
 20
-6.7826889059
 10
-40.9742063054
 20
-6.7766618136
 10
-40.9788465564
 20
-6.7705720856
  0
LWPOLYLINE
  5
284
100
AcDbEntity
  8
RACCORDO
100
AcDbPolyline
 62
250
  6
CONTINUOUS
 90
10
 70
0
 10
-32.9724837354
 20
-13.0305145183
 10
-32.9174808997
 20
-13.0898200178
 10
-32.8675484463
 20
-13.1601317071
 10
-32.8228882371
 20
-13.2411607381
 10
-32.7838555101
 20
-13.3325203351
 10
-32.7504390159
 20
-13.4338864058
 10
-32.7222603101
 20
-13.5449990204
 10
-32.6992653396
 20
-13.6654518718
 10
-32.6817239918
 20
-13.7946942485
 10
-32.6697105561
 20
-13.9321922691
  0
LINE
  5
285
100
AcDbEntity
  8
RACCORDO
100
AcDbLine
 62
250
  6
CONTINUOUS
 10
-26.1076041844
 20
-9.9822664211
 11
-26.0831726519
 21
-10.9643755827
  0
LINE
  5
286
100
AcDbEntity
  8
RACCORDO
100
AcDbLine
 62
7
  6
CONTINUOUS
 10
-26.0809910442
 20
-9.9288367347
 11
-26.0579046388
 21
-10.856873904
  0
LWPOLYLINE
  5
287
100
AcDbEntity
  8
RACCORDO
100
AcDbPolyline
 62
7
  6
CONTINUOUS
 90
4
 70
0
 10
-26.0579244935
 20
-10.8568755539
 10
-26.0620475164
 20
-10.8988433341
 10
-26.0725793724
 20
-10.938281398
 10
-26.0891439393
 20
-10.9729665338
  0
LINE
  5
288
100
AcDbEntity
  8
DRAFT
100
AcDbLine
 62
7
  6
CONTINUOUS
 10
-26.8799819155
 20
-11.1832052397
 11
-26.831625688
 21
-11.0139649384
  0
LINE
  5
289
100
AcDbEntity
  8
DRAFT
100
AcDbLine
 62
7
  6
CONTINUOUS
 10
-26.6820209087
 20
-10.9117962465
 11
-26.6285190809
 21
-10.7245470353
  0
LINE
  5
28A
100
AcDbEntity
  8
DRAFT
100
AcDbLine
 62
7
  6
CONTINUOUS
 10
-26.478238987
 20
-10.6200148332
 11
-26.4254124738
 21
-10.4351291321
  0
LINE
  5
28B
100
AcDbEntity
  8
DRAFT
100
AcDbLine
 62
7
  6
CONTINUOUS
 10
-26.2744570654
 20
-10.32823342
 11
-26.2223058666
 21
-10.1457112289
  0
LWPOLYLINE
  5
28C
100
AcDbEntity
  8
RACCORDO
100
AcDbPolyline
 62
7
  6
CONTINUOUS
 90
3
 70
0
 10
-26.0810110408
 20
-9.9288326825
 10
-26.0858315012
 20
-9.9427645734
 10
-26.0968364195
 20
-9.9631862752
  0
LINE
  5
28D
100
AcDbEntity
  8
DRAFT
100
AcDbLine
 62
7
  6
CONTINUOUS
 10
-32.4010111216
 20
-9.4877317806
 11
-32.3410343978
 21
-9.3220788986
  0
LINE
  5
28E
100
AcDbEntity
  8
DRAFT
100
AcDbLine
 62
7
  6
CONTINUOUS
 10
-32.1577778166
 20
-9.2302443489
 11
-32.0914121467
 21
-9.046945499
  0
LINE
  5
28F
100
AcDbEntity
  8
DRAFT
100
AcDbLine
 62
7
  6
CONTINUOUS
 10
-31.9073178801
 20
-8.9527973018
 11
-31.8417898956
 21
-8.7718120995
  0
LINE
  5
290
100
AcDbEntity
  8
DRAFT
100
AcDbLine
 62
7
  6
CONTINUOUS
 10
-31.6568579436
 20
-8.6753502547
 11
-31.5921676444
 21
-8.4966787
  0
LINE
  5
291
100
AcDbEntity
  8
0
100
AcDbLine
 62
250
  6
CONTINUOUS
 10
-41.4019019664
 20
-6.9950119132
 11
-42.3103856827
 21
-8.1334688339
  0
LINE
  5
292
100
AcDbEntity
  8
0
100
AcDbLine
 62
250
  6
CONTINUOUS
 10
-41.1289146696
 20
-7.3096717781
 11
-42.0373983859
 21
-8.4481286988
  0
LWPOLYLINE
  5
293
100
AcDbEntity
  8
RACCORDO
100
AcDbPolyline
 62
250
  6
CONTINUOUS
 90
19
 70
0
 10
-42.3103856827
 20
-8.1334688339
 10
-42.3723783289
 20
-8.2007973786
 10
-42.4467230413
 20
-8.2630453736
 10
-42.5323116547
 20
-8.3192849648
 10
-42.6278684052
 20
-8.3686778578
 10
-42.7319689461
 20
-8.4104878136
 10
-42.8430615788
 20
-8.4440916228
 10
-42.9594903823
 20
-8.4689883947
 10
-43.0795198958
 20
-8.4848070239
 10
-43.2013609874
 20
-8.4913117215
 10
-43.323197522
 20
-8.48840553
 10
-43.4432134324
 20
-8.4761317685
 10
-43.5596197894
 20
-8.4546733867
 10
-43.670681398
 20
-8.4243502605
 10
-43.7747428773
 20
-8.3856143679
 10
-43.8702532867
 20
-8.3390430002
 10
-43.9557889646
 20
-8.285330262
 10
-44.0300748018
 20
-8.2252767778
 10
-44.0920034304
 20
-8.1597776672
  0
LINE
  5
294
100
AcDbEntity
  8
DRAFT
100
AcDbLine
 62
250
  6
CONTINUOUS
 10
-41.0430156415
 20
-6.6039954475
 11
-41.3994047375
 21
-6.9188360845
  0
LWPOLYLINE
  5
295
100
AcDbEntity
  8
0
100
AcDbPolyline
 62
250
  6
CONTINUOUS
 90
5
 70
0
 10
37.7665961719
 20
-32.9551622898
 10
37.8129072081
 20
-32.9658771627
 10
37.8576352894
 20
-32.9691988824
 10
37.8994213756
 20
-32.9650265201
 10
37.9154349085
 20
-32.9601085264
  0
LINE
  5
296
100
AcDbEntity
  8
RACCORDO
100
AcDbLine
 62
250
  6
CONTINUOUS
 10
37.719286464
 20
-35.5286809053
 11
36.7740343105
 21
-35.2518695693
  0
LINE
  5
297
100
AcDbEntity
  8
RACCORDO
100
AcDbLine
 62
250
  6
CONTINUOUS
 10
36.7740343105
 20
-35.2518695693
 11
34.8072829413
 21
-34.6602064528
  0
LINE
  5
298
100
AcDbEntity
  8
RACCORDO
100
AcDbLine
 62
250
  6
CONTINUOUS
 10
-32.6697100649
 20
-13.9321967829
 11
-38.1362164182
 21
-12.261707437
  0
LINE
  5
299
100
AcDbEntity
  8
RACCORDO
100
AcDbLine
 62
250
  6
CONTINUOUS
 10
-32.9696939295
 20
-13.0313712407
 11
-42.3699154504
 21
-10.1440868179
  0
LINE
  5
29A
100
AcDbEntity
  8
RACCORDO
100
AcDbLine
 62
250
  6
CONTINUOUS
 10
37.4340791074
 20
-34.6511204089
 11
-32.9724837354
 21
-13.0305145183
  0
LWPOLYLINE
  5
29B
100
AcDbEntity
  8
RACCORDO
100
AcDbPolyline
 62
250
  6
CONTINUOUS
 90
3
 70
0
 10
34.8072829413
 20
-34.6602064528
 10
31.6743760277
 20
-33.6980688282
 10
-32.6697105561
 20
-13.9321922691
  0
LWPOLYLINE
  5
29C
100
AcDbEntity
  8
RACCORDO
100
AcDbPolyline
 62
250
  6
CONTINUOUS
 90
4
 70
0
 10
-38.1362164182
 20
-12.261707437
 10
-40.1485389627
 20
-11.6377572651
 10
-41.1164341238
 20
-11.3324508369
 10
-42.0573080694
 20
-11.0300600015
  0
LWPOLYLINE
  5
29D
100
AcDbEntity
  8
RACCORDO
100
AcDbPolyline
 62
250
  6
CONTINUOUS
 90
76
 70
0
 10
-42.3699154504
 20
-10.1440868179
 10
-42.419325957
 20
-10.128327233
 10
-42.4671087954
 20
-10.1118849442
 10
-42.5132231994
 20
-10.0948944461
 10
-42.5575060947
 20
-10.0775347997
 10
-42.6000621894
 20
-10.0598840562
 10
-42.6412620653
 20
-10.0418904949
 10
-42.6810647837
 20
-10.0236513129
 10
-42.7194844547
 20
-10.0052403821
 10
-42.7569767346
 20
-9.9865117296
 10
-42.7937873366
 20
-9.9673841247
 10
-42.8296547958
 20
-9.9480278907
 10
-42.8642797123
 20
-9.9286589985
 10
-42.8975752934
 20
-9.9093902665
 10
-42.92963888
 20
-9.8902269509
 10
-42.9604559695
 20
-9.8712355734
 10
-42.9899845026
 20
-9.8525011132
 10
-43.0182881392
 20
-9.8340405283
 10
-43.0455105616
 20
-9.8158102203
 10
-43.0716537723
 20
-9.7978550172
 10
-43.0967382466
 20
-9.7802061501
 10
-43.1209304727
 20
-9.7627860641
 10
-43.1443006467
 20
-9.7455787023
 10
-43.1667978614
 20
-9.7286536165
 10
-43.1884044635
 20
-9.7120554837
 10
-43.2090160706
 20
-9.6959013748
 10
-43.228761789
 20
-9.6801256341
 10
-43.2479671512
 20
-9.6644898385
 10
-43.2666206873
 20
-9.6490196347
 10
-43.2847434682
 20
-9.6337167039
 10
-43.3026946171
 20
-9.6182885939
 10
-43.3205198575
 20
-9.602696226
 10
-43.3381672249
 20
-9.5869852656
 10
-43.355836538
 20
-9.5709762615
 10
-43.3735411464
 20
-9.5546480758
 10
-43.3912516961
 20
-9.5380192497
 10
-43.4090954295
 20
-9.5209614282
 10
-43.427089593
 20
-9.5034422922
 10
-43.4451922011
 20
-9.4854853182
 10
-43.463436368
 20
-9.467041324
 10
-43.4817382782
 20
-9.4481778892
 10
-43.5001537908
 20
-9.4288190988
 10
-43.5189142308
 20
-9.4086934404
 10
-43.5380503923
 20
-9.3877276693
 10
-43.5574761979
 20
-9.3659741734
 10
-43.5772332914
 20
-9.3433423924
 10
-43.5973413607
 20
-9.3197581776
 10
-43.6177093022
 20
-9.2952743035
 10
-43.6382117036
 20
-9.2699920609
 10
-43.6587523986
 20
-9.2439851167
 10
-43.6793603005
 20
-9.2171700174
 10
-43.7000941518
 20
-9.1894133607
 10
-43.7209106897
 20
-9.1607067559
 10
-43.7417604728
 20
-9.1310488137
 10
-43.7626771723
 20
-9.1003135608
 10
-43.7836016238
 20
-9.0684981991
 10
-43.804472808
 20
-9.0356008473
 10
-43.8253034908
 20
-9.0014953202
 10
-43.8460120627
 20
-8.9661938072
 10
-43.8665265985
 20
-8.9296894857
 10
-43.8868508688
 20
-8.8918275714
 10
-43.9068827367
 20
-8.8526251093
 10
-43.9265249253
 20
-8.8120869386
 10
-43.9457569048
 20
-8.7700421497
 10
-43.9644929874
 20
-8.7264174019
 10
-43.982554676
 20
-8.681334433
 10
-43.9997675237
 20
-8.6349228704
 10
-44.0159725092
 20
-8.5873176744
 10
-44.0310602204
 20
-8.5384731731
 10
-44.0449092349
 20
-8.488265572
 10
-44.0573263367
 20
-8.436829004
 10
-44.0681590249
 20
-8.3841845702
 10
-44.0772758215
 20
-8.3300680095
 10
-44.0844584809
 20
-8.2744769996
 10
-44.089448496
 20
-8.2176639303
 10
-44.0920034304
 20
-8.1597776672
  0
LWPOLYLINE
  5
29E
100
AcDbEntity
  8
RACCORDO
100
AcDbPolyline
 62
250
  6
CONTINUOUS
 90
76
 70
0
 10
-42.0573071661
 20
-11.0300587631
 10
-42.1528287582
 20
-10.9978795035
 10
-42.2452231394
 20
-10.9645179677
 10
-42.3343966082
 20
-10.9302386859
 10
-42.4200673484
 20
-10.8952390912
 10
-42.5022897605
 20
-10.8598913245
 10
-42.5814734082
 20
-10.8246883023
 10
-42.6572208336
 20
-10.7902139921
 10
-42.729292065
 20
-10.7564932348
 10
-42.798244692
 20
-10.7231218355
 10
-42.8646922119
 20
-10.6899425019
 10
-42.9288503689
 20
-10.6569570494
 10
-42.9909597094
 20
-10.6238152095
 10
-43.0510277325
 20
-10.5905079788
 10
-43.1090125482
 20
-10.5572649618
 10
-43.1648196948
 20
-10.5242301669
 10
-43.2183912276
 20
-10.4915353557
 10
-43.2698676606
 20
-10.459197413
 10
-43.3194910446
 20
-10.4271515023
 10
-43.3671183222
 20
-10.3955724646
 10
-43.412691127
 20
-10.3645892627
 10
-43.4565338146
 20
-10.3340682605
 10
-43.4990044813
 20
-10.3038909
 10
-43.5404825551
 20
-10.2737472042
 10
-43.5814926054
 20
-10.2430499598
 10
-43.6218877553
 20
-10.2117459167
 10
-43.6614831966
 20
-10.1802162847
 10
-43.7005029562
 20
-10.1486926011
 10
-43.7387713702
 20
-10.1174509274
 10
-43.7761359659
 20
-10.0865317312
 10
-43.8129065995
 20
-10.0557424427
 10
-43.8490824447
 20
-10.025129023
 10
-43.8846429885
 20
-9.994691146
 10
-43.9199019635
 20
-9.9641109654
 10
-43.954826917
 20
-9.9334190342
 10
-43.9892631986
 20
-9.9027496498
 10
-44.0232768009
 20
-9.8719764267
 10
-44.0568855301
 20
-9.8410790407
 10
-44.0903263219
 20
-9.8098187412
 10
-44.1240680771
 20
-9.777636114
 10
-44.1580975645
 20
-9.744475784
 10
-44.1924119118
 20
-9.7103299054
 10
-44.2273891905
 20
-9.6747658659
 10
-44.2630733751
 20
-9.6376740592
 10
-44.2993201397
 20
-9.5991260072
 10
-44.3362169894
 20
-9.5589282582
 10
-44.3738115669
 20
-9.5169346915
 10
-44.4119322076
 20
-9.4732401587
 10
-44.4503286894
 20
-9.4280223625
 10
-44.4888195766
 20
-9.381414338
 10
-44.5274612454
 20
-9.3332630663
 10
-44.5663533552
 20
-9.2833191087
 10
-44.6054185736
 20
-9.231563405
 10
-44.6445662376
 20
-9.1779886921
 10
-44.6838464357
 20
-9.1223575068
 10
-44.7231512181
 20
-9.0646632842
 10
-44.7623593447
 20
-9.004909718
 10
-44.801465197
 20
-8.9428760338
 10
-44.8403185018
 20
-8.8785814069
 10
-44.8787976145
 20
-8.81199281
 10
-44.9168984965
 20
-8.7428058875
 10
-44.9544424005
 20
-8.6710660063
 10
-44.9911878866
 20
-8.5968661587
 10
-45.0269680489
 20
-8.5200128823
 10
-45.0613871719
 20
-8.4404930986
 10
-45.0944747322
 20
-8.3581659068
 10
-45.1266736059
 20
-8.2725384803
 10
-45.157960831
 20
-8.1834759757
 10
-45.1878089237
 20
-8.091080651
 10
-45.2158201937
 20
-7.9952401159
 10
-45.2416375255
 20
-7.8962182939
 10
-45.2647671889
 20
-7.7943370289
 10
-45.2845069367
 20
-7.6897138996
 10
-45.3003003841
 20
-7.5826487664
 10
-45.311799687
 20
-7.4734480926
 10
-45.3185617675
 20
-7.3623189379
  0
LWPOLYLINE
  5
29F
100
AcDbEntity
  8
0
100
AcDbPolyline
 62
7
  6
CONTINUOUS
 90
10
 70
0
 10
-41.1289146696
 20
-7.3096717781
 10
-41.177534936
 20
-7.2903841365
 10
-41.2223268263
 20
-7.2663206133
 10
-41.2632903405
 20
-7.2374812084
 10
-41.3014170918
 20
-7.2027229351
 10
-41.335715467
 20
-7.1631887801
 10
-41.363210626
 20
-7.1223077044
 10
-41.3829109556
 20
-7.0812226948
 10
-41.395808069
 20
-7.0387907644
 10
-41.4019019664
 20
-6.9950119132
  0
LWPOLYLINE
  5
2A0
100
AcDbEntity
  8
RACCORDO
100
AcDbPolyline
 62
7
  6
CONTINUOUS
 90
3
 70
0
 10
-26.0910186634
 20
-9.915447504
 10
-26.083471865
 20
-9.9198323412
 10
-26.0810110408
 20
-9.9288326825
  0
LWPOLYLINE
  5
2A1
100
AcDbEntity
  8
RACCORDO
100
AcDbPolyline
 62
250
  6
CONTINUOUS
 90
10
 70
0
 10
-44.5147906968
 20
9.1241520113
 10
-44.6149808589
 20
9.232699448
 10
-44.726673085
 20
9.3365806897
 10
-44.8493636648
 20
9.4353272521
 10
-44.9824992879
 20
9.5284938075
 10
-45.1254795384
 20
9.6156601927
 10
-45.2776596034
 20
9.6964333046
 10
-45.4383531804
 20
9.7704488722
 10
-45.6068355728
 20
9.8373730995
 10
-45.7823469577
 20
9.8969041715
  0
LINE
  5
2A2
100
AcDbEntity
  8
RACCORDO
100
AcDbLine
 62
7
  6
CONTINUOUS
 10
-26.0968364195
 20
-9.9631862752
 11
-26.113577445
 21
-9.9907780525
  0
LINE
  5
2A3
100
AcDbEntity
  8
RACCORDO
100
AcDbLine
 62
7
  6
CONTINUOUS
 10
-26.0831726519
 20
-10.9643755827
 11
-26.3486795676
 21
-11.3463630435
  0
LINE
  5
2A4
100
AcDbEntity
  8
RACCORDO
100
AcDbLine
 62
7
  6
CONTINUOUS
 10
-26.113577445
 20
-9.9907780525
 11
-26.2223058666
 21
-10.1457112289
  0
LINE
  5
2A5
100
AcDbEntity
  8
DRAFT
100
AcDbLine
 62
7
  6
CONTINUOUS
 10
-26.3321912737
 20
-10.3022930583
 11
-26.4254124738
 21
-10.4351291321
  0
LINE
  5
2A6
100
AcDbEntity
  8
DRAFT
100
AcDbLine
 62
7
  6
CONTINUOUS
 10
-26.5367208051
 20
-10.5937385655
 11
-26.6285190809
 21
-10.7245470353
  0
LINE
  5
2A7
100
AcDbEntity
  8
DRAFT
100
AcDbLine
 62
7
  6
CONTINUOUS
 10
-26.7412503366
 20
-10.8851840727
 11
-26.831625688
 21
-11.0139649384
  0
LINE
  5
2A8
100
AcDbEntity
  8
RACCORDO
100
AcDbLine
 62
7
  6
CONTINUOUS
 10
-31.4511968876
 20
-8.3413008704
 11
-31.5921676444
 21
-8.4966787
  0
LINE
  5
2A9
100
AcDbEntity
  8
DRAFT
100
AcDbLine
 62
7
  6
CONTINUOUS
 10
-31.7272190988
 20
-8.64553228
 11
-31.8417898956
 21
-8.7718120995
  0
LINE
  5
2AA
100
AcDbEntity
  8
DRAFT
100
AcDbLine
 62
7
  6
CONTINUOUS
 10
-31.9785901535
 20
-8.9225932092
 11
-32.0914121467
 21
-9.046945499
  0
LINE
  5
2AB
100
AcDbEntity
  8
DRAFT
100
AcDbLine
 62
7
  6
CONTINUOUS
 10
-32.2299612083
 20
-9.1996541384
 11
-32.3410343978
 21
-9.3220788986
  0
LWPOLYLINE
  5
2AC
100
AcDbEntity
  8
RACCORDO
100
AcDbPolyline
 62
250
  6
CONTINUOUS
 90
10
 70
0
 10
38.6286367717
 20
-16.4133610854
 10
38.8289065172
 20
-16.3964948332
 10
39.0301674508
 20
-16.3881339805
 10
39.2315119249
 20
-16.3883162333
 10
39.4320319153
 20
-16.3970407695
 10
39.6308231159
 20
-16.4142682432
 10
39.8269890171
 20
-16.4399209619
 10
40.019644949
 20
-16.4738832369
 10
40.2079220708
 20
-16.5160019049
 10
40.3909712895
 20
-16.5660870188
  0
LWPOLYLINE
  5
2AD
100
AcDbEntity
  8
RACCORDO
100
AcDbPolyline
 62
250
  6
CONTINUOUS
 90
10
 70
0
 10
61.1937813952
 20
-20.9186884529
 10
61.3326621309
 20
-20.9296931864
 10
61.4730720898
 20
-20.9282659507
 10
61.6122419378
 20
-20.9144348954
 10
61.7474268001
 20
-20.8884728132
 10
61.8759603984
 20
-20.8508917595
 10
61.9953076387
 20
-20.802432953
 10
62.1031146113
 20
-20.7440521566
 10
62.1972550176
 20
-20.6769008264
 10
62.2758721075
 20
-20.6023034016
  0
LWPOLYLINE
  5
2AE
100
AcDbEntity
  8
RACCORDO
100
AcDbPolyline
 62
7
  6
CONTINUOUS
 90
5
 70
0
 10
28.8265247077
 20
-26.7791694973
 10
28.7952199372
 20
-26.7723956726
 10
28.7480360148
 20
-26.771777148
 10
28.7050344017
 20
-26.7822452475
 10
28.6689999054
 20
-26.8036308637
  0
LWPOLYLINE
  5
2AF
100
AcDbEntity
  8
RACCORDO
100
AcDbPolyline
 62
7
  6
CONTINUOUS
 90
5
 70
0
 10
8.7912811285
 20
-20.8188970536
 10
8.759976358
 20
-20.8121232289
 10
8.7127924356
 20
-20.8115047043
 10
8.6697908225
 20
-20.8219728038
 10
8.6337563262
 20
-20.84335842
  0
LWPOLYLINE
  5
2B0
100
AcDbEntity
  8
RACCORDO
100
AcDbPolyline
 62
7
  6
CONTINUOUS
 90
5
 70
0
 10
-11.2487844692
 20
-14.6647870559
 10
-11.2800892397
 20
-14.6580132311
 10
-11.3272731621
 20
-14.6573947066
 10
-11.3702747752
 20
-14.6678628061
 10
-11.4063092715
 20
-14.6892484222
  0
LWPOLYLINE
  5
2B1
100
AcDbEntity
  8
RACCORDO
100
AcDbPolyline
 62
7
  6
CONTINUOUS
 90
5
 70
0
 10
-31.2936720853
 20
-8.3168395041
 10
-31.3249768558
 20
-8.3100656793
 10
-31.3721607782
 20
-8.3094471548
 10
-31.4151623913
 20
-8.3199152543
 10
-31.4511968876
 20
-8.3413008704
  0
LINE
  5
2B2
100
AcDbEntity
  8
0
100
AcDbLine
 62
250
  6
CONTINUOUS
 10
-42.0373983859
 20
-8.4481286988
 11
37.7665961719
 21
-32.9551622898
  0
LINE
  5
2B3
100
AcDbEntity
  8
0
100
AcDbLine
 62
7
  6
CONTINUOUS
 10
37.8809240872
 20
-31.5728278164
 11
-41.1289146696
 21
-7.3096717781
  0
LINE
  5
2B4
100
AcDbEntity
  8
DRAFT
100
AcDbLine
 62
7
  6
CONTINUOUS
 10
37.8808282383
 20
-31.5689748408
 11
-41.0399435603
 21
-7.3331704025
  0
LINE
  5
2B5
100
AcDbEntity
  8
DRAFT
100
AcDbLine
 62
7
  6
CONTINUOUS
 10
33.2885711049
 20
-29.4762949317
 11
27.7791623952
 21
-27.7844088918
  0
LINE
  5
2B6
100
AcDbEntity
  8
DRAFT
100
AcDbLine
 62
7
  6
CONTINUOUS
 10
-26.831625688
 20
-11.0139649384
 11
-32.3410343978
 21
-9.3220788986
  0
LINE
  5
2B7
100
AcDbEntity
  8
DRAFT
100
AcDbLine
 62
7
  6
CONTINUOUS
 10
33.3789464564
 20
-29.3475140659
 11
27.8902355847
 21
-27.6619841316
  0
LINE
  5
2B8
100
AcDbEntity
  8
DRAFT
100
AcDbLine
 62
7
  6
CONTINUOUS
 10
-26.7412503366
 20
-10.8851840727
 11
-32.2299612083
 21
-9.1996541384
  0
LINE
  5
2B9
100
AcDbEntity
  8
DRAFT
100
AcDbLine
 62
7
  6
CONTINUOUS
 10
33.4916777121
 20
-29.1868770285
 11
28.0287846463
 21
-27.5092754923
  0
LINE
  5
2BA
100
AcDbEntity
  8
DRAFT
100
AcDbLine
 62
7
  6
CONTINUOUS
 10
-26.6285190809
 20
-10.7245470353
 11
-32.0914121467
 21
-9.046945499
  0
LINE
  5
2BB
100
AcDbEntity
  8
DRAFT
100
AcDbLine
 62
7
  6
CONTINUOUS
 10
33.5834759878
 20
-29.0560685587
 11
28.1416066394
 21
-27.3849232024
  0
LINE
  5
2BC
100
AcDbEntity
  8
DRAFT
100
AcDbLine
 62
7
  6
CONTINUOUS
 10
-26.5367208051
 20
-10.5937385655
 11
-31.9785901535
 21
-8.9225932092
  0
LINE
  5
2BD
100
AcDbEntity
  8
DRAFT
100
AcDbLine
 62
7
  6
CONTINUOUS
 10
33.6947843192
 20
-28.8974591253
 11
28.2784068974
 21
-27.2341420927
  0
LINE
  5
2BE
100
AcDbEntity
  8
DRAFT
100
AcDbLine
 62
7
  6
CONTINUOUS
 10
-26.4254124738
 20
-10.4351291321
 11
-31.8417898956
 21
-8.7718120995
  0
LINE
  5
2BF
100
AcDbEntity
  8
DRAFT
100
AcDbLine
 62
7
  6
CONTINUOUS
 10
33.7880055193
 20
-28.7646230515
 11
28.3929776942
 21
-27.1078622732
  0
LINE
  5
2C0
100
AcDbEntity
  8
DRAFT
100
AcDbLine
 62
7
  6
CONTINUOUS
 10
-26.3321912737
 20
-10.3022930583
 11
-31.7272190988
 21
-8.64553228
  0
LINE
  5
2C1
100
AcDbEntity
  8
RACCORDO
100
AcDbLine
 62
250
  6
CONTINUOUS
 10
-11.4136505332
 20
-14.6973399537
 11
-6.0686898289
 21
-16.3387256043
  0
LINE
  5
2C2
100
AcDbEntity
  8
RACCORDO
100
AcDbLine
 62
250
  6
CONTINUOUS
 10
8.6264150644
 20
-20.8514499515
 11
13.9713757688
 21
-22.492835602
  0
LINE
  5
2C3
100
AcDbEntity
  8
DRAFT
100
AcDbLine
 62
7
  6
CONTINUOUS
 10
33.8978909263
 20
-28.6080412222
 11
28.5280291485
 21
-26.9590086932
  0
LINE
  5
2C4
100
AcDbEntity
  8
DRAFT
100
AcDbLine
 62
7
  6
CONTINUOUS
 10
-26.2223058666
 20
-10.1457112289
 11
-31.5921676444
 21
-8.4966787
  0
LINE
  5
2C5
100
AcDbEntity
  8
RACCORDO
100
AcDbLine
 62
7
  6
CONTINUOUS
 10
-11.2492864489
 20
-14.6655564216
 11
-6.0462964377
 21
-16.2633442477
  0
LINE
  5
2C6
100
AcDbEntity
  8
RACCORDO
100
AcDbLine
 62
7
  6
CONTINUOUS
 10
8.7907791487
 20
-20.8196664193
 11
13.99376916
 21
-22.4174542455
  0
LINE
  5
2C7
100
AcDbEntity
  8
RACCORDO
100
AcDbLine
 62
250
  6
CONTINUOUS
 10
-31.4585381493
 20
-8.3493924019
 11
-26.113577445
 21
-9.9907780525
  0
LINE
  5
2C8
100
AcDbEntity
  8
RACCORDO
100
AcDbLine
 62
250
  6
CONTINUOUS
 10
28.6616586436
 20
-26.8117223952
 11
34.006619348
 21
-28.4531080457
  0
LINE
  5
2C9
100
AcDbEntity
  8
RACCORDO
100
AcDbLine
 62
7
  6
CONTINUOUS
 10
-31.2941740651
 20
-8.3176088698
 11
-26.0911840538
 21
-9.9153966959
  0
LINE
  5
2CA
100
AcDbEntity
  8
RACCORDO
100
AcDbLine
 62
7
  6
CONTINUOUS
 10
28.8260227279
 20
-26.779938863
 11
34.0290127392
 21
-28.3777266891
  0
LINE
  5
2CB
100
AcDbEntity
  8
DRAFT
100
AcDbLine
 62
7
  6
CONTINUOUS
 10
37.868382851
 20
-31.0686898568
 11
-40.7702283276
 21
-6.9194803648
  0
LWPOLYLINE
  5
2CC
100
AcDbEntity
  8
DRAFT
100
AcDbPolyline
 62
7
  6
CONTINUOUS
 90
10
 70
0
 10
-40.7702283276
 20
-6.9194803648
 10
-40.7876238542
 20
-6.9136417895
 10
-40.805409527
 20
-6.9066533925
 10
-40.8234991559
 20
-6.8984720665
 10
-40.8417811481
 20
-6.8890701977
 10
-40.8601600275
 20
-6.8784156335
 10
-40.8785535747
 20
-6.8664655277
 10
-40.8968373743
 20
-6.8532001607
 10
-40.9148479959
 20
-6.8386320229
 10
-40.9324232067
 20
-6.8227808049
  0
LWPOLYLINE
  5
2CD
100
AcDbEntity
  8
DRAFT
100
AcDbPolyline
 62
7
  6
CONTINUOUS
 90
7
 70
0
 10
-41.0399435603
 20
-7.3331704025
 10
-41.0872601769
 20
-7.3156482162
 10
-41.1323849059
 20
-7.2940608824
 10
-41.1753177473
 20
-7.2684084011
 10
-41.2166973492
 20
-7.2381242987
 10
-41.2558850635
 20
-7.2037750488
 10
-41.2909649455
 20
-7.1670600718
  0
LINE
  5
2CE
100
AcDbEntity
  8
DRAFT
100
AcDbLine
 62
7
  6
CONTINUOUS
 10
-26.7412503366
 20
-10.8851840727
 11
-26.6820209087
 21
-10.9117962465
  0
LINE
  5
2CF
100
AcDbEntity
  8
DRAFT
100
AcDbLine
 62
7
  6
CONTINUOUS
 10
-26.5367208051
 20
-10.5937385655
 11
-26.478238987
 21
-10.6200148332
  0
LINE
  5
2D0
100
AcDbEntity
  8
DRAFT
100
AcDbLine
 62
7
  6
CONTINUOUS
 10
-26.3321912737
 20
-10.3022930583
 11
-26.2744570654
 21
-10.32823342
  0
LWPOLYLINE
  5
2D1
100
AcDbEntity
  8
RACCORDO
100
AcDbPolyline
 62
7
  6
CONTINUOUS
 90
3
 70
0
 10
-6.0461310473
 20
-16.2633950558
 10
-6.0385842489
 20
-16.267779893
 10
-6.0361234247
 20
-16.2767802343
  0
LWPOLYLINE
  5
2D2
100
AcDbEntity
  8
RACCORDO
100
AcDbPolyline
 62
250
  6
CONTINUOUS
 90
7
 70
0
 10
-63.9756185638
 20
17.5196216373
 10
-64.0739146184
 20
17.5814846424
 10
-64.1571945431
 20
17.6516493153
 10
-64.2238157913
 20
17.7287317839
 10
-64.2724643785
 20
17.8112117352
 10
-64.302180799
 20
17.8974624005
 10
-64.3122519852
 20
17.9771297287
  0
LWPOLYLINE
  5
2D3
100
AcDbEntity
  8
RACCORDO
100
AcDbPolyline
 62
250
  6
CONTINUOUS
 90
10
 70
0
 10
-44.9522560333
 20
26.4208404568
 10
-45.0482159327
 20
26.5273957032
 10
-45.1554921064
 20
26.6295319572
 10
-45.2736134533
 20
26.7268006061
 10
-45.4020612465
 20
26.8187744176
 10
-45.5402714111
 20
26.9050494164
 10
-45.6876370012
 20
26.9852466582
 10
-45.8435108658
 20
27.059013894
 10
-46.0072084901
 20
27.1260271171
 10
-46.1780110018
 20
27.1859919858
  0
LINE
  5
2D4
100
AcDbEntity
  8
RACCORDO
100
AcDbLine
 62
250
  6
CONTINUOUS
 10
-6.0627165683
 20
-16.3302139729
 11
-6.0431070542
 21
-17.1184855804
  0
LINE
  5
2D5
100
AcDbEntity
  8
RACCORDO
100
AcDbLine
 62
7
  6
CONTINUOUS
 10
-6.0361034281
 20
-16.2767842865
 11
-6.0178390412
 21
-17.0109839017
  0
LINE
  5
2D6
100
AcDbEntity
  8
DRAFT
100
AcDbLine
 62
7
  6
CONTINUOUS
 10
33.3789464564
 20
-29.3475140659
 11
33.4381758843
 21
-29.3741262397
  0
LINE
  5
2D7
100
AcDbEntity
  8
DRAFT
100
AcDbLine
 62
7
  6
CONTINUOUS
 10
33.5834759878
 20
-29.0560685587
 11
33.641957806
 21
-29.0823448264
  0
LINE
  5
2D8
100
AcDbEntity
  8
DRAFT
100
AcDbLine
 62
7
  6
CONTINUOUS
 10
33.7880055193
 20
-28.7646230515
 11
33.8457397276
 21
-28.7905634132
  0
LWPOLYLINE
  5
2D9
100
AcDbEntity
  8
RACCORDO
100
AcDbPolyline
 62
7
  6
CONTINUOUS
 90
3
 70
0
 10
13.9939345504
 20
-22.4175050535
 10
14.0014813487
 20
-22.4218898907
 10
14.003942173
 20
-22.430890232
  0
LWPOLYLINE
  5
2DA
100
AcDbEntity
  8
RACCORDO
100
AcDbPolyline
 62
7
  6
CONTINUOUS
 90
3
 70
0
 10
34.0291781296
 20
-28.3777774972
 10
34.0367249279
 20
-28.3821623344
 10
34.0391857522
 20
-28.3911626757
  0
LWPOLYLINE
  5
2DB
100
AcDbEntity
  8
RACCORDO
100
AcDbPolyline
 62
7
  6
CONTINUOUS
 90
4
 70
0
 10
-6.0178588959
 20
-17.0109855516
 10
-6.0219819188
 20
-17.0529533318
 10
-6.0325137747
 20
-17.0923913957
 10
-6.0490783417
 20
-17.1270765315
  0
LWPOLYLINE
  5
2DC
100
AcDbEntity
  8
RACCORDO
100
AcDbPolyline
 62
7
  6
CONTINUOUS
 90
3
 70
0
 10
-6.0361234247
 20
-16.2767802343
 10
-6.040943885
 20
-16.2907121252
 10
-6.0519488034
 20
-16.311133827
  0
LWPOLYLINE
  5
2DD
100
AcDbEntity
  8
RACCORDO
100
AcDbPolyline
 62
250
  6
CONTINUOUS
 90
10
 70
0
 10
38.2143263388
 20
0.8811925204
 10
38.4116119105
 20
0.8976887821
 10
38.6100848096
 20
0.9059275452
 10
38.8088734718
 20
0.9058726254
 10
39.0071049462
 20
0.8975242586
 10
39.2039087287
 20
0.8809191004
 10
39.3984205847
 20
0.8561300645
 10
39.5897863443
 20
0.8232660034
 10
39.7771656531
 20
0.7824712293
 10
39.9597356627
 20
0.7339248813
  0
LWPOLYLINE
  5
2DE
100
AcDbEntity
  8
RACCORDO
100
AcDbPolyline
 62
250
  6
CONTINUOUS
 90
10
 70
0
 10
40.3909712874
 20
-16.5660870215
 10
42.7362643537
 20
-17.2457076045
 10
45.190197548
 20
-17.9014877174
 10
47.368404781
 20
-18.4378336473
 10
49.4235770307
 20
-18.9058525406
 10
51.4635961911
 20
-19.3347813856
 10
53.6280830308
 20
-19.7521650671
 10
56.0010566183
 20
-20.1662485832
 10
58.5269555136
 20
-20.5582849898
 10
61.1937813893
 20
-20.9186884696
  0
LINE
  5
2DF
100
AcDbEntity
  8
RACCORDO
100
AcDbLine
 62
250
  6
CONTINUOUS
 10
63.8073718203
 20
-21.7395754719
 11
63.5881531756
 21
-21.6722555498
  0
LINE
  5
2E0
100
AcDbEntity
  8
RACCORDO
100
AcDbLine
 62
250
  6
CONTINUOUS
 10
63.5646652918
 20
-20.9783330661
 11
64.3765456282
 21
-21.227653652
  0
LINE
  5
2E1
100
AcDbEntity
  8
RACCORDO
100
AcDbLine
 62
7
  6
CONTINUOUS
 10
63.5622745615
 20
-20.8822294699
 11
64.5160077103
 21
-21.1751116802
  0
LWPOLYLINE
  5
2E2
100
AcDbEntity
  8
RACCORDO
100
AcDbPolyline
 62
250
  6
CONTINUOUS
 90
10
 70
0
 10
-45.7823469599
 20
9.8969041688
 10
-48.0756012897
 20
10.6417365532
 10
-50.4041696302
 20
11.4546163289
 10
-52.4124526642
 20
12.2039010014
 10
-54.2585472736
 20
12.9339233652
 10
-56.0453457079
 20
13.6801731296
 10
-57.8928161187
 20
14.494822652
 10
-59.8624726296
 20
15.4143187679
 10
-61.8965944215
 20
16.4226205371
 10
-63.9756185804
 20
17.5196216253
  0
LWPOLYLINE
  5
2E3
100
AcDbEntity
  8
RACCORDO
100
AcDbPolyline
 62
250
  6
CONTINUOUS
 90
10
 70
0
 10
28.0383826397
 20
-31.7663605115
 10
28.0918797346
 20
-31.8252032768
 10
28.1408127129
 20
-31.8952075995
 10
28.1849796999
 20
-31.9760846743
 10
28.2241984833
 20
-32.0675008403
 10
28.2583072647
 20
-32.1690789571
 10
28.2871653273
 20
-32.2803999608
 10
28.3106536162
 20
-32.401004593
 10
28.3286752297
 20
-32.5303952953
 10
28.341155819
 20
-32.6680382622
  0
LINE
  5
2E4
100
AcDbEntity
  8
RACCORDO
100
AcDbLine
 62
7
  6
CONTINUOUS
 10
-6.0519488034
 20
-16.311133827
 11
-6.0686898289
 21
-16.3387256043
  0
LINE
  5
2E5
100
AcDbEntity
  8
RACCORDO
100
AcDbLine
 62
7
  6
CONTINUOUS
 10
-6.0431070542
 20
-17.1184855804
 11
-6.3086139699
 21
-17.5004730412
  0
LINE
  5
2E6
100
AcDbEntity
  8
0
100
AcDbLine
 62
7
  6
CONTINUOUS
 10
-6.0627165683
 20
-16.3302139729
 11
-6.7819652605
 21
-17.3551114457
  0
LINE
  5
2E7
100
AcDbEntity
  8
0
100
AcDbLine
 62
7
  6
CONTINUOUS
 10
-11.4063092715
 20
-14.6892484222
 11
-12.290280897
 21
-15.663561078
  0
LWPOLYLINE
  5
2E8
100
AcDbEntity
  8
RACCORDO
100
AcDbPolyline
 62
250
  6
CONTINUOUS
 90
13
 70
0
 10
-43.2220674991
 20
26.4171106705
 10
-43.2605196443
 20
26.4360441626
 10
-43.2961246295
 20
26.4697865749
 10
-43.3261732044
 20
26.5171815283
 10
-43.350211195
 20
26.5775126641
 10
-43.367875275
 20
26.6498680975
 10
-43.378898458
 20
26.7331542006
 10
-43.383114131
 20
26.8261119979
 10
-43.3804585958
 20
26.9273365751
 10
-43.3709719364
 20
27.0352984194
 10
-43.3547974308
 20
27.148365947
 10
-43.3321794824
 20
27.2648300601
 10
-43.3034598846
 20
27.3829304305
  0
LWPOLYLINE
  5
2E9
100
AcDbEntity
  8
RACCORDO
100
AcDbPolyline
 62
250
  6
CONTINUOUS
 90
10
 70
0
 10
37.4340802938
 20
-34.6511173046
 10
37.4847954556
 20
-34.70876846
 10
37.5311179818
 20
-34.7771581291
 10
37.572863801
 20
-34.8560146928
 10
37.6098670158
 20
-34.9450249662
 10
37.6419805619
 20
-35.0438354433
 10
37.6690767924
 20
-35.1520537004
 10
37.691047984
 20
-35.2692499543
 10
37.7078067654
 20
-35.3949587693
 10
37.719286464
 20
-35.5286809053
  0
LINE
  5
2EA
100
AcDbEntity
  8
RACCORDO
100
AcDbLine
 62
250
  6
CONTINUOUS
 10
13.9773490294
 20
-22.4843239706
 11
13.9969585435
 21
-23.2725955782
  0
LINE
  5
2EB
100
AcDbEntity
  8
RACCORDO
100
AcDbLine
 62
7
  6
CONTINUOUS
 10
14.0039621695
 20
-22.4308942843
 11
14.0222265565
 21
-23.1650938995
  0
LWPOLYLINE
  5
2EC
100
AcDbEntity
  8
0
100
AcDbPolyline
 62
7
  6
CONTINUOUS
 90
7
 70
0
 10
-43.2220674991
 20
26.4171106705
 10
-43.2560919889
 20
26.4262529964
 10
-43.2832453677
 20
26.4314143043
 10
-43.3026189116
 20
26.4335679675
 10
-43.3135776239
 20
26.4339201505
 10
-43.3158455039
 20
26.4338632075
 10
-43.3154643325
 20
26.4339083909
  0
LINE
  5
2ED
100
AcDbEntity
  8
RACCORDO
100
AcDbLine
 62
250
  6
CONTINUOUS
 10
-43.3535871227
 20
27.3978954378
 11
-43.3034598846
 21
27.3829304305
  0
LINE
  5
2EE
100
AcDbEntity
  8
RACCORDO
100
AcDbLine
 62
250
  6
CONTINUOUS
 10
-43.0514706849
 20
28.9336732046
 11
-41.1391294797
 21
28.3619475371
  0
LINE
  5
2EF
100
AcDbEntity
  8
RACCORDO
100
AcDbLine
 62
250
  6
CONTINUOUS
 10
-41.1391294797
 20
28.3619475371
 11
-37.0057797047
 21
27.1040392579
  0
LINE
  5
2F0
100
AcDbEntity
  8
0
100
AcDbLine
 62
7
  6
CONTINUOUS
 10
36.5819270586
 20
1.9100770795
 11
-43.2220674991
 21
26.4171106705
  0
LINE
  5
2F1
100
AcDbEntity
  8
RACCORDO
100
AcDbLine
 62
250
  6
CONTINUOUS
 10
-37.0057797047
 20
27.1040392579
 11
27.3457070424
 21
7.3474361365
  0
LINE
  5
2F2
100
AcDbEntity
  8
RACCORDO
100
AcDbLine
 62
250
  6
CONTINUOUS
 10
27.1019557056
 20
5.765239611
 11
36.5005346731
 21
2.8758968395
  0
LINE
  5
2F3
100
AcDbEntity
  8
RACCORDO
100
AcDbLine
 62
250
  6
CONTINUOUS
 10
-43.3034598846
 20
27.3829304305
 11
27.1047455115
 21
5.7643828886
  0
LINE
  5
2F4
100
AcDbEntity
  8
RACCORDO
100
AcDbLine
 62
250
  6
CONTINUOUS
 10
27.3457072872
 20
7.3474415726
 11
33.8188485128
 21
5.3474253953
  0
LWPOLYLINE
  5
2F5
100
AcDbEntity
  8
RACCORDO
100
AcDbPolyline
 62
250
  6
CONTINUOUS
 90
3
 70
0
 10
33.8188485128
 20
5.3474253953
 10
35.7815089703
 20
4.7340083649
 10
36.7251257361
 20
4.4350546663
  0
LWPOLYLINE
  5
2F6
100
AcDbEntity
  8
RACCORDO
100
AcDbPolyline
 62
250
  6
CONTINUOUS
 90
76
 70
0
 10
36.5005346731
 20
2.8758968395
 10
36.5500546472
 20
2.8602744325
 10
36.5978986801
 20
2.843908829
 10
36.6440259841
 20
2.8269344965
 10
36.6882666929
 20
2.8095219845
 10
36.7307323173
 20
2.7917578691
 10
36.7718138227
 20
2.7736159729
 10
36.8114649131
 20
2.7551867799
 10
36.8497051147
 20
2.736550949
 10
36.8870265753
 20
2.7176082359
 10
36.9236857271
 20
2.698290843
 10
36.9594103575
 20
2.6787556245
 10
36.9939053072
 20
2.6592238657
 10
37.0270860623
 20
2.6398112407
 10
37.0590476604
 20
2.6205201192
 10
37.0897729658
 20
2.6014137235
 10
37.1192201425
 20
2.5825773123
 10
37.1474526141
 20
2.5640275477
 10
37.1746107456
 20
2.5457166743
 10
37.2006959117
 20
2.5276887332
 10
37.2257292095
 20
2.5099757349
 10
37.2498756873
 20
2.4924983197
 10
37.2732086419
 20
2.475244317
 10
37.2956740614
 20
2.4582793872
 10
37.3172435464
 20
2.4416347416
 10
37.3378135309
 20
2.4254284736
 10
37.3575123078
 20
2.4095939088
 10
37.3766522281
 20
2.3938761054
 10
37.3952162781
 20
2.3782937629
 10
37.4132310959
 20
2.3628555393
 10
37.4310592958
 20
2.347273357
 10
37.4487462845
 20
2.3315077405
 10
37.4662404436
 20
2.3156047888
 10
37.4837460717
 20
2.2993906644
 10
37.5012751941
 20
2.2828425704
 10
37.5187998089
 20
2.2659807418
 10
37.5364556365
 20
2.2486874481
 10
37.5542614163
 20
2.230932241
 10
37.5721736742
 20
2.2127367317
 10
37.5902295126
 20
2.1940567357
 10
37.6083468643
 20
2.1749620232
 10
37.6265798332
 20
2.1553744801
 10
37.6451584735
 20
2.1350210013
 10
37.6641128934
 20
2.1138274825
 10
37.6833577002
 20
2.0918471699
 10
37.7029353248
 20
2.0689904894
 10
37.7228649372
 20
2.045182643
 10
37.7430559482
 20
2.0204770504
 10
37.7633852774
 20
1.9949779243
 10
37.7837572764
 20
1.9687595803
 10
37.8042003303
 20
1.9417379035
 10
37.8247739407
 20
1.9137804425
 10
37.8454346975
 20
1.8848786222
 10
37.8661332958
 20
1.8550312244
 10
37.8869045894
 20
1.8241137576
 10
37.9076891291
 20
1.792123067
 10
37.9284261683
 20
1.7590576128
 10
37.9491304885
 20
1.7247937356
 10
37.9697203739
 20
1.6893434918
 10
37.990123991
 20
1.6527001738
 10
38.01034742
 20
1.6147118912
 10
38.0302876137
 20
1.5753945485
 10
38.049848191
 20
1.5347541074
 10
38.069013636
 20
1.4926259417
 10
38.0877012619
 20
1.4489404707
 10
38.1057295563
 20
1.4038156543
 10
38.1229200644
 20
1.3573760971
 10
38.1391255856
 20
1.3097715724
 10
38.1542248846
 20
1.2609415921
 10
38.1680570641
 20
1.2107128946
 10
38.1804175611
 20
1.1592053929
 10
38.1911652402
 20
1.1064544307
 10
38.2001632299
 20
1.0521889884
 10
38.2071915124
 20
0.9964045226
 10
38.2119934254
 20
0.9393557351
 10
38.2143265816
 20
0.881191553
  0
LWPOLYLINE
  5
2F7
100
AcDbEntity
  8
RACCORDO
100
AcDbPolyline
 62
250
  6
CONTINUOUS
 90
76
 70
0
 10
36.7251266269
 20
4.4350556761
 10
36.8209217834
 20
4.4032192308
 10
36.9133979677
 20
4.3699602058
 10
37.0024774648
 20
4.3355631642
 10
37.087864629
 20
4.3002082092
 10
37.1696252
 20
4.2642816911
 10
37.2482217723
 20
4.2283429816
 10
37.3233682796
 20
4.193115637
 10
37.3948850308
 20
4.1587000386
 10
37.4633429745
 20
4.1247087321
 10
37.5293575031
 20
4.0909868
 10
37.5931477385
 20
4.0575402903
 10
37.6549375551
 20
4.0239980423
 10
37.7147264955
 20
3.9903410822
 10
37.7724738549
 20
3.9568004993
 10
37.8280742835
 20
3.9235066578
 10
37.8814632699
 20
3.8905830905
 10
37.9327784579
 20
3.8580430853
 10
37.9822605234
 20
3.8258200828
 10
38.0297703205
 20
3.7940938255
 10
38.0752512545
 20
3.7629954967
 10
38.1190237554
 20
3.7323865408
 10
38.1614382928
 20
3.7021388424
 10
38.2028610648
 20
3.6719258458
 10
38.2438015946
 20
3.6411414825
 10
38.2840793727
 20
3.6096903561
 10
38.3234882721
 20
3.5779269611
 10
38.3622438873
 20
3.5460722677
 10
38.4001773566
 20
3.5144108616
 10
38.4371447993
 20
3.4829939772
 10
38.4734662846
 20
3.4516418432
 10
38.5091506275
 20
3.4204125025
 10
38.5441826423
 20
3.3893123048
 10
38.5788742725
 20
3.358021162
 10
38.6132074657
 20
3.3265876725
 10
38.6470468273
 20
3.295170264
 10
38.6804654436
 20
3.2636514405
 10
38.7134862234
 20
3.2320172717
 10
38.7463457696
 20
3.2000285904
 10
38.7795093503
 20
3.1671214299
 10
38.8129689826
 20
3.1332469919
 10
38.8467220755
 20
3.0983977831
 10
38.8811367351
 20
3.0621287033
 10
38.9162551475
 20
3.0243279053
 10
38.9519367843
 20
2.985071669
 10
38.9882691852
 20
2.944166587
 10
39.0253014094
 20
2.9014683131
 10
39.0628652488
 20
2.8570760304
 10
39.1007133087
 20
2.8111709851
 10
39.1386672015
 20
2.7638900316
 10
39.1767836189
 20
2.7150805468
 10
39.2151611029
 20
2.6644916911
 10
39.2537246138
 20
2.6121072778
 10
39.2923854867
 20
2.5579225478
 10
39.3311929036
 20
2.5016989016
 10
39.3700419264
 20
2.4434335487
 10
39.4088148101
 20
2.3831345623
 10
39.447506468
 20
2.3205818347
 10
39.485969358
 20
2.2557979636
 10
39.5240840354
 20
2.1887526784
 10
39.561847059
 20
2.119142372
 10
39.5990874599
 20
2.047022159
 10
39.6355715946
 20
1.9724948018
 10
39.6711326598
 20
1.8953669661
 10
39.705366516
 20
1.8156150172
 10
39.7383178166
 20
1.7331170731
 10
39.7704733648
 20
1.6474353536
 10
39.8018192339
 20
1.5584463382
 10
39.831752191
 20
1.4661573604
 10
39.8597737005
 20
1.3703296568
 10
39.885463738
 20
1.2711483172
 10
39.9083388584
 20
1.1689480743
 10
39.9276922811
 20
1.0638408257
 10
39.9429587982
 20
0.9561153754
 10
39.9537896241
 20
0.8460770065
 10
39.9597396052
 20
0.7339301779
  0
LWPOLYLINE
  5
2F8
100
AcDbEntity
  8
RACCORDO
100
AcDbPolyline
 62
250
  6
CONTINUOUS
 90
10
 70
0
 10
-64.5421073339
 20
46.2422707164
 10
-64.6349874596
 20
46.2846343468
 10
-64.7190361729
 20
46.3333061889
 10
-64.793111128
 20
46.3876247202
 10
-64.8562055369
 20
46.4468516713
 10
-64.9074618538
 20
46.5101820603
 10
-64.9461834297
 20
46.5767551336
 10
-64.9718439812
 20
46.6456660643
 10
-64.9840947437
 20
46.7159782512
 10
-64.9851916388
 20
46.7424987248
  0
LWPOLYLINE
  5
2F9
100
AcDbEntity
  8
RACCORDO
100
AcDbPolyline
 62
250
  6
CONTINUOUS
 90
5
 70
0
 10
29.8499397161
 20
-41.4046848141
 10
29.8757509238
 20
-41.4684292961
 10
29.9083375636
 20
-41.5174811575
 10
29.9471429833
 20
-41.5510017956
 10
29.9781431174
 20
-41.5650582427
  0
LWPOLYLINE
  5
2FA
100
AcDbEntity
  8
RACCORDO
100
AcDbPolyline
 62
7
  6
CONTINUOUS
 90
4
 70
0
 10
14.0222067018
 20
-23.1650955494
 10
14.0180836789
 20
-23.2070633296
 10
14.0075518229
 20
-23.2465013935
 10
13.990987256
 20
-23.2811865293
  0
LWPOLYLINE
  5
2FB
100
AcDbEntity
  8
RACCORDO
100
AcDbPolyline
 62
7
  6
CONTINUOUS
 90
3
 70
0
 10
14.003942173
 20
-22.430890232
 10
13.9991217126
 20
-22.4448221229
 10
13.9881167943
 20
-22.4652438247
  0
LINE
  5
2FC
100
AcDbEntity
  8
0
100
AcDbLine
 62
7
  6
CONTINUOUS
 10
8.6337563262
 20
-20.84335842
 11
7.7497847007
 21
-21.8176710758
  0
LWPOLYLINE
  5
2FD
100
AcDbEntity
  8
RACCORDO
100
AcDbPolyline
 62
250
  6
CONTINUOUS
 90
13
 70
0
 10
60.4009622716
 20
7.8734724009
 10
60.5125024823
 20
7.8530657249
 10
60.6272275741
 20
7.8407001404
 10
60.7435784333
 20
7.8365436926
 10
60.8599738521
 20
7.8406528652
 10
60.9748320169
 20
7.8529718126
 10
61.0865920057
 20
7.873333119
 10
61.1937350004
 20
7.901460073
 10
61.294804928
 20
7.9369704287
 10
61.3884282485
 20
7.9793816009
 10
61.473332621
 20
8.0281172221
 10
61.5483641952
 20
8.0825149752
 10
61.612503292
 20
8.1418355953
  0
LWPOLYLINE
  5
2FE
100
AcDbEntity
  8
RACCORDO
100
AcDbPolyline
 62
250
  6
CONTINUOUS
 90
12
 70
0
 10
36.5819270586
 20
1.9100770795
 10
36.5434748863
 20
1.9290105906
 10
36.5078699015
 20
1.962753017
 10
36.4778213285
 20
2.0101479867
 10
36.4537833415
 20
2.0704791407
 10
36.4361192667
 20
2.1428345938
 10
36.4250960905
 20
2.2261207174
 10
36.4208804256
 20
2.3190785422
 10
36.4235359715
 20
2.4203031476
 10
36.433022641
 20
2.5282649974
 10
36.4491971507
 20
2.6413324964
 10
36.4718150937
 20
2.7577965528
  0
LWPOLYLINE
  5
2FF
100
AcDbEntity
  8
RACCORDO
100
AcDbPolyline
 62
250
  6
CONTINUOUS
 90
13
 70
0
 10
28.3411561437
 20
-32.6680430057
 10
28.3842013197
 20
-33.2511198834
 10
28.4367395693
 20
-33.8668320997
 10
28.5058679092
 20
-34.5686126336
 10
28.5945333391
 20
-35.345558681
 10
28.7025203874
 20
-36.1628718012
 10
28.8260870951
 20
-36.976336258
 10
28.9586194447
 20
-37.7444827845
 10
29.0999872151
 20
-38.4739456466
 10
29.2559942871
 20
-39.1957409541
 10
29.432965301
 20
-39.9309547611
 10
29.63084607
 20
-40.6698469169
 10
29.8499397078
 20
-41.4046847876
  0
LWPOLYLINE
  5
300
100
AcDbEntity
  8
RACCORDO
100
AcDbPolyline
 62
250
  6
CONTINUOUS
 90
13
 70
0
 10
27.3457071186
 20
7.3474413824
 10
27.3580168284
 20
7.9998894792
 10
27.3776710682
 20
8.7060723028
 10
27.4087596528
 20
9.533441433
 10
27.454577343
 20
10.4789140545
 10
27.5166006232
 20
11.5092724277
 10
27.5934472077
 20
12.5738810203
 10
27.6809038919
 20
13.6177033036
 10
27.7785282011
 20
14.6466554151
 10
27.8902765998
 20
15.7039845196
 10
28.0210739401
 20
16.824873864
 10
28.1713392496
 20
18.0000404111
 10
28.3417304069
 20
19.2229558208
  0
LWPOLYLINE
  5
301
100
AcDbEntity
  8
RACCORDO
100
AcDbPolyline
 62
250
  6
CONTINUOUS
 90
10
 70
0
 10
28.3417304134
 20
19.2229558658
 10
28.3628795285
 20
19.345504562
 10
28.391098196
 20
19.4707016851
 10
28.4259038817
 20
19.5964063868
 10
28.4667014146
 20
19.7204691393
 10
28.5127931643
 20
19.8407684917
 10
28.5633909702
 20
19.9552473468
 10
28.6176296187
 20
20.0619481367
 10
28.6745816388
 20
20.159046297
 10
28.7332731611
 20
20.2448814665
  0
LWPOLYLINE
  5
302
100
AcDbEntity
  8
RACCORDO
100
AcDbPolyline
 62
250
  6
CONTINUOUS
 90
10
 70
0
 10
27.1047455115
 20
5.7643828886
 10
27.1506638337
 20
5.9501566875
 10
27.1922614985
 20
6.1351683925
 10
27.2293627857
 20
6.3186559923
 10
27.261985706
 20
6.4998101184
 10
27.2898233575
 20
6.6779361848
 10
27.3122445192
 20
6.8524574971
 10
27.3289864719
 20
7.0227062605
 10
27.3401553257
 20
7.1879265279
 10
27.3457070424
 20
7.3474361365
  0
LINE
  5
303
100
AcDbEntity
  8
RACCORDO
100
AcDbLine
 62
7
  6
CONTINUOUS
 10
13.9881167943
 20
-22.4652438247
 11
13.9713757688
 21
-22.492835602
  0
LINE
  5
304
100
AcDbEntity
  8
RACCORDO
100
AcDbLine
 62
7
  6
CONTINUOUS
 10
13.9969585435
 20
-23.2725955782
 11
13.7314516277
 21
-23.654583039
  0
LINE
  5
305
100
AcDbEntity
  8
0
100
AcDbLine
 62
7
  6
CONTINUOUS
 10
13.9773490294
 20
-22.4843239706
 11
13.2581003372
 21
-23.5092214434
  0
LWPOLYLINE
  5
306
100
AcDbEntity
  8
RACCORDO
100
AcDbPolyline
 62
250
  6
CONTINUOUS
 90
19
 70
0
 10
-62.9371764916
 20
47.1738071578
 10
-63.07523158
 20
47.2111987631
 10
-63.2126049458
 20
47.2374613894
 10
-63.3480301983
 20
47.2523636283
 10
-63.4804710119
 20
47.2558415865
 10
-63.6089128516
 20
47.2479249476
 10
-63.7322617868
 20
47.2286747615
 10
-63.8495402319
 20
47.1982483232
 10
-63.9599742757
 20
47.156920902
 10
-64.0627857591
 20
47.1049633027
 10
-64.1571917901
 20
47.04265002
 10
-64.2424836934
 20
46.9704615915
 10
-64.3180216157
 20
46.8890057772
 10
-64.3832432084
 20
46.7988432552
 10
-64.4376826398
 20
46.7005924637
 10
-64.4810128575
 20
46.5950494592
 10
-64.5129713836
 20
46.4829696194
 10
-64.5333422146
 20
46.3650675294
 10
-64.5421008244
 20
46.2422766356
  0
LINE
  5
307
100
AcDbEntity
  8
RACCORDO
100
AcDbLine
 62
250
  6
CONTINUOUS
 10
59.0873044285
 20
11.0412315376
 11
58.8462812919
 21
11.1073164005
  0
LINE
  5
308
100
AcDbEntity
  8
RACCORDO
100
AcDbLine
 62
250
  6
CONTINUOUS
 10
58.8462812919
 20
11.1073164005
 11
58.6355081674
 21
11.1664551388
  0
LINE
  5
309
100
AcDbEntity
  8
RACCORDO
100
AcDbLine
 62
250
  6
CONTINUOUS
 10
58.6355081674
 20
11.1664551388
 11
58.5124716569
 21
11.2017402714
  0
LWPOLYLINE
  5
30A
100
AcDbEntity
  8
RACCORDO
100
AcDbPolyline
 62
250
  6
CONTINUOUS
 90
14
 70
0
 10
-62.4890935306
 20
48.3761655239
 10
-62.7006477553
 20
48.4376415798
 10
-62.9106834177
 20
48.4819751478
 10
-63.1175745119
 20
48.5088187332
 10
-63.3197865584
 20
48.5179210412
 10
-63.5156761
 20
48.5092223148
 10
-63.7035222712
 20
48.4828950791
 10
-63.8817892057
 20
48.4391998577
 10
-64.049214036
 20
48.3784537275
 10
-64.2045919683
 20
48.3011108202
 10
-64.3467563595
 20
48.207712119
 10
-64.4745368866
 20
48.0989595433
 10
-64.5868770216
 20
47.9757241602
 10
-64.6449831674
 20
47.897445799
  0
LINE
  5
30B
100
AcDbEntity
  8
RACCORDO
100
AcDbLine
 62
250
  6
CONTINUOUS
 10
58.5124716569
 20
11.2017402714
 11
58.3995489597
 21
11.2346543525
  0
LWPOLYLINE
  5
30C
100
AcDbEntity
  8
RACCORDO
100
AcDbPolyline
 62
250
  6
CONTINUOUS
 90
8
 70
0
 10
-62.1315256207
 20
46.9417128748
 10
-62.1846034531
 20
46.9573544138
 10
-62.2396608085
 20
46.9728229986
 10
-62.2978249063
 20
46.9884294662
 10
-62.3590751482
 20
47.0045514392
 10
-62.4227076059
 20
47.0216243157
 10
-62.4888737576
 20
47.0399832851
 10
-62.5578674528
 20
47.0596977834
  0
LINE
  5
30D
100
AcDbEntity
  8
RACCORDO
100
AcDbLine
 62
250
  6
CONTINUOUS
 10
58.3995489597
 20
11.2346543525
 11
51.707132441
 21
13.2052952974
  0
LINE
  5
30E
100
AcDbEntity
  8
RACCORDO
100
AcDbLine
 62
250
  6
CONTINUOUS
 10
-62.5578674528
 20
47.0596977834
 11
-62.7032626865
 21
47.1024705003
  0
LINE
  5
30F
100
AcDbEntity
  8
RACCORDO
100
AcDbLine
 62
250
  6
CONTINUOUS
 10
51.707132441
 20
13.2052952974
 11
50.0917625227
 21
13.6868285783
  0
LINE
  5
310
100
AcDbEntity
  8
RACCORDO
100
AcDbLine
 62
250
  6
CONTINUOUS
 10
-51.3360005408
 20
43.6913485567
 11
-53.1301139452
 21
44.2275054638
  0
LINE
  5
311
100
AcDbEntity
  8
RACCORDO
100
AcDbLine
 62
250
  6
CONTINUOUS
 10
50.0917625227
 20
13.6868285783
 11
48.1256249561
 21
14.2778625243
  0
LINE
  5
312
100
AcDbEntity
  8
RACCORDO
100
AcDbLine
 62
250
  6
CONTINUOUS
 10
-61.8334934322
 20
46.8511639998
 11
-62.1315256207
 21
46.9417128748
  0
LWPOLYLINE
  5
313
100
AcDbEntity
  8
RACCORDO
100
AcDbPolyline
 62
250
  6
CONTINUOUS
 90
3
 70
0
 10
-62.7032626865
 20
47.1024705003
 10
-62.8570332254
 20
47.1490482363
 10
-62.9371826387
 20
47.1738014277
  0
LINE
  5
314
100
AcDbEntity
  8
RACCORDO
100
AcDbLine
 62
250
  6
CONTINUOUS
 10
-53.5868717837
 20
44.3678464275
 11
-61.8334934322
 21
46.8511639998
  0
LINE
  5
315
100
AcDbEntity
  8
RACCORDO
100
AcDbLine
 62
250
  6
CONTINUOUS
 10
-32.6691359672
 20
37.9588018146
 11
-51.3360005408
 21
43.6913485567
  0
LINE
  5
316
100
AcDbEntity
  8
RACCORDO
100
AcDbLine
 62
250
  6
CONTINUOUS
 10
49.4537905709
 20
12.7250551562
 11
48.8737196169
 21
12.9027652869
  0
LINE
  5
317
100
AcDbEntity
  8
RACCORDO
100
AcDbLine
 62
250
  6
CONTINUOUS
 10
48.1256249561
 20
14.2778625243
 11
-32.2778460894
 21
38.9808051152
  0
LINE
  5
318
100
AcDbEntity
  8
RACCORDO
100
AcDbLine
 62
250
  6
CONTINUOUS
 10
-53.1301139452
 20
44.2275054638
 11
-53.5868717837
 21
44.3678464275
  0
LINE
  5
319
100
AcDbEntity
  8
RACCORDO
100
AcDbLine
 62
250
  6
CONTINUOUS
 10
58.7159248179
 20
9.815310823
 11
58.5474582258
 21
9.86707967
  0
LINE
  5
31A
100
AcDbEntity
  8
RACCORDO
100
AcDbLine
 62
250
  6
CONTINUOUS
 10
-32.2778460894
 20
38.9808051152
 11
-51.8642138465
 21
44.984484323
  0
LINE
  5
31B
100
AcDbEntity
  8
RACCORDO
100
AcDbLine
 62
250
  6
CONTINUOUS
 10
47.1178857707
 20
13.4564849142
 11
-32.6691359617
 21
37.958801859
  0
LINE
  5
31C
100
AcDbEntity
  8
RACCORDO
100
AcDbLine
 62
250
  6
CONTINUOUS
 10
57.8470551301
 20
10.0978289139
 11
52.8538601713
 21
11.65608901
  0
LINE
  5
31D
100
AcDbEntity
  8
RACCORDO
100
AcDbLine
 62
250
  6
CONTINUOUS
 10
49.8382691101
 20
12.6049596915
 11
49.4537905709
 21
12.7250551562
  0
LINE
  5
31E
100
AcDbEntity
  8
RACCORDO
100
AcDbLine
 62
250
  6
CONTINUOUS
 10
48.8737196169
 20
12.9027652869
 11
48.641143552
 21
12.9755199315
  0
LINE
  5
31F
100
AcDbEntity
  8
RACCORDO
100
AcDbLine
 62
250
  6
CONTINUOUS
 10
52.8538601713
 20
11.65608901
 11
49.8382691101
 21
12.6049596915
  0
LINE
  5
320
100
AcDbEntity
  8
RACCORDO
100
AcDbLine
 62
250
  6
CONTINUOUS
 10
48.641143552
 20
12.9755199315
 11
47.1178857707
 21
13.4564849142
  0
LWPOLYLINE
  5
321
100
AcDbEntity
  8
RACCORDO
100
AcDbPolyline
 62
250
  6
CONTINUOUS
 90
5
 70
0
 10
58.5474582258
 20
9.86707967
 10
58.3924743281
 20
9.9159457933
 10
58.3200202512
 20
9.9392819551
 10
58.2507228668
 20
9.9620889334
 10
58.184744794
 20
9.9843742951
  0
LINE
  5
322
100
AcDbEntity
  8
RACCORDO
100
AcDbLine
 62
250
  6
CONTINUOUS
 10
-51.8642138465
 20
44.984484323
 11
-54.9071866132
 21
45.941895028
  0
LINE
  5
323
100
AcDbEntity
  8
RACCORDO
100
AcDbLine
 62
250
  6
CONTINUOUS
 10
-54.9071866132
 20
45.941895028
 11
-61.8175775455
 21
48.1521052762
  0
LINE
  5
324
100
AcDbEntity
  8
RACCORDO
100
AcDbLine
 62
250
  6
CONTINUOUS
 10
-61.8175775455
 20
48.1521052762
 11
-61.992154405
 21
48.2086793924
  0
LINE
  5
325
100
AcDbEntity
  8
RACCORDO
100
AcDbLine
 62
250
  6
CONTINUOUS
 10
-61.992154405
 20
48.2086793924
 11
-62.1217770906
 21
48.2515436652
  0
LWPOLYLINE
  5
326
100
AcDbEntity
  8
RACCORDO
100
AcDbPolyline
 62
250
  6
CONTINUOUS
 90
4
 70
0
 10
58.0046305557
 20
10.0465695446
 10
57.9504241344
 20
10.0647057356
 10
57.8979609007
 20
10.0817529556
 10
57.8470551301
 20
10.0978289139
  0
LINE
  5
327
100
AcDbEntity
  8
RACCORDO
100
AcDbLine
 62
250
  6
CONTINUOUS
 10
-62.1217770906
 20
48.2515436652
 11
-62.3355193366
 21
48.3235764156
  0
LINE
  5
328
100
AcDbEntity
  8
RACCORDO
100
AcDbLine
 62
250
  6
CONTINUOUS
 10
-62.3355193366
 20
48.3235764156
 11
-62.4890935306
 21
48.3761655239
  0
LINE
  5
329
100
AcDbEntity
  8
RACCORDO
100
AcDbLine
 62
250
  6
CONTINUOUS
 10
58.184744794
 20
9.9843742951
 11
58.0046305557
 21
10.0465695446
  0
LWPOLYLINE
  5
32A
100
AcDbEntity
  8
0
100
AcDbPolyline
 62
7
  6
CONTINUOUS
 90
3
 70
0
 10
37.0587413931
 20
1.4776227152
 10
37.0591106682
 20
1.4713371292
 10
37.0588687361
 20
1.4725037305
  0
LINE
  5
32B
100
AcDbEntity
  8
RACCORDO
100
AcDbLine
 62
250
  6
CONTINUOUS
 10
34.0125926086
 20
-28.4445964143
 11
34.0370241411
 21
-29.4267055759
  0
LINE
  5
32C
100
AcDbEntity
  8
RACCORDO
100
AcDbLine
 62
7
  6
CONTINUOUS
 10
34.0392057487
 20
-28.391166728
 11
34.0622921541
 21
-29.3192038972
  0
LINE
  5
32D
100
AcDbEntity
  8
0
100
AcDbLine
 62
7
  6
CONTINUOUS
 10
37.9189894855
 20
-33.1029969266
 11
37.0587413931
 21
1.4776227152
  0
LWPOLYLINE
  5
32E
100
AcDbEntity
  8
RACCORDO
100
AcDbPolyline
 62
7
  6
CONTINUOUS
 90
4
 70
0
 10
34.0622722994
 20
-29.3192055471
 10
34.0581492766
 20
-29.3611733273
 10
34.0476174206
 20
-29.4006113912
 10
34.0310528537
 20
-29.435296527
  0
LWPOLYLINE
  5
32F
100
AcDbEntity
  8
RACCORDO
100
AcDbPolyline
 62
250
  6
CONTINUOUS
 90
10
 70
0
 10
36.4718150937
 20
2.7577965528
 10
36.5452797354
 20
3.0581821478
 10
36.585380244
 20
3.2398612079
 10
36.6206769339
 20
3.4202125488
 10
36.6510296425
 20
3.5985199714
 10
36.67631784
 20
3.7740753932
 10
36.696441108
 20
3.9461816608
 10
36.7113195384
 20
4.1141553173
 10
36.7208940508
 20
4.2773293175
 10
36.7251266269
 20
4.4350556761
  0
LINE
  5
330
100
AcDbEntity
  8
DRAFT
100
AcDbLine
 62
7
  6
CONTINUOUS
 10
27.7191795205
 20
-27.9500787623
 11
27.7791623952
 21
-27.7844088918
  0
LINE
  5
331
100
AcDbEntity
  8
DRAFT
100
AcDbLine
 62
7
  6
CONTINUOUS
 10
27.9624189763
 20
-27.6925743421
 11
28.0287846463
 21
-27.5092754923
  0
LINE
  5
332
100
AcDbEntity
  8
DRAFT
100
AcDbLine
 62
7
  6
CONTINUOUS
 10
28.2128789129
 20
-27.415127295
 11
28.2784068974
 21
-27.2341420927
  0
LINE
  5
333
100
AcDbEntity
  8
DRAFT
100
AcDbLine
 62
7
  6
CONTINUOUS
 10
28.4633388494
 20
-27.137680248
 11
28.5280291485
 21
-26.9590086932
  0
LWPOLYLINE
  5
334
100
AcDbEntity
  8
0
100
AcDbPolyline
 62
7
  6
CONTINUOUS
 90
14
 70
0
 10
-60.4970986423
 20
51.0565727147
 10
-60.7326234586
 20
51.1195653454
 10
-60.9624884842
 20
51.1639370774
 10
-61.1866937191
 20
51.1896879106
 10
-61.4068511417
 20
51.1967308352
 10
-61.6213487737
 20
51.185152861
 10
-61.8253506799
 20
51.1552150182
 10
-62.0186184381
 20
51.1065002418
 10
-62.2013904705
 20
51.0394255969
 10
-62.3695461083
 20
50.9555033081
 10
-62.5227533237
 20
50.8543506623
 10
-62.6613441446
 20
50.7363503728
 10
-62.7821939851
 20
50.6041628032
 10
-62.8448547845
 20
50.519724686
  0
LINE
  5
335
100
AcDbEntity
  8
0
100
AcDbLine
 62
7
  6
CONTINUOUS
 10
61.0792993167
 20
13.7216387285
 11
-60.4970986423
 21
51.0565727147
  0
LWPOLYLINE
  5
336
100
AcDbEntity
  8
0
100
AcDbPolyline
 62
7
  6
CONTINUOUS
 90
19
 70
0
 10
61.0792993167
 20
13.7216387285
 10
61.3152921422
 20
13.6398328594
 10
61.5464716182
 20
13.5426222915
 10
61.7728377445
 20
13.4300070248
 10
61.9960316805
 20
13.3009010423
 10
62.2144122668
 20
13.156390361
 10
62.4230560256
 20
12.9997330322
 10
62.6217417739
 20
12.8306531312
 10
62.8106906947
 20
12.6494265827
 10
62.9856428587
 20
12.460139212
 10
63.146280314
 20
12.2626079084
 10
63.2929210125
 20
12.0570157826
 10
63.4222588809
 20
11.8479979914
 10
63.5339008661
 20
11.6354767171
 10
63.628240021
 20
11.4195297775
 10
63.7031494318
 20
11.205025783
 10
63.757920127
 20
10.9935876037
 10
63.7932610779
 20
10.7835923694
 10
63.8091722845
 20
10.5750400802
  0
LWPOLYLINE
  5
337
100
AcDbEntity
  8
0
100
AcDbPolyline
 62
7
  6
CONTINUOUS
 90
17
 70
0
 10
37.058642035
 20
1.4735968874
 10
37.0559066156
 20
1.4840179323
 10
37.0496449336
 20
1.5020781552
 10
37.039009818
 20
1.5265926127
 10
37.0236582171
 20
1.5559795852
 10
37.0034047714
 20
1.5890154804
 10
36.9781735292
 20
1.6246684493
 10
36.9481129124
 20
1.6618556311
 10
36.9134038697
 20
1.6996750772
 10
36.874689321
 20
1.7369343352
 10
36.8330444859
 20
1.7723567701
 10
36.7893398754
 20
1.8051523906
 10
36.7445973986
 20
1.8346257071
 10
36.7003569654
 20
1.8600071012
 10
36.6578792088
 20
1.8809912039
 10
36.6180714226
 20
1.8976319571
 10
36.5819270586
 20
1.9100770795
  0
LWPOLYLINE
  5
338
100
AcDbEntity
  8
RACCORDO
100
AcDbPolyline
 62
250
  6
CONTINUOUS
 90
15
 70
0
 10
37.9189894855
 20
-33.1029969266
 10
37.9285385328
 20
-33.180548441
 10
37.9528244325
 20
-33.2557257051
 10
37.9915071718
 20
-33.3282557361
 10
38.0440101541
 20
-33.397057417
 10
38.1095507811
 20
-33.4611052046
 10
38.1871521182
 20
-33.5194444163
 10
38.2756574565
 20
-33.5712054602
 10
38.3737475545
 20
-33.6156167973
 10
38.4799602765
 20
-33.6520164343
 10
38.592712461
 20
-33.6798618174
 10
38.7103235317
 20
-33.6987378993
 10
38.8310404379
 20
-33.7083632992
 10
38.9530637721
 20
-33.7085945177
 10
39.0745746739
 20
-33.6994280888
  0
LWPOLYLINE
  5
339
100
AcDbEntity
  8
RACCORDO
100
AcDbPolyline
 62
250
  6
CONTINUOUS
 90
15
 70
0
 10
37.0587413931
 20
1.4776227152
 10
37.0682903888
 20
1.4000714328
 10
37.0925762248
 20
1.3248942075
 10
37.1312588845
 20
1.2523642079
 10
37.1837617733
 20
1.1835625495
 10
37.2493022952
 20
1.1195147737
 10
37.3269035184
 20
1.0611755619
 10
37.4154087372
 20
1.0094145048
 10
37.5134987132
 20
0.9650031408
 10
37.61971127
 20
0.9286034758
 10
37.7324632896
 20
0.9007580433
 10
37.8500743472
 20
0.8818818732
 10
37.9707914557
 20
0.8722563788
 10
38.092815159
 20
0.872025105
 10
38.2143265816
 20
0.881191553
  0
LINE
  5
33A
100
AcDbEntity
  8
RACCORDO
100
AcDbLine
 62
250
  6
CONTINUOUS
 10
39.9597356627
 20
0.7339248813
 11
40.0652988557
 21
-3.2670297088
  0
LINE
  5
33B
100
AcDbEntity
  8
RACCORDO
100
AcDbLine
 62
250
  6
CONTINUOUS
 10
38.6058265685
 20
-15.4739427869
 11
39.0745746739
 21
-33.6994280888
  0
LINE
  5
33C
100
AcDbEntity
  8
RACCORDO
100
AcDbLine
 62
250
  6
CONTINUOUS
 10
40.0652988557
 20
-3.2670297088
 11
40.7565681712
 21
-31.0668539105
  0
LINE
  5
33D
100
AcDbEntity
  8
RACCORDO
100
AcDbLine
 62
250
  6
CONTINUOUS
 10
38.2143265816
 20
0.881191553
 11
38.6058265685
 21
-15.4739427869
  0
LINE
  5
33E
100
AcDbEntity
  8
RACCORDO
100
AcDbLine
 62
250
  6
CONTINUOUS
 10
40.7565681712
 20
-31.0668539105
 11
40.8191807453
 21
-33.814390793
  0
LWPOLYLINE
  5
33F
100
AcDbEntity
  8
RACCORDO
100
AcDbPolyline
 62
250
  6
CONTINUOUS
 90
76
 70
0
 10
39.0745746739
 20
-33.6994280888
 10
39.0750821897
 20
-33.7586620247
 10
39.0728592989
 20
-33.8150312616
 10
39.068179978
 20
-33.8685391104
 10
39.0613313486
 20
-33.9190542291
 10
39.0525674573
 20
-33.966765892
 10
39.0420433509
 20
-34.0121538189
 10
39.0298900972
 20
-34.0553714797
 10
39.0163375254
 20
-34.0963251207
 10
39.0016152892
 20
-34.1351107961
 10
38.9859097465
 20
-34.171780113
 10
38.9693570401
 20
-34.2063873457
 10
38.9520893788
 20
-34.2390372179
 10
38.9342840801
 20
-34.2697369187
 10
38.9160418265
 20
-34.2986029611
 10
38.8973432432
 20
-34.3258886881
 10
38.8782683599
 20
-34.3516683485
 10
38.8589341395
 20
-34.3759665516
 10
38.8393369418
 20
-34.398938926
 10
38.8195305055
 20
-34.4206550987
 10
38.7996126081
 20
-34.4411321014
 10
38.7796270222
 20
-34.4604363296
 10
38.759636918
 20
-34.4786136107
 10
38.7397088327
 20
-34.495704543
 10
38.7198835755
 20
-34.5117644563
 10
38.700218819
 20
-34.5268343726
 10
38.680766978
 20
-34.540957044
 10
38.6615543007
 20
-34.5541871987
 10
38.6426425634
 20
-34.5665546927
 10
38.6240622274
 20
-34.5781084882
 10
38.6057839562
 20
-34.5889255334
 10
38.5878745985
 20
-34.5990225392
 10
38.570339463
 20
-34.6084502409
 10
38.5530431199
 20
-34.6173229625
 10
38.5360139857
 20
-34.6256614974
 10
38.5192712233
 20
-34.6334912366
 10
38.5026495729
 20
-34.6409155266
 10
38.4861186663
 20
-34.6479681156
 10
38.4697363829
 20
-34.6546411295
 10
38.4534606068
 20
-34.6609644033
 10
38.4373281036
 20
-34.6669413055
 10
38.4213255581
 20
-34.6725914781
 10
38.4053304222
 20
-34.6779617843
 10
38.3893842808
 20
-34.6830467929
 10
38.3734609381
 20
-34.6878648921
 10
38.3573267677
 20
-34.692484575
 10
38.3410191293
 20
-34.6968938473
 10
38.3245038684
 20
-34.7010996601
 10
38.3074261515
 20
-34.7051765127
 10
38.2897691627
 20
-34.7091064131
 10
38.2715368825
 20
-34.7128733562
 10
38.2523894366
 20
-34.716527075
 10
38.232208231
 20
-34.7200510471
 10
38.2110817467
 20
-34.7233921197
 10
38.1889710435
 20
-34.7265276359
 10
38.1658767365
 20
-34.7294198527
 10
38.141768343
 20
-34.7320280773
 10
38.1165574457
 20
-34.73431766
 10
38.090267608
 20
-34.736238649
 10
38.0628459001
 20
-34.7377467102
 10
38.0340836332
 20
-34.7387988639
 10
38.0039385568
 20
-34.7393320399
 10
37.9724193249
 20
-34.7392794384
 10
37.9393877881
 20
-34.7385709593
 10
37.9046883658
 20
-34.7371220036
 10
37.868446506
 20
-34.7348518663
 10
37.8309526136
 20
-34.7317042834
 10
37.7923251088
 20
-34.727633387
 10
37.7524474241
 20
-34.7225577818
 10
37.7112713725
 20
-34.7163845581
 10
37.6689294643
 20
-34.7090648736
 10
37.6253181283
 20
-34.7005145076
 10
37.580041796
 20
-34.6905576793
 10
37.5329856671
 20
-34.6790569211
 10
37.4843187683
 20
-34.6659445346
 10
37.4340791074
 20
-34.6511204089
  0
LWPOLYLINE
  5
340
100
AcDbEntity
  8
RACCORDO
100
AcDbPolyline
 62
250
  6
CONTINUOUS
 90
76
 70
0
 10
40.8191799217
 20
-33.8143919211
 10
40.8186494781
 20
-33.9270019639
 10
40.8127332977
 20
-34.0341350233
 10
40.8019128703
 20
-34.1359660303
 10
40.7865224013
 20
-34.232480037
 10
40.7671894142
 20
-34.323858167
 10
40.7448647801
 20
-34.4102839759
 10
40.7202598105
 20
-34.4915653969
 10
40.6937408359
 20
-34.567558613
 10
40.665563238
 20
-34.6389041661
 10
40.6361777324
 20
-34.706076778
 10
40.6057201516
 20
-34.769343379
 10
40.5738699729
 20
-34.8288882975
 10
40.5407220948
 20
-34.8846859308
 10
40.5066480186
 20
-34.9369966534
 10
40.4716841017
 20
-34.9863267307
 10
40.4359934332
 20
-35.0328165834
 10
40.3997817684
 20
-35.0764882899
 10
40.363075133
 20
-35.1176351832
 10
40.3259712316
 20
-35.1563839575
 10
40.2886461794
 20
-35.1927693647
 10
40.2512107775
 20
-35.2269304031
 10
40.2137828783
 20
-35.2589514774
 10
40.1764811668
 20
-35.2889081651
 10
40.1394003208
 20
-35.3169234373
 10
40.1026418487
 20
-35.3430762852
 10
40.0662971501
 20
-35.3674477047
 10
40.0304324853
 20
-35.3901582973
 10
39.9951583574
 20
-35.4112668515
 10
39.9605250137
 20
-35.4308630304
 10
39.9264920513
 20
-35.4491023686
 10
39.8931794407
 20
-35.466022278
 10
39.8605900124
 20
-35.4817128208
 10
39.8284828889
 20
-35.4963840382
 10
39.7969177676
 20
-35.5100740613
 10
39.7659130928
 20
-35.5228338969
 10
39.7351380852
 20
-35.5348589174
 10
39.7045538302
 20
-35.5461759573
 10
39.6742262108
 20
-35.5568135233
 10
39.6438679367
 20
-35.5669779943
 10
39.6133463075
 20
-35.5767375238
 10
39.5825518158
 20
-35.5861392009
 10
39.5513009987
 20
-35.595299775
 10
39.5197140138
 20
-35.6041747099
 10
39.4878211307
 20
-35.6127462277
 10
39.4552791612
 20
-35.6211489764
 10
39.4220983615
 20
-35.629379036
 10
39.3882338211
 20
-35.6374104377
 10
39.3532833773
 20
-35.6453034404
 10
39.3173833595
 20
-35.6531108486
 10
39.2806521533
 20
-35.6606535558
 10
39.2427394047
 20
-35.6675960187
 10
39.2037570416
 20
-35.6737001939
 10
39.1640643902
 20
-35.6790452814
 10
39.1233987297
 20
-35.683800201
 10
39.0814570896
 20
-35.6880149505
 10
39.0377796047
 20
-35.6916431932
 10
38.9919116844
 20
-35.6946662375
 10
38.9439286655
 20
-35.6969892531
 10
38.8939459824
 20
-35.698503949
 10
38.8416682451
 20
-35.6991204801
 10
38.7870034018
 20
-35.6987294984
 10
38.7299290521
 20
-35.6972203302
 10
38.6702469413
 20
-35.6944702169
 10
38.6078942951
 20
-35.6902451273
 10
38.5430923675
 20
-35.6845138783
 10
38.4757828336
 20
-35.6774273549
 10
38.405419991
 20
-35.6687261059
 10
38.3313150721
 20
-35.6582179866
 10
38.2534022163
 20
-35.6461615014
 10
38.1722573726
 20
-35.6328028711
 10
38.0881755964
 20
-35.6176822313
 10
38.0008948706
 20
-35.5999957051
 10
37.9102439001
 20
-35.5793026397
 10
37.8163589217
 20
-35.5556023703
 10
37.71928478
 20
-35.5286832719
  0
LINE
  5
341
100
AcDbEntity
  8
DRAFT
100
AcDbLine
 62
7
  6
CONTINUOUS
 10
33.2401439517
 20
-29.6457834638
 11
33.2885711049
 21
-29.4762949317
  0
LINE
  5
342
100
AcDbEntity
  8
DRAFT
100
AcDbLine
 62
7
  6
CONTINUOUS
 10
33.4381758843
 20
-29.3741262397
 11
33.4916777121
 21
-29.1868770285
  0
LINE
  5
343
100
AcDbEntity
  8
DRAFT
100
AcDbLine
 62
7
  6
CONTINUOUS
 10
33.641957806
 20
-29.0823448264
 11
33.6947843192
 21
-28.8974591253
  0
LINE
  5
344
100
AcDbEntity
  8
DRAFT
100
AcDbLine
 62
7
  6
CONTINUOUS
 10
33.8457397276
 20
-28.7905634132
 11
33.8978909263
 21
-28.6080412222
  0
LWPOLYLINE
  5
345
100
AcDbEntity
  8
RACCORDO
100
AcDbPolyline
 62
7
  6
CONTINUOUS
 90
3
 70
0
 10
34.0391857522
 20
-28.3911626757
 10
34.0343652918
 20
-28.4050945666
 10
34.0233603735
 20
-28.4255162684
  0
LINE
  5
346
100
AcDbEntity
  8
RACCORDO
100
AcDbLine
 62
7
  6
CONTINUOUS
 10
34.0233603735
 20
-28.4255162684
 11
34.006619348
 21
-28.4531080457
  0
LINE
  5
347
100
AcDbEntity
  8
RACCORDO
100
AcDbLine
 62
7
  6
CONTINUOUS
 10
34.0370241411
 20
-29.4267055759
 11
33.7712277945
 21
-29.8091094438
  0
LINE
  5
348
100
AcDbEntity
  8
RACCORDO
100
AcDbLine
 62
7
  6
CONTINUOUS
 10
34.006619348
 20
-28.4531080457
 11
33.8978909263
 21
-28.6080412222
  0
LINE
  5
349
100
AcDbEntity
  8
DRAFT
100
AcDbLine
 62
7
  6
CONTINUOUS
 10
33.7880055193
 20
-28.7646230515
 11
33.6947843192
 21
-28.8974591253
  0
LINE
  5
34A
100
AcDbEntity
  8
DRAFT
100
AcDbLine
 62
7
  6
CONTINUOUS
 10
33.5834759878
 20
-29.0560685587
 11
33.4916777121
 21
-29.1868770285
  0
LINE
  5
34B
100
AcDbEntity
  8
DRAFT
100
AcDbLine
 62
7
  6
CONTINUOUS
 10
33.3789464564
 20
-29.3475140659
 11
33.2885711049
 21
-29.4762949317
  0
LINE
  5
34C
100
AcDbEntity
  8
RACCORDO
100
AcDbLine
 62
250
  6
CONTINUOUS
 10
59.0873044285
 20
11.0412315376
 11
61.0792993167
 21
13.7216387285
  0
LINE
  5
34D
100
AcDbEntity
  8
RACCORDO
100
AcDbLine
 62
250
  6
CONTINUOUS
 10
63.8091722845
 20
10.5750400802
 11
61.6126103533
 21
8.1417981411
  0
LINE
  5
34E
100
AcDbEntity
  8
RACCORDO
100
AcDbLine
 62
7
  6
CONTINUOUS
 10
28.6689999054
 20
-26.8036308637
 11
28.5280291485
 21
-26.9590086932
  0
LINE
  5
34F
100
AcDbEntity
  8
DRAFT
100
AcDbLine
 62
7
  6
CONTINUOUS
 10
28.3929776942
 20
-27.1078622732
 11
28.2784068974
 21
-27.2341420927
  0
LINE
  5
350
100
AcDbEntity
  8
DRAFT
100
AcDbLine
 62
7
  6
CONTINUOUS
 10
28.1416066394
 20
-27.3849232024
 11
28.0287846463
 21
-27.5092754923
  0
LINE
  5
351
100
AcDbEntity
  8
DRAFT
100
AcDbLine
 62
7
  6
CONTINUOUS
 10
27.8902355847
 20
-27.6619841316
 11
27.7791623952
 21
-27.7844088918
  0
LWPOLYLINE
  5
352
100
AcDbEntity
  8
RACCORDO
100
AcDbPolyline
 62
250
  6
CONTINUOUS
 90
16
 70
0
 10
37.6040331216
 20
-33.2127101024
 10
37.5542746561
 20
-33.3160911846
 10
37.5080168912
 20
-33.4257361051
 10
37.4659589976
 20
-33.539987618
 10
37.4287366661
 20
-33.6571188502
 10
37.3969124996
 20
-33.7753594027
 10
37.3709675097
 20
-33.8929221095
 10
37.3512938461
 20
-34.00803005
 10
37.3381888696
 20
-34.1189434066
 10
37.3318506576
 20
-34.2239857613
 10
37.3323750044
 20
-34.3215693057
 10
37.3397539714
 20
-34.4102192507
 10
37.3538761003
 20
-34.4885959875
 10
37.3745280538
 20
-34.5555148208
 10
37.4013977435
 20
-34.609964015
 10
37.4340791074
 20
-34.6511204089
  0
LWPOLYLINE
  5
353
100
AcDbEntity
  8
RACCORDO
100
AcDbPolyline
 62
250
  6
CONTINUOUS
 90
4
 70
0
 10
37.7665961719
 20
-32.9551622898
 10
37.7110022809
 20
-33.03087144
 10
37.6565402055
 20
-33.1171554287
 10
37.6040331216
 20
-33.2127101024
  0
LINE
  5
354
100
AcDbEntity
  8
0
100
AcDbLine
 62
250
  6
CONTINUOUS
 10
37.7665961719
 20
-32.9551622898
 11
37.9108159768
 21
-32.7744347411
  0
LWPOLYLINE
  5
355
100
AcDbEntity
  8
RACCORDO
100
AcDbPolyline
 62
250
  6
CONTINUOUS
 90
8
 70
0
 10
60.216282683
 20
-50.4965034363
 10
60.2269229091
 20
-50.5729700747
 10
60.242956697
 20
-50.6393336926
 10
60.2641673185
 20
-50.6946973315
 10
60.29026808
 20
-50.7383127064
 10
60.3209061974
 20
-50.7695903199
 10
60.3556675639
 20
-50.7881074293
 10
60.3605312728
 20
-50.7895806586
  0
LWPOLYLINE
  5
356
100
AcDbEntity
  8
RACCORDO
100
AcDbPolyline
 62
250
  6
CONTINUOUS
 90
13
 70
0
 10
58.7159248179
 20
9.815310823
 10
58.7221512922
 20
9.916184722
 10
58.7338951301
 20
10.0222025161
 10
58.7509975982
 20
10.1319311662
 10
58.7732275307
 20
10.2438874738
 10
58.8002844544
 20
10.3565581295
 10
58.8318026497
 20
10.4684201678
 10
58.8673560939
 20
10.5779615534
 10
58.9064642211
 20
10.6837016189
 10
58.9485984184
 20
10.7842110788
 10
58.9931891684
 20
10.8781313497
 10
59.0396337473
 20
10.9641929141
 10
59.087304374
 20
11.0412324803
  0
LINE
  5
357
100
AcDbEntity
  8
RACCORDO
100
AcDbLine
 62
7
  6
CONTINUOUS
 10
63.8073718203
 20
-21.7395754719
 11
64.3765456282
 21
-21.227653652
  0
LWPOLYLINE
  5
358
100
AcDbEntity
  8
RACCORDO
100
AcDbPolyline
 62
250
  6
CONTINUOUS
 90
19
 70
0
 10
60.4009622716
 20
7.8734724009
 10
60.3901202432
 20
8.0022826174
 10
60.3670170005
 20
8.1335353479
 10
60.3317997644
 20
8.2662442716
 10
60.2847745184
 20
8.3995345349
 10
60.226290882
 20
8.5324628448
 10
60.1567635527
 20
8.6640054114
 10
60.0767199599
 20
8.7932387852
 10
59.9867706984
 20
8.9192420735
 10
59.8876071968
 20
9.0409986772
 10
59.7799763391
 20
9.1575810628
 10
59.6646716859
 20
9.2682306269
 10
59.5424788727
 20
9.3721963446
 10
59.4141753275
 20
9.4687265484
 10
59.2807171064
 20
9.5570701378
 10
59.1431650864
 20
9.6365043388
 10
59.0024973878
 20
9.7063875358
 10
58.859692286
 20
9.7661649618
 10
58.7159299207
 20
9.8153167512
  0
LINE
  5
359
100
AcDbEntity
  8
RACCORDO
100
AcDbLine
 62
250
  6
CONTINUOUS
 10
60.4240959204
 20
7.4076091192
 11
60.4199544725
 21
7.4728997421
  0
LWPOLYLINE
  5
35A
100
AcDbEntity
  8
RACCORDO
100
AcDbPolyline
 62
250
  6
CONTINUOUS
 90
19
 70
0
 10
61.6126103533
 20
8.1417981411
 10
61.6009546662
 20
8.3342958365
 10
61.5702996414
 20
8.5308756721
 10
61.5208572861
 20
8.7300602215
 10
61.452947603
 20
8.9303590332
 10
61.3670942717
 20
9.1302356795
 10
61.2640532596
 20
9.3281227057
 10
61.1446307723
 20
9.5225301452
 10
61.0097283966
 20
9.7119500977
 10
60.8604855253
 20
9.894837148
 10
60.6981531613
 20
10.0697458102
 10
60.523915563
 20
10.2354131627
 10
60.3389593598
 20
10.3906506903
 10
60.1446141866
 20
10.5343451824
 10
59.9424211914
 20
10.6652911954
 10
59.7339826219
 20
10.7822957112
 10
59.5209129886
 20
10.8844179972
 10
59.3048090512
 20
10.9709477742
 10
59.0873044285
 20
11.0412315376
  0
LINE
  5
35B
100
AcDbEntity
  8
RACCORDO
100
AcDbLine
 62
250
  6
CONTINUOUS
 10
60.4199544725
 20
7.4728997421
 11
60.4159003205
 21
7.5427680788
  0
LINE
  5
35C
100
AcDbEntity
  8
RACCORDO
100
AcDbLine
 62
250
  6
CONTINUOUS
 10
60.4159003205
 20
7.5427680788
 11
60.4119308628
 21
7.6178071509
  0
LINE
  5
35D
100
AcDbEntity
  8
RACCORDO
100
AcDbLine
 62
250
  6
CONTINUOUS
 10
60.4119308628
 20
7.6178071509
 11
60.4080943646
 21
7.69817166
  0
LINE
  5
35E
100
AcDbEntity
  8
RACCORDO
100
AcDbLine
 62
250
  6
CONTINUOUS
 10
63.0399278159
 20
-49.2341178565
 11
63.0316856597
 21
-49.0526893661
  0
LINE
  5
35F
100
AcDbEntity
  8
RACCORDO
100
AcDbLine
 62
250
  6
CONTINUOUS
 10
60.4080943646
 20
7.69817166
 11
60.4044287491
 21
7.7834179088
  0
LINE
  5
360
100
AcDbEntity
  8
RACCORDO
100
AcDbLine
 62
250
  6
CONTINUOUS
 10
63.0316856597
 20
-49.0526893661
 11
63.0249719451
 21
-48.884780743
  0
LINE
  5
361
100
AcDbEntity
  8
RACCORDO
100
AcDbLine
 62
250
  6
CONTINUOUS
 10
60.4044287491
 20
7.7834179088
 11
60.400958229
 21
7.8734657241
  0
LINE
  5
362
100
AcDbEntity
  8
RACCORDO
100
AcDbLine
 62
250
  6
CONTINUOUS
 10
63.0249719451
 20
-48.884780743
 11
63.0197685902
 21
-48.7329344468
  0
LINE
  5
363
100
AcDbEntity
  8
RACCORDO
100
AcDbLine
 62
250
  6
CONTINUOUS
 10
63.0197685902
 20
-48.7329344468
 11
62.6768768826
 21
-36.5557023692
  0
LINE
  5
364
100
AcDbEntity
  8
RACCORDO
100
AcDbLine
 62
250
  6
CONTINUOUS
 10
60.977778618
 20
-12.1356937866
 11
60.4382495271
 21
7.1327698641
  0
LINE
  5
365
100
AcDbEntity
  8
RACCORDO
100
AcDbLine
 62
250
  6
CONTINUOUS
 10
62.6768768826
 20
-36.5557023692
 11
62.5102513196
 21
-30.0953377726
  0
LINE
  5
366
100
AcDbEntity
  8
RACCORDO
100
AcDbLine
 62
7
  6
CONTINUOUS
 10
63.4619406048
 20
-16.8489622954
 11
63.5800419348
 21
-21.5964499186
  0
LINE
  5
367
100
AcDbEntity
  8
RACCORDO
100
AcDbLine
 62
7
  6
CONTINUOUS
 10
65.2364897471
 20
-46.8008759174
 11
64.6038755138
 21
-21.3707792053
  0
LINE
  5
368
100
AcDbEntity
  8
RACCORDO
100
AcDbLine
 62
7
  6
CONTINUOUS
 10
64.4417865179
 20
-14.855056632
 11
63.8091722845
 21
10.5750400802
  0
LINE
  5
369
100
AcDbEntity
  8
RACCORDO
100
AcDbLine
 62
250
  6
CONTINUOUS
 10
61.1070793647
 20
-17.4103361955
 11
60.977778618
 21
-12.1356937866
  0
LINE
  5
36A
100
AcDbEntity
  8
RACCORDO
100
AcDbLine
 62
250
  6
CONTINUOUS
 10
62.5102513196
 20
-30.0953377726
 11
61.8827508075
 21
-4.6325993869
  0
LWPOLYLINE
  5
36B
100
AcDbEntity
  8
RACCORDO
100
AcDbPolyline
 62
250
  6
CONTINUOUS
 90
7
 70
0
 10
60.4382495271
 20
7.1327698641
 10
60.4368864632
 20
7.1940715103
 10
60.4359102317
 20
7.224176632
 10
60.4344361411
 20
7.2541885191
 10
60.4326461661
 20
7.2842126001
 10
60.4306932824
 20
7.3146169649
 10
60.4240959204
 20
7.4076091192
  0
LINE
  5
36C
100
AcDbEntity
  8
RACCORDO
100
AcDbLine
 62
250
  6
CONTINUOUS
 10
61.831267085
 20
-48.8495493798
 11
61.8279862872
 21
-48.7093198739
  0
LINE
  5
36D
100
AcDbEntity
  8
RACCORDO
100
AcDbLine
 62
250
  6
CONTINUOUS
 10
61.6315419792
 20
-39.1280395655
 11
61.1070793647
 21
-17.4103361955
  0
LINE
  5
36E
100
AcDbEntity
  8
RACCORDO
100
AcDbLine
 62
250
  6
CONTINUOUS
 10
61.8827508075
 20
-4.6325993869
 11
61.6192827592
 21
7.5498283653
  0
LINE
  5
36F
100
AcDbEntity
  8
RACCORDO
100
AcDbLine
 62
250
  6
CONTINUOUS
 10
61.8279862872
 20
-48.7093198739
 11
61.6315419792
 21
-39.1280395655
  0
LINE
  5
370
100
AcDbEntity
  8
RACCORDO
100
AcDbLine
 62
250
  6
CONTINUOUS
 10
61.6192827592
 20
7.5498283653
 11
61.6165655087
 21
7.695770335
  0
LINE
  5
371
100
AcDbEntity
  8
RACCORDO
100
AcDbLine
 62
250
  6
CONTINUOUS
 10
61.6165655087
 20
7.695770335
 11
61.6144302508
 21
7.8596107919
  0
LINE
  5
372
100
AcDbEntity
  8
RACCORDO
100
AcDbLine
 62
250
  6
CONTINUOUS
 10
61.8295703902
 20
-49.5544946709
 11
61.8284384294
 21
-49.4292530101
  0
LINE
  5
373
100
AcDbEntity
  8
RACCORDO
100
AcDbLine
 62
250
  6
CONTINUOUS
 10
61.6144302508
 20
7.8596107919
 11
61.6131752012
 21
8.0135314302
  0
LINE
  5
374
100
AcDbEntity
  8
RACCORDO
100
AcDbLine
 62
250
  6
CONTINUOUS
 10
61.6131752012
 20
8.0135314302
 11
61.6126103533
 21
8.1417981411
  0
LWPOLYLINE
  5
375
100
AcDbEntity
  8
RACCORDO
100
AcDbPolyline
 62
250
  6
CONTINUOUS
 90
4
 70
0
 10
61.8284384294
 20
-49.4292530101
 10
61.8281281313
 20
-49.3098252236
 10
61.8283476636
 20
-49.2522624286
 10
61.8289188146
 20
-49.1963905449
  0
LWPOLYLINE
  5
376
100
AcDbEntity
  8
RACCORDO
100
AcDbPolyline
 62
250
  6
CONTINUOUS
 90
5
 70
0
 10
61.8317308554
 20
-49.039623868
 10
61.8322721064
 20
-48.9906296162
 10
61.8324070667
 20
-48.9431846598
 10
61.8320801652
 20
-48.8961923603
 10
61.831267085
 20
-48.8495493798
  0
LINE
  5
377
100
AcDbEntity
  8
RACCORDO
100
AcDbLine
 62
250
  6
CONTINUOUS
 10
61.8289188146
 20
-49.1963905449
 11
61.8317308554
 21
-49.039623868
  0
LINE
  5
378
100
AcDbEntity
  8
RACCORDO
100
AcDbLine
 62
7
  6
CONTINUOUS
 10
64.233579694
 20
-15.4806480663
 11
63.6701474286
 21
-16.2233708611
  0
LWPOLYLINE
  5
379
100
AcDbEntity
  8
RACCORDO
100
AcDbPolyline
 62
250
  6
CONTINUOUS
 90
8
 70
0
 10
62.68606789
 20
-50.2653861479
 10
62.7448379778
 20
-50.1970927305
 10
62.8395939515
 20
-50.0619343501
 10
62.916817733
 20
-49.9149168322
 10
62.9758245896
 20
-49.7573361173
 10
63.0161612387
 20
-49.5904855877
 10
63.037576047
 20
-49.4156231806
 10
63.0399278159
 20
-49.2341178565
  0
LWPOLYLINE
  5
37A
100
AcDbEntity
  8
0
100
AcDbPolyline
 62
7
  6
CONTINUOUS
 90
8
 70
0
 10
64.8428859003
 20
-47.9289499391
 10
64.907440565
 20
-47.8539686548
 10
65.0101464191
 20
-47.7072715254
 10
65.095111293
 20
-47.5463871159
 10
65.1604196195
 20
-47.3749426301
 10
65.2054328761
 20
-47.1941471356
 10
65.2307895853
 20
-47.0027915647
 10
65.2364897471
 20
-46.8008759174
  0
LINE
  5
37B
100
AcDbEntity
  8
RACCORDO
100
AcDbLine
 62
250
  6
CONTINUOUS
 10
63.0399278159
 20
-49.2341178565
 11
65.2364897471
 21
-46.8008759174
  0
LINE
  5
37C
100
AcDbEntity
  8
SUPERFICI
100
AcDbLine
 62
7
  6
CONTINUOUS
 10
64.8432831951
 20
-47.9285197365
 11
62.6860593923
 21
-50.2653953533
  0
ELLIPSE
  5
37D
100
AcDbEntity
  8
RACCORDO
100
AcDbEllipse
 62
7
  6
CONTINUOUS
 10
64.1913265814
 20
-15.1325036791
 30
0.0
 11
0.1655627174
 21
0.4721380514
 31
0.0
 40
0.3985724632
 41
-2.2506619197
 42
-0.8107652868
  0
ELLIPSE
  5
37E
100
AcDbEntity
  8
RACCORDO
100
AcDbEllipse
 62
7
  6
CONTINUOUS
 10
63.7124005413
 20
-16.5715152483
 30
0.0
 11
0.1655627174
 21
0.4721380514
 31
0.0
 40
0.3985724632
 41
0.8909307339
 42
2.3308273668
  0
ELLIPSE
  5
37F
100
AcDbEntity
  8
RACCORDO
100
AcDbEllipse
 62
7
  6
CONTINUOUS
 10
64.3534155772
 20
-21.6482262524
 30
0.0
 11
0.1655627174
 21
0.4721380514
 31
0.0
 40
0.3985724632
 41
5.4724200204
 42
6.9123166533
  0
ELLIPSE
  5
380
100
AcDbEntity
  8
RACCORDO
100
AcDbEllipse
 62
7
  6
CONTINUOUS
 10
63.8305018713
 20
-21.3190028715
 30
0.0
 11
0.1655627174
 21
0.4721380514
 31
0.0
 40
0.3985724632
 41
2.3308273668
 42
3.7707239997
  0
ENDSEC
  0
SECTION
  2
OBJECTS
  0
DICTIONARY
  5
C
100
AcDbDictionary
280
0
281
1
  3
ACAD_GROUP
350
D
  3
ACAD_MLINESTYLE
350
17
  3
ACAD_LAYOUT
350
1A
  3
ACAD_PLOTSETTINGS
350
19
  3
ACAD_PLOTSTYLENAME
350
E
  0
DICTIONARY
  5
D
102
{ACAD_REACTORS
330
C
102
}
100
AcDbDictionary
280
0
281
1
  0
ACDBDICTIONARYWDFLT
  5
E
102
{ACAD_REACTORS
330
C
102
}
100
AcDbDictionary
281
1
  3
Normal
350
F
100
AcDbDictionaryWithDefault
340
F
  0
DICTIONARY
  5
17
102
{ACAD_REACTORS
330
C
102
}
100
AcDbDictionary
280
0
281
1
  3
Standard
350
18
  0
DICTIONARY
  5
19
102
{ACAD_REACTORS
330
C
102
}
100
AcDbDictionary
281
1
  0
DICTIONARY
  5
1A
102
{ACAD_REACTORS
330
C
102
}
100
AcDbDictionary
281
1
  3
Model
350
381
  3
Layout1
350
382
  0
ACDBPLACEHOLDER
  5
F
102
{ACAD_REACTORS
330
E
102
}
  0
MLINESTYLE
  5
18
102
{ACAD_REACTORS
330
17
102
}
100
AcDbMlineStyle
  2
STANDARD
 70
0
  3

 62
256
 51
90.0
 52
90.0
 71
2
 49
0.5
 62
256
  6
BYLAYER
 49
-0.5
 62
256
  6
BYLAYER
  0
LAYOUT
  5
381
102
{ACAD_REACTORS
330
1A
102
}
100
AcDbPlotSettings
  1

  2
none_device
  4
ISO_A4_(297.00_x_210.00_MM)
  6

 40
0.0
 41
0.0
 42
0.0
 43
0.0
 44
297.0
 45
210.0
 46
0.0
 47
0.0
 48
0.0
 49
0.0
140
0.0
141
0.0
142
1.0
143
1.0
 70
1024
 72
1
 73
0
 74
0
  7

 75
0
147
1.0
148
0.0
149
0.0
100
AcDbLayout
  1
Model
 70
0
 71
0
 10
0.0
 20
0.0
 11
297.0
 21
210.0
 12
0.0
 22
0.0
 32
0.0
 14
0.0
 24
0.0
 34
0.0
 15
0.0
 25
0.0
 35
0.0
146
0.0
 13
0.0
 23
0.0
 33
0.0
 16
1.0
 26
0.0
 36
0.0
 17
0.0
 27
1.0
 37
0.0
 76
0
330
223
345
0
346
0
  0
LAYOUT
  5
382
102
{ACAD_REACTORS
330
1A
102
}
100
AcDbPlotSettings
  1

  2
none_device
  4
ISO_A4_(297.00_x_210.00_MM)
  6

 40
0.0
 41
0.0
 42
0.0
 43
0.0
 44
297.0
 45
210.0
 46
0.0
 47
0.0
 48
0.0
 49
0.0
140
0.0
141
0.0
142
1.0
143
1.0
 70
0
 72
1
 73
0
 74
0
  7

 75
0
147
1.0
148
0.0
149
0.0
100
AcDbLayout
  1
Layout1
 70
0
 71
1
 10
0.0
 20
0.0
 11
297.0
 21
210.0
 12
0.0
 22
0.0
 32
0.0
 14
0.0
 24
0.0
 34
0.0
 15
0.0
 25
0.0
 35
0.0
146
0.0
 13
0.0
 23
0.0
 33
0.0
 16
1.0
 26
0.0
 36
0.0
 17
0.0
 27
1.0
 37
0.0
 76
0
330
224
345
0
346
0
  0
ENDSEC
  0
EOF
