  0
SECTION
  2
HEADER
  9
$ACADVER
  1
AC1024
  9
$DWGCODEPAGE
  3
ANSI_1252
  9
$EXTMAX
 10
297.0
 20
210.0
 30
0.0
  9
$EXTMIN
 10
0.0
 20
0.0
 30
0.0
  9
$LIMMIN
 10
0.0
 20
0.0
  9
$LIMMAX
 10
297.0
 20
210.0
  9
$VIEWCTR
 10
148.5
 20
105.0
  9
$VIEWSIZE
 40
210.0
  9
$CLAYER
  8
0
  9
$LTSCALE
 40
16.335
  9
$CELTYPE
  6
BYLAYER
  9
$DIMSCALE
 40
1.0
  9
$DIMASZ
 40
3.0
  9
$DIMEXO
 40
0.5
  9
$DIMDLI
 40
11.286
  9
$DIMEXE
 40
1.5
  9
$DIMCEN
 40
2.673
  9
$DIMLFAC
 40
1.0
  9
$DIMBLK
  1
_FILLED
  9
$DIMALT
 70
0
  9
$DIMALTF
 40
0.0393700787
  9
$DIMTXT
 40
3.0
  9
$DIMTOL
 70
1
  9
$DIMLIM
 70
0
  9
$DIMTFAC
 40
1.0
  9
$DIMTP
 40
0.01
  9
$DIMTM
 40
0.01
  9
$DIMGAP
 40
0.625
  9
$DIMDSEP
 70
44
  9
$AUNITS
 70
0
  9
$PDMODE
 70
3
  9
$PDSIZE
 40
3.0
  9
$HANDSEED
  5
4F6
  9
$TILEMODE
 70
1
  9
$MEASUREMENT
 70
1
  9
$INSUNITS
 70
4
  0
ENDSEC
  0
SECTION
  2
CLASSES
  0
CLASS
  1
ACDBDICTIONARYWDFLT
  2
AcDbDictionaryWithDefault
  3
AutoCAD 2000
 90
0
 91
1
280
0
281
0
  0
CLASS
  1
ACDBPLACEHOLDER
  2
AcDbPlaceHolder
  3
AutoCAD 2000
 90
0
 91
1
280
0
281
0
  0
CLASS
  1
LAYOUT
  2
AcDbLayout
  3
AutoCAD 2000
 90
0
 91
0
280
0
281
0
  0
ENDSEC
  0
SECTION
  2
TABLES
  0
TABLE
  2
VPORT
  5
8
100
AcDbSymbolTable
 70
2
  0
VPORT
  5
1F4
100
AcDbSymbolTableRecord
100
AcDbViewportTableRecord
  2
*ACTIVE
 70
0
 10
0.0
 20
0.0
 11
1.0
 21
1.0
 12
148.5
 22
105.0
 13
0.0
 23
0.0
 14
1.0
 24
1.0
 15
0.0
 25
0.0
 16
0.0
 26
0.0
 36
1.0
 17
0.0
 27
0.0
 37
0.0
 40
210.0
 41
1.4142857143
 42
50.0
 43
0.0
 44
0.0
 50
0.0
 51
0.0
 71
0
 72
100
 73
1
 74
1
 75
0
 76
0
 77
0
 78
0
  0
ENDTAB
  0
TABLE
  2
LTYPE
  5
5
100
AcDbSymbolTable
 70
6
  0
LTYPE
  5
14
100
AcDbSymbolTableRecord
100
AcDbLinetypeTableRecord
  2
BYBLOCK
 70
0
  3

 72
65
 73
0
 40
0.0
  0
LTYPE
  5
15
100
AcDbSymbolTableRecord
100
AcDbLinetypeTableRecord
  2
BYLAYER
 70
0
  3

 72
65
 73
0
 40
0.0
  0
LTYPE
  5
16
100
AcDbSymbolTableRecord
100
AcDbLinetypeTableRecord
  2
CONTINUOUS
 70
64
  3
Solid line
 72
65
 73
0
 40
0.0
  0
LTYPE
  5
1F5
100
AcDbSymbolTableRecord
100
AcDbLinetypeTableRecord
  2
CENTER
 70
64
  3
____ _ ____ _ ____ _ ____ _ ____ _ ____ _ ____
 72
65
 73
4
 40
0.6
 49
0.375
 74
0
 49
-0.075
 74
0
 49
0.075
 74
0
 49
-0.075
 74
0
  0
LTYPE
  5
1F6
100
AcDbSymbolTableRecord
100
AcDbLinetypeTableRecord
  2
HIDDEN
 70
64
  3
- - - - - - - - - - - - - - - - - - - -
 72
65
 73
2
 40
0.2
 49
0.1
 74
0
 49
-0.1
 74
0
  0
LTYPE
  5
1F7
100
AcDbSymbolTableRecord
100
AcDbLinetypeTableRecord
  2
PHANTOM
 70
64
  3
_____ _ _ _____ _ _ _____ _ _ _____
 72
65
 73
6
 40
0.8
 49
0.45
 74
0
 49
-0.05
 74
0
 49
0.1
 74
0
 49
-0.05
 74
0
 49
0.1
 74
0
 49
-0.05
 74
0
  0
LTYPE
  5
1F8
100
AcDbSymbolTableRecord
100
AcDbLinetypeTableRecord
  2
DOT
 70
64
  3
. . . . . . . . . . . . . . . . . . . .
 72
65
 73
2
 40
0.2
 49
0.1
 74
0
 49
-0.1
 74
0
  0
LTYPE
  5
1F9
100
AcDbSymbolTableRecord
100
AcDbLinetypeTableRecord
  2
DASHED
 70
64
  3
- - - - - - - - - - - - - - - - - - - -
 72
65
 73
2
 40
0.2
 49
0.1
 74
0
 49
-0.1
 74
0
  0
ENDTAB
  0
TABLE
  2
LAYER
  5
2
100
AcDbSymbolTable
 70
36
  0
LAYER
  5
10
100
AcDbSymbolTableRecord
100
AcDbLayerTableRecord
  2
0
 70
0
 62
7
  6
CONTINUOUS
370
-3
390
F
  0
LAYER
  5
1FA
100
AcDbSymbolTableRecord
100
AcDbLayerTableRecord
  2
DEFAULT_1
 70
0
 62
7
  6
CENTER
370
-3
390
F
  0
LAYER
  5
1FB
100
AcDbSymbolTableRecord
100
AcDbLayerTableRecord
  2
DEFAULT_2
 70
0
 62
7
  6
HIDDEN
370
-3
390
F
  0
LAYER
  5
1FC
100
AcDbSymbolTableRecord
100
AcDbLayerTableRecord
  2
DEFAULT_3
 70
0
 62
7
  6
PHANTOM
370
-3
390
F
  0
LAYER
  5
1FD
100
AcDbSymbolTableRecord
100
AcDbLayerTableRecord
  2
ASSI
 70
0
 62
7
  6
CONTINUOUS
370
-3
390
F
  0
LAYER
  5
1FE
100
AcDbSymbolTableRecord
100
AcDbLayerTableRecord
  2
COORDINATE
 70
0
 62
7
  6
CONTINUOUS
370
-3
390
F
  0
LAYER
  5
1FF
100
AcDbSymbolTableRecord
100
AcDbLayerTableRecord
  2
COORD_ORIGINE
 70
0
 62
7
  6
CONTINUOUS
370
-3
390
F
  0
LAYER
  5
200
100
AcDbSymbolTableRecord
100
AcDbLayerTableRecord
  2
CURVE
 70
0
 62
7
  6
CONTINUOUS
370
-3
390
F
  0
LAYER
  5
201
100
AcDbSymbolTableRecord
100
AcDbLayerTableRecord
  2
DRAFT
 70
0
 62
7
  6
CONTINUOUS
370
-3
390
F
  0
LAYER
  5
202
100
AcDbSymbolTableRecord
100
AcDbLayerTableRecord
  2
MARCHI_SOTTO
 70
0
 62
7
  6
CONTINUOUS
370
-3
390
F
  0
LAYER
  5
203
100
AcDbSymbolTableRecord
100
AcDbLayerTableRecord
  2
NOTE
 70
0
 62
7
  6
CONTINUOUS
370
-3
390
F
  0
LAYER
  5
204
100
AcDbSymbolTableRecord
100
AcDbLayerTableRecord
  2
PIANI
 70
0
 62
7
  6
CONTINUOUS
370
-3
390
F
  0
LAYER
  5
205
100
AcDbSymbolTableRecord
100
AcDbLayerTableRecord
  2
PIANI_ORIGINE
 70
0
 62
7
  6
CONTINUOUS
370
-3
390
F
  0
LAYER
  5
206
100
AcDbSymbolTableRecord
100
AcDbLayerTableRecord
  2
PUNTI
 70
0
 62
7
  6
CONTINUOUS
370
-3
390
F
  0
LAYER
  5
207
100
AcDbSymbolTableRecord
100
AcDbLayerTableRecord
  2
RACCORDO
 70
0
 62
7
  6
CONTINUOUS
370
-3
390
F
  0
LAYER
  5
208
100
AcDbSymbolTableRecord
100
AcDbLayerTableRecord
  2
SCRITTA_VIMAR
 70
0
 62
7
  6
CONTINUOUS
370
-3
390
F
  0
LAYER
  5
209
100
AcDbSymbolTableRecord
100
AcDbLayerTableRecord
  2
SNAPLINE
 70
0
 62
7
  6
CONTINUOUS
370
-3
390
F
  0
LAYER
  5
20A
100
AcDbSymbolTableRecord
100
AcDbLayerTableRecord
  2
SUPERFICI
 70
0
 62
7
  6
CONTINUOUS
370
-3
390
F
  0
LAYER
  5
20B
100
AcDbSymbolTableRecord
100
AcDbLayerTableRecord
  2
TRASH
 70
0
 62
7
  6
CONTINUOUS
370
-3
390
F
  0
LAYER
  5
20C
100
AcDbSymbolTableRecord
100
AcDbLayerTableRecord
  2
XSEC_DATUMS
 70
0
 62
7
  6
CONTINUOUS
370
-3
390
F
  0
ENDTAB
  0
TABLE
  2
STYLE
  5
3
100
AcDbSymbolTable
 70
1
  0
STYLE
  5
11
100
AcDbSymbolTableRecord
100
AcDbTextStyleTableRecord
  2
STANDARD
 70
0
 40
0.0
 41
0.8
 50
0.0
 71
0
 42
0.2
  3
txt
  4

  0
STYLE
  5
20D
100
AcDbSymbolTableRecord
100
AcDbTextStyleTableRecord
  2
TEXTSTYLE_1
 70
0
 40
0.0
 41
0.8
 50
0.0
 71
0
 42
0.2
  3
gdt
  4

  0
ENDTAB
  0
TABLE
  2
VIEW
  5
6
100
AcDbSymbolTable
 70
0
  0
ENDTAB
  0
TABLE
  2
UCS
  5
7
100
AcDbSymbolTable
 70
0
  0
ENDTAB
  0
TABLE
  2
APPID
  5
9
100
AcDbSymbolTable
 70
1
  0
APPID
  5
20E
100
AcDbSymbolTableRecord
100
AcDbRegAppTableRecord
  2
ACAD
 70
0
  0
ENDTAB
  0
TABLE
  2
BLOCK_RECORD
  5
1
100
AcDbSymbolTable
 70
0
  0
BLOCK_RECORD
  5
20F
100
AcDbSymbolTableRecord
100
AcDbBlockTableRecord
  2
*Model_Space
  0
BLOCK_RECORD
  5
210
100
AcDbSymbolTableRecord
100
AcDbBlockTableRecord
  2
*Paper_Space
  0
BLOCK_RECORD
  5
211
100
AcDbSymbolTableRecord
100
AcDbBlockTableRecord
  2
_FILLED
  0
ENDTAB
  0
TABLE
  2
DIMSTYLE
  5
A
100
AcDbSymbolTable
 70
1
100
AcDbDimStyleTable
 71
0
  0
DIMSTYLE
105
212
100
AcDbSymbolTableRecord
100
AcDbDimStyleTableRecord
  2
STANDARD
 70
0
  3

  4

 40
1.0
 41
3.0
 42
0.5
 43
0.38
 44
1.5
 45
0.0
 46
0.0
 47
0.01
 48
0.01
140
3.0
141
0.09
142
0.0
143
25.4
144
1.0
145
0.0
146
1.0
147
0.625
 71
1
 72
0
 73
0
 74
0
 75
0
 76
0
 77
1
 78
8
 79
2
170
0
171
1
172
0
173
0
174
0
175
0
176
0
177
0
178
0
270
2
179
2
271
2
272
2
273
2
274
2
275
0
280
0
281
0
282
0
283
1
284
8
285
0
286
0
287
3
288
0
340
11
278
44
341
211
342
211
343
211
344
211
  0
ENDTAB
  0
ENDSEC
  0
SECTION
  2
BLOCKS
  0
BLOCK
  5
20
100
AcDbEntity
  8
0
100
AcDbBlockBegin
  2
*Model_Space
 70
0
 10
0.0
 20
0.0
 30
0.0
  3
*Model_Space
  1

  0
ENDBLK
  5
21
100
AcDbEntity
  8
0
100
AcDbBlockEnd
  0
BLOCK
  5
1C
100
AcDbEntity
  8
0
100
AcDbBlockBegin
  2
*Paper_Space
 70
0
 10
0.0
 20
0.0
 30
0.0
  3
*Paper_Space
  1

  0
ENDBLK
  5
1D
100
AcDbEntity
  8
0
100
AcDbBlockEnd
  0
BLOCK
  5
213
100
AcDbEntity
  8
0
100
AcDbBlockBegin
  2
_FILLED
 70
64
 10
0.0
 20
0.0
  3
_FILLED
  1

  0
SOLID
  5
214
100
AcDbEntity
  8
0
  6
BYBLOCK
 62
0
100
AcDbTrace
 10
0.0
 20
0.0
 11
-1.0
 21
0.3166666667
 12
-1.0
 22
-0.3166666667
 13
-1.0
 23
-0.3166666667
  0
ENDBLK
  5
215
100
AcDbEntity
  8
0
  6
BYBLOCK
 62
0
100
AcDbBlockEnd
  0
ENDSEC
  0
SECTION
  2
ENTITIES
  0
LWPOLYLINE
  5
216
100
AcDbEntity
  8
RACCORDO
100
AcDbPolyline
 62
7
  6
CONTINUOUS
 90
8
 70
0
 10
-32.6934623924
 20
23.7155597016
 10
-32.7301749046
 20
23.6544341873
 10
-32.7720906319
 20
23.5692052371
 10
-32.8062194971
 20
23.4792162092
 10
-32.8322012796
 20
23.3850917687
 10
-32.8497488241
 20
23.2876474654
 10
-32.8587488672
 20
23.1875168569
 10
-32.8599870106
 20
23.1199796793
  0
LINE
  5
217
100
AcDbEntity
  8
RACCORDO
100
AcDbLine
 62
7
  6
CONTINUOUS
 10
-32.6934696864
 20
23.7155485955
 11
-31.6968550048
 21
25.2456913257
  0
LINE
  5
218
100
AcDbEntity
  8
RACCORDO
100
AcDbLine
 62
250
  6
CONTINUOUS
 10
-31.5140280277
 20
23.993819223
 11
-30.5152491687
 21
25.5272846739
  0
LWPOLYLINE
  5
219
100
AcDbEntity
  8
RACCORDO
100
AcDbPolyline
 62
250
  6
CONTINUOUS
 90
19
 70
0
 10
-32.6933896187
 20
23.7156715546
 10
-32.6716312033
 20
23.7471655973
 10
-32.6416193115
 20
23.7853119573
 10
-32.607820565
 20
23.8225273626
 10
-32.570035141
 20
23.8584956992
 10
-32.5280602857
 20
23.8928969086
 10
-32.4815973852
 20
23.92543085
 10
-32.4305706169
 20
23.9556475494
 10
-32.3747312096
 20
23.9831982619
 10
-32.3134428941
 20
24.0077777945
 10
-32.2465171461
 20
24.0288429654
 10
-32.1738628079
 20
24.0457901927
 10
-32.0949056759
 20
24.0579779406
 10
-32.0087151409
 20
24.0647044944
 10
-31.9161840706
 20
24.065052699
 10
-31.8197408812
 20
24.058361092
 10
-31.7205902467
 20
24.0444161411
 10
-31.6184986716
 20
24.0229740898
 10
-31.5140280277
 20
23.993819223
  0
LWPOLYLINE
  5
21A
100
AcDbEntity
  8
RACCORDO
100
AcDbPolyline
 62
250
  6
CONTINUOUS
 90
13
 70
0
 10
-31.5140280277
 20
23.993819223
 10
-31.5420456592
 20
23.9567882277
 10
-31.569399613
 20
23.9152659431
 10
-31.5957233962
 20
23.8698086903
 10
-31.6206643183
 20
23.821025512
 10
-31.6438882165
 20
23.7695700115
 10
-31.6650839327
 20
23.7161315967
 10
-31.6839674831
 20
23.6614262427
 10
-31.7002858624
 20
23.6061868993
 10
-31.713820434
 20
23.5511536708
 10
-31.724389859
 20
23.4970638997
 10
-31.731852526
 20
23.4446422884
 10
-31.7361084485
 20
23.3945911886
  0
LINE
  5
21B
100
AcDbEntity
  8
RACCORDO
100
AcDbLine
 62
250
  6
CONTINUOUS
 10
-32.6460824301
 20
22.6534836559
 11
-32.6408385912
 21
22.8701121552
  0
LWPOLYLINE
  5
21C
100
AcDbEntity
  8
RACCORDO
100
AcDbPolyline
 62
250
  6
CONTINUOUS
 90
31
 70
0
 10
-32.6408385931
 20
22.8701121534
 10
-32.6398333543
 20
22.8954217061
 10
-32.6379118914
 20
22.9210946511
 10
-32.634998162
 20
22.9470781984
 10
-32.6310296454
 20
22.9732276074
 10
-32.6259223652
 20
22.9995706453
 10
-32.6195342832
 20
23.026290778
 10
-32.6117392838
 20
23.0533502382
 10
-32.6024409682
 20
23.0805945864
 10
-32.591495788
 20
23.1079973997
 10
-32.5787874953
 20
23.1354216902
 10
-32.5641915026
 20
23.1627463864
 10
-32.5475205259
 20
23.1899330326
 10
-32.5286313544
 20
23.2168199438
 10
-32.5073993155
 20
23.2432161596
 10
-32.4836362367
 20
23.2689946182
 10
-32.4572175323
 20
23.2939259831
 10
-32.4280149252
 20
23.3177857832
 10
-32.3958145189
 20
23.3404004748
 10
-32.3605803423
 20
23.3614431544
 10
-32.3221493698
 20
23.3806705243
 10
-32.2800689215
 20
23.3979219456
 10
-32.2342292583
 20
23.4127991134
 10
-32.1845756296
 20
23.4248805439
 10
-32.1306944403
 20
23.4337981796
 10
-32.071976015
 20
23.4390550937
 10
-32.0090462903
 20
23.4399810809
 10
-31.9435145948
 20
23.4361705029
 10
-31.8761715705
 20
23.4274764828
 10
-31.8068806856
 20
23.4136721175
 10
-31.7361062005
 20
23.3945932828
  0
LWPOLYLINE
  5
21D
100
AcDbEntity
  8
RACCORDO
100
AcDbPolyline
 62
7
  6
CONTINUOUS
 90
18
 70
0
 10
-32.1508051277
 20
-5.3879144123
 10
-32.1439010744
 20
-5.4764651101
 10
-32.1260700786
 20
-5.5878589843
 10
-32.0975839554
 20
-5.7015314573
 10
-32.0583535322
 20
-5.816175931
 10
-32.0091872863
 20
-5.9291668622
 10
-31.9506346583
 20
-6.0396361463
 10
-31.8829096215
 20
-6.1473707703
 10
-31.8071200617
 20
-6.2508364492
 10
-31.7240621332
 20
-6.3492954112
 10
-31.6341322401
 20
-6.4425360325
 10
-31.5381433577
 20
-6.5298360548
 10
-31.4367581927
 20
-6.6107318351
 10
-31.3305764256
 20
-6.6847780221
 10
-31.2204381432
 20
-6.7514051888
 10
-31.1070392524
 20
-6.8102031489
 10
-30.9909385688
 20
-6.8607805805
 10
-30.904989613
 20
-6.8922617559
  0
LINE
  5
21E
100
AcDbEntity
  8
RACCORDO
100
AcDbLine
 62
250
  6
CONTINUOUS
 10
-31.9315126516
 20
-5.6436773356
 11
-31.9476898296
 21
-5.423867943
  0
LWPOLYLINE
  5
21F
100
AcDbEntity
  8
RACCORDO
100
AcDbPolyline
 62
250
  6
CONTINUOUS
 90
4
 70
0
 10
-31.9476898296
 20
-5.423867943
 10
-31.9488457214
 20
-5.404871378
 10
-31.9496486405
 20
-5.3858540633
 10
-31.9894160277
 20
-4.2516529145
  0
LINE
  5
220
100
AcDbEntity
  8
RACCORDO
100
AcDbLine
 62
250
  6
CONTINUOUS
 10
-32.1507764145
 20
-5.3885933296
 11
-32.1504547822
 21
-5.3941765261
  0
LINE
  5
221
100
AcDbEntity
  8
RACCORDO
100
AcDbLine
 62
7
  6
CONTINUOUS
 10
-32.1508054537
 20
-5.3879144268
 11
-32.1507764145
 21
-5.3885933296
  0
LWPOLYLINE
  5
222
100
AcDbEntity
  8
RACCORDO
100
AcDbPolyline
 62
250
  6
CONTINUOUS
 90
10
 70
0
 10
-32.8599870106
 20
23.1199796793
 10
-32.8594859051
 20
23.1077595123
 10
-32.8535094037
 20
23.0725186545
 10
-32.8408808201
 20
23.0379792048
 10
-32.8217703794
 20
23.0046067327
 10
-32.7964356782
 20
22.9728510778
 10
-32.7652182119
 20
22.9431402862
 10
-32.7285387722
 20
22.9158748404
 10
-32.6868917743
 20
22.891422261
 10
-32.6408385931
 20
22.8701121534
  0
LINE
  5
223
100
AcDbEntity
  8
RACCORDO
100
AcDbLine
 62
250
  6
CONTINUOUS
 10
-31.9894160277
 20
-4.2516529145
 11
-32.0788380047
 21
-1.668364695
  0
LINE
  5
224
100
AcDbEntity
  8
RACCORDO
100
AcDbLine
 62
250
  6
CONTINUOUS
 10
-32.0788380047
 20
-1.668364695
 11
-32.0991706008
 21
-1.0669677598
  0
LINE
  5
225
100
AcDbEntity
  8
RACCORDO
100
AcDbLine
 62
250
  6
CONTINUOUS
 10
-32.0991706008
 20
-1.0669677598
 11
-32.1169721527
 21
-0.5276311572
  0
LINE
  5
226
100
AcDbEntity
  8
RACCORDO
100
AcDbLine
 62
250
  6
CONTINUOUS
 10
-32.1169721527
 20
-0.5276311572
 11
-32.1361353277
 21
0.069657191
  0
LINE
  5
227
100
AcDbEntity
  8
RACCORDO
100
AcDbLine
 62
250
  6
CONTINUOUS
 10
-32.1361353277
 20
0.069657191
 11
-32.1513885833
 21
0.55969971
  0
LINE
  5
228
100
AcDbEntity
  8
RACCORDO
100
AcDbLine
 62
7
  6
CONTINUOUS
 10
-32.1727524099
 20
-4.6651040243
 11
-32.1507764145
 21
-5.3885933296
  0
LINE
  5
229
100
AcDbEntity
  8
RACCORDO
100
AcDbLine
 62
250
  6
CONTINUOUS
 10
-32.1513885833
 20
0.55969971
 11
-32.1673731277
 21
1.0891407126
  0
LINE
  5
22A
100
AcDbEntity
  8
RACCORDO
100
AcDbLine
 62
250
  6
CONTINUOUS
 10
-32.1673731277
 20
1.0891407126
 11
-32.18406184
 21
1.6612643717
  0
LINE
  5
22B
100
AcDbEntity
  8
RACCORDO
100
AcDbLine
 62
250
  6
CONTINUOUS
 10
-32.18406184
 20
1.6612643717
 11
-32.2014310892
 21
2.2795900165
  0
LINE
  5
22C
100
AcDbEntity
  8
RACCORDO
100
AcDbLine
 62
250
  6
CONTINUOUS
 10
-32.2014310892
 20
2.2795900165
 11
-32.2133846506
 21
2.7194076357
  0
LINE
  5
22D
100
AcDbEntity
  8
RACCORDO
100
AcDbLine
 62
250
  6
CONTINUOUS
 10
-32.2133846506
 20
2.7194076357
 11
-32.2256407194
 21
3.1824246501
  0
LINE
  5
22E
100
AcDbEntity
  8
RACCORDO
100
AcDbLine
 62
250
  6
CONTINUOUS
 10
-32.3859357392
 20
9.7012706087
 11
-32.4436817389
 21
11.942778309
  0
LINE
  5
22F
100
AcDbEntity
  8
RACCORDO
100
AcDbLine
 62
250
  6
CONTINUOUS
 10
-32.2256407194
 20
3.1824246501
 11
-32.2446290788
 21
3.9233684215
  0
LINE
  5
230
100
AcDbEntity
  8
RACCORDO
100
AcDbLine
 62
250
  6
CONTINUOUS
 10
-32.4436817389
 20
11.942778309
 11
-32.4650692957
 21
12.7842533694
  0
LINE
  5
231
100
AcDbEntity
  8
RACCORDO
100
AcDbLine
 62
7
  6
CONTINUOUS
 10
-32.5699974217
 20
10.5318378943
 11
-32.503000078
 21
7.8448099687
  0
LWPOLYLINE
  5
232
100
AcDbEntity
  8
RACCORDO
100
AcDbPolyline
 62
7
  6
CONTINUOUS
 90
8
 70
0
 10
-32.4251953603
 20
4.6809010985
 10
-32.3998262027
 20
3.662723726
 10
-32.3744620045
 20
2.6630909718
 10
-32.3490037491
 20
1.682097571
 10
-32.3234196996
 20
0.7198488279
 10
-32.2977467356
 20
-0.2236208231
 10
-32.2720761167
 20
-1.1484584638
 10
-32.1727524099
 20
-4.6651040243
  0
LINE
  5
233
100
AcDbEntity
  8
RACCORDO
100
AcDbLine
 62
7
  6
CONTINUOUS
 10
-32.5276712607
 20
8.834439464
 11
-32.5276685591
 21
8.8343308708
  0
LINE
  5
234
100
AcDbEntity
  8
RACCORDO
100
AcDbLine
 62
250
  6
CONTINUOUS
 10
-32.3316718979
 20
7.5201767606
 11
-32.358696274
 21
8.6053314851
  0
LINE
  5
235
100
AcDbEntity
  8
RACCORDO
100
AcDbLine
 62
7
  6
CONTINUOUS
 10
-32.503000078
 20
7.8448099687
 11
-32.4251953603
 21
4.6809010985
  0
LINE
  5
236
100
AcDbEntity
  8
RACCORDO
100
AcDbLine
 62
250
  6
CONTINUOUS
 10
-32.4650692957
 20
12.7842533694
 11
-32.4842941915
 21
13.5626188956
  0
LINE
  5
237
100
AcDbEntity
  8
RACCORDO
100
AcDbLine
 62
250
  6
CONTINUOUS
 10
-32.2446290788
 20
3.9233684215
 11
-32.2644452401
 21
4.7235185877
  0
LINE
  5
238
100
AcDbEntity
  8
RACCORDO
100
AcDbLine
 62
250
  6
CONTINUOUS
 10
-32.3586960277
 20
8.605331534
 11
-32.3859357392
 21
9.7012706087
  0
LINE
  5
239
100
AcDbEntity
  8
RACCORDO
100
AcDbLine
 62
250
  6
CONTINUOUS
 10
-32.4842941915
 20
13.5626188956
 11
-32.4959348069
 21
14.0489298341
  0
LINE
  5
23A
100
AcDbEntity
  8
RACCORDO
100
AcDbLine
 62
250
  6
CONTINUOUS
 10
-32.2644452401
 20
4.7235185877
 11
-32.3316718979
 21
7.5201767606
  0
LINE
  5
23B
100
AcDbEntity
  8
RACCORDO
100
AcDbLine
 62
250
  6
CONTINUOUS
 10
-32.4959348069
 20
14.0489298341
 11
-32.5066753968
 21
14.5108687503
  0
LINE
  5
23C
100
AcDbEntity
  8
RACCORDO
100
AcDbLine
 62
250
  6
CONTINUOUS
 10
-32.5066753968
 20
14.5108687503
 11
-32.5165695827
 21
14.949789361
  0
LWPOLYLINE
  5
23D
100
AcDbEntity
  8
RACCORDO
100
AcDbPolyline
 62
7
  6
CONTINUOUS
 90
9
 70
0
 10
-32.7690513246
 20
18.8280330739
 10
-32.7520032185
 20
18.0524877561
 10
-32.7343441974
 20
17.2647353396
 10
-32.7160189571
 20
16.465057231
 10
-32.6969945301
 20
15.6535951869
 10
-32.6772654265
 20
14.8302702476
 10
-32.6568595099
 20
13.9949738136
 10
-32.6358361997
 20
13.1475999393
 10
-32.5699974217
 20
10.5318378943
  0
LINE
  5
23E
100
AcDbEntity
  8
RACCORDO
100
AcDbLine
 62
250
  6
CONTINUOUS
 10
-32.5165695827
 20
14.949789361
 11
-32.5299228302
 21
15.5671220488
  0
LINE
  5
23F
100
AcDbEntity
  8
RACCORDO
100
AcDbLine
 62
250
  6
CONTINUOUS
 10
-32.5299228302
 20
15.5671220488
 11
-32.541669792
 21
16.1386264381
  0
LINE
  5
240
100
AcDbEntity
  8
RACCORDO
100
AcDbLine
 62
250
  6
CONTINUOUS
 10
-32.541669792
 20
16.1386264381
 11
-32.5520080238
 21
16.667778959
  0
LWPOLYLINE
  5
241
100
AcDbEntity
  8
RACCORDO
100
AcDbPolyline
 62
7
  6
CONTINUOUS
 90
5
 70
0
 10
-32.8599888775
 20
23.1202292452
 10
-32.8485334653
 20
22.5182066406
 10
-32.8332145477
 20
21.8051919143
 10
-32.8175885294
 20
21.0796934354
 10
-32.7690513246
 20
18.8280330739
  0
LINE
  5
242
100
AcDbEntity
  8
RACCORDO
100
AcDbLine
 62
250
  6
CONTINUOUS
 10
-32.5520080238
 20
16.667778959
 11
-32.561126561
 21
17.1578157645
  0
LINE
  5
243
100
AcDbEntity
  8
RACCORDO
100
AcDbLine
 62
250
  6
CONTINUOUS
 10
-32.561126561
 20
17.1578157645
 11
-32.5716793296
 21
17.7554471342
  0
LINE
  5
244
100
AcDbEntity
  8
RACCORDO
100
AcDbLine
 62
250
  6
CONTINUOUS
 10
-32.5716793296
 20
17.7554471342
 11
-32.5807202887
 21
18.2954292201
  0
LINE
  5
245
100
AcDbEntity
  8
RACCORDO
100
AcDbLine
 62
250
  6
CONTINUOUS
 10
-32.5807202887
 20
18.2954292201
 11
-32.5903300532
 21
18.8978874711
  0
LINE
  5
246
100
AcDbEntity
  8
RACCORDO
100
AcDbLine
 62
250
  6
CONTINUOUS
 10
-32.5903300532
 20
18.8978874711
 11
-32.6329057416
 21
21.7099781456
  0
LINE
  5
247
100
AcDbEntity
  8
RACCORDO
100
AcDbLine
 62
250
  6
CONTINUOUS
 10
-32.6452314142
 20
22.5568423316
 11
-32.6461921207
 21
22.6158468463
  0
LINE
  5
248
100
AcDbEntity
  8
RACCORDO
100
AcDbLine
 62
250
  6
CONTINUOUS
 10
-32.6329057416
 20
21.7099781456
 11
-32.6446334468
 21
22.5143437735
  0
LINE
  5
249
100
AcDbEntity
  8
RACCORDO
100
AcDbLine
 62
250
  6
CONTINUOUS
 10
-32.6446334468
 20
22.5143437735
 11
-32.6452314142
 21
22.5568423316
  0
LINE
  5
24A
100
AcDbEntity
  8
RACCORDO
100
AcDbLine
 62
7
  6
CONTINUOUS
 10
-32.8599888974
 20
23.120229244
 11
-32.8599870106
 21
23.1199796793
  0
LWPOLYLINE
  5
24B
100
AcDbEntity
  8
RACCORDO
100
AcDbPolyline
 62
250
  6
CONTINUOUS
 90
3
 70
0
 10
-32.6461921207
 20
22.6158468463
 10
-32.6463166554
 20
22.6348093165
 10
-32.6460824301
 20
22.6534836559
  0
LWPOLYLINE
  5
24C
100
AcDbEntity
  8
RACCORDO
100
AcDbPolyline
 62
250
  6
CONTINUOUS
 90
9
 70
0
 10
-32.1504547822
 20
-5.3941765261
 10
-32.1444229716
 20
-5.4316409743
 10
-32.1317431467
 20
-5.4682405002
 10
-32.1125862235
 20
-5.5034817616
 10
-32.0872104253
 20
-5.5368897254
 10
-32.0559578018
 20
-5.5680140697
 10
-32.0192496184
 20
-5.5964352548
 10
-31.977580678
 20
-5.6217701774
 10
-31.9315126516
 20
-5.6436773356
  0
LWPOLYLINE
  5
24D
100
AcDbEntity
  8
RACCORDO
100
AcDbPolyline
 62
250
  6
CONTINUOUS
 90
7
 70
0
 10
-32.5276685591
 20
8.8343308708
 10
-32.5225762223
 20
8.7942184038
 10
-32.5076379613
 20
8.7510823325
 10
-32.4832099148
 20
8.7098381662
 10
-32.4497752204
 20
8.6713016318
 10
-32.4079951494
 20
8.6362349045
 10
-32.3586960277
 20
8.605331534
  0
LWPOLYLINE
  5
24E
100
AcDbEntity
  8
RACCORDO
100
AcDbPolyline
 62
250
  6
CONTINUOUS
 90
10
 70
0
 10
-21.9857463501
 20
13.5332913822
 10
-21.9618361078
 20
13.6241956241
 10
-21.9402672808
 20
13.7147911812
 10
-21.921125927
 20
13.8047164789
 10
-21.9044884162
 20
13.8936126175
 10
-21.8904211251
 20
13.9811248047
 10
-21.878980173
 20
14.0669037714
 10
-21.8702111972
 20
14.1506071659
 10
-21.8641491709
 20
14.2319009202
 10
-21.8608182643
 20
14.310460583
  0
LWPOLYLINE
  5
24F
100
AcDbEntity
  8
RACCORDO
100
AcDbPolyline
 62
250
  6
CONTINUOUS
 90
4
 70
0
 10
-21.9354490128
 20
13.0480304393
 10
-21.9454253166
 20
13.0369778179
 10
-21.9761495459
 20
13.0098263182
 10
-22.0111195825
 20
12.984783125
  0
LWPOLYLINE
  5
250
100
AcDbEntity
  8
RACCORDO
100
AcDbPolyline
 62
250
  6
CONTINUOUS
 90
6
 70
0
 10
-22.9928467273
 20
-3.8408462262
 10
-23.0038341631
 20
-3.5384003757
 10
-23.0141525262
 20
-3.2242416215
 10
-23.0240881112
 20
-2.8986151063
 10
-23.0338923868
 20
-2.5614478375
 10
-23.0436495487
 20
-2.213025089
  0
LINE
  5
251
100
AcDbEntity
  8
RACCORDO
100
AcDbLine
 62
250
  6
CONTINUOUS
 10
-23.0436495487
 20
-2.213025089
 11
-23.0633375699
 21
-1.4849962028
  0
LINE
  5
252
100
AcDbEntity
  8
RACCORDO
100
AcDbLine
 62
250
  6
CONTINUOUS
 10
-23.0633375699
 20
-1.4849962028
 11
-23.0940639633
 21
-0.3161102339
  0
LWPOLYLINE
  5
253
100
AcDbEntity
  8
RACCORDO
100
AcDbPolyline
 62
250
  6
CONTINUOUS
 90
3
 70
0
 10
-23.0940639633
 20
-0.3161102339
 10
-23.1267978676
 20
0.9440001983
 10
-23.2261538887
 20
4.7911042278
  0
LINE
  5
254
100
AcDbEntity
  8
RACCORDO
100
AcDbLine
 62
250
  6
CONTINUOUS
 10
-22.7762479375
 20
11.7649468336
 11
-22.8094798615
 21
13.0523781861
  0
LWPOLYLINE
  5
255
100
AcDbEntity
  8
RACCORDO
100
AcDbPolyline
 62
250
  6
CONTINUOUS
 90
3
 70
0
 10
-22.5909879964
 20
4.4031116885
 10
-22.7489555477
 20
10.6859296143
 10
-22.7762479375
 20
11.7649468336
  0
LINE
  5
256
100
AcDbEntity
  8
RACCORDO
100
AcDbLine
 62
250
  6
CONTINUOUS
 10
-22.3940623687
 20
-3.6182550104
 11
-22.5909879964
 21
4.4031116885
  0
LINE
  5
257
100
AcDbEntity
  8
RACCORDO
100
AcDbLine
 62
250
  6
CONTINUOUS
 10
-23.2261536702
 20
4.7911043745
 11
-23.3483004424
 21
9.9037640297
  0
LINE
  5
258
100
AcDbEntity
  8
RACCORDO
100
AcDbLine
 62
250
  6
CONTINUOUS
 10
-22.3793558154
 20
-4.2379316348
 11
-22.3940623687
 21
-3.6182550104
  0
LINE
  5
259
100
AcDbEntity
  8
RACCORDO
100
AcDbLine
 62
250
  6
CONTINUOUS
 10
-23.3483004424
 20
9.9037640297
 11
-23.3757694711
 21
11.0742311055
  0
LWPOLYLINE
  5
25A
100
AcDbEntity
  8
RACCORDO
100
AcDbPolyline
 62
250
  6
CONTINUOUS
 90
7
 70
0
 10
-23.3757694711
 20
11.0742311055
 10
-23.3923324652
 20
11.8034262293
 10
-23.399926118
 20
12.1524896494
 10
-23.4069139747
 20
12.4903355846
 10
-23.413197296
 20
12.8166806699
 10
-23.4185277703
 20
13.1316248746
 10
-23.4226095579
 20
13.434956708
  0
LWPOLYLINE
  5
25B
100
AcDbEntity
  8
RACCORDO
100
AcDbPolyline
 62
250
  6
CONTINUOUS
 90
76
 70
0
 10
-22.8094798615
 20
13.0523781861
 10
-22.809617413
 20
13.0817816697
 10
-22.8084191934
 20
13.1100021154
 10
-22.8059852134
 20
13.1370281698
 10
-22.8024253152
 20
13.1627676769
 10
-22.7978343853
 20
13.1873117723
 10
-22.7922550602
 20
13.2109190676
 10
-22.785698432
 20
13.233741867
 10
-22.7782646372
 20
13.2556157808
 10
-22.7701276832
 20
13.2763353234
 10
-22.7613988966
 20
13.2959036369
 10
-22.7521479901
 20
13.3143738689
 10
-22.7425298246
 20
13.3316501506
 10
-22.7326922821
 20
13.3476951057
 10
-22.7226798873
 20
13.3626395843
 10
-22.7124872849
 20
13.3766421295
 10
-22.7021819248
 20
13.3897382191
 10
-22.6918274664
 20
13.4019658434
 10
-22.6813811733
 20
13.4134674044
 10
-22.6708733008
 20
13.4242852878
 10
-22.6603619411
 20
13.434431614
 10
-22.6498245057
 20
13.4439881015
 10
-22.6392857525
 20
13.4529848634
 10
-22.6287866015
 20
13.4614367574
 10
-22.6183172946
 20
13.4693941838
 10
-22.6079037005
 20
13.4768770626
 10
-22.597571648
 20
13.4839048238
 10
-22.5873038742
 20
13.4905212269
 10
-22.5771033971
 20
13.4967534798
 10
-22.5670066282
 20
13.5026069647
 10
-22.5570430636
 20
13.5080904211
 10
-22.547216436
 20
13.5132281856
 10
-22.5375583611
 20
13.5180289469
 10
-22.5281419475
 20
13.522481271
 10
-22.5190095669
 20
13.5265951792
 10
-22.5101542292
 20
13.5303987078
 10
-22.501575529
 20
13.533908906
 10
-22.4933331918
 20
13.5371246466
 10
-22.4853962781
 20
13.5400805896
 10
-22.4776222945
 20
13.5428396821
 10
-22.4700315833
 20
13.5454055334
 10
-22.4626192246
 20
13.5477923333
 10
-22.4551951694
 20
13.5500654061
 10
-22.4477650918
 20
13.5522258045
 10
-22.440327806
 20
13.55427545
 10
-22.4326735204
 20
13.5562666354
 10
-22.424785353
 20
13.5581941227
 10
-22.4166752897
 20
13.5600507516
 10
-22.4081683975
 20
13.5618721525
 10
-22.3992039559
 20
13.5636547997
 10
-22.3898295902
 20
13.5653741542
 10
-22.3800285535
 20
13.5670268275
 10
-22.3697930158
 20
13.5686005155
 10
-22.3591178672
 20
13.5700765003
 10
-22.3479899483
 20
13.5714401802
 10
-22.3364140711
 20
13.5726728268
 10
-22.3243733773
 20
13.5737584148
 10
-22.3118213831
 20
13.5746832715
 10
-22.2987518257
 20
13.5754263026
 10
-22.2851586294
 20
13.5759658041
 10
-22.2709942006
 20
13.576282044
 10
-22.2562393933
 20
13.5763491774
 10
-22.2409018731
 20
13.5761409813
 10
-22.2249740278
 20
13.57563366
 10
-22.2084103337
 20
13.5748022321
 10
-22.1912485484
 20
13.5736136103
 10
-22.1736099958
 20
13.5720380048
 10
-22.155620263
 20
13.5700741101
 10
-22.1371592349
 20
13.567683952
 10
-22.1179815791
 20
13.5647742306
 10
-22.0980781994
 20
13.5612980908
 10
-22.0774661797
 20
13.5572237918
 10
-22.0559382759
 20
13.5524497443
 10
-22.0334314065
 20
13.5468981422
 10
-22.0100289441
 20
13.5405311812
 10
-21.9857467844
 20
13.5332913927
  0
LWPOLYLINE
  5
25C
100
AcDbEntity
  8
RACCORDO
100
AcDbPolyline
 62
250
  6
CONTINUOUS
 90
76
 70
0
 10
-23.4226109513
 20
13.4349551
 10
-23.4219359884
 20
13.4911927131
 10
-23.4186473102
 20
13.5450995802
 10
-23.4129352307
 20
13.5966785164
 10
-23.4048724451
 20
13.6458068899
 10
-23.3947549699
 20
13.692623999
 10
-23.3831053549
 20
13.7374195837
 10
-23.3703112228
 20
13.7803473711
 10
-23.3564124705
 20
13.8209858299
 10
-23.3413508245
 20
13.8590409001
 10
-23.3251661862
 20
13.8947269328
 10
-23.3080140913
 20
13.928422338
 10
-23.2900858688
 20
13.9600114773
 10
-23.2716409525
 20
13.9893576783
 10
-23.25282927
 20
14.0166122304
 10
-23.2336721677
 20
14.0420640665
 10
-23.2142907173
 20
14.0657891278
 10
-23.1947911809
 20
14.0878712239
 10
-23.1751127869
 20
14.1085861947
 10
-23.1553179911
 20
14.1280078365
 10
-23.1355149674
 20
14.1461503499
 10
-23.1156719055
 20
14.1631740354
 10
-23.0958339103
 20
14.1791354153
 10
-23.0760750384
 20
14.1940621192
 10
-23.0563860532
 20
14.2080569575
 10
-23.0368163454
 20
14.2211561814
 10
-23.0174134301
 20
14.2333936009
 10
-22.9981488094
 20
14.2448598063
 10
-22.9790222435
 20
14.2556059906
 10
-22.9601000256
 20
14.2656433146
 10
-22.9414552212
 20
14.2749943957
 10
-22.9231196392
 20
14.2836907258
 10
-22.9051415199
 20
14.2917538214
 10
-22.8875883148
 20
14.2992107202
 10
-22.8704881833
 20
14.306085114
 10
-22.8537964153
 20
14.3124505826
 10
-22.8374592827
 20
14.3184044358
 10
-22.8215447351
 20
14.3239541753
 10
-22.8059961506
 20
14.3291394068
 10
-22.7905872758
 20
14.3340779614
 10
-22.7753806602
 20
14.3387614485
 10
-22.7603918038
 20
14.3431931861
 10
-22.7452968799
 20
14.3474891368
 10
-22.7300952768
 20
14.3516522842
 10
-22.7148038911
 20
14.355669422
 10
-22.699123878
 20
14.3596034096
 10
-22.6830789312
 20
14.3634782303
 10
-22.6667483415
 20
14.3672120273
 10
-22.6499397586
 20
14.3706920447
 10
-22.6326851429
 20
14.3738377072
 10
-22.6151343155
 20
14.3766880334
 10
-22.5971446486
 20
14.3793192341
 10
-22.5785556478
 20
14.3817603548
 10
-22.5591824971
 20
14.3840015643
 10
-22.5388958708
 20
14.3860346712
 10
-22.5177280283
 20
14.3878208782
 10
-22.4957398456
 20
14.3893168679
 10
-22.4728732628
 20
14.3904938334
 10
-22.4491056505
 20
14.3913240548
 10
-22.4244070824
 20
14.3917688361
 10
-22.3986981508
 20
14.3917769532
 10
-22.3719647321
 20
14.3912861235
 10
-22.3442283986
 20
14.3902701323
 10
-22.3154631247
 20
14.3887282867
 10
-22.2856384556
 20
14.3865454672
 10
-22.2547547794
 20
14.3837514764
 10
-22.2226861817
 20
14.3805246554
 10
-22.1892985148
 20
14.3768784658
 10
-22.1541913855
 20
14.3725573928
 10
-22.117064299
 20
14.3673287758
 10
-22.0781925358
 20
14.3611070959
 10
-22.0379864065
 20
14.3538328206
 10
-21.9962635428
 20
14.3452758694
 10
-21.9528405566
 20
14.3352601526
 10
-21.9076908341
 20
14.3236951561
 10
-21.8608205695
 20
14.3104580229
  0
LWPOLYLINE
  5
25D
100
AcDbEntity
  8
RACCORDO
100
AcDbPolyline
 62
250
  6
CONTINUOUS
 90
10
 70
0
 10
-16.5261941145
 20
19.3241596516
 10
-16.5556353551
 20
19.281076879
 10
-16.5841988928
 20
19.2323254098
 10
-16.6113926977
 20
19.1787447682
 10
-16.6367483285
 20
19.121257643
 10
-16.6598289998
 20
19.0608539977
 10
-16.6802371038
 20
18.998574022
 10
-16.6976210579
 20
18.9354902186
 10
-16.7116813592
 20
18.872688933
 10
-16.7221757424
 20
18.8112516456
  0
LINE
  5
25E
100
AcDbEntity
  8
ASSI
100
AcDbLine
 62
250
  6
CONTINUOUS
 10
-21.1739509673
 20
12.292683058
 11
-21.4692081751
 21
11.9226845588
  0
LWPOLYLINE
  5
25F
100
AcDbEntity
  8
RACCORDO
100
AcDbPolyline
 62
250
  6
CONTINUOUS
 90
19
 70
0
 10
-22.0111195825
 20
12.984783125
 10
-22.049953082
 20
12.9621220475
 10
-22.0922254591
 20
12.9420908502
 10
-22.1374745294
 20
12.924908544
 10
-22.1852055631
 20
12.9107629912
 10
-22.2348966937
 20
12.8998088521
 10
-22.286004624
 20
12.8921658934
 10
-22.3379705664
 20
12.8879176794
 10
-22.3902263522
 20
12.8871106579
 10
-22.4422006436
 20
12.8897536524
 10
-22.4933251805
 20
12.8958177657
 10
-22.5430409939
 20
12.905236696
 10
-22.5908045165
 20
12.9179074616
 10
-22.6360832815
 20
12.9336874913
 10
-22.6783938648
 20
12.9524069183
 10
-22.7172998132
 20
12.9738771047
 10
-22.7523753998
 20
12.9978744494
 10
-22.7832180502
 20
13.0241361213
 10
-22.8094798615
 20
13.0523781861
  0
LWPOLYLINE
  5
260
100
AcDbEntity
  8
ASSI
100
AcDbPolyline
 62
7
  6
CONTINUOUS
 90
13
 70
0
 10
-21.0802710544
 20
-3.7119756675
 10
-21.0785812669
 20
-3.7279640485
 10
-21.0748222964
 20
-3.7438407409
 10
-21.0689941427
 20
-3.7596057446
 10
-21.0609282157
 20
-3.7755219566
 10
-21.0507931056
 20
-3.7913264799
 10
-21.0390945831
 20
-3.8062306241
 10
-21.0257533099
 20
-3.8201886974
 10
-21.0108486243
 20
-3.8332463916
 10
-20.9951243125
 20
-3.8447520905
 10
-20.9788283032
 20
-3.8544885889
 10
-20.9617126677
 20
-3.862673092
 10
-20.943777406
 20
-3.8693055999
  0
LINE
  5
261
100
AcDbEntity
  8
0
100
AcDbLine
 62
250
  6
CONTINUOUS
 10
-21.9187093895
 20
13.0428898632
 11
-21.4891587713
 21
-4.2243690573
  0
LINE
  5
262
100
AcDbEntity
  8
ASSI
100
AcDbLine
 62
7
  6
CONTINUOUS
 10
-21.4938292565
 20
12.9124132906
 11
-21.4692081751
 21
11.9226845588
  0
LINE
  5
263
100
AcDbEntity
  8
ASSI
100
AcDbLine
 62
7
  6
CONTINUOUS
 10
-21.1214579799
 20
-2.0563260728
 11
-21.0802710544
 21
-3.7119756675
  0
LINE
  5
264
100
AcDbEntity
  8
ASSI
100
AcDbLine
 62
7
  6
CONTINUOUS
 10
-21.1739509673
 20
12.292683058
 11
-20.8262007721
 21
-1.6863275736
  0
LWPOLYLINE
  5
265
100
AcDbEntity
  8
ASSI
100
AcDbPolyline
 62
7
  6
CONTINUOUS
 90
7
 70
0
 10
-20.8262007721
 20
-1.6863275736
 10
-20.8286703848
 20
-1.7715339611
 10
-20.8395319963
 20
-1.8522062944
 10
-20.8587856066
 20
-1.9283445735
 10
-20.8867110463
 20
-2.0004695957
 10
-20.9230284848
 20
-2.0680605638
 10
-20.9624503186
 20
-2.1240479568
  0
LWPOLYLINE
  5
266
100
AcDbEntity
  8
RACCORDO
100
AcDbPolyline
 62
250
  6
CONTINUOUS
 90
10
 70
0
 10
-17.330364348
 20
12.1054163071
 10
-17.3067280163
 20
12.198119437
 10
-17.2855073392
 20
12.290515969
 10
-17.2667901811
 20
12.3822245564
 10
-17.2506540716
 20
12.4728666927
 10
-17.2371658855
 20
12.5620682737
 10
-17.2263815661
 20
12.6494611419
 10
-17.2183458951
 20
12.7346846068
 10
-17.2130923073
 20
12.8173869332
 10
-17.2106427526
 20
12.8972267938
  0
LWPOLYLINE
  5
267
100
AcDbEntity
  8
RACCORDO
100
AcDbPolyline
 62
250
  6
CONTINUOUS
 90
7
 70
0
 10
-30.9052892498
 20
-6.8921601446
 10
-30.9241281007
 20
-6.8827116142
 10
-30.9422239582
 20
-6.8664998215
 10
-30.9576804302
 20
-6.8442857302
 10
-30.9702904439
 20
-6.81636695
 10
-30.9798850621
 20
-6.7831175186
 10
-30.986335747
 20
-6.74498289
  0
LWPOLYLINE
  5
268
100
AcDbEntity
  8
RACCORDO
100
AcDbPolyline
 62
250
  6
CONTINUOUS
 90
10
 70
0
 10
-21.5189974479
 20
-5.2292950633
 10
-21.4920926814
 20
-5.2587396583
 10
-21.4674029435
 20
-5.293576493
 10
-21.4450267758
 20
-5.3336665319
 10
-21.4250534862
 20
-5.3788497741
 10
-21.4075627926
 20
-5.4289458916
 10
-21.3926245042
 20
-5.4837549492
 10
-21.3802982437
 20
-5.5430582026
 10
-21.3706332086
 20
-5.6066189709
 10
-21.3636679752
 20
-5.6741835818
  0
LWPOLYLINE
  5
269
100
AcDbEntity
  8
RACCORDO
100
AcDbPolyline
 62
250
  6
CONTINUOUS
 90
10
 70
0
 10
-22.3793552214
 20
-4.2379314342
 10
-22.4274642551
 20
-4.182944016
 10
-22.4812159749
 20
-4.130174431
 10
-22.5403747678
 20
-4.079853984
 10
-22.6046813198
 20
-4.0322032442
 10
-22.6738537525
 20
-3.9874310786
 10
-22.7475888585
 20
-3.9457337364
 10
-22.8255634306
 20
-3.9072939886
 10
-22.9074356786
 20
-3.8722803272
 10
-22.9928467273
 20
-3.8408462262
  0
LWPOLYLINE
  5
26A
100
AcDbEntity
  8
0
100
AcDbPolyline
 62
250
  6
CONTINUOUS
 90
10
 70
0
 10
-21.4891587713
 20
-4.2243690573
 10
-21.4866266796
 20
-4.2451880786
 10
-21.4801121426
 20
-4.2666211211
 10
-21.4698131011
 20
-4.2880169529
 10
-21.4560424863
 20
-4.3087254724
 10
-21.4392187114
 20
-4.3281174617
 10
-21.4198529583
 20
-4.3456037049
 10
-21.3985336456
 20
-4.3606528916
 10
-21.3759085497
 20
-4.3728077597
 10
-21.3526651229
 20
-4.3816989898
  0
LWPOLYLINE
  5
26B
100
AcDbEntity
  8
RACCORDO
100
AcDbPolyline
 62
250
  6
CONTINUOUS
 90
10
 70
0
 10
-16.7134319188
 20
-7.1103174559
 10
-16.6853939689
 20
-7.4847370725
 10
-16.648200587
 20
-7.9003619823
 10
-16.5956765307
 20
-8.3869740457
 10
-16.526469355
 20
-8.9165592046
 10
-16.440364496
 20
-9.4646277687
 10
-16.3408225559
 20
-9.9988283456
 10
-16.2305678442
 20
-10.5054913247
 10
-16.1065857
 20
-10.9989039748
 10
-15.9685018759
 20
-11.4776236653
  0
LWPOLYLINE
  5
26C
100
AcDbEntity
  8
RACCORDO
100
AcDbPolyline
 62
250
  6
CONTINUOUS
 90
10
 70
0
 10
-17.2110053123
 20
12.8973381324
 10
-17.2028258298
 20
13.3172587119
 10
-17.1877883233
 20
13.7988311216
 10
-17.1617949517
 20
14.3842603286
 10
-17.1223230646
 20
15.050240223
 10
-17.0680552265
 20
15.7740697657
 10
-17.0005826818
 20
16.5171740585
 10
-16.9216369568
 20
17.2605637371
 10
-16.8289774479
 20
18.0252957884
 10
-16.7220814251
 20
18.8112226816
  0
LWPOLYLINE
  5
26D
100
AcDbEntity
  8
RACCORDO
100
AcDbPolyline
 62
250
  6
CONTINUOUS
 90
10
 70
0
 10
19.1133605912
 20
-16.9799441011
 10
19.2118874458
 20
-16.9699884539
 10
19.3109977914
 20
-16.9641623582
 10
19.4102571837
 20
-16.9624913261
 10
19.5092305252
 20
-16.9649826577
 10
19.6074839723
 20
-16.9716254093
 10
19.7045868372
 20
-16.9823904409
 10
19.8001134755
 20
-16.9972305448
 10
19.8936451522
 20
-17.0160806517
 10
19.9847718771
 20
-17.0388581165
  0
LWPOLYLINE
  5
26E
100
AcDbEntity
  8
RACCORDO
100
AcDbPolyline
 62
7
  6
CONTINUOUS
 90
13
 70
0
 10
29.6833465142
 20
-25.4983636778
 10
29.7836193427
 20
-25.5230893909
 10
29.9132582596
 20
-25.5456047137
 10
30.0411909286
 20
-25.5570019034
 10
30.1671087817
 20
-25.5571851241
 10
30.2899078528
 20
-25.5459872624
 10
30.4076781153
 20
-25.5236403477
 10
30.5192104027
 20
-25.4906431974
 10
30.6242154047
 20
-25.4473742888
 10
30.722039796
 20
-25.3943517533
 10
30.8117552861
 20
-25.3323695574
 10
30.8928292121
 20
-25.262190015
 10
30.912422313
 20
-25.2427071571
  0
LWPOLYLINE
  5
26F
100
AcDbEntity
  8
RACCORDO
100
AcDbPolyline
 62
250
  6
CONTINUOUS
 90
5
 70
0
 10
29.6107548602
 20
-25.3537666612
 10
29.5412604732
 20
-25.3362951368
 10
29.5085724338
 20
-25.3280718138
 10
29.477425911
 20
-25.3202354224
 10
29.3630801137
 20
-25.2916843823
  0
LWPOLYLINE
  5
270
100
AcDbEntity
  8
RACCORDO
100
AcDbPolyline
 62
250
  6
CONTINUOUS
 90
3
 70
0
 10
29.3630801137
 20
-25.2916843823
 10
29.3361384675
 20
-25.284800926
 10
29.3096470628
 20
-25.2777276488
  0
LINE
  5
271
100
AcDbEntity
  8
RACCORDO
100
AcDbLine
 62
7
  6
CONTINUOUS
 10
29.6835468167
 20
-25.4984366444
 11
29.6833419499
 21
-25.4983800903
  0
LWPOLYLINE
  5
272
100
AcDbEntity
  8
RACCORDO
100
AcDbPolyline
 62
250
  6
CONTINUOUS
 90
4
 70
0
 10
29.3096470628
 20
-25.2777276488
 10
29.2573495908
 20
-25.2632472896
 10
29.2308237126
 20
-25.2557190538
 10
29.0878683655
 20
-25.2148631346
  0
LINE
  5
273
100
AcDbEntity
  8
RACCORDO
100
AcDbLine
 62
250
  6
CONTINUOUS
 10
27.1877030496
 20
-24.6774966802
 11
26.8104351153
 21
-24.5713702227
  0
LINE
  5
274
100
AcDbEntity
  8
RACCORDO
100
AcDbLine
 62
250
  6
CONTINUOUS
 10
27.3577905549
 20
-24.7253815264
 11
27.1877030496
 21
-24.6774966802
  0
LINE
  5
275
100
AcDbEntity
  8
RACCORDO
100
AcDbLine
 62
250
  6
CONTINUOUS
 10
27.5146175997
 20
-24.7695599716
 11
27.3577905549
 21
-24.7253815264
  0
LINE
  5
276
100
AcDbEntity
  8
RACCORDO
100
AcDbLine
 62
250
  6
CONTINUOUS
 10
27.6588867974
 20
-24.8102241985
 11
27.5146175997
 21
-24.7695599716
  0
LINE
  5
277
100
AcDbEntity
  8
RACCORDO
100
AcDbLine
 62
250
  6
CONTINUOUS
 10
27.792835295
 20
-24.8480053592
 11
27.6588867974
 21
-24.8102241985
  0
LINE
  5
278
100
AcDbEntity
  8
RACCORDO
100
AcDbLine
 62
250
  6
CONTINUOUS
 10
26.8104351153
 20
-24.5713702227
 11
26.4130666293
 21
-24.4593884292
  0
LINE
  5
279
100
AcDbEntity
  8
RACCORDO
100
AcDbLine
 62
250
  6
CONTINUOUS
 10
27.9184829089
 20
-24.8834686386
 11
27.792835295
 21
-24.8480053592
  0
LINE
  5
27A
100
AcDbEntity
  8
RACCORDO
100
AcDbLine
 62
250
  6
CONTINUOUS
 10
28.0370794133
 20
-24.9169640258
 11
27.9184829089
 21
-24.8834686386
  0
LINE
  5
27B
100
AcDbEntity
  8
RACCORDO
100
AcDbLine
 62
250
  6
CONTINUOUS
 10
28.1506622959
 20
-24.9490643689
 11
28.0370794133
 21
-24.9169640258
  0
LINE
  5
27C
100
AcDbEntity
  8
RACCORDO
100
AcDbLine
 62
250
  6
CONTINUOUS
 10
28.2592993559
 20
-24.9797871824
 11
28.1506622959
 21
-24.9490643689
  0
LINE
  5
27D
100
AcDbEntity
  8
RACCORDO
100
AcDbLine
 62
250
  6
CONTINUOUS
 10
28.363028376
 20
-25.0091416438
 11
28.2592993559
 21
-24.9797871824
  0
LINE
  5
27E
100
AcDbEntity
  8
RACCORDO
100
AcDbLine
 62
250
  6
CONTINUOUS
 10
28.4615276869
 20
-25.0370351978
 11
28.363028376
 21
-25.0091416438
  0
LWPOLYLINE
  5
27F
100
AcDbEntity
  8
RACCORDO
100
AcDbPolyline
 62
250
  6
CONTINUOUS
 90
3
 70
0
 10
26.4130666293
 20
-24.4593884292
 10
26.1232631376
 20
-24.3773609019
 10
26.0301636596
 20
-24.3509152557
  0
LINE
  5
280
100
AcDbEntity
  8
RACCORDO
100
AcDbLine
 62
250
  6
CONTINUOUS
 10
28.554815527
 20
-25.063470637
 11
28.4615276869
 21
-25.0370351978
  0
LWPOLYLINE
  5
281
100
AcDbEntity
  8
RACCORDO
100
AcDbPolyline
 62
250
  6
CONTINUOUS
 90
3
 70
0
 10
28.6854408891
 20
-25.10051621
 10
28.6430447886
 20
-25.0884891143
 10
28.554815527
 20
-25.063470637
  0
LINE
  5
282
100
AcDbEntity
  8
RACCORDO
100
AcDbLine
 62
250
  6
CONTINUOUS
 10
28.7669717202
 20
-25.1236554903
 11
28.6854408891
 21
-25.10051621
  0
LINE
  5
283
100
AcDbEntity
  8
RACCORDO
100
AcDbLine
 62
250
  6
CONTINUOUS
 10
28.844620236
 20
-25.1457052281
 11
28.7669717202
 21
-25.1236554903
  0
LWPOLYLINE
  5
284
100
AcDbEntity
  8
RACCORDO
100
AcDbPolyline
 62
250
  6
CONTINUOUS
 90
7
 70
0
 10
29.0878683655
 20
-25.2148631346
 10
29.0561010362
 20
-25.2058307824
 10
29.0232333359
 20
-25.1964912452
 10
28.9893870599
 20
-25.1868707012
 10
28.954562795
 20
-25.1769648125
 10
28.9187570611
 20
-25.1667782288
 10
28.844620236
 20
-25.1457052281
  0
LINE
  5
285
100
AcDbEntity
  8
RACCORDO
100
AcDbLine
 62
7
  6
CONTINUOUS
 10
-30.904989613
 20
-6.8922617559
 11
-30.9052892498
 21
-6.8921601446
  0
LWPOLYLINE
  5
286
100
AcDbEntity
  8
RACCORDO
100
AcDbPolyline
 62
250
  6
CONTINUOUS
 90
3
 70
0
 10
-30.7166049956
 20
-6.8432346511
 10
-30.74340175
 20
-6.8336139412
 10
-30.9863382196
 20
-6.7449862384
  0
LWPOLYLINE
  5
287
100
AcDbEntity
  8
RACCORDO
100
AcDbPolyline
 62
250
  6
CONTINUOUS
 90
28
 70
0
 10
-30.986335747
 20
-6.74498289
 10
-31.061698829
 20
-6.7149446135
 10
-31.1361352136
 20
-6.6803126795
 10
-31.2090664571
 20
-6.6414276445
 10
-31.2807721057
 20
-6.5981811355
 10
-31.3500609087
 20
-6.5513167086
 10
-31.4144634688
 20
-6.5028419233
 10
-31.4730465918
 20
-6.4541857847
 10
-31.5267133038
 20
-6.4053105429
 10
-31.5760113809
 20
-6.3562541389
 10
-31.6210506238
 20
-6.3074098568
 10
-31.6619127744
 20
-6.2591944328
 10
-31.6990603829
 20
-6.2115210014
 10
-31.7326801521
 20
-6.1645762763
 10
-31.7628543482
 20
-6.1186821733
 10
-31.7898459383
 20
-6.0738707661
 10
-31.8138157478
 20
-6.0303166125
 10
-31.8349405526
 20
-5.9881598408
 10
-31.8534788941
 20
-5.9473329092
 10
-31.8695913991
 20
-5.9079371481
 10
-31.8834447251
 20
-5.8700510095
 10
-31.8952619771
 20
-5.8335451789
 10
-31.905186558
 20
-5.7984693566
 10
-31.913360262
 20
-5.7648679684
 10
-31.9199566333
 20
-5.7325909014
 10
-31.9251061177
 20
-5.7015986302
 10
-31.9289184041
 20
-5.6719600031
 10
-31.9315124982
 20
-5.6436771844
  0
LWPOLYLINE
  5
288
100
AcDbEntity
  8
RACCORDO
100
AcDbPolyline
 62
250
  6
CONTINUOUS
 90
5
 70
0
 10
-15.9040172258
 20
-11.5589532791
 10
-15.9199579422
 20
-11.5516520614
 10
-15.9393244632
 20
-11.5346598944
 10
-15.9555579614
 20
-11.5098539695
 10
-15.9683786385
 20
-11.4776615487
  0
LWPOLYLINE
  5
289
100
AcDbEntity
  8
RACCORDO
100
AcDbPolyline
 62
250
  6
CONTINUOUS
 90
46
 70
0
 10
-22.2079443995
 20
-5.2155057321
 10
-22.2396726702
 20
-5.1889082209
 10
-22.2550545701
 20
-5.1758310298
 10
-22.2704381317
 20
-5.162620874
 10
-22.2858157333
 20
-5.1492838762
 10
-22.3011846039
 20
-5.1358151545
 10
-22.3168597385
 20
-5.1219129025
 10
-22.332834046
 20
-5.107569193
 10
-22.3490257865
 20
-5.0928373473
 10
-22.3656373669
 20
-5.0774803504
 10
-22.3827235006
 20
-5.061413238
 10
-22.4002244528
 20
-5.0446494216
 10
-22.4181728185
 20
-5.0270835789
 10
-22.4366110024
 20
-5.0086210813
 10
-22.4555203545
 20
-4.989241227
 10
-22.4748105854
 20
-4.9689810484
 10
-22.4944284944
 20
-4.9478512499
 10
-22.5143396195
 20
-4.9258401966
 10
-22.534470927
 20
-4.9029679815
 10
-22.5547698613
 20
-4.8792444696
 10
-22.5752230066
 20
-4.8546334357
 10
-22.5958162
 20
-4.8290830433
 10
-22.6164999042
 20
-4.8025933252
 10
-22.6372311021
 20
-4.7751539968
 10
-22.657995332
 20
-4.7466997924
 10
-22.6787245721
 20
-4.7172474043
 10
-22.6993787005
 20
-4.6867716882
 10
-22.7199697403
 20
-4.6551448777
 10
-22.7404078195
 20
-4.6224023419
 10
-22.7606329396
 20
-4.5885236432
 10
-22.7806749446
 20
-4.5532955125
 10
-22.800447494
 20
-4.5167071269
 10
-22.8198533814
 20
-4.478761596
 10
-22.8388662194
 20
-4.4392713342
 10
-22.8573194695
 20
-4.3982798922
 10
-22.8750623221
 20
-4.3559043153
 10
-22.8920589706
 20
-4.3120715813
 10
-22.9081462087
 20
-4.2666693819
 10
-22.923324454
 20
-4.2194717043
 10
-22.9378121724
 20
-4.1700803935
 10
-22.9515666102
 20
-4.1186006032
 10
-22.9640737541
 20
-4.0654265154
 10
-22.9747227985
 20
-4.010926087
 10
-22.9831648295
 20
-3.9552791237
 10
-22.9892858546
 20
-3.8985628065
 10
-22.9928477491
 20
-3.8408474267
  0
LWPOLYLINE
  5
28A
100
AcDbEntity
  8
ASSI
100
AcDbPolyline
 62
7
  6
CONTINUOUS
 90
4
 70
0
 10
-20.9040532215
 20
-3.8578781268
 10
-20.9935030391
 20
-3.7791239814
 10
-21.0768929884
 20
-3.6950152657
 10
-21.0808051492
 20
-3.6905058984
  0
LWPOLYLINE
  5
28B
100
AcDbEntity
  8
RACCORDO
100
AcDbPolyline
 62
250
  6
CONTINUOUS
 90
10
 70
0
 10
-16.8633005964
 20
-6.659332711
 10
-16.8367695252
 20
-6.6887458393
 10
-16.8125191212
 20
-6.7237433247
 10
-16.7906503368
 20
-6.7641804358
 10
-16.7712973858
 20
-6.8098767518
 10
-16.754498042
 20
-6.8606565674
 10
-16.7401933062
 20
-6.9163496732
 10
-16.7283995482
 20
-6.9767392689
 10
-16.7192082614
 20
-7.0415629131
 10
-16.7126565384
 20
-7.1105532666
  0
LWPOLYLINE
  5
28C
100
AcDbEntity
  8
RACCORDO
100
AcDbPolyline
 62
250
  6
CONTINUOUS
 90
10
 70
0
 10
-22.0118197065
 20
13.1407266589
 10
-22.0187964322
 20
13.1727446996
 10
-22.0233247898
 20
13.2087145281
 10
-22.0253545162
 20
13.2482368903
 10
-22.024863082
 20
13.290873095
 10
-22.0218559425
 20
13.3361498979
 10
-22.0163664735
 20
13.3835647575
 10
-22.008455603
 20
13.4325913911
 10
-21.9982111372
 20
13.4826856131
 10
-21.9857467844
 20
13.5332913927
  0
LINE
  5
28D
100
AcDbEntity
  8
RACCORDO
100
AcDbLine
 62
7
  6
CONTINUOUS
 10
-13.2820585037
 20
-5.0177595248
 11
-13.2819894915
 21
-5.0184100531
  0
LINE
  5
28E
100
AcDbEntity
  8
DRAFT
100
AcDbLine
 62
7
  6
CONTINUOUS
 10
-16.4665505043
 20
-4.7516052128
 11
-16.4319116103
 21
-4.6559342215
  0
LINE
  5
28F
100
AcDbEntity
  8
DRAFT
100
AcDbLine
 62
7
  6
CONTINUOUS
 10
-16.341320536
 20
-4.6128816893
 11
-16.306681642
 21
-4.5172106979
  0
LINE
  5
290
100
AcDbEntity
  8
DRAFT
100
AcDbLine
 62
7
  6
CONTINUOUS
 10
-16.2160905678
 20
-4.4741581657
 11
-16.1814516738
 21
-4.3784871744
  0
LINE
  5
291
100
AcDbEntity
  8
DRAFT
100
AcDbLine
 62
7
  6
CONTINUOUS
 10
-16.0908605995
 20
-4.3354346422
 11
-16.0562217055
 21
-4.2397636508
  0
LWPOLYLINE
  5
292
100
AcDbEntity
  8
RACCORDO
100
AcDbPolyline
 62
250
  6
CONTINUOUS
 90
22
 70
0
 10
-21.3526651229
 20
-4.3816989898
 10
-21.3764938286
 20
-4.4137765733
 10
-21.3999512038
 20
-4.4497980099
 10
-21.4227770003
 20
-4.4893636595
 10
-21.4447179772
 20
-4.5320345607
 10
-21.4655307101
 20
-4.5773373008
 10
-21.484984292
 20
-4.6247692682
 10
-21.502862895
 20
-4.6738042286
 10
-21.5189681648
 20
-4.7238981632
 10
-21.5331214213
 20
-4.7744953044
 10
-21.5451656412
 20
-4.8250343019
 10
-21.5549671997
 20
-4.8749544504
 10
-21.5624173533
 20
-4.9237019104
 10
-21.5674334463
 20
-4.9707358528
 10
-21.5699598277
 20
-5.0155344591
 10
-21.5699684683
 20
-5.0576007109
 10
-21.5674599571
 20
-5.0964611463
 10
-21.5624623456
 20
-5.1316927057
 10
-21.5550263495
 20
-5.1629205395
 10
-21.5452286226
 20
-5.1897955467
 10
-21.5331754752
 20
-5.2120054568
 10
-21.5189975041
 20
-5.2292952102
  0
LINE
  5
293
100
AcDbEntity
  8
ASSI
100
AcDbLine
 62
250
  6
CONTINUOUS
 10
-21.1214579799
 20
-2.0563260728
 11
-20.8262007721
 21
-1.6863275736
  0
LINE
  5
294
100
AcDbEntity
  8
ASSI
100
AcDbLine
 62
7
  6
CONTINUOUS
 10
-21.1150171934
 20
-2.3152355569
 11
-20.962497204
 21
-2.1241067185
  0
LINE
  5
295
100
AcDbEntity
  8
ASSI
100
AcDbLine
 62
250
  6
CONTINUOUS
 10
-21.0802710544
 20
-3.7119756675
 11
-21.4891587713
 21
-4.2243690573
  0
LINE
  5
296
100
AcDbEntity
  8
ASSI
100
AcDbLine
 62
250
  6
CONTINUOUS
 10
-20.943777406
 20
-3.8693055999
 11
-21.3526651229
 21
-4.3816989898
  0
LINE
  5
297
100
AcDbEntity
  8
RACCORDO
100
AcDbLine
 62
7
  6
CONTINUOUS
 10
14.0163996878
 20
-13.4570562951
 11
14.1080193811
 21
-13.437867384
  0
LINE
  5
298
100
AcDbEntity
  8
RACCORDO
100
AcDbLine
 62
250
  6
CONTINUOUS
 10
26.0301636596
 20
-24.3509152557
 11
25.7643449104
 21
-24.2750845889
  0
LINE
  5
299
100
AcDbEntity
  8
RACCORDO
100
AcDbLine
 62
250
  6
CONTINUOUS
 10
25.7643449104
 20
-24.2750845889
 11
25.5241512299
 21
-24.2060717304
  0
LINE
  5
29A
100
AcDbEntity
  8
RACCORDO
100
AcDbLine
 62
250
  6
CONTINUOUS
 10
25.5241512299
 20
-24.2060717304
 11
25.312969655
 21
-24.1449361972
  0
LINE
  5
29B
100
AcDbEntity
  8
RACCORDO
100
AcDbLine
 62
250
  6
CONTINUOUS
 10
25.312969655
 20
-24.1449361972
 11
25.127405846
 21
-24.0907745172
  0
LINE
  5
29C
100
AcDbEntity
  8
RACCORDO
100
AcDbLine
 62
250
  6
CONTINUOUS
 10
24.4724094031
 20
-23.8978900496
 11
24.3131322218
 21
-23.8512438181
  0
LINE
  5
29D
100
AcDbEntity
  8
RACCORDO
100
AcDbLine
 62
250
  6
CONTINUOUS
 10
24.7167042067
 20
-23.9689918686
 11
24.4724094031
 21
-23.8978900496
  0
LWPOLYLINE
  5
29E
100
AcDbEntity
  8
RACCORDO
100
AcDbPolyline
 62
7
  6
CONTINUOUS
 90
3
 70
0
 10
28.0080659684
 20
-25.0070849436
 10
28.9171489077
 20
-25.2747804837
 10
29.6835468167
 20
-25.4984366444
  0
LINE
  5
29F
100
AcDbEntity
  8
RACCORDO
100
AcDbLine
 62
250
  6
CONTINUOUS
 10
24.3131322218
 20
-23.8512438181
 11
24.136713006
 21
-23.7991524868
  0
LINE
  5
2A0
100
AcDbEntity
  8
RACCORDO
100
AcDbLine
 62
250
  6
CONTINUOUS
 10
25.127405846
 20
-24.0907745172
 11
24.9631477889
 21
-24.0421970722
  0
LWPOLYLINE
  5
2A1
100
AcDbEntity
  8
RACCORDO
100
AcDbPolyline
 62
250
  6
CONTINUOUS
 90
8
 70
0
 10
29.6833419499
 20
-25.4983800903
 10
29.6813829414
 20
-25.4977965653
 10
29.6638594668
 20
-25.4887142955
 10
29.6483917654
 20
-25.4733073499
 10
29.6351870749
 20
-25.4517821528
 10
29.6244223129
 20
-25.4244271014
 10
29.6162417066
 20
-25.3916087024
 10
29.6107548602
 20
-25.3537666612
  0
LINE
  5
2A2
100
AcDbEntity
  8
RACCORDO
100
AcDbLine
 62
250
  6
CONTINUOUS
 10
24.9631477889
 20
-24.0421970722
 11
24.7167042067
 21
-23.9689918686
  0
LINE
  5
2A3
100
AcDbEntity
  8
RACCORDO
100
AcDbLine
 62
250
  6
CONTINUOUS
 10
24.136713006
 20
-23.7991524868
 11
23.9426908202
 21
-23.7413130597
  0
LINE
  5
2A4
100
AcDbEntity
  8
RACCORDO
100
AcDbLine
 62
250
  6
CONTINUOUS
 10
23.9426908202
 20
-23.7413130597
 11
23.804302645
 21
-23.6996350999
  0
LINE
  5
2A5
100
AcDbEntity
  8
RACCORDO
100
AcDbLine
 62
250
  6
CONTINUOUS
 10
23.804302645
 20
-23.6996350999
 11
23.5051902507
 21
-23.6082675275
  0
LINE
  5
2A6
100
AcDbEntity
  8
RACCORDO
100
AcDbLine
 62
250
  6
CONTINUOUS
 10
23.5051902507
 20
-23.6082675275
 11
23.4251698274
 21
-23.5837760743
  0
LINE
  5
2A7
100
AcDbEntity
  8
RACCORDO
100
AcDbLine
 62
250
  6
CONTINUOUS
 10
-16.8926406216
 20
-11.1947969529
 11
-21.7861712234
 21
-9.6993065404
  0
LINE
  5
2A8
100
AcDbEntity
  8
RACCORDO
100
AcDbLine
 62
7
  6
CONTINUOUS
 10
-18.064663246
 20
-10.897022271
 11
-15.9039894732
 21
-11.5589617145
  0
LWPOLYLINE
  5
2A9
100
AcDbEntity
  8
RACCORDO
100
AcDbPolyline
 62
250
  6
CONTINUOUS
 90
4
 70
0
 10
23.4251698274
 20
-23.5837760743
 10
23.171023448
 20
-23.5059453319
 10
23.0814413052
 20
-23.4784943735
 10
22.9893054807
 20
-23.4502569056
  0
LINE
  5
2AA
100
AcDbEntity
  8
RACCORDO
100
AcDbLine
 62
250
  6
CONTINUOUS
 10
22.9893054807
 20
-23.4502569056
 11
22.7973133339
 21
-23.3913976511
  0
LINE
  5
2AB
100
AcDbEntity
  8
RACCORDO
100
AcDbLine
 62
250
  6
CONTINUOUS
 10
-21.7861712234
 20
-9.6993065404
 11
-22.9664826359
 21
-9.3377479116
  0
LINE
  5
2AC
100
AcDbEntity
  8
RACCORDO
100
AcDbLine
 62
250
  6
CONTINUOUS
 10
22.7973133339
 20
-23.3913976511
 11
22.5947052619
 21
-23.3292508563
  0
LINE
  5
2AD
100
AcDbEntity
  8
RACCORDO
100
AcDbLine
 62
7
  6
CONTINUOUS
 10
14.6011527601
 20
-20.926795449
 11
-15.9040172258
 21
-11.5589532791
  0
LWPOLYLINE
  5
2AE
100
AcDbEntity
  8
RACCORDO
100
AcDbPolyline
 62
250
  6
CONTINUOUS
 90
3
 70
0
 10
22.5947052619
 20
-23.3292508563
 10
22.3811860317
 20
-23.263722851
 10
22.2702953365
 20
-23.2296784421
  0
LINE
  5
2AF
100
AcDbEntity
  8
RACCORDO
100
AcDbLine
 62
250
  6
CONTINUOUS
 10
-15.8867511583
 20
-11.502728557
 11
-16.8926406216
 21
-11.1947969529
  0
LINE
  5
2B0
100
AcDbEntity
  8
RACCORDO
100
AcDbLine
 62
250
  6
CONTINUOUS
 10
-22.9664826359
 20
-9.3377479116
 11
-23.8159888857
 21
-9.0770186298
  0
LINE
  5
2B1
100
AcDbEntity
  8
RACCORDO
100
AcDbLine
 62
250
  6
CONTINUOUS
 10
22.2702953365
 20
-23.2296784421
 11
22.0397933365
 21
-23.1588843644
  0
LWPOLYLINE
  5
2B2
100
AcDbEntity
  8
RACCORDO
100
AcDbPolyline
 62
7
  6
CONTINUOUS
 90
6
 70
0
 10
22.1475087486
 20
-23.2504346875
 10
23.1668649781
 20
-23.5637984326
 10
24.1685323631
 20
-23.8707950613
 10
25.1556526772
 20
-24.1669353444
 10
26.1260801486
 20
-24.455279737
 10
28.0080659684
 20
-25.0070849436
  0
LWPOLYLINE
  5
2B3
100
AcDbEntity
  8
RACCORDO
100
AcDbPolyline
 62
250
  6
CONTINUOUS
 90
3
 70
0
 10
22.0397933365
 20
-23.1588843644
 10
21.7974441309
 20
-23.0844133727
 10
21.6715831561
 20
-23.0457226132
  0
LINE
  5
2B4
100
AcDbEntity
  8
RACCORDO
100
AcDbLine
 62
250
  6
CONTINUOUS
 10
21.6715831561
 20
-23.0457226132
 11
21.4102491734
 21
-22.9653553625
  0
LWPOLYLINE
  5
2B5
100
AcDbEntity
  8
RACCORDO
100
AcDbPolyline
 62
250
  6
CONTINUOUS
 90
3
 70
0
 10
21.4102491734
 20
-22.9653553625
 10
21.1355059132
 20
-22.8808213035
 10
20.9928411153
 20
-22.8369090784
  0
LINE
  5
2B6
100
AcDbEntity
  8
RACCORDO
100
AcDbLine
 62
7
  6
CONTINUOUS
 10
20.0529525605
 20
-22.6057397265
 11
22.1475087486
 21
-23.2504346875
  0
LINE
  5
2B7
100
AcDbEntity
  8
RACCORDO
100
AcDbLine
 62
7
  6
CONTINUOUS
 10
14.6011249795
 20
-20.9267868828
 11
16.7699578987
 21
-21.5944064485
  0
LWPOLYLINE
  5
2B8
100
AcDbEntity
  8
RACCORDO
100
AcDbPolyline
 62
250
  6
CONTINUOUS
 90
3
 70
0
 10
-23.8159888857
 20
-9.0770186298
 10
-24.7873099309
 20
-8.7782623408
 10
-24.951212125
 20
-8.7277923917
  0
LINE
  5
2B9
100
AcDbEntity
  8
RACCORDO
100
AcDbLine
 62
250
  6
CONTINUOUS
 10
20.9928411153
 20
-22.8369090784
 11
20.6966801113
 21
-22.7457173804
  0
LINE
  5
2BA
100
AcDbEntity
  8
RACCORDO
100
AcDbLine
 62
7
  6
CONTINUOUS
 10
16.7699578987
 20
-21.5944064485
 11
20.0529525605
 21
-22.6057397265
  0
LWPOLYLINE
  5
2BB
100
AcDbEntity
  8
RACCORDO
100
AcDbPolyline
 62
250
  6
CONTINUOUS
 90
3
 70
0
 10
20.6966801113
 20
-22.7457173804
 10
20.3852404843
 20
-22.6497755423
 10
20.2236887533
 20
-22.599991385
  0
LINE
  5
2BC
100
AcDbEntity
  8
RACCORDO
100
AcDbLine
 62
250
  6
CONTINUOUS
 10
15.1357989664
 20
-21.0300388439
 11
-15.8867511583
 21
-11.502728557
  0
LWPOLYLINE
  5
2BD
100
AcDbEntity
  8
RACCORDO
100
AcDbPolyline
 62
250
  6
CONTINUOUS
 90
3
 70
0
 10
20.2236887533
 20
-22.599991385
 10
19.8880147213
 20
-22.4965154161
 10
19.7138924439
 20
-22.4428237228
  0
LWPOLYLINE
  5
2BE
100
AcDbEntity
  8
RACCORDO
100
AcDbPolyline
 62
250
  6
CONTINUOUS
 90
4
 70
0
 10
19.7138924439
 20
-22.4428237228
 10
19.3521154926
 20
-22.3312360165
 10
19.1644606904
 20
-22.2733403199
 10
18.9719461641
 20
-22.2139363541
  0
LWPOLYLINE
  5
2BF
100
AcDbEntity
  8
RACCORDO
100
AcDbPolyline
 62
250
  6
CONTINUOUS
 90
3
 70
0
 10
16.2446167379
 20
-21.372021586
 10
15.9780416429
 20
-21.2897664682
 10
15.1357989664
 20
-21.0300388439
  0
LINE
  5
2C0
100
AcDbEntity
  8
RACCORDO
100
AcDbLine
 62
250
  6
CONTINUOUS
 10
18.9719461641
 20
-22.2139363541
 11
16.2446167379
 21
-21.372021586
  0
LINE
  5
2C1
100
AcDbEntity
  8
RACCORDO
100
AcDbLine
 62
250
  6
CONTINUOUS
 10
-24.951212125
 20
-8.7277923917
 11
-25.1806985564
 21
-8.6569661652
  0
LINE
  5
2C2
100
AcDbEntity
  8
RACCORDO
100
AcDbLine
 62
250
  6
CONTINUOUS
 10
-25.1806985564
 20
-8.6569661652
 11
-25.323886448
 21
-8.6124083236
  0
LINE
  5
2C3
100
AcDbEntity
  8
RACCORDO
100
AcDbLine
 62
250
  6
CONTINUOUS
 10
-25.323886448
 20
-8.6124083236
 11
-25.4599867846
 21
-8.5696088111
  0
LINE
  5
2C4
100
AcDbEntity
  8
RACCORDO
100
AcDbLine
 62
250
  6
CONTINUOUS
 10
-25.4599867846
 20
-8.5696088111
 11
-25.6494142422
 21
-8.5095093562
  0
LINE
  5
2C5
100
AcDbEntity
  8
RACCORDO
100
AcDbLine
 62
250
  6
CONTINUOUS
 10
-26.1674876088
 20
-8.3427387738
 11
-26.4668279304
 21
-8.2478273653
  0
LINE
  5
2C6
100
AcDbEntity
  8
RACCORDO
100
AcDbLine
 62
250
  6
CONTINUOUS
 10
-25.6494142422
 20
-8.5095093562
 11
-25.8198638396
 21
-8.4549684534
  0
LINE
  5
2C7
100
AcDbEntity
  8
RACCORDO
100
AcDbLine
 62
250
  6
CONTINUOUS
 10
-26.4668279304
 20
-8.2478273653
 11
-26.6404151995
 21
-8.1922350007
  0
LWPOLYLINE
  5
2C8
100
AcDbEntity
  8
RACCORDO
100
AcDbPolyline
 62
7
  6
CONTINUOUS
 90
11
 70
0
 10
-30.9052954225
 20
-6.8921784096
 10
-30.1445374815
 20
-7.137626022
 10
-29.2511984104
 20
-7.4234502227
 10
-28.3385084948
 20
-7.7166637734
 10
-27.4046736868
 20
-8.0166304827
 10
-26.4471527058
 20
-8.3202799317
 10
-25.4693319878
 20
-8.6275253236
 10
-24.4683841178
 20
-8.9354721154
 10
-23.4485158557
 20
-9.248332316
 10
-22.4096294404
 20
-9.5667380139
 10
-18.064663246
 20
-10.897022271
  0
LWPOLYLINE
  5
2C9
100
AcDbEntity
  8
RACCORDO
100
AcDbPolyline
 62
250
  6
CONTINUOUS
 90
3
 70
0
 10
-25.8198638396
 20
-8.4549684534
 10
-26.0234715264
 20
-8.3892761423
 10
-26.1674876088
 20
-8.3427387738
  0
LINE
  5
2CA
100
AcDbEntity
  8
RACCORDO
100
AcDbLine
 62
250
  6
CONTINUOUS
 10
-26.6404151995
 20
-8.1922350007
 11
-26.8369785519
 21
-8.1286316117
  0
LINE
  5
2CB
100
AcDbEntity
  8
RACCORDO
100
AcDbLine
 62
250
  6
CONTINUOUS
 10
-26.8369785519
 20
-8.1286316117
 11
-27.0559208361
 21
-8.0572977551
  0
LINE
  5
2CC
100
AcDbEntity
  8
RACCORDO
100
AcDbLine
 62
250
  6
CONTINUOUS
 10
-27.0559208361
 20
-8.0572977551
 11
-27.2965890834
 21
-7.9783702912
  0
LINE
  5
2CD
100
AcDbEntity
  8
RACCORDO
100
AcDbLine
 62
250
  6
CONTINUOUS
 10
-30.4057051475
 20
-6.9465012988
 11
-30.6119196439
 21
-6.878623175
  0
LINE
  5
2CE
100
AcDbEntity
  8
RACCORDO
100
AcDbLine
 62
250
  6
CONTINUOUS
 10
-27.2965890834
 20
-7.9783702912
 11
-27.5574211505
 21
-7.8923251186
  0
LINE
  5
2CF
100
AcDbEntity
  8
RACCORDO
100
AcDbLine
 62
250
  6
CONTINUOUS
 10
-29.4417288971
 20
-7.2656172369
 11
-30.4057051475
 21
-6.9465012988
  0
LINE
  5
2D0
100
AcDbEntity
  8
RACCORDO
100
AcDbLine
 62
250
  6
CONTINUOUS
 10
-27.5574211505
 20
-7.8923251186
 11
-27.9335706617
 21
-7.7675588996
  0
LWPOLYLINE
  5
2D1
100
AcDbEntity
  8
RACCORDO
100
AcDbPolyline
 62
250
  6
CONTINUOUS
 90
6
 70
0
 10
-27.9335706617
 20
-7.7675588996
 10
-28.3269893121
 20
-7.6365634491
 10
-28.4234877815
 20
-7.6044024615
 10
-28.517903927
 20
-7.5729388935
 10
-28.6104773858
 20
-7.5420939504
 10
-29.4417288971
 20
-7.2656172369
  0
LWPOLYLINE
  5
2D2
100
AcDbEntity
  8
RACCORDO
100
AcDbPolyline
 62
250
  6
CONTINUOUS
 90
4
 70
0
 10
-30.6119196439
 20
-6.878623175
 10
-30.6643562316
 20
-6.8611744425
 10
-30.6902673769
 20
-6.8523784931
 10
-30.7166049956
 20
-6.8432346511
  0
LINE
  5
2D3
100
AcDbEntity
  8
ASSI
100
AcDbLine
 62
7
  6
CONTINUOUS
 10
-20.8531571813
 20
-3.897134193
 11
-20.9040532215
 21
-3.8578781268
  0
LWPOLYLINE
  5
2D4
100
AcDbEntity
  8
RACCORDO
100
AcDbPolyline
 62
250
  6
CONTINUOUS
 90
10
 70
0
 10
-22.5910207084
 20
4.4044131572
 10
-22.6412185548
 20
4.4587628322
 10
-22.69718277
 20
4.5107711918
 10
-22.758660232
 20
4.5602030064
 10
-22.8253728834
 20
4.6068346996
 10
-22.8970189878
 20
4.65045536
 10
-22.9732744957
 20
4.690867695
 10
-23.0537945093
 20
4.7278889226
 10
-23.138214843
 20
4.7613515988
 10
-23.2261536702
 20
4.7911043745
  0
LWPOLYLINE
  5
2D5
100
AcDbEntity
  8
RACCORDO
100
AcDbPolyline
 62
7
  6
CONTINUOUS
 90
4
 70
0
 10
-13.2820585037
 20
-5.0177595248
 10
-13.2828737104
 20
-5.0161762603
 10
-13.284208549
 20
-5.0152172339
 10
-13.2846110456
 20
-5.0150717369
  0
LINE
  5
2D6
100
AcDbEntity
  8
RACCORDO
100
AcDbLine
 62
250
  6
CONTINUOUS
 10
-13.2888254879
 20
-5.0245617442
 11
-13.2805608419
 21
-5.3567875103
  0
LINE
  5
2D7
100
AcDbEntity
  8
RACCORDO
100
AcDbLine
 62
7
  6
CONTINUOUS
 10
-13.2819929669
 20
-5.0184093261
 11
-13.2740756977
 21
-5.3366710897
  0
LINE
  5
2D8
100
AcDbEntity
  8
RACCORDO
100
AcDbLine
 62
250
  6
CONTINUOUS
 10
-13.2740756977
 20
-5.3366710897
 11
-13.2741046508
 21
-5.3383491162
  0
LWPOLYLINE
  5
2D9
100
AcDbEntity
  8
RACCORDO
100
AcDbPolyline
 62
250
  6
CONTINUOUS
 90
6
 70
0
 10
-13.2805608419
 20
-5.3567875103
 10
-13.2807305421
 20
-5.362699173
 10
-13.2816523519
 20
-5.3683448431
 10
-13.2833161238
 20
-5.3736623712
 10
-13.2857038722
 20
-5.3785937872
 10
-13.2870901941
 20
-5.3807934748
  0
LWPOLYLINE
  5
2DA
100
AcDbEntity
  8
RACCORDO
100
AcDbPolyline
 62
250
  6
CONTINUOUS
 90
5
 70
0
 10
-13.2741046508
 20
-5.3383491162
 10
-13.2745588317
 20
-5.3428392299
 10
-13.2758120841
 20
-5.3475981812
 10
-13.2778196738
 20
-5.3522636216
 10
-13.2805608419
 20
-5.3567875103
  0
LINE
  5
2DB
100
AcDbEntity
  8
DRAFT
100
AcDbLine
 62
7
  6
CONTINUOUS
 10
-13.7087240965
 20
-5.6030598826
 11
-13.6796034137
 21
-5.5011414044
  0
LINE
  5
2DC
100
AcDbEntity
  8
DRAFT
100
AcDbLine
 62
7
  6
CONTINUOUS
 10
-13.6068331356
 20
-5.4571691759
 11
-13.5777124529
 21
-5.3552506977
  0
LINE
  5
2DD
100
AcDbEntity
  8
DRAFT
100
AcDbLine
 62
7
  6
CONTINUOUS
 10
-13.5049421748
 20
-5.3112784693
 11
-13.4758214921
 21
-5.2093599911
  0
LINE
  5
2DE
100
AcDbEntity
  8
DRAFT
100
AcDbLine
 62
7
  6
CONTINUOUS
 10
-13.403051214
 20
-5.1653877627
 11
-13.3739305313
 21
-5.0634692845
  0
LINE
  5
2DF
100
AcDbEntity
  8
ASSI
100
AcDbLine
 62
250
  6
CONTINUOUS
 10
-19.5344711825
 20
-4.1299558989
 11
-19.6447972233
 21
-4.2682098295
  0
LINE
  5
2E0
100
AcDbEntity
  8
ASSI
100
AcDbLine
 62
250
  6
CONTINUOUS
 10
-18.7466225759
 20
-4.083361435
 11
-19.0418797837
 21
-4.4533599342
  0
LWPOLYLINE
  5
2E1
100
AcDbEntity
  8
RACCORDO
100
AcDbPolyline
 62
250
  6
CONTINUOUS
 90
22
 70
0
 10
-21.4891587713
 20
-4.2243690573
 10
-21.5153006222
 20
-4.2533313633
 10
-21.5460240019
 20
-4.2804823126
 10
-21.5809930122
 20
-4.3055250644
 10
-21.6198253373
 20
-4.3281858266
 10
-21.6620964241
 20
-4.3482168495
 10
-21.7073441233
 20
-4.365399134
 10
-21.7550737425
 20
-4.3795448267
 10
-21.8047634544
 20
-4.3904992727
 10
-21.8558700022
 20
-4.3981427074
 10
-21.9078346387
 20
-4.4023915651
 10
-21.9600892352
 20
-4.4031993931
 10
-22.0120624931
 20
-4.4005573596
 10
-22.0631861894
 20
-4.3944943497
 10
-22.1129013895
 20
-4.3850766504
 10
-22.1606645578
 20
-4.3724072251
 10
-22.2059424779
 20
-4.3566289297
 10
-22.2482526393
 20
-4.3379114026
 10
-22.2871605987
 20
-4.316442037
 10
-22.3222406003
 20
-4.2924435694
 10
-22.3530885918
 20
-4.2661788648
 10
-22.3793558154
 20
-4.2379316348
  0
LWPOLYLINE
  5
2E2
100
AcDbEntity
  8
RACCORDO
100
AcDbPolyline
 62
7
  6
CONTINUOUS
 90
4
 70
0
 10
14.1325023352
 20
-13.4365055673
 10
14.1391970233
 20
-13.4372285188
 10
14.14588102
 20
-13.438731999
 10
14.1474972394
 20
-13.4392064302
  0
LWPOLYLINE
  5
2E3
100
AcDbEntity
  8
0
100
AcDbPolyline
 62
250
  6
CONTINUOUS
 90
5
 70
0
 10
18.4602651978
 20
-16.6078641853
 10
18.4834207159
 20
-16.6132216217
 10
18.5057847565
 20
-16.6148824816
 10
18.5266777997
 20
-16.6127963005
 10
18.5347023857
 20
-16.6103318309
  0
LWPOLYLINE
  5
2E4
100
AcDbEntity
  8
SCRITTA_VIMAR
100
AcDbPolyline
 62
250
  6
CONTINUOUS
 90
87
 70
0
 10
19.281072276
 20
-18.8608179845
 10
19.2854829516
 20
-18.8620200265
 10
19.2899487756
 20
-18.8631418051
 10
19.2944286102
 20
-18.8641726889
 10
19.2988813174
 20
-18.8651020466
 10
19.3047248575
 20
-18.8661703524
 10
19.310468911
 20
-18.8670468694
 10
19.3161353514
 20
-18.8677391998
 10
19.3217402162
 20
-18.8682534132
 10
19.3272761985
 20
-18.8685894487
 10
19.3327301551
 20
-18.8687457126
 10
19.3380926767
 20
-18.8687206068
 10
19.3433692891
 20
-18.8685125153
 10
19.3485692519
 20
-18.8681198176
 10
19.3536987939
 20
-18.8675402179
 10
19.3587520224
 20
-18.8667687189
 10
19.363720014
 20
-18.8657996481
 10
19.3685906765
 20
-18.8646292781
 10
19.3733392419
 20
-18.8632616612
 10
19.3779377734
 20
-18.8617027951
 10
19.382362354
 20
-18.859958334
 10
19.386605145
 20
-18.8580325607
 10
19.3906623276
 20
-18.8559294147
 10
19.3945300831
 20
-18.8536528356
 10
19.3982045926
 20
-18.851206763
 10
19.4016820372
 20
-18.8485951365
 10
19.4049587809
 20
-18.8458219785
 10
19.4080319189
 20
-18.8428916425
 10
19.410898729
 20
-18.8398085648
 10
19.4135564893
 20
-18.8365771817
 10
19.4160024775
 20
-18.8332019295
 10
19.4182339717
 20
-18.8296872445
 10
19.420248198
 20
-18.8260370185
 10
19.4220421749
 20
-18.8222529657
 10
19.4236128694
 20
-18.8183362558
 10
19.4249572483
 20
-18.8142880583
 10
19.4260722784
 20
-18.8101095429
 10
19.4269549266
 20
-18.8058018793
 10
19.4276023029
 20
-18.8013679245
 10
19.4280120908
 20
-18.7968172855
 10
19.4281821168
 20
-18.7921612563
 10
19.4281102075
 20
-18.7874111312
 10
19.4277941897
 20
-18.7825782045
 10
19.4272318899
 20
-18.7776737704
 10
19.4264222495
 20
-18.772708848
 10
19.4253686699
 20
-18.7676933562
 10
19.4240756669
 20
-18.7626369384
 10
19.4225477565
 20
-18.7575492385
 10
19.4207894548
 20
-18.7524399001
 10
19.4188052778
 20
-18.7473185669
 10
19.4165997078
 20
-18.7421942954
 10
19.4141770922
 20
-18.737073794
 10
19.4115417449
 20
-18.7319631839
 10
19.4086979797
 20
-18.7268685864
 10
19.4056501103
 20
-18.7217961227
 10
19.4024024505
 20
-18.716751914
 10
19.3989600417
 20
-18.7117425048
 10
19.3953308359
 20
-18.706776132
 10
19.3915235126
 20
-18.7018614556
 10
19.3875467512
 20
-18.6970071357
 10
19.3834092314
 20
-18.6922218324
 10
19.3791196326
 20
-18.6875142058
 10
19.3746825469
 20
-18.6828891793
 10
19.3700862167
 20
-18.6783367299
 10
19.3653147968
 20
-18.6738430983
 10
19.3603604567
 20
-18.6694019102
 10
19.3552474234
 20
-18.6650363338
 10
19.3500079383
 20
-18.6607769222
 10
19.344674599
 20
-18.6566520523
 10
19.3392814275
 20
-18.6526813934
 10
19.3338628016
 20
-18.6488824384
 10
19.3284495898
 20
-18.6452693721
 10
19.3230586228
 20
-18.6418431485
 10
19.3177032217
 20
-18.6386014137
 10
19.3123913614
 20
-18.635539606
 10
19.3071096328
 20
-18.6326443306
 10
19.3018392805
 20
-18.6298999849
 10
19.2965670947
 20
-18.6272940891
 10
19.2913020476
 20
-18.6248266555
 10
19.2860586573
 20
-18.6225008194
 10
19.2808447918
 20
-18.6203175761
 10
19.2756417211
 20
-18.6182693612
 10
19.2704240657
 20
-18.6163464705
 10
19.2664945482
 20
-18.6149832461
 10
19.2625832203
 20
-18.6136961881
 10
19.2587307515
 20
-18.6124964265
 10
19.2549778115
 20
-18.6113950915
  0
LWPOLYLINE
  5
2E5
100
AcDbEntity
  8
SCRITTA_VIMAR
100
AcDbPolyline
 62
250
  6
CONTINUOUS
 90
3
 70
0
 10
19.8176074387
 20
-19.5760396779
 10
19.5706198441
 20
-19.506557857
 10
19.5218266987
 20
-19.4927646087
  0
LINE
  5
2E6
100
AcDbEntity
  8
SCRITTA_VIMAR
100
AcDbLine
 62
250
  6
CONTINUOUS
 10
19.2549775843
 20
-18.6113943412
 11
19.0794011892
 21
-18.5612752859
  0
LINE
  5
2E7
100
AcDbEntity
  8
SCRITTA_VIMAR
100
AcDbLine
 62
250
  6
CONTINUOUS
 10
19.2147421834
 20
-19.0254434002
 11
18.9861663613
 21
-18.9601362328
  0
LINE
  5
2E8
100
AcDbEntity
  8
SCRITTA_VIMAR
100
AcDbLine
 62
250
  6
CONTINUOUS
 10
18.9623907402
 20
-18.7698484618
 11
19.2810720879
 21
-18.8608172459
  0
LINE
  5
2E9
100
AcDbEntity
  8
SCRITTA_VIMAR
100
AcDbLine
 62
250
  6
CONTINUOUS
 10
19.0794011892
 20
-18.5612752859
 11
18.9365106279
 21
-18.5201513667
  0
LINE
  5
2EA
100
AcDbEntity
  8
SCRITTA_VIMAR
100
AcDbLine
 62
250
  6
CONTINUOUS
 10
19.0745909858
 20
-18.3754415284
 11
19.2716451799
 21
-18.4319654543
  0
LINE
  5
2EB
100
AcDbEntity
  8
SCRITTA_VIMAR
100
AcDbLine
 62
250
  6
CONTINUOUS
 10
19.0306180307
 20
-19.3526603866
 11
18.7692340298
 21
-19.2771925751
  0
LWPOLYLINE
  5
2EC
100
AcDbEntity
  8
SCRITTA_VIMAR
100
AcDbPolyline
 62
250
  6
CONTINUOUS
 90
3
 70
0
 10
18.5952061208
 20
-19.2266036268
 10
18.3782641916
 20
-19.1631570926
 10
18.3344837984
 20
-19.1503034418
  0
LINE
  5
2ED
100
AcDbEntity
  8
SCRITTA_VIMAR
100
AcDbLine
 62
250
  6
CONTINUOUS
 10
18.7664517142
 20
-18.2855236962
 11
19.0745909858
 21
-18.3754415284
  0
LWPOLYLINE
  5
2EE
100
AcDbEntity
  8
RACCORDO
100
AcDbPolyline
 62
250
  6
CONTINUOUS
 90
10
 70
0
 10
18.4371344845
 20
-17.8966250396
 10
17.9656209576
 20
-17.7580467826
 10
17.4823939092
 20
-17.6132816182
 10
16.9876945787
 20
-17.4631816652
 10
16.4813623381
 20
-17.3083930159
 10
15.9637500225
 20
-17.1492690578
 10
15.4358837795
 20
-16.9863263908
 10
14.8980615443
 20
-16.8199190364
 10
14.3498116326
 20
-16.6503072824
 10
13.7909923104
 20
-16.4779281861
  0
LINE
  5
2EF
100
AcDbEntity
  8
SCRITTA_VIMAR
100
AcDbLine
 62
250
  6
CONTINUOUS
 10
18.6603639362
 20
-18.2542647771
 11
18.7664517142
 21
-18.2855236962
  0
LWPOLYLINE
  5
2F0
100
AcDbEntity
  8
SCRITTA_VIMAR
100
AcDbPolyline
 62
250
  6
CONTINUOUS
 90
73
 70
0
 10
19.2716449396
 20
-18.4319647364
 10
19.2841395101
 20
-18.4356534666
 10
19.2969050172
 20
-18.4397182848
 10
19.30992847
 20
-18.4441744215
 10
19.3231968777
 20
-18.4490371072
 10
19.3366972495
 20
-18.4543215725
 10
19.3504165944
 20
-18.4600430478
 10
19.3643419217
 20
-18.4662167638
 10
19.3784602405
 20
-18.4728579508
 10
19.3927541161
 20
-18.4799789651
 10
19.4071883391
 20
-18.4875806659
 10
19.4217232562
 20
-18.4956610378
 10
19.4363192141
 20
-18.5042180656
 10
19.4509365595
 20
-18.5132497342
 10
19.4655356391
 20
-18.5227540282
 10
19.4800767997
 20
-18.5327289325
 10
19.4945203881
 20
-18.5431724318
 10
19.5072448027
 20
-18.5528452772
 10
19.5198307722
 20
-18.562873217
 10
19.5322482763
 20
-18.5732426897
 10
19.5444672951
 20
-18.583940134
 10
19.5564578084
 20
-18.5949519886
 10
19.5681897962
 20
-18.606264692
 10
19.5796332383
 20
-18.6178646831
 10
19.5907581147
 20
-18.6297384004
 10
19.6015344053
 20
-18.6418722825
 10
19.6119329663
 20
-18.6542509419
 10
19.6219281586
 20
-18.6668516856
 10
19.6314952193
 20
-18.6796499947
 10
19.6406093858
 20
-18.6926213498
 10
19.649245895
 20
-18.705741232
 10
19.6573799843
 20
-18.7189851221
 10
19.6649868907
 20
-18.7323285009
 10
19.6720418514
 20
-18.7457468493
 10
19.6785201037
 20
-18.7592156482
 10
19.684399247
 20
-18.7727101243
 10
19.6896663296
 20
-18.786204487
 10
19.6943107623
 20
-18.7996726919
 10
19.6983219557
 20
-18.8130886943
 10
19.7016893207
 20
-18.8264264495
 10
19.7044022678
 20
-18.8396599129
 10
19.7064502077
 20
-18.8527630399
 10
19.7078225511
 20
-18.8657097859
 10
19.7085087088
 20
-18.8784741061
 10
19.7085325258
 20
-18.8897848714
 10
19.7079945314
 20
-18.90091005
 10
19.706897302
 20
-18.9118329164
 10
19.7052434139
 20
-18.9225367448
 10
19.7030354436
 20
-18.9330048096
 10
19.7002759674
 20
-18.9432203852
 10
19.6969675617
 20
-18.9531667459
 10
19.693112803
 20
-18.962827166
 10
19.6887142676
 20
-18.9721849198
 10
19.6837745319
 20
-18.9812232817
 10
19.6782981066
 20
-18.9899266802
 10
19.6722972401
 20
-18.9982841604
 10
19.6657861148
 20
-19.0062859214
 10
19.6587789133
 20
-19.0139221625
 10
19.6512898182
 20
-19.0211830828
 10
19.6433330121
 20
-19.0280588816
 10
19.6349226776
 20
-19.0345397581
 10
19.6260729971
 20
-19.0406159115
 10
19.6167981534
 20
-19.046277541
 10
19.607112329
 20
-19.0515148459
 10
19.5958862254
 20
-19.0568264752
 10
19.5841938309
 20
-19.061600625
 10
19.5720587288
 20
-19.065835773
 10
19.5595045023
 20
-19.0695303971
 10
19.5465547348
 20
-19.072682975
 10
19.5332330096
 20
-19.0752919846
 10
19.5195629101
 20
-19.0773559038
 10
19.5055680195
 20
-19.0788732102
 10
19.4912719211
 20
-19.0798423817
  0
LINE
  5
2F1
100
AcDbEntity
  8
SCRITTA_VIMAR
100
AcDbLine
 62
250
  6
CONTINUOUS
 10
18.229082647
 20
-18.9271646659
 11
18.002303296
 21
-18.8601638866
  0
LINE
  5
2F2
100
AcDbEntity
  8
SCRITTA_VIMAR
100
AcDbLine
 62
250
  6
CONTINUOUS
 10
17.8763317227
 20
-18.6353731364
 11
18.1283793726
 21
-18.7101485011
  0
LINE
  5
2F3
100
AcDbEntity
  8
SCRITTA_VIMAR
100
AcDbLine
 62
250
  6
CONTINUOUS
 10
18.002303296
 20
-18.8601638866
 11
17.818272177
 21
-18.8054768766
  0
LINE
  5
2F4
100
AcDbEntity
  8
SCRITTA_VIMAR
100
AcDbLine
 62
250
  6
CONTINUOUS
 10
17.7594122003
 20
-18.979999784
 11
17.4998250582
 21
-18.9022883194
  0
LINE
  5
2F5
100
AcDbEntity
  8
SCRITTA_VIMAR
100
AcDbLine
 62
250
  6
CONTINUOUS
 10
17.8109826246
 20
-17.9999726427
 11
18.0701812871
 21
-18.0781935796
  0
LINE
  5
2F6
100
AcDbEntity
  8
SCRITTA_VIMAR
100
AcDbLine
 62
250
  6
CONTINUOUS
 10
17.3269383644
 20
-18.8502653763
 11
17.0678442758
 21
-18.7719328488
  0
LWPOLYLINE
  5
2F7
100
AcDbEntity
  8
RACCORDO
100
AcDbPolyline
 62
250
  6
CONTINUOUS
 90
8
 70
0
 10
-17.2770066865
 20
-6.9380261434
 10
-18.3686141677
 20
-6.605307667
 10
-18.8970085303
 20
-6.4438736618
 10
-19.4137959399
 20
-6.2853329618
 10
-19.9190174443
 20
-6.1294781797
 10
-20.4126344799
 20
-5.9760763351
 10
-20.8943089466
 20
-5.8245330952
 10
-21.3636681329
 20
-5.6741837978
  0
LINE
  5
2F8
100
AcDbEntity
  8
RACCORDO
100
AcDbLine
 62
250
  6
CONTINUOUS
 10
-16.7137993482
 20
-7.110202931
 11
-17.2770066865
 21
-6.9380261434
  0
LINE
  5
2F9
100
AcDbEntity
  8
SCRITTA_VIMAR
100
AcDbLine
 62
250
  6
CONTINUOUS
 10
16.8231251369
 20
-18.6975675568
 11
16.564524375
 21
-18.6186297477
  0
LINE
  5
2FA
100
AcDbEntity
  8
SCRITTA_VIMAR
100
AcDbLine
 62
250
  6
CONTINUOUS
 10
16.8322616303
 20
-17.7015587857
 11
17.2229964696
 21
-17.8211614575
  0
LINE
  5
2FB
100
AcDbEntity
  8
RACCORDO
100
AcDbLine
 62
250
  6
CONTINUOUS
 10
13.7909915762
 20
-16.4779280845
 11
-16.7126565384
 21
-7.1105532666
  0
LINE
  5
2FC
100
AcDbEntity
  8
RACCORDO
100
AcDbLine
 62
250
  6
CONTINUOUS
 10
16.3306866575
 20
-16.8523636091
 11
13.6392040998
 21
-16.0263563963
  0
LWPOLYLINE
  5
2FD
100
AcDbEntity
  8
RACCORDO
100
AcDbPolyline
 62
250
  6
CONTINUOUS
 90
3
 70
0
 10
-17.4254735273
 20
-6.4865650863
 10
-19.5617843785
 20
-5.830132837
 10
-21.5189975041
 20
-5.2292952102
  0
LINE
  5
2FE
100
AcDbEntity
  8
RACCORDO
100
AcDbLine
 62
250
  6
CONTINUOUS
 10
17.3345375031
 20
-17.1606336764
 11
16.3306866575
 21
-16.8523636091
  0
LINE
  5
2FF
100
AcDbEntity
  8
RACCORDO
100
AcDbLine
 62
250
  6
CONTINUOUS
 10
13.6392040998
 20
-16.0263563963
 11
-17.4254735273
 21
-6.4865650863
  0
LINE
  5
300
100
AcDbEntity
  8
RACCORDO
100
AcDbLine
 62
250
  6
CONTINUOUS
 10
18.2939328166
 20
-17.4554604057
 11
17.3345375031
 21
-17.1606336764
  0
LINE
  5
301
100
AcDbEntity
  8
SCRITTA_VIMAR
100
AcDbLine
 62
250
  6
CONTINUOUS
 10
16.3202220566
 20
-18.5437501834
 11
16.1904971692
 21
-18.503881373
  0
LINE
  5
302
100
AcDbEntity
  8
SCRITTA_VIMAR
100
AcDbLine
 62
250
  6
CONTINUOUS
 10
16.1904971692
 20
-18.503881373
 11
16.0620010659
 21
-18.4643235423
  0
LINE
  5
303
100
AcDbEntity
  8
SCRITTA_VIMAR
100
AcDbLine
 62
250
  6
CONTINUOUS
 10
16.2192079102
 20
-17.5130411864
 11
16.3499860303
 21
-17.553328528
  0
LWPOLYLINE
  5
304
100
AcDbEntity
  8
SCRITTA_VIMAR
100
AcDbPolyline
 62
250
  6
CONTINUOUS
 90
3
 70
0
 10
15.9598025345
 20
-17.4330349458
 10
16.0243840171
 20
-17.4529640367
 10
16.2192079102
 20
-17.5130411864
  0
LINE
  5
305
100
AcDbEntity
  8
SCRITTA_VIMAR
100
AcDbLine
 62
250
  6
CONTINUOUS
 10
15.4438308715
 20
-17.2736075752
 11
15.7017955408
 21
-17.3533554227
  0
LINE
  5
306
100
AcDbEntity
  8
SCRITTA_VIMAR
100
AcDbLine
 62
250
  6
CONTINUOUS
 10
15.8039438527
 20
-18.3847020875
 11
15.5460067128
 21
-18.3049225402
  0
LINE
  5
307
100
AcDbEntity
  8
SCRITTA_VIMAR
100
AcDbLine
 62
250
  6
CONTINUOUS
 10
14.1858496991
 20
-16.8843794937
 11
14.4438040957
 21
-16.9641450781
  0
LINE
  5
308
100
AcDbEntity
  8
SCRITTA_VIMAR
100
AcDbLine
 62
250
  6
CONTINUOUS
 10
15.0139628977
 20
-17.1406002916
 11
15.2718775082
 21
-17.2204157335
  0
LINE
  5
309
100
AcDbEntity
  8
SCRITTA_VIMAR
100
AcDbLine
 62
250
  6
CONTINUOUS
 10
14.9602545733
 20
-18.1233013611
 11
14.7024550804
 21
-18.0433347315
  0
LWPOLYLINE
  5
30A
100
AcDbEntity
  8
RACCORDO
100
AcDbPolyline
 62
250
  6
CONTINUOUS
 90
76
 70
0
 10
-21.5189975041
 20
-5.2292952102
 10
-21.5443185447
 20
-5.2212075053
 10
-21.5687517025
 20
-5.2127745192
 10
-21.5922755332
 20
-5.2040707155
 10
-21.6148025859
 20
-5.1951949496
 10
-21.6363905895
 20
-5.186189985
 10
-21.6572408737
 20
-5.1770270079
 10
-21.6773348004
 20
-5.167757679
 10
-21.6966778548
 20
-5.1584240758
 10
-21.7155085416
 20
-5.1489511707
 10
-21.7339704188
 20
-5.1392897297
 10
-21.7519129387
 20
-5.1295381441
 10
-21.7691375132
 20
-5.1198365388
 10
-21.7855689378
 20
-5.1102661752
 10
-21.8012923229
 20
-5.1008140634
 10
-21.8163541401
 20
-5.0914843578
 10
-21.8307529206
 20
-5.0823085987
 10
-21.8445028488
 20
-5.0733075364
 10
-21.8576727092
 20
-5.0644628058
 10
-21.8702674712
 20
-5.0557956957
 10
-21.8822955159
 20
-5.0473243361
 10
-21.8938286213
 20
-5.0390194238
 10
-21.9048923656
 20
-5.0308814571
 10
-21.9154733033
 20
-5.0229387286
 10
-21.925583442
 20
-5.0152001077
 10
-21.9352093447
 20
-5.0076942068
 10
-21.9443777982
 20
-5.0004169752
 10
-21.9531595294
 20
-4.993325585
 10
-21.9615080524
 20
-4.9864713179
 10
-21.9694807
 20
-4.9798212366
 10
-21.9772980772
 20
-4.9731992062
 10
-21.9849640943
 20
-4.9666055642
 10
-21.9924765976
 20
-4.9600461741
 10
-22.0000387121
 20
-4.9533440787
 10
-22.0076463094
 20
-4.9464989816
 10
-22.0152969919
 20
-4.9395088877
 10
-22.0231875702
 20
-4.9321859009
 10
-22.031335479
 20
-4.9244997975
 10
-22.0397052038
 20
-4.9164698277
 10
-22.0484055444
 20
-4.9079752782
 10
-22.0574630708
 20
-4.8989676217
 10
-22.0668218061
 20
-4.8894784483
 10
-22.0764623649
 20
-4.8795043966
 10
-22.0863831998
 20
-4.8690216389
 10
-22.0965511725
 20
-4.8580378662
 10
-22.1069003065
 20
-4.8465985037
 10
-22.1174020609
 20
-4.8347099634
 10
-22.128049042
 20
-4.8223543143
 10
-22.1388084425
 20
-4.8095426105
 10
-22.1496503292
 20
-4.7962829828
 10
-22.1605644998
 20
-4.7825590615
 10
-22.1715460336
 20
-4.7683457304
 10
-22.1825686073
 20
-4.753643013
 10
-22.1936097897
 20
-4.7384451231
 10
-22.204666073
 20
-4.7227180704
 10
-22.2157000584
 20
-4.7064726218
 10
-22.2266899854
 20
-4.6896960567
 10
-22.2376478655
 20
-4.672318653
 10
-22.2485261139
 20
-4.6543573869
 10
-22.259295769
 20
-4.6357980444
 10
-22.2699817319
 20
-4.6165232376
 10
-22.280532463
 20
-4.5965358064
 10
-22.2908930445
 20
-4.5758429541
 10
-22.3010622299
 20
-4.5543341834
 10
-22.3109851685
 20
-4.531986228
 10
-22.3205723946
 20
-4.5088467535
 10
-22.3297551143
 20
-4.4849153771
 10
-22.3384588179
 20
-4.460204098
 10
-22.3465920325
 20
-4.4347486403
 10
-22.3540533848
 20
-4.4085928831
 10
-22.3607341114
 20
-4.3818444165
 10
-22.3665625602
 20
-4.3544780378
 10
-22.3714646849
 20
-4.3263540172
 10
-22.3753213612
 20
-4.2974731816
 10
-22.3779951119
 20
-4.2679718415
 10
-22.3793558154
 20
-4.2379316348
  0
LWPOLYLINE
  5
30B
100
AcDbEntity
  8
RACCORDO
100
AcDbPolyline
 62
250
  6
CONTINUOUS
 90
30
 70
0
 10
-21.3636679752
 20
-5.6741835818
 10
-21.4126002297
 20
-5.6577356872
 10
-21.4598654015
 20
-5.6407006215
 10
-21.5054369241
 20
-5.6232121239
 10
-21.5491826432
 20
-5.6054114366
 10
-21.591079649
 20
-5.5874699021
 10
-21.6312993642
 20
-5.5695335746
 10
-21.6697214321
 20
-5.551788301
 10
-21.7062985944
 20
-5.5343155005
 10
-21.7413514394
 20
-5.5170529373
 10
-21.775040607
 20
-5.500062325
 10
-21.8073458879
 20
-5.4833455483
 10
-21.8382846777
 20
-5.4667420448
 10
-21.867907205
 20
-5.4502192771
 10
-21.8963267698
 20
-5.4338430728
 10
-21.9236091049
 20
-5.4176149933
 10
-21.9497313604
 20
-5.401594788
 10
-21.974709475
 20
-5.385832911
 10
-21.998672074
 20
-5.3703015171
 10
-22.0216351494
 20
-5.3550344154
 10
-22.0435861318
 20
-5.3400802208
 10
-22.0646032535
 20
-5.325427162
 10
-22.0846605599
 20
-5.3111413159
 10
-22.1038323374
 20
-5.2971946031
 10
-22.1223746979
 20
-5.2833967721
 10
-22.1403916002
 20
-5.2696751776
 10
-22.1579207188
 20
-5.256031707
 10
-22.1750653555
 20
-5.2424165777
 10
-22.1917325889
 20
-5.2288974405
 10
-22.2079443995
 20
-5.2155057321
  0
LWPOLYLINE
  5
30C
100
AcDbEntity
  8
RACCORDO
100
AcDbPolyline
 62
250
  6
CONTINUOUS
 90
5
 70
0
 10
14.6011248116
 20
-20.9267868595
 10
14.5851918311
 20
-20.9194880222
 10
14.5658008507
 20
-20.9024883429
 10
14.5495461975
 20
-20.8776759235
 10
14.5367076694
 20
-20.8454780269
  0
LWPOLYLINE
  5
30D
100
AcDbEntity
  8
ASSI
100
AcDbPolyline
 62
7
  6
CONTINUOUS
 90
8
 70
0
 10
-21.3662013973
 20
12.8732200115
 10
-21.3390365976
 20
12.8298136556
 10
-21.291408114
 20
12.7402208525
 10
-21.2511427655
 20
12.6491120526
 10
-21.2191713017
 20
12.5585932716
 10
-21.1958039723
 20
12.4693665148
 10
-21.1807305274
 20
12.3807297769
 10
-21.1739509673
 20
12.292683058
  0
LINE
  5
30E
100
AcDbEntity
  8
DRAFT
100
AcDbLine
 62
7
  6
CONTINUOUS
 10
-13.3637414352
 20
-5.0488802138
 11
-13.3739305313
 21
-5.0634692845
  0
LINE
  5
30F
100
AcDbEntity
  8
DRAFT
100
AcDbLine
 62
7
  6
CONTINUOUS
 10
-13.5369560686
 20
-5.2968944151
 11
-13.5777124529
 21
-5.3552506977
  0
LINE
  5
310
100
AcDbEntity
  8
DRAFT
100
AcDbLine
 62
7
  6
CONTINUOUS
 10
-13.4350651078
 20
-5.1510037085
 11
-13.4758214921
 21
-5.2093599911
  0
LINE
  5
311
100
AcDbEntity
  8
DRAFT
100
AcDbLine
 62
7
  6
CONTINUOUS
 10
-13.6388470294
 20
-5.4427851217
 11
-13.6796034137
 21
-5.5011414044
  0
LINE
  5
312
100
AcDbEntity
  8
DRAFT
100
AcDbLine
 62
7
  6
CONTINUOUS
 10
-13.7407379902
 20
-5.5886758283
 11
-13.7591081449
 21
-5.6149787979
  0
LINE
  5
313
100
AcDbEntity
  8
DRAFT
100
AcDbLine
 62
7
  6
CONTINUOUS
 10
-16.0436987087
 20
-4.2258912985
 11
-16.0562217055
 21
-4.2397636508
  0
LINE
  5
314
100
AcDbEntity
  8
DRAFT
100
AcDbLine
 62
7
  6
CONTINUOUS
 10
-16.1313596865
 20
-4.322997765
 11
-16.1814516738
 21
-4.3784871744
  0
LINE
  5
315
100
AcDbEntity
  8
DRAFT
100
AcDbLine
 62
7
  6
CONTINUOUS
 10
-16.2565896547
 20
-4.4617212885
 11
-16.306681642
 21
-4.5172106979
  0
LINE
  5
316
100
AcDbEntity
  8
DRAFT
100
AcDbLine
 62
7
  6
CONTINUOUS
 10
-16.381819623
 20
-4.600444812
 11
-16.4319116103
 21
-4.6559342215
  0
LINE
  5
317
100
AcDbEntity
  8
DRAFT
100
AcDbLine
 62
7
  6
CONTINUOUS
 10
-16.5070495912
 20
-4.7391683356
 11
-16.529627589
 21
-4.7641791173
  0
LWPOLYLINE
  5
318
100
AcDbEntity
  8
RACCORDO
100
AcDbPolyline
 62
250
  6
CONTINUOUS
 90
10
 70
0
 10
18.8909777342
 20
-8.336656441
 10
18.9912620166
 20
-8.3282408558
 10
19.0920407008
 20
-8.3240904651
 10
19.1928579725
 20
-8.3242240406
 10
19.2932578431
 20
-8.3286409782
 10
19.3927862117
 20
-8.3373213005
 10
19.4909929191
 20
-8.350225747
 10
19.587433784
 20
-8.3672959519
 10
19.6816726118
 20
-8.388454708
 10
19.7732831676
 20
-8.4136063159
  0
LWPOLYLINE
  5
319
100
AcDbEntity
  8
RACCORDO
100
AcDbPolyline
 62
250
  6
CONTINUOUS
 90
8
 70
0
 10
6.6823778453
 20
-11.1835069691
 10
6.678264737
 20
-11.182914524
 10
6.6741836515
 20
-11.1834613291
 10
6.6698717647
 20
-11.1850511303
 10
6.665394133
 20
-11.187654305
 10
6.6608072325
 20
-11.1912254234
 10
6.656155654
 20
-11.1957175917
 10
6.6514894969
 20
-11.2010722224
  0
LWPOLYLINE
  5
31A
100
AcDbEntity
  8
RACCORDO
100
AcDbPolyline
 62
250
  6
CONTINUOUS
 90
8
 70
0
 10
-3.3376549535
 20
-8.1064519702
 10
-3.3417680618
 20
-8.1058595251
 10
-3.3458491474
 20
-8.1064063303
 10
-3.3501610341
 20
-8.1079961315
 10
-3.3546386659
 20
-8.1105993062
 10
-3.3592255664
 20
-8.1141704246
 10
-3.3638771448
 20
-8.1186625929
 10
-3.3685433019
 20
-8.1240172235
  0
LWPOLYLINE
  5
31B
100
AcDbEntity
  8
RACCORDO
100
AcDbPolyline
 62
250
  6
CONTINUOUS
 90
8
 70
0
 10
4.1948023541
 20
-10.4195966353
 10
4.1907835801
 20
-10.4190039553
 10
4.1867221559
 20
-10.4195223381
 10
4.18243021
 20
-10.4210772801
 10
4.1779542453
 20
-10.4236519335
 10
4.1733427584
 20
-10.4272184023
 10
4.1686457145
 20
-10.4317380439
 10
4.1639140057
 20
-10.4371618886
  0
LWPOLYLINE
  5
31C
100
AcDbEntity
  8
RACCORDO
100
AcDbPolyline
 62
250
  6
CONTINUOUS
 90
8
 70
0
 10
-5.8252304447
 20
-7.3425416364
 10
-5.8292492188
 20
-7.3419489564
 10
-5.8333106429
 20
-7.3424673392
 10
-5.8376025888
 20
-7.3440222812
 10
-5.8420785535
 20
-7.3465969346
 10
-5.8466900404
 20
-7.3501634034
 10
-5.8513870843
 20
-7.3546830451
 10
-5.8561187932
 20
-7.3601068897
  0
LINE
  5
31D
100
AcDbEntity
  8
0
100
AcDbLine
 62
250
  6
CONTINUOUS
 10
-21.3526651229
 20
-4.3816989898
 11
18.4602651978
 21
-16.6078641853
  0
LINE
  5
31E
100
AcDbEntity
  8
ASSI
100
AcDbLine
 62
7
  6
CONTINUOUS
 10
-20.943777406
 20
-3.8693055999
 11
-19.0418797837
 21
-4.4533599342
  0
LINE
  5
31F
100
AcDbEntity
  8
ASSI
100
AcDbLine
 62
7
  6
CONTINUOUS
 10
16.9672552924
 20
-15.5114164611
 11
18.5192211406
 21
-15.9880101377
  0
LINE
  5
320
100
AcDbEntity
  8
ASSI
100
AcDbLine
 62
7
  6
CONTINUOUS
 10
-18.7466225759
 20
-4.083361435
 11
17.2625125002
 21
-15.1414179619
  0
LINE
  5
321
100
AcDbEntity
  8
DRAFT
100
AcDbLine
 62
7
  6
CONTINUOUS
 10
16.3193604062
 20
-14.819840825
 11
13.5530488053
 21
-13.9703333322
  0
LINE
  5
322
100
AcDbEntity
  8
DRAFT
100
AcDbLine
 62
7
  6
CONTINUOUS
 10
-13.7407379902
 20
-5.5886758283
 11
-16.5070495912
 21
-4.7391683356
  0
LINE
  5
323
100
AcDbEntity
  8
DRAFT
100
AcDbLine
 62
7
  6
CONTINUOUS
 10
16.3804949827
 20
-14.732306401
 11
13.6281867862
 21
-13.8870992181
  0
LINE
  5
324
100
AcDbEntity
  8
DRAFT
100
AcDbLine
 62
7
  6
CONTINUOUS
 10
-13.6796034137
 20
-5.5011414044
 11
-16.4319116103
 21
-4.6559342215
  0
LINE
  5
325
100
AcDbEntity
  8
DRAFT
100
AcDbLine
 62
7
  6
CONTINUOUS
 10
16.4212513671
 20
-14.6739501183
 11
13.6782787735
 21
-13.8316098087
  0
LINE
  5
326
100
AcDbEntity
  8
DRAFT
100
AcDbLine
 62
7
  6
CONTINUOUS
 10
-13.6388470294
 20
-5.4427851217
 11
-16.381819623
 21
-4.600444812
  0
LINE
  5
327
100
AcDbEntity
  8
DRAFT
100
AcDbLine
 62
7
  6
CONTINUOUS
 10
16.4823859436
 20
-14.5864156944
 11
13.7534167545
 21
-13.7483756945
  0
LINE
  5
328
100
AcDbEntity
  8
DRAFT
100
AcDbLine
 62
7
  6
CONTINUOUS
 10
-13.5777124529
 20
-5.3552506977
 11
-16.306681642
 21
-4.5172106979
  0
LINE
  5
329
100
AcDbEntity
  8
DRAFT
100
AcDbLine
 62
7
  6
CONTINUOUS
 10
16.5231423279
 20
-14.5280594117
 11
13.8035087418
 21
-13.6928862851
  0
LINE
  5
32A
100
AcDbEntity
  8
DRAFT
100
AcDbLine
 62
7
  6
CONTINUOUS
 10
-13.5369560686
 20
-5.2968944151
 11
-16.2565896547
 21
-4.4617212885
  0
LINE
  5
32B
100
AcDbEntity
  8
DRAFT
100
AcDbLine
 62
7
  6
CONTINUOUS
 10
16.5842769044
 20
-14.4405249877
 11
13.8786467227
 21
-13.609652171
  0
LINE
  5
32C
100
AcDbEntity
  8
DRAFT
100
AcDbLine
 62
7
  6
CONTINUOUS
 10
-13.4758214921
 20
-5.2093599911
 11
-16.1814516738
 21
-4.3784871744
  0
LINE
  5
32D
100
AcDbEntity
  8
DRAFT
100
AcDbLine
 62
7
  6
CONTINUOUS
 10
16.6250332887
 20
-14.3821687051
 11
13.92873871
 21
-13.5541627616
  0
LINE
  5
32E
100
AcDbEntity
  8
DRAFT
100
AcDbLine
 62
7
  6
CONTINUOUS
 10
-13.4350651078
 20
-5.1510037085
 11
-16.1313596865
 21
-4.322997765
  0
LINE
  5
32F
100
AcDbEntity
  8
DRAFT
100
AcDbLine
 62
7
  6
CONTINUOUS
 10
16.6861678652
 20
-14.2946342811
 11
14.003876691
 21
-13.4709286474
  0
LINE
  5
330
100
AcDbEntity
  8
DRAFT
100
AcDbLine
 62
7
  6
CONTINUOUS
 10
-13.3739305313
 20
-5.0634692845
 11
-16.0562217055
 21
-4.2397636508
  0
LINE
  5
331
100
AcDbEntity
  8
RACCORDO
100
AcDbLine
 62
250
  6
CONTINUOUS
 10
-5.8650322847
 20
-7.3574040171
 11
-3.3685433019
 21
-8.1240172235
  0
LINE
  5
332
100
AcDbEntity
  8
RACCORDO
100
AcDbLine
 62
250
  6
CONTINUOUS
 10
4.1550005142
 20
-10.434459016
 11
6.6514894969
 21
-11.2010722224
  0
LINE
  5
333
100
AcDbEntity
  8
DRAFT
100
AcDbLine
 62
7
  6
CONTINUOUS
 10
16.6963569613
 20
-14.2800452105
 11
14.0163996878
 21
-13.4570562951
  0
LINE
  5
334
100
AcDbEntity
  8
DRAFT
100
AcDbLine
 62
7
  6
CONTINUOUS
 10
-13.3637414352
 20
-5.0488802138
 11
-16.0436987087
 21
-4.2258912985
  0
LINE
  5
335
100
AcDbEntity
  8
RACCORDO
100
AcDbLine
 62
7
  6
CONTINUOUS
 10
-5.8252304447
 20
-7.3425416364
 11
-3.3376549535
 21
-8.1064519702
  0
LINE
  5
336
100
AcDbEntity
  8
RACCORDO
100
AcDbLine
 62
7
  6
CONTINUOUS
 10
4.1948023541
 20
-10.4195966353
 11
6.6823778453
 21
-11.1835069691
  0
LINE
  5
337
100
AcDbEntity
  8
RACCORDO
100
AcDbLine
 62
250
  6
CONTINUOUS
 10
-15.9275960613
 20
-4.2053405707
 11
-13.2820585037
 21
-5.0177595248
  0
LINE
  5
338
100
AcDbEntity
  8
RACCORDO
100
AcDbLine
 62
250
  6
CONTINUOUS
 10
14.1325023352
 20
-13.4365055673
 11
16.7780398928
 21
-14.2489245214
  0
LINE
  5
339
100
AcDbEntity
  8
RACCORDO
100
AcDbLine
 62
7
  6
CONTINUOUS
 10
-15.9126429745
 20
-4.2080285796
 11
-13.2845401201
 21
-5.0150935053
  0
LINE
  5
33A
100
AcDbEntity
  8
RACCORDO
100
AcDbLine
 62
7
  6
CONTINUOUS
 10
14.1474554219
 20
-13.4391935762
 11
16.7755582764
 21
-14.2462585019
  0
LWPOLYLINE
  5
33B
100
AcDbEntity
  8
RACCORDO
100
AcDbPolyline
 62
250
  6
CONTINUOUS
 90
16
 70
0
 10
-3.3685433019
 20
-8.1240172235
 10
-3.3589918331
 20
-8.1269911131
 10
-3.3495281724
 20
-8.1307868424
 10
-3.3402559457
 20
-8.1353628488
 10
-3.3312766822
 20
-8.1406690257
 10
-3.3226887035
 20
-8.1466472714
 10
-3.3145860468
 20
-8.1532321248
 10
-3.3070574347
 20
-8.160351483
 10
-3.3001853045
 20
-8.16792739
 10
-3.2940449049
 20
-8.1758768909
 10
-3.2887034724
 20
-8.1841129398
 10
-3.2842194947
 20
-8.1925453533
 10
-3.2806420708
 20
-8.2010817977
 10
-3.2780103728
 20
-8.2096288003
 10
-3.2763532175
 20
-8.2180927729
 10
-3.2756887505
 20
-8.2263810361
  0
LWPOLYLINE
  5
33C
100
AcDbEntity
  8
RACCORDO
100
AcDbPolyline
 62
250
  6
CONTINUOUS
 90
16
 70
0
 10
6.6514894969
 20
-11.2010722224
 10
6.6610409658
 20
-11.204046112
 10
6.6705046264
 20
-11.2078418413
 10
6.6797768532
 20
-11.2124178477
 10
6.6887561166
 20
-11.2177240246
 10
6.6973440953
 20
-11.2237022702
 10
6.705446752
 20
-11.2302871237
 10
6.7129753641
 20
-11.2374064819
 10
6.7198474943
 20
-11.2449823889
 10
6.7259878939
 20
-11.2529318898
 10
6.7313293265
 20
-11.2611679386
 10
6.7358133041
 20
-11.2696003521
 10
6.7393907281
 20
-11.2781367966
 10
6.742022426
 20
-11.2866837992
 10
6.7436795813
 20
-11.2951477717
 10
6.7443440483
 20
-11.3034360349
  0
LWPOLYLINE
  5
33D
100
AcDbEntity
  8
ASSI
100
AcDbPolyline
 62
7
  6
CONTINUOUS
 90
10
 70
0
 10
17.2625125002
 20
-15.1414179619
 10
17.3621233401
 20
-15.1760025496
 10
17.4596495325
 20
-15.2171542197
 10
17.5550910775
 20
-15.2648729721
 10
17.6491567005
 20
-15.3196313274
 10
17.7411376761
 20
-15.3809567649
 10
17.8289078277
 20
-15.4474317232
 10
17.9117584298
 20
-15.5185836815
 10
17.990398208
 20
-15.5948851605
 10
18.0648271621
 20
-15.6763361601
  0
LINE
  5
33E
100
AcDbEntity
  8
DRAFT
100
AcDbLine
 62
7
  6
CONTINUOUS
 10
-13.7407379902
 20
-5.5886758283
 11
-13.7087240965
 21
-5.6030598826
  0
LINE
  5
33F
100
AcDbEntity
  8
DRAFT
100
AcDbLine
 62
7
  6
CONTINUOUS
 10
-13.6388470294
 20
-5.4427851217
 11
-13.6068331356
 21
-5.4571691759
  0
LINE
  5
340
100
AcDbEntity
  8
DRAFT
100
AcDbLine
 62
7
  6
CONTINUOUS
 10
-13.5369560686
 20
-5.2968944151
 11
-13.5049421748
 21
-5.3112784693
  0
LINE
  5
341
100
AcDbEntity
  8
DRAFT
100
AcDbLine
 62
7
  6
CONTINUOUS
 10
-13.4350651078
 20
-5.1510037085
 11
-13.403051214
 21
-5.1653877627
  0
LWPOLYLINE
  5
342
100
AcDbEntity
  8
RACCORDO
100
AcDbPolyline
 62
250
  6
CONTINUOUS
 90
10
 70
0
 10
-22.809481782
 20
13.0523775375
 10
-22.8575477115
 20
13.1056564759
 10
-22.9112566227
 20
13.156724717
 10
-22.9703730858
 20
13.2053583803
 10
-23.0346379669
 20
13.2513442586
 10
-23.1037695649
 20
13.2944807525
 10
-23.1774648456
 20
13.3345787543
 10
-23.2554007702
 20
13.3714624769
 10
-23.3372357115
 20
13.4049702241
 10
-23.4226109513
 20
13.4349551
  0
LINE
  5
343
100
AcDbEntity
  8
RACCORDO
100
AcDbLine
 62
250
  6
CONTINUOUS
 10
-13.5090272279
 20
-5.6917762247
 11
-13.2805608419
 21
-5.3567875103
  0
LINE
  5
344
100
AcDbEntity
  8
RACCORDO
100
AcDbLine
 62
7
  6
CONTINUOUS
 10
-13.5008887394
 20
-5.6942754757
 11
-13.2870910467
 21
-5.3807947249
  0
LWPOLYLINE
  5
345
100
AcDbEntity
  8
ASSI
100
AcDbPolyline
 62
7
  6
CONTINUOUS
 90
10
 70
0
 10
-19.5344711825
 20
-4.1299558989
 10
-19.4629799384
 20
-4.0933155785
 10
-19.3869548615
 20
-4.0645101781
 10
-19.3063959521
 20
-4.0435396977
 10
-19.2206072631
 20
-4.0303629779
 10
-19.1302847414
 20
-4.0250211782
 10
-19.0375162278
 20
-4.0276377763
 10
-18.9429976691
 20
-4.0382539314
 10
-18.8460331185
 20
-4.0568284843
 10
-18.7466225759
 20
-4.083361435
  0
LWPOLYLINE
  5
346
100
AcDbEntity
  8
RACCORDO
100
AcDbPolyline
 62
7
  6
CONTINUOUS
 90
4
 70
0
 10
-15.9275960613
 20
-4.2053405707
 10
-15.9209013732
 20
-4.2060635222
 10
-15.9142173765
 20
-4.2075670024
 10
-15.9126011571
 20
-4.2080414336
  0
LWPOLYLINE
  5
347
100
AcDbEntity
  8
RACCORDO
100
AcDbPolyline
 62
250
  6
CONTINUOUS
 90
3
 70
0
 10
27.600412327
 20
-10.2260410814
 10
28.865275842
 20
-10.4236678008
 10
30.2000552505
 20
-10.6059378554
  0
LINE
  5
348
100
AcDbEntity
  8
RACCORDO
100
AcDbLine
 62
250
  6
CONTINUOUS
 10
26.4140216874
 20
-10.0181052388
 11
27.600412327
 21
-10.2260410814
  0
LWPOLYLINE
  5
349
100
AcDbEntity
  8
RACCORDO
100
AcDbPolyline
 62
250
  6
CONTINUOUS
 90
5
 70
0
 10
-28.3843139227
 20
6.6868959333
 10
-29.3095507524
 20
7.0940640098
 10
-30.2958388293
 20
7.5533367523
 10
-31.3161927824
 20
8.0574781784
 10
-32.3586941388
 20
8.6052480158
  0
LINE
  5
34A
100
AcDbEntity
  8
DRAFT
100
AcDbLine
 62
7
  6
CONTINUOUS
 10
16.3193604062
 20
-14.819840825
 11
16.3513743
 21
-14.8342248792
  0
LINE
  5
34B
100
AcDbEntity
  8
DRAFT
100
AcDbLine
 62
7
  6
CONTINUOUS
 10
16.4212513671
 20
-14.6739501183
 11
16.4532652608
 21
-14.6883341726
  0
LINE
  5
34C
100
AcDbEntity
  8
DRAFT
100
AcDbLine
 62
7
  6
CONTINUOUS
 10
16.5231423279
 20
-14.5280594117
 11
16.5551562217
 21
-14.5424434659
  0
LINE
  5
34D
100
AcDbEntity
  8
DRAFT
100
AcDbLine
 62
7
  6
CONTINUOUS
 10
16.6250332887
 20
-14.3821687051
 11
16.6570471825
 21
-14.3965527593
  0
LINE
  5
34E
100
AcDbEntity
  8
RACCORDO
100
AcDbLine
 62
250
  6
CONTINUOUS
 10
-3.2756887505
 20
-8.2263810361
 11
-3.2702450633
 21
-8.4452086952
  0
LINE
  5
34F
100
AcDbEntity
  8
RACCORDO
100
AcDbLine
 62
7
  6
CONTINUOUS
 10
-3.2670418917
 20
-8.1995591419
 11
-3.2615982045
 21
-8.4183868011
  0
LINE
  5
350
100
AcDbEntity
  8
RACCORDO
100
AcDbLine
 62
250
  6
CONTINUOUS
 10
-3.2670418917
 20
-8.1995591419
 11
-3.267038711
 21
-8.1996965296
  0
LWPOLYLINE
  5
351
100
AcDbEntity
  8
RACCORDO
100
AcDbPolyline
 62
250
  6
CONTINUOUS
 90
6
 70
0
 10
-3.2615982045
 20
-8.4183868011
 10
-3.2616009538
 20
-8.4204744306
 10
-3.2622873429
 20
-8.4268540608
 10
-3.2639774367
 20
-8.4331400762
 10
-3.2666427126
 20
-8.4392782287
 10
-3.2702450633
 20
-8.4452086952
  0
LWPOLYLINE
  5
352
100
AcDbEntity
  8
RACCORDO
100
AcDbPolyline
 62
250
  6
CONTINUOUS
 90
6
 70
0
 10
-3.267038711
 20
-8.1996965296
 10
-3.267044641
 20
-8.2016467714
 10
-3.2677310301
 20
-8.2080264016
 10
-3.2694211239
 20
-8.214312417
 10
-3.2720863998
 20
-8.2204505695
 10
-3.2756887505
 20
-8.2263810361
  0
LWPOLYLINE
  5
353
100
AcDbEntity
  8
RACCORDO
100
AcDbPolyline
 62
250
  6
CONTINUOUS
 90
6
 70
0
 10
-3.2702450633
 20
-8.4452086952
 10
-3.2705064319
 20
-8.4531243544
 10
-3.2717649026
 20
-8.4606868738
 10
-3.2740066954
 20
-8.467813445
 10
-3.277207263
 20
-8.4744260333
 10
-3.2792637209
 20
-8.4776726764
  0
LWPOLYLINE
  5
354
100
AcDbEntity
  8
ASSI
100
AcDbPolyline
 62
7
  6
CONTINUOUS
 90
5
 70
0
 10
-19.5344711825
 20
-4.1299558989
 10
-19.6124592285
 20
-4.1693631788
 10
-19.6955758769
 20
-4.199535204
 10
-19.7838211275
 20
-4.2204719746
 10
-19.7955140526
 20
-4.2219261514
  0
LWPOLYLINE
  5
355
100
AcDbEntity
  8
RACCORDO
100
AcDbPolyline
 62
250
  6
CONTINUOUS
 90
7
 70
0
 10
19.7732886605
 20
-8.4138384126
 10
20.9440203873
 20
-8.7540085965
 10
22.1795316849
 20
-9.0854913972
 10
23.2782794081
 20
-9.3573009011
 10
24.3095378613
 20
-9.5931354155
 10
25.3315530644
 20
-9.8087264214
 10
26.4140216874
 20
-10.0181052388
  0
LWPOLYLINE
  5
356
100
AcDbEntity
  8
RACCORDO
100
AcDbPolyline
 62
250
  6
CONTINUOUS
 90
6
 70
0
 10
-23.2261478245
 20
4.7908719552
 10
-24.3723380942
 20
5.1622060702
 10
-25.5462628608
 20
5.5706377424
 10
-26.5605401098
 20
5.9477177365
 10
-27.4880014184
 20
6.313387085
 10
-28.3843139227
 20
6.6868959333
  0
LINE
  5
357
100
AcDbEntity
  8
RACCORDO
100
AcDbLine
 62
7
  6
CONTINUOUS
 10
-16.0436987087
 20
-4.2258912985
 11
-15.9520790154
 21
-4.2067023873
  0
LWPOLYLINE
  5
358
100
AcDbEntity
  8
RACCORDO
100
AcDbPolyline
 62
250
  6
CONTINUOUS
 90
9
 70
0
 10
18.7818057444
 20
0.318614234
 10
18.880958646
 20
0.3227386678
 10
18.9802601912
 20
0.3227226934
 10
19.0792751063
 20
0.3185663777
 10
19.1775693734
 20
0.3102879361
 10
19.2747121339
 20
0.2979236527
 10
19.3702775765
 20
0.2815277212
 10
19.4638468038
 20
0.2611720078
 10
19.5550096686
 20
0.2369457354
  0
LINE
  5
359
100
AcDbEntity
  8
RACCORDO
100
AcDbLine
 62
7
  6
CONTINUOUS
 10
31.2329970434
 20
-11.488808116
 11
31.3508255544
 21
-11.5249921102
  0
LINE
  5
35A
100
AcDbEntity
  8
RACCORDO
100
AcDbLine
 62
250
  6
CONTINUOUS
 10
31.797200067
 20
-11.390148029
 11
31.726263005
 21
-11.3683639445
  0
LINE
  5
35B
100
AcDbEntity
  8
0
100
AcDbLine
 62
7
  6
CONTINUOUS
 10
31.9559257079
 20
-11.0845302685
 11
32.0476600036
 21
-11.1127009819
  0
LINE
  5
35C
100
AcDbEntity
  8
DRAFT
100
AcDbLine
 62
250
  6
CONTINUOUS
 10
31.7698431351
 20
-10.8461833204
 11
31.4339862063
 21
-10.7430449113
  0
LINE
  5
35D
100
AcDbEntity
  8
DRAFT
100
AcDbLine
 62
7
  6
CONTINUOUS
 10
31.9451650907
 20
-10.6519703875
 11
31.4264789104
 21
-10.4926868865
  0
LWPOLYLINE
  5
35E
100
AcDbEntity
  8
ASSI
100
AcDbPolyline
 62
7
  6
CONTINUOUS
 90
5
 70
0
 10
18.3345001763
 20
-15.9312841191
 10
18.322554316
 20
-15.9225707004
 10
18.2319007213
 20
-15.8466958275
 10
18.14599167
 20
-15.7646176474
 10
18.0648271621
 20
-15.6763361601
  0
LWPOLYLINE
  5
35F
100
AcDbEntity
  8
RACCORDO
100
AcDbPolyline
 62
250
  6
CONTINUOUS
 90
10
 70
0
 10
13.6392040998
 20
-16.0263563963
 10
13.6660064299
 20
-16.0558528377
 10
13.6905243689
 20
-16.0909324951
 10
13.7126569651
 20
-16.1314506349
 10
13.732313114
 20
-16.1772400723
 10
13.7494119341
 20
-16.2281118619
 10
13.763883101
 20
-16.2838560775
 10
13.7756671376
 20
-16.344242679
 10
13.7847156598
 20
-16.4090224615
 10
13.7909915762
 20
-16.4779280845
  0
LINE
  5
360
100
AcDbEntity
  8
RACCORDO
100
AcDbLine
 62
250
  6
CONTINUOUS
 10
-3.4927798508
 20
-8.7676687573
 11
-3.2702450633
 21
-8.4452086952
  0
LINE
  5
361
100
AcDbEntity
  8
RACCORDO
100
AcDbLine
 62
7
  6
CONTINUOUS
 10
-3.4817352586
 20
-8.7710604445
 11
-3.2792637209
 21
-8.4776726764
  0
LINE
  5
362
100
AcDbEntity
  8
RACCORDO
100
AcDbLine
 62
250
  6
CONTINUOUS
 10
-3.7645409907
 20
-8.684213544
 11
-3.3685433019
 21
-8.1240172235
  0
LINE
  5
363
100
AcDbEntity
  8
RACCORDO
100
AcDbLine
 62
250
  6
CONTINUOUS
 10
-3.6287942128
 20
-8.7259000644
 11
-3.2756887505
 21
-8.2263810361
  0
LINE
  5
364
100
AcDbEntity
  8
RACCORDO
100
AcDbLine
 62
7
  6
CONTINUOUS
 10
-6.391682769
 20
-7.8774437555
 11
-5.9283931678
 21
-7.3706629694
  0
LINE
  5
365
100
AcDbEntity
  8
RACCORDO
100
AcDbLine
 62
250
  6
CONTINUOUS
 10
-6.3427857372
 20
-7.8924595603
 11
-5.8561187932
 21
-7.3601068897
  0
LWPOLYLINE
  5
366
100
AcDbEntity
  8
RACCORDO
100
AcDbPolyline
 62
250
  6
CONTINUOUS
 90
10
 70
0
 10
-5.9283931678
 20
-7.3706629694
 10
-5.9254132936
 20
-7.3676943488
 10
-5.9198089999
 20
-7.3633493854
 10
-5.9134899142
 20
-7.3598279933
 10
-5.9065235048
 20
-7.3571671037
 10
-5.8989751259
 20
-7.3553940794
 10
-5.8909375087
 20
-7.3545329213
 10
-5.8825330118
 20
-7.3545910949
 10
-5.873869279
 20
-7.3555553284
 10
-5.8650322847
 20
-7.3574040171
  0
LINE
  5
367
100
AcDbEntity
  8
RACCORDO
100
AcDbLine
 62
7
  6
CONTINUOUS
 10
-13.3637414352
 20
-5.0488802138
 11
-13.2888254879
 21
-5.0245617442
  0
LWPOLYLINE
  5
368
100
AcDbEntity
  8
RACCORDO
100
AcDbPolyline
 62
250
  6
CONTINUOUS
 90
6
 70
0
 10
-21.944951438
 20
13.0509485421
 10
-21.9613654738
 20
13.0585431421
 10
-21.977104148
 20
13.0716947124
 10
-21.9908572259
 20
13.0899196944
 10
-22.0024720524
 20
13.1130157965
 10
-22.0118197065
 20
13.1407266589
  0
LWPOLYLINE
  5
369
100
AcDbEntity
  8
RACCORDO
100
AcDbPolyline
 62
250
  6
CONTINUOUS
 90
10
 70
0
 10
18.2939332242
 20
-17.4554593402
 10
18.3194158639
 20
-17.4844674057
 10
18.3426892028
 20
-17.5188694691
 10
18.3636603334
 20
-17.5585282242
 10
18.3822455361
 20
-17.6032853855
 10
18.3983706138
 20
-17.6529623197
 10
18.4119711876
 20
-17.7073607587
 10
18.4229929538
 20
-17.7662635907
 10
18.4313919008
 20
-17.8294357268
 10
18.4371344845
 20
-17.8966250396
  0
LWPOLYLINE
  5
36A
100
AcDbEntity
  8
RACCORDO
100
AcDbPolyline
 62
250
  6
CONTINUOUS
 90
10
 70
0
 10
13.9793410803
 20
9.9562053789
 10
13.9498603732
 20
9.9131347348
 10
13.9212594659
 20
9.8643947468
 10
13.8940303886
 20
9.8108249385
 10
13.8686411808
 20
9.7533481213
 10
13.8455290305
 20
9.6929541351
 10
13.8250927514
 20
9.6306827996
 10
13.8076843287
 20
9.5676064944
 10
13.7936028641
 20
9.5048116892
 10
13.7830906234
 20
9.4433798652
  0
LINE
  5
36B
100
AcDbEntity
  8
SCRITTA_VIMAR
100
AcDbLine
 62
250
  6
CONTINUOUS
 10
19.5218266987
 20
-19.4927646087
 11
19.4166723862
 21
-19.333736749
  0
LINE
  5
36C
100
AcDbEntity
  8
SCRITTA_VIMAR
100
AcDbLine
 62
250
  6
CONTINUOUS
 10
19.6237998389
 20
-19.2823854948
 11
19.8176074387
 21
-19.5760396779
  0
LINE
  5
36D
100
AcDbEntity
  8
SCRITTA_VIMAR
100
AcDbLine
 62
250
  6
CONTINUOUS
 10
19.4166723862
 20
-19.333736749
 11
19.3143173405
 21
-19.1779538916
  0
LINE
  5
36E
100
AcDbEntity
  8
SCRITTA_VIMAR
100
AcDbLine
 62
250
  6
CONTINUOUS
 10
19.4912719211
 20
-19.0798423817
 11
19.6237998389
 21
-19.2823854948
  0
LINE
  5
36F
100
AcDbEntity
  8
SCRITTA_VIMAR
100
AcDbLine
 62
250
  6
CONTINUOUS
 10
19.3143173405
 20
-19.1779538916
 11
19.2147421834
 21
-19.0254434002
  0
LINE
  5
370
100
AcDbEntity
  8
SCRITTA_VIMAR
100
AcDbLine
 62
250
  6
CONTINUOUS
 10
14.7024550804
 20
-18.0433347315
 11
14.6400554105
 21
-17.9101544809
  0
LINE
  5
371
100
AcDbEntity
  8
SCRITTA_VIMAR
100
AcDbLine
 62
250
  6
CONTINUOUS
 10
14.6400554105
 20
-17.9101544809
 11
14.5791899306
 21
-17.7785186878
  0
LINE
  5
372
100
AcDbEntity
  8
SCRITTA_VIMAR
100
AcDbLine
 62
250
  6
CONTINUOUS
 10
14.5791899306
 20
-17.7785186878
 11
14.520025797
 21
-17.6489322804
  0
LINE
  5
373
100
AcDbEntity
  8
RACCORDO
100
AcDbLine
 62
250
  6
CONTINUOUS
 10
6.7443440483
 20
-11.3034360349
 11
6.7497877355
 21
-11.5222636941
  0
LINE
  5
374
100
AcDbEntity
  8
RACCORDO
100
AcDbLine
 62
7
  6
CONTINUOUS
 10
6.7529909072
 20
-11.2766141408
 11
6.7584345944
 21
-11.4954417999
  0
LINE
  5
375
100
AcDbEntity
  8
RACCORDO
100
AcDbLine
 62
250
  6
CONTINUOUS
 10
6.7529909072
 20
-11.2766141408
 11
6.7529940878
 21
-11.2767515284
  0
LWPOLYLINE
  5
376
100
AcDbEntity
  8
RACCORDO
100
AcDbPolyline
 62
250
  6
CONTINUOUS
 90
6
 70
0
 10
6.7584345944
 20
-11.4954417999
 10
6.758431845
 20
-11.4975294295
 10
6.7577454559
 20
-11.5039090597
 10
6.7560553622
 20
-11.5101950751
 10
6.7533900862
 20
-11.5163332275
 10
6.7497877355
 20
-11.5222636941
  0
LWPOLYLINE
  5
377
100
AcDbEntity
  8
RACCORDO
100
AcDbPolyline
 62
250
  6
CONTINUOUS
 90
6
 70
0
 10
6.7529940878
 20
-11.2767515284
 10
6.7529881578
 20
-11.2787017703
 10
6.7523017687
 20
-11.2850814005
 10
6.750611675
 20
-11.2913674159
 10
6.747946399
 20
-11.2975055684
 10
6.7443440483
 20
-11.3034360349
  0
LWPOLYLINE
  5
378
100
AcDbEntity
  8
RACCORDO
100
AcDbPolyline
 62
250
  6
CONTINUOUS
 90
6
 70
0
 10
6.7497877355
 20
-11.5222636941
 10
6.7495263669
 20
-11.5301793533
 10
6.7482678962
 20
-11.5377418727
 10
6.7460261034
 20
-11.5448684439
 10
6.7428255358
 20
-11.5514810321
 10
6.740769078
 20
-11.5547276753
  0
LWPOLYLINE
  5
379
100
AcDbEntity
  8
0
100
AcDbPolyline
 62
7
  6
CONTINUOUS
 90
7
 70
0
 10
-21.944951438
 20
13.0509485421
 10
-21.9618865043
 20
13.0555020401
 10
-21.9754279163
 20
13.0580834053
 10
-21.9851209676
 20
13.0591695657
 10
-21.9906502816
 20
13.0593536338
 10
-21.9918678883
 20
13.0593214866
 10
-21.991690496
 20
13.0593422142
  0
LWPOLYLINE
  5
37A
100
AcDbEntity
  8
RACCORDO
100
AcDbPolyline
 62
250
  6
CONTINUOUS
 90
6
 70
0
 10
-21.8608182643
 20
14.310460583
 10
-21.3905161885
 20
14.170402773
 10
-20.9077724987
 20
14.0250724461
 10
-20.413012179
 20
13.8750912508
 10
-19.9062416324
 20
13.720896003
 10
-19.3878803999
 20
13.5627564685
  0
LWPOLYLINE
  5
37B
100
AcDbEntity
  8
RACCORDO
100
AcDbPolyline
 62
250
  6
CONTINUOUS
 90
4
 70
0
 10
-19.3878803999
 20
13.5627564685
 10
-18.3200214436
 20
13.23622272
 10
-17.7705597327
 20
13.0681798584
 10
-17.2106422985
 20
12.8972285935
  0
LINE
  5
37C
100
AcDbEntity
  8
0
100
AcDbLine
 62
7
  6
CONTINUOUS
 10
17.8679788827
 20
0.8247833466
 11
-21.944951438
 21
13.0509485421
  0
LINE
  5
37D
100
AcDbEntity
  8
RACCORDO
100
AcDbLine
 62
250
  6
CONTINUOUS
 10
-17.330364348
 20
12.1054163071
 11
13.1724030296
 21
2.7383120763
  0
LINE
  5
37E
100
AcDbEntity
  8
RACCORDO
100
AcDbLine
 62
250
  6
CONTINUOUS
 10
-17.2106427526
 20
12.8972267938
 11
13.2932681236
 21
3.5297715021
  0
LWPOLYLINE
  5
37F
100
AcDbEntity
  8
RACCORDO
100
AcDbPolyline
 62
250
  6
CONTINUOUS
 90
5
 70
0
 10
15.8693942334
 20
1.9072424444
 10
16.375351223
 20
1.751699073
 10
16.8703277549
 20
1.5998540118
 10
17.3542717811
 20
1.4516630549
 10
17.8271835363
 20
1.3071261972
  0
LINE
  5
380
100
AcDbEntity
  8
RACCORDO
100
AcDbLine
 62
250
  6
CONTINUOUS
 10
14.284807265
 20
2.395355132
 11
15.8693942334
 21
1.9072424444
  0
LINE
  5
381
100
AcDbEntity
  8
RACCORDO
100
AcDbLine
 62
250
  6
CONTINUOUS
 10
13.1724030296
 20
2.7383120763
 11
14.284807265
 21
2.395355132
  0
LWPOLYLINE
  5
382
100
AcDbEntity
  8
RACCORDO
100
AcDbPolyline
 62
250
  6
CONTINUOUS
 90
6
 70
0
 10
-21.9857467844
 20
13.5332913927
 10
-21.5119465126
 20
13.3871017064
 10
-21.0269843641
 20
13.2377512395
 10
-20.530860574
 20
13.0852399969
 10
-20.0231810713
 20
12.9295079769
 10
-17.330364348
 20
12.1054163071
  0
LWPOLYLINE
  5
383
100
AcDbEntity
  8
RACCORDO
100
AcDbPolyline
 62
250
  6
CONTINUOUS
 90
7
 70
0
 10
13.8564786082
 20
3.3558164936
 10
15.4730007636
 20
2.8573038672
 10
15.9890152596
 20
2.6977945862
 10
16.4937751631
 20
2.5413612807
 10
16.9873084337
 20
2.3878543356
 10
17.4694423605
 20
2.2368866711
 10
17.9399847642
 20
2.0880198563
  0
LINE
  5
384
100
AcDbEntity
  8
RACCORDO
100
AcDbLine
 62
250
  6
CONTINUOUS
 10
13.2944102812
 20
3.5294203491
 11
13.8564786082
 21
3.3558164936
  0
LWPOLYLINE
  5
385
100
AcDbEntity
  8
RACCORDO
100
AcDbPolyline
 62
250
  6
CONTINUOUS
 90
76
 70
0
 10
17.8271835363
 20
1.3071261972
 10
17.852539714
 20
1.2990995687
 10
17.8769850678
 20
1.2906986993
 10
17.9004981715
 20
1.2819979706
 10
17.9229895617
 20
1.2730931671
 10
17.9445190224
 20
1.2640299898
 10
17.9652940085
 20
1.2547886285
 10
17.9852910732
 20
1.2454159579
 10
18.0045205865
 20
1.2359589121
 10
18.0232416791
 20
1.2263658842
 10
18.0416032414
 20
1.216593118
 10
18.0594493541
 20
1.206733354
 10
18.0765859482
 20
1.1969333648
 10
18.0929399827
 20
1.1872774961
 10
18.1085943673
 20
1.1777495903
 10
18.1235935491
 20
1.1683510929
 10
18.1379357371
 20
1.1591133152
 10
18.1516354028
 20
1.1500571702
 10
18.1647602158
 20
1.1411621623
 10
18.1773152112
 20
1.1324493738
 10
18.1893086535
 20
1.1239370642
 10
18.2008109283
 20
1.1155942969
 10
18.211847225
 20
1.1074215999
 10
18.2224044486
 20
1.0994471927
 10
18.2324943132
 20
1.091678143
 10
18.2421059113
 20
1.0841444408
 10
18.2512634241
 20
1.076840572
 10
18.260029611
 20
1.0697176804
 10
18.2683560219
 20
1.0628258395
 10
18.2763019846
 20
1.0561333707
 10
18.2840861178
 20
1.0494618604
 10
18.2917116382
 20
1.0428108022
 10
18.2991771125
 20
1.0361869414
 10
18.306685803
 20
1.0294136311
 10
18.3142337874
 20
1.0224908608
 10
18.3218184959
 20
1.0154163867
 10
18.3296363132
 20
1.0080018217
 10
18.3377035408
 20
1.0002159082
 10
18.3459858487
 20
0.9920789767
 10
18.3545950751
 20
0.9834729799
 10
18.3635576828
 20
0.9743491019
 10
18.3728178248
 20
0.9647392365
 10
18.3823594798
 20
0.9546435475
 10
18.392181775
 20
0.9440388218
 10
18.4022508883
 20
0.9329321213
 10
18.4125021516
 20
0.9213705155
 10
18.4229071106
 20
0.9093604851
 10
18.4334582685
 20
0.8968840117
 10
18.4441238391
 20
0.883953556
 10
18.4548740132
 20
0.8705774463
 10
18.4656984461
 20
0.8567390965
 10
18.4765928379
 20
0.842414175
 10
18.4875308057
 20
0.8276026471
 10
18.4984899538
 20
0.8122987646
 10
18.5094675334
 20
0.7964694643
 10
18.5204261581
 20
0.7801255249
 10
18.531344022
 20
0.7632541923
 10
18.5422338059
 20
0.7457866013
 10
18.5530477622
 20
0.7277395583
 10
18.563757053
 20
0.7090989996
 10
18.5743876726
 20
0.6897488713
 10
18.584887692
 20
0.6696916801
 10
18.5952025345
 20
0.6489349448
 10
18.6053331129
 20
0.6273704698
 10
18.6152247451
 20
0.6049751054
 10
18.6247876764
 20
0.5817963875
 10
18.6339545604
 20
0.557835864
 10
18.6426569676
 20
0.5331131879
 10
18.6507972128
 20
0.507656443
 10
18.6582569439
 20
0.4814885039
 10
18.6649252186
 20
0.4547143491
 10
18.6707324522
 20
0.4273114335
 10
18.675594002
 20
0.3991269429
 10
18.6793871793
 20
0.3701573875
 10
18.6819779711
 20
0.3405435197
 10
18.6832362121
 20
0.3103670595
  0
LWPOLYLINE
  5
386
100
AcDbEntity
  8
RACCORDO
100
AcDbPolyline
 62
250
  6
CONTINUOUS
 90
76
 70
0
 10
17.9399849141
 20
2.0880200266
 10
17.9890116839
 20
2.0717228521
 10
18.0362723128
 20
2.0547146664
 10
18.0817502312
 20
2.0371422949
 10
18.1253195889
 20
2.01915471
 10
18.1669664694
 20
2.0009324403
 10
18.2068718756
 20
1.9826317145
 10
18.2449265234
 20
1.9644519723
 10
18.2811231928
 20
1.9465265983
 10
18.3158197846
 20
1.9288412707
 10
18.349206556
 20
1.91149529
 10
18.3812559764
 20
1.8944809574
 10
18.4119634337
 20
1.8776099701
 10
18.4413763202
 20
1.8608461424
 10
18.4696130144
 20
1.8442612089
 10
18.4967337011
 20
1.8278489217
 10
18.522710855
 20
1.8116631321
 10
18.5475586027
 20
1.7957520958
 10
18.5714047896
 20
1.7800864356
 10
18.5942648534
 20
1.7646994015
 10
18.6161261967
 20
1.7496391646
 10
18.6370670506
 20
1.7348921272
 10
18.6570611893
 20
1.7205226203
 10
18.6761786782
 20
1.7064987805
 10
18.6946701432
 20
1.6926278149
 10
18.7126395968
 20
1.6788396162
 10
18.7301206505
 20
1.6651311055
 10
18.7472033364
 20
1.6514334156
 10
18.7637821761
 20
1.6377941257
 10
18.7798774159
 20
1.6242407783
 10
18.79574811
 20
1.6106850388
 10
18.8113133653
 20
1.5972434786
 10
18.8265218995
 20
1.5839352375
 10
18.8417113529
 20
1.5704709426
 10
18.8568762497
 20
1.5568592629
 10
18.8720160876
 20
1.54309741
 10
18.8874426085
 20
1.5288791569
 10
18.9031509223
 20
1.5141995111
 10
18.9190629265
 20
1.499115772
 10
18.9353801265
 20
1.4833890008
 10
18.9521624527
 20
1.4669419511
 10
18.9693584544
 20
1.4497995126
 10
18.9869998306
 20
1.431853489
 10
19.0051275048
 20
1.4130059356
 10
19.0237246761
 20
1.39323768
 10
19.0427034667
 20
1.372588419
 10
19.062012394
 20
1.351071166
 10
19.0816175223
 20
1.3286755153
 10
19.1014463868
 20
1.3054225784
 10
19.1214476763
 20
1.2813237456
 10
19.1416088274
 20
1.2563436391
 10
19.161916001
 20
1.2304307998
 10
19.1823209914
 20
1.2035869916
 10
19.2027817723
 20
1.1758032071
 10
19.223283864
 20
1.1470141227
 10
19.243760487
 20
1.1172379588
 10
19.2641721983
 20
1.0864504375
 10
19.2845311068
 20
1.0545239404
 10
19.3047501974
 20
1.0214975085
 10
19.3247714817
 20
0.9873532293
 10
19.3446240717
 20
0.951876771
 10
19.3642209808
 20
0.915056623
 10
19.3834642489
 20
0.8768947419
 10
19.4023292826
 20
0.837205393
 10
19.4206617168
 20
0.7960476242
 10
19.4383251141
 20
0.7535571425
 10
19.4552892738
 20
0.7096678178
 10
19.4713645037
 20
0.6642335766
 10
19.4865325289
 20
0.6170047682
 10
19.5010138826
 20
0.5675864362
 10
19.5147688273
 20
0.5160886399
 10
19.5272497089
 20
0.4628636132
 10
19.5377863492
 20
0.4082047667
 10
19.5460118639
 20
0.3522689176
 10
19.5518267569
 20
0.295151895
 10
19.5550087554
 20
0.2369445105
  0
LWPOLYLINE
  5
387
100
AcDbEntity
  8
RACCORDO
100
AcDbPolyline
 62
250
  6
CONTINUOUS
 90
15
 70
0
 10
17.8679788827
 20
0.8247833466
 10
17.8515961971
 20
0.8323581016
 10
17.8358574205
 20
0.8454962881
 10
17.8221029614
 20
0.8637058732
 10
17.8104854184
 20
0.8867848308
 10
17.8011336822
 20
0.914477112
 10
17.7941515054
 20
0.9464754851
 10
17.7896163517
 20
0.9824249448
 10
17.7875785363
 20
1.0219266504
 10
17.7880603489
 20
1.064534299
 10
17.7910558437
 20
1.1097822674
 10
17.7965354764
 20
1.1571952376
 10
17.8044440996
 20
1.2062589669
 10
17.8146969122
 20
1.25642164
 10
17.849671854
 20
1.3984671398
  0
LWPOLYLINE
  5
388
100
AcDbEntity
  8
RACCORDO
100
AcDbPolyline
 62
7
  6
CONTINUOUS
 90
4
 70
0
 10
16.7780398928
 20
-14.2489245214
 10
16.7772246861
 20
-14.2473412569
 10
16.7758898475
 20
-14.2463822305
 10
16.7754873508
 20
-14.2462367336
  0
LINE
  5
389
100
AcDbEntity
  8
SCRITTA_VIMAR
100
AcDbLine
 62
250
  6
CONTINUOUS
 10
18.5320517947
 20
-19.0935533221
 11
18.5952061208
 21
-19.2266036268
  0
LINE
  5
38A
100
AcDbEntity
  8
SCRITTA_VIMAR
100
AcDbLine
 62
250
  6
CONTINUOUS
 10
18.3344837984
 20
-19.1503034418
 11
18.2754046675
 21
-19.0257182743
  0
LINE
  5
38B
100
AcDbEntity
  8
SCRITTA_VIMAR
100
AcDbLine
 62
250
  6
CONTINUOUS
 10
18.4704250659
 20
-18.9624422954
 11
18.5320517947
 21
-19.0935533221
  0
LINE
  5
38C
100
AcDbEntity
  8
SCRITTA_VIMAR
100
AcDbLine
 62
250
  6
CONTINUOUS
 10
18.2754046675
 20
-19.0257182743
 11
18.229082647
 21
-18.9271646659
  0
LINE
  5
38D
100
AcDbEntity
  8
SCRITTA_VIMAR
100
AcDbLine
 62
250
  6
CONTINUOUS
 10
18.1283793726
 20
-18.7101485011
 11
18.088051055
 21
-18.6221672204
  0
LINE
  5
38E
100
AcDbEntity
  8
SCRITTA_VIMAR
100
AcDbLine
 62
250
  6
CONTINUOUS
 10
14.520025797
 20
-17.6489322804
 11
14.4626004691
 21
-17.5215934213
  0
LWPOLYLINE
  5
38F
100
AcDbEntity
  8
SCRITTA_VIMAR
100
AcDbPolyline
 62
250
  6
CONTINUOUS
 90
3
 70
0
 10
14.7169803255
 20
-17.5935287803
 10
14.756099774
 20
-17.6806068351
 10
14.7953811051
 20
-17.7673243392
  0
LINE
  5
390
100
AcDbEntity
  8
SCRITTA_VIMAR
100
AcDbLine
 62
250
  6
CONTINUOUS
 10
14.4626004691
 20
-17.5215934213
 11
14.4064326191
 21
-17.3954732133
  0
LINE
  5
391
100
AcDbEntity
  8
SCRITTA_VIMAR
100
AcDbLine
 62
250
  6
CONTINUOUS
 10
14.6549485126
 20
-17.453991002
 11
14.7169803255
 21
-17.5935287803
  0
LWPOLYLINE
  5
392
100
AcDbEntity
  8
SCRITTA_VIMAR
100
AcDbPolyline
 62
250
  6
CONTINUOUS
 90
6
 70
0
 10
14.4064326191
 20
-17.3954732133
 10
14.350911222
 20
-17.2692359939
 10
14.3093851862
 20
-17.1738014601
 10
14.2679713837
 20
-17.0777282382
 10
14.2267621197
 20
-16.9811947691
 10
14.1858496991
 20
-16.8843794937
  0
LINE
  5
393
100
AcDbEntity
  8
SCRITTA_VIMAR
100
AcDbLine
 62
250
  6
CONTINUOUS
 10
14.5855881532
 20
-17.2957348042
 11
14.6549485126
 21
-17.453991002
  0
LINE
  5
394
100
AcDbEntity
  8
SCRITTA_VIMAR
100
AcDbLine
 62
250
  6
CONTINUOUS
 10
16.564524375
 20
-18.6186297477
 11
16.5197936967
 21
-18.5160490634
  0
LINE
  5
395
100
AcDbEntity
  8
SCRITTA_VIMAR
100
AcDbLine
 62
250
  6
CONTINUOUS
 10
14.538871918
 20
-17.1877198903
 11
14.5855881532
 21
-17.2957348042
  0
LINE
  5
396
100
AcDbEntity
  8
SCRITTA_VIMAR
100
AcDbLine
 62
250
  6
CONTINUOUS
 10
16.5197936967
 20
-18.5160490634
 11
16.4759584213
 21
-18.414414615
  0
LINE
  5
397
100
AcDbEntity
  8
SCRITTA_VIMAR
100
AcDbLine
 62
250
  6
CONTINUOUS
 10
14.4915496974
 20
-17.077085444
 11
14.538871918
 21
-17.1877198903
  0
LINE
  5
398
100
AcDbEntity
  8
SCRITTA_VIMAR
100
AcDbLine
 62
250
  6
CONTINUOUS
 10
16.4759584213
 20
-18.414414615
 11
16.4330691536
 21
-18.3138736492
  0
LINE
  5
399
100
AcDbEntity
  8
SCRITTA_VIMAR
100
AcDbLine
 62
250
  6
CONTINUOUS
 10
14.4438040957
 20
-16.9641450781
 11
14.4915496974
 21
-17.077085444
  0
LINE
  5
39A
100
AcDbEntity
  8
SCRITTA_VIMAR
100
AcDbLine
 62
250
  6
CONTINUOUS
 10
16.4330691536
 20
-18.3138736492
 11
16.391048407
 21
-18.2143017906
  0
LINE
  5
39B
100
AcDbEntity
  8
SCRITTA_VIMAR
100
AcDbLine
 62
250
  6
CONTINUOUS
 10
16.391048407
 20
-18.2143017906
 11
16.3496906036
 21
-18.1153030418
  0
LWPOLYLINE
  5
39C
100
AcDbEntity
  8
SCRITTA_VIMAR
100
AcDbPolyline
 62
250
  6
CONTINUOUS
 90
3
 70
0
 10
16.5858101274
 20
-18.1407900219
 10
16.6197665701
 20
-18.2224288534
 10
16.653885215
 20
-18.3038099644
  0
LINE
  5
39D
100
AcDbEntity
  8
SCRITTA_VIMAR
100
AcDbLine
 62
250
  6
CONTINUOUS
 10
16.3496906036
 20
-18.1153030418
 11
16.2986951693
 21
-17.9919169095
  0
LINE
  5
39E
100
AcDbEntity
  8
SCRITTA_VIMAR
100
AcDbLine
 62
250
  6
CONTINUOUS
 10
16.5119662928
 20
-17.9609899444
 11
16.5858101274
 21
-18.1407900219
  0
LINE
  5
39F
100
AcDbEntity
  8
SCRITTA_VIMAR
100
AcDbLine
 62
250
  6
CONTINUOUS
 10
16.2986951693
 20
-17.9919169095
 11
16.2485406223
 21
-17.8690583859
  0
LWPOLYLINE
  5
3A0
100
AcDbEntity
  8
SCRITTA_VIMAR
100
AcDbPolyline
 62
250
  6
CONTINUOUS
 90
3
 70
0
 10
16.4315993136
 20
-17.7612784648
 10
16.4518143347
 20
-17.8119488986
 10
16.5119662928
 20
-17.9609899444
  0
LINE
  5
3A1
100
AcDbEntity
  8
RACCORDO
100
AcDbLine
 62
7
  6
CONTINUOUS
 10
3.6283500298
 20
-10.9544987544
 11
4.091639631
 21
-10.4477179683
  0
LINE
  5
3A2
100
AcDbEntity
  8
RACCORDO
100
AcDbLine
 62
250
  6
CONTINUOUS
 10
3.6772470617
 20
-10.9695145592
 11
4.1639140057
 21
-10.4371618886
  0
LWPOLYLINE
  5
3A3
100
AcDbEntity
  8
RACCORDO
100
AcDbPolyline
 62
250
  6
CONTINUOUS
 90
10
 70
0
 10
4.091639631
 20
-10.4477179683
 10
4.0946195052
 20
-10.4447493476
 10
4.1002237989
 20
-10.4404043843
 10
4.1065428846
 20
-10.4368829921
 10
4.113509294
 20
-10.4342221025
 10
4.1210576729
 20
-10.4324490783
 10
4.1290952901
 20
-10.4315879201
 10
4.1374997871
 20
-10.4316460938
 10
4.1461635199
 20
-10.4326103273
 10
4.1550005142
 20
-10.434459016
  0
LINE
  5
3A4
100
AcDbEntity
  8
SCRITTA_VIMAR
100
AcDbLine
 62
250
  6
CONTINUOUS
 10
18.4105522298
 20
-18.8338505641
 11
18.4704250659
 21
-18.9624422954
  0
LINE
  5
3A5
100
AcDbEntity
  8
SCRITTA_VIMAR
100
AcDbLine
 62
250
  6
CONTINUOUS
 10
18.3524936712
 20
-18.7079963305
 11
18.4105522298
 21
-18.8338505641
  0
LINE
  5
3A6
100
AcDbEntity
  8
SCRITTA_VIMAR
100
AcDbLine
 62
250
  6
CONTINUOUS
 10
18.2674361346
 20
-18.5215461569
 11
18.3524936712
 21
-18.7079963305
  0
LINE
  5
3A7
100
AcDbEntity
  8
SCRITTA_VIMAR
100
AcDbLine
 62
250
  6
CONTINUOUS
 10
18.088051055
 20
-18.6221672204
 11
18.035550144
 21
-18.5067987886
  0
LINE
  5
3A8
100
AcDbEntity
  8
SCRITTA_VIMAR
100
AcDbLine
 62
250
  6
CONTINUOUS
 10
18.035550144
 20
-18.5067987886
 11
17.9705307383
 21
-18.3626303396
  0
LWPOLYLINE
  5
3A9
100
AcDbEntity
  8
SCRITTA_VIMAR
100
AcDbPolyline
 62
250
  6
CONTINUOUS
 90
5
 70
0
 10
18.0701812871
 20
-18.0781935796
 10
18.1121522424
 20
-18.1743703112
 10
18.1544276608
 20
-18.2700277821
 10
18.1968446838
 20
-18.3650253342
 10
18.2674361346
 20
-18.5215461569
  0
LINE
  5
3AA
100
AcDbEntity
  8
SCRITTA_VIMAR
100
AcDbLine
 62
250
  6
CONTINUOUS
 10
16.3908998959
 20
-17.6582904921
 11
16.4315993136
 21
-17.7612784648
  0
LINE
  5
3AB
100
AcDbEntity
  8
SCRITTA_VIMAR
100
AcDbLine
 62
250
  6
CONTINUOUS
 10
16.3499860303
 20
-17.553328528
 11
16.3908998959
 21
-17.6582904921
  0
LINE
  5
3AC
100
AcDbEntity
  8
SCRITTA_VIMAR
100
AcDbLine
 62
250
  6
CONTINUOUS
 10
15.5189740272
 20
-18.0701092888
 11
15.5065595321
 21
-17.9549763671
  0
LINE
  5
3AD
100
AcDbEntity
  8
SCRITTA_VIMAR
100
AcDbLine
 62
250
  6
CONTINUOUS
 10
16.2815499827
 20
-18.2007680767
 11
16.2937559043
 21
-18.3138980088
  0
LINE
  5
3AE
100
AcDbEntity
  8
SCRITTA_VIMAR
100
AcDbLine
 62
250
  6
CONTINUOUS
 10
15.7645393836
 20
-18.0348591781
 11
15.7769441952
 21
-18.14996669
  0
LINE
  5
3AF
100
AcDbEntity
  8
SCRITTA_VIMAR
100
AcDbLine
 62
250
  6
CONTINUOUS
 10
16.0350256394
 20
-18.2296857936
 11
16.0226253719
 21
-18.1146276457
  0
LINE
  5
3B0
100
AcDbEntity
  8
SCRITTA_VIMAR
100
AcDbLine
 62
250
  6
CONTINUOUS
 10
16.0226253719
 20
-18.1146276457
 11
16.0109247453
 21
-18.0014151284
  0
LINE
  5
3B1
100
AcDbEntity
  8
SCRITTA_VIMAR
100
AcDbLine
 62
250
  6
CONTINUOUS
 10
15.5065595321
 20
-17.9549763671
 11
15.4948557606
 21
-17.8416906397
  0
LINE
  5
3B2
100
AcDbEntity
  8
SCRITTA_VIMAR
100
AcDbLine
 62
250
  6
CONTINUOUS
 10
15.7528397881
 20
-17.9215919719
 11
15.7645393836
 21
-18.0348591781
  0
LINE
  5
3B3
100
AcDbEntity
  8
SCRITTA_VIMAR
100
AcDbLine
 62
250
  6
CONTINUOUS
 10
15.4948557606
 20
-17.8416906397
 11
15.4837576969
 21
-17.729375422
  0
LINE
  5
3B4
100
AcDbEntity
  8
SCRITTA_VIMAR
100
AcDbLine
 62
250
  6
CONTINUOUS
 10
15.7417409154
 20
-17.8092851309
 11
15.7528397881
 21
-17.9215919719
  0
LWPOLYLINE
  5
3B5
100
AcDbEntity
  8
SCRITTA_VIMAR
100
AcDbPolyline
 62
250
  6
CONTINUOUS
 90
3
 70
0
 10
16.0109247453
 20
-18.0014151284
 10
15.9998187398
 20
-17.889154444
 10
15.9944495756
 20
-17.8330173407
  0
LWPOLYLINE
  5
3B6
100
AcDbEntity
  8
SCRITTA_VIMAR
100
AcDbPolyline
 62
250
  6
CONTINUOUS
 90
6
 70
0
 10
15.4837576969
 20
-17.729375422
 10
15.4731398231
 20
-17.6168892699
 10
15.4654303903
 20
-17.5318292179
 10
15.4579536367
 20
-17.446169732
 10
15.4507427384
 20
-17.3600495914
 10
15.4438308715
 20
-17.2736075752
  0
LWPOLYLINE
  5
3B7
100
AcDbEntity
  8
RACCORDO
100
AcDbPolyline
 62
250
  6
CONTINUOUS
 90
10
 70
0
 10
13.7917671304
 20
-16.4781685508
 10
13.8197803052
 20
-16.8525793952
 10
13.8574553907
 20
-17.2683511613
 10
13.9103902862
 20
-17.7550887085
 10
13.9797350547
 20
-18.2847161744
 10
14.0655483034
 20
-18.8326958462
 10
14.1645438992
 20
-19.3667293646
 10
14.2743487253
 20
-19.8732547213
 10
14.3982017475
 20
-20.3666282046
 10
14.5366965292
 20
-20.8454745635
  0
LWPOLYLINE
  5
3B8
100
AcDbEntity
  8
RACCORDO
100
AcDbPolyline
 62
250
  6
CONTINUOUS
 90
10
 70
0
 10
13.294043561
 20
3.5295357628
 10
13.302297106
 20
3.9494336894
 10
13.317651847
 20
4.4309087335
 10
13.3439170677
 20
5.0162547604
 10
13.3835202627
 20
5.6821945036
 10
13.4376945081
 20
6.4060523683
 10
13.5049173171
 20
7.1492324557
 10
13.5836266654
 20
7.892693781
 10
13.6761814298
 20
8.6574574057
 10
13.7832138859
 20
9.4433420132
  0
LWPOLYLINE
  5
3B9
100
AcDbEntity
  8
RACCORDO
100
AcDbPolyline
 62
250
  6
CONTINUOUS
 90
10
 70
0
 10
13.1724030296
 20
2.7383120763
 10
13.1963106092
 20
2.8309318753
 10
13.2177988195
 20
2.9232462295
 10
13.236779795
 20
3.0148737924
 10
13.2532191136
 20
3.1054228189
 10
13.2670067914
 20
3.1945324424
 10
13.2779575592
 20
3.2818742199
 10
13.2859835262
 20
3.3671006979
 10
13.2910943647
 20
3.4498469016
 10
13.2932681236
 20
3.5297715021
  0
LINE
  5
3BA
100
AcDbEntity
  8
RACCORDO
100
AcDbLine
 62
250
  6
CONTINUOUS
 10
6.527252948
 20
-11.8447237561
 11
6.7497877355
 21
-11.5222636941
  0
LINE
  5
3BB
100
AcDbEntity
  8
RACCORDO
100
AcDbLine
 62
7
  6
CONTINUOUS
 10
6.5382975402
 20
-11.8481154434
 11
6.740769078
 21
-11.5547276753
  0
LINE
  5
3BC
100
AcDbEntity
  8
RACCORDO
100
AcDbLine
 62
250
  6
CONTINUOUS
 10
6.2554918082
 20
-11.7612685429
 11
6.6514894969
 21
-11.2010722224
  0
LINE
  5
3BD
100
AcDbEntity
  8
RACCORDO
100
AcDbLine
 62
250
  6
CONTINUOUS
 10
6.3912385861
 20
-11.8029550633
 11
6.7443440483
 21
-11.3034360349
  0
LINE
  5
3BE
100
AcDbEntity
  8
RACCORDO
100
AcDbLine
 62
250
  6
CONTINUOUS
 10
28.9489599438
 20
5.4232489466
 11
29.0484850639
 21
5.3956581796
  0
LWPOLYLINE
  5
3BF
100
AcDbEntity
  8
RACCORDO
100
AcDbPolyline
 62
250
  6
CONTINUOUS
 90
10
 70
0
 10
-31.5765127103
 20
23.3473839072
 10
-31.5478771321
 20
23.3393166358
 10
-31.5199418876
 20
23.3317077762
 10
-31.4927891788
 20
23.3244682557
 10
-31.4659666983
 20
23.3171461232
 10
-31.4395850973
 20
23.3096313905
 10
-31.4136335017
 20
23.3020403891
 10
-31.387481186
 20
23.2942663777
 10
-31.361054585
 20
23.2862533201
 10
-31.2489698286
 20
23.2518542648
  0
LINE
  5
3C0
100
AcDbEntity
  8
RACCORDO
100
AcDbLine
 62
250
  6
CONTINUOUS
 10
28.8616217306
 20
5.4479476059
 11
28.9489599438
 21
5.4232489466
  0
LINE
  5
3C1
100
AcDbEntity
  8
RACCORDO
100
AcDbLine
 62
250
  6
CONTINUOUS
 10
28.7820909633
 20
5.4709402441
 11
28.8616217306
 21
5.4479476059
  0
LWPOLYLINE
  5
3C2
100
AcDbEntity
  8
RACCORDO
100
AcDbPolyline
 62
250
  6
CONTINUOUS
 90
3
 70
0
 10
26.2620910829
 20
6.2080242335
 10
26.4600211709
 20
6.1504332846
 10
26.5558621592
 20
6.1225402453
  0
LINE
  5
3C3
100
AcDbEntity
  8
RACCORDO
100
AcDbLine
 62
250
  6
CONTINUOUS
 10
26.062149817
 20
6.2662268938
 11
26.2620910829
 21
6.2080242335
  0
LINE
  5
3C4
100
AcDbEntity
  8
RACCORDO
100
AcDbLine
 62
250
  6
CONTINUOUS
 10
26.5558621592
 20
6.1225402453
 11
26.7406814997
 21
6.0687357417
  0
LINE
  5
3C5
100
AcDbEntity
  8
RACCORDO
100
AcDbLine
 62
250
  6
CONTINUOUS
 10
-31.6363886909
 20
23.3647003352
 11
-31.5765127103
 21
23.3473839072
  0
LINE
  5
3C6
100
AcDbEntity
  8
RACCORDO
100
AcDbLine
 62
250
  6
CONTINUOUS
 10
26.7406814997
 20
6.0687357417
 11
26.9940726869
 21
5.9948887961
  0
LINE
  5
3C7
100
AcDbEntity
  8
RACCORDO
100
AcDbLine
 62
250
  6
CONTINUOUS
 10
26.9940726869
 20
5.9948887961
 11
27.1486412542
 21
5.9497962772
  0
LINE
  5
3C8
100
AcDbEntity
  8
RACCORDO
100
AcDbLine
 62
250
  6
CONTINUOUS
 10
27.1486412542
 20
5.9497962772
 11
27.3615346769
 21
5.88762848
  0
LINE
  5
3C9
100
AcDbEntity
  8
RACCORDO
100
AcDbLine
 62
250
  6
CONTINUOUS
 10
27.3615346769
 20
5.88762848
 11
27.4923264662
 21
5.8494002865
  0
LINE
  5
3CA
100
AcDbEntity
  8
RACCORDO
100
AcDbLine
 62
250
  6
CONTINUOUS
 10
27.4923264662
 20
5.8494002865
 11
27.6150249875
 21
5.813512132
  0
LINE
  5
3CB
100
AcDbEntity
  8
RACCORDO
100
AcDbLine
 62
250
  6
CONTINUOUS
 10
27.6150249875
 20
5.813512132
 11
27.730331968
 21
5.7797640169
  0
LINE
  5
3CC
100
AcDbEntity
  8
RACCORDO
100
AcDbLine
 62
250
  6
CONTINUOUS
 10
27.730331968
 20
5.7797640169
 11
27.8385538894
 21
5.7480703215
  0
LINE
  5
3CD
100
AcDbEntity
  8
RACCORDO
100
AcDbLine
 62
250
  6
CONTINUOUS
 10
27.8385538894
 20
5.7480703215
 11
27.9399658717
 21
5.7183530582
  0
LWPOLYLINE
  5
3CE
100
AcDbEntity
  8
RACCORDO
100
AcDbPolyline
 62
250
  6
CONTINUOUS
 90
3
 70
0
 10
27.9399658717
 20
5.7183530582
 10
28.0349784829
 20
5.6904954829
 10
28.0803113719
 20
5.6771986957
  0
LWPOLYLINE
  5
3CF
100
AcDbEntity
  8
RACCORDO
100
AcDbPolyline
 62
250
  6
CONTINUOUS
 90
3
 70
0
 10
28.0803113719
 20
5.6771986957
 10
28.1668325908
 20
5.6518109815
 10
28.2082486057
 20
5.639654045
  0
LINE
  5
3D0
100
AcDbEntity
  8
RACCORDO
100
AcDbLine
 62
250
  6
CONTINUOUS
 10
28.2082486057
 20
5.639654045
 11
28.2876483734
 21
5.6163398816
  0
LWPOLYLINE
  5
3D1
100
AcDbEntity
  8
RACCORDO
100
AcDbPolyline
 62
250
  6
CONTINUOUS
 90
3
 70
0
 10
28.2876483734
 20
5.6163398816
 10
28.363029763
 20
5.5941950888
 10
28.3992888921
 20
5.5835391873
  0
LINE
  5
3D2
100
AcDbEntity
  8
RACCORDO
100
AcDbLine
 62
250
  6
CONTINUOUS
 10
25.2313795325
 20
6.5091516235
 11
26.062149817
 21
6.2662268938
  0
LINE
  5
3D3
100
AcDbEntity
  8
RACCORDO
100
AcDbLine
 62
250
  6
CONTINUOUS
 10
28.3992888921
 20
5.5835391873
 11
28.4686359963
 21
5.5631532505
  0
LINE
  5
3D4
100
AcDbEntity
  8
RACCORDO
100
AcDbLine
 62
250
  6
CONTINUOUS
 10
28.4686359963
 20
5.5631532505
 11
28.7040898192
 21
5.4938718869
  0
LINE
  5
3D5
100
AcDbEntity
  8
RACCORDO
100
AcDbLine
 62
250
  6
CONTINUOUS
 10
28.7040898192
 20
5.4938718869
 11
28.7820909633
 21
5.4709402441
  0
LINE
  5
3D6
100
AcDbEntity
  8
RACCORDO
100
AcDbLine
 62
250
  6
CONTINUOUS
 10
24.7152951106
 20
6.6619645923
 11
25.2313795325
 21
6.5091516235
  0
LINE
  5
3D7
100
AcDbEntity
  8
RACCORDO
100
AcDbLine
 62
250
  6
CONTINUOUS
 10
23.980038251
 20
6.3015723438
 11
24.1264470749
 21
6.2575372623
  0
LINE
  5
3D8
100
AcDbEntity
  8
RACCORDO
100
AcDbLine
 62
250
  6
CONTINUOUS
 10
-27.4194390382
 20
22.0863180888
 11
-27.3009231891
 21
22.0505534695
  0
LINE
  5
3D9
100
AcDbEntity
  8
RACCORDO
100
AcDbLine
 62
250
  6
CONTINUOUS
 10
23.5283036126
 20
7.017072348
 11
24.7152951106
 21
6.6619645923
  0
LINE
  5
3DA
100
AcDbEntity
  8
RACCORDO
100
AcDbLine
 62
250
  6
CONTINUOUS
 10
-26.8510852987
 20
21.9111873839
 11
-25.9908965785
 21
21.6534139561
  0
LWPOLYLINE
  5
3DB
100
AcDbEntity
  8
RACCORDO
100
AcDbPolyline
 62
250
  6
CONTINUOUS
 90
3
 70
0
 10
-31.7361084485
 20
23.3945911886
 10
-31.7016173818
 20
23.3841182853
 10
-31.6363886909
 20
23.3647003352
  0
LINE
  5
3DC
100
AcDbEntity
  8
RACCORDO
100
AcDbLine
 62
250
  6
CONTINUOUS
 10
-28.2733972622
 20
22.3446692906
 11
-27.4194390382
 21
22.0863180888
  0
LINE
  5
3DD
100
AcDbEntity
  8
RACCORDO
100
AcDbLine
 62
250
  6
CONTINUOUS
 10
24.1264470749
 20
6.2575372623
 11
24.2290147431
 21
6.2263633015
  0
LINE
  5
3DE
100
AcDbEntity
  8
RACCORDO
100
AcDbLine
 62
250
  6
CONTINUOUS
 10
-25.9908965785
 20
21.6534139561
 11
-25.6920460134
 21
21.5625136521
  0
LINE
  5
3DF
100
AcDbEntity
  8
RACCORDO
100
AcDbLine
 62
250
  6
CONTINUOUS
 10
-29.0448759119
 20
22.5795242114
 11
-28.2733972622
 21
22.3446692906
  0
LWPOLYLINE
  5
3E0
100
AcDbEntity
  8
RACCORDO
100
AcDbPolyline
 62
250
  6
CONTINUOUS
 90
3
 70
0
 10
-31.2489698286
 20
23.2518542648
 10
-31.0499218086
 20
23.1911435737
 10
-29.649947603
 20
22.7641142149
  0
LINE
  5
3E1
100
AcDbEntity
  8
RACCORDO
100
AcDbLine
 62
250
  6
CONTINUOUS
 10
-29.649947603
 20
22.7641142149
 11
-29.0448759119
 21
22.5795242114
  0
LINE
  5
3E2
100
AcDbEntity
  8
RACCORDO
100
AcDbLine
 62
250
  6
CONTINUOUS
 10
-25.6920460134
 20
21.5625136521
 11
-24.5688733121
 21
21.2195717991
  0
LINE
  5
3E3
100
AcDbEntity
  8
RACCORDO
100
AcDbLine
 62
250
  6
CONTINUOUS
 10
-24.5688733121
 20
21.2195717991
 11
-23.3236124734
 21
20.8385816887
  0
LINE
  5
3E4
100
AcDbEntity
  8
RACCORDO
100
AcDbLine
 62
250
  6
CONTINUOUS
 10
-23.4034835297
 20
21.4295551039
 11
-16.829760469
 21
19.4171942762
  0
LINE
  5
3E5
100
AcDbEntity
  8
RACCORDO
100
AcDbLine
 62
250
  6
CONTINUOUS
 10
-27.3009231891
 20
22.0505534695
 11
-27.1918480183
 21
22.0172014304
  0
LINE
  5
3E6
100
AcDbEntity
  8
RACCORDO
100
AcDbLine
 62
250
  6
CONTINUOUS
 10
-23.3236124734
 20
20.8385816887
 11
-21.9018978589
 21
20.4027504735
  0
LINE
  5
3E7
100
AcDbEntity
  8
RACCORDO
100
AcDbLine
 62
250
  6
CONTINUOUS
 10
23.1853893645
 20
7.1217440291
 11
23.5283036126
 21
7.017072348
  0
LINE
  5
3E8
100
AcDbEntity
  8
RACCORDO
100
AcDbLine
 62
250
  6
CONTINUOUS
 10
13.7830906762
 20
9.4433798993
 11
17.289620617
 21
8.367452964
  0
LINE
  5
3E9
100
AcDbEntity
  8
RACCORDO
100
AcDbLine
 62
250
  6
CONTINUOUS
 10
23.0346793142
 20
7.168005778
 11
23.1853893645
 21
7.1217440291
  0
LWPOLYLINE
  5
3EA
100
AcDbEntity
  8
RACCORDO
100
AcDbPolyline
 62
250
  6
CONTINUOUS
 90
6
 70
0
 10
-25.5743150648
 20
22.0953609459
 10
-25.496547192
 20
22.0714795089
 10
-25.416648326
 20
22.0469473131
 10
-25.3344023066
 20
22.021697148
 10
-25.2497981593
 20
21.9957250998
 10
-23.4034835297
 20
21.4295551039
  0
LINE
  5
3EB
100
AcDbEntity
  8
RACCORDO
100
AcDbLine
 62
250
  6
CONTINUOUS
 10
-16.829760469
 20
19.4171942762
 11
13.9793410803
 21
9.9562053789
  0
LWPOLYLINE
  5
3EC
100
AcDbEntity
  8
RACCORDO
100
AcDbPolyline
 62
250
  6
CONTINUOUS
 90
4
 70
0
 10
17.289620617
 20
8.367452964
 10
18.3413303982
 20
8.0445474896
 10
18.5354201366
 20
7.9849247457
 10
18.7242749861
 20
7.9268993687
  0
LINE
  5
3ED
100
AcDbEntity
  8
RACCORDO
100
AcDbLine
 62
250
  6
CONTINUOUS
 10
-19.6684748414
 20
19.716803253
 11
13.7830906234
 21
9.4433798652
  0
LINE
  5
3EE
100
AcDbEntity
  8
RACCORDO
100
AcDbLine
 62
250
  6
CONTINUOUS
 10
-21.9018978589
 20
20.4027504735
 11
-19.6684748414
 21
19.716803253
  0
LWPOLYLINE
  5
3EF
100
AcDbEntity
  8
RACCORDO
100
AcDbPolyline
 62
250
  6
CONTINUOUS
 90
3
 70
0
 10
18.7242749861
 20
7.9268993687
 10
19.087577073
 20
7.8152427284
 10
19.2620243842
 20
7.7616117907
  0
LWPOLYLINE
  5
3F0
100
AcDbEntity
  8
RACCORDO
100
AcDbPolyline
 62
250
  6
CONTINUOUS
 90
3
 70
0
 10
19.2620243842
 20
7.7616117907
 10
19.597675788
 20
7.6583900297
 10
19.758879805
 20
7.6087992937
  0
LINE
  5
3F1
100
AcDbEntity
  8
RACCORDO
100
AcDbLine
 62
250
  6
CONTINUOUS
 10
19.758879805
 20
7.6087992937
 11
20.0691166726
 21
7.5133327147
  0
LWPOLYLINE
  5
3F2
100
AcDbEntity
  8
RACCORDO
100
AcDbPolyline
 62
250
  6
CONTINUOUS
 90
3
 70
0
 10
20.0691166726
 20
7.5133327147
 10
20.3634368671
 20
7.4227248231
 10
20.5049853647
 20
7.3791347774
  0
LINE
  5
3F3
100
AcDbEntity
  8
RACCORDO
100
AcDbLine
 62
250
  6
CONTINUOUS
 10
13.9793410803
 20
9.9562053789
 11
15.1947085082
 21
9.5821035196
  0
LWPOLYLINE
  5
3F4
100
AcDbEntity
  8
RACCORDO
100
AcDbPolyline
 62
250
  6
CONTINUOUS
 90
3
 70
0
 10
20.5049853647
 20
7.3791347774
 10
20.7771439882
 20
7.2952960591
 10
20.9080591926
 20
7.2549550854
  0
LWPOLYLINE
  5
3F5
100
AcDbEntity
  8
RACCORDO
100
AcDbPolyline
 62
250
  6
CONTINUOUS
 90
3
 70
0
 10
15.1947085082
 20
9.5821035196
 10
17.7072145914
 20
8.807937936
 10
23.0346793142
 20
7.168005778
  0
LWPOLYLINE
  5
3F6
100
AcDbEntity
  8
RACCORDO
100
AcDbPolyline
 62
250
  6
CONTINUOUS
 90
3
 70
0
 10
20.9080591926
 20
7.2549550854
 10
21.1598218183
 20
7.1773508647
 10
21.2809531597
 20
7.1400018471
  0
LWPOLYLINE
  5
3F7
100
AcDbEntity
  8
RACCORDO
100
AcDbPolyline
 62
250
  6
CONTINUOUS
 90
4
 70
0
 10
21.2809531597
 20
7.1400018471
 10
21.5139483129
 20
7.0681393868
 10
21.6260965852
 20
7.0335400671
 10
21.7353226053
 20
6.9998352476
  0
LWPOLYLINE
  5
3F8
100
AcDbEntity
  8
RACCORDO
100
AcDbPolyline
 62
250
  6
CONTINUOUS
 90
3
 70
0
 10
21.7353226053
 20
6.9998352476
 10
21.9454614137
 20
6.934972942
 10
22.0463730453
 20
6.9038156629
  0
LWPOLYLINE
  5
3F9
100
AcDbEntity
  8
RACCORDO
100
AcDbPolyline
 62
250
  6
CONTINUOUS
 90
4
 70
0
 10
22.0463730453
 20
6.9038156629
 10
22.2402056875
 20
6.8439552437
 10
22.333129077
 20
6.8152503092
 10
22.4235506707
 20
6.7873135782
  0
LINE
  5
3FA
100
AcDbEntity
  8
RACCORDO
100
AcDbLine
 62
250
  6
CONTINUOUS
 10
26.362785798
 20
5.5638742487
 11
26.8000045636
 21
5.4287640772
  0
LINE
  5
3FB
100
AcDbEntity
  8
RACCORDO
100
AcDbLine
 62
250
  6
CONTINUOUS
 10
26.2671377119
 20
5.5934368213
 11
26.362785798
 21
5.5638742487
  0
LINE
  5
3FC
100
AcDbEntity
  8
RACCORDO
100
AcDbLine
 62
250
  6
CONTINUOUS
 10
26.0695475828
 20
5.6545442197
 11
26.2671377119
 21
5.5934368213
  0
LINE
  5
3FD
100
AcDbEntity
  8
RACCORDO
100
AcDbLine
 62
250
  6
CONTINUOUS
 10
25.8698626525
 20
5.7163279813
 11
26.0695475828
 21
5.6545442197
  0
LINE
  5
3FE
100
AcDbEntity
  8
RACCORDO
100
AcDbLine
 62
250
  6
CONTINUOUS
 10
24.2290147431
 20
6.2263633015
 11
24.3391648647
 21
6.1924111618
  0
LINE
  5
3FF
100
AcDbEntity
  8
RACCORDO
100
AcDbLine
 62
250
  6
CONTINUOUS
 10
22.4235506707
 20
6.7873135782
 11
22.9155708025
 21
6.6352557082
  0
LINE
  5
400
100
AcDbEntity
  8
RACCORDO
100
AcDbLine
 62
250
  6
CONTINUOUS
 10
25.4803985084
 20
5.8369718317
 11
25.8698626525
 21
5.7163279813
  0
LINE
  5
401
100
AcDbEntity
  8
RACCORDO
100
AcDbLine
 62
250
  6
CONTINUOUS
 10
-27.1918480183
 20
22.0172014304
 11
-27.0896808783
 21
21.9856023435
  0
LINE
  5
402
100
AcDbEntity
  8
RACCORDO
100
AcDbLine
 62
250
  6
CONTINUOUS
 10
-26.0623282572
 20
22.2457948761
 11
-25.5743150648
 21
22.0953609459
  0
LWPOLYLINE
  5
403
100
AcDbEntity
  8
RACCORDO
100
AcDbPolyline
 62
250
  6
CONTINUOUS
 90
11
 70
0
 10
26.8000045636
 20
5.4287640772
 10
28.5064247258
 20
4.9014187246
 10
28.5327575498
 20
4.8930632695
 10
28.5588996216
 20
4.8846398474
 10
28.5854756215
 20
4.8758798701
 10
28.6125202821
 20
4.8666603948
 10
28.6399708572
 20
4.857140476
 10
28.6683163652
 20
4.8474756476
 10
28.6974718386
 20
4.8378034543
 10
28.7273931508
 20
4.8280293835
 10
28.7913823862
 20
4.8075450395
  0
LINE
  5
404
100
AcDbEntity
  8
RACCORDO
100
AcDbLine
 62
250
  6
CONTINUOUS
 10
23.8346086874
 20
6.3465651316
 11
23.980038251
 21
6.3015723438
  0
LINE
  5
405
100
AcDbEntity
  8
RACCORDO
100
AcDbLine
 62
250
  6
CONTINUOUS
 10
-27.0896808783
 20
21.9856023435
 11
-26.8510852987
 21
21.9111873839
  0
LWPOLYLINE
  5
406
100
AcDbEntity
  8
RACCORDO
100
AcDbPolyline
 62
250
  6
CONTINUOUS
 90
3
 70
0
 10
24.3391648647
 20
6.1924111618
 10
24.5882290943
 20
6.1146506008
 10
25.4803985084
 20
5.8369718317
  0
LINE
  5
407
100
AcDbEntity
  8
RACCORDO
100
AcDbLine
 62
250
  6
CONTINUOUS
 10
22.9155708025
 20
6.6352557082
 11
23.1330075591
 21
6.5672246159
  0
LINE
  5
408
100
AcDbEntity
  8
RACCORDO
100
AcDbLine
 62
250
  6
CONTINUOUS
 10
23.6297554232
 20
6.4107888574
 11
23.8346086874
 21
6.3465651316
  0
LINE
  5
409
100
AcDbEntity
  8
RACCORDO
100
AcDbLine
 62
250
  6
CONTINUOUS
 10
28.7913823862
 20
4.8075450395
 11
28.8609848831
 21
4.7858110735
  0
LINE
  5
40A
100
AcDbEntity
  8
RACCORDO
100
AcDbLine
 62
250
  6
CONTINUOUS
 10
23.1330075591
 20
6.5672246159
 11
23.6297554232
 21
6.4107888574
  0
LINE
  5
40B
100
AcDbEntity
  8
RACCORDO
100
AcDbLine
 62
250
  6
CONTINUOUS
 10
-26.5055825078
 20
22.3847470108
 11
-26.0623282572
 21
22.2457948761
  0
LINE
  5
40C
100
AcDbEntity
  8
RACCORDO
100
AcDbLine
 62
250
  6
CONTINUOUS
 10
-26.7431770207
 20
22.4600813336
 11
-26.5055825078
 21
22.3847470108
  0
LINE
  5
40D
100
AcDbEntity
  8
RACCORDO
100
AcDbLine
 62
250
  6
CONTINUOUS
 10
-27.4852454433
 20
22.6945118731
 11
-26.7431770207
 21
22.4600813336
  0
LINE
  5
40E
100
AcDbEntity
  8
RACCORDO
100
AcDbLine
 62
250
  6
CONTINUOUS
 10
-31.2028230896
 20
23.8910077989
 11
-31.1504386355
 21
23.874253336
  0
LINE
  5
40F
100
AcDbEntity
  8
RACCORDO
100
AcDbLine
 62
250
  6
CONTINUOUS
 10
-27.9761993018
 20
22.8515229455
 11
-27.4852454433
 21
22.6945118731
  0
LINE
  5
410
100
AcDbEntity
  8
RACCORDO
100
AcDbLine
 62
250
  6
CONTINUOUS
 10
-31.1504386355
 20
23.874253336
 11
-30.606812968
 21
23.700029391
  0
LINE
  5
411
100
AcDbEntity
  8
RACCORDO
100
AcDbLine
 62
250
  6
CONTINUOUS
 10
-30.606812968
 20
23.700029391
 11
-30.0185099052
 21
23.5108903952
  0
LINE
  5
412
100
AcDbEntity
  8
RACCORDO
100
AcDbLine
 62
250
  6
CONTINUOUS
 10
-30.0185099052
 20
23.5108903952
 11
-29.439987859
 21
23.3243263631
  0
LINE
  5
413
100
AcDbEntity
  8
RACCORDO
100
AcDbLine
 62
250
  6
CONTINUOUS
 10
-31.2798094412
 20
23.9157681263
 11
-31.2028230896
 21
23.8910077989
  0
LWPOLYLINE
  5
414
100
AcDbEntity
  8
RACCORDO
100
AcDbPolyline
 62
250
  6
CONTINUOUS
 90
3
 70
0
 10
-28.930402811
 20
23.1595752981
 10
-28.7394677489
 20
23.0978078021
 10
-27.9761993018
 20
22.8515229455
  0
LWPOLYLINE
  5
415
100
AcDbEntity
  8
RACCORDO
100
AcDbPolyline
 62
250
  6
CONTINUOUS
 90
3
 70
0
 10
-29.439987859
 20
23.3243263631
 10
-29.0234854376
 20
23.1896910958
 10
-28.930402811
 20
23.1595752981
  0
LINE
  5
416
100
AcDbEntity
  8
RACCORDO
100
AcDbLine
 62
250
  6
CONTINUOUS
 10
-31.3322144708
 20
23.9328658632
 11
-31.2798094412
 21
23.9157681263
  0
LINE
  5
417
100
AcDbEntity
  8
RACCORDO
100
AcDbLine
 62
250
  6
CONTINUOUS
 10
-31.4174235033
 20
23.9611620751
 11
-31.3322144708
 21
23.9328658632
  0
LINE
  5
418
100
AcDbEntity
  8
RACCORDO
100
AcDbLine
 62
250
  6
CONTINUOUS
 10
-31.5140280277
 20
23.993819223
 11
-31.4174235033
 21
23.9611620751
  0
LWPOLYLINE
  5
419
100
AcDbEntity
  8
RACCORDO
100
AcDbPolyline
 62
250
  6
CONTINUOUS
 90
28
 70
0
 10
28.8609870184
 20
4.7858135003
 10
28.9388153499
 20
4.7589357473
 10
29.0153315261
 20
4.7269720477
 10
29.0900181001
 20
4.6903366279
 10
29.1632109024
 20
4.6489876478
 10
29.2337340874
 20
4.603688665
 10
29.299118328
 20
4.5564529897
 10
29.3584595651
 20
4.5087457871
 10
29.4127070173
 20
4.4605877322
 10
29.4624360415
 20
4.4120588919
 10
29.50777386
 20
4.3635764211
 10
29.5488184221
 20
4.3155758382
 10
29.5860462434
 20
4.267989727
 10
29.6196530282
 20
4.2210173051
 10
29.6497299801
 20
4.174990595
 10
29.6765481617
 20
4.1299502488
 10
29.700274563
 20
4.0860782154
 10
29.7210913776
 20
4.0435221237
 10
29.7392611162
 20
4.0022195163
 10
29.7549488381
 20
3.9622772459
 10
29.7683254801
 20
3.9237794679
 10
29.7796157398
 20
3.8865994575
 10
29.7889657941
 20
3.8507904623
 10
29.7965200785
 20
3.8164002806
 10
29.802451411
 20
3.7832783427
 10
29.8068914772
 20
3.7513867803
 10
29.8099542722
 20
3.7207996715
 10
29.8117623168
 20
3.6915235555
  0
LINE
  5
41A
100
AcDbEntity
  8
SCRITTA_VIMAR
100
AcDbLine
 62
250
  6
CONTINUOUS
 10
15.5460067128
 20
-18.3049225402
 11
15.5321222526
 21
-18.1869070509
  0
LINE
  5
41B
100
AcDbEntity
  8
SCRITTA_VIMAR
100
AcDbLine
 62
250
  6
CONTINUOUS
 10
15.7900778722
 20
-18.2667308467
 11
15.8039438527
 21
-18.3847020875
  0
LINE
  5
41C
100
AcDbEntity
  8
SCRITTA_VIMAR
100
AcDbLine
 62
250
  6
CONTINUOUS
 10
16.3066397147
 20
-18.4282371336
 11
16.3202220566
 21
-18.5437501834
  0
LINE
  5
41D
100
AcDbEntity
  8
SCRITTA_VIMAR
100
AcDbLine
 62
250
  6
CONTINUOUS
 10
16.0620010659
 20
-18.4643235423
 11
16.0481496004
 21
-18.3464032217
  0
LINE
  5
41E
100
AcDbEntity
  8
SCRITTA_VIMAR
100
AcDbLine
 62
250
  6
CONTINUOUS
 10
16.2937559043
 20
-18.3138980088
 11
16.3066397147
 21
-18.4282371336
  0
LINE
  5
41F
100
AcDbEntity
  8
SCRITTA_VIMAR
100
AcDbLine
 62
250
  6
CONTINUOUS
 10
15.5321222526
 20
-18.1869070509
 11
15.5189740272
 21
-18.0701092888
  0
LINE
  5
420
100
AcDbEntity
  8
SCRITTA_VIMAR
100
AcDbLine
 62
250
  6
CONTINUOUS
 10
15.7769441952
 20
-18.14996669
 11
15.7900778722
 21
-18.2667308467
  0
LINE
  5
421
100
AcDbEntity
  8
SCRITTA_VIMAR
100
AcDbLine
 62
250
  6
CONTINUOUS
 10
16.0481496004
 20
-18.3464032217
 11
16.0350256394
 21
-18.2296857936
  0
LINE
  5
422
100
AcDbEntity
  8
SCRITTA_VIMAR
100
AcDbLine
 62
250
  6
CONTINUOUS
 10
18.9861663613
 20
-18.9601362328
 11
18.9955259336
 21
-19.045748626
  0
LINE
  5
423
100
AcDbEntity
  8
SCRITTA_VIMAR
100
AcDbLine
 62
250
  6
CONTINUOUS
 10
17.0412859783
 20
-18.5417470571
 11
17.0290056474
 21
-18.428539118
  0
LINE
  5
424
100
AcDbEntity
  8
SCRITTA_VIMAR
100
AcDbLine
 62
250
  6
CONTINUOUS
 10
18.7345486807
 20
-18.9748904506
 11
18.7187850468
 21
-18.8297003566
  0
LINE
  5
425
100
AcDbEntity
  8
RACCORDO
100
AcDbLine
 62
7
  6
CONTINUOUS
 10
16.7780398928
 20
-14.2489245214
 11
16.778108905
 21
-14.2495750497
  0
LINE
  5
426
100
AcDbEntity
  8
SCRITTA_VIMAR
100
AcDbLine
 62
250
  6
CONTINUOUS
 10
17.2813595394
 20
-18.4439485632
 11
17.2998584993
 21
-18.6154825744
  0
LINE
  5
427
100
AcDbEntity
  8
SCRITTA_VIMAR
100
AcDbLine
 62
250
  6
CONTINUOUS
 10
18.7187850468
 20
-18.8297003566
 11
18.7037958218
 21
-18.6873242509
  0
LINE
  5
428
100
AcDbEntity
  8
SCRITTA_VIMAR
100
AcDbLine
 62
250
  6
CONTINUOUS
 10
18.9535484046
 20
-18.6850657141
 11
18.9623907402
 21
-18.7698484618
  0
LINE
  5
429
100
AcDbEntity
  8
SCRITTA_VIMAR
100
AcDbLine
 62
250
  6
CONTINUOUS
 10
17.0290056474
 20
-18.428539118
 11
17.0173388914
 21
-18.3167412003
  0
LINE
  5
42A
100
AcDbEntity
  8
SCRITTA_VIMAR
100
AcDbLine
 62
250
  6
CONTINUOUS
 10
18.9365106279
 20
-18.5201513667
 11
18.9535484046
 21
-18.6850657141
  0
LINE
  5
42B
100
AcDbEntity
  8
SCRITTA_VIMAR
100
AcDbLine
 62
250
  6
CONTINUOUS
 10
18.7037958218
 20
-18.6873242509
 11
18.6854309414
 21
-18.5087239209
  0
LINE
  5
42C
100
AcDbEntity
  8
SCRITTA_VIMAR
100
AcDbLine
 62
250
  6
CONTINUOUS
 10
16.2643993996
 20
-18.0334432053
 11
16.2815499827
 21
-18.2007680767
  0
LINE
  5
42D
100
AcDbEntity
  8
SCRITTA_VIMAR
100
AcDbLine
 62
250
  6
CONTINUOUS
 10
17.2642313522
 20
-18.275929985
 11
17.2813595394
 21
-18.4439485632
  0
LINE
  5
42E
100
AcDbEntity
  8
SCRITTA_VIMAR
100
AcDbLine
 62
250
  6
CONTINUOUS
 10
17.0173388914
 20
-18.3167412003
 11
17.0062425838
 21
-18.2064964405
  0
LWPOLYLINE
  5
42F
100
AcDbEntity
  8
SCRITTA_VIMAR
100
AcDbPolyline
 62
250
  6
CONTINUOUS
 90
3
 70
0
 10
18.6854309414
 20
-18.5087239209
 10
18.6685465806
 20
-18.3394823044
 10
18.6603639362
 20
-18.2542647771
  0
LINE
  5
430
100
AcDbEntity
  8
SCRITTA_VIMAR
100
AcDbLine
 62
250
  6
CONTINUOUS
 10
17.0062425838
 20
-18.2064964405
 11
16.9957063572
 21
-18.0978082262
  0
LINE
  5
431
100
AcDbEntity
  8
SCRITTA_VIMAR
100
AcDbLine
 62
250
  6
CONTINUOUS
 10
16.2485406223
 20
-17.8690583859
 11
16.2643993996
 21
-18.0334432053
  0
LWPOLYLINE
  5
432
100
AcDbEntity
  8
SCRITTA_VIMAR
100
AcDbPolyline
 62
250
  6
CONTINUOUS
 90
5
 70
0
 10
15.9944495756
 20
-17.8330173407
 10
15.9814523803
 20
-17.6915923968
 10
15.9739540184
 20
-17.6058645358
 10
15.9667248043
 20
-17.5196335828
 10
15.9598025345
 20
-17.4330349458
  0
LWPOLYLINE
  5
433
100
AcDbEntity
  8
SCRITTA_VIMAR
100
AcDbPolyline
 62
250
  6
CONTINUOUS
 90
6
 70
0
 10
17.2229964696
 20
-17.8211614575
 10
17.2301653905
 20
-17.9076400836
 10
17.2376513069
 20
-17.9936795363
 10
17.2453991144
 20
-18.0791523607
 10
17.2533537085
 20
-18.1639311015
 10
17.2642313522
 20
-18.275929985
  0
LWPOLYLINE
  5
434
100
AcDbEntity
  8
SCRITTA_VIMAR
100
AcDbPolyline
 62
250
  6
CONTINUOUS
 90
6
 70
0
 10
15.7017955408
 20
-17.3533554227
 10
15.7087064395
 20
-17.4398608006
 10
15.7159206467
 20
-17.5260264
 10
15.7234029311
 20
-17.6117158588
 10
15.7311180614
 20
-17.6967928147
 10
15.7417409154
 20
-17.8092851309
  0
LINE
  5
435
100
AcDbEntity
  8
RACCORDO
100
AcDbLine
 62
250
  6
CONTINUOUS
 10
16.7712729086
 20
-14.2557267408
 11
16.7795375546
 21
-14.587952507
  0
LINE
  5
436
100
AcDbEntity
  8
RACCORDO
100
AcDbLine
 62
7
  6
CONTINUOUS
 10
16.7781054296
 20
-14.2495743227
 11
16.7860226988
 21
-14.5678360863
  0
LINE
  5
437
100
AcDbEntity
  8
RACCORDO
100
AcDbLine
 62
250
  6
CONTINUOUS
 10
16.7860226988
 20
-14.5678360863
 11
16.7859937457
 21
-14.5695141128
  0
LINE
  5
438
100
AcDbEntity
  8
RACCORDO
100
AcDbLine
 62
7
  6
CONTINUOUS
 10
30.2766117059
 20
6.8586931482
 11
-30.5152491687
 21
25.5272846739
  0
LWPOLYLINE
  5
439
100
AcDbEntity
  8
RACCORDO
100
AcDbPolyline
 62
250
  6
CONTINUOUS
 90
28
 70
0
 10
29.0484850639
 20
5.3956581796
 10
29.1603075711
 20
5.3579902087
 10
29.2704307058
 20
5.3128793152
 10
29.3781450957
 20
5.2608575489
 10
29.4838447616
 20
5.2017901371
 10
29.5858034341
 20
5.1368244261
 10
29.6804582343
 20
5.0689877172
 10
29.766389309
 20
5.0003529715
 10
29.8449127693
 20
4.9309375538
 10
29.9169278907
 20
4.860979373
 10
29.9825759128
 20
4.7910819187
 10
30.041938131
 20
4.7218455672
 10
30.0957507485
 20
4.6532532388
 10
30.1442728058
 20
4.5855870068
 10
30.1876049102
 20
4.5192998777
 10
30.2261808107
 20
4.4545003863
 10
30.2602249508
 20
4.3914434224
 10
30.2899775405
 20
4.3303233001
 10
30.3158507075
 20
4.2710879392
 10
30.3380755759
 20
4.2138822643
 10
30.3568865545
 20
4.1588061103
 10
30.3726365717
 20
4.1056994026
 10
30.3855369955
 20
4.0546270455
 10
30.3957915764
 20
4.005637927
 10
30.4036730714
 20
3.958530226
 10
30.4093745339
 20
3.9132516135
 10
30.4130454893
 20
3.8698928192
 10
30.4148584895
 20
3.8284551926
  0
LINE
  5
43A
100
AcDbEntity
  8
SCRITTA_VIMAR
100
AcDbLine
 62
250
  6
CONTINUOUS
 10
17.0678442758
 20
-18.7719328488
 11
17.0542251559
 21
-18.6562184617
  0
LINE
  5
43B
100
AcDbEntity
  8
SCRITTA_VIMAR
100
AcDbLine
 62
250
  6
CONTINUOUS
 10
17.3130524014
 20
-18.7322049189
 11
17.3269383644
 21
-18.8502653763
  0
LINE
  5
43C
100
AcDbEntity
  8
SCRITTA_VIMAR
100
AcDbLine
 62
250
  6
CONTINUOUS
 10
18.7692340298
 20
-19.2771925751
 11
18.7513737192
 21
-19.1243855112
  0
LINE
  5
43D
100
AcDbEntity
  8
SCRITTA_VIMAR
100
AcDbLine
 62
250
  6
CONTINUOUS
 10
19.0101066224
 20
-19.1759403477
 11
19.0306180307
 21
-19.3526603866
  0
LINE
  5
43E
100
AcDbEntity
  8
SCRITTA_VIMAR
100
AcDbLine
 62
250
  6
CONTINUOUS
 10
17.0542251559
 20
-18.6562184617
 11
17.0412859783
 21
-18.5417470571
  0
LINE
  5
43F
100
AcDbEntity
  8
SCRITTA_VIMAR
100
AcDbLine
 62
250
  6
CONTINUOUS
 10
17.2998584993
 20
-18.6154825744
 11
17.3130524014
 21
-18.7322049189
  0
LINE
  5
440
100
AcDbEntity
  8
SCRITTA_VIMAR
100
AcDbLine
 62
250
  6
CONTINUOUS
 10
18.7513737192
 20
-19.1243855112
 11
18.7345486807
 21
-18.9748904506
  0
LINE
  5
441
100
AcDbEntity
  8
SCRITTA_VIMAR
100
AcDbLine
 62
250
  6
CONTINUOUS
 10
18.9955259336
 20
-19.045748626
 11
19.0101066224
 21
-19.1759403477
  0
LINE
  5
442
100
AcDbEntity
  8
0
100
AcDbLine
 62
7
  6
CONTINUOUS
 10
18.1063546196
 20
0.6085743284
 11
18.1065381748
 21
0.6054418625
  0
LWPOLYLINE
  5
443
100
AcDbEntity
  8
RACCORDO
100
AcDbPolyline
 62
250
  6
CONTINUOUS
 90
18
 70
0
 10
18.5364786657
 20
-16.6817354925
 10
18.5370780825
 20
-16.6929975458
 10
18.5424896172
 20
-16.7257372331
 10
18.5532987965
 20
-16.7578599181
 10
18.5693874384
 20
-16.7890143881
 10
18.5905796381
 20
-16.8188600162
 10
18.6166436909
 20
-16.8470704858
 10
18.6472946261
 20
-16.8733373581
 10
18.682197322
 20
-16.8973734448
 10
18.7209701708
 20
-16.9189159478
 10
18.7631892501
 20
-16.9377293323
 10
18.8083929584
 20
-16.9536079027
 10
18.8560756764
 20
-16.9663754438
 10
18.9057265327
 20
-16.9758964839
 10
18.9568390752
 20
-16.982070104
 10
19.0088685372
 20
-16.9848218759
 10
19.0612339038
 20
-16.9841125798
 10
19.1133602583
 20
-16.9799427614
  0
LWPOLYLINE
  5
444
100
AcDbEntity
  8
RACCORDO
100
AcDbPolyline
 62
250
  6
CONTINUOUS
 90
18
 70
0
 10
18.1063546196
 20
0.6085743284
 10
18.1069537304
 20
0.597316023
 10
18.1123644613
 20
0.5645770255
 10
18.1231726035
 20
0.5324549535
 10
18.1392599916
 20
0.5013009973
 10
18.1604507424
 20
0.4714557626
 10
18.1865131779
 20
0.443245547
 10
18.2171623577
 20
0.4169787723
 10
18.2520631949
 20
0.3929426127
 10
18.2908341191
 20
0.3713998554
 10
18.3330512482
 20
0.3525860268
 10
18.3782530232
 20
0.3367068184
 10
18.4259330051
 20
0.3239386424
 10
18.4755811696
 20
0.3144166581
 10
18.5266938793
 20
0.3082415481
 10
18.5787274588
 20
0.3054882788
 10
18.6310999529
 20
0.3061967789
 10
18.7818057444
 20
0.318614234
  0
LWPOLYLINE
  5
445
100
AcDbEntity
  8
RACCORDO
100
AcDbPolyline
 62
250
  6
CONTINUOUS
 90
4
 70
0
 10
19.5550096686
 20
0.2369457354
 10
19.5641440706
 20
-0.067816653
 10
19.573043674
 20
-0.3837472287
 10
19.5818605371
 20
-0.7107690615
  0
LINE
  5
446
100
AcDbEntity
  8
RACCORDO
100
AcDbLine
 62
250
  6
CONTINUOUS
 10
19.0963339342
 20
-16.3593237693
 11
19.1133602583
 21
-16.9799427614
  0
LINE
  5
447
100
AcDbEntity
  8
RACCORDO
100
AcDbLine
 62
250
  6
CONTINUOUS
 10
19.0786858732
 20
-15.6942910831
 11
19.0963339342
 21
-16.3593237693
  0
LINE
  5
448
100
AcDbEntity
  8
RACCORDO
100
AcDbLine
 62
250
  6
CONTINUOUS
 10
19.0603598141
 20
-14.9855775837
 11
19.0786858732
 21
-15.6942910831
  0
LINE
  5
449
100
AcDbEntity
  8
RACCORDO
100
AcDbLine
 62
250
  6
CONTINUOUS
 10
19.5818605371
 20
-0.7107690615
 11
19.5997022143
 21
-1.3984994276
  0
LINE
  5
44A
100
AcDbEntity
  8
RACCORDO
100
AcDbLine
 62
250
  6
CONTINUOUS
 10
18.8909505988
 20
-8.3355897819
 11
19.0603598141
 21
-14.9855775837
  0
LWPOLYLINE
  5
44B
100
AcDbEntity
  8
RACCORDO
100
AcDbPolyline
 62
250
  6
CONTINUOUS
 90
3
 70
0
 10
19.7732831676
 20
-8.4136063159
 10
19.8912300076
 20
-13.1092547039
 10
19.9014711193
 20
-13.5188491277
  0
LINE
  5
44C
100
AcDbEntity
  8
RACCORDO
100
AcDbLine
 62
250
  6
CONTINUOUS
 10
19.5997022143
 20
-1.3984994276
 11
19.6276026953
 21
-2.5083773173
  0
LINE
  5
44D
100
AcDbEntity
  8
0
100
AcDbLine
 62
7
  6
CONTINUOUS
 10
18.5364786657
 20
-16.6817354925
 11
18.1063546196
 21
0.6085743284
  0
LINE
  5
44E
100
AcDbEntity
  8
RACCORDO
100
AcDbLine
 62
250
  6
CONTINUOUS
 10
19.9014711193
 20
-13.5188491277
 11
19.9211352925
 21
-14.307920895
  0
LINE
  5
44F
100
AcDbEntity
  8
RACCORDO
100
AcDbLine
 62
250
  6
CONTINUOUS
 10
19.6276026953
 20
-2.5083773173
 11
19.6893168712
 21
-5.0023050381
  0
LINE
  5
450
100
AcDbEntity
  8
RACCORDO
100
AcDbLine
 62
250
  6
CONTINUOUS
 10
19.6893168712
 20
-5.0023050381
 11
19.7732832235
 21
-8.4136061189
  0
LINE
  5
451
100
AcDbEntity
  8
RACCORDO
100
AcDbLine
 62
250
  6
CONTINUOUS
 10
19.9211352925
 20
-14.307920895
 11
19.9483839114
 21
-15.4149493362
  0
LINE
  5
452
100
AcDbEntity
  8
RACCORDO
100
AcDbLine
 62
250
  6
CONTINUOUS
 10
18.7125314768
 20
-0.9754304424
 11
18.8909505988
 21
-8.3355897819
  0
LWPOLYLINE
  5
453
100
AcDbEntity
  8
RACCORDO
100
AcDbPolyline
 62
250
  6
CONTINUOUS
 90
5
 70
0
 10
19.9483839114
 20
-15.4149493362
 10
19.9646850252
 20
-16.0997196912
 10
19.9720876396
 20
-16.424669337
 10
19.9788380528
 20
-16.7378408539
 10
19.9847731109
 20
-17.0388564323
  0
LINE
  5
454
100
AcDbEntity
  8
RACCORDO
100
AcDbLine
 62
250
  6
CONTINUOUS
 10
18.6970911107
 20
-0.3103652251
 11
18.7125314768
 21
-0.9754304424
  0
LINE
  5
455
100
AcDbEntity
  8
RACCORDO
100
AcDbLine
 62
250
  6
CONTINUOUS
 10
18.6832362121
 20
0.3103670595
 11
18.6970911107
 21
-0.3103652251
  0
LWPOLYLINE
  5
456
100
AcDbEntity
  8
RACCORDO
100
AcDbPolyline
 62
250
  6
CONTINUOUS
 90
76
 70
0
 10
19.1133602583
 20
-16.9799427614
 10
19.1136004565
 20
-17.0092200906
 10
19.1124858436
 20
-17.0373375843
 10
19.1101164566
 20
-17.0642839272
 10
19.1065985513
 20
-17.0899715446
 10
19.1020306611
 20
-17.1144870558
 10
19.0964663155
 20
-17.1380754564
 10
19.0899144255
 20
-17.160891809
 10
19.0824774115
 20
-17.1827690192
 10
19.0743468512
 20
-17.2034797736
 10
19.0656407895
 20
-17.2230188384
 10
19.0564222488
 20
-17.2414477472
 10
19.0468435033
 20
-17.2586739211
 10
19.0370523201
 20
-17.2746601313
 10
19.0270933433
 20
-17.289537069
 10
19.016958964
 20
-17.3034660986
 10
19.0067163071
 20
-17.3164830987
 10
18.9964293568
 20
-17.3286256434
 10
18.9860540952
 20
-17.3400377332
 10
18.9756205914
 20
-17.3507619865
 10
18.9651871301
 20
-17.3608102816
 10
18.954730411
 20
-17.3702652273
 10
18.9442752097
 20
-17.3791569151
 10
18.9338624349
 20
-17.3875002161
 10
18.9234815723
 20
-17.3953464763
 10
18.9131583891
 20
-17.4027157415
 10
18.9029188202
 20
-17.4096273092
 10
18.8927451565
 20
-17.4161254986
 10
18.882640627
 20
-17.4222372518
 10
18.8726414366
 20
-17.4279682112
 10
18.8627760077
 20
-17.4333284689
 10
18.8530482082
 20
-17.4383421928
 10
18.8434895204
 20
-17.4430182398
 10
18.8341715735
 20
-17.4473470396
 10
18.8251374421
 20
-17.4513377491
 10
18.8163794321
 20
-17.4550192745
 10
18.8078935394
 20
-17.4584131388
 10
18.7997388371
 20
-17.4615190244
 10
18.791885023
 20
-17.4643707957
 10
18.78418793
 20
-17.4670334712
 10
18.7766671895
 20
-17.4695115382
 10
18.7693185758
 20
-17.4718183229
 10
18.761952473
 20
-17.4740186082
 10
18.7545748519
 20
-17.4761130872
 10
18.7471842194
 20
-17.4781040507
 10
18.7395703121
 20
-17.4800443426
 10
18.7317147948
 20
-17.4819304884
 10
18.7236310955
 20
-17.4837535672
 10
18.7151481555
 20
-17.4855444734
 10
18.706204904
 20
-17.4873001632
 10
18.6968493174
 20
-17.4889956216
 10
18.687069582
 20
-17.4906212891
 10
18.6768593395
 20
-17.4921630301
 10
18.6662120134
 20
-17.4936039606
 10
18.6551149707
 20
-17.4949288014
 10
18.6435727809
 20
-17.4961191245
 10
18.6315688333
 20
-17.4971586047
 10
18.6190579059
 20
-17.4980319895
 10
18.6060337254
 20
-17.4987182069
 10
18.5924902345
 20
-17.4991955288
 10
18.5783811472
 20
-17.4994425701
 10
18.5636871546
 20
-17.4994336793
 10
18.5484160963
 20
-17.499142432
 10
18.5325621754
 20
-17.4985427831
 10
18.5160830059
 20
-17.4976058493
 10
18.4990132295
 20
-17.4963024282
 10
18.481466598
 20
-17.4946121688
 10
18.4635713
 20
-17.4925304702
 10
18.4452046202
 20
-17.4900226521
 10
18.4261058206
 20
-17.4870147769
 10
18.4062626663
 20
-17.4834639596
 10
18.3856953466
 20
-17.4793345408
 10
18.3641905587
 20
-17.4745324869
 10
18.3416831972
 20
-17.4689825163
 10
18.3182586493
 20
-17.4626443142
 10
18.2939328166
 20
-17.4554604057
  0
LWPOLYLINE
  5
457
100
AcDbEntity
  8
RACCORDO
100
AcDbPolyline
 62
250
  6
CONTINUOUS
 90
6
 70
0
 10
16.7795375546
 20
-14.587952507
 10
16.7793678544
 20
-14.5938641697
 10
16.7784460446
 20
-14.5995098397
 10
16.7767822726
 20
-14.6048273678
 10
16.7743945243
 20
-14.6097587839
 10
16.7730082024
 20
-14.6119584714
  0
LWPOLYLINE
  5
458
100
AcDbEntity
  8
RACCORDO
100
AcDbPolyline
 62
250
  6
CONTINUOUS
 90
5
 70
0
 10
16.7859937457
 20
-14.5695141128
 10
16.7855395648
 20
-14.5740042265
 10
16.7842863123
 20
-14.5787631778
 10
16.7822787226
 20
-14.5834286182
 10
16.7795375546
 20
-14.587952507
  0
LWPOLYLINE
  5
459
100
AcDbEntity
  8
RACCORDO
100
AcDbPolyline
 62
250
  6
CONTINUOUS
 90
9
 70
0
 10
17.849671854
 20
1.3984671398
 10
17.8698244309
 20
1.4894976497
 10
17.8875609018
 20
1.5798544208
 10
17.9028104847
 20
1.6691768372
 10
17.9155123225
 20
1.7571084112
 10
17.9256157261
 20
1.8432982061
 10
17.9330803763
 20
1.9274022369
 10
17.9378764851
 20
2.0090848426
 10
17.9399849141
 20
2.0880200266
  0
LINE
  5
45A
100
AcDbEntity
  8
DRAFT
100
AcDbLine
 62
7
  6
CONTINUOUS
 10
16.3513743
 20
-14.8342248792
 11
16.3804949827
 21
-14.732306401
  0
LINE
  5
45B
100
AcDbEntity
  8
SCRITTA_VIMAR
100
AcDbLine
 62
250
  6
CONTINUOUS
 10
14.7953811051
 20
-17.7673243392
 11
14.8416622799
 21
-17.6321591585
  0
LWPOLYLINE
  5
45C
100
AcDbEntity
  8
SCRITTA_VIMAR
100
AcDbPolyline
 62
250
  6
CONTINUOUS
 90
3
 70
0
 10
14.8416622799
 20
-17.6321591585
 10
14.8934334051
 20
-17.482549698
 10
14.9077642986
 20
-17.4414254182
  0
LINE
  5
45D
100
AcDbEntity
  8
DRAFT
100
AcDbLine
 62
7
  6
CONTINUOUS
 10
13.5935478922
 20
-13.9827702094
 11
13.6281867862
 21
-13.8870992181
  0
LINE
  5
45E
100
AcDbEntity
  8
DRAFT
100
AcDbLine
 62
7
  6
CONTINUOUS
 10
13.7187778604
 20
-13.8440466859
 11
13.7534167545
 21
-13.7483756945
  0
LINE
  5
45F
100
AcDbEntity
  8
DRAFT
100
AcDbLine
 62
7
  6
CONTINUOUS
 10
13.8440078287
 20
-13.7053231624
 11
13.8786467227
 21
-13.609652171
  0
LINE
  5
460
100
AcDbEntity
  8
DRAFT
100
AcDbLine
 62
7
  6
CONTINUOUS
 10
13.969237797
 20
-13.5665996388
 11
14.003876691
 21
-13.4709286474
  0
LINE
  5
461
100
AcDbEntity
  8
RACCORDO
100
AcDbLine
 62
250
  6
CONTINUOUS
 10
29.0484850639
 20
5.3956581796
 11
30.2766117059
 21
6.8586931482
  0
LINE
  5
462
100
AcDbEntity
  8
DRAFT
100
AcDbLine
 62
7
  6
CONTINUOUS
 10
14.0163996878
 20
-13.4570562951
 11
14.003876691
 21
-13.4709286474
  0
LINE
  5
463
100
AcDbEntity
  8
DRAFT
100
AcDbLine
 62
7
  6
CONTINUOUS
 10
13.92873871
 20
-13.5541627616
 11
13.8786467227
 21
-13.609652171
  0
LINE
  5
464
100
AcDbEntity
  8
DRAFT
100
AcDbLine
 62
7
  6
CONTINUOUS
 10
13.8035087418
 20
-13.6928862851
 11
13.7534167545
 21
-13.7483756945
  0
LINE
  5
465
100
AcDbEntity
  8
DRAFT
100
AcDbLine
 62
7
  6
CONTINUOUS
 10
13.6782787735
 20
-13.8316098087
 11
13.6281867862
 21
-13.8870992181
  0
LINE
  5
466
100
AcDbEntity
  8
DRAFT
100
AcDbLine
 62
7
  6
CONTINUOUS
 10
13.5530488053
 20
-13.9703333322
 11
13.5304708075
 21
-13.9953441139
  0
LWPOLYLINE
  5
467
100
AcDbEntity
  8
RACCORDO
100
AcDbPolyline
 62
250
  6
CONTINUOUS
 90
13
 70
0
 10
30.4148584895
 20
3.8284551926
 10
30.3829314719
 20
3.7986567675
 10
30.3456004325
 20
3.7713016663
 10
30.3033685699
 20
3.7467586143
 10
30.2568051426
 20
3.7253584323
 10
30.2065377957
 20
3.7073895772
 10
30.1532441009
 20
3.6930942536
 10
30.0976424232
 20
3.6826651497
 10
30.0404822374
 20
3.6762428393
 10
29.9825340265
 20
3.6739138872
 10
29.924578895
 20
3.6757096824
 10
29.8673980413
 20
3.681606015
 10
29.8117622264
 20
3.6915234025
  0
LINE
  5
468
100
AcDbEntity
  8
RACCORDO
100
AcDbLine
 62
7
  6
CONTINUOUS
 10
16.6963569613
 20
-14.2800452105
 11
16.7712729086
 21
-14.2557267408
  0
LWPOLYLINE
  5
469
100
AcDbEntity
  8
0
100
AcDbPolyline
 62
7
  6
CONTINUOUS
 90
18
 70
0
 10
18.1065381748
 20
0.6054418625
 10
18.1062982571
 20
0.6065961226
 10
18.1049188548
 20
0.6118378564
 10
18.101771785
 20
0.6208968919
 10
18.0964379086
 20
0.6331723419
 10
18.0887481546
 20
0.6478738097
 10
18.0786107161
 20
0.6643919218
 10
18.0659896828
 20
0.6822104969
 10
18.050958269
 20
0.700791822
 10
18.0336060879
 20
0.7196871253
 10
18.0142551774
 20
0.7383004583
 10
17.9934430717
 20
0.7559944434
 10
17.9716047171
 20
0.7723749592
 10
17.9492499614
 20
0.7870954958
 10
17.9271472161
 20
0.7997723869
 10
17.9059254885
 20
0.8102534952
 10
17.8860374855
 20
0.8185658766
 10
17.8679788827
 20
0.8247833466
  0
LWPOLYLINE
  5
46A
100
AcDbEntity
  8
RACCORDO
100
AcDbPolyline
 62
250
  6
CONTINUOUS
 90
76
 70
0
 10
19.9847718771
 20
-17.0388581165
 10
19.9844677465
 20
-17.0946357265
 10
19.9814855697
 20
-17.1481619201
 10
19.9760010524
 20
-17.1994579104
 10
19.9680658721
 20
-17.248427483
 10
19.9579775713
 20
-17.2952082018
 10
19.9463185072
 20
-17.340015185
 10
19.9335279071
 20
-17.3829377449
 10
19.9196529873
 20
-17.423545339
 10
19.90462478
 20
-17.4615573118
 10
19.8884928537
 20
-17.4971758257
 10
19.8714384889
 20
-17.530747174
 10
19.8536511288
 20
-17.5621583425
 10
19.8353750853
 20
-17.5912916627
 10
19.8167474667
 20
-17.6183144088
 10
19.7977873257
 20
-17.6435183613
 10
19.7786157857
 20
-17.666979382
 10
19.7593390085
 20
-17.6887813954
 10
19.7398973452
 20
-17.7091988228
 10
19.7203511139
 20
-17.7283081392
 10
19.7008052233
 20
-17.746127635
 10
19.6812282476
 20
-17.7628171244
 10
19.6616644072
 20
-17.7784342384
 10
19.6421862486
 20
-17.793008498
 10
19.6227849017
 20
-17.8066422516
 10
19.6035085358
 20
-17.8193732812
 10
19.5844032051
 20
-17.831237228
 10
19.56544084
 20
-17.8423241431
 10
19.5466207496
 20
-17.8526857746
 10
19.5280078244
 20
-17.8623350428
 10
19.5096744281
 20
-17.8712954715
 10
19.4916513051
 20
-17.8795999091
 10
19.4739848014
 20
-17.887272253
 10
19.4567409524
 20
-17.8943412913
 10
19.4399470715
 20
-17.9008317434
 10
19.4235602091
 20
-17.9068149388
 10
19.4075239495
 20
-17.9123915345
 10
19.391898051
 20
-17.9175793312
 10
19.3766218549
 20
-17.9224230266
 10
19.3614720007
 20
-17.9270367869
 10
19.3465075575
 20
-17.9314165651
 10
19.331741215
 20
-17.9355691957
 10
19.3168533025
 20
-17.9396054004
 10
19.3018417085
 20
-17.9435300145
 10
19.2867208306
 20
-17.9473329467
 10
19.2711925379
 20
-17.9510762142
 10
19.2552794649
 20
-17.9547852289
 10
19.2390534344
 20
-17.9583876203
 10
19.2223211615
 20
-17.9617717667
 10
19.2051227827
 20
-17.9648466064
 10
19.1876237124
 20
-17.967631429
 10
19.1696873979
 20
-17.9701950187
 10
19.1511551231
 20
-17.9725644109
 10
19.1318459533
 20
-17.9747250252
 10
19.111634603
 20
-17.9766635624
 10
19.0905535393
 20
-17.9783408991
 10
19.0686618331
 20
-17.9797159287
 10
19.0459016789
 20
-17.9807595262
 10
19.0222524692
 20
-17.9814414789
 10
18.9976862538
 20
-17.9817206389
 10
18.9721244551
 20
-17.9815447093
 10
18.9455521844
 20
-17.9808523427
 10
18.9179928787
 20
-17.9796150003
 10
18.8894284326
 20
-17.9778220644
 10
18.8598298631
 20
-17.9753565415
 10
18.8292086292
 20
-17.9722343388
 10
18.7974435966
 20
-17.9686278922
 10
18.764385172
 20
-17.9645701287
 10
18.7296069844
 20
-17.9598381154
 10
18.6927970614
 20
-17.9542134295
 10
18.6542147133
 20
-17.9476305149
 10
18.6142378846
 20
-17.9400704217
 10
18.5726603481
 20
-17.93133307
 10
18.5292935148
 20
-17.9212489003
 10
18.484116132
 20
-17.9097206696
 10
18.4371322342
 20
-17.8966281881
  0
LINE
  5
46B
100
AcDbEntity
  8
SCRITTA_VIMAR
100
AcDbLine
 62
250
  6
CONTINUOUS
 10
16.8809348213
 20
-18.4928703037
 11
16.8231251369
 21
-18.6975675568
  0
LINE
  5
46C
100
AcDbEntity
  8
DRAFT
100
AcDbLine
 62
7
  6
CONTINUOUS
 10
16.4532652608
 20
-14.6883341726
 11
16.4823859436
 21
-14.5864156944
  0
LINE
  5
46D
100
AcDbEntity
  8
DRAFT
100
AcDbLine
 62
7
  6
CONTINUOUS
 10
16.5551562217
 20
-14.5424434659
 11
16.5842769044
 21
-14.4405249877
  0
LINE
  5
46E
100
AcDbEntity
  8
DRAFT
100
AcDbLine
 62
7
  6
CONTINUOUS
 10
16.6570471825
 20
-14.3965527593
 11
16.6861678652
 21
-14.2946342811
  0
LINE
  5
46F
100
AcDbEntity
  8
SCRITTA_VIMAR
100
AcDbLine
 62
250
  6
CONTINUOUS
 10
16.9386401213
 20
-18.2926228272
 11
16.8809348213
 21
-18.4928703037
  0
LINE
  5
470
100
AcDbEntity
  8
SCRITTA_VIMAR
100
AcDbLine
 62
250
  6
CONTINUOUS
 10
16.653885215
 20
-18.3038099644
 11
16.6967960199
 21
-18.1560099914
  0
LINE
  5
471
100
AcDbEntity
  8
SCRITTA_VIMAR
100
AcDbLine
 62
250
  6
CONTINUOUS
 10
16.6967960199
 20
-18.1560099914
 11
16.7343438197
 21
-18.0281482579
  0
LINE
  5
472
100
AcDbEntity
  8
SCRITTA_VIMAR
100
AcDbLine
 62
250
  6
CONTINUOUS
 10
16.9957063572
 20
-18.0978082262
 11
16.9386401213
 21
-18.2926228272
  0
LINE
  5
473
100
AcDbEntity
  8
SCRITTA_VIMAR
100
AcDbLine
 62
250
  6
CONTINUOUS
 10
16.7343438197
 20
-18.0281482579
 11
16.7697582009
 21
-17.908838589
  0
LINE
  5
474
100
AcDbEntity
  8
SCRITTA_VIMAR
100
AcDbLine
 62
250
  6
CONTINUOUS
 10
16.7697582009
 20
-17.908838589
 11
16.8067205679
 21
-17.7857239301
  0
LINE
  5
475
100
AcDbEntity
  8
SCRITTA_VIMAR
100
AcDbLine
 62
250
  6
CONTINUOUS
 10
16.8067205679
 20
-17.7857239301
 11
16.8322616303
 21
-17.7015587857
  0
LINE
  5
476
100
AcDbEntity
  8
SCRITTA_VIMAR
100
AcDbLine
 62
250
  6
CONTINUOUS
 10
15.029054502
 20
-17.9183639063
 11
14.9602545733
 21
-18.1233013611
  0
LINE
  5
477
100
AcDbEntity
  8
SCRITTA_VIMAR
100
AcDbLine
 62
250
  6
CONTINUOUS
 10
15.0972091344
 20
-17.7186923135
 11
15.029054502
 21
-17.9183639063
  0
LINE
  5
478
100
AcDbEntity
  8
SCRITTA_VIMAR
100
AcDbLine
 62
250
  6
CONTINUOUS
 10
15.1654425658
 20
-17.5218376232
 11
15.0972091344
 21
-17.7186923135
  0
LINE
  5
479
100
AcDbEntity
  8
SCRITTA_VIMAR
100
AcDbLine
 62
250
  6
CONTINUOUS
 10
14.9077642986
 20
-17.4414254182
 11
14.9518978843
 21
-17.3155707697
  0
LINE
  5
47A
100
AcDbEntity
  8
SCRITTA_VIMAR
100
AcDbLine
 62
250
  6
CONTINUOUS
 10
15.2180233726
 20
-17.3720578288
 11
15.1654425658
 21
-17.5218376232
  0
LWPOLYLINE
  5
47B
100
AcDbEntity
  8
SCRITTA_VIMAR
100
AcDbPolyline
 62
250
  6
CONTINUOUS
 90
3
 70
0
 10
14.9518978843
 20
-17.3155707697
 10
14.9981158214
 20
-17.1850466805
 10
15.0139628977
 20
-17.1406002916
  0
LINE
  5
47C
100
AcDbEntity
  8
SCRITTA_VIMAR
100
AcDbLine
 62
250
  6
CONTINUOUS
 10
15.2718775082
 20
-17.2204157335
 11
15.2180233726
 21
-17.3720578288
  0
LWPOLYLINE
  5
47D
100
AcDbEntity
  8
RACCORDO
100
AcDbPolyline
 62
250
  6
CONTINUOUS
 90
13
 70
0
 10
29.0484862374
 20
5.3956378181
 10
29.0245315727
 20
5.3573606803
 10
29.0011861244
 20
5.31460928
 10
28.9787626612
 20
5.2679563745
 10
28.9575615998
 20
5.2180269913
 10
28.93786698
 20
5.165490054
 10
28.9199426598
 20
5.1110494205
 10
28.9040287801
 20
5.0554344532
 10
28.890338548
 20
4.9993902473
 10
28.87905538
 20
4.9436676485
 10
28.870330445
 20
4.8890131936
 10
28.8642806389
 20
4.8361591089
 10
28.8609870184
 20
4.7858135003
  0
LINE
  5
47E
100
AcDbEntity
  8
RACCORDO
100
AcDbLine
 62
250
  6
CONTINUOUS
 10
16.5510711686
 20
-14.9229412214
 11
16.7795375546
 21
-14.587952507
  0
LINE
  5
47F
100
AcDbEntity
  8
RACCORDO
100
AcDbLine
 62
7
  6
CONTINUOUS
 10
16.5592096571
 20
-14.9254404723
 11
16.7730073498
 21
-14.6119597215
  0
LINE
  5
480
100
AcDbEntity
  8
DRAFT
100
AcDbLine
 62
7
  6
CONTINUOUS
 10
16.6963569613
 20
-14.2800452105
 11
16.6861678652
 21
-14.2946342811
  0
LINE
  5
481
100
AcDbEntity
  8
DRAFT
100
AcDbLine
 62
7
  6
CONTINUOUS
 10
16.6250332887
 20
-14.3821687051
 11
16.5842769044
 21
-14.4405249877
  0
LINE
  5
482
100
AcDbEntity
  8
DRAFT
100
AcDbLine
 62
7
  6
CONTINUOUS
 10
16.5231423279
 20
-14.5280594117
 11
16.4823859436
 21
-14.5864156944
  0
LINE
  5
483
100
AcDbEntity
  8
DRAFT
100
AcDbLine
 62
7
  6
CONTINUOUS
 10
16.4212513671
 20
-14.6739501183
 11
16.3804949827
 21
-14.732306401
  0
LINE
  5
484
100
AcDbEntity
  8
DRAFT
100
AcDbLine
 62
7
  6
CONTINUOUS
 10
16.3193604062
 20
-14.819840825
 11
16.3009902516
 21
-14.8461437945
  0
LINE
  5
485
100
AcDbEntity
  8
RACCORDO
100
AcDbLine
 62
250
  6
CONTINUOUS
 10
30.4148584895
 20
3.8284551926
 11
31.6396775918
 21
5.2875499762
  0
LINE
  5
486
100
AcDbEntity
  8
SCRITTA_VIMAR
100
AcDbLine
 62
250
  6
CONTINUOUS
 10
17.4998250582
 20
-18.9022883194
 11
17.5521971904
 21
-18.7467937896
  0
LINE
  5
487
100
AcDbEntity
  8
SCRITTA_VIMAR
100
AcDbLine
 62
250
  6
CONTINUOUS
 10
17.818272177
 20
-18.8054768766
 11
17.7594122003
 21
-18.979999784
  0
LINE
  5
488
100
AcDbEntity
  8
SCRITTA_VIMAR
100
AcDbLine
 62
250
  6
CONTINUOUS
 10
17.5521971904
 20
-18.7467937896
 11
17.6039843937
 21
-18.5947017725
  0
LINE
  5
489
100
AcDbEntity
  8
SCRITTA_VIMAR
100
AcDbLine
 62
250
  6
CONTINUOUS
 10
17.6039843937
 20
-18.5947017725
 11
17.654847737
 21
-18.4467126307
  0
LINE
  5
48A
100
AcDbEntity
  8
SCRITTA_VIMAR
100
AcDbLine
 62
250
  6
CONTINUOUS
 10
17.9705307383
 20
-18.3626303396
 11
17.8763317227
 21
-18.6353731364
  0
LINE
  5
48B
100
AcDbEntity
  8
SCRITTA_VIMAR
100
AcDbLine
 62
250
  6
CONTINUOUS
 10
17.654847737
 20
-18.4467126307
 11
17.7057595458
 21
-18.2998049786
  0
LINE
  5
48C
100
AcDbEntity
  8
SCRITTA_VIMAR
100
AcDbLine
 62
250
  6
CONTINUOUS
 10
17.7057595458
 20
-18.2998049786
 11
17.7577766481
 21
-18.150845217
  0
LINE
  5
48D
100
AcDbEntity
  8
SCRITTA_VIMAR
100
AcDbLine
 62
250
  6
CONTINUOUS
 10
17.7577766481
 20
-18.150845217
 11
17.8109826246
 21
-17.9999726427
  0
LWPOLYLINE
  5
48E
100
AcDbEntity
  8
RACCORDO
100
AcDbPolyline
 62
250
  6
CONTINUOUS
 90
18
 70
0
 10
18.3681923067
 20
-16.7582409878
 10
18.3473760221
 20
-16.803556825
 10
18.3279197856
 20
-16.8510022818
 10
18.3100395555
 20
-16.900050728
 10
18.2939337969
 20
-16.950157741
 10
18.2797812787
 20
-17.0007671482
 10
18.2677390896
 20
-17.0513172008
 10
18.2579408941
 20
-17.1012468086
 10
18.2504954493
 20
-17.1500017682
 10
18.2454853974
 20
-17.1970409147
 10
18.2429663482
 20
-17.2418421277
 10
18.2429662626
 20
-17.2839081277
 10
18.245485141
 20
-17.3227719905
 10
18.2504950246
 20
-17.3580023444
 10
18.2579403081
 20
-17.3892081535
 10
18.267738355
 20
-17.4160430412
 10
18.2797804116
 20
-17.4382091395
 10
18.2939328166
 20
-17.4554604057
  0
LWPOLYLINE
  5
48F
100
AcDbEntity
  8
RACCORDO
100
AcDbPolyline
 62
250
  6
CONTINUOUS
 90
5
 70
0
 10
18.4602651978
 20
-16.6078641853
 10
18.4364309517
 20
-16.6399497479
 10
18.4129682712
 20
-16.6759809185
 10
18.390137585
 20
-16.7155577621
 10
18.3681923067
 20
-16.7582409878
  0
LINE
  5
490
100
AcDbEntity
  8
ASSI
100
AcDbLine
 62
250
  6
CONTINUOUS
 10
17.2625125002
 20
-15.1414179619
 11
16.9672552924
 21
-15.5114164611
  0
LINE
  5
491
100
AcDbEntity
  8
ASSI
100
AcDbLine
 62
250
  6
CONTINUOUS
 10
18.0648271621
 20
-15.6763361601
 11
17.9545011213
 21
-15.8145900908
  0
LINE
  5
492
100
AcDbEntity
  8
ASSI
100
AcDbLine
 62
250
  6
CONTINUOUS
 10
18.5323925132
 20
-16.5174785901
 11
18.4602651978
 21
-16.6078641853
  0
LINE
  5
493
100
AcDbEntity
  8
RACCORDO
100
AcDbLine
 62
250
  6
CONTINUOUS
 10
29.8217661689
 20
3.5058553694
 11
29.8243930801
 21
3.4677736853
  0
LINE
  5
494
100
AcDbEntity
  8
RACCORDO
100
AcDbLine
 62
250
  6
CONTINUOUS
 10
29.8181512483
 20
3.5640218664
 11
29.8217661689
 21
3.5058553694
  0
LWPOLYLINE
  5
495
100
AcDbEntity
  8
RACCORDO
100
AcDbPolyline
 62
250
  6
CONTINUOUS
 90
3
 70
0
 10
29.8243930801
 20
3.4677736853
 10
29.8254945355
 20
3.4487565707
 10
29.8262078914
 20
3.4296765352
  0
LINE
  5
496
100
AcDbEntity
  8
RACCORDO
100
AcDbLine
 62
250
  6
CONTINUOUS
 10
29.8159236615
 20
3.6042065218
 11
29.8181512483
 21
3.5640218664
  0
LINE
  5
497
100
AcDbEntity
  8
RACCORDO
100
AcDbLine
 62
250
  6
CONTINUOUS
 10
29.8137946755
 20
3.6466319803
 11
29.8159236615
 21
3.6042065218
  0
LINE
  5
498
100
AcDbEntity
  8
RACCORDO
100
AcDbLine
 62
250
  6
CONTINUOUS
 10
29.8117622264
 20
3.6915234025
 11
29.8137946755
 21
3.6466319803
  0
LINE
  5
499
100
AcDbEntity
  8
RACCORDO
100
AcDbLine
 62
250
  6
CONTINUOUS
 10
31.1203268937
 20
-24.5841966128
 11
31.1236432108
 21
-24.6635752759
  0
LINE
  5
49A
100
AcDbEntity
  8
RACCORDO
100
AcDbLine
 62
250
  6
CONTINUOUS
 10
31.1176403941
 20
-24.5112506349
 11
31.1203268937
 21
-24.5841966128
  0
LWPOLYLINE
  5
49B
100
AcDbEntity
  8
RACCORDO
100
AcDbPolyline
 62
250
  6
CONTINUOUS
 90
4
 70
0
 10
31.1137294101
 20
-24.3828756148
 10
31.1142910524
 20
-24.4022980953
 10
31.1148351928
 20
-24.4211341062
 10
31.1176403941
 20
-24.5112506349
  0
LWPOLYLINE
  5
49C
100
AcDbEntity
  8
RACCORDO
100
AcDbPolyline
 62
250
  6
CONTINUOUS
 90
4
 70
0
 10
31.0079503041
 20
-20.7368924165
 10
31.0111488904
 20
-20.8477802841
 10
31.014271985
 20
-20.9559030337
 10
31.1137294101
 20
-24.3828756148
  0
LWPOLYLINE
  5
49D
100
AcDbEntity
  8
RACCORDO
100
AcDbPolyline
 62
250
  6
CONTINUOUS
 90
3
 70
0
 10
30.9978919503
 20
-20.3869201253
 10
31.0013234838
 20
-20.5065723046
 10
31.0079503041
 20
-20.7368924165
  0
LINE
  5
49E
100
AcDbEntity
  8
RACCORDO
100
AcDbLine
 62
250
  6
CONTINUOUS
 10
30.9907886066
 20
-20.1383647747
 11
30.9978919503
 21
-20.3869201253
  0
LINE
  5
49F
100
AcDbEntity
  8
RACCORDO
100
AcDbLine
 62
250
  6
CONTINUOUS
 10
30.9833548542
 20
-19.8768194313
 11
30.9907886066
 21
-20.1383647747
  0
LINE
  5
4A0
100
AcDbEntity
  8
RACCORDO
100
AcDbLine
 62
250
  6
CONTINUOUS
 10
30.9755789969
 20
-19.6014596321
 11
30.9833548542
 21
-19.8768194313
  0
LINE
  5
4A1
100
AcDbEntity
  8
RACCORDO
100
AcDbLine
 62
250
  6
CONTINUOUS
 10
29.9577890977
 20
-1.178566923
 11
29.9823588771
 21
-2.0568903567
  0
LINE
  5
4A2
100
AcDbEntity
  8
RACCORDO
100
AcDbLine
 62
250
  6
CONTINUOUS
 10
30.963255076
 20
-19.1611228943
 11
30.9755789969
 21
-19.6014596321
  0
LINE
  5
4A3
100
AcDbEntity
  8
RACCORDO
100
AcDbLine
 62
250
  6
CONTINUOUS
 10
30.9501072612
 20
-18.6854515976
 11
30.963255076
 21
-19.1611228943
  0
LINE
  5
4A4
100
AcDbEntity
  8
RACCORDO
100
AcDbLine
 62
250
  6
CONTINUOUS
 10
29.9823588771
 20
-2.0568903567
 11
30.0054727104
 21
-2.8988668404
  0
LINE
  5
4A5
100
AcDbEntity
  8
RACCORDO
100
AcDbLine
 62
250
  6
CONTINUOUS
 10
30.0054727104
 20
-2.8988668404
 11
30.0258091904
 21
-3.6543794363
  0
LINE
  5
4A6
100
AcDbEntity
  8
RACCORDO
100
AcDbLine
 62
250
  6
CONTINUOUS
 10
30.9212059122
 20
-17.6158243231
 11
30.9501072612
 21
-18.6854515976
  0
LINE
  5
4A7
100
AcDbEntity
  8
RACCORDO
100
AcDbLine
 62
250
  6
CONTINUOUS
 10
30.0258091904
 20
-3.6543794363
 11
30.0478727487
 21
-4.4917160028
  0
LINE
  5
4A8
100
AcDbEntity
  8
RACCORDO
100
AcDbLine
 62
250
  6
CONTINUOUS
 10
30.0478727487
 20
-4.4917160028
 11
30.0717612389
 21
-5.4195657609
  0
LWPOLYLINE
  5
4A9
100
AcDbEntity
  8
RACCORDO
100
AcDbPolyline
 62
250
  6
CONTINUOUS
 90
3
 70
0
 10
30.8768006759
 20
-15.9036359723
 10
30.8827498931
 20
-16.1377227231
 10
30.9212059122
 20
-17.6158243231
  0
LINE
  5
4AA
100
AcDbEntity
  8
RACCORDO
100
AcDbLine
 62
250
  6
CONTINUOUS
 10
30.2361874813
 20
-12.051860425
 11
30.2767617073
 21
-13.6561620803
  0
LINE
  5
4AB
100
AcDbEntity
  8
RACCORDO
100
AcDbLine
 62
250
  6
CONTINUOUS
 10
30.0717612389
 20
-5.4195657609
 11
30.0844333814
 21
-5.9202858164
  0
LINE
  5
4AC
100
AcDbEntity
  8
RACCORDO
100
AcDbLine
 62
250
  6
CONTINUOUS
 10
30.2185339288
 20
-11.3476860042
 11
30.2361874813
 21
-12.051860425
  0
LINE
  5
4AD
100
AcDbEntity
  8
RACCORDO
100
AcDbLine
 62
250
  6
CONTINUOUS
 10
29.8262078914
 20
3.4296765352
 11
29.9577890977
 21
-1.178566923
  0
LINE
  5
4AE
100
AcDbEntity
  8
RACCORDO
100
AcDbLine
 62
250
  6
CONTINUOUS
 10
30.2767617073
 20
-13.6561620803
 11
30.3053065496
 21
-14.7959198627
  0
LINE
  5
4AF
100
AcDbEntity
  8
RACCORDO
100
AcDbLine
 62
250
  6
CONTINUOUS
 10
30.8517436935
 20
-14.904030377
 11
30.8768006759
 21
-15.9036359723
  0
LINE
  5
4B0
100
AcDbEntity
  8
RACCORDO
100
AcDbLine
 62
250
  6
CONTINUOUS
 10
30.6243162092
 20
-5.7618213153
 11
30.7063337106
 21
-9.0169834079
  0
LINE
  5
4B1
100
AcDbEntity
  8
RACCORDO
100
AcDbLine
 62
7
  6
CONTINUOUS
 10
31.0929335268
 20
-8.9435972712
 11
31.1469401335
 21
-11.1145778765
  0
LINE
  5
4B2
100
AcDbEntity
  8
RACCORDO
100
AcDbLine
 62
250
  6
CONTINUOUS
 10
30.0844333814
 20
-5.9202858164
 11
30.1113687924
 21
-7.0016408208
  0
LINE
  5
4B3
100
AcDbEntity
  8
RACCORDO
100
AcDbLine
 62
250
  6
CONTINUOUS
 10
30.7063337106
 20
-9.0169834079
 11
30.7693332879
 21
-11.5464578554
  0
LINE
  5
4B4
100
AcDbEntity
  8
RACCORDO
100
AcDbLine
 62
250
  6
CONTINUOUS
 10
30.8383837923
 20
-14.3636978652
 11
30.8517436935
 21
-14.904030377
  0
LINE
  5
4B5
100
AcDbEntity
  8
RACCORDO
100
AcDbLine
 62
250
  6
CONTINUOUS
 10
30.1564552852
 20
-8.8410972991
 11
30.2185339288
 21
-11.3476860042
  0
LINE
  5
4B6
100
AcDbEntity
  8
RACCORDO
100
AcDbLine
 62
250
  6
CONTINUOUS
 10
30.1113687924
 20
-7.0016408208
 11
30.1564552852
 21
-8.8410972991
  0
LINE
  5
4B7
100
AcDbEntity
  8
RACCORDO
100
AcDbLine
 62
250
  6
CONTINUOUS
 10
30.7693332879
 20
-11.5464578554
 11
30.8383837923
 21
-14.3636978652
  0
LWPOLYLINE
  5
4B8
100
AcDbEntity
  8
RACCORDO
100
AcDbPolyline
 62
250
  6
CONTINUOUS
 90
3
 70
0
 10
30.3053065496
 20
-14.7959198627
 10
30.3305232361
 20
-15.8220227058
 10
30.3363422329
 20
-16.0623120712
  0
LINE
  5
4B9
100
AcDbEntity
  8
RACCORDO
100
AcDbLine
 62
250
  6
CONTINUOUS
 10
30.5947971837
 20
-4.5569424369
 11
30.6243162092
 21
-5.7618213153
  0
LINE
  5
4BA
100
AcDbEntity
  8
RACCORDO
100
AcDbLine
 62
250
  6
CONTINUOUS
 10
30.3363422329
 20
-16.0623120712
 11
30.3578136741
 21
-16.963147597
  0
LINE
  5
4BB
100
AcDbEntity
  8
RACCORDO
100
AcDbLine
 62
250
  6
CONTINUOUS
 10
30.3578136741
 20
-16.963147597
 11
30.3721818507
 21
-17.5797222573
  0
LINE
  5
4BC
100
AcDbEntity
  8
RACCORDO
100
AcDbLine
 62
250
  6
CONTINUOUS
 10
30.5522330819
 20
-2.7424475919
 11
30.5947971837
 21
-4.5569424369
  0
LINE
  5
4BD
100
AcDbEntity
  8
RACCORDO
100
AcDbLine
 62
250
  6
CONTINUOUS
 10
30.3721818507
 20
-17.5797222573
 11
30.3893004487
 21
-18.3302389198
  0
LINE
  5
4BE
100
AcDbEntity
  8
RACCORDO
100
AcDbLine
 62
250
  6
CONTINUOUS
 10
30.3893004487
 20
-18.3302389198
 11
30.4007978808
 21
-18.8441510242
  0
LWPOLYLINE
  5
4BF
100
AcDbEntity
  8
RACCORDO
100
AcDbPolyline
 62
250
  6
CONTINUOUS
 90
3
 70
0
 10
30.4007978808
 20
-18.8441510242
 10
30.4112827511
 20
-19.3196619581
 10
30.4145736458
 20
-19.4701902376
  0
LINE
  5
4C0
100
AcDbEntity
  8
RACCORDO
100
AcDbLine
 62
250
  6
CONTINUOUS
 10
30.4145736458
 20
-19.4701902376
 11
30.4208660399
 21
-19.7597910182
  0
LINE
  5
4C1
100
AcDbEntity
  8
RACCORDO
100
AcDbLine
 62
250
  6
CONTINUOUS
 10
30.4208660399
 20
-19.7597910182
 11
30.426805156
 21
-20.0349897294
  0
LWPOLYLINE
  5
4C2
100
AcDbEntity
  8
RACCORDO
100
AcDbPolyline
 62
250
  6
CONTINUOUS
 90
3
 70
0
 10
30.426805156
 20
-20.0349897294
 10
30.4324081136
 20
-20.2963605166
 10
30.4350954585
 20
-20.4221709529
  0
LINE
  5
4C3
100
AcDbEntity
  8
RACCORDO
100
AcDbLine
 62
250
  6
CONTINUOUS
 10
30.4350954585
 20
-20.4221709529
 11
30.4427226277
 21
-20.7808400052
  0
LINE
  5
4C4
100
AcDbEntity
  8
RACCORDO
100
AcDbLine
 62
250
  6
CONTINUOUS
 10
30.4427226277
 20
-20.7808400052
 11
30.5140185243
 21
-24.1568954237
  0
LINE
  5
4C5
100
AcDbEntity
  8
RACCORDO
100
AcDbLine
 62
250
  6
CONTINUOUS
 10
30.5140185243
 20
-24.1568954237
 11
30.5158826921
 21
-24.2463847289
  0
LINE
  5
4C6
100
AcDbEntity
  8
RACCORDO
100
AcDbLine
 62
250
  6
CONTINUOUS
 10
30.480723382
 20
0.5714966733
 11
30.5522330819
 21
-2.7424475919
  0
LWPOLYLINE
  5
4C7
100
AcDbEntity
  8
RACCORDO
100
AcDbPolyline
 62
250
  6
CONTINUOUS
 90
3
 70
0
 10
30.5158826921
 20
-24.2463847289
 10
30.5201540095
 20
-24.4514032733
 10
30.5227933942
 20
-24.5736178109
  0
LINE
  5
4C8
100
AcDbEntity
  8
RACCORDO
100
AcDbLine
 62
250
  6
CONTINUOUS
 10
30.4165870602
 20
3.6692773568
 11
30.480723382
 21
0.5714966733
  0
LINE
  5
4C9
100
AcDbEntity
  8
RACCORDO
100
AcDbLine
 62
250
  6
CONTINUOUS
 10
30.4155795429
 20
3.7446985415
 11
30.4165870602
 21
3.6692773568
  0
LWPOLYLINE
  5
4CA
100
AcDbEntity
  8
RACCORDO
100
AcDbPolyline
 62
250
  6
CONTINUOUS
 90
4
 70
0
 10
30.5227933942
 20
-24.5736178109
 10
30.5230022568
 20
-24.5923616064
 10
30.5228174337
 20
-24.6108740899
 10
30.5220240644
 20
-24.6474556197
  0
LWPOLYLINE
  5
4CB
100
AcDbEntity
  8
RACCORDO
100
AcDbPolyline
 62
250
  6
CONTINUOUS
 90
16
 70
0
 10
31.1236432108
 20
-24.6635752759
 10
31.1239293842
 20
-24.7000338755
 10
31.1228116799
 20
-24.7370773877
 10
31.1201808691
 20
-24.7746215003
 10
31.1159493209
 20
-24.8124422419
 10
31.1099939808
 20
-24.8505776925
 10
31.1021053133
 20
-24.8893025331
 10
31.0921059888
 20
-24.9285492468
 10
31.0798485268
 20
-24.9680855308
 10
31.0651030674
 20
-25.0078864136
 10
31.0477039779
 20
-25.0477386011
 10
31.0274689826
 20
-25.0874533587
 10
31.0041018728
 20
-25.1269887713
 10
30.9774038228
 20
-25.1660909016
 10
30.947195316
 20
-25.2044646285
 10
30.9129229553
 20
-25.2421953777
  0
LINE
  5
4CC
100
AcDbEntity
  8
RACCORDO
100
AcDbLine
 62
250
  6
CONTINUOUS
 10
30.4148584895
 20
3.8284551926
 11
30.4155795429
 21
3.7446985415
  0
LINE
  5
4CD
100
AcDbEntity
  8
RACCORDO
100
AcDbLine
 62
250
  6
CONTINUOUS
 10
30.5209464409
 20
-24.780629563
 11
30.5210882795
 21
-24.8222659454
  0
LINE
  5
4CE
100
AcDbEntity
  8
RACCORDO
100
AcDbLine
 62
250
  6
CONTINUOUS
 10
30.5210107393
 20
-24.7409097308
 11
30.5209464409
 21
-24.780629563
  0
LINE
  5
4CF
100
AcDbEntity
  8
RACCORDO
100
AcDbLine
 62
250
  6
CONTINUOUS
 10
30.5212735438
 20
-24.7029100531
 11
30.5210107393
 21
-24.7409097308
  0
LWPOLYLINE
  5
4D0
100
AcDbEntity
  8
RACCORDO
100
AcDbPolyline
 62
250
  6
CONTINUOUS
 90
31
 70
0
 10
30.5210882752
 20
-24.8222659534
 10
30.5207876303
 20
-24.8467038662
 10
30.519538941
 20
-24.8715434015
 10
30.5172641325
 20
-24.8967342723
 10
30.5138969779
 20
-24.9221363776
 10
30.5093544241
 20
-24.9477762521
 10
30.5034982777
 20
-24.9738323977
 10
30.4962011846
 20
-25.0002685706
 10
30.4873630937
 20
-25.0269348951
 10
30.4768392228
 20
-25.0538064135
 10
30.4645104723
 20
-25.0807497538
 10
30.4502493238
 20
-25.1076475522
 10
30.4338662733
 20
-25.1344641423
 10
30.4152143384
 20
-25.161042695
 10
30.3941647253
 20
-25.1871975604
 10
30.3705255161
 20
-25.2128065637
 10
30.3441677118
 20
-25.237646219
 10
30.3149576514
 20
-25.2614990766
 10
30.2826744079
 20
-25.2842006246
 10
30.2472748153
 20
-25.3054333061
 10
30.2085871684
 20
-25.3249649908
 10
30.1661449342
 20
-25.3426526238
 10
30.1198241126
 20
-25.3581157887
 10
30.069554182
 20
-25.3709534523
 10
30.0148959591
 20
-25.3808314473
 10
29.9551998405
 20
-25.3873006709
 10
29.8910685959
 20
-25.3897235018
 10
29.8241108786
 20
-25.3877090194
 10
29.7550998344
 20
-25.3811403173
 10
29.6838461307
 20
-25.3698553993
 10
29.6107567418
 20
-25.3537635897
  0
LINE
  5
4D1
100
AcDbEntity
  8
RACCORDO
100
AcDbLine
 62
250
  6
CONTINUOUS
 10
30.5220240644
 20
-24.6474556197
 11
30.5212735438
 21
-24.7029100531
  0
LINE
  5
4D2
100
AcDbEntity
  8
RACCORDO
100
AcDbLine
 62
7
  6
CONTINUOUS
 10
31.9454332123
 20
-7.0033448362
 11
31.6949732758
 21
-7.2807918832
  0
LINE
  5
4D3
100
AcDbEntity
  8
DRAFT
100
AcDbLine
 62
7
  6
CONTINUOUS
 10
31.8680127954
 20
-7.5505695227
 11
31.6926908398
 21
-7.7447824557
  0
LINE
  5
4D4
100
AcDbEntity
  8
DRAFT
100
AcDbLine
 62
7
  6
CONTINUOUS
 10
31.9451650907
 20
-10.6519703875
 11
31.7698431351
 21
-10.8461833204
  0
LWPOLYLINE
  5
4D5
100
AcDbEntity
  8
RACCORDO
100
AcDbPolyline
 62
250
  6
CONTINUOUS
 90
10
 70
0
 10
30.7419480947
 20
-10.4474335468
 10
30.7025805401
 20
-10.4848311045
 10
30.6554309371
 20
-10.5184933197
 10
30.6014318098
 20
-10.5477544216
 10
30.5416511517
 20
-10.5720356847
 10
30.4772713036
 20
-10.5908568748
 10
30.4095655689
 20
-10.6038457467
 10
30.3398730302
 20
-10.6107454067
 10
30.2695720652
 20
-10.6114193935
 10
30.2000530851
 20
-10.6058543771
  0
LINE
  5
4D6
100
AcDbEntity
  8
DRAFT
100
AcDbLine
 62
7
  6
CONTINUOUS
 10
31.3796301703
 20
-8.6094412574
 11
31.4317079696
 21
-10.7028868411
  0
LINE
  5
4D7
100
AcDbEntity
  8
DRAFT
100
AcDbLine
 62
7
  6
CONTINUOUS
 10
31.8568410472
 20
-7.1014828256
 11
31.8680127954
 21
-7.5505695227
  0
LINE
  5
4D8
100
AcDbEntity
  8
DRAFT
100
AcDbLine
 62
7
  6
CONTINUOUS
 10
31.9451650907
 20
-10.6519703875
 11
31.9567379349
 21
-11.1171805172
  0
LINE
  5
4D9
100
AcDbEntity
  8
RACCORDO
100
AcDbLine
 62
7
  6
CONTINUOUS
 10
32.353415624
 20
-23.4035957942
 11
32.0476600036
 21
-11.1127009819
  0
LINE
  5
4DA
100
AcDbEntity
  8
RACCORDO
100
AcDbLine
 62
7
  6
CONTINUOUS
 10
31.9454332123
 20
-7.0033448362
 11
31.6396775918
 21
5.2875499762
  0
LINE
  5
4DB
100
AcDbEntity
  8
RACCORDO
100
AcDbLine
 62
7
  6
CONTINUOUS
 10
31.9567379349
 20
-11.1171805172
 11
31.7814159794
 21
-11.3113934501
  0
LINE
  5
4DC
100
AcDbEntity
  8
RACCORDO
100
AcDbLine
 62
7
  6
CONTINUOUS
 10
32.0476600036
 20
-11.1127009819
 11
31.797200067
 21
-11.390148029
  0
LINE
  5
4DD
100
AcDbEntity
  8
RACCORDO
100
AcDbLine
 62
250
  6
CONTINUOUS
 10
31.1236432108
 20
-24.6635752759
 11
32.353415624
 21
-23.4035957942
  0
LINE
  5
4DE
100
AcDbEntity
  8
RACCORDO
100
AcDbLine
 62
7
  6
CONTINUOUS
 10
32.143549734
 20
-23.9813405447
 11
30.9124402806
 21
-25.2426894299
  0
LWPOLYLINE
  5
4DF
100
AcDbEntity
  8
RACCORDO
100
AcDbPolyline
 62
250
  6
CONTINUOUS
 90
13
 70
0
 10
31.1236432162
 20
-24.6635752778
 10
31.0917799355
 20
-24.6959357375
 10
31.0545117737
 20
-24.7258183322
 10
31.0123410818
 20
-24.7528202637
 10
30.9658362936
 20
-24.7765775633
 10
30.915624264
 20
-24.7967699977
 10
30.862381819
 20
-24.8131253859
 10
30.8068266327
 20
-24.8254232678
 10
30.7497075535
 20
-24.8334978756
 10
30.69179451
 20
-24.8372403691
 10
30.6338681329
 20
-24.8366003017
 10
30.5767092328
 20
-24.8315863013
 10
30.5210882752
 20
-24.8222659534
  0
ARC
  5
4E0
100
AcDbEntity
  8
RACCORDO
100
AcDbCircle
 62
7
  6
CONTINUOUS
 10
-3.3615672766
 20
-8.4208736913
 40
0.1
100
AcDbArc
 50
325.3898293783
 51
1.4513142515
  0
ARC
  5
4E1
100
AcDbEntity
  8
RACCORDO
100
AcDbCircle
 62
7
  6
CONTINUOUS
 10
-5.854586455
 20
-7.4381356982
 40
0.1
100
AcDbArc
 50
72.9287850948
 51
137.5682709683
  0
ARC
  5
4E2
100
AcDbEntity
  8
RACCORDO
100
AcDbCircle
 62
7
  6
CONTINUOUS
 10
-3.3670109638
 20
-8.2020460321
 40
0.1
100
AcDbArc
 50
1.3462915805
 51
72.9087568557
  0
ARC
  5
4E3
100
AcDbEntity
  8
RACCORDO
100
AcDbCircle
 62
7
  6
CONTINUOUS
 10
6.6584655222
 20
-11.4979286901
 40
0.1
100
AcDbArc
 50
325.3898293783
 51
1.4513142515
  0
ARC
  5
4E4
100
AcDbEntity
  8
RACCORDO
100
AcDbCircle
 62
7
  6
CONTINUOUS
 10
4.1654463438
 20
-10.5151906971
 40
0.1
100
AcDbArc
 50
72.9287850948
 51
137.5682709683
  0
ARC
  5
4E5
100
AcDbEntity
  8
RACCORDO
100
AcDbCircle
 62
7
  6
CONTINUOUS
 10
6.6530218351
 20
-11.2791010309
 40
0.1
100
AcDbArc
 50
1.3462915805
 51
72.9087568557
  0
ARC
  5
4E6
100
AcDbEntity
  8
RACCORDO
100
AcDbCircle
 62
7
  6
CONTINUOUS
 10
-13.3490525018
 20
-5.3385362573
 40
0.075
100
AcDbArc
 50
325.706691543
 51
1.4285363892
  0
ARC
  5
4E7
100
AcDbEntity
  8
RACCORDO
100
AcDbCircle
 62
7
  6
CONTINUOUS
 10
16.7110458947
 20
-14.569701254
 40
0.075
100
AcDbArc
 50
325.706691543
 51
1.4285363892
  0
ELLIPSE
  5
4E8
100
AcDbEntity
  8
RACCORDO
100
AcDbEllipse
 62
7
  6
CONTINUOUS
 10
-15.8871970437
 20
-4.2276651987
 30
0.0
 11
0.0752963053
 21
-0.0147181112
 31
0.0
 40
0.2251237175
 41
2.1804824813
 42
2.6517213793
  0
ELLIPSE
  5
4E9
100
AcDbEntity
  8
RACCORDO
100
AcDbEllipse
 62
7
  6
CONTINUOUS
 10
-13.3573608587
 20
-5.0045533821
 30
0.0
 11
0.0752963053
 21
-0.0147181112
 31
0.0
 40
0.2251237175
 41
-0.3851515191
 42
0.0498062696
  0
ELLIPSE
  5
4EA
100
AcDbEntity
  8
DRAFT
100
AcDbEllipse
 62
7
  6
CONTINUOUS
 10
31.7052280878
 20
-8.2487600962
 30
0.0
 11
0.2152315326
 21
0.6137794668
 31
0.0
 40
0.3985724632
 41
0.76003104
 42
2.3308273668
  0
ELLIPSE
  5
4EB
100
AcDbEntity
  8
DRAFT
100
AcDbEllipse
 62
7
  6
CONTINUOUS
 10
31.7573058871
 20
-10.3422056799
 30
0.0
 11
0.2152315326
 21
0.6137794668
 31
0.0
 40
0.3985724632
 41
2.3308273668
 42
3.9016236936
  0
ELLIPSE
  5
4EC
100
AcDbEntity
  8
RACCORDO
100
AcDbEllipse
 62
7
  6
CONTINUOUS
 10
31.7573058871
 20
-10.3422056799
 30
0.0
 11
0.4139067935
 21
1.1803451284
 31
0.0
 40
0.3985724632
 41
-3.6857781822
 42
-2.3815616136
  0
ELLIPSE
  5
4ED
100
AcDbEntity
  8
RACCORDO
100
AcDbEllipse
 62
7
  6
CONTINUOUS
 10
14.1729013528
 20
-13.4588301953
 30
0.0
 11
0.0752963053
 21
-0.0147181112
 31
0.0
 40
0.2251237175
 41
2.1804824813
 42
2.6517213793
  0
ELLIPSE
  5
4EE
100
AcDbEntity
  8
RACCORDO
100
AcDbEllipse
 62
7
  6
CONTINUOUS
 10
16.7027375377
 20
-14.2357183787
 30
0.0
 11
0.0752963053
 21
-0.0147181112
 31
0.0
 40
0.2251237175
 41
-0.3851515191
 42
0.0498062696
  0
ELLIPSE
  5
4EF
100
AcDbEntity
  8
RACCORDO
100
AcDbEllipse
 62
7
  6
CONTINUOUS
 10
31.7190833681
 20
-8.2499796535
 30
0.0
 11
0.4139067935
 21
1.1803451284
 31
0.0
 40
0.3985724632
 41
0.76003104
 42
2.3308273668
  0
ELLIPSE
  5
4F0
100
AcDbEntity
  8
RACCORDO
100
AcDbEllipse
 62
7
  6
CONTINUOUS
 10
30.3019191137
 20
5.6951970549
 30
0.0
 11
1.174341539
 21
-0.933682519
 31
0.0
 40
0.686928133
 41
0.5215401104
 42
2.0895973814
  0
ELLIPSE
  5
4F1
100
AcDbEntity
  8
RACCORDO
100
AcDbEllipse
 62
7
  6
CONTINUOUS
 10
31.0154984353
 20
-22.9895687976
 30
0.0
 11
1.173788316
 21
-0.9400782174
 31
0.0
 40
0.6836826228
 41
-0.0671024275
 42
0.522616035
  0
ELLIPSE
  5
4F2
100
AcDbEntity
  8
RACCORDO
100
AcDbEllipse
 62
7
  6
CONTINUOUS
 10
-30.4826129453
 20
24.3615379723
 30
0.0
 11
1.173788316
 21
-0.9400782174
 31
0.0
 40
0.6836826228
 41
2.0961514176
 42
3.2086952634
  0
ELLIPSE
  5
4F3
100
AcDbEntity
  8
RACCORDO
100
AcDbEllipse
 62
7
  6
CONTINUOUS
 10
31.7730899748
 20
-10.4209602588
 30
0.0
 11
0.4139067935
 21
1.1803451284
 31
0.0
 40
0.3985724632
 41
2.3308273668
 42
3.9016236936
  0
ENDSEC
  0
SECTION
  2
OBJECTS
  0
DICTIONARY
  5
C
100
AcDbDictionary
280
0
281
1
  3
ACAD_GROUP
350
D
  3
ACAD_MLINESTYLE
350
17
  3
ACAD_LAYOUT
350
1A
  3
ACAD_PLOTSETTINGS
350
19
  3
ACAD_PLOTSTYLENAME
350
E
  0
DICTIONARY
  5
D
102
{ACAD_REACTORS
330
C
102
}
100
AcDbDictionary
280
0
281
1
  0
ACDBDICTIONARYWDFLT
  5
E
102
{ACAD_REACTORS
330
C
102
}
100
AcDbDictionary
281
1
  3
Normal
350
F
100
AcDbDictionaryWithDefault
340
F
  0
DICTIONARY
  5
17
102
{ACAD_REACTORS
330
C
102
}
100
AcDbDictionary
280
0
281
1
  3
Standard
350
18
  0
DICTIONARY
  5
19
102
{ACAD_REACTORS
330
C
102
}
100
AcDbDictionary
281
1
  0
DICTIONARY
  5
1A
102
{ACAD_REACTORS
330
C
102
}
100
AcDbDictionary
281
1
  3
Model
350
4F4
  3
Layout1
350
4F5
  0
ACDBPLACEHOLDER
  5
F
102
{ACAD_REACTORS
330
E
102
}
  0
MLINESTYLE
  5
18
102
{ACAD_REACTORS
330
17
102
}
100
AcDbMlineStyle
  2
STANDARD
 70
0
  3

 62
256
 51
90.0
 52
90.0
 71
2
 49
0.5
 62
256
  6
BYLAYER
 49
-0.5
 62
256
  6
BYLAYER
  0
LAYOUT
  5
4F4
102
{ACAD_REACTORS
330
1A
102
}
100
AcDbPlotSettings
  1

  2
none_device
  4
ISO_A4_(297.00_x_210.00_MM)
  6

 40
0.0
 41
0.0
 42
0.0
 43
0.0
 44
297.0
 45
210.0
 46
0.0
 47
0.0
 48
0.0
 49
0.0
140
0.0
141
0.0
142
1.0
143
1.0
 70
1024
 72
1
 73
0
 74
0
  7

 75
0
147
1.0
148
0.0
149
0.0
100
AcDbLayout
  1
Model
 70
0
 71
0
 10
0.0
 20
0.0
 11
297.0
 21
210.0
 12
0.0
 22
0.0
 32
0.0
 14
0.0
 24
0.0
 34
0.0
 15
0.0
 25
0.0
 35
0.0
146
0.0
 13
0.0
 23
0.0
 33
0.0
 16
1.0
 26
0.0
 36
0.0
 17
0.0
 27
1.0
 37
0.0
 76
0
330
20F
345
0
346
0
  0
LAYOUT
  5
4F5
102
{ACAD_REACTORS
330
1A
102
}
100
AcDbPlotSettings
  1

  2
none_device
  4
ISO_A4_(297.00_x_210.00_MM)
  6

 40
0.0
 41
0.0
 42
0.0
 43
0.0
 44
297.0
 45
210.0
 46
0.0
 47
0.0
 48
0.0
 49
0.0
140
0.0
141
0.0
142
1.0
143
1.0
 70
0
 72
1
 73
0
 74
0
  7

 75
0
147
1.0
148
0.0
149
0.0
100
AcDbLayout
  1
Layout1
 70
0
 71
1
 10
0.0
 20
0.0
 11
297.0
 21
210.0
 12
0.0
 22
0.0
 32
0.0
 14
0.0
 24
0.0
 34
0.0
 15
0.0
 25
0.0
 35
0.0
146
0.0
 13
0.0
 23
0.0
 33
0.0
 16
1.0
 26
0.0
 36
0.0
 17
0.0
 27
1.0
 37
0.0
 76
0
330
210
345
0
346
0
  0
ENDSEC
  0
EOF
