  0
SECTION
  2
HEADER
  9
$ACADVER
  1
AC1024
  9
$DWGCODEPAGE
  3
ANSI_1252
  9
$EXTMAX
 10
297.0
 20
210.0
 30
0.0
  9
$EXTMIN
 10
0.0
 20
0.0
 30
0.0
  9
$LIMMIN
 10
0.0
 20
0.0
  9
$LIMMAX
 10
297.0
 20
210.0
  9
$VIEWCTR
 10
148.5
 20
105.0
  9
$VIEWSIZE
 40
210.0
  9
$CLAYER
  8
0
  9
$LTSCALE
 40
16.335
  9
$CELTYPE
  6
BYLAYER
  9
$DIMSCALE
 40
1.0
  9
$DIMASZ
 40
3.0
  9
$DIMEXO
 40
0.5
  9
$DIMDLI
 40
11.286
  9
$DIMEXE
 40
1.5
  9
$DIMCEN
 40
2.673
  9
$DIMLFAC
 40
1.0
  9
$DIMBLK
  1
_FILLED
  9
$DIMALT
 70
0
  9
$DIMALTF
 40
0.0393700787
  9
$DIMTXT
 40
3.0
  9
$DIMTOL
 70
1
  9
$DIMLIM
 70
0
  9
$DIMTFAC
 40
1.0
  9
$DIMTP
 40
0.01
  9
$DIMTM
 40
0.01
  9
$DIMGAP
 40
0.625
  9
$DIMDSEP
 70
44
  9
$AUNITS
 70
0
  9
$PDMODE
 70
3
  9
$PDSIZE
 40
3.0
  9
$HANDSEED
  5
3F0
  9
$TILEMODE
 70
1
  9
$MEASUREMENT
 70
1
  9
$INSUNITS
 70
4
  0
ENDSEC
  0
SECTION
  2
CLASSES
  0
CLASS
  1
ACDBDICTIONARYWDFLT
  2
AcDbDictionaryWithDefault
  3
AutoCAD 2000
 90
0
 91
1
280
0
281
0
  0
CLASS
  1
ACDBPLACEHOLDER
  2
AcDbPlaceHolder
  3
AutoCAD 2000
 90
0
 91
1
280
0
281
0
  0
CLASS
  1
LAYOUT
  2
AcDbLayout
  3
AutoCAD 2000
 90
0
 91
0
280
0
281
0
  0
ENDSEC
  0
SECTION
  2
TABLES
  0
TABLE
  2
VPORT
  5
8
100
AcDbSymbolTable
 70
2
  0
VPORT
  5
1F4
100
AcDbSymbolTableRecord
100
AcDbViewportTableRecord
  2
*ACTIVE
 70
0
 10
0.0
 20
0.0
 11
1.0
 21
1.0
 12
148.5
 22
105.0
 13
0.0
 23
0.0
 14
1.0
 24
1.0
 15
0.0
 25
0.0
 16
0.0
 26
0.0
 36
1.0
 17
0.0
 27
0.0
 37
0.0
 40
210.0
 41
1.4142857143
 42
50.0
 43
0.0
 44
0.0
 50
0.0
 51
0.0
 71
0
 72
100
 73
1
 74
1
 75
0
 76
0
 77
0
 78
0
  0
ENDTAB
  0
TABLE
  2
LTYPE
  5
5
100
AcDbSymbolTable
 70
6
  0
LTYPE
  5
14
100
AcDbSymbolTableRecord
100
AcDbLinetypeTableRecord
  2
BYBLOCK
 70
0
  3

 72
65
 73
0
 40
0.0
  0
LTYPE
  5
15
100
AcDbSymbolTableRecord
100
AcDbLinetypeTableRecord
  2
BYLAYER
 70
0
  3

 72
65
 73
0
 40
0.0
  0
LTYPE
  5
16
100
AcDbSymbolTableRecord
100
AcDbLinetypeTableRecord
  2
CONTINUOUS
 70
64
  3
Solid line
 72
65
 73
0
 40
0.0
  0
LTYPE
  5
1F5
100
AcDbSymbolTableRecord
100
AcDbLinetypeTableRecord
  2
CENTER
 70
64
  3
____ _ ____ _ ____ _ ____ _ ____ _ ____ _ ____
 72
65
 73
4
 40
0.6
 49
0.375
 74
0
 49
-0.075
 74
0
 49
0.075
 74
0
 49
-0.075
 74
0
  0
LTYPE
  5
1F6
100
AcDbSymbolTableRecord
100
AcDbLinetypeTableRecord
  2
HIDDEN
 70
64
  3
- - - - - - - - - - - - - - - - - - - -
 72
65
 73
2
 40
0.2
 49
0.1
 74
0
 49
-0.1
 74
0
  0
LTYPE
  5
1F7
100
AcDbSymbolTableRecord
100
AcDbLinetypeTableRecord
  2
PHANTOM
 70
64
  3
_____ _ _ _____ _ _ _____ _ _ _____
 72
65
 73
6
 40
0.8
 49
0.45
 74
0
 49
-0.05
 74
0
 49
0.1
 74
0
 49
-0.05
 74
0
 49
0.1
 74
0
 49
-0.05
 74
0
  0
LTYPE
  5
1F8
100
AcDbSymbolTableRecord
100
AcDbLinetypeTableRecord
  2
DOT
 70
64
  3
. . . . . . . . . . . . . . . . . . . .
 72
65
 73
2
 40
0.2
 49
0.1
 74
0
 49
-0.1
 74
0
  0
LTYPE
  5
1F9
100
AcDbSymbolTableRecord
100
AcDbLinetypeTableRecord
  2
DASHED
 70
64
  3
- - - - - - - - - - - - - - - - - - - -
 72
65
 73
2
 40
0.2
 49
0.1
 74
0
 49
-0.1
 74
0
  0
ENDTAB
  0
TABLE
  2
LAYER
  5
2
100
AcDbSymbolTable
 70
36
  0
LAYER
  5
10
100
AcDbSymbolTableRecord
100
AcDbLayerTableRecord
  2
0
 70
0
 62
7
  6
CONTINUOUS
370
-3
390
F
  0
LAYER
  5
1FA
100
AcDbSymbolTableRecord
100
AcDbLayerTableRecord
  2
DEFAULT_1
 70
0
 62
7
  6
CENTER
370
-3
390
F
  0
LAYER
  5
1FB
100
AcDbSymbolTableRecord
100
AcDbLayerTableRecord
  2
DEFAULT_2
 70
0
 62
7
  6
HIDDEN
370
-3
390
F
  0
LAYER
  5
1FC
100
AcDbSymbolTableRecord
100
AcDbLayerTableRecord
  2
DEFAULT_3
 70
0
 62
7
  6
PHANTOM
370
-3
390
F
  0
LAYER
  5
1FD
100
AcDbSymbolTableRecord
100
AcDbLayerTableRecord
  2
ASSI
 70
0
 62
7
  6
CONTINUOUS
370
-3
390
F
  0
LAYER
  5
1FE
100
AcDbSymbolTableRecord
100
AcDbLayerTableRecord
  2
COORDINATE
 70
0
 62
7
  6
CONTINUOUS
370
-3
390
F
  0
LAYER
  5
1FF
100
AcDbSymbolTableRecord
100
AcDbLayerTableRecord
  2
COPY_PUBLISH
 70
0
 62
7
  6
CONTINUOUS
370
-3
390
F
  0
LAYER
  5
200
100
AcDbSymbolTableRecord
100
AcDbLayerTableRecord
  2
COSMETICI
 70
0
 62
7
  6
CONTINUOUS
370
-3
390
F
  0
LAYER
  5
201
100
AcDbSymbolTableRecord
100
AcDbLayerTableRecord
  2
CURVE
 70
0
 62
7
  6
CONTINUOUS
370
-3
390
F
  0
LAYER
  5
202
100
AcDbSymbolTableRecord
100
AcDbLayerTableRecord
  2
DRAFT
 70
0
 62
7
  6
CONTINUOUS
370
-3
390
F
  0
LAYER
  5
203
100
AcDbSymbolTableRecord
100
AcDbLayerTableRecord
  2
IMPORT_IGES
 70
0
 62
7
  6
CONTINUOUS
370
-3
390
F
  0
LAYER
  5
204
100
AcDbSymbolTableRecord
100
AcDbLayerTableRecord
  2
INTFCLR
 70
0
 62
7
  6
CONTINUOUS
370
-3
390
F
  0
LAYER
  5
205
100
AcDbSymbolTableRecord
100
AcDbLayerTableRecord
  2
INTFCLR_17
 70
0
 62
7
  6
CONTINUOUS
370
-3
390
F
  0
LAYER
  5
206
100
AcDbSymbolTableRecord
100
AcDbLayerTableRecord
  2
INTF_1
 70
0
 62
7
  6
CONTINUOUS
370
-3
390
F
  0
LAYER
  5
207
100
AcDbSymbolTableRecord
100
AcDbLayerTableRecord
  2
INTF_11
 70
0
 62
7
  6
CONTINUOUS
370
-3
390
F
  0
LAYER
  5
208
100
AcDbSymbolTableRecord
100
AcDbLayerTableRecord
  2
INTF_2
 70
0
 62
7
  6
CONTINUOUS
370
-3
390
F
  0
LAYER
  5
209
100
AcDbSymbolTableRecord
100
AcDbLayerTableRecord
  2
INTF_5
 70
0
 62
7
  6
CONTINUOUS
370
-3
390
F
  0
LAYER
  5
20A
100
AcDbSymbolTableRecord
100
AcDbLayerTableRecord
  2
INTF_YELLOW
 70
0
 62
7
  6
CONTINUOUS
370
-3
390
F
  0
LAYER
  5
20B
100
AcDbSymbolTableRecord
100
AcDbLayerTableRecord
  2
NONE
 70
0
 62
7
  6
CONTINUOUS
370
-3
390
F
  0
LAYER
  5
20C
100
AcDbSymbolTableRecord
100
AcDbLayerTableRecord
  2
NOTE
 70
0
 62
7
  6
CONTINUOUS
370
-3
390
F
  0
LAYER
  5
20D
100
AcDbSymbolTableRecord
100
AcDbLayerTableRecord
  2
PIANI
 70
0
 62
7
  6
CONTINUOUS
370
-3
390
F
  0
LAYER
  5
20E
100
AcDbSymbolTableRecord
100
AcDbLayerTableRecord
  2
POSIZIONE_SCRITTE
 70
0
 62
7
  6
CONTINUOUS
370
-3
390
F
  0
LAYER
  5
20F
100
AcDbSymbolTableRecord
100
AcDbLayerTableRecord
  2
PUNTI
 70
0
 62
7
  6
CONTINUOUS
370
-3
390
F
  0
LAYER
  5
210
100
AcDbSymbolTableRecord
100
AcDbLayerTableRecord
  2
RACCORDO
 70
0
 62
7
  6
CONTINUOUS
370
-3
390
F
  0
LAYER
  5
211
100
AcDbSymbolTableRecord
100
AcDbLayerTableRecord
  2
RGB____0____0____0__
 70
0
 62
7
  6
CONTINUOUS
370
-3
390
F
  0
LAYER
  5
212
100
AcDbSymbolTableRecord
100
AcDbLayerTableRecord
  2
SIMBOLI
 70
0
 62
7
  6
CONTINUOUS
370
-3
390
F
  0
LAYER
  5
213
100
AcDbSymbolTableRecord
100
AcDbLayerTableRecord
  2
SMUSSO
 70
0
 62
7
  6
CONTINUOUS
370
-3
390
F
  0
LAYER
  5
214
100
AcDbSymbolTableRecord
100
AcDbLayerTableRecord
  2
SUPERFICI
 70
0
 62
7
  6
CONTINUOUS
370
-3
390
F
  0
LAYER
  5
215
100
AcDbSymbolTableRecord
100
AcDbLayerTableRecord
  2
TRASH
 70
0
 62
7
  6
CONTINUOUS
370
-3
390
F
  0
ENDTAB
  0
TABLE
  2
STYLE
  5
3
100
AcDbSymbolTable
 70
1
  0
STYLE
  5
11
100
AcDbSymbolTableRecord
100
AcDbTextStyleTableRecord
  2
STANDARD
 70
0
 40
0.0
 41
0.8
 50
0.0
 71
0
 42
0.2
  3
txt
  4

  0
STYLE
  5
216
100
AcDbSymbolTableRecord
100
AcDbTextStyleTableRecord
  2
TEXTSTYLE_1
 70
0
 40
0.0
 41
0.8
 50
0.0
 71
0
 42
0.2
  3
gdt
  4

  0
ENDTAB
  0
TABLE
  2
VIEW
  5
6
100
AcDbSymbolTable
 70
0
  0
ENDTAB
  0
TABLE
  2
UCS
  5
7
100
AcDbSymbolTable
 70
0
  0
ENDTAB
  0
TABLE
  2
APPID
  5
9
100
AcDbSymbolTable
 70
1
  0
APPID
  5
217
100
AcDbSymbolTableRecord
100
AcDbRegAppTableRecord
  2
ACAD
 70
0
  0
ENDTAB
  0
TABLE
  2
BLOCK_RECORD
  5
1
100
AcDbSymbolTable
 70
0
  0
BLOCK_RECORD
  5
218
100
AcDbSymbolTableRecord
100
AcDbBlockTableRecord
  2
*Model_Space
  0
BLOCK_RECORD
  5
219
100
AcDbSymbolTableRecord
100
AcDbBlockTableRecord
  2
*Paper_Space
  0
BLOCK_RECORD
  5
21A
100
AcDbSymbolTableRecord
100
AcDbBlockTableRecord
  2
_FILLED
  0
ENDTAB
  0
TABLE
  2
DIMSTYLE
  5
A
100
AcDbSymbolTable
 70
1
100
AcDbDimStyleTable
 71
0
  0
DIMSTYLE
105
21B
100
AcDbSymbolTableRecord
100
AcDbDimStyleTableRecord
  2
STANDARD
 70
0
  3

  4

 40
1.0
 41
3.0
 42
0.5
 43
0.38
 44
1.5
 45
0.0
 46
0.0
 47
0.01
 48
0.01
140
3.0
141
0.0
142
0.0
143
25.4
144
1.0
145
0.0
146
1.0
147
0.625
 71
1
 72
0
 73
0
 74
0
 75
0
 76
0
 77
1
 78
8
 79
2
170
0
171
1
172
0
173
0
174
0
175
0
176
0
177
0
178
0
270
2
179
2
271
2
272
2
273
2
274
2
275
0
280
0
281
0
282
0
283
1
284
8
285
0
286
0
287
3
288
0
340
11
278
44
341
21A
342
21A
343
21A
344
21A
  0
ENDTAB
  0
ENDSEC
  0
SECTION
  2
BLOCKS
  0
BLOCK
  5
20
100
AcDbEntity
  8
0
100
AcDbBlockBegin
  2
*Model_Space
 70
0
 10
0.0
 20
0.0
 30
0.0
  3
*Model_Space
  1

  0
ENDBLK
  5
21
100
AcDbEntity
  8
0
100
AcDbBlockEnd
  0
BLOCK
  5
1C
100
AcDbEntity
  8
0
100
AcDbBlockBegin
  2
*Paper_Space
 70
0
 10
0.0
 20
0.0
 30
0.0
  3
*Paper_Space
  1

  0
ENDBLK
  5
1D
100
AcDbEntity
  8
0
100
AcDbBlockEnd
  0
BLOCK
  5
21C
100
AcDbEntity
  8
0
100
AcDbBlockBegin
  2
_FILLED
 70
64
 10
0.0
 20
0.0
 30
0.0
  3
_FILLED
  1

  0
SOLID
  5
21D
100
AcDbEntity
  8
0
  6
BYBLOCK
 62
0
100
AcDbTrace
 10
0.0
 20
0.0
 30
0.0
 11
-1.0
 21
0.3166666667
 31
0.0
 12
-1.0
 22
-0.3166666667
 32
0.0
 13
-1.0
 23
-0.3166666667
 33
0.0
  0
ENDBLK
  5
21E
100
AcDbEntity
  8
0
  6
BYBLOCK
 62
0
100
AcDbBlockEnd
  0
ENDSEC
  0
SECTION
  2
ENTITIES
  0
LWPOLYLINE
  5
21F
100
AcDbEntity
  8
RACCORDO
100
AcDbPolyline
 62
7
  6
CONTINUOUS
 90
17
 70
0
 10
87.5930177614
 20
170.5597170977
 10
87.5229116678
 20
170.4976235368
 10
87.4489763504
 20
170.4233004661
 10
87.378639881
 20
170.3429261864
 10
87.3120646882
 20
170.2567392369
 10
87.2493361384
 20
170.1648954414
 10
87.190534836
 20
170.0674900977
 10
87.1357934523
 20
169.9646177976
 10
87.0852360268
 20
169.8564341747
 10
87.0389573497
 20
169.7431050217
 10
86.997017442
 20
169.6247931729
 10
86.9594856651
 20
169.5016742226
 10
86.9264325337
 20
169.3738778842
 10
86.897953965
 20
169.2415014973
 10
86.8741450798
 20
169.104731596
 10
86.8550839651
 20
168.9637932931
 10
86.847194355
 20
168.8901751007
  0
LINE
  5
220
100
AcDbEntity
  8
SUPERFICI
100
AcDbLine
 62
7
  6
CONTINUOUS
 10
87.5921820622
 20
170.559020934
 30
0.0
 11
89.5285153934
 21
172.1732056682
 31
0.0
  0
LINE
  5
221
100
AcDbEntity
  8
RACCORDO
100
AcDbLine
 62
7
  6
CONTINUOUS
 10
87.5921820788
 20
170.5590209479
 30
0.0
 11
87.5930189206
 21
170.5597179747
 31
0.0
  0
LWPOLYLINE
  5
222
100
AcDbEntity
  8
RACCORDO
100
AcDbPolyline
 62
7
  6
CONTINUOUS
 90
9
 70
0
 10
86.6696989338
 20
167.0652309686
 10
86.5277599082
 20
165.5085332577
 10
86.3951266
 20
163.9560263242
 10
86.2718059065
 20
162.407789776
 10
86.1578043704
 20
160.863904888
 10
86.0531280909
 20
159.3244522344
 10
85.9577827359
 20
157.7895126186
 10
85.8717734968
 20
156.2591672584
 10
85.7983071935
 20
154.8010576963
  0
LINE
  5
223
100
AcDbEntity
  8
RACCORDO
100
AcDbLine
 62
7
  6
CONTINUOUS
 10
86.8472067682
 20
168.8902998932
 30
0.0
 11
86.6696989338
 21
167.0652309686
 31
0.0
  0
LWPOLYLINE
  5
224
100
AcDbEntity
  8
RACCORDO
100
AcDbPolyline
 62
7
  6
CONTINUOUS
 90
9
 70
0
 10
85.8721303877
 20
116.678737582
 10
85.9581972953
 20
115.2470099129
 10
86.0536051053
 20
113.821401213
 10
86.1583491242
 20
112.4019849408
 10
86.2724241027
 20
110.9888355893
 10
86.3958243925
 20
109.5820265057
 10
86.5285437929
 20
108.1816320651
 10
86.6705757988
 20
106.7877242892
 10
86.8150039998
 20
105.4617683384
  0
LINE
  5
225
100
AcDbEntity
  8
RACCORDO
100
AcDbLine
 62
7
  6
CONTINUOUS
 10
85.7917672029
 20
118.1895508511
 30
0.0
 11
85.8721303877
 21
116.678737582
 31
0.0
  0
LINE
  5
226
100
AcDbEntity
  8
RACCORDO
100
AcDbLine
 62
250
  6
CONTINUOUS
 10
85.8599661123
 20
117.9543029935
 30
0.0
 11
85.8478123327
 21
118.1924076909
 31
0.0
  0
LWPOLYLINE
  5
227
100
AcDbEntity
  8
RACCORDO
100
AcDbPolyline
 62
7
  6
CONTINUOUS
 90
10
 70
0
 10
85.4066352676
 20
136.2044928095
 10
85.4118820308
 20
133.9724910308
 10
85.4276873788
 20
131.7498553357
 10
85.4532960762
 20
129.5965795723
 10
85.4879288766
 20
127.5122751109
 10
85.5310129312
 20
125.4966144681
 10
85.5828132869
 20
123.5497705683
 10
85.6439167135
 20
121.6721669488
 10
85.714608743
 20
119.8640749144
 10
85.7917671887
 20
118.1895511369
  0
LWPOLYLINE
  5
228
100
AcDbEntity
  8
RACCORDO
100
AcDbPolyline
 62
7
  6
CONTINUOUS
 90
9
 70
0
 10
85.7143562853
 20
152.893222908
 10
85.6437071935
 20
151.0039760776
 10
85.5826463461
 20
149.0561977951
 10
85.5308753165
 20
147.0498288537
 10
85.4878271371
 20
144.9846481179
 10
85.4532153088
 20
142.8605205848
 10
85.4276353229
 20
140.6778185488
 10
85.4118562326
 20
138.4370389237
 10
85.4066352676
 20
136.2044917643
  0
LINE
  5
229
100
AcDbEntity
  8
RACCORDO
100
AcDbLine
 62
250
  6
CONTINUOUS
 10
85.8533968082
 20
154.5562635866
 30
0.0
 11
85.8599661128
 21
154.6954653434
 31
0.0
  0
LINE
  5
22A
100
AcDbEntity
  8
RACCORDO
100
AcDbLine
 62
7
  6
CONTINUOUS
 10
85.7983071941
 20
154.8010577078
 30
0.0
 11
85.7143562853
 21
152.893222908
 31
0.0
  0
LWPOLYLINE
  5
22B
100
AcDbEntity
  8
RACCORDO
100
AcDbPolyline
 62
7
  6
CONTINUOUS
 90
34
 70
0
 10
86.8475795402
 20
105.1722444933
 10
86.8571202227
 20
105.0938380895
 10
86.8778711675
 20
104.955267641
 10
86.9037609676
 20
104.8144176397
 10
86.9346407115
 20
104.6716490476
 10
86.9703583573
 20
104.5272264691
 10
87.0107961821
 20
104.3812862617
 10
87.0558315789
 20
104.2341202494
 10
87.1053382538
 20
104.08605062
 10
87.1592198415
 20
103.9372758977
 10
87.2173080242
 20
103.7881388878
 10
87.2794131997
 20
103.6389623344
 10
87.3454218968
 20
103.4899350103
 10
87.4152053351
 20
103.3413701803
 10
87.4886160684
 20
103.1936047904
 10
87.5655367047
 20
103.0468605139
 10
87.6457644039
 20
102.9014635325
 10
87.7290896454
 20
102.7577144153
 10
87.8154073308
 20
102.6157995702
 10
87.904557909
 20
102.4760505937
 10
87.9963621397
 20
102.338807646
 10
88.0906885749
 20
102.2042824821
 10
88.1873159095
 20
102.0727697756
 10
88.2860377202
 20
101.9445458049
 10
88.3867478448
 20
101.8197974407
 10
88.489261784
 20
101.6988559983
 10
88.5933638261
 20
101.5820419688
 10
88.6989203495
 20
101.4695508175
 10
88.8057122462
 20
101.3616549
 10
88.9135454313
 20
101.2586134223
 10
89.0223414056
 20
101.1606121017
 10
89.1319461398
 20
101.0679173831
 10
89.2420996916
 20
100.9808510065
 10
89.3015188187
 20
100.9364299045
  0
LINE
  5
22C
100
AcDbEntity
  8
RACCORDO
100
AcDbLine
 62
7
  6
CONTINUOUS
 10
86.8150039934
 20
105.4617683954
 30
0.0
 11
86.8476047082
 21
105.1720178963
 31
0.0
  0
LINE
  5
22D
100
AcDbEntity
  8
RACCORDO
100
AcDbLine
 62
250
  6
CONTINUOUS
 10
86.8872939573
 20
105.2653197888
 30
0.0
 11
86.864631451
 21
105.4671647446
 31
0.0
  0
LINE
  5
22E
100
AcDbEntity
  8
RACCORDO
100
AcDbLine
 62
7
  6
CONTINUOUS
 10
163.8299621262
 20
76.1736510413
 30
0.0
 11
163.0085958943
 21
75.9957773124
 31
0.0
  0
LWPOLYLINE
  5
22F
100
AcDbEntity
  8
RACCORDO
100
AcDbPolyline
 62
7
  6
CONTINUOUS
 90
17
 70
0
 10
187.3348923597
 20
44.3327663934
 10
187.4076068014
 20
44.300484553
 10
187.5388341954
 20
44.246617191
 10
187.6688053534
 20
44.1989319304
 10
187.7972621202
 20
44.1574806716
 10
187.9239945087
 20
44.1222708255
 10
188.0488760073
 20
44.0932654933
 10
188.1717620569
 20
44.0704653397
 10
188.2924683547
 20
44.0538976405
 10
188.4108200718
 20
44.0435880027
 10
188.5266265229
 20
44.0395316124
 10
188.6396990305
 20
44.0416943213
 10
188.7499000957
 20
44.0500058402
 10
188.8571112033
 20
44.0644415174
 10
188.9611556039
 20
44.0850053191
 10
189.0617505548
 20
44.1116688977
 10
189.1500691339
 20
44.1411719563
  0
LWPOLYLINE
  5
230
100
AcDbEntity
  8
RACCORDO
100
AcDbPolyline
 62
7
  6
CONTINUOUS
 90
13
 70
0
 10
89.5325058505
 20
100.7667489883
 10
91.0913343575
 20
99.6328857829
 10
92.7593267176
 20
98.4436528416
 10
94.4923401197
 20
97.2335701702
 10
96.2919680307
 20
96.0036240983
 10
98.1598389436
 20
94.7548679533
 10
100.097644675
 20
93.4883896411
 10
102.1071426343
 20
92.205356778
 10
104.1900949087
 20
90.9070568669
 10
106.3466050385
 20
89.5940748085
 10
108.5722466228
 20
88.2643942798
 10
110.8612953974
 20
86.9149338609
 10
113.1505988302
 20
85.5751661736
  0
LINE
  5
231
100
AcDbEntity
  8
RACCORDO
100
AcDbLine
 62
7
  6
CONTINUOUS
 10
89.3013566172
 20
100.9365490291
 30
0.0
 11
89.532504944
 21
100.7667496541
 31
0.0
  0
LINE
  5
232
100
AcDbEntity
  8
RACCORDO
100
AcDbLine
 62
250
  6
CONTINUOUS
 10
89.5618976877
 20
100.806886085
 30
0.0
 11
89.398013735
 21
100.9270737803
 31
0.0
  0
LINE
  5
233
100
AcDbEntity
  8
RACCORDO
100
AcDbLine
 62
7
  6
CONTINUOUS
 10
105.9318372147
 20
141.2882038889
 30
0.0
 11
105.9318372147
 21
107.5863022963
 31
0.0
  0
LWPOLYLINE
  5
234
100
AcDbEntity
  8
RACCORDO
100
AcDbPolyline
 62
7
  6
CONTINUOUS
 90
12
 70
0
 10
163.0641029726
 20
56.7737296194
 10
165.4011444882
 20
55.4521692779
 10
167.7038529772
 20
54.1672774105
 10
169.9774773688
 20
52.9224162309
 10
172.2254780779
 20
51.7201109245
 10
174.4468796159
 20
50.560311013
 10
176.6394803341
 20
49.4419694923
 10
178.8012632937
 20
48.3640668919
 10
180.9303396204
 20
47.3256291974
 10
183.0249241105
 20
46.3256934247
 10
185.0833108559
 20
45.3633379989
 10
187.3350037666
 20
44.3327161167
  0
LINE
  5
235
100
AcDbEntity
  8
RACCORDO
100
AcDbLine
 62
7
  6
CONTINUOUS
 10
160.7266148095
 20
58.1052858231
 30
0.0
 11
163.0641029726
 21
56.7737296194
 31
0.0
  0
LINE
  5
236
100
AcDbEntity
  8
RACCORDO
100
AcDbLine
 62
250
  6
CONTINUOUS
 10
160.7695965952
 20
58.1517001049
 30
0.0
 11
160.666364349
 21
58.2105912434
 31
0.0
  0
LWPOLYLINE
  5
237
100
AcDbEntity
  8
RACCORDO
100
AcDbPolyline
 62
7
  6
CONTINUOUS
 90
10
 70
0
 10
136.874128086
 20
71.7958371876
 10
139.4772831753
 20
70.2937848127
 10
142.1344715719
 20
68.762566656
 10
144.7934177233
 20
67.2323663589
 10
147.4541203047
 20
65.7031846841
 10
150.1165782108
 20
64.1750222662
 10
152.7807904228
 20
62.6478796898
 10
155.4467558343
 20
61.1217575894
 10
158.1144731158
 20
59.5966567252
 10
160.7266148089
 20
58.1052858234
  0
LINE
  5
238
100
AcDbEntity
  8
RACCORDO
100
AcDbLine
 62
250
  6
CONTINUOUS
 10
136.904663813
 20
71.8487581321
 30
0.0
 11
136.8139601813
 21
71.9010947138
 31
0.0
  0
LWPOLYLINE
  5
239
100
AcDbEntity
  8
RACCORDO
100
AcDbPolyline
 62
7
  6
CONTINUOUS
 90
9
 70
0
 10
115.7505597268
 20
84.057020609
 10
118.3919489417
 20
82.5167135181
 10
121.0351063504
 20
80.9774182411
 10
123.6800306361
 20
79.4391355454
 10
126.3267206998
 20
77.9018660695
 10
128.9751755288
 20
76.3656104013
 10
131.6253940234
 20
74.8303691791
 10
134.2773748618
 20
73.2961431677
 10
136.8741280861
 20
71.7958371876
  0
LINE
  5
23A
100
AcDbEntity
  8
RACCORDO
100
AcDbLine
 62
7
  6
CONTINUOUS
 10
113.1506009204
 20
85.5751649523
 30
0.0
 11
115.7505597268
 21
84.057020609
 31
0.0
  0
LINE
  5
23B
100
AcDbEntity
  8
RACCORDO
100
AcDbLine
 62
250
  6
CONTINUOUS
 10
113.1934386803
 20
85.6202731495
 30
0.0
 11
113.0905268822
 21
85.6803684543
 31
0.0
  0
LINE
  5
23C
100
AcDbEntity
  8
RACCORDO
100
AcDbLine
 62
7
  6
CONTINUOUS
 10
148.0301407693
 20
85.0921523053
 30
0.0
 11
147.0986933176
 21
84.9778380931
 31
0.0
  0
LINE
  5
23D
100
AcDbEntity
  8
0
100
AcDbLine
 62
7
  6
CONTINUOUS
 10
139.0662829356
 20
80.7954487043
 30
0.0
 11
138.7110989349
 21
81.0001992967
 31
0.0
  0
LINE
  5
23E
100
AcDbEntity
  8
0
100
AcDbLine
 62
7
  6
CONTINUOUS
 10
138.2900938568
 20
81.9798535977
 30
0.0
 11
138.0921379375
 21
82.0940046425
 31
0.0
  0
LINE
  5
23F
100
AcDbEntity
  8
0
100
AcDbLine
 62
7
  6
CONTINUOUS
 10
138.0582929232
 20
82.4228506781
 30
0.0
 11
138.269286442
 21
82.3011811694
 31
0.0
  0
LINE
  5
240
100
AcDbEntity
  8
0
100
AcDbLine
 62
7
  6
CONTINUOUS
 10
138.1456950022
 20
81.3262088982
 30
0.0
 11
137.7780070505
 21
81.5382656582
 31
0.0
  0
LINE
  5
241
100
AcDbEntity
  8
0
100
AcDbLine
 62
7
  6
CONTINUOUS
 10
137.6696064253
 20
81.600790843
 30
0.0
 11
137.2805602746
 21
81.8252200633
 31
0.0
  0
LINE
  5
242
100
AcDbEntity
  8
0
100
AcDbLine
 62
7
  6
CONTINUOUS
 10
137.1572801835
 20
82.2718623318
 30
0.0
 11
136.6546564979
 21
82.5618894841
 31
0.0
  0
LINE
  5
243
100
AcDbEntity
  8
0
100
AcDbLine
 62
7
  6
CONTINUOUS
 10
136.7092319356
 20
82.8215279108
 30
0.0
 11
137.0625988961
 21
82.6176259225
 31
0.0
  0
LINE
  5
244
100
AcDbEntity
  8
0
100
AcDbLine
 62
7
  6
CONTINUOUS
 10
136.580483007
 20
82.2291837807
 30
0.0
 11
136.2154579577
 21
82.4398692403
 31
0.0
  0
LINE
  5
245
100
AcDbEntity
  8
0
100
AcDbLine
 62
7
  6
CONTINUOUS
 10
136.1575131471
 20
82.4733174071
 30
0.0
 11
135.7965424227
 21
82.6817066002
 31
0.0
  0
LINE
  5
246
100
AcDbEntity
  8
0
100
AcDbLine
 62
7
  6
CONTINUOUS
 10
135.2820591827
 20
82.9787838619
 30
0.0
 11
135.2303171905
 21
83.0086653866
 31
0.0
  0
LINE
  5
247
100
AcDbEntity
  8
0
100
AcDbLine
 62
7
  6
CONTINUOUS
 10
134.7179469403
 20
83.3046061011
 30
0.0
 11
134.3650696501
 21
83.5084690987
 31
0.0
  0
LINE
  5
248
100
AcDbEntity
  8
0
100
AcDbLine
 62
7
  6
CONTINUOUS
 10
134.166515721
 20
83.6231927653
 30
0.0
 11
133.7977089929
 21
83.8363180327
 31
0.0
  0
LINE
  5
249
100
AcDbEntity
  8
0
100
AcDbLine
 62
7
  6
CONTINUOUS
 10
133.0930085625
 20
84.2436581235
 30
0.0
 11
132.7680831435
 21
84.4315240717
 31
0.0
  0
LINE
  5
24A
100
AcDbEntity
  8
RACCORDO
100
AcDbLine
 62
7
  6
CONTINUOUS
 10
119.4895785492
 20
100.5443994859
 30
0.0
 11
119.4895785492
 21
101.1231125061
 31
0.0
  0
LINE
  5
24B
100
AcDbEntity
  8
RACCORDO
100
AcDbLine
 62
7
  6
CONTINUOUS
 10
119.8747938207
 20
101.1440115817
 30
0.0
 11
119.8747938207
 21
101.5528301152
 31
0.0
  0
LINE
  5
24C
100
AcDbEntity
  8
0
100
AcDbLine
 62
7
  6
CONTINUOUS
 10
113.7076685178
 20
102.6884617937
 30
0.0
 11
113.7523307239
 21
102.7606826109
 31
0.0
  0
LINE
  5
24D
100
AcDbEntity
  8
DRAFT
100
AcDbLine
 62
7
  6
CONTINUOUS
 10
114.012788361
 20
102.7736193093
 30
0.0
 11
114.1244130626
 21
102.9541215251
 31
0.0
  0
LINE
  5
24E
100
AcDbEntity
  8
DRAFT
100
AcDbLine
 62
7
  6
CONTINUOUS
 10
114.3848706996
 20
102.9670582236
 30
0.0
 11
114.4964954012
 21
103.1475604394
 31
0.0
  0
LINE
  5
24F
100
AcDbEntity
  8
DRAFT
100
AcDbLine
 62
7
  6
CONTINUOUS
 10
114.7569530383
 20
103.1604971379
 30
0.0
 11
114.8685777399
 21
103.3409993537
 31
0.0
  0
LINE
  5
250
100
AcDbEntity
  8
DRAFT
100
AcDbLine
 62
7
  6
CONTINUOUS
 10
115.129035377
 20
103.3539360522
 30
0.0
 11
115.2406600785
 21
103.534438268
 31
0.0
  0
LINE
  5
251
100
AcDbEntity
  8
RACCORDO
100
AcDbLine
 62
250
  6
CONTINUOUS
 10
159.3354675633
 20
73.4547138948
 30
0.0
 11
157.9440294753
 21
74.2489958815
 31
0.0
  0
LINE
  5
252
100
AcDbEntity
  8
RACCORDO
100
AcDbLine
 62
250
  6
CONTINUOUS
 10
142.8997727414
 20
82.8697140635
 30
0.0
 11
135.4706841904
 21
87.1509415857
 31
0.0
  0
LINE
  5
253
100
AcDbEntity
  8
0
100
AcDbLine
 62
7
  6
CONTINUOUS
 10
136.6385637999
 20
84.0848887745
 30
0.0
 11
136.9956044575
 21
83.8788684095
 31
0.0
  0
LINE
  5
254
100
AcDbEntity
  8
RACCORDO
100
AcDbLine
 62
250
  6
CONTINUOUS
 10
138.1153694331
 20
85.6249581593
 30
0.0
 11
135.4706841904
 21
87.1509415857
 31
0.0
  0
LINE
  5
255
100
AcDbEntity
  8
0
100
AcDbLine
 62
7
  6
CONTINUOUS
 10
135.4957118421
 20
84.7445867264
 30
0.0
 11
135.8607766084
 21
84.5338164144
 31
0.0
  0
LINE
  5
256
100
AcDbEntity
  8
0
100
AcDbLine
 62
7
  6
CONTINUOUS
 10
135.6066474244
 20
84.7460085856
 30
0.0
 11
135.5524112874
 21
84.7773242756
 31
0.0
  0
LINE
  5
257
100
AcDbEntity
  8
RACCORDO
100
AcDbLine
 62
7
  6
CONTINUOUS
 10
106.2853367574
 20
106.9740231286
 30
0.0
 11
167.5430114001
 21
71.6046095288
 31
0.0
  0
LINE
  5
258
100
AcDbEntity
  8
DRAFT
100
AcDbLine
 62
7
  6
CONTINUOUS
 10
113.7523307239
 20
102.7606826109
 30
0.0
 11
118.1150600561
 21
100.2416973723
 31
0.0
  0
LINE
  5
259
100
AcDbEntity
  8
DRAFT
100
AcDbLine
 62
7
  6
CONTINUOUS
 10
161.482038454
 20
75.2021475612
 30
0.0
 11
165.8447677862
 21
72.6831623227
 31
0.0
  0
LINE
  5
25A
100
AcDbEntity
  8
DRAFT
100
AcDbLine
 62
7
  6
CONTINUOUS
 10
161.6308713895
 20
75.279523127
 30
0.0
 11
166.079284896
 21
72.7110767565
 31
0.0
  0
LINE
  5
25B
100
AcDbEntity
  8
DRAFT
100
AcDbLine
 62
7
  6
CONTINUOUS
 10
113.9011636594
 20
102.8380581766
 30
0.0
 11
118.3495771659
 21
100.2696118061
 31
0.0
  0
LINE
  5
25C
100
AcDbEntity
  8
DRAFT
100
AcDbLine
 62
7
  6
CONTINUOUS
 10
114.1244130626
 20
102.9541215251
 30
0.0
 11
118.4500844986
 21
100.4565330514
 31
0.0
  0
LINE
  5
25D
100
AcDbEntity
  8
DRAFT
100
AcDbLine
 62
7
  6
CONTINUOUS
 10
161.8541207927
 20
75.3955864755
 30
0.0
 11
166.1797922287
 21
72.8979980017
 31
0.0
  0
LINE
  5
25E
100
AcDbEntity
  8
DRAFT
100
AcDbLine
 62
7
  6
CONTINUOUS
 10
162.0029537281
 20
75.4729620412
 30
0.0
 11
166.4143093385
 21
72.9259124356
 31
0.0
  0
LINE
  5
25F
100
AcDbEntity
  8
DRAFT
100
AcDbLine
 62
7
  6
CONTINUOUS
 10
114.2732459981
 20
103.0314970909
 30
0.0
 11
118.6846016084
 21
100.4844474852
 31
0.0
  0
LINE
  5
260
100
AcDbEntity
  8
0
100
AcDbLine
 62
7
  6
CONTINUOUS
 10
134.3931908695
 20
85.3813611322
 30
0.0
 11
134.7617592065
 21
85.1684509701
 31
0.0
  0
LINE
  5
261
100
AcDbEntity
  8
0
100
AcDbLine
 62
7
  6
CONTINUOUS
 10
133.6662696778
 20
85.8015092338
 30
0.0
 11
134.0350764059
 21
85.5883839664
 31
0.0
  0
LINE
  5
262
100
AcDbEntity
  8
0
100
AcDbLine
 62
7
  6
CONTINUOUS
 10
133.1609125425
 20
86.0934937966
 30
0.0
 11
133.529420361
 21
85.8804874506
 31
0.0
  0
LINE
  5
263
100
AcDbEntity
  8
0
100
AcDbLine
 62
7
  6
CONTINUOUS
 10
132.0767409405
 20
86.7203985433
 30
0.0
 11
132.4772210532
 21
86.4887877984
 31
0.0
  0
LINE
  5
264
100
AcDbEntity
  8
RACCORDO
100
AcDbLine
 62
250
  6
CONTINUOUS
 10
135.6787690599
 20
87.5299538448
 30
0.0
 11
129.2629026103
 21
91.2404390836
 31
0.0
  0
LINE
  5
265
100
AcDbEntity
  8
RACCORDO
100
AcDbLine
 62
250
  6
CONTINUOUS
 10
133.0359690156
 20
89.0568980834
 30
0.0
 11
129.2631165504
 21
91.2405665196
 31
0.0
  0
LINE
  5
266
100
AcDbEntity
  8
RACCORDO
100
AcDbLine
 62
250
  6
CONTINUOUS
 10
111.7471811894
 20
100.9315940258
 30
0.0
 11
110.7636024704
 21
101.5066483302
 31
0.0
  0
LWPOLYLINE
  5
267
100
AcDbEntity
  8
RACCORDO
100
AcDbPolyline
 62
7
  6
CONTINUOUS
 90
4
 70
0
 10
119.8147478465
 20
100.9954400046
 10
119.8199091932
 20
101.010473715
 10
119.8238988802
 20
101.0258264326
 10
119.8241671856
 20
101.027182557
  0
LINE
  5
268
100
AcDbEntity
  8
0
100
AcDbLine
 62
7
  6
CONTINUOUS
 10
118.0748460251
 20
100.1669082346
 30
0.0
 11
118.1150600561
 21
100.2416973723
 31
0.0
  0
LINE
  5
269
100
AcDbEntity
  8
DRAFT
100
AcDbLine
 62
7
  6
CONTINUOUS
 10
118.3495771659
 20
100.2696118061
 30
0.0
 11
118.4500844986
 21
100.4565330514
 31
0.0
  0
LINE
  5
26A
100
AcDbEntity
  8
DRAFT
100
AcDbLine
 62
7
  6
CONTINUOUS
 10
118.6846016084
 20
100.4844474852
 30
0.0
 11
118.7851089412
 21
100.6713687304
 31
0.0
  0
LINE
  5
26B
100
AcDbEntity
  8
DRAFT
100
AcDbLine
 62
7
  6
CONTINUOUS
 10
119.019626051
 20
100.6992831642
 30
0.0
 11
119.1201333837
 21
100.8862044095
 31
0.0
  0
LINE
  5
26C
100
AcDbEntity
  8
DRAFT
100
AcDbLine
 62
7
  6
CONTINUOUS
 10
119.3546504935
 20
100.9141188433
 30
0.0
 11
119.4551578262
 21
101.1010400885
 31
0.0
  0
LINE
  5
26D
100
AcDbEntity
  8
RACCORDO
100
AcDbLine
 62
250
  6
CONTINUOUS
 10
119.8747938207
 20
101.1440115817
 30
0.0
 11
119.4895785492
 21
100.5438844539
 31
0.0
  0
LINE
  5
26E
100
AcDbEntity
  8
RACCORDO
100
AcDbLine
 62
7
  6
CONTINUOUS
 10
119.8588681635
 20
101.0812432336
 30
0.0
 11
119.4720117529
 21
100.4785593741
 31
0.0
  0
LINE
  5
26F
100
AcDbEntity
  8
RACCORDO
100
AcDbLine
 62
7
  6
CONTINUOUS
 10
119.4895785492
 20
101.1231125061
 30
0.0
 11
119.7976450367
 21
101.5973590743
 31
0.0
  0
LINE
  5
270
100
AcDbEntity
  8
RACCORDO
100
AcDbLine
 62
7
  6
CONTINUOUS
 10
132.1202381926
 20
94.2783306552
 30
0.0
 11
131.1887907409
 21
94.164016443
 31
0.0
  0
LINE
  5
271
100
AcDbEntity
  8
DRAFT
100
AcDbLine
 62
7
  6
CONTINUOUS
 10
114.4964954012
 20
103.1475604394
 30
0.0
 11
118.7851089412
 21
100.6713687304
 31
0.0
  0
LINE
  5
272
100
AcDbEntity
  8
DRAFT
100
AcDbLine
 62
7
  6
CONTINUOUS
 10
162.2262031313
 20
75.5890253898
 30
0.0
 11
166.5148166713
 21
73.1128336808
 31
0.0
  0
LINE
  5
273
100
AcDbEntity
  8
DRAFT
100
AcDbLine
 62
7
  6
CONTINUOUS
 10
162.3750360668
 20
75.6664009555
 30
0.0
 11
166.749333781
 21
73.1407481146
 31
0.0
  0
LINE
  5
274
100
AcDbEntity
  8
DRAFT
100
AcDbLine
 62
7
  6
CONTINUOUS
 10
114.6453283367
 20
103.2249360051
 30
0.0
 11
119.019626051
 21
100.6992831642
 31
0.0
  0
LINE
  5
275
100
AcDbEntity
  8
DRAFT
100
AcDbLine
 62
7
  6
CONTINUOUS
 10
114.8685777399
 20
103.3409993537
 30
0.0
 11
119.1201333837
 21
100.8862044095
 31
0.0
  0
LINE
  5
276
100
AcDbEntity
  8
DRAFT
100
AcDbLine
 62
7
  6
CONTINUOUS
 10
162.59828547
 20
75.7824643041
 30
0.0
 11
166.8498411138
 21
73.3276693598
 31
0.0
  0
LINE
  5
277
100
AcDbEntity
  8
DRAFT
100
AcDbLine
 62
7
  6
CONTINUOUS
 10
162.7471184054
 20
75.8598398698
 30
0.0
 11
167.0843582236
 21
73.3555837937
 31
0.0
  0
LINE
  5
278
100
AcDbEntity
  8
DRAFT
100
AcDbLine
 62
7
  6
CONTINUOUS
 10
115.0174106754
 20
103.4183749194
 30
0.0
 11
119.3546504935
 21
100.9141188433
 31
0.0
  0
LINE
  5
279
100
AcDbEntity
  8
DRAFT
100
AcDbLine
 62
7
  6
CONTINUOUS
 10
115.2406600785
 20
103.534438268
 30
0.0
 11
119.4551578262
 21
101.1010400885
 31
0.0
  0
LINE
  5
27A
100
AcDbEntity
  8
DRAFT
100
AcDbLine
 62
7
  6
CONTINUOUS
 10
162.9703678086
 20
75.9759032184
 30
0.0
 11
167.1848655563
 21
73.5425050389
 31
0.0
  0
LINE
  5
27B
100
AcDbEntity
  8
RACCORDO
100
AcDbLine
 62
250
  6
CONTINUOUS
 10
132.1202381926
 20
94.2783306552
 30
0.0
 11
135.5974663936
 21
92.2706226718
 31
0.0
  0
LINE
  5
27C
100
AcDbEntity
  8
RACCORDO
100
AcDbLine
 62
250
  6
CONTINUOUS
 10
148.0301407693
 20
85.0921523053
 30
0.0
 11
151.5073689703
 21
83.084444322
 31
0.0
  0
LINE
  5
27D
100
AcDbEntity
  8
RACCORDO
100
AcDbLine
 62
7
  6
CONTINUOUS
 10
132.2851869219
 20
94.2507410984
 30
0.0
 11
135.6325273284
 21
92.3180286997
 31
0.0
  0
LINE
  5
27E
100
AcDbEntity
  8
RACCORDO
100
AcDbLine
 62
7
  6
CONTINUOUS
 10
148.1950894986
 20
85.0645627485
 30
0.0
 11
151.5424299051
 21
83.1318503498
 31
0.0
  0
LINE
  5
27F
100
AcDbEntity
  8
RACCORDO
100
AcDbLine
 62
250
  6
CONTINUOUS
 10
116.1002543962
 20
103.7321860909
 30
0.0
 11
119.7976450367
 21
101.5973590743
 31
0.0
  0
LINE
  5
280
100
AcDbEntity
  8
RACCORDO
100
AcDbLine
 62
250
  6
CONTINUOUS
 10
163.8299621262
 20
76.1736510413
 30
0.0
 11
167.4581969031
 21
74.0787537536
 31
0.0
  0
LINE
  5
281
100
AcDbEntity
  8
RACCORDO
100
AcDbLine
 62
7
  6
CONTINUOUS
 10
116.2457089959
 20
103.7158522002
 30
0.0
 11
119.8333772965
 21
101.6443774875
 31
0.0
  0
LINE
  5
282
100
AcDbEntity
  8
RACCORDO
100
AcDbLine
 62
7
  6
CONTINUOUS
 10
163.975416726
 20
76.1573171506
 30
0.0
 11
167.4560587368
 21
74.1476380762
 31
0.0
  0
LWPOLYLINE
  5
283
100
AcDbEntity
  8
RACCORDO
100
AcDbPolyline
 62
7
  6
CONTINUOUS
 90
7
 70
0
 10
119.7616883228
 20
100.9126862861
 10
119.7732408962
 20
100.925652987
 10
119.7835042995
 20
100.9387808854
 10
119.792793684
 20
100.9523346285
 10
119.8012115847
 20
100.9664735141
 10
119.8085288379
 20
100.9808408704
 10
119.8147478465
 20
100.9954400046
  0
LINE
  5
284
100
AcDbEntity
  8
RACCORDO
100
AcDbLine
 62
250
  6
CONTINUOUS
 10
118.6915588577
 20
99.8108259743
 30
0.0
 11
119.0650117828
 21
100.203045402
 31
0.0
  0
LINE
  5
285
100
AcDbEntity
  8
RACCORDO
100
AcDbLine
 62
7
  6
CONTINUOUS
 10
118.7051027716
 20
99.8030058882
 30
0.0
 11
119.1203496592
 21
100.2391194797
 31
0.0
  0
LINE
  5
286
100
AcDbEntity
  8
RACCORDO
100
AcDbLine
 62
7
  6
CONTINUOUS
 10
119.7278845997
 20
100.8771838523
 30
0.0
 11
119.7616819172
 21
100.9126795297
 31
0.0
  0
LINE
  5
287
100
AcDbEntity
  8
SMUSSO
100
AcDbLine
 62
7
  6
CONTINUOUS
 10
115.2788881642
 20
103.554312362
 30
0.0
 11
115.2406600785
 21
103.534438268
 31
0.0
  0
LINE
  5
288
100
AcDbEntity
  8
DRAFT
100
AcDbLine
 62
7
  6
CONTINUOUS
 10
115.0174106754
 20
103.4183749194
 30
0.0
 11
114.8685777399
 21
103.3409993537
 31
0.0
  0
LINE
  5
289
100
AcDbEntity
  8
DRAFT
100
AcDbLine
 62
7
  6
CONTINUOUS
 10
114.6453283367
 20
103.2249360051
 30
0.0
 11
114.4964954012
 21
103.1475604394
 31
0.0
  0
LINE
  5
28A
100
AcDbEntity
  8
DRAFT
100
AcDbLine
 62
7
  6
CONTINUOUS
 10
114.2732459981
 20
103.0314970909
 30
0.0
 11
114.1244130626
 21
102.9541215251
 31
0.0
  0
LINE
  5
28B
100
AcDbEntity
  8
DRAFT
100
AcDbLine
 62
7
  6
CONTINUOUS
 10
113.9011636594
 20
102.8380581766
 30
0.0
 11
113.7523307239
 21
102.7606826109
 31
0.0
  0
LINE
  5
28C
100
AcDbEntity
  8
0
100
AcDbLine
 62
7
  6
CONTINUOUS
 10
137.7780070393
 20
81.5382656648
 30
0.0
 11
137.7709815212
 21
81.6367063298
 31
0.0
  0
LINE
  5
28D
100
AcDbEntity
  8
0
100
AcDbLine
 62
7
  6
CONTINUOUS
 10
138.6628543983
 20
81.9185237331
 30
0.0
 11
138.6636342226
 21
81.9069137008
 31
0.0
  0
LINE
  5
28E
100
AcDbEntity
  8
0
100
AcDbLine
 62
7
  6
CONTINUOUS
 10
138.0231533353
 20
82.962844773
 30
0.0
 11
138.0582929197
 21
82.4228506801
 31
0.0
  0
LINE
  5
28F
100
AcDbEntity
  8
RACCORDO
100
AcDbLine
 62
7
  6
CONTINUOUS
 10
135.3994811259
 20
91.732816587
 30
0.0
 11
135.3994811259
 21
91.1541035668
 31
0.0
  0
LINE
  5
290
100
AcDbEntity
  8
RACCORDO
100
AcDbLine
 62
7
  6
CONTINUOUS
 10
135.6470476473
 20
92.2420108593
 30
0.0
 11
135.6470476473
 21
91.8323568933
 31
0.0
  0
LINE
  5
291
100
AcDbEntity
  8
RACCORDO
100
AcDbLine
 62
250
  6
CONTINUOUS
 10
118.5179977588
 20
99.9110379776
 30
0.0
 11
119.4895785492
 21
100.5443994859
 31
0.0
  0
LINE
  5
292
100
AcDbEntity
  8
RACCORDO
100
AcDbLine
 62
7
  6
CONTINUOUS
 10
119.4433064428
 20
100.4496510151
 30
0.0
 11
118.5705362477
 21
99.8807029125
 31
0.0
  0
LINE
  5
293
100
AcDbEntity
  8
SMUSSO
100
AcDbLine
 62
7
  6
CONTINUOUS
 10
119.4895785492
 20
101.1231125061
 30
0.0
 11
119.4551578262
 21
101.1010400885
 31
0.0
  0
LINE
  5
294
100
AcDbEntity
  8
DRAFT
100
AcDbLine
 62
7
  6
CONTINUOUS
 10
119.2541431607
 20
100.9721386811
 30
0.0
 11
119.1201333837
 21
100.8862044095
 31
0.0
  0
LINE
  5
295
100
AcDbEntity
  8
DRAFT
100
AcDbLine
 62
7
  6
CONTINUOUS
 10
118.9191187182
 20
100.757303002
 30
0.0
 11
118.7851089412
 21
100.6713687304
 31
0.0
  0
LINE
  5
296
100
AcDbEntity
  8
DRAFT
100
AcDbLine
 62
7
  6
CONTINUOUS
 10
118.5840942757
 20
100.542467323
 30
0.0
 11
118.4500844986
 21
100.4565330514
 31
0.0
  0
LINE
  5
297
100
AcDbEntity
  8
DRAFT
100
AcDbLine
 62
7
  6
CONTINUOUS
 10
118.2490698331
 20
100.3276316439
 30
0.0
 11
118.1150600561
 21
100.2416973723
 31
0.0
  0
LINE
  5
298
100
AcDbEntity
  8
RACCORDO
100
AcDbLine
 62
7
  6
CONTINUOUS
 10
116.1002543962
 20
103.7321860909
 30
0.0
 11
115.2788881642
 21
103.554312362
 31
0.0
  0
LINE
  5
299
100
AcDbEntity
  8
0
100
AcDbLine
 62
7
  6
CONTINUOUS
 10
136.6865812378
 20
82.4836909368
 30
0.0
 11
136.6984088119
 21
82.5366390962
 31
0.0
  0
LINE
  5
29A
100
AcDbEntity
  8
0
100
AcDbLine
 62
7
  6
CONTINUOUS
 10
136.2154579577
 20
82.4398692403
 30
0.0
 11
136.2311065528
 21
82.5017866185
 31
0.0
  0
LINE
  5
29B
100
AcDbEntity
  8
RACCORDO
100
AcDbLine
 62
250
  6
CONTINUOUS
 10
135.6470476473
 20
91.8330058034
 30
0.0
 11
135.3994811259
 21
91.1534020125
 31
0.0
  0
LINE
  5
29C
100
AcDbEntity
  8
RACCORDO
100
AcDbLine
 62
7
  6
CONTINUOUS
 10
135.6384079424
 20
91.7860065386
 30
0.0
 11
135.3922308573
 21
91.1102169395
 31
0.0
  0
LINE
  5
29D
100
AcDbEntity
  8
RACCORDO
100
AcDbLine
 62
7
  6
CONTINUOUS
 10
135.3994811259
 20
91.732816587
 30
0.0
 11
135.5974663936
 21
92.2706226718
 31
0.0
  0
LINE
  5
29E
100
AcDbEntity
  8
RACCORDO
100
AcDbLine
 62
7
  6
CONTINUOUS
 10
131.1887907409
 20
94.164016443
 30
0.0
 11
129.7589363952
 21
93.420660891
 31
0.0
  0
LINE
  5
29F
100
AcDbEntity
  8
RACCORDO
100
AcDbLine
 62
250
  6
CONTINUOUS
 10
104.102340979
 20
142.5034887396
 30
0.0
 11
104.2143128277
 21
142.4358533517
 31
0.0
  0
LWPOLYLINE
  5
2A0
100
AcDbEntity
  8
RACCORDO
100
AcDbPolyline
 62
7
  6
CONTINUOUS
 90
7
 70
0
 10
104.1637890137
 20
142.352210084
 10
104.8538857234
 20
141.9348773584
 10
105.6287577854
 20
141.4692297732
 10
106.4328132802
 20
140.9889766023
 10
107.26596363
 20
140.4940849128
 10
108.128064601
 20
139.9844882206
 10
109.938240294
 20
138.9207210739
  0
LINE
  5
2A1
100
AcDbEntity
  8
RACCORDO
100
AcDbLine
 62
7
  6
CONTINUOUS
 10
151.3093837026
 20
82.5466382371
 30
0.0
 11
151.3093837026
 21
81.967925217
 31
0.0
  0
LINE
  5
2A2
100
AcDbEntity
  8
RACCORDO
100
AcDbLine
 62
7
  6
CONTINUOUS
 10
151.556950224
 20
83.0558325095
 30
0.0
 11
151.556950224
 21
82.6461785434
 31
0.0
  0
LINE
  5
2A3
100
AcDbEntity
  8
RACCORDO
100
AcDbLine
 62
250
  6
CONTINUOUS
 10
135.3994811259
 20
91.1541035668
 30
0.0
 11
134.5939474376
 21
90.628986112
 31
0.0
  0
LINE
  5
2A4
100
AcDbEntity
  8
RACCORDO
100
AcDbLine
 62
7
  6
CONTINUOUS
 10
135.3503586742
 20
91.0574969911
 30
0.0
 11
134.6464859266
 21
90.5986510469
 31
0.0
  0
LINE
  5
2A5
100
AcDbEntity
  8
RACCORDO
100
AcDbLine
 62
7
  6
CONTINUOUS
 10
135.3994811259
 20
91.732816587
 30
0.0
 11
134.1120344902
 21
90.907236608
 31
0.0
  0
LINE
  5
2A6
100
AcDbEntity
  8
0
100
AcDbLine
 62
7
  6
CONTINUOUS
 10
132.0767409405
 20
86.7203985431
 30
0.0
 11
132.133440404
 21
86.7531361027
 31
0.0
  0
LINE
  5
2A7
100
AcDbEntity
  8
0
100
AcDbLine
 62
7
  6
CONTINUOUS
 10
132.4772210532
 20
86.4887877986
 30
0.0
 11
132.5339205127
 21
86.5215253559
 31
0.0
  0
LINE
  5
2A8
100
AcDbEntity
  8
0
100
AcDbLine
 62
7
  6
CONTINUOUS
 10
133.1609125425
 20
86.0934937965
 30
0.0
 11
133.2176119964
 21
86.1262313506
 31
0.0
  0
LINE
  5
2A9
100
AcDbEntity
  8
0
100
AcDbLine
 62
7
  6
CONTINUOUS
 10
133.529420361
 20
85.8804874507
 30
0.0
 11
133.5861198124
 21
85.9132250033
 31
0.0
  0
LINE
  5
2AA
100
AcDbEntity
  8
0
100
AcDbLine
 62
7
  6
CONTINUOUS
 10
133.6662696778
 20
85.8015092337
 30
0.0
 11
133.7229691264
 21
85.8342467847
 31
0.0
  0
LINE
  5
2AB
100
AcDbEntity
  8
0
100
AcDbLine
 62
7
  6
CONTINUOUS
 10
134.0350764059
 20
85.5883839665
 30
0.0
 11
134.0917758526
 21
85.6211215165
 31
0.0
  0
LWPOLYLINE
  5
2AC
100
AcDbEntity
  8
RACCORDO
100
AcDbPolyline
 62
7
  6
CONTINUOUS
 90
6
 70
0
 10
163.1306299536
 20
108.2266379627
 10
164.013553793
 20
107.7286665611
 10
164.8710614178
 20
107.2473786643
 10
165.7032756193
 20
106.7828536781
 10
166.5102561598
 20
106.3351413169
 10
167.2384079915
 20
105.9337115324
  0
LINE
  5
2AD
100
AcDbEntity
  8
RACCORDO
100
AcDbLine
 62
7
  6
CONTINUOUS
 10
161.2877212093
 20
109.2721344282
 30
0.0
 11
163.1306299536
 21
108.2266379627
 31
0.0
  0
LINE
  5
2AE
100
AcDbEntity
  8
RACCORDO
100
AcDbLine
 62
250
  6
CONTINUOUS
 10
159.3354675633
 20
110.5012751963
 30
0.0
 11
159.4473244921
 21
110.4374681322
 31
0.0
  0
LWPOLYLINE
  5
2AF
100
AcDbEntity
  8
RACCORDO
100
AcDbPolyline
 62
7
  6
CONTINUOUS
 90
9
 70
0
 10
138.1322740496
 20
122.5487295061
 10
140.7908308981
 20
121.0166651018
 10
143.4511455174
 20
119.485583017
 10
146.1132165825
 20
117.9554840145
 10
148.7770429878
 20
116.4263687291
 10
151.4426237147
 20
114.8982377452
 10
154.1099576571
 20
113.3710916973
 10
156.7790434859
 20
111.8449313454
 10
161.2877212093
 20
109.2721344282
  0
LWPOLYLINE
  5
2B0
100
AcDbEntity
  8
RACCORDO
100
AcDbPolyline
 62
7
  6
CONTINUOUS
 90
12
 70
0
 10
167.2384409066
 20
105.9336934525
 10
167.2540525605
 20
105.9246919469
 10
167.2765812077
 20
105.9102531447
 10
167.3001483454
 20
105.8933507242
 10
167.324356186
 20
105.8740771313
 10
167.3489690965
 20
105.8524607181
 10
167.3737723792
 20
105.8285389788
 10
167.398431627
 20
105.8025058779
 10
167.4227195779
 20
105.7744996286
 10
167.4464493153
 20
105.7446427994
 10
167.4693744895
 20
105.71316905
 10
167.4926937018
 20
105.6781005878
  0
LINE
  5
2B1
100
AcDbEntity
  8
RACCORDO
100
AcDbLine
 62
250
  6
CONTINUOUS
 10
135.4706841904
 20
124.2003541203
 30
0.0
 11
135.582607549
 21
124.1357728509
 31
0.0
  0
LWPOLYLINE
  5
2B2
100
AcDbEntity
  8
RACCORDO
100
AcDbPolyline
 62
7
  6
CONTINUOUS
 90
9
 70
0
 10
114.3932398237
 20
136.3179914831
 10
117.0359962667
 20
134.7771571236
 10
119.6805210537
 20
133.2372989606
 10
122.3268128675
 20
131.6984177614
 10
124.9748706094
 20
130.1605141645
 10
127.6246932667
 20
128.6235887579
 10
130.2762797399
 20
127.0876421794
 10
132.929628708
 20
125.5526751937
 10
138.1322740496
 20
122.5487295061
  0
LINE
  5
2B3
100
AcDbEntity
  8
RACCORDO
100
AcDbLine
 62
250
  6
CONTINUOUS
 10
111.7471811894
 20
137.9781553273
 30
0.0
 11
111.8591530688
 21
137.9127877222
 31
0.0
  0
LINE
  5
2B4
100
AcDbEntity
  8
RACCORDO
100
AcDbLine
 62
7
  6
CONTINUOUS
 10
109.938240294
 20
138.9207210739
 30
0.0
 11
114.3932398237
 21
136.3179914831
 31
0.0
  0
LINE
  5
2B5
100
AcDbEntity
  8
RACCORDO
100
AcDbLine
 62
250
  6
CONTINUOUS
 10
151.556950224
 20
82.6468274536
 30
0.0
 11
151.3093837026
 21
81.9672236626
 31
0.0
  0
LINE
  5
2B6
100
AcDbEntity
  8
RACCORDO
100
AcDbLine
 62
7
  6
CONTINUOUS
 10
151.5483105191
 20
82.5998281888
 30
0.0
 11
151.302133434
 21
81.9240385896
 31
0.0
  0
LINE
  5
2B7
100
AcDbEntity
  8
RACCORDO
100
AcDbLine
 62
7
  6
CONTINUOUS
 10
151.3093837026
 20
82.5466382371
 30
0.0
 11
151.5073689703
 21
83.084444322
 31
0.0
  0
LINE
  5
2B8
100
AcDbEntity
  8
0
100
AcDbLine
 62
7
  6
CONTINUOUS
 10
134.3931908695
 20
85.3813611321
 30
0.0
 11
134.4498903168
 21
85.4140986824
 31
0.0
  0
LINE
  5
2B9
100
AcDbEntity
  8
0
100
AcDbLine
 62
7
  6
CONTINUOUS
 10
133.0930085625
 20
84.2436581237
 30
0.0
 11
133.1497434712
 21
84.2764161489
 31
0.0
  0
LINE
  5
2BA
100
AcDbEntity
  8
0
100
AcDbLine
 62
7
  6
CONTINUOUS
 10
134.7617592065
 20
85.1684509702
 30
0.0
 11
134.8184586527
 21
85.2011885198
 31
0.0
  0
LINE
  5
2BB
100
AcDbEntity
  8
0
100
AcDbLine
 62
7
  6
CONTINUOUS
 10
135.4957118421
 20
84.7445867264
 30
0.0
 11
135.5524112874
 21
84.7773242756
 31
0.0
  0
LINE
  5
2BC
100
AcDbEntity
  8
0
100
AcDbLine
 62
7
  6
CONTINUOUS
 10
134.166515721
 20
83.6231927654
 30
0.0
 11
134.2232506232
 21
83.6559507868
 31
0.0
  0
LINE
  5
2BD
100
AcDbEntity
  8
0
100
AcDbLine
 62
7
  6
CONTINUOUS
 10
135.8607766084
 20
84.5338164144
 30
0.0
 11
135.9174760539
 21
84.5665539636
 31
0.0
  0
LINE
  5
2BE
100
AcDbEntity
  8
0
100
AcDbLine
 62
7
  6
CONTINUOUS
 10
134.7179469403
 20
83.3046061012
 30
0.0
 11
134.7746818405
 21
83.3373641215
 31
0.0
  0
LINE
  5
2BF
100
AcDbEntity
  8
0
100
AcDbLine
 62
7
  6
CONTINUOUS
 10
136.6385637999
 20
84.0848887746
 30
0.0
 11
136.695263247
 21
84.1176263247
 31
0.0
  0
LINE
  5
2C0
100
AcDbEntity
  8
0
100
AcDbLine
 62
7
  6
CONTINUOUS
 10
135.2820591827
 20
82.9787838619
 30
0.0
 11
135.3387940818
 21
83.0115418815
 31
0.0
  0
LINE
  5
2C1
100
AcDbEntity
  8
0
100
AcDbLine
 62
7
  6
CONTINUOUS
 10
136.9956044575
 20
83.8788684095
 30
0.0
 11
137.0523039059
 21
83.9116059604
 31
0.0
  0
LINE
  5
2C2
100
AcDbEntity
  8
0
100
AcDbLine
 62
7
  6
CONTINUOUS
 10
137.6480078512
 20
83.4803203642
 30
0.0
 11
137.7047076868
 21
83.5130581387
 31
0.0
  0
LINE
  5
2C3
100
AcDbEntity
  8
0
100
AcDbLine
 62
7
  6
CONTINUOUS
 10
136.7092319356
 20
82.8215279108
 30
0.0
 11
136.7659535796
 21
82.8542782772
 31
0.0
  0
LINE
  5
2C4
100
AcDbEntity
  8
0
100
AcDbLine
 62
7
  6
CONTINUOUS
 10
136.1575131471
 20
82.4733174071
 30
0.0
 11
136.2142480463
 21
82.5060754267
 31
0.0
  0
LINE
  5
2C5
100
AcDbEntity
  8
0
100
AcDbLine
 62
7
  6
CONTINUOUS
 10
136.580483007
 20
82.2291837807
 30
0.0
 11
136.637217907
 21
82.2619418008
 31
0.0
  0
LINE
  5
2C6
100
AcDbEntity
  8
0
100
AcDbLine
 62
250
  6
CONTINUOUS
 10
138.5604262846
 20
82.9341767057
 30
0.0
 11
138.6171264751
 21
82.9669146851
 31
0.0
  0
LINE
  5
2C7
100
AcDbEntity
  8
0
100
AcDbLine
 62
7
  6
CONTINUOUS
 10
138.0582929232
 20
82.4228506781
 30
0.0
 11
138.1150074249
 21
82.4555969205
 31
0.0
  0
LINE
  5
2C8
100
AcDbEntity
  8
0
100
AcDbLine
 62
250
  6
CONTINUOUS
 10
138.269286442
 20
82.3011811694
 30
0.0
 11
138.3260009454
 21
82.3339274128
 31
0.0
  0
LINE
  5
2C9
100
AcDbEntity
  8
0
100
AcDbLine
 62
7
  6
CONTINUOUS
 10
137.6696064253
 20
81.6007908429
 30
0.0
 11
137.7263413299
 21
81.6335488657
 31
0.0
  0
LINE
  5
2CA
100
AcDbEntity
  8
0
100
AcDbLine
 62
7
  6
CONTINUOUS
 10
138.6636342226
 20
81.9069137008
 30
0.0
 11
138.6767263103
 21
81.9144729082
 31
0.0
  0
LWPOLYLINE
  5
2CB
100
AcDbEntity
  8
RACCORDO
100
AcDbPolyline
 62
7
  6
CONTINUOUS
 90
9
 70
0
 10
167.6327557307
 20
69.4843209014
 10
167.6331846158
 20
69.4687082666
 10
167.6328788866
 20
69.4515466656
 10
167.6317954023
 20
69.4362458096
 10
167.630069239
 20
69.4228436392
 10
167.6278907123
 20
69.4115788357
 10
167.6255774229
 20
69.4028614232
 10
167.6234783868
 20
69.3967804183
 10
167.6225987122
 20
69.3946539097
  0
LINE
  5
2CC
100
AcDbEntity
  8
RACCORDO
100
AcDbLine
 62
7
  6
CONTINUOUS
 10
151.3093837026
 20
82.5466382371
 30
0.0
 11
150.0219370669
 21
81.7210582582
 31
0.0
  0
LINE
  5
2CD
100
AcDbEntity
  8
0
100
AcDbLine
 62
7
  6
CONTINUOUS
 10
138.1456950022
 20
81.3262088981
 30
0.0
 11
138.20242991
 21
81.3589669228
 31
0.0
  0
LINE
  5
2CE
100
AcDbEntity
  8
0
100
AcDbLine
 62
250
  6
CONTINUOUS
 10
138.9027262835
 20
81.3990146764
 30
0.0
 11
138.9594509868
 21
81.4317668092
 31
0.0
  0
LINE
  5
2CF
100
AcDbEntity
  8
0
100
AcDbLine
 62
7
  6
CONTINUOUS
 10
139.0662829356
 20
80.7954487041
 30
0.0
 11
139.1230178516
 21
80.8282067336
 31
0.0
  0
LINE
  5
2D0
100
AcDbEntity
  8
RACCORDO
100
AcDbLine
 62
7
  6
CONTINUOUS
 10
147.0986933176
 20
84.9778380931
 30
0.0
 11
145.6688389719
 21
84.2344825411
 31
0.0
  0
LINE
  5
2D1
100
AcDbEntity
  8
RACCORDO
100
AcDbLine
 62
250
  6
CONTINUOUS
 10
160.666364349
 20
127.3108656365
 30
0.0
 11
160.678813256
 21
127.3037627016
 31
0.0
  0
LINE
  5
2D2
100
AcDbEntity
  8
RACCORDO
100
AcDbLine
 62
250
  6
CONTINUOUS
 10
160.8459397491
 20
127.6251537757
 30
0.0
 11
160.858388107
 21
127.618051154
 31
0.0
  0
LINE
  5
2D3
100
AcDbEntity
  8
RACCORDO
100
AcDbLine
 62
250
  6
CONTINUOUS
 10
113.2722489246
 20
155.0936915236
 30
0.0
 11
113.2845502218
 21
155.0865040046
 31
0.0
  0
LWPOLYLINE
  5
2D4
100
AcDbEntity
  8
RACCORDO
100
AcDbPolyline
 62
7
  6
CONTINUOUS
 90
15
 70
0
 10
167.492694868
 20
105.6780987472
 10
167.5101944289
 20
105.6494136422
 10
167.5295173255
 20
105.6149148292
 10
167.5474740575
 20
105.5795996676
 10
167.5638964483
 20
105.5437955631
 10
167.5786948983
 20
105.5077266075
 10
167.5917882805
 20
105.4716403565
 10
167.6030796029
 20
105.4359081888
 10
167.6125483904
 20
105.4007661135
 10
167.6201867097
 20
105.3664766368
 10
167.6259891573
 20
105.3334506385
 10
167.6300266854
 20
105.3018938561
 10
167.6323889888
 20
105.2720158563
 10
167.6331911381
 20
105.2442108816
 10
167.6327207901
 20
105.221130389
  0
LWPOLYLINE
  5
2D5
100
AcDbEntity
  8
RACCORDO
100
AcDbPolyline
 62
7
  6
CONTINUOUS
 90
10
 70
0
 10
167.2720734024
 20
87.1376532119
 10
167.2769871337
 20
84.9570273832
 10
167.2918485924
 20
82.7789082286
 10
167.3159409125
 20
80.6687362863
 10
167.3485484444
 20
78.626135472
 10
167.3890346753
 20
76.6507457383
 10
167.437588509
 20
74.7426849153
 10
167.4947127523
 20
72.9023394242
 10
167.5606764027
 20
71.1299709424
 10
167.6327537837
 20
69.4843619848
  0
LINE
  5
2D6
100
AcDbEntity
  8
RACCORDO
100
AcDbLine
 62
7
  6
CONTINUOUS
 10
167.2192862793
 20
72.9858644363
 30
0.0
 11
167.2192862793
 21
73.5645774565
 31
0.0
  0
LWPOLYLINE
  5
2D7
100
AcDbEntity
  8
RACCORDO
100
AcDbPolyline
 62
7
  6
CONTINUOUS
 90
10
 70
0
 10
167.6327191107
 20
105.221092978
 10
167.5608676926
 20
103.4951164399
 10
167.494878717
 20
101.6440691514
 10
167.4377289831
 20
99.7355737498
 10
167.3891540618
 20
97.7695745879
 10
167.3486378463
 20
95.7458568844
 10
167.3160130351
 20
93.6643402489
 10
167.2918975403
 20
91.5254187109
 10
167.2770115216
 20
89.3295709362
 10
167.2720734024
 20
87.1376523311
  0
LINE
  5
2D8
100
AcDbEntity
  8
RACCORDO
100
AcDbLine
 62
250
  6
CONTINUOUS
 10
151.3093837026
 20
81.967925217
 30
0.0
 11
150.5038500143
 21
81.4428077621
 31
0.0
  0
LINE
  5
2D9
100
AcDbEntity
  8
RACCORDO
100
AcDbLine
 62
7
  6
CONTINUOUS
 10
151.2602612509
 20
81.8713186413
 30
0.0
 11
150.5563885033
 21
81.4124726971
 31
0.0
  0
LWPOLYLINE
  5
2DA
100
AcDbEntity
  8
RACCORDO
100
AcDbPolyline
 62
7
  6
CONTINUOUS
 90
8
 70
0
 10
93.1338695229
 20
171.8401798778
 10
93.0809017473
 20
171.870103293
 10
92.9744969387
 20
171.925138661
 10
92.8687592696
 20
171.9730434669
 10
92.7639731617
 20
172.0137813957
 10
92.6603633327
 20
172.0473609246
 10
92.5581073356
 20
172.0737906467
 10
92.4895216049
 20
172.0876588941
  0
LINE
  5
2DB
100
AcDbEntity
  8
RACCORDO
100
AcDbLine
 62
250
  6
CONTINUOUS
 10
190.8886953944
 20
115.3910418424
 30
0.0
 11
191.1176644996
 21
115.2600701475
 31
0.0
  0
LWPOLYLINE
  5
2DC
100
AcDbEntity
  8
RACCORDO
100
AcDbPolyline
 62
7
  6
CONTINUOUS
 90
3
 70
0
 10
191.1387219321
 20
115.2534063957
 10
188.5214569425
 20
116.7595972821
 10
175.0182475278
 20
124.543664505
  0
LINE
  5
2DD
100
AcDbEntity
  8
RACCORDO
100
AcDbLine
 62
250
  6
CONTINUOUS
 10
142.0918075844
 20
143.5310972056
 30
0.0
 11
142.2335790525
 21
143.4492402085
 31
0.0
  0
LINE
  5
2DE
100
AcDbEntity
  8
RACCORDO
100
AcDbLine
 62
250
  6
CONTINUOUS
 10
165.8866063107
 20
129.7937051379
 30
0.0
 11
165.9214925782
 21
129.7735664129
 31
0.0
  0
LINE
  5
2DF
100
AcDbEntity
  8
RACCORDO
100
AcDbLine
 62
7
  6
CONTINUOUS
 10
175.0182475278
 20
124.543664505
 30
0.0
 11
165.9301021283
 21
129.7884688477
 31
0.0
  0
LINE
  5
2E0
100
AcDbEntity
  8
RACCORDO
100
AcDbLine
 62
250
  6
CONTINUOUS
 10
118.2996864226
 20
157.2703419107
 30
0.0
 11
118.3345645361
 21
157.2501973955
 31
0.0
  0
LINE
  5
2E1
100
AcDbEntity
  8
RACCORDO
100
AcDbLine
 62
7
  6
CONTINUOUS
 10
165.9300969895
 20
129.788471815
 30
0.0
 11
115.2596017233
 21
159.0452450309
 31
0.0
  0
LINE
  5
2E2
100
AcDbEntity
  8
RACCORDO
100
AcDbLine
 62
7
  6
CONTINUOUS
 10
115.2596017233
 20
159.0452450309
 30
0.0
 11
109.2496280986
 21
162.5176443192
 31
0.0
  0
LINE
  5
2E3
100
AcDbEntity
  8
RACCORDO
100
AcDbLine
 62
7
  6
CONTINUOUS
 10
109.2496280986
 20
162.5176443192
 30
0.0
 11
95.7436697088
 21
170.3283393707
 31
0.0
  0
LINE
  5
2E4
100
AcDbEntity
  8
RACCORDO
100
AcDbLine
 62
7
  6
CONTINUOUS
 10
95.7436697088
 20
170.3283393707
 30
0.0
 11
93.1338634056
 21
171.8401834307
 31
0.0
  0
LINE
  5
2E5
100
AcDbEntity
  8
RACCORDO
100
AcDbLine
 62
250
  6
CONTINUOUS
 10
93.1125445166
 20
171.8469314344
 30
0.0
 11
93.3590391744
 21
171.7034171798
 31
0.0
  0
LINE
  5
2E6
100
AcDbEntity
  8
0
100
AcDbLine
 62
7
  6
CONTINUOUS
 10
161.4373762479
 20
75.1299267441
 30
0.0
 11
161.482038454
 21
75.2021475612
 31
0.0
  0
LINE
  5
2E7
100
AcDbEntity
  8
DRAFT
100
AcDbLine
 62
7
  6
CONTINUOUS
 10
161.7424960911
 20
75.2150842597
 30
0.0
 11
161.8541207927
 21
75.3955864755
 31
0.0
  0
LINE
  5
2E8
100
AcDbEntity
  8
DRAFT
100
AcDbLine
 62
7
  6
CONTINUOUS
 10
162.1145784297
 20
75.408523174
 30
0.0
 11
162.2262031313
 21
75.5890253898
 31
0.0
  0
LINE
  5
2E9
100
AcDbEntity
  8
DRAFT
100
AcDbLine
 62
7
  6
CONTINUOUS
 10
162.4866607684
 20
75.6019620883
 30
0.0
 11
162.59828547
 21
75.7824643041
 31
0.0
  0
LINE
  5
2EA
100
AcDbEntity
  8
DRAFT
100
AcDbLine
 62
7
  6
CONTINUOUS
 10
162.858743107
 20
75.7954010026
 30
0.0
 11
162.9703678086
 21
75.9759032184
 31
0.0
  0
LINE
  5
2EB
100
AcDbEntity
  8
SMUSSO
100
AcDbLine
 62
7
  6
CONTINUOUS
 10
163.0085958943
 20
75.9957773124
 30
0.0
 11
162.9703678086
 21
75.9759032184
 31
0.0
  0
LINE
  5
2EC
100
AcDbEntity
  8
DRAFT
100
AcDbLine
 62
7
  6
CONTINUOUS
 10
162.7471184054
 20
75.8598398698
 30
0.0
 11
162.59828547
 21
75.7824643041
 31
0.0
  0
LINE
  5
2ED
100
AcDbEntity
  8
DRAFT
100
AcDbLine
 62
7
  6
CONTINUOUS
 10
162.3750360668
 20
75.6664009555
 30
0.0
 11
162.2262031313
 21
75.5890253898
 31
0.0
  0
LINE
  5
2EE
100
AcDbEntity
  8
DRAFT
100
AcDbLine
 62
7
  6
CONTINUOUS
 10
162.0029537281
 20
75.4729620412
 30
0.0
 11
161.8541207927
 21
75.3955864755
 31
0.0
  0
LINE
  5
2EF
100
AcDbEntity
  8
DRAFT
100
AcDbLine
 62
7
  6
CONTINUOUS
 10
161.6308713895
 20
75.279523127
 30
0.0
 11
161.482038454
 21
75.2021475612
 31
0.0
  0
LWPOLYLINE
  5
2F0
100
AcDbEntity
  8
RACCORDO
100
AcDbPolyline
 62
7
  6
CONTINUOUS
 90
11
 70
0
 10
104.0660755049
 20
142.3872695151
 10
104.066888049
 20
142.3873845373
 10
104.0701583793
 20
142.3875198316
 10
104.0759003077
 20
142.3871953358
 10
104.0841269223
 20
142.3859908034
 10
104.0948006652
 20
142.3835229145
 10
104.1076021363
 20
142.379527232
 10
104.1221544365
 20
142.3738557403
 10
104.1382148074
 20
142.3663947513
 10
104.1555725588
 20
142.3570601331
 10
104.16369028
 20
142.3522700565
  0
LINE
  5
2F1
100
AcDbEntity
  8
0
100
AcDbLine
 62
7
  6
CONTINUOUS
 10
165.8045537552
 20
72.608373185
 30
0.0
 11
165.8447677862
 21
72.6831623227
 31
0.0
  0
LINE
  5
2F2
100
AcDbEntity
  8
DRAFT
100
AcDbLine
 62
7
  6
CONTINUOUS
 10
166.079284896
 20
72.7110767565
 30
0.0
 11
166.1797922287
 21
72.8979980017
 31
0.0
  0
LINE
  5
2F3
100
AcDbEntity
  8
DRAFT
100
AcDbLine
 62
7
  6
CONTINUOUS
 10
166.4143093385
 20
72.9259124356
 30
0.0
 11
166.5148166713
 21
73.1128336808
 31
0.0
  0
LINE
  5
2F4
100
AcDbEntity
  8
DRAFT
100
AcDbLine
 62
7
  6
CONTINUOUS
 10
166.749333781
 20
73.1407481146
 30
0.0
 11
166.8498411138
 21
73.3276693598
 31
0.0
  0
LINE
  5
2F5
100
AcDbEntity
  8
DRAFT
100
AcDbLine
 62
7
  6
CONTINUOUS
 10
167.0843582236
 20
73.3555837937
 30
0.0
 11
167.1848655563
 21
73.5425050389
 31
0.0
  0
LINE
  5
2F6
100
AcDbEntity
  8
RACCORDO
100
AcDbLine
 62
250
  6
CONTINUOUS
 10
167.4795504861
 20
73.3908151853
 30
0.0
 11
167.2192862793
 21
72.9853494043
 31
0.0
  0
LINE
  5
2F7
100
AcDbEntity
  8
RACCORDO
100
AcDbLine
 62
7
  6
CONTINUOUS
 10
167.4806743465
 20
73.354608292
 30
0.0
 11
167.201719483
 21
72.9200243245
 31
0.0
  0
LINE
  5
2F8
100
AcDbEntity
  8
RACCORDO
100
AcDbLine
 62
7
  6
CONTINUOUS
 10
167.2192862793
 20
73.5645774565
 30
0.0
 11
167.4625336261
 21
73.9390395422
 31
0.0
  0
LINE
  5
2F9
100
AcDbEntity
  8
RACCORDO
100
AcDbLine
 62
250
  6
CONTINUOUS
 10
166.4212665878
 20
72.2522909247
 30
0.0
 11
166.7947195129
 21
72.6445103524
 31
0.0
  0
LINE
  5
2FA
100
AcDbEntity
  8
RACCORDO
100
AcDbLine
 62
7
  6
CONTINUOUS
 10
166.4348105017
 20
72.2444708385
 30
0.0
 11
166.8500573893
 21
72.6805844301
 31
0.0
  0
LINE
  5
2FB
100
AcDbEntity
  8
RACCORDO
100
AcDbLine
 62
7
  6
CONTINUOUS
 10
167.4575923298
 20
73.3186488027
 30
0.0
 11
167.4810265768
 21
73.3432606515
 31
0.0
  0
LINE
  5
2FC
100
AcDbEntity
  8
RACCORDO
100
AcDbLine
 62
250
  6
CONTINUOUS
 10
166.2477054889
 20
72.3525029279
 30
0.0
 11
167.2192862793
 21
72.9858644363
 31
0.0
  0
LINE
  5
2FD
100
AcDbEntity
  8
RACCORDO
100
AcDbLine
 62
7
  6
CONTINUOUS
 10
167.1730141729
 20
72.8911159655
 30
0.0
 11
166.3002439778
 21
72.3221678629
 31
0.0
  0
LINE
  5
2FE
100
AcDbEntity
  8
SMUSSO
100
AcDbLine
 62
7
  6
CONTINUOUS
 10
167.2192862793
 20
73.5645774565
 30
0.0
 11
167.1848655563
 21
73.5425050389
 31
0.0
  0
LINE
  5
2FF
100
AcDbEntity
  8
DRAFT
100
AcDbLine
 62
7
  6
CONTINUOUS
 10
166.9838508908
 20
73.4136036315
 30
0.0
 11
166.8498411138
 21
73.3276693598
 31
0.0
  0
LINE
  5
300
100
AcDbEntity
  8
DRAFT
100
AcDbLine
 62
7
  6
CONTINUOUS
 10
166.6488264483
 20
73.1987679524
 30
0.0
 11
166.5148166713
 21
73.1128336808
 31
0.0
  0
LINE
  5
301
100
AcDbEntity
  8
DRAFT
100
AcDbLine
 62
7
  6
CONTINUOUS
 10
166.3138020057
 20
72.9839322734
 30
0.0
 11
166.1797922287
 21
72.8979980017
 31
0.0
  0
LINE
  5
302
100
AcDbEntity
  8
DRAFT
100
AcDbLine
 62
7
  6
CONTINUOUS
 10
165.9787775632
 20
72.7690965943
 30
0.0
 11
165.8447677862
 21
72.6831623227
 31
0.0
  0
LINE
  5
303
100
AcDbEntity
  8
RACCORDO
100
AcDbLine
 62
250
  6
CONTINUOUS
 10
188.5467293588
 20
58.7920755168
 30
0.0
 11
188.5532986633
 21
58.6604598282
 31
0.0
  0
LINE
  5
304
100
AcDbEntity
  8
RACCORDO
100
AcDbLine
 62
250
  6
CONTINUOUS
 10
188.5532917693
 20
95.4016252756
 30
0.0
 11
188.5467361159
 21
95.2624173869
 31
0.0
  0
LINE
  5
305
100
AcDbEntity
  8
RACCORDO
100
AcDbLine
 62
7
  6
CONTINUOUS
 10
167.6328374919
 20
69.4021063051
 30
0.0
 11
167.632390405
 21
69.401830893
 31
0.0
  0
LWPOLYLINE
  5
306
100
AcDbEntity
  8
RACCORDO
100
AcDbPolyline
 62
7
  6
CONTINUOUS
 90
31
 70
0
 10
193.0267964996
 20
111.9830395203
 10
193.026257384
 20
112.0430424185
 10
193.0208798089
 20
112.1672618028
 10
193.0098017788
 20
112.2935534156
 10
192.9931434102
 20
112.4215066068
 10
192.9710337775
 20
112.5507976392
 10
192.9435741943
 20
112.6811843426
 10
192.9108757257
 20
112.8123178979
 10
192.873061129
 20
112.9438369364
 10
192.8302361488
 20
113.0754683397
 10
192.7825359547
 20
113.2068599416
 10
192.7301149773
 20
113.33764615
 10
192.6731101703
 20
113.4675274223
 10
192.6116934899
 20
113.5961445833
 10
192.5460431043
 20
113.7231501443
 10
192.4763139176
 20
113.8482599531
 10
192.4026977037
 20
113.9711282455
 10
192.3253976952
 20
114.0914155124
 10
192.2445799483
 20
114.2088436896
 10
192.1604601284
 20
114.3230826111
 10
192.0732609408
 20
114.4338001116
 10
191.9831723171
 20
114.5407307073
 10
191.8904333129
 20
114.6435541272
 10
191.7952828314
 20
114.741975264
 10
191.6979032156
 20
114.8357640262
 10
191.5985463633
 20
114.9246341383
 10
191.497458319
 20
115.0083113763
 10
191.3947990247
 20
115.0865843487
 10
191.290786925
 20
115.1591737075
 10
191.18572274
 20
115.2257674614
 10
191.1387181313
 20
115.2534085771
  0
LINE
  5
307
100
AcDbEntity
  8
RACCORDO
100
AcDbLine
 62
250
  6
CONTINUOUS
 10
193.0208346923
 20
48.566304958
 30
0.0
 11
193.021958881
 21
48.2765549525
 31
0.0
  0
LINE
  5
308
100
AcDbEntity
  8
RACCORDO
100
AcDbLine
 62
7
  6
CONTINUOUS
 10
193.0267965222
 20
48.2984423047
 30
0.0
 11
193.0188410676
 21
53.9750051916
 31
0.0
  0
LINE
  5
309
100
AcDbEntity
  8
RACCORDO
100
AcDbLine
 62
250
  6
CONTINUOUS
 10
192.9973070582
 20
61.7825212425
 30
0.0
 11
192.9973383629
 21
61.7448575841
 31
0.0
  0
LINE
  5
30A
100
AcDbEntity
  8
RACCORDO
100
AcDbLine
 62
7
  6
CONTINUOUS
 10
193.0188410676
 20
53.9750051916
 30
0.0
 11
193.0131291293
 21
60.1814895592
 31
0.0
  0
LINE
  5
30B
100
AcDbEntity
  8
RACCORDO
100
AcDbLine
 62
7
  6
CONTINUOUS
 10
193.0131291293
 20
60.1814895592
 30
0.0
 11
193.0096280392
 21
71.3572098056
 31
0.0
  0
LINE
  5
30C
100
AcDbEntity
  8
RACCORDO
100
AcDbLine
 62
250
  6
CONTINUOUS
 10
192.991322721
 20
80.1510207684
 30
0.0
 11
192.9913226966
 21
80.1102315001
 31
0.0
  0
LINE
  5
30D
100
AcDbEntity
  8
RACCORDO
100
AcDbLine
 62
7
  6
CONTINUOUS
 10
193.0096280392
 20
71.3572098056
 30
0.0
 11
193.0091614495
 21
84.6482458271
 31
0.0
  0
LINE
  5
30E
100
AcDbEntity
  8
RACCORDO
100
AcDbLine
 62
7
  6
CONTINUOUS
 10
193.0091614495
 20
84.6482458271
 30
0.0
 11
193.0115495726
 21
96.7832719376
 31
0.0
  0
LINE
  5
30F
100
AcDbEntity
  8
RACCORDO
100
AcDbLine
 62
250
  6
CONTINUOUS
 10
192.9973698494
 20
98.515738864
 30
0.0
 11
192.9973383629
 21
98.4780683697
 31
0.0
  0
LINE
  5
310
100
AcDbEntity
  8
RACCORDO
100
AcDbLine
 62
7
  6
CONTINUOUS
 10
193.0115495726
 20
96.7832719376
 30
0.0
 11
193.015659437
 21
103.3137014917
 31
0.0
  0
LINE
  5
311
100
AcDbEntity
  8
RACCORDO
100
AcDbLine
 62
7
  6
CONTINUOUS
 10
193.015659437
 20
103.3137014917
 30
0.0
 11
193.0239021932
 21
110.4856848783
 31
0.0
  0
LINE
  5
312
100
AcDbEntity
  8
RACCORDO
100
AcDbLine
 62
7
  6
CONTINUOUS
 10
193.0239021932
 20
110.4856848783
 30
0.0
 11
193.026796519
 21
111.9830469526
 31
0.0
  0
LINE
  5
313
100
AcDbEntity
  8
RACCORDO
100
AcDbLine
 62
250
  6
CONTINUOUS
 10
193.0219084031
 20
111.9611884407
 30
0.0
 11
193.0209142308
 21
111.6932865538
 31
0.0
  0
LINE
  5
314
100
AcDbEntity
  8
RACCORDO
100
AcDbLine
 62
7
  6
CONTINUOUS
 10
92.4894100625
 20
172.0876792759
 30
0.0
 11
92.4895253409
 21
172.0876586358
 31
0.0
  0
LINE
  5
315
100
AcDbEntity
  8
SUPERFICI
100
AcDbLine
 62
7
  6
CONTINUOUS
 10
91.052133197
 20
172.3483757091
 30
0.0
 11
92.4894104142
 21
172.0876792129
 31
0.0
  0
LWPOLYLINE
  5
316
100
AcDbEntity
  8
RACCORDO
100
AcDbPolyline
 62
7
  6
CONTINUOUS
 90
8
 70
0
 10
192.918241149
 20
47.6147359258
 10
192.9416965915
 20
47.6845174068
 10
192.9699554885
 20
47.7867802076
 10
192.9926614915
 20
47.8938738282
 10
193.0097082897
 20
48.0056493508
 10
193.0209677047
 20
48.1219088139
 10
193.0263253174
 20
48.2423813218
 10
193.0267965171
 20
48.2984443478
  0
LINE
  5
317
100
AcDbEntity
  8
SUPERFICI
100
AcDbLine
 62
7
  6
CONTINUOUS
 10
192.918098122
 20
47.6143408405
 30
0.0
 11
192.41971978
 21
46.2307587982
 31
0.0
  0
LINE
  5
318
100
AcDbEntity
  8
RACCORDO
100
AcDbLine
 62
7
  6
CONTINUOUS
 10
192.9182367646
 20
47.6147231564
 30
0.0
 11
192.9180981144
 21
47.6143408195
 31
0.0
  0
LINE
  5
319
100
AcDbEntity
  8
RACCORDO
100
AcDbLine
 62
7
  6
CONTINUOUS
 10
189.1500536216
 20
44.1411659456
 30
0.0
 11
189.1489164839
 21
44.1407472367
 31
0.0
  0
LINE
  5
31A
100
AcDbEntity
  8
SUPERFICI
100
AcDbLine
 62
7
  6
CONTINUOUS
 10
191.5150771829
 20
45.0107434325
 30
0.0
 11
189.1489161556
 21
44.140747116
 31
0.0
  0
ARC
  5
31B
100
AcDbEntity
  8
SUPERFICI
100
AcDbCircle
 62
7
  6
CONTINUOUS
 10
152.5851066273
 20
114.2168189034
 30
0.0
 40
40.0105006116
100
AcDbArc
 50
354.2565174478
 51
354.7430775766
  0
ARC
  5
31C
100
AcDbEntity
  8
SUPERFICI
100
AcDbCircle
 62
7
  6
CONTINUOUS
 10
173.9647788387
 20
81.6939333393
 30
0.0
 40
37.2074823017
100
AcDbArc
 50
65.1409611857
 51
65.6548051243
  0
ARC
  5
31D
100
AcDbEntity
  8
SUPERFICI
100
AcDbCircle
 62
7
  6
CONTINUOUS
 10
164.4554525853
 20
43.9879019369
 30
0.0
 40
28.1195732684
100
AcDbArc
 50
5.8752428733
 51
6.4913243695
  0
ARC
  5
31E
100
AcDbEntity
  8
0
100
AcDbCircle
 62
7
  6
CONTINUOUS
 10
153.5529700231
 20
84.8311569372
 30
0.0
 40
14.9748833052
100
AcDbArc
 50
195.2483663793
 51
195.5043148503
  0
ARC
  5
31F
100
AcDbEntity
  8
RACCORDO
100
AcDbCircle
 62
250
  6
CONTINUOUS
 10
188.7737146716
 20
47.7197920251
 30
0.0
 40
3.6076950685
100
AcDbArc
 50
245.4660735974
 51
248.1299023939
  0
ARC
  5
320
100
AcDbEntity
  8
RACCORDO
100
AcDbCircle
 62
250
  6
CONTINUOUS
 10
189.7894207841
 20
112.9423721868
 30
0.0
 40
2.6712752222
100
AcDbArc
 50
57.3936950997
 51
59.2762111518
  0
ARC
  5
321
100
AcDbEntity
  8
RACCORDO
100
AcDbCircle
 62
250
  6
CONTINUOUS
 10
190.374700777
 20
111.9705876948
 30
0.0
 40
2.6472288396
100
AcDbArc
 50
0.267588982
 51
1.9399621394
  0
ARC
  5
322
100
AcDbEntity
  8
RACCORDO
100
AcDbCircle
 62
250
  6
CONTINUOUS
 10
189.830388239
 20
113.0111503307
 30
0.0
 40
2.5912204966
100
AcDbArc
 50
59.2779474947
 51
60.2161092877
  0
ARC
  5
323
100
AcDbEntity
  8
RACCORDO
100
AcDbCircle
 62
250
  6
CONTINUOUS
 10
190.4463831675
 20
111.971163579
 30
0.0
 40
2.5755445527
100
AcDbArc
 50
359.7780916861
 51
0.2622254462
  0
ARC
  5
324
100
AcDbEntity
  8
RACCORDO
100
AcDbCircle
 62
250
  6
CONTINUOUS
 10
166.4526607451
 20
105.0380278758
 30
0.0
 40
1.2872669467
100
AcDbArc
 50
28.288812614
 51
31.5926766764
  0
ARC
  5
325
100
AcDbEntity
  8
RACCORDO
100
AcDbCircle
 62
250
  6
CONTINUOUS
 10
166.465355927
 20
105.0457596888
 30
0.0
 40
1.2724027505
100
AcDbArc
 50
31.5955947328
 51
32.3686983541
  0
ARC
  5
326
100
AcDbEntity
  8
RACCORDO
100
AcDbCircle
 62
250
  6
CONTINUOUS
 10
166.4725544636
 20
105.0503154486
 30
0.0
 40
1.2638837224
100
AcDbArc
 50
32.3689685181
 51
34.5153854031
  0
ARC
  5
327
100
AcDbEntity
  8
0
100
AcDbCircle
 62
7
  6
CONTINUOUS
 10
138.3324060466
 20
81.5547438359
 30
0.0
 40
0.5466162351
100
AcDbArc
 50
38.4856484048
 51
41.7490791166
  0
ARC
  5
328
100
AcDbEntity
  8
0
100
AcDbCircle
 62
7
  6
CONTINUOUS
 10
138.2855423093
 20
81.5303100283
 30
0.0
 40
0.5337320124
100
AcDbArc
 50
39.2755530376
 51
42.0701047955
  0
ARC
  5
329
100
AcDbEntity
  8
0
100
AcDbCircle
 62
7
  6
CONTINUOUS
 10
138.3708504976
 20
81.5887213921
 30
0.0
 40
0.495309496
100
AcDbArc
 50
41.7779316711
 51
43.1439814524
  0
ARC
  5
32A
100
AcDbEntity
  8
0
100
AcDbCircle
 62
7
  6
CONTINUOUS
 10
138.3322239036
 20
81.5725827949
 30
0.0
 40
0.4707546646
100
AcDbArc
 50
42.0577331886
 51
45.2513532645
  0
ARC
  5
32B
100
AcDbEntity
  8
RACCORDO
100
AcDbCircle
 62
250
  6
CONTINUOUS
 10
167.5443443076
 20
69.5565690208
 30
0.0
 40
0.1786725212
100
AcDbArc
 50
279.4630404916
 51
284.7910281174
  0
ARC
  5
32C
100
AcDbEntity
  8
RACCORDO
100
AcDbCircle
 62
250
  6
CONTINUOUS
 10
167.5475708672
 20
69.544281613
 30
0.0
 40
0.1659685551
100
AcDbArc
 50
284.7969878528
 51
290.4046385148
  0
ARC
  5
32D
100
AcDbEntity
  8
RACCORDO
100
AcDbCircle
 62
250
  6
CONTINUOUS
 10
167.5505971368
 20
69.5359893442
 30
0.0
 40
0.1571415019
100
AcDbArc
 50
290.4245827197
 51
296.6278135979
  0
ARC
  5
32E
100
AcDbEntity
  8
RACCORDO
100
AcDbCircle
 62
250
  6
CONTINUOUS
 10
167.5524943206
 20
69.5321085982
 30
0.0
 40
0.1528220618
100
AcDbArc
 50
296.6440705124
 51
301.5222139477
  0
ARC
  5
32F
100
AcDbEntity
  8
RACCORDO
100
AcDbCircle
 62
250
  6
CONTINUOUS
 10
234.7293880632
 20
218.7697697045
 30
0.0
 40
115.4409707579
100
AcDbArc
 50
245.5675844062
 51
245.7282671554
  0
ARC
  5
330
100
AcDbEntity
  8
RACCORDO
100
AcDbCircle
 62
250
  6
CONTINUOUS
 10
234.2810509778
 20
217.7972448696
 30
0.0
 40
114.0085819876
100
AcDbArc
 50
245.5751335998
 51
245.7373384113
  0
ARC
  5
331
100
AcDbEntity
  8
RACCORDO
100
AcDbCircle
 62
250
  6
CONTINUOUS
 10
143.6404453293
 20
243.7668080776
 30
0.0
 40
91.5453268308
100
AcDbArc
 50
233.5448875909
 51
233.724855941
  0
ARC
  5
332
100
AcDbEntity
  8
RACCORDO
100
AcDbCircle
 62
250
  6
CONTINUOUS
 10
143.1152014456
 20
243.0542562746
 30
0.0
 40
90.2990290616
100
AcDbArc
 50
233.5338842099
 51
233.7157600767
  0
ARC
  5
333
100
AcDbEntity
  8
SUPERFICI
100
AcDbCircle
 62
7
  6
CONTINUOUS
 10
76.1390526008
 20
150.5521407813
 30
0.0
 40
26.4734124012
100
AcDbArc
 50
53.6201049147
 51
54.2642262772
  0
ARC
  5
334
100
AcDbEntity
  8
0
100
AcDbCircle
 62
7
  6
CONTINUOUS
 10
360.7530323457
 20
115.8693788038
 30
0.0
 40
227.0648457179
100
AcDbArc
 50
187.9322876988
 51
188.45758372
  0
ARC
  5
335
100
AcDbEntity
  8
0
100
AcDbCircle
 62
7
  6
CONTINUOUS
 10
360.2378155344
 20
115.82393919
 30
0.0
 40
226.4876129854
100
AcDbArc
 50
187.9326663616
 51
188.4592973293
  0
ARC
  5
336
100
AcDbEntity
  8
0
100
AcDbCircle
 62
7
  6
CONTINUOUS
 10
354.7586216326
 20
110.4313879519
 30
0.0
 40
220.7134725091
100
AcDbArc
 50
186.8773708136
 51
187.2227511398
  0
ARC
  5
337
100
AcDbEntity
  8
0
100
AcDbCircle
 62
7
  6
CONTINUOUS
 10
348.2772657513
 20
96.4066105732
 30
0.0
 40
210.6247981763
100
AcDbArc
 50
183.6663932468
 51
183.7978426383
  0
ARC
  5
338
100
AcDbEntity
  8
0
100
AcDbCircle
 62
7
  6
CONTINUOUS
 10
344.0067513166
 20
98.6450829603
 30
0.0
 40
210.3772365456
100
AcDbArc
 50
183.5582501725
 51
184.0946634425
  0
ARC
  5
339
100
AcDbEntity
  8
0
100
AcDbCircle
 62
7
  6
CONTINUOUS
 10
347.1461648676
 20
96.5284622432
 30
0.0
 40
209.9041014261
100
AcDbArc
 50
183.5639407309
 51
184.0682966333
  0
ARC
  5
33A
100
AcDbEntity
  8
0
100
AcDbCircle
 62
7
  6
CONTINUOUS
 10
343.084643672
 20
98.8212017914
 30
0.0
 40
209.8227055505
100
AcDbArc
 50
183.5575414437
 51
184.0953723874
  0
ARC
  5
33B
100
AcDbEntity
  8
0
100
AcDbCircle
 62
7
  6
CONTINUOUS
 10
343.4304508305
 20
98.6394120215
 30
0.0
 40
209.7430731375
100
AcDbArc
 50
183.5585101234
 51
184.0965403281
  0
ARC
  5
33C
100
AcDbEntity
  8
0
100
AcDbCircle
 62
7
  6
CONTINUOUS
 10
346.8086718274
 20
96.2671145446
 30
0.0
 40
209.1972001754
100
AcDbArc
 50
183.88476471
 51
184.0955628186
  0
ARC
  5
33D
100
AcDbEntity
  8
0
100
AcDbCircle
 62
7
  6
CONTINUOUS
 10
346.6093990189
 20
96.2860979448
 30
0.0
 40
208.9408624796
100
AcDbArc
 50
183.9044818619
 51
184.0968090603
  0
ARC
  5
33E
100
AcDbEntity
  8
0
100
AcDbCircle
 62
7
  6
CONTINUOUS
 10
329.1444042956
 20
18.5836328843
 30
0.0
 40
204.6389207904
100
AcDbArc
 50
161.1370349144
 51
161.3969784923
  0
ARC
  5
33F
100
AcDbEntity
  8
0
100
AcDbCircle
 62
7
  6
CONTINUOUS
 10
328.0677801441
 20
17.3901770952
 30
0.0
 40
203.6374217677
100
AcDbArc
 50
160.9338981312
 51
161.2109219925
  0
ARC
  5
340
100
AcDbEntity
  8
0
100
AcDbCircle
 62
7
  6
CONTINUOUS
 10
327.4076284895
 20
17.6722434295
 30
0.0
 40
202.8784391525
100
AcDbArc
 50
160.9456798684
 51
161.2123691595
  0
ARC
  5
341
100
AcDbEntity
  8
0
100
AcDbCircle
 62
7
  6
CONTINUOUS
 10
335.1577146606
 20
85.2583754621
 30
0.0
 40
200.4492895933
100
AcDbArc
 50
180.2051634943
 51
180.5584679861
  0
ARC
  5
342
100
AcDbEntity
  8
0
100
AcDbCircle
 62
7
  6
CONTINUOUS
 10
334.5697375795
 20
85.2903704284
 30
0.0
 40
199.8046008764
100
AcDbArc
 50
180.2639536472
 51
180.5600511709
  0
ARC
  5
343
100
AcDbEntity
  8
0
100
AcDbCircle
 62
7
  6
CONTINUOUS
 10
332.6578576232
 20
81.4677869626
 30
0.0
 40
198.3032882878
100
AcDbArc
 50
178.8691773955
 51
179.410375196
  0
ARC
  5
344
100
AcDbEntity
  8
0
100
AcDbCircle
 62
7
  6
CONTINUOUS
 10
323.2825800163
 20
34.4118651361
 30
0.0
 40
196.6094623413
100
AcDbArc
 50
164.8242331402
 51
165.3179013926
  0
ARC
  5
345
100
AcDbEntity
  8
0
100
AcDbCircle
 62
7
  6
CONTINUOUS
 10
322.3843658615
 20
34.7026811681
 30
0.0
 40
195.6202891091
100
AcDbArc
 50
164.8239696375
 51
165.3201257182
  0
ARC
  5
346
100
AcDbEntity
  8
0
100
AcDbCircle
 62
7
  6
CONTINUOUS
 10
325.4827769675
 20
34.6363678132
 30
0.0
 40
195.2108938358
100
AcDbArc
 50
165.3266385955
 51
165.806435102
  0
ARC
  5
347
100
AcDbEntity
  8
0
100
AcDbCircle
 62
7
  6
CONTINUOUS
 10
322.1636255171
 20
43.127029608
 30
0.0
 40
193.8250307794
100
AcDbArc
 50
167.192476036
 51
167.5417997123
  0
ARC
  5
348
100
AcDbEntity
  8
0
100
AcDbCircle
 62
7
  6
CONTINUOUS
 10
325.8828392918
 20
42.1029712461
 30
0.0
 40
193.5062132775
100
AcDbArc
 50
167.6638661134
 51
167.8527369598
  0
ARC
  5
349
100
AcDbEntity
  8
0
100
AcDbCircle
 62
7
  6
CONTINUOUS
 10
325.5147198862
 20
42.2311986167
 30
0.0
 40
193.0707937089
100
AcDbArc
 50
167.7058907389
 51
167.8539068103
  0
ARC
  5
34A
100
AcDbEntity
  8
RACCORDO
100
AcDbCircle
 62
250
  6
CONTINUOUS
 10
303.5220549316
 20
97.872565059
 30
0.0
 40
114.5143212233
100
AcDbArc
 50
174.1751033782
 51
174.3402568215
  0
ARC
  5
34B
100
AcDbEntity
  8
RACCORDO
100
AcDbCircle
 62
250
  6
CONTINUOUS
 10
302.2830617062
 20
97.9896978199
 30
0.0
 40
112.9075698553
100
AcDbArc
 50
174.166001077
 51
174.3328557504
  0
ARC
  5
34C
100
AcDbEntity
  8
RACCORDO
100
AcDbCircle
 62
250
  6
CONTINUOUS
 10
279.0638399755
 20
56.0912031455
 30
0.0
 40
90.0571703537
100
AcDbArc
 50
186.3889491801
 51
186.5750791316
  0
ARC
  5
34D
100
AcDbEntity
  8
RACCORDO
100
AcDbCircle
 62
250
  6
CONTINUOUS
 10
278.064419412
 20
55.9762024614
 30
0.0
 40
88.6894301145
100
AcDbArc
 50
186.397880601
 51
186.5861250672
  0
ARC
  5
34E
100
AcDbEntity
  8
0
100
AcDbCircle
 62
7
  6
CONTINUOUS
 10
421.6221334628
 20
180.3758218853
 30
0.0
 40
302.2471137911
100
AcDbArc
 50
198.3607199331
 51
198.6211910152
  0
ARC
  5
34F
100
AcDbEntity
  8
0
100
AcDbCircle
 62
7
  6
CONTINUOUS
 10
421.1061028512
 20
181.0132862139
 30
0.0
 40
302.2083230664
100
AcDbArc
 50
198.6161070228
 51
198.9228627845
  0
ARC
  5
350
100
AcDbEntity
  8
0
100
AcDbCircle
 62
7
  6
CONTINUOUS
 10
421.532267836
 20
180.3644892816
 30
0.0
 40
302.0941280267
100
AcDbArc
 50
198.3615432809
 51
198.6085725237
  0
ARC
  5
351
100
AcDbEntity
  8
0
100
AcDbCircle
 62
7
  6
CONTINUOUS
 10
404.2939814833
 20
167.6933041684
 30
0.0
 40
284.0049955444
100
AcDbArc
 50
196.5654747234
 51
197.0478424558
  0
ARC
  5
352
100
AcDbEntity
  8
0
100
AcDbCircle
 62
7
  6
CONTINUOUS
 10
406.985894046
 20
162.5206280521
 30
0.0
 40
281.2103889115
100
AcDbArc
 50
196.2395871742
 51
196.7236289389
  0
ARC
  5
353
100
AcDbEntity
  8
0
100
AcDbCircle
 62
7
  6
CONTINUOUS
 10
406.5797059658
 20
162.4213241388
 30
0.0
 40
280.7290442929
100
AcDbArc
 50
196.2401332328
 51
196.7250029983
  0
ARC
  5
354
100
AcDbEntity
  8
0
100
AcDbCircle
 62
7
  6
CONTINUOUS
 10
395.6807887361
 20
157.9409815734
 30
0.0
 40
272.7297820852
100
AcDbArc
 50
195.1881131766
 51
195.5254513673
  0
ARC
  5
355
100
AcDbEntity
  8
0
100
AcDbCircle
 62
7
  6
CONTINUOUS
 10
395.4504978713
 20
157.8995385198
 30
0.0
 40
272.4333816058
100
AcDbArc
 50
195.1888700343
 51
195.5049251951
  0
ARC
  5
356
100
AcDbEntity
  8
0
100
AcDbCircle
 62
7
  6
CONTINUOUS
 10
395.1308607302
 20
151.1006383663
 30
0.0
 40
267.0002823209
100
AcDbArc
 50
194.6783249077
 51
194.8619170297
  0
ARC
  5
357
100
AcDbEntity
  8
RACCORDO
100
AcDbCircle
 62
250
  6
CONTINUOUS
 10
2865.002632399
 20
4851.605316702
 30
0.0
 40
5458.8187677602
100
AcDbArc
 50
239.9998706058
 51
240.2873347703
  0
ARC
  5
358
100
AcDbEntity
  8
RACCORDO
100
AcDbCircle
 62
250
  6
CONTINUOUS
 10
2840.3520650236
 20
4808.9521628024
 30
0.0
 40
5409.5547684933
100
AcDbArc
 50
239.7095296302
 51
239.9987281018
  0
ARC
  5
359
100
AcDbEntity
  8
RACCORDO
100
AcDbCircle
 62
250
  6
CONTINUOUS
 10
2819.5344639065
 20
4718.2717364278
 30
0.0
 40
5365.2352648977
100
AcDbArc
 50
239.9998496026
 51
240.2924292345
  0
ARC
  5
35A
100
AcDbEntity
  8
0
100
AcDbCircle
 62
7
  6
CONTINUOUS
 10
2820.5073411351
 20
4786.9249129016
 30
0.0
 40
5362.5215789971
100
AcDbArc
 50
239.9987284763
 51
240.2925618773
  0
ARC
  5
35B
100
AcDbEntity
  8
RACCORDO
100
AcDbCircle
 62
250
  6
CONTINUOUS
 10
2815.9853775041
 20
4781.1838308511
 30
0.0
 40
5358.1015889938
100
AcDbArc
 50
239.9985105915
 51
240.2925994535
  0
ARC
  5
35C
100
AcDbEntity
  8
RACCORDO
100
AcDbCircle
 62
250
  6
CONTINUOUS
 10
2816.045381108
 20
4781.2885440557
 30
0.0
 40
5357.8603027164
100
AcDbArc
 50
239.9985105904
 51
240.2925994208
  0
ARC
  5
35D
100
AcDbEntity
  8
RACCORDO
100
AcDbCircle
 62
250
  6
CONTINUOUS
 10
2795.770391964
 20
4677.072256253
 30
0.0
 40
5317.6734323566
100
AcDbArc
 50
239.7041949429
 51
239.9985105554
  0
ARC
  5
35E
100
AcDbEntity
  8
RACCORDO
100
AcDbCircle
 62
250
  6
CONTINUOUS
 10
2792.1895787182
 20
4740.0117315534
 30
0.0
 40
5310.547605173
100
AcDbArc
 50
239.7028892292
 51
239.998731556
  0
ARC
  5
35F
100
AcDbEntity
  8
RACCORDO
100
AcDbCircle
 62
250
  6
CONTINUOUS
 10
2792.2509437426
 20
4740.118800278
 30
0.0
 40
5310.309039546
100
AcDbArc
 50
239.7028892781
 51
239.9987315519
  0
ARC
  5
360
100
AcDbEntity
  8
0
100
AcDbCircle
 62
7
  6
CONTINUOUS
 10
2792.7651386492
 20
4738.8771108946
 30
0.0
 40
5307.0398605993
100
AcDbArc
 50
239.7027076163
 51
239.9987319294
  0
ARC
  5
361
100
AcDbEntity
  8
RACCORDO
100
AcDbCircle
 62
250
  6
CONTINUOUS
 10
2778.5717094932
 20
4664.9870838305
 30
0.0
 40
5285.640700746
100
AcDbArc
 50
240.1179062107
 51
240.2973429265
  0
ARC
  5
362
100
AcDbEntity
  8
RACCORDO
100
AcDbCircle
 62
250
  6
CONTINUOUS
 10
2776.8434220622
 20
4661.950334748
 30
0.0
 40
5282.5789095342
100
AcDbArc
 50
240.0919552329
 51
240.2800183917
  0
ARC
  5
363
100
AcDbEntity
  8
RACCORDO
100
AcDbCircle
 62
250
  6
CONTINUOUS
 10
2766.7305324274
 20
4644.3612511138
 30
0.0
 40
5261.8575477953
100
AcDbArc
 50
239.9984535915
 51
240.1178058798
  0
ARC
  5
364
100
AcDbEntity
  8
RACCORDO
100
AcDbCircle
 62
250
  6
CONTINUOUS
 10
2748.1800128951
 20
4612.2909801995
 30
0.0
 40
5224.8085922708
100
AcDbArc
 50
239.6979268004
 51
239.9174967578
  0
ARC
  5
365
100
AcDbEntity
  8
RACCORDO
100
AcDbCircle
 62
250
  6
CONTINUOUS
 10
2746.8887375176
 20
4610.0530920618
 30
0.0
 40
5222.6571499514
100
AcDbArc
 50
239.6978811341
 51
239.8914646109
  0
SPLINE
  5
366
100
AcDbEntity
  8
0
100
AcDbSpline
 62
7
  6
CONTINUOUS
 70
0
 71
3
 72
11
 73
7
 74
0
 42
0.0000001
 43
0.0000001
 44
0.0000000001
 40
0.0
 40
0.0
 40
0.0
 40
0.0
 40
0.2107282615
 40
0.4437232416
 40
0.7063948807
 40
1.0
 40
1.0
 40
1.0
 40
1.0
 10
138.4764423988
 20
82.2579342039
 30
0.0
 10
138.4887103374
 20
82.2649688839
 30
0.0
 10
138.5102595657
 20
82.2873229214
 30
0.0
 10
138.5287898635
 20
82.3315356071
 30
0.0
 10
138.5377620596
 20
82.3840719171
 30
0.0
 10
138.5375810875
 20
82.4215881043
 30
0.0
 10
138.5360540049
 20
82.4412323639
 30
0.0
  0
SPLINE
  5
367
100
AcDbEntity
  8
0
100
AcDbSpline
 62
7
  6
CONTINUOUS
 70
0
 71
3
 72
13
 73
9
 74
0
 42
0.0000001
 43
0.0000001
 44
0.0000000001
 40
0.0
 40
0.0
 40
0.0
 40
0.0
 40
0.2358604165
 40
0.4739065723
 40
0.5938534877
 40
0.7162194853
 40
0.8477911064
 40
1.0
 40
1.0
 40
1.0
 40
1.0
 10
138.7682077446
 20
81.9442819892
 30
0.0
 10
138.7605860191
 20
81.9398801909
 30
0.0
 10
138.7447322137
 20
81.9319601719
 30
0.0
 10
138.7241418903
 20
81.9237305793
 30
0.0
 10
138.7072926628
 20
81.9176253333
 30
0.0
 10
138.6937894218
 20
81.9139084913
 30
0.0
 10
138.678454147
 20
81.9133250932
 30
0.0
 10
138.668058289
 20
81.9162475558
 30
0.0
 10
138.6628543983
 20
81.9185237331
 30
0.0
  0
SPLINE
  5
368
100
AcDbEntity
  8
SUPERFICI
100
AcDbSpline
 62
7
  6
CONTINUOUS
 70
0
 71
3
 72
14
 73
10
 74
0
 42
0.0000001
 43
0.0000001
 44
0.0000000001
 40
0.0
 40
0.0
 40
0.0
 40
0.0
 40
0.2391207171
 40
0.3576533869
 40
0.477255316
 40
0.598976994
 40
0.7252861566
 40
0.8593608754
 40
1.0
 40
1.0
 40
1.0
 40
1.0
 10
91.841397533
 20
171.865937435
 30
0.0
 10
93.643354402
 20
170.5391627602
 30
0.0
 10
96.3713280846
 20
168.5986951526
 30
0.0
 10
100.071050872
 20
166.0966803336
 30
0.0
 10
102.8896715918
 20
164.2536119722
 30
0.0
 10
105.7978593737
 20
162.4152909187
 30
0.0
 10
108.8507966834
 20
160.5533767185
 30
0.0
 10
112.0779151522
 20
158.6377275678
 30
0.0
 10
114.2971066505
 20
157.3399464934
 30
0.0
 10
115.433465549
 20
156.6759810658
 30
0.0
  0
SPLINE
  5
369
100
AcDbEntity
  8
SUPERFICI
100
AcDbSpline
 62
7
  6
CONTINUOUS
 70
0
 71
3
 72
9
 73
5
 74
0
 42
0.0000001
 43
0.0000001
 44
0.0000000001
 40
0.0
 40
0.0
 40
0.0
 40
0.0
 40
0.2471908808
 40
1.0
 40
1.0
 40
1.0
 40
1.0
 10
191.3620853927
 20
96.3171895811
 30
0.0
 10
191.416512198
 20
97.4640854014
 30
0.0
 10
191.6683343506
 20
102.1022604774
 30
0.0
 10
192.0451371084
 20
106.7335419457
 30
0.0
 10
192.3947508568
 20
110.2127727609
 30
0.0
  0
SPLINE
  5
36A
100
AcDbEntity
  8
SUPERFICI
100
AcDbSpline
 62
7
  6
CONTINUOUS
 70
0
 71
3
 72
9
 73
5
 74
0
 42
0.0000001
 43
0.0000001
 44
0.0000000001
 40
0.0
 40
0.0
 40
0.0
 40
0.0
 40
0.4975554169
 40
1.0
 40
1.0
 40
1.0
 40
1.0
 10
190.9744166607
 20
77.8697519744
 30
0.0
 10
190.9744166607
 20
80.9301612108
 30
0.0
 10
191.0336534063
 20
87.0810557477
 30
0.0
 10
191.2155891025
 20
93.2301817068
 30
0.0
 10
191.3620853927
 20
96.3171895811
 30
0.0
  0
SPLINE
  5
36B
100
AcDbEntity
  8
SUPERFICI
100
AcDbSpline
 62
7
  6
CONTINUOUS
 70
0
 71
3
 72
14
 73
10
 74
0
 42
0.0000001
 43
0.0000001
 44
0.0000000001
 40
0.0
 40
0.0
 40
0.0
 40
0.0
 40
0.2511692663
 40
0.3726266474
 40
0.4931669801
 40
0.6137903921
 40
0.7368614868
 40
0.865777366
 40
1.0
 40
1.0
 40
1.0
 40
1.0
 10
189.30293628
 20
115.5928664425
 30
0.0
 10
187.0424449884
 20
116.6163591724
 30
0.0
 10
183.7078696926
 20
118.177421097
 30
0.0
 10
179.3374834539
 20
120.331255503
 30
0.0
 10
176.1455865276
 20
121.9581518533
 30
0.0
 10
172.9623638179
 20
123.636441847
 30
0.0
 10
169.731979321
 20
125.4017977469
 30
0.0
 10
166.4050716957
 20
127.2700205367
 30
0.0
 10
164.1466082561
 20
128.5574813455
 30
0.0
 10
162.9948550764
 20
129.2146308369
 30
0.0
  0
SPLINE
  5
36C
100
AcDbEntity
  8
SUPERFICI
100
AcDbSpline
 62
7
  6
CONTINUOUS
 70
0
 71
3
 72
13
 73
9
 74
0
 42
0.0000001
 43
0.0000001
 44
0.0000000001
 40
0.0
 40
0.0
 40
0.0
 40
0.0
 40
0.2408211776
 40
0.3694326699
 40
0.5002367176
 40
0.631005334
 40
0.7595140523
 40
1.0
 40
1.0
 40
1.0
 40
1.0
 10
192.4273176786
 20
110.5509796079
 30
0.0
 10
192.4710748983
 20
111.027926952
 30
0.0
 10
192.3959204716
 20
111.7763570038
 30
0.0
 10
192.0869257619
 20
112.7234744906
 30
0.0
 10
191.7454915044
 20
113.4233797138
 30
0.0
 10
191.312092212
 20
114.0701391641
 30
0.0
 10
190.6491002066
 20
114.8124785323
 30
0.0
 10
190.0402661652
 20
115.2528146502
 30
0.0
 10
189.606330088
 20
115.4539482981
 30
0.0
  0
SPLINE
  5
36D
100
AcDbEntity
  8
SUPERFICI
100
AcDbSpline
 62
7
  6
CONTINUOUS
 70
0
 71
3
 72
9
 73
5
 74
0
 42
0.0000001
 43
0.0000001
 44
0.0000000001
 40
0.0
 40
0.0
 40
0.0
 40
0.0
 40
0.2533673225
 40
1.0
 40
1.0
 40
1.0
 40
1.0
 10
191.3620853927
 20
59.8699845021
 30
0.0
 10
191.4160647565
 20
58.7948513016
 30
0.0
 10
191.6612245503
 20
54.5531685897
 30
0.0
 10
192.0364488535
 20
50.3188325602
 30
0.0
 10
192.3947508568
 20
47.1668975156
 30
0.0
  0
SPLINE
  5
36E
100
AcDbEntity
  8
SUPERFICI
100
AcDbSpline
 62
7
  6
CONTINUOUS
 70
0
 71
3
 72
9
 73
5
 74
0
 42
0.0000001
 43
0.0000001
 44
0.0000000001
 40
0.0
 40
0.0
 40
0.0
 40
0.0
 40
0.5041925809
 40
1.0
 40
1.0
 40
1.0
 40
1.0
 10
190.9744166607
 20
77.8697519744
 30
0.0
 10
190.9744166607
 20
74.8437236115
 30
0.0
 10
191.0318305602
 20
68.8420157032
 30
0.0
 10
191.2128718011
 20
62.8419439405
 30
0.0
 10
191.3620853927
 20
59.8699845021
 30
0.0
  0
SPLINE
  5
36F
100
AcDbEntity
  8
SUPERFICI
100
AcDbSpline
 62
7
  6
CONTINUOUS
 70
0
 71
3
 72
9
 73
5
 74
0
 42
0.0000001
 43
0.0000001
 44
0.0000000001
 40
0.0
 40
0.0
 40
0.0
 40
0.0
 40
0.2699068797
 40
1.0
 40
1.0
 40
1.0
 40
1.0
 10
192.4273176786
 20
46.866298018
 30
0.0
 10
192.4359058462
 20
46.782605638
 30
0.0
 10
192.4555958202
 20
46.4717485891
 30
0.0
 10
192.4226695202
 20
46.1550022842
 30
0.0
 10
192.3573516692
 20
45.9370022262
 30
0.0
  0
SPLINE
  5
370
100
AcDbEntity
  8
SUPERFICI
100
AcDbSpline
 62
7
  6
CONTINUOUS
 70
0
 71
3
 72
11
 73
7
 74
0
 42
0.0000001
 43
0.0000001
 44
0.0000000001
 40
0.0
 40
0.0
 40
0.0
 40
0.0
 40
0.261952223
 40
0.5100340679
 40
0.7523737726
 40
1.0
 40
1.0
 40
1.0
 40
1.0
 10
192.3573516692
 20
45.9370022262
 30
0.0
 10
192.3248287415
 20
45.8284560937
 30
0.0
 10
192.2407954568
 20
45.6223960575
 30
0.0
 10
192.0519351007
 20
45.3536213964
 30
0.0
 10
191.8072985593
 20
45.143487132
 30
0.0
 10
191.615620809
 20
45.0477115671
 30
0.0
 10
191.5150845399
 20
45.0107461376
 30
0.0
  0
SPLINE
  5
371
100
AcDbEntity
  8
RACCORDO
100
AcDbSpline
 62
7
  6
CONTINUOUS
 70
0
 71
3
 72
8
 73
4
 74
0
 42
0.0000001
 43
0.0000001
 44
0.0000000001
 40
0.0
 40
0.0
 40
0.0
 40
0.0
 40
1.0
 40
1.0
 40
1.0
 40
1.0
 10
119.4720154737
 20
100.4785658384
 30
0.0
 10
119.4646795582
 20
100.4671348833
 30
0.0
 10
119.4546829844
 20
100.4570694327
 30
0.0
 10
119.4433055921
 20
100.4496507174
 30
0.0
  0
SPLINE
  5
372
100
AcDbEntity
  8
RACCORDO
100
AcDbSpline
 62
7
  6
CONTINUOUS
 70
0
 71
3
 72
8
 73
4
 74
0
 42
0.0000001
 43
0.0000001
 44
0.0000000001
 40
0.0
 40
0.0
 40
0.0
 40
0.0
 40
1.0
 40
1.0
 40
1.0
 40
1.0
 10
167.2017232038
 20
72.9200307888
 30
0.0
 10
167.1943872883
 20
72.9085998337
 30
0.0
 10
167.1843907145
 20
72.8985343831
 30
0.0
 10
167.1730133222
 20
72.8911156678
 30
0.0
  0
SPLINE
  5
373
100
AcDbEntity
  8
RACCORDO
100
AcDbSpline
 62
7
  6
CONTINUOUS
 70
0
 71
3
 72
9
 73
5
 74
0
 42
0.0000001
 43
0.0000001
 44
0.0000000001
 40
0.0
 40
0.0
 40
0.0
 40
0.0
 40
0.5017739888
 40
1.0
 40
1.0
 40
1.0
 40
1.0
 10
151.3021361941
 20
81.9240445706
 30
0.0
 10
151.2982302355
 20
81.9133206042
 30
0.0
 10
151.2870249809
 20
81.8929965205
 30
0.0
 10
151.2697533901
 20
81.8775078074
 30
0.0
 10
151.260260516
 20
81.8713183228
 30
0.0
  0
SPLINE
  5
374
100
AcDbEntity
  8
RACCORDO
100
AcDbSpline
 62
7
  6
CONTINUOUS
 70
0
 71
3
 72
9
 73
5
 74
0
 42
0.0000001
 43
0.0000001
 44
0.0000000001
 40
0.0
 40
0.0
 40
0.0
 40
0.0
 40
0.2577649392
 40
1.0
 40
1.0
 40
1.0
 40
1.0
 10
151.5483122714
 20
82.5998317449
 30
0.0
 10
151.5497218646
 20
82.6037000486
 30
0.0
 10
151.5545974967
 20
82.6189112633
 30
0.0
 10
151.556950224
 20
82.6349721745
 30
0.0
 10
151.556950224
 20
82.6468274536
 30
0.0
  0
SPLINE
  5
375
100
AcDbEntity
  8
RACCORDO
100
AcDbSpline
 62
7
  6
CONTINUOUS
 70
0
 71
3
 72
9
 73
5
 74
0
 42
0.0000001
 43
0.0000001
 44
0.0000000001
 40
0.0
 40
0.0
 40
0.0
 40
0.0
 40
0.5017739888
 40
1.0
 40
1.0
 40
1.0
 40
1.0
 10
135.3922336174
 20
91.1102229204
 30
0.0
 10
135.3883276588
 20
91.0994989541
 30
0.0
 10
135.3771224042
 20
91.0791748703
 30
0.0
 10
135.3598508134
 20
91.0636861573
 30
0.0
 10
135.3503579393
 20
91.0574966727
 30
0.0
  0
SPLINE
  5
376
100
AcDbEntity
  8
RACCORDO
100
AcDbSpline
 62
7
  6
CONTINUOUS
 70
0
 71
3
 72
9
 73
5
 74
0
 42
0.0000001
 43
0.0000001
 44
0.0000000001
 40
0.0
 40
0.0
 40
0.0
 40
0.0
 40
0.2577649392
 40
1.0
 40
1.0
 40
1.0
 40
1.0
 10
135.6384096947
 20
91.7860100948
 30
0.0
 10
135.6398192879
 20
91.7898783985
 30
0.0
 10
135.64469492
 20
91.8050896132
 30
0.0
 10
135.6470476473
 20
91.8211505244
 30
0.0
 10
135.6470476473
 20
91.8330058034
 30
0.0
  0
SPLINE
  5
377
100
AcDbEntity
  8
SUPERFICI
100
AcDbSpline
 62
7
  6
CONTINUOUS
 70
0
 71
3
 72
11
 73
7
 74
0
 42
0.0000001
 43
0.0000001
 44
0.0000000001
 40
0.0
 40
0.0
 40
0.0
 40
0.0
 40
0.2478243398
 40
0.4903118054
 40
0.7383546517
 40
1.0
 40
1.0
 40
1.0
 40
1.0
 10
89.5285215549
 20
172.1732108046
 30
0.0
 10
89.6113423515
 20
172.2422526889
 30
0.0
 10
89.7912199789
 20
172.3612013594
 30
0.0
 10
90.0972219685
 20
172.4691212197
 30
0.0
 10
90.4261412381
 20
172.4992405178
 30
0.0
 10
90.647821235
 20
172.4694469621
 30
0.0
 10
90.7586662235
 20
172.4435168408
 30
0.0
  0
SPLINE
  5
378
100
AcDbEntity
  8
SUPERFICI
100
AcDbSpline
 62
7
  6
CONTINUOUS
 70
0
 71
3
 72
9
 73
5
 74
0
 42
0.0000001
 43
0.0000001
 44
0.0000000001
 40
0.0
 40
0.0
 40
0.0
 40
0.0
 40
0.2319153282
 40
1.0
 40
1.0
 40
1.0
 40
1.0
 10
90.7586662235
 20
172.4435168408
 30
0.0
 10
90.8291862923
 20
172.4270199836
 30
0.0
 10
91.1289485211
 20
172.337391678
 30
0.0
 10
91.4060762792
 20
172.1811725552
 30
0.0
 10
91.6007997751
 20
172.041113203
 30
0.0
  0
SPLINE
  5
379
100
AcDbEntity
  8
0
100
AcDbSpline
 62
7
  6
CONTINUOUS
 70
0
 71
3
 72
11
 73
7
 74
0
 42
0.0000001
 43
0.0000001
 44
0.0000000001
 40
0.0
 40
0.0
 40
0.0
 40
0.0
 40
0.2315514864
 40
0.4910536984
 40
0.7549151248
 40
1.0
 40
1.0
 40
1.0
 40
1.0
 10
138.5360540202
 20
82.4412323553
 30
0.0
 10
138.5334140766
 20
82.4751923622
 30
0.0
 10
138.515610165
 20
82.5461775632
 30
0.0
 10
138.4672599847
 20
82.6468896342
 30
0.0
 10
138.3975210657
 20
82.7368091313
 30
0.0
 10
138.3411779251
 20
82.7869785794
 30
0.0
 10
138.3116419612
 20
82.8076538555
 30
0.0
  0
SPLINE
  5
37A
100
AcDbEntity
  8
0
100
AcDbSpline
 62
7
  6
CONTINUOUS
 70
0
 71
3
 72
10
 73
6
 74
0
 42
0.0000001
 43
0.0000001
 44
0.0000000001
 40
0.0
 40
0.0
 40
0.0
 40
0.0
 40
0.5206612111
 40
0.7651785354
 40
1.0
 40
1.0
 40
1.0
 40
1.0
 10
138.3116419612
 20
82.8076538553
 30
0.0
 10
138.2649641339
 20
82.8403284946
 30
0.0
 10
138.1937401543
 20
82.8848702157
 30
0.0
 10
138.0955854404
 20
82.9334157427
 30
0.0
 10
138.0470820376
 20
82.9534763776
 30
0.0
 10
138.0231533319
 20
82.962844775
 30
0.0
  0
SPLINE
  5
37B
100
AcDbEntity
  8
0
100
AcDbSpline
 62
7
  6
CONTINUOUS
 70
0
 71
3
 72
9
 73
5
 74
0
 42
0.0000001
 43
0.0000001
 44
0.0000000001
 40
0.0
 40
0.0
 40
0.0
 40
0.0
 40
0.4981085694
 40
1.0
 40
1.0
 40
1.0
 40
1.0
 10
138.7110989349
 20
81.0001992969
 30
0.0
 10
138.6781321484
 20
81.1146650304
 30
0.0
 10
138.6107617176
 20
81.3440666198
 30
0.0
 10
138.5465720031
 20
81.5746140266
 30
0.0
 10
138.5078545308
 20
81.6882208373
 30
0.0
  0
SPLINE
  5
37C
100
AcDbEntity
  8
0
100
AcDbSpline
 62
7
  6
CONTINUOUS
 70
0
 71
3
 72
11
 73
7
 74
0
 42
0.0000001
 43
0.0000001
 44
0.0000000001
 40
0.0
 40
0.0
 40
0.0
 40
0.0
 40
0.2514471132
 40
0.5128568681
 40
0.7690582095
 40
1.0
 40
1.0
 40
1.0
 40
1.0
 10
138.5078545502
 20
81.6882208345
 30
0.0
 10
138.4978243592
 20
81.71765194
 30
0.0
 10
138.4727940389
 20
81.7761693206
 30
0.0
 10
138.4240268485
 20
81.8582030646
 30
0.0
 10
138.3633782619
 20
81.9288912269
 30
0.0
 10
138.3148333539
 20
81.9655883012
 30
0.0
 10
138.2900938568
 20
81.9798535977
 30
0.0
  0
LINE
  5
37D
100
AcDbEntity
  8
0
100
AcDbLine
 62
7
  6
CONTINUOUS
 10
137.2805602746
 20
81.8252200634
 30
0.0
 11
137.1572801835
 21
82.2718623316
 31
0.0
  0
SPLINE
  5
37E
100
AcDbEntity
  8
RACCORDO
100
AcDbSpline
 62
250
  6
CONTINUOUS
 70
0
 71
3
 72
9
 73
5
 74
0
 42
0.0000001
 43
0.0000001
 44
0.0000000001
 40
0.0
 40
0.0
 40
0.0
 40
0.0
 40
0.2532970752
 40
1.0
 40
1.0
 40
1.0
 40
1.0
 10
188.9157025045
 20
58.6712606808
 30
0.0
 10
188.969019621
 20
57.6070896213
 30
0.0
 10
189.2105473287
 20
53.4074454245
 30
0.0
 10
189.5777465135
 20
49.214871389
 30
0.0
 10
189.9273433636
 20
46.0933466155
 30
0.0
  0
SPLINE
  5
37F
100
AcDbEntity
  8
RACCORDO
100
AcDbSpline
 62
250
  6
CONTINUOUS
 70
0
 71
3
 72
9
 73
5
 74
0
 42
0.0000001
 43
0.0000001
 44
0.0000000001
 40
0.0
 40
0.0
 40
0.0
 40
0.0
 40
0.5033733802
 40
1.0
 40
1.0
 40
1.0
 40
1.0
 10
188.5253316562
 20
76.8041730547
 30
0.0
 10
188.5253328618
 20
73.7828014896
 30
0.0
 10
188.5823184931
 20
67.7805727175
 30
0.0
 10
188.7617214889
 20
61.7799708196
 30
0.0
 10
188.9091533712
 20
58.802743147
 30
0.0
  0
LINE
  5
380
100
AcDbEntity
  8
0
100
AcDbLine
 62
7
  6
CONTINUOUS
 10
133.5861198124
 20
85.9132250033
 30
0.0
 11
133.2176119964
 21
86.1262313506
 31
0.0
  0
LINE
  5
381
100
AcDbEntity
  8
0
100
AcDbLine
 62
7
  6
CONTINUOUS
 10
132.5339205127
 20
86.5215253559
 30
0.0
 11
132.133440404
 21
86.7531361027
 31
0.0
  0
LINE
  5
382
100
AcDbEntity
  8
0
100
AcDbLine
 62
7
  6
CONTINUOUS
 10
134.0917758526
 20
85.6211215165
 30
0.0
 11
133.7229691264
 21
85.8342467847
 31
0.0
  0
SPLINE
  5
383
100
AcDbEntity
  8
0
100
AcDbSpline
 62
7
  6
CONTINUOUS
 70
0
 71
3
 72
9
 73
5
 74
0
 42
0.0000001
 43
0.0000001
 44
0.0000000001
 40
0.0
 40
0.0
 40
0.0
 40
0.0
 40
0.2344900656
 40
1.0
 40
1.0
 40
1.0
 40
1.0
 10
138.5019940529
 20
82.2804436777
 30
0.0
 10
138.4974386108
 20
82.2798124917
 30
0.0
 10
138.4778263692
 20
82.2784057299
 30
0.0
 10
138.4581424946
 20
82.2814427322
 30
0.0
 10
138.4435345712
 20
82.2849094514
 30
0.0
  0
SPLINE
  5
384
100
AcDbEntity
  8
0
100
AcDbSpline
 62
7
  6
CONTINUOUS
 70
0
 71
3
 72
9
 73
5
 74
0
 42
0.0000001
 43
0.0000001
 44
0.0000000001
 40
0.0
 40
0.0
 40
0.0
 40
0.0
 40
0.4786903503
 40
1.0
 40
1.0
 40
1.0
 40
1.0
 10
138.4435345712
 20
82.2849094514
 30
0.0
 10
138.4237216288
 20
82.2896114139
 30
0.0
 10
138.3834534321
 20
82.3040696565
 30
0.0
 10
138.3454099471
 20
82.3231998796
 30
0.0
 10
138.3260010245
 20
82.3339273672
 30
0.0
  0
SPLINE
  5
385
100
AcDbEntity
  8
RACCORDO
100
AcDbSpline
 62
250
  6
CONTINUOUS
 70
0
 71
3
 72
13
 73
9
 74
0
 42
0.0000001
 43
0.0000001
 44
0.0000000001
 40
0.0
 40
0.0
 40
0.0
 40
0.0
 40
0.2872919226
 40
0.5396834757
 40
0.6567143454
 40
0.7705070801
 40
0.8839544696
 40
1.0
 40
1.0
 40
1.0
 40
1.0
 10
189.960346094
 20
45.8038519746
 30
0.0
 10
189.9805431246
 20
45.6135287254
 30
0.0
 10
189.98410178
 20
45.2504081305
 30
0.0
 10
189.8670906826
 20
44.8204236036
 30
0.0
 10
189.7008802963
 20
44.5426543335
 30
0.0
 10
189.546698084
 20
44.3707861474
 30
0.0
 10
189.3616669252
 20
44.2339054279
 30
0.0
 10
189.2225880373
 20
44.167911926
 30
0.0
 10
189.1500532351
 20
44.1411660355
 30
0.0
  0
SPLINE
  5
386
100
AcDbEntity
  8
RACCORDO
100
AcDbSpline
 62
250
  6
CONTINUOUS
 70
0
 71
3
 72
9
 73
5
 74
0
 42
0.0000001
 43
0.0000001
 44
0.0000000001
 40
0.0
 40
0.0
 40
0.0
 40
0.0
 40
0.2500975582
 40
1.0
 40
1.0
 40
1.0
 40
1.0
 10
135.4706841904
 20
87.1509415857
 30
0.0
 10
134.7638889549
 20
87.5590362965
 30
0.0
 10
131.9381912825
 20
89.1914371923
 30
0.0
 10
129.1140164236
 20
90.8264740958
 30
0.0
 10
126.9970220289
 20
92.0540764519
 30
0.0
  0
SPLINE
  5
387
100
AcDbEntity
  8
0
100
AcDbSpline
 62
7
  6
CONTINUOUS
 70
0
 71
3
 72
19
 73
15
 74
0
 42
0.0000001
 43
0.0000001
 44
0.0000000001
 40
0.0
 40
0.0
 40
0.0
 40
0.0
 40
0.040948815
 40
0.0833039776
 40
0.1284555395
 40
0.1771782443
 40
0.2863682883
 40
0.4104398841
 40
0.4776434998
 40
0.5481239592
 40
0.6966024879
 40
0.8496893796
 40
0.925831208
 40
1.0
 40
1.0
 40
1.0
 40
1.0
 10
138.8249275919
 20
81.9770225712
 30
0.0
 10
138.8380923446
 20
81.9846228342
 30
0.0
 10
138.8633001868
 20
82.0032268927
 30
0.0
 10
138.8928878654
 20
82.0412249935
 30
0.0
 10
138.9152259317
 20
82.086904411
 30
0.0
 10
138.9363654054
 20
82.1595892818
 30
0.0
 10
138.9431138887
 20
82.265123224
 30
0.0
 10
138.9302292469
 20
82.3763184909
 30
0.0
 10
138.9083229337
 20
82.4710808254
 30
0.0
 10
138.876129773
 20
82.572425566
 30
0.0
 10
138.8190736013
 20
82.6987769306
 30
0.0
 10
138.7441699299
 20
82.8178520109
 30
0.0
 10
138.6748040965
 20
82.9066521353
 30
0.0
 10
138.6370448136
 20
82.9479056468
 30
0.0
 10
138.6171265819
 20
82.9669145661
 30
0.0
  0
LINE
  5
388
100
AcDbEntity
  8
0
100
AcDbLine
 62
7
  6
CONTINUOUS
 10
134.8184586527
 20
85.2011885198
 30
0.0
 11
134.4498903168
 21
85.4140986824
 31
0.0
  0
SPLINE
  5
389
100
AcDbEntity
  8
RACCORDO
100
AcDbSpline
 62
250
  6
CONTINUOUS
 70
0
 71
3
 72
9
 73
5
 74
0
 42
0.0000001
 43
0.0000001
 44
0.0000000001
 40
0.0
 40
0.0
 40
0.0
 40
0.0
 40
0.250770633
 40
1.0
 40
1.0
 40
1.0
 40
1.0
 10
110.7636014804
 20
101.5066582836
 30
0.0
 10
110.2046886855
 20
101.8336423052
 30
0.0
 10
107.9767261695
 20
103.1389294915
 30
0.0
 10
105.7556324456
 20
104.4561613016
 30
0.0
 10
104.102340979
 20
105.4608922523
 30
0.0
  0
SPLINE
  5
38A
100
AcDbEntity
  8
RACCORDO
100
AcDbSpline
 62
250
  6
CONTINUOUS
 70
0
 71
3
 72
14
 73
10
 74
0
 42
0.0000001
 43
0.0000001
 44
0.0000000001
 40
0.0
 40
0.0
 40
0.0
 40
0.0
 40
0.1280200821
 40
0.2556289143
 40
0.3824636493
 40
0.5082198906
 40
0.6328438281
 40
0.7563447341
 40
1.0
 40
1.0
 40
1.0
 40
1.0
 10
113.0905268822
 20
85.6803684543
 30
0.0
 10
112.059377209
 20
86.2828614712
 30
0.0
 10
110.0007934681
 20
87.486608954
 30
0.0
 10
106.9308648996
 20
89.3047600363
 30
0.0
 10
103.898277516
 20
91.1442845847
 30
0.0
 10
100.9185309725
 20
93.0164705491
 30
0.0
 10
97.9948308167
 20
94.9185923765
 30
0.0
 10
94.1894519881
 20
97.4812225649
 30
0.0
 10
91.394383582
 20
99.4622021241
 30
0.0
 10
89.5617665952
 20
100.8068263722
 30
0.0
  0
LINE
  5
38B
100
AcDbEntity
  8
RACCORDO
100
AcDbLine
 62
250
  6
CONTINUOUS
 10
89.398013735
 20
100.9270737803
 30
0.0
 11
89.2448681709
 21
101.0395803001
 31
0.0
  0
SPLINE
  5
38C
100
AcDbEntity
  8
RACCORDO
100
AcDbSpline
 62
250
  6
CONTINUOUS
 70
0
 71
3
 72
9
 73
5
 74
0
 42
0.0000001
 43
0.0000001
 44
0.0000000001
 40
0.0
 40
0.0
 40
0.0
 40
0.0
 40
0.2329112143
 40
1.0
 40
1.0
 40
1.0
 40
1.0
 10
92.4895255901
 20
172.0876581994
 30
0.0
 10
92.5407202055
 20
172.078489743
 30
0.0
 10
92.7584018932
 20
172.0272718941
 30
0.0
 10
92.9645348185
 20
171.9331507457
 30
0.0
 10
93.1125445166
 20
171.8469314344
 30
0.0
  0
SPLINE
  5
38D
100
AcDbEntity
  8
RACCORDO
100
AcDbSpline
 62
250
  6
CONTINUOUS
 70
0
 71
3
 72
15
 73
11
 74
0
 42
0.0000001
 43
0.0000001
 44
0.0000000001
 40
0.0
 40
0.0
 40
0.0
 40
0.0
 40
0.1108665751
 40
0.233558685
 40
0.3646926876
 40
0.5001893912
 40
0.6356552332
 40
0.7667015114
 40
0.8892658724
 40
1.0
 40
1.0
 40
1.0
 40
1.0
 10
89.2448681709
 20
101.0395803001
 30
0.0
 10
89.1028153696
 20
101.1436424067
 30
0.0
 10
88.8199124818
 20
101.3854651542
 30
0.0
 10
88.4237696462
 20
101.8093044397
 30
0.0
 10
88.0462855497
 20
102.3002108836
 30
0.0
 10
87.7025021821
 20
102.8393636898
 30
0.0
 10
87.4057490743
 20
103.4056084012
 30
0.0
 10
87.1677654772
 20
103.9768937197
 30
0.0
 10
86.9973946057
 20
104.5308845538
 30
0.0
 10
86.9286027689
 20
104.8962317027
 30
0.0
 10
86.9091639371
 20
105.071034474
 30
0.0
  0
LINE
  5
38E
100
AcDbEntity
  8
RACCORDO
100
AcDbLine
 62
250
  6
CONTINUOUS
 10
86.9091639371
 20
105.071034474
 30
0.0
 11
86.8872939573
 21
105.2653197888
 31
0.0
  0
SPLINE
  5
38F
100
AcDbEntity
  8
RACCORDO
100
AcDbSpline
 62
250
  6
CONTINUOUS
 70
0
 71
3
 72
9
 73
5
 74
0
 42
0.0000001
 43
0.0000001
 44
0.0000000001
 40
0.0
 40
0.0
 40
0.0
 40
0.0
 40
0.2467694427
 40
1.0
 40
1.0
 40
1.0
 40
1.0
 10
86.864631451
 20
105.4671647446
 30
0.0
 10
86.7500851822
 20
106.4913368517
 30
0.0
 10
86.3188879993
 20
110.6452983517
 30
0.0
 10
86.0179517915
 20
114.8126293775
 30
0.0
 10
85.8599713856
 20
117.9542989599
 30
0.0
  0
SPLINE
  5
390
100
AcDbEntity
  8
RACCORDO
100
AcDbSpline
 62
250
  6
CONTINUOUS
 70
0
 71
3
 72
9
 73
5
 74
0
 42
0.0000001
 43
0.0000001
 44
0.0000000001
 40
0.0
 40
0.0
 40
0.0
 40
0.0
 40
0.4733139359
 40
1.0
 40
1.0
 40
1.0
 40
1.0
 10
104.102340979
 20
105.4608922523
 30
0.0
 10
104.0333018175
 20
105.5028518844
 30
0.0
 10
103.9004710405
 20
105.6130600421
 30
0.0
 10
103.7928327276
 20
105.746811545
 30
0.0
 10
103.7428238313
 20
105.8215184909
 30
0.0
  0
SPLINE
  5
391
100
AcDbEntity
  8
RACCORDO
100
AcDbSpline
 62
250
  6
CONTINUOUS
 70
0
 71
3
 72
10
 73
6
 74
0
 42
0.0000001
 43
0.0000001
 44
0.0000000001
 40
0.0
 40
0.0
 40
0.0
 40
0.0
 40
0.5277563791
 40
0.7747092021
 40
1.0
 40
1.0
 40
1.0
 40
1.0
 10
103.7428238313
 20
105.8215184909
 30
0.0
 10
103.6785920907
 20
105.9174794062
 30
0.0
 10
103.5995350412
 20
106.0698746715
 30
0.0
 10
103.5368484533
 20
106.2799500457
 30
0.0
 10
103.5218996736
 20
106.3827784857
 30
0.0
 10
103.5194935549
 20
106.4320136829
 30
0.0
  0
SPLINE
  5
392
100
AcDbEntity
  8
RACCORDO
100
AcDbSpline
 62
250
  6
CONTINUOUS
 70
0
 71
3
 72
9
 73
5
 74
0
 42
0.0000001
 43
0.0000001
 44
0.0000000001
 40
0.0
 40
0.0
 40
0.0
 40
0.0
 40
0.4966403499
 40
1.0
 40
1.0
 40
1.0
 40
1.0
 10
85.8478123327
 20
118.1924076909
 30
0.0
 10
85.7022508417
 20
121.1541141149
 30
0.0
 10
85.5248784804
 20
127.1231720579
 30
0.0
 10
85.4683758065
 20
133.0938357257
 30
0.0
 10
85.4683758065
 20
136.0992358099
 30
0.0
  0
SPLINE
  5
393
100
AcDbEntity
  8
RACCORDO
100
AcDbSpline
 62
250
  6
CONTINUOUS
 70
0
 71
3
 72
10
 73
6
 74
0
 42
0.0000001
 43
0.0000001
 44
0.0000000001
 40
0.0
 40
0.0
 40
0.0
 40
0.0
 40
0.2474010815
 40
0.496803628
 40
1.0
 40
1.0
 40
1.0
 40
1.0
 10
103.5194935549
 20
106.4320136829
 30
0.0
 10
103.4484324785
 20
107.8870522651
 30
0.0
 10
103.3338510295
 20
110.8103128498
 30
0.0
 10
103.1879930157
 20
116.6968970563
 30
0.0
 10
103.1460202659
 20
121.1286062011
 30
0.0
 10
103.1460203497
 20
124.091579429
 30
0.0
  0
SPLINE
  5
394
100
AcDbEntity
  8
RACCORDO
100
AcDbSpline
 62
250
  6
CONTINUOUS
 70
0
 71
3
 72
11
 73
7
 74
0
 42
0.0000001
 43
0.0000001
 44
0.0000000001
 40
0.0
 40
0.0
 40
0.0
 40
0.0
 40
0.221910485
 40
0.4581856835
 40
0.7163880175
 40
1.0
 40
1.0
 40
1.0
 40
1.0
 10
103.7428238313
 20
142.5626809466
 30
0.0
 10
103.7688217817
 20
142.5726628255
 30
0.0
 10
103.8258637943
 20
142.5852635038
 30
0.0
 10
103.9165236957
 20
142.5803405946
 30
0.0
 10
104.0109677061
 20
142.5529552946
 30
0.0
 10
104.071910759
 20
142.5219483543
 30
0.0
 10
104.102340979
 20
142.5034887396
 30
0.0
  0
SPLINE
  5
395
100
AcDbEntity
  8
RACCORDO
100
AcDbSpline
 62
250
  6
CONTINUOUS
 70
0
 71
3
 72
9
 73
5
 74
0
 42
0.0000001
 43
0.0000001
 44
0.0000000001
 40
0.0
 40
0.0
 40
0.0
 40
0.0
 40
0.2472543006
 40
1.0
 40
1.0
 40
1.0
 40
1.0
 10
85.8599713856
 20
154.6954614156
 30
0.0
 10
85.9139780489
 20
155.831594843
 30
0.0
 10
86.1631030341
 20
160.4250961971
 30
0.0
 10
86.5335303844
 20
165.011918384
 30
0.0
 10
86.8764763214
 20
168.4576660954
 30
0.0
  0
LINE
  5
396
100
AcDbEntity
  8
RACCORDO
100
AcDbLine
 62
250
  6
CONTINUOUS
 10
86.8764763214
 20
168.4576660954
 30
0.0
 11
86.909164691
 21
168.7862970801
 31
0.0
  0
SPLINE
  5
397
100
AcDbEntity
  8
RACCORDO
100
AcDbSpline
 62
250
  6
CONTINUOUS
 70
0
 71
3
 72
18
 73
14
 74
0
 42
0.0000001
 43
0.0000001
 44
0.0000000001
 40
0.0
 40
0.0
 40
0.0
 40
0.0
 40
0.1540957478
 40
0.2926555374
 40
0.3561865969
 40
0.4162040793
 40
0.4732112485
 40
0.5279643839
 40
0.5814320282
 40
0.634676198
 40
0.7444190708
 40
0.8648598752
 40
1.0
 40
1.0
 40
1.0
 40
1.0
 10
86.909164691
 20
168.7862970801
 30
0.0
 10
86.9265845542
 20
168.964222262
 30
0.0
 10
86.9835234266
 20
169.3005112794
 30
0.0
 10
87.1249892221
 20
169.6922060179
 30
0.0
 10
87.277501937
 20
169.9561178871
 30
0.0
 10
87.4051375762
 20
170.1230433735
 30
0.0
 10
87.5485240151
 20
170.2626025816
 30
0.0
 10
87.7063986509
 20
170.3728653043
 30
0.0
 10
87.8767742203
 20
170.4530452794
 30
0.0
 10
88.1205331575
 20
170.5182957237
 30
0.0
 10
88.4560313662
 20
170.5163779317
 30
0.0
 10
88.8639899721
 20
170.3845143134
 30
0.0
 10
89.1189384674
 20
170.228228168
 30
0.0
 10
89.2448681709
 20
170.1348309877
 30
0.0
  0
SPLINE
  5
398
100
AcDbEntity
  8
RACCORDO
100
AcDbSpline
 62
250
  6
CONTINUOUS
 70
0
 71
3
 72
14
 73
10
 74
0
 42
0.0000001
 43
0.0000001
 44
0.0000000001
 40
0.0
 40
0.0
 40
0.0
 40
0.0
 40
0.2435990294
 40
0.367085734
 40
0.4917046987
 40
0.6174655511
 40
0.7443156079
 40
0.8719498701
 40
1.0
 40
1.0
 40
1.0
 40
1.0
 10
89.4764171317
 20
169.9643358021
 30
0.0
 10
91.3151447125
 20
168.6148113352
 30
0.0
 10
94.1196981881
 20
166.6265823705
 30
0.0
 10
97.9382107722
 20
164.0545389512
 30
0.0
 10
100.8723662107
 20
162.1452350328
 30
0.0
 10
103.8630322611
 20
160.2658591457
 30
0.0
 10
106.9070069569
 20
158.419157854
 30
0.0
 10
109.9887463663
 20
156.5939200105
 30
0.0
 10
112.0553448783
 20
155.3854908176
 30
0.0
 10
113.0905268822
 20
154.7806428326
 30
0.0
  0
SPLINE
  5
399
100
AcDbEntity
  8
RACCORDO
100
AcDbSpline
 62
250
  6
CONTINUOUS
 70
0
 71
3
 72
9
 73
5
 74
0
 42
0.0000001
 43
0.0000001
 44
0.0000000001
 40
0.0
 40
0.0
 40
0.0
 40
0.0
 40
0.248961872
 40
1.0
 40
1.0
 40
1.0
 40
1.0
 10
104.2140824421
 20
142.4357342288
 30
0.0
 10
104.8353111461
 20
142.0592500742
 30
0.0
 10
107.3364522339
 20
140.5566957992
 30
0.0
 10
109.8550384922
 20
139.0834779822
 30
0.0
 10
111.7471811894
 20
137.9781553273
 30
0.0
  0
SPLINE
  5
39A
100
AcDbEntity
  8
RACCORDO
100
AcDbSpline
 62
250
  6
CONTINUOUS
 70
0
 71
3
 72
9
 73
5
 74
0
 42
0.0000001
 43
0.0000001
 44
0.0000000001
 40
0.0
 40
0.0
 40
0.0
 40
0.0
 40
0.4969481888
 40
1.0
 40
1.0
 40
1.0
 40
1.0
 10
103.1460203497
 20
124.091579429
 30
0.0
 10
103.1460203676
 20
127.0866809406
 30
0.0
 10
103.2037292063
 20
133.1136779985
 30
0.0
 10
103.3792201364
 20
139.1389607976
 30
0.0
 10
103.5194935549
 20
142.1676020924
 30
0.0
  0
SPLINE
  5
39B
100
AcDbEntity
  8
RACCORDO
100
AcDbSpline
 62
250
  6
CONTINUOUS
 70
0
 71
3
 72
9
 73
5
 74
0
 42
0.0000001
 43
0.0000001
 44
0.0000000001
 40
0.0
 40
0.0
 40
0.0
 40
0.0
 40
0.4968242953
 40
1.0
 40
1.0
 40
1.0
 40
1.0
 10
85.4683598896
 20
136.0992478363
 30
0.0
 10
85.4683598896
 20
139.1567753884
 30
0.0
 10
85.5272731938
 20
145.31092332
 30
0.0
 10
85.7078778077
 20
151.4633170285
 30
0.0
 10
85.8530423945
 20
154.5565276415
 30
0.0
  0
SPLINE
  5
39C
100
AcDbEntity
  8
RACCORDO
100
AcDbSpline
 62
250
  6
CONTINUOUS
 70
0
 71
3
 72
11
 73
7
 74
0
 42
0.0000001
 43
0.0000001
 44
0.0000000001
 40
0.0
 40
0.0
 40
0.0
 40
0.0
 40
0.2911154452
 40
0.5499956167
 40
0.7819166192
 40
1.0
 40
1.0
 40
1.0
 40
1.0
 10
103.5194935549
 20
142.1676020924
 30
0.0
 10
103.5216441668
 20
142.2140172492
 30
0.0
 10
103.5333080063
 20
142.301722078
 30
0.0
 10
103.5777830781
 20
142.4197778445
 30
0.0
 10
103.6476443073
 20
142.5112701141
 30
0.0
 10
103.7103295505
 20
142.5502013806
 30
0.0
 10
103.7428238313
 20
142.5626809466
 30
0.0
  0
SPLINE
  5
39D
100
AcDbEntity
  8
RACCORDO
100
AcDbSpline
 62
250
  6
CONTINUOUS
 70
0
 71
3
 72
9
 73
5
 74
0
 42
0.0000001
 43
0.0000001
 44
0.0000000001
 40
0.0
 40
0.0
 40
0.0
 40
0.0
 40
0.2492298498
 40
1.0
 40
1.0
 40
1.0
 40
1.0
 10
159.4473019846
 20
110.4374542555
 30
0.0
 10
160.0873386802
 20
110.0722139368
 30
0.0
 10
162.6557433461
 20
108.6073815319
 30
0.0
 10
165.231048616
 20
107.1543648665
 30
0.0
 10
167.1765033975
 20
106.0852578641
 30
0.0
  0
SPLINE
  5
39E
100
AcDbEntity
  8
RACCORDO
100
AcDbSpline
 62
250
  6
CONTINUOUS
 70
0
 71
3
 72
14
 73
10
 74
0
 42
0.0000001
 43
0.0000001
 44
0.0000000001
 40
0.0
 40
0.0
 40
0.0
 40
0.0
 40
0.1222380059
 40
0.2448653868
 40
0.3682200452
 40
0.4925715245
 40
0.6179506477
 40
0.7443316552
 40
1.0
 40
1.0
 40
1.0
 40
1.0
 10
160.678813256
 20
127.3037627016
 30
0.0
 10
161.7277721371
 20
126.7052633438
 30
0.0
 10
163.8294387191
 20
125.5070655062
 30
0.0
 10
166.9997699201
 20
123.722710393
 30
0.0
 10
170.206602416
 20
121.9608832481
 30
0.0
 10
173.4631453493
 20
120.2338450734
 30
0.0
 10
176.7705974314
 20
118.5398074651
 30
0.0
 10
181.264019794
 20
116.3164062035
 30
0.0
 10
184.6809556415
 20
114.7112896742
 30
0.0
 10
186.9807409519
 20
113.6665612446
 30
0.0
  0
SPLINE
  5
39F
100
AcDbEntity
  8
RACCORDO
100
AcDbSpline
 62
250
  6
CONTINUOUS
 70
0
 71
3
 72
13
 73
9
 74
0
 42
0.0000001
 43
0.0000001
 44
0.0000000001
 40
0.0
 40
0.0
 40
0.0
 40
0.0
 40
0.2400533361
 40
0.368663256
 40
0.4998644388
 40
0.6310857782
 40
0.7597521109
 40
1.0
 40
1.0
 40
1.0
 40
1.0
 10
187.2756842944
 20
113.5330663727
 30
0.0
 10
187.6354426661
 20
113.3716388312
 30
0.0
 10
188.142334306
 20
113.0140397312
 30
0.0
 10
188.6942799805
 20
112.4044021841
 30
0.0
 10
189.0542586174
 20
111.8695229438
 30
0.0
 10
189.3355095643
 20
111.2892729085
 30
0.0
 10
189.5850803255
 20
110.5052147182
 30
0.0
 10
189.6397918806
 20
109.8869841755
 30
0.0
 10
189.5990051466
 20
109.4944621895
 30
0.0
  0
SPLINE
  5
3A0
100
AcDbEntity
  8
RACCORDO
100
AcDbSpline
 62
250
  6
CONTINUOUS
 70
0
 71
3
 72
9
 73
5
 74
0
 42
0.0000001
 43
0.0000001
 44
0.0000000001
 40
0.0
 40
0.0
 40
0.0
 40
0.0
 40
0.2527502049
 40
1.0
 40
1.0
 40
1.0
 40
1.0
 10
189.5659786799
 20
109.1660344352
 30
0.0
 10
189.4512668582
 20
108.0088477788
 30
0.0
 10
189.025939017
 20
103.4276970027
 30
0.0
 10
188.7159075763
 20
98.8357397834
 30
0.0
 10
188.5532917693
 20
95.4016252756
 30
0.0
  0
SPLINE
  5
3A1
100
AcDbEntity
  8
RACCORDO
100
AcDbSpline
 62
250
  6
CONTINUOUS
 70
0
 71
3
 72
9
 73
5
 74
0
 42
0.0000001
 43
0.0000001
 44
0.0000000001
 40
0.0
 40
0.0
 40
0.0
 40
0.0
 40
0.2398192934
 40
1.0
 40
1.0
 40
1.0
 40
1.0
 10
167.1765033975
 20
106.0852578641
 30
0.0
 10
167.1901238658
 20
106.0777723501
 30
0.0
 10
167.2459112542
 20
106.0447372579
 30
0.0
 10
167.2976035675
 20
106.0049748102
 30
0.0
 10
167.334359211
 20
105.9721717833
 30
0.0
  0
SPLINE
  5
3A2
100
AcDbEntity
  8
RACCORDO
100
AcDbSpline
 62
250
  6
CONTINUOUS
 70
0
 71
3
 72
9
 73
5
 74
0
 42
0.0000001
 43
0.0000001
 44
0.0000000001
 40
0.0
 40
0.0
 40
0.0
 40
0.0
 40
0.242619105
 40
1.0
 40
1.0
 40
1.0
 40
1.0
 10
167.334359211
 20
105.9721717833
 30
0.0
 10
167.3508586462
 20
105.957446659
 30
0.0
 10
167.4168466403
 20
105.8945123549
 30
0.0
 10
167.4748429253
 20
105.82334881
 30
0.0
 10
167.513961871
 20
105.7664667424
 30
0.0
  0
SPLINE
  5
3A3
100
AcDbEntity
  8
RACCORDO
100
AcDbSpline
 62
250
  6
CONTINUOUS
 70
0
 71
3
 72
9
 73
5
 74
0
 42
0.0000001
 43
0.0000001
 44
0.0000000001
 40
0.0
 40
0.0
 40
0.0
 40
0.0
 40
0.522326304
 40
1.0
 40
1.0
 40
1.0
 40
1.0
 10
167.5861892789
 20
105.6480846397
 30
0.0
 10
167.6336669044
 20
105.5598777338
 30
0.0
 10
167.7055142509
 20
105.3800498715
 30
0.0
 10
167.7306842262
 20
105.1867430244
 30
0.0
 10
167.7265974155
 20
105.0952250273
 30
0.0
  0
SPLINE
  5
3A4
100
AcDbEntity
  8
RACCORDO
100
AcDbSpline
 62
250
  6
CONTINUOUS
 70
0
 71
3
 72
9
 73
5
 74
0
 42
0.0000001
 43
0.0000001
 44
0.0000000001
 40
0.0
 40
0.0
 40
0.0
 40
0.0
 40
0.5031757048
 40
1.0
 40
1.0
 40
1.0
 40
1.0
 10
188.547171934
 20
95.2622216355
 30
0.0
 10
188.4020073439
 20
92.1690109952
 30
0.0
 10
188.2214027265
 20
86.0166172327
 30
0.0
 10
188.1624894214
 20
79.862469247
 30
0.0
 10
188.1624894214
 20
76.8049416682
 30
0.0
  0
SPLINE
  5
3A5
100
AcDbEntity
  8
RACCORDO
100
AcDbSpline
 62
250
  6
CONTINUOUS
 70
0
 71
3
 72
9
 73
5
 74
0
 42
0.0000001
 43
0.0000001
 44
0.0000000001
 40
0.0
 40
0.0
 40
0.0
 40
0.0
 40
0.5031531619
 40
1.0
 40
1.0
 40
1.0
 40
1.0
 10
167.7265974155
 20
105.0952250273
 30
0.0
 10
167.5911792625
 20
102.0645637375
 30
0.0
 10
167.421698554
 20
96.036809145
 30
0.0
 10
167.3659583009
 20
90.0074542636
 30
0.0
 10
167.365958381
 20
87.0117920745
 30
0.0
  0
LINE
  5
3A6
100
AcDbEntity
  8
0
100
AcDbLine
 62
7
  6
CONTINUOUS
 10
135.9174760539
 20
84.5665539636
 30
0.0
 11
135.6066474244
 21
84.7460085856
 31
0.0
  0
SPLINE
  5
3A7
100
AcDbEntity
  8
RACCORDO
100
AcDbSpline
 62
250
  6
CONTINUOUS
 70
0
 71
3
 72
13
 73
9
 74
0
 42
0.0000001
 43
0.0000001
 44
0.0000000001
 40
0.0
 40
0.0
 40
0.0
 40
0.0
 40
0.1162550705
 40
0.2299119096
 40
0.3438702484
 40
0.4609892597
 40
0.7132457162
 40
1.0
 40
1.0
 40
1.0
 40
1.0
 10
87.5930188522
 20
170.5597180061
 30
0.0
 10
87.6527885795
 20
170.6094594939
 30
0.0
 10
87.7801655089
 20
170.6974848246
 30
0.0
 10
87.9922770668
 20
170.7901352214
 30
0.0
 10
88.2192955804
 20
170.8385398567
 30
0.0
 10
88.5443132606
 20
170.8445982053
 30
0.0
 10
88.9769328203
 20
170.7320310457
 30
0.0
 10
89.2909872895
 20
170.547637768
 30
0.0
 10
89.4462653638
 20
170.4350454504
 30
0.0
  0
LINE
  5
3A8
100
AcDbEntity
  8
0
100
AcDbLine
 62
7
  6
CONTINUOUS
 10
136.637217907
 20
82.2619418008
 30
0.0
 11
136.6865812378
 21
82.4836909368
 31
0.0
  0
LINE
  5
3A9
100
AcDbEntity
  8
0
100
AcDbLine
 62
7
  6
CONTINUOUS
 10
137.0523039059
 20
83.9116059604
 30
0.0
 11
136.695263247
 21
84.1176263247
 31
0.0
  0
LINE
  5
3AA
100
AcDbEntity
  8
0
100
AcDbLine
 62
7
  6
CONTINUOUS
 10
137.0407918561
 20
82.695686287
 30
0.0
 11
136.7659535796
 21
82.8542782772
 31
0.0
  0
SPLINE
  5
3AB
100
AcDbEntity
  8
0
100
AcDbSpline
 62
7
  6
CONTINUOUS
 70
0
 71
3
 72
9
 73
5
 74
0
 42
0.0000001
 43
0.0000001
 44
0.0000000001
 40
0.0
 40
0.0
 40
0.0
 40
0.0
 40
0.2497457212
 40
1.0
 40
1.0
 40
1.0
 40
1.0
 10
139.1052801352
 20
80.8927071269
 30
0.0
 10
139.0930470141
 20
80.9375578066
 30
0.0
 10
139.0447239587
 20
81.1173218975
 30
0.0
 10
138.9965581503
 20
81.297130323
 30
0.0
 10
138.9594509712
 20
81.431766866
 30
0.0
  0
SPLINE
  5
3AC
100
AcDbEntity
  8
0
100
AcDbSpline
 62
7
  6
CONTINUOUS
 70
0
 71
3
 72
10
 73
6
 74
0
 42
0.0000001
 43
0.0000001
 44
0.0000000001
 40
0.0
 40
0.0
 40
0.0
 40
0.0
 40
0.2370312083
 40
0.6081654282
 40
1.0
 40
1.0
 40
1.0
 40
1.0
 10
138.9594509712
 20
81.431766866
 30
0.0
 10
138.9488060965
 20
81.4703898268
 30
0.0
 10
138.9221867
 20
81.5697229997
 30
0.0
 10
138.8648804816
 20
81.7289201496
 30
0.0
 10
138.8015242347
 20
81.8430977416
 30
0.0
 10
138.7602775908
 20
81.8949132791
 30
0.0
  0
SPLINE
  5
3AD
100
AcDbEntity
  8
0
100
AcDbSpline
 62
7
  6
CONTINUOUS
 70
0
 71
3
 72
11
 73
7
 74
0
 42
0.0000001
 43
0.0000001
 44
0.0000000001
 40
0.0
 40
0.0
 40
0.0
 40
0.0
 40
0.2737952159
 40
0.5280697757
 40
0.7687137108
 40
1.0
 40
1.0
 40
1.0
 40
1.0
 10
138.6171265819
 20
82.9669145661
 30
0.0
 10
138.5465853502
 20
83.0342731666
 30
0.0
 10
138.398171269
 20
83.1513006917
 30
0.0
 10
138.1653545096
 20
83.2959865631
 30
0.0
 10
137.9349072533
 20
83.4141024662
 30
0.0
 10
137.7807491454
 20
83.4813368002
 30
0.0
 10
137.7047076868
 20
83.5130581387
 30
0.0
  0
LINE
  5
3AE
100
AcDbEntity
  8
0
100
AcDbLine
 62
7
  6
CONTINUOUS
 10
138.3260009454
 20
82.3339274128
 30
0.0
 11
138.1150074249
 21
82.4555969205
 31
0.0
  0
SPLINE
  5
3AF
100
AcDbEntity
  8
RACCORDO
100
AcDbSpline
 62
250
  6
CONTINUOUS
 70
0
 71
3
 72
11
 73
7
 74
0
 42
0.0000001
 43
0.0000001
 44
0.0000000001
 40
0.0
 40
0.0
 40
0.0
 40
0.0
 40
0.2149123215
 40
0.4499503123
 40
0.7110819864
 40
1.0
 40
1.0
 40
1.0
 40
1.0
 10
167.5400534134
 20
68.9857976973
 30
0.0
 10
167.5146707707
 20
68.9762505605
 30
0.0
 10
167.4582007501
 20
68.964522532
 30
0.0
 10
167.3678501515
 20
68.9696106865
 30
0.0
 10
167.2716967665
 20
68.9957480409
 30
0.0
 10
167.208468061
 20
69.0251289717
 30
0.0
 10
167.1765033975
 20
69.0426613768
 30
0.0
  0
SPLINE
  5
3B0
100
AcDbEntity
  8
RACCORDO
100
AcDbSpline
 62
250
  6
CONTINUOUS
 70
0
 71
3
 72
9
 73
5
 74
0
 42
0.0000001
 43
0.0000001
 44
0.0000000001
 40
0.0
 40
0.0
 40
0.0
 40
0.0
 40
0.2532981437
 40
1.0
 40
1.0
 40
1.0
 40
1.0
 10
188.5532917693
 20
58.6604628199
 30
0.0
 10
188.606663905
 20
57.5952159539
 30
0.0
 10
188.8484400927
 20
53.3913440212
 30
0.0
 10
189.2160184524
 20
49.1945496855
 30
0.0
 10
189.5659786799
 20
46.0698880804
 30
0.0
  0
SPLINE
  5
3B1
100
AcDbEntity
  8
RACCORDO
100
AcDbSpline
 62
250
  6
CONTINUOUS
 70
0
 71
3
 72
18
 73
14
 74
0
 42
0.0000001
 43
0.0000001
 44
0.0000000001
 40
0.0
 40
0.0
 40
0.0
 40
0.0
 40
0.1371486308
 40
0.2597372251
 40
0.3713100779
 40
0.4251393602
 40
0.4788836029
 40
0.5335767331
 40
0.5901729713
 40
0.6494858426
 40
0.7120739244
 40
0.8482923221
 40
1.0
 40
1.0
 40
1.0
 40
1.0
 10
189.5990059186
 20
45.7792004645
 30
0.0
 10
189.6165763418
 20
45.6292849493
 30
0.0
 10
189.625742836
 20
45.3413524697
 30
0.0
 10
189.5462977461
 20
44.9361810674
 30
0.0
 10
189.3960328201
 20
44.6505252531
 30
0.0
 10
189.2328552611
 20
44.4714533516
 30
0.0
 10
189.0909122445
 20
44.361615523
 30
0.0
 10
188.9300816439
 20
44.2755066478
 30
0.0
 10
188.7518602414
 20
44.2140744389
 30
0.0
 10
188.5580856553
 20
44.1780845886
 30
0.0
 10
188.2737196711
 20
44.1629281756
 30
0.0
 10
187.8879662405
 20
44.2123065518
 30
0.0
 10
187.5847950782
 20
44.3095720209
 30
0.0
 10
187.4298356371
 20
44.3717399275
 30
0.0
  0
LINE
  5
3B2
100
AcDbEntity
  8
RACCORDO
100
AcDbLine
 62
250
  6
CONTINUOUS
 10
187.2756842944
 20
44.4378156851
 30
0.0
 11
187.1147136271
 21
44.5109006198
 31
0.0
  0
LINE
  5
3B3
100
AcDbEntity
  8
RACCORDO
100
AcDbLine
 62
250
  6
CONTINUOUS
 10
187.1147136271
 20
44.5109006198
 30
0.0
 11
186.9807409513
 21
44.5717077489
 31
0.0
  0
SPLINE
  5
3B4
100
AcDbEntity
  8
RACCORDO
100
AcDbSpline
 62
250
  6
CONTINUOUS
 70
0
 71
3
 72
14
 73
10
 74
0
 42
0.0000001
 43
0.0000001
 44
0.0000000001
 40
0.0
 40
0.0
 40
0.0
 40
0.0
 40
0.2556370859
 40
0.3820117899
 40
0.5073914382
 40
0.6317505792
 40
0.7551179628
 40
0.8777565989
 40
1.0
 40
1.0
 40
1.0
 40
1.0
 10
186.9807409513
 20
44.5717077489
 30
0.0
 10
184.6891521699
 20
45.611706649
 30
0.0
 10
181.2842960054
 20
47.2096421142
 30
0.0
 10
176.8066014937
 20
49.4232320375
 30
0.0
 10
173.5104456884
 20
51.1099628346
 30
0.0
 10
170.2648252148
 20
52.8296577106
 30
0.0
 10
167.0686817657
 20
54.584182159
 30
0.0
 10
163.909167568
 20
56.3615954873
 30
0.0
 10
161.8148245954
 20
57.5553524526
 30
0.0
 10
160.7695896185
 20
58.1516958574
 30
0.0
  0
SPLINE
  5
3B5
100
AcDbEntity
  8
RACCORDO
100
AcDbSpline
 62
250
  6
CONTINUOUS
 70
0
 71
3
 72
9
 73
5
 74
0
 42
0.0000001
 43
0.0000001
 44
0.0000000001
 40
0.0
 40
0.0
 40
0.0
 40
0.0
 40
0.2510048727
 40
1.0
 40
1.0
 40
1.0
 40
1.0
 10
167.1765033975
 20
69.0426613768
 30
0.0
 10
166.5165016985
 20
69.404704066
 30
0.0
 10
163.8926960935
 20
70.8573640498
 30
0.0
 10
161.2866085009
 20
72.3416813334
 30
0.0
 10
159.3354675633
 20
73.4547138948
 30
0.0
  0
SPLINE
  5
3B6
100
AcDbEntity
  8
RACCORDO
100
AcDbSpline
 62
250
  6
CONTINUOUS
 70
0
 71
3
 72
11
 73
7
 74
0
 42
0.0000001
 43
0.0000001
 44
0.0000000001
 40
0.0
 40
0.0
 40
0.0
 40
0.0
 40
0.2934585811
 40
0.5503052324
 40
0.7796798634
 40
1.0
 40
1.0
 40
1.0
 40
1.0
 10
167.7265974155
 20
69.3596366178
 30
0.0
 10
167.7286539155
 20
69.3160519418
 30
0.0
 10
167.7251971202
 20
69.233573959
 30
0.0
 10
167.6916335226
 20
69.1209971228
 30
0.0
 10
167.6294550935
 20
69.0334550519
 30
0.0
 10
167.5707136505
 20
68.9973332798
 30
0.0
 10
167.5400534134
 20
68.9857976973
 30
0.0
  0
SPLINE
  5
3B7
100
AcDbEntity
  8
RACCORDO
100
AcDbSpline
 62
250
  6
CONTINUOUS
 70
0
 71
3
 72
10
 73
6
 74
0
 42
0.0000001
 43
0.0000001
 44
0.0000000001
 40
0.0
 40
0.0
 40
0.0
 40
0.0
 40
0.5033188015
 40
0.7526996975
 40
1.0
 40
1.0
 40
1.0
 40
1.0
 10
167.365958381
 20
87.0117920745
 30
0.0
 10
167.3659583978
 20
84.0494012227
 30
0.0
 10
167.4064827975
 20
79.6190595802
 30
0.0
 10
167.5473115224
 20
73.7349487737
 30
0.0
 10
167.6579649976
 20
70.8135566369
 30
0.0
 10
167.7265974155
 20
69.3596366178
 30
0.0
  0
SPLINE
  5
3B8
100
AcDbEntity
  8
RACCORDO
100
AcDbSpline
 62
250
  6
CONTINUOUS
 70
0
 71
3
 72
9
 73
5
 74
0
 42
0.0000001
 43
0.0000001
 44
0.0000000001
 40
0.0
 40
0.0
 40
0.0
 40
0.0
 40
0.5033912952
 40
1.0
 40
1.0
 40
1.0
 40
1.0
 10
188.1625102503
 20
76.804932478
 30
0.0
 10
188.1625102503
 20
73.7814987104
 30
0.0
 10
188.2196215054
 20
67.7753879045
 30
0.0
 10
188.3993758562
 20
61.7709060152
 30
0.0
 10
188.5471927553
 20
58.7918743872
 30
0.0
  0
SPLINE
  5
3B9
100
AcDbEntity
  8
RACCORDO
100
AcDbSpline
 62
250
  6
CONTINUOUS
 70
0
 71
3
 72
10
 73
6
 74
0
 42
0.0000001
 43
0.0000001
 44
0.0000000001
 40
0.0
 40
0.0
 40
0.0
 40
0.0
 40
0.2474010281
 40
0.4968037421
 40
1.0
 40
1.0
 40
1.0
 40
1.0
 10
103.9455507905
 20
106.4394492117
 30
0.0
 10
103.8745441072
 20
107.8934139959
 30
0.0
 10
103.7600610543
 20
110.8145189723
 30
0.0
 10
103.6143364048
 20
116.6967604324
 30
0.0
 10
103.5724007182
 20
121.1251999538
 30
0.0
 10
103.572400883
 20
124.0859863235
 30
0.0
  0
SPLINE
  5
3BA
100
AcDbEntity
  8
RACCORDO
100
AcDbSpline
 62
250
  6
CONTINUOUS
 70
0
 71
3
 72
9
 73
5
 74
0
 42
0.0000001
 43
0.0000001
 44
0.0000000001
 40
0.0
 40
0.0
 40
0.0
 40
0.0
 40
0.4969483027
 40
1.0
 40
1.0
 40
1.0
 40
1.0
 10
103.572400883
 20
124.0859863235
 30
0.0
 10
103.5724009189
 20
127.0788736104
 30
0.0
 10
103.6300600958
 20
133.1014134219
 30
0.0
 10
103.8053853084
 20
139.1222416567
 30
0.0
 10
103.9455507905
 20
142.1486427455
 30
0.0
  0
SPLINE
  5
3BB
100
AcDbEntity
  8
RACCORDO
100
AcDbSpline
 62
250
  6
CONTINUOUS
 70
0
 71
3
 72
9
 73
5
 74
0
 42
0.0000001
 43
0.0000001
 44
0.0000000001
 40
0.0
 40
0.0
 40
0.0
 40
0.0
 40
0.2510049491
 40
1.0
 40
1.0
 40
1.0
 40
1.0
 10
167.3791889723
 20
69.4247055684
 30
0.0
 10
166.7195350651
 20
69.7865585347
 30
0.0
 10
164.0971152584
 20
71.2384610776
 30
0.0
 10
161.4924032023
 20
72.7220023091
 30
0.0
 10
159.5422900351
 20
73.8344488819
 30
0.0
  0
SPLINE
  5
3BC
100
AcDbEntity
  8
RACCORDO
100
AcDbSpline
 62
250
  6
CONTINUOUS
 70
0
 71
3
 72
9
 73
5
 74
0
 42
0.0000001
 43
0.0000001
 44
0.0000000001
 40
0.0
 40
0.0
 40
0.0
 40
0.0
 40
0.2507628737
 40
1.0
 40
1.0
 40
1.0
 40
1.0
 10
111.9565211687
 20
101.3098754357
 30
0.0
 10
111.3155861224
 20
101.6844413954
 30
0.0
 10
108.7599924915
 20
103.1786980925
 30
0.0
 10
106.2111680219
 20
104.6848712777
 30
0.0
 10
104.3156916943
 20
105.8367785255
 30
0.0
  0
SPLINE
  5
3BD
100
AcDbEntity
  8
RACCORDO
100
AcDbSpline
 62
250
  6
CONTINUOUS
 70
0
 71
3
 72
12
 73
8
 74
0
 42
0.0000001
 43
0.0000001
 44
0.0000000001
 40
0.0
 40
0.0
 40
0.0
 40
0.0
 40
0.1249500233
 40
0.2499466317
 40
0.4999233863
 40
0.749940756
 40
1.0
 40
1.0
 40
1.0
 40
1.0
 10
93.359037101
 20
171.7034157844
 30
0.0
 10
94.3963314743
 20
171.0997638965
 30
0.0
 10
96.4739448185
 20
169.8967731086
 30
0.0
 10
100.6305354488
 20
167.4925856521
 30
0.0
 10
105.8243086631
 20
164.4822938791
 30
0.0
 10
112.0594746804
 20
160.8732640008
 30
0.0
 10
116.2190730839
 20
158.4713360664
 30
0.0
 10
118.2990004142
 20
157.2701923698
 30
0.0
  0
SPLINE
  5
3BE
100
AcDbEntity
  8
RACCORDO
100
AcDbSpline
 62
250
  6
CONTINUOUS
 70
0
 71
3
 72
9
 73
5
 74
0
 42
0.0000001
 43
0.0000001
 44
0.0000000001
 40
0.0
 40
0.0
 40
0.0
 40
0.0
 40
0.5000201323
 40
1.0
 40
1.0
 40
1.0
 40
1.0
 10
192.9973383629
 20
98.4780683697
 30
0.0
 10
192.9947951918
 20
95.4234382874
 30
0.0
 10
192.9921458432
 20
89.3144221849
 30
0.0
 10
192.9913263725
 20
83.2054059321
 30
0.0
 10
192.991322721
 20
80.1510207684
 30
0.0
  0
SPLINE
  5
3BF
100
AcDbEntity
  8
RACCORDO
100
AcDbSpline
 62
250
  6
CONTINUOUS
 70
0
 71
3
 72
11
 73
7
 74
0
 42
0.0000001
 43
0.0000001
 44
0.0000000001
 40
0.0
 40
0.0
 40
0.0
 40
0.0
 40
0.2500801583
 40
0.5000914274
 40
0.7500671716
 40
1.0
 40
1.0
 40
1.0
 40
1.0
 10
193.0209142308
 20
111.6932865538
 30
0.0
 10
193.0170653034
 20
110.5948103593
 30
0.0
 10
193.0131437117
 20
108.3981490851
 30
0.0
 10
193.0065354302
 20
105.1034687385
 30
0.0
 10
193.000758208
 20
101.8094331054
 30
0.0
 10
192.9982909098
 20
99.613574265
 30
0.0
 10
192.9973698494
 20
98.515738864
 30
0.0
  0
SPLINE
  5
3C0
100
AcDbEntity
  8
RACCORDO
100
AcDbSpline
 62
250
  6
CONTINUOUS
 70
0
 71
3
 72
15
 73
11
 74
0
 42
0.0000001
 43
0.0000001
 44
0.0000000001
 40
0.0
 40
0.0
 40
0.0
 40
0.0
 40
0.1158571847
 40
0.23955265
 40
0.3687896567
 40
0.5008371936
 40
0.6327624613
 40
0.7616514947
 40
0.8848155792
 40
1.0
 40
1.0
 40
1.0
 40
1.0
 10
191.2288734631
 20
115.1926360152
 30
0.0
 10
191.3502521017
 20
115.1150231593
 30
0.0
 10
191.5888763559
 20
114.9347870737
 30
0.0
 10
191.9173652051
 20
114.6133180402
 30
0.0
 10
192.2193457404
 20
114.2405359145
 30
0.0
 10
192.4847563491
 20
113.8287739831
 30
0.0
 10
192.7048979812
 20
113.3916159191
 30
0.0
 10
192.8724874966
 20
112.943413342
 30
0.0
 10
192.9820832633
 20
112.4990314886
 30
0.0
 10
193.0155779737
 20
112.2033554271
 30
0.0
 10
193.0204123523
 20
112.0602023677
 30
0.0
  0
SPLINE
  5
3C1
100
AcDbEntity
  8
RACCORDO
100
AcDbSpline
 62
250
  6
CONTINUOUS
 70
0
 71
3
 72
12
 73
8
 74
0
 42
0.0000001
 43
0.0000001
 44
0.0000000001
 40
0.0
 40
0.0
 40
0.0
 40
0.0
 40
0.2499405713
 40
0.4999231977
 40
0.7499461936
 40
0.8749494447
 40
1.0
 40
1.0
 40
1.0
 40
1.0
 10
165.9214920894
 20
129.7735662205
 30
0.0
 10
168.0005040272
 20
128.5733914767
 30
0.0
 10
172.1587911198
 20
126.1726889521
 30
0.0
 10
178.4004580069
 20
122.5778014028
 30
0.0
 10
183.6040069586
 20
119.5847790809
 30
0.0
 10
187.7652865924
 20
117.1863153855
 30
0.0
 10
189.8466357074
 20
115.98801085
 30
0.0
 10
190.8888181819
 20
115.3910313513
 30
0.0
  0
SPLINE
  5
3C2
100
AcDbEntity
  8
RACCORDO
100
AcDbSpline
 62
250
  6
CONTINUOUS
 70
0
 71
3
 72
9
 73
5
 74
0
 42
0.0000001
 43
0.0000001
 44
0.0000000001
 40
0.0
 40
0.0
 40
0.0
 40
0.0
 40
0.5000200515
 40
1.0
 40
1.0
 40
1.0
 40
1.0
 10
192.9913226966
 20
80.1102315001
 30
0.0
 10
192.9913226935
 20
77.0554904079
 30
0.0
 10
192.9921358029
 20
70.9462532724
 30
0.0
 10
192.9947734548
 20
64.8370162857
 30
0.0
 10
192.9973070582
 20
61.7825212425
 30
0.0
  0
SPLINE
  5
3C3
100
AcDbEntity
  8
RACCORDO
100
AcDbSpline
 62
250
  6
CONTINUOUS
 70
0
 71
3
 72
11
 73
7
 74
0
 42
0.0000001
 43
0.0000001
 44
0.0000000001
 40
0.0
 40
0.0
 40
0.0
 40
0.0
 40
0.2500670337
 40
0.5000911689
 40
0.7500795744
 40
1.0
 40
1.0
 40
1.0
 40
1.0
 10
192.9973383629
 20
61.7448575841
 30
0.0
 10
192.9982534273
 20
60.646348918
 30
0.0
 10
193.0007071968
 20
58.4495204969
 30
0.0
 10
193.0064736982
 20
55.1545319753
 30
0.0
 10
193.0130947386
 20
51.8601899513
 30
0.0
 10
193.0170090249
 20
49.6641633111
 30
0.0
 10
193.0208346923
 20
48.566304958
 30
0.0
  0
SPLINE
  5
3C4
100
AcDbEntity
  8
RACCORDO
100
AcDbSpline
 62
250
  6
CONTINUOUS
 70
0
 71
3
 72
13
 73
9
 74
0
 42
0.0000001
 43
0.0000001
 44
0.0000000001
 40
0.0
 40
0.0
 40
0.0
 40
0.0
 40
0.2449726487
 40
0.4932821238
 40
0.618700705
 40
0.744966704
 40
0.8720858255
 40
1.0
 40
1.0
 40
1.0
 40
1.0
 10
89.6770059763
 20
170.2650131514
 30
0.0
 10
91.0306732289
 20
169.2715022085
 30
0.0
 10
93.7807989564
 20
167.3039167797
 30
0.0
 10
97.2878120334
 20
164.9188215217
 30
0.0
 10
100.1551364323
 20
163.0415417346
 30
0.0
 10
102.343932446
 20
161.6447305427
 30
0.0
 10
104.5635364536
 20
160.2647410299
 30
0.0
 10
106.0583784366
 20
159.3584413968
 30
0.0
 10
106.8099321998
 20
158.9068974209
 30
0.0
  0
SPLINE
  5
3C5
100
AcDbEntity
  8
RACCORDO
100
AcDbSpline
 62
250
  6
CONTINUOUS
 70
0
 71
3
 72
9
 73
5
 74
0
 42
0.0000001
 43
0.0000001
 44
0.0000000001
 40
0.0
 40
0.0
 40
0.0
 40
0.0
 40
0.2492397844
 40
1.0
 40
1.0
 40
1.0
 40
1.0
 10
106.8099321998
 20
158.9068974209
 30
0.0
 10
107.3442933364
 20
158.5858458022
 30
0.0
 10
109.4919940551
 20
157.3039341409
 30
0.0
 10
111.6509404981
 20
156.0410079967
 30
0.0
 10
113.2722489246
 20
155.0936915236
 30
0.0
  0
SPLINE
  5
3C6
100
AcDbEntity
  8
RACCORDO
100
AcDbSpline
 62
250
  6
CONTINUOUS
 70
0
 71
3
 72
9
 73
5
 74
0
 42
0.0000001
 43
0.0000001
 44
0.0000000001
 40
0.0
 40
0.0
 40
0.0
 40
0.0
 40
0.2446054904
 40
1.0
 40
1.0
 40
1.0
 40
1.0
 10
118.3345645361
 20
157.2501973955
 30
0.0
 10
120.2715279703
 20
156.1314677723
 30
0.0
 10
128.1903451671
 20
151.5580206802
 30
0.0
 10
136.1094910231
 20
146.9851426632
 30
0.0
 10
142.0917215958
 20
143.5310777284
 30
0.0
  0
SPLINE
  5
3C7
100
AcDbEntity
  8
RACCORDO
100
AcDbSpline
 62
250
  6
CONTINUOUS
 70
0
 71
3
 72
9
 73
5
 74
0
 42
0.0000001
 43
0.0000001
 44
0.0000000001
 40
0.0
 40
0.0
 40
0.0
 40
0.0
 40
0.2682961929
 40
1.0
 40
1.0
 40
1.0
 40
1.0
 10
193.0219084031
 20
48.2764428898
 30
0.0
 10
193.0221422762
 20
48.216378247
 30
0.0
 10
193.0151506177
 20
47.992734417
 30
0.0
 10
192.9740618877
 20
47.7687282791
 30
0.0
 10
192.918236543
 20
47.6147231934
 30
0.0
  0
SPLINE
  5
3C8
100
AcDbEntity
  8
RACCORDO
100
AcDbSpline
 62
250
  6
CONTINUOUS
 70
0
 71
3
 72
9
 73
5
 74
0
 42
0.0000001
 43
0.0000001
 44
0.0000000001
 40
0.0
 40
0.0
 40
0.0
 40
0.0
 40
0.2527495795
 40
1.0
 40
1.0
 40
1.0
 40
1.0
 10
189.9273433636
 20
109.1392218608
 30
0.0
 10
189.8127500474
 20
107.9832305174
 30
0.0
 10
189.3878607411
 20
103.4068004854
 30
0.0
 10
189.078150026
 20
98.8195750733
 30
0.0
 10
188.9157025045
 20
95.3889964289
 30
0.0
  0
SPLINE
  5
3C9
100
AcDbEntity
  8
RACCORDO
100
AcDbSpline
 62
250
  6
CONTINUOUS
 70
0
 71
3
 72
9
 73
5
 74
0
 42
0.0000001
 43
0.0000001
 44
0.0000000001
 40
0.0
 40
0.0
 40
0.0
 40
0.0
 40
0.2520902538
 40
1.0
 40
1.0
 40
1.0
 40
1.0
 10
142.2335790525
 20
143.4492402085
 30
0.0
 10
144.2211363069
 20
142.301651578
 30
0.0
 10
152.1055180831
 20
137.7494862811
 30
0.0
 10
159.9901646233
 20
133.1977795423
 30
0.0
 10
165.8873760693
 20
129.7938731277
 30
0.0
  0
LINE
  5
3CA
100
AcDbEntity
  8
RACCORDO
100
AcDbLine
 62
250
  6
CONTINUOUS
 10
188.9157025045
 20
95.3889964289
 30
0.0
 11
188.9091533712
 21
95.2499253201
 31
0.0
  0
SPLINE
  5
3CB
100
AcDbEntity
  8
0
100
AcDbSpline
 62
7
  6
CONTINUOUS
 70
0
 71
3
 72
11
 73
7
 74
0
 42
0.0000001
 43
0.0000001
 44
0.0000000001
 40
0.0
 40
0.0
 40
0.0
 40
0.0
 40
0.2897397867
 40
0.5573463954
 40
0.7947845228
 40
1.0
 40
1.0
 40
1.0
 40
1.0
 10
138.269286442
 20
82.3011811694
 30
0.0
 10
138.2877962602
 20
82.2909506342
 30
0.0
 10
138.3241601348
 20
82.2725507442
 30
0.0
 10
138.3787800438
 20
82.2525064413
 30
0.0
 10
138.430301706
 20
82.2434342202
 30
0.0
 10
138.4634479201
 20
82.2504829114
 30
0.0
 10
138.4764423988
 20
82.2579342039
 30
0.0
  0
SPLINE
  5
3CC
100
AcDbEntity
  8
RACCORDO
100
AcDbSpline
 62
250
  6
CONTINUOUS
 70
0
 71
3
 72
9
 73
5
 74
0
 42
0.0000001
 43
0.0000001
 44
0.0000000001
 40
0.0
 40
0.0
 40
0.0
 40
0.0
 40
0.5032014204
 40
1.0
 40
1.0
 40
1.0
 40
1.0
 10
188.9091533712
 20
95.2499253201
 30
0.0
 10
188.764375416
 20
92.1584772661
 30
0.0
 10
188.5841341198
 20
86.0099292808
 30
0.0
 10
188.5253300126
 20
79.8596300066
 30
0.0
 10
188.5253316562
 20
76.8041730547
 30
0.0
  0
SPLINE
  5
3CD
100
AcDbEntity
  8
0
100
AcDbSpline
 62
7
  6
CONTINUOUS
 70
0
 71
3
 72
11
 73
7
 74
0
 42
0.0000001
 43
0.0000001
 44
0.0000000001
 40
0.0
 40
0.0
 40
0.0
 40
0.0
 40
0.2312866745
 40
0.4719307364
 40
0.7262050784
 40
1.0
 40
1.0
 40
1.0
 40
1.0
 10
137.6480078512
 20
83.4803203642
 30
0.0
 10
137.7240495012
 20
83.4485991543
 30
0.0
 10
137.8782078912
 20
83.3813650609
 30
0.0
 10
138.1086553876
 20
83.2632494422
 30
0.0
 10
138.3414718947
 20
83.1185634644
 30
0.0
 10
138.4898854919
 20
83.0015355968
 30
0.0
 10
138.5604262846
 20
82.9341767057
 30
0.0
  0
SPLINE
  5
3CE
100
AcDbEntity
  8
0
100
AcDbSpline
 62
7
  6
CONTINUOUS
 70
0
 71
3
 72
19
 73
15
 74
0
 42
0.0000001
 43
0.0000001
 44
0.0000000001
 40
0.0
 40
0.0
 40
0.0
 40
0.0
 40
0.0741744806
 40
0.1502861423
 40
0.3033785934
 40
0.4518378919
 40
0.5223211637
 40
0.5895100753
 40
0.7135944055
 40
0.8227997687
 40
0.8715282301
 40
0.9166868104
 40
0.9590456081
 40
1.0
 40
1.0
 40
1.0
 40
1.0
 10
138.5604262846
 20
82.9341767057
 30
0.0
 10
138.5803459974
 20
82.9151661729
 30
0.0
 10
138.6181103736
 20
82.8739285102
 30
0.0
 10
138.6874359525
 20
82.7851069983
 30
0.0
 10
138.7624034114
 20
82.6660871498
 30
0.0
 10
138.8193675346
 20
82.5397013661
 30
0.0
 10
138.8516360694
 20
82.4383919452
 30
0.0
 10
138.8734660704
 20
82.3436102508
 30
0.0
 10
138.8864082668
 20
82.2324218638
 30
0.0
 10
138.8796612313
 20
82.1268698112
 30
0.0
 10
138.8585170538
 20
82.0541765424
 30
0.0
 10
138.8361846872
 20
82.0084865311
 30
0.0
 10
138.8065829
 20
81.9704907852
 30
0.0
 10
138.7813731057
 20
81.9518854202
 30
0.0
 10
138.7682077446
 20
81.9442819892
 30
0.0
  0
SPLINE
  5
3CF
100
AcDbEntity
  8
0
100
AcDbSpline
 62
7
  6
CONTINUOUS
 70
0
 71
3
 72
12
 73
8
 74
0
 42
0.0000001
 43
0.0000001
 44
0.0000000001
 40
0.0
 40
0.0
 40
0.0
 40
0.0
 40
0.26272045
 40
0.4555405477
 40
0.642122639
 40
0.8228805473
 40
1.0
 40
1.0
 40
1.0
 40
1.0
 10
138.6987098056
 20
81.8681894165
 30
0.0
 10
138.7272847019
 20
81.8332783428
 30
0.0
 10
138.7696054855
 20
81.7667719497
 30
0.0
 10
138.8166755523
 20
81.666992574
 30
0.0
 10
138.8508790984
 20
81.5769881087
 30
0.0
 10
138.8787294038
 20
81.4876991756
 30
0.0
 10
138.894645447
 20
81.428336522
 30
0.0
 10
138.9027262835
 20
81.3990146764
 30
0.0
  0
SPLINE
  5
3D0
100
AcDbEntity
  8
0
100
AcDbSpline
 62
7
  6
CONTINUOUS
 70
0
 71
3
 72
9
 73
5
 74
0
 42
0.0000001
 43
0.0000001
 44
0.0000000001
 40
0.0
 40
0.0
 40
0.0
 40
0.0
 40
0.5003757675
 40
1.0
 40
1.0
 40
1.0
 40
1.0
 10
138.9027262837
 20
81.3990146763
 30
0.0
 10
138.9304375262
 20
81.2984626143
 30
0.0
 10
138.9848051084
 20
81.0972324767
 30
0.0
 10
139.0384318179
 20
80.8957995476
 30
0.0
 10
139.0662829356
 20
80.7954487041
 30
0.0
  0
SPLINE
  5
3D1
100
AcDbEntity
  8
RACCORDO
100
AcDbSpline
 62
250
  6
CONTINUOUS
 70
0
 71
3
 72
14
 73
10
 74
0
 42
0.0000001
 43
0.0000001
 44
0.0000000001
 40
0.0
 40
0.0
 40
0.0
 40
0.0
 40
0.1222390676
 40
0.2448670643
 40
0.3682217461
 40
0.4925729558
 40
0.6179517798
 40
0.7443324506
 40
1.0
 40
1.0
 40
1.0
 40
1.0
 10
160.858388107
 20
127.618051154
 30
0.0
 10
161.9064910454
 20
127.020040129
 30
0.0
 10
164.0064382639
 20
125.8228211519
 30
0.0
 10
167.1741586754
 20
124.0399099038
 30
0.0
 10
170.3783276922
 20
122.2794936921
 30
0.0
 10
173.6321608017
 20
120.553845272
 30
0.0
 10
176.936864361
 20
118.8611831155
 30
0.0
 10
181.4265569047
 20
116.6395980676
 30
0.0
 10
184.8406625591
 20
115.0358046276
 30
0.0
 10
187.1385447232
 20
113.9919421589
 30
0.0
  0
LINE
  5
3D2
100
AcDbEntity
  8
0
100
AcDbLine
 62
7
  6
CONTINUOUS
 10
136.6546564979
 20
82.5618894842
 30
0.0
 11
136.580483007
 21
82.2291837807
 31
0.0
  0
LINE
  5
3D3
100
AcDbEntity
  8
0
100
AcDbLine
 62
7
  6
CONTINUOUS
 10
135.6332459027
 20
84.0021114148
 30
0.0
 11
135.6014308231
 21
83.9101284123
 31
0.0
  0
SPLINE
  5
3D4
100
AcDbEntity
  8
RACCORDO
100
AcDbSpline
 62
250
  6
CONTINUOUS
 70
0
 71
3
 72
9
 73
5
 74
0
 42
0.0000001
 43
0.0000001
 44
0.0000000001
 40
0.0
 40
0.0
 40
0.0
 40
0.0
 40
0.2190074055
 40
1.0
 40
1.0
 40
1.0
 40
1.0
 10
167.5737200986
 20
69.3803278997
 30
0.0
 10
167.5591960982
 20
69.3778983221
 30
0.0
 10
167.4914789224
 20
69.3748160818
 30
0.0
 10
167.4253299398
 20
69.3996330924
 30
0.0
 10
167.379188928
 20
69.4247055411
 30
0.0
  0
SPLINE
  5
3D5
100
AcDbEntity
  8
RACCORDO
100
AcDbSpline
 62
250
  6
CONTINUOUS
 70
0
 71
3
 72
13
 73
9
 74
0
 42
0.0000001
 43
0.0000001
 44
0.0000000001
 40
0.0
 40
0.0
 40
0.0
 40
0.0
 40
0.2398517737
 40
0.3685426636
 40
0.4998750565
 40
0.6312265333
 40
0.7599703712
 40
1.0
 40
1.0
 40
1.0
 40
1.0
 10
187.4326543276
 20
113.8589324953
 30
0.0
 10
187.8213641615
 20
113.6803851954
 30
0.0
 10
188.3683026084
 20
113.2883857588
 30
0.0
 10
188.9651445204
 20
112.6244112105
 30
0.0
 10
189.3556209416
 20
112.0428083163
 30
0.0
 10
189.6621177334
 20
111.4127946057
 30
0.0
 10
189.936334331
 20
110.5626854815
 30
0.0
 10
190.0007918065
 20
109.8925547736
 30
0.0
 10
189.960346094
 20
109.4663974355
 30
0.0
  0
SPLINE
  5
3D6
100
AcDbEntity
  8
RACCORDO
100
AcDbSpline
 62
250
  6
CONTINUOUS
 70
0
 71
3
 72
9
 73
5
 74
0
 42
0.0000001
 43
0.0000001
 44
0.0000000001
 40
0.0
 40
0.0
 40
0.0
 40
0.0
 40
0.4730367579
 40
1.0
 40
1.0
 40
1.0
 40
1.0
 10
104.3156916943
 20
105.8367785255
 30
0.0
 10
104.2727059978
 20
105.8631491237
 30
0.0
 10
104.1898290275
 20
105.9319804753
 30
0.0
 10
104.1221132737
 20
106.0150697408
 30
0.0
 10
104.0904561526
 20
106.0614799188
 30
0.0
  0
SPLINE
  5
3D7
100
AcDbEntity
  8
RACCORDO
100
AcDbSpline
 62
250
  6
CONTINUOUS
 70
0
 71
3
 72
9
 73
5
 74
0
 42
0.0000001
 43
0.0000001
 44
0.0000000001
 40
0.0
 40
0.0
 40
0.0
 40
0.0
 40
0.5298347521
 40
1.0
 40
1.0
 40
1.0
 40
1.0
 10
104.0904561526
 20
106.0614799188
 30
0.0
 10
104.0498477334
 20
106.121015332
 30
0.0
 10
103.9852816015
 20
106.2419189872
 30
0.0
 10
103.9499791494
 20
106.3756527239
 30
0.0
 10
103.9455507905
 20
106.4394492117
 30
0.0
  0
SPLINE
  5
3D8
100
AcDbEntity
  8
RACCORDO
100
AcDbSpline
 62
250
  6
CONTINUOUS
 70
0
 71
3
 72
11
 73
7
 74
0
 42
0.0000001
 43
0.0000001
 44
0.0000000001
 40
0.0
 40
0.0
 40
0.0
 40
0.0
 40
0.2872632274
 40
0.5468897331
 40
0.7817246662
 40
1.0
 40
1.0
 40
1.0
 40
1.0
 10
103.9455507905
 20
142.1486427455
 30
0.0
 10
103.9472593679
 20
142.1751598748
 30
0.0
 10
103.9544713339
 20
142.2255470282
 30
0.0
 10
103.9788075893
 20
142.2942471819
 30
0.0
 10
104.0156539166
 20
142.3498557126
 30
0.0
 10
104.0487919213
 20
142.3768678998
 30
0.0
 10
104.0663603877
 20
142.3868183887
 30
0.0
  0
SPLINE
  5
3D9
100
AcDbEntity
  8
RACCORDO
100
AcDbSpline
 62
250
  6
CONTINUOUS
 70
0
 71
3
 72
11
 73
7
 74
0
 42
0.0000001
 43
0.0000001
 44
0.0000000001
 40
0.0
 40
0.0
 40
0.0
 40
0.0
 40
0.2912798954
 40
0.5512493082
 40
0.7837462335
 40
1.0
 40
1.0
 40
1.0
 40
1.0
 10
167.365958381
 20
87.0117920879
 30
0.0
 10
167.3519593267
 20
87.0194348973
 30
0.0
 10
167.3265375893
 20
87.036079665
 30
0.0
 10
167.2960198974
 20
87.0668076361
 30
0.0
 10
167.2766325073
 20
87.1010664887
 30
0.0
 10
167.2720714765
 20
87.1258110193
 30
0.0
 10
167.2720738424
 20
87.137652331
 30
0.0
  0
SPLINE
  5
3DA
100
AcDbEntity
  8
RACCORDO
100
AcDbSpline
 62
250
  6
CONTINUOUS
 70
0
 71
3
 72
11
 73
7
 74
0
 42
0.0000001
 43
0.0000001
 44
0.0000000001
 40
0.0
 40
0.0
 40
0.0
 40
0.0
 40
0.2935692051
 40
0.5543908703
 40
0.7859689369
 40
1.0
 40
1.0
 40
1.0
 40
1.0
 10
159.3354675633
 20
110.5012751963
 30
0.0
 10
159.3346648218
 20
110.4845048201
 30
0.0
 10
159.3356952748
 20
110.4526014408
 30
0.0
 10
159.3466152586
 20
110.4085639413
 30
0.0
 10
159.366828604
 20
110.3728744655
 30
0.0
 10
159.3866631247
 20
110.3558314299
 30
0.0
 10
159.3972962316
 20
110.3497674665
 30
0.0
  0
SPLINE
  5
3DB
100
AcDbEntity
  8
RACCORDO
100
AcDbSpline
 62
250
  6
CONTINUOUS
 70
0
 71
3
 72
11
 73
7
 74
0
 42
0.0000001
 43
0.0000001
 44
0.0000000001
 40
0.0
 40
0.0
 40
0.0
 40
0.0
 40
0.2921632716
 40
0.5525440006
 40
0.7846936521
 40
1.0
 40
1.0
 40
1.0
 40
1.0
 10
111.7471811894
 20
137.9781553273
 30
0.0
 10
111.7463765586
 20
137.9614873156
 30
0.0
 10
111.7474086484
 20
137.9297298554
 30
0.0
 10
111.7583229925
 20
137.8858281801
 30
0.0
 10
111.7785142188
 20
137.8501084695
 30
0.0
 10
111.7982811964
 20
137.832910042
 30
0.0
 10
111.8089014363
 20
137.8267099181
 30
0.0
  0
SPLINE
  5
3DC
100
AcDbEntity
  8
RACCORDO
100
AcDbSpline
 62
250
  6
CONTINUOUS
 70
0
 71
3
 72
11
 73
7
 74
0
 42
0.0000001
 43
0.0000001
 44
0.0000000001
 40
0.0
 40
0.0
 40
0.0
 40
0.0
 40
0.2349736854
 40
0.4971123482
 40
0.7608246182
 40
1.0
 40
1.0
 40
1.0
 40
1.0
 10
103.1460203497
 20
124.0915794156
 30
0.0
 10
103.1755827229
 20
124.0735276504
 30
0.0
 10
103.2452055878
 20
124.0468752915
 30
0.0
 10
103.35736793
 20
124.0331722386
 30
0.0
 10
103.4704628834
 20
124.0440725265
 30
0.0
 10
103.541606729
 20
124.0688162334
 30
0.0
 10
103.572400883
 20
124.0859863369
 30
0.0
  0
SPLINE
  5
3DD
100
AcDbEntity
  8
RACCORDO
100
AcDbSpline
 62
250
  6
CONTINUOUS
 70
0
 71
3
 72
11
 73
7
 74
0
 42
0.0000001
 43
0.0000001
 44
0.0000000001
 40
0.0
 40
0.0
 40
0.0
 40
0.0
 40
0.292863154
 40
0.5534626947
 40
0.7853275705
 40
1.0
 40
1.0
 40
1.0
 40
1.0
 10
135.4706841904
 20
124.2003541203
 30
0.0
 10
135.4698803502
 20
124.1836343257
 30
0.0
 10
135.4709116012
 20
124.1518026446
 30
0.0
 10
135.4818298408
 20
124.1078312348
 30
0.0
 10
135.5020343317
 20
124.0721253436
 30
0.0
 10
135.5218368586
 20
124.0550041683
 30
0.0
 10
135.5324645743
 20
124.0488719551
 30
0.0
  0
SPLINE
  5
3DE
100
AcDbEntity
  8
RACCORDO
100
AcDbSpline
 62
7
  6
CONTINUOUS
 70
0
 71
3
 72
9
 73
5
 74
0
 42
0.0000001
 43
0.0000001
 44
0.0000000001
 40
0.0
 40
0.0
 40
0.0
 40
0.0
 40
0.266663194
 40
1.0
 40
1.0
 40
1.0
 40
1.0
 10
119.4895785492
 20
100.5438844539
 30
0.0
 10
119.4895785492
 20
100.5378273588
 30
0.0
 10
119.488337235
 20
100.515163506
 30
0.0
 10
119.4810121411
 20
100.4925846067
 30
0.0
 10
119.4720154737
 20
100.4785658384
 30
0.0
  0
SPLINE
  5
3DF
100
AcDbEntity
  8
RACCORDO
100
AcDbSpline
 62
7
  6
CONTINUOUS
 70
0
 71
3
 72
9
 73
5
 74
0
 42
0.0000001
 43
0.0000001
 44
0.0000000001
 40
0.0
 40
0.0
 40
0.0
 40
0.0
 40
0.266663194
 40
1.0
 40
1.0
 40
1.0
 40
1.0
 10
167.2192862793
 20
72.9853494043
 30
0.0
 10
167.2192862793
 20
72.9792923092
 30
0.0
 10
167.2180449651
 20
72.9566284564
 30
0.0
 10
167.2107198712
 20
72.9340495571
 30
0.0
 10
167.2017232038
 20
72.9200307888
 30
0.0
  0
SPLINE
  5
3E0
100
AcDbEntity
  8
RACCORDO
100
AcDbSpline
 62
7
  6
CONTINUOUS
 70
0
 71
3
 72
9
 73
5
 74
0
 42
0.0000001
 43
0.0000001
 44
0.0000000001
 40
0.0
 40
0.0
 40
0.0
 40
0.0
 40
0.2593085376
 40
1.0
 40
1.0
 40
1.0
 40
1.0
 10
135.3994811259
 20
91.1534020125
 30
0.0
 10
135.3994811259
 20
91.1496069781
 30
0.0
 10
135.3989182237
 20
91.1349827611
 30
0.0
 10
135.3959434848
 20
91.1204085105
 30
0.0
 10
135.3922336174
 20
91.1102229204
 30
0.0
  0
SPLINE
  5
3E1
100
AcDbEntity
  8
RACCORDO
100
AcDbSpline
 62
250
  6
CONTINUOUS
 70
0
 71
3
 72
9
 73
5
 74
0
 42
0.0000001
 43
0.0000001
 44
0.0000000001
 40
0.0
 40
0.0
 40
0.0
 40
0.0
 40
0.3148322503
 40
1.0
 40
1.0
 40
1.0
 40
1.0
 10
119.7625656817
 20
100.9182918219
 30
0.0
 10
119.7626793952
 20
100.917696556
 30
0.0
 10
119.7629505776
 20
100.915824502
 30
0.0
 10
119.7625935741
 20
100.9136454633
 30
0.0
 10
119.7616879754
 20
100.9126866167
 30
0.0
  0
SPLINE
  5
3E2
100
AcDbEntity
  8
RACCORDO
100
AcDbSpline
 62
250
  6
CONTINUOUS
 70
0
 71
3
 72
9
 73
5
 74
0
 42
0.0000001
 43
0.0000001
 44
0.0000000001
 40
0.0
 40
0.0
 40
0.0
 40
0.0
 40
0.2933380273
 40
1.0
 40
1.0
 40
1.0
 40
1.0
 10
119.7595528117
 20
100.9264960173
 30
0.0
 10
119.7599286704
 20
100.925727233
 30
0.0
 10
119.7611523827
 20
100.923083264
 30
0.0
 10
119.7621789973
 20
100.9203167517
 30
0.0
 10
119.7625656817
 20
100.9182918219
 30
0.0
  0
SPLINE
  5
3E3
100
AcDbEntity
  8
RACCORDO
100
AcDbSpline
 62
7
  6
CONTINUOUS
 70
0
 71
3
 72
9
 73
5
 74
0
 42
0.0000001
 43
0.0000001
 44
0.0000000001
 40
0.0
 40
0.0
 40
0.0
 40
0.0
 40
0.2593085376
 40
1.0
 40
1.0
 40
1.0
 40
1.0
 10
151.3093837026
 20
81.9672236626
 30
0.0
 10
151.3093837026
 20
81.9634286283
 30
0.0
 10
151.3088208004
 20
81.9488044112
 30
0.0
 10
151.3058460615
 20
81.9342301606
 30
0.0
 10
151.3021361941
 20
81.9240445706
 30
0.0
  0
LINE
  5
3E4
100
AcDbEntity
  8
RACCORDO
100
AcDbLine
 62
250
  6
CONTINUOUS
 10
188.9091533712
 20
58.802743147
 30
0.0
 11
188.9157025045
 21
58.6712606808
 31
0.0
  0
ELLIPSE
  5
3E5
100
AcDbEntity
  8
RACCORDO
100
AcDbEllipse
 62
7
  6
CONTINUOUS
 10
119.7194523789
 20
101.2342933964
 30
0.0
 11
-0.1196770859
 21
0.1736648876
 31
0.0
 40
0.5702773845
 41
-2.9070606539
 42
-2.4502852216
  0
ELLIPSE
  5
3E6
100
AcDbEntity
  8
RACCORDO
100
AcDbEllipse
 62
7
  6
CONTINUOUS
 10
116.1002543962
 20
103.5688920355
 30
0.0
 11
0.193576202
 21
0.0971400987
 31
0.0
 40
0.7160534512
 41
0.4403883389
 42
1.2258350725
  0
ELLIPSE
  5
3E7
100
AcDbEntity
  8
RACCORDO
100
AcDbEllipse
 62
7
  6
CONTINUOUS
 10
163.8299621262
 20
76.0103569859
 30
0.0
 11
0.193576202
 21
0.0971400987
 31
0.0
 40
0.7160534512
 41
0.4403883389
 42
1.2258350725
  0
ELLIPSE
  5
3E8
100
AcDbEntity
  8
RACCORDO
100
AcDbEllipse
 62
7
  6
CONTINUOUS
 10
148.0301407693
 20
84.92885825
 30
0.0
 11
0.2303502681
 21
0.0539884731
 31
0.0
 40
0.6804739304
 41
0.6271949615
 42
1.4126418276
  0
ELLIPSE
  5
3E9
100
AcDbEntity
  8
RACCORDO
100
AcDbEllipse
 62
7
  6
CONTINUOUS
 10
132.1202381926
 20
94.1150365998
 30
0.0
 11
0.2303502681
 21
0.0539884731
 31
0.0
 40
0.6804739304
 41
0.6271949615
 42
1.4126418276
  0
ELLIPSE
  5
3EA
100
AcDbEntity
  8
RACCORDO
100
AcDbEllipse
 62
7
  6
CONTINUOUS
 10
106.2854444614
 20
107.3822582657
 30
0.0
 11
-0.2500120911
 21
0.4330057209
 31
0.0
 40
0.5775075436
 41
0.7855021057
 42
2.355993846
  0
ELLIPSE
  5
3EB
100
AcDbEntity
  8
RACCORDO
100
AcDbEllipse
 62
7
  6
CONTINUOUS
 10
151.5073689703
 20
82.9211502666
 30
0.0
 11
0.0325759527
 21
0.2115919185
 31
0.0
 40
0.1766509255
 41
5.4292500487
 42
7.0000463755
  0
ELLIPSE
  5
3EC
100
AcDbEntity
  8
RACCORDO
100
AcDbEllipse
 62
7
  6
CONTINUOUS
 10
135.5974663936
 20
92.1073286165
 30
0.0
 11
0.0325759527
 21
0.2115919185
 31
0.0
 40
0.1766509255
 41
5.4292500487
 42
7.0000463755
  0
ELLIPSE
  5
3ED
100
AcDbEntity
  8
RACCORDO
100
AcDbEllipse
 62
7
  6
CONTINUOUS
 10
119.7976450367
 20
101.4340650189
 30
0.0
 11
0.0497612036
 21
0.2013898992
 31
0.0
 40
0.2927433574
 41
5.4134162987
 42
6.9842126255
  0
ENDSEC
  0
SECTION
  2
OBJECTS
  0
DICTIONARY
  5
C
100
AcDbDictionary
280
0
281
1
  3
ACAD_GROUP
350
D
  3
ACAD_MLINESTYLE
350
17
  3
ACAD_LAYOUT
350
1A
  3
ACAD_PLOTSETTINGS
350
19
  3
ACAD_PLOTSTYLENAME
350
E
  0
DICTIONARY
  5
D
102
{ACAD_REACTORS
330
C
102
}
100
AcDbDictionary
280
0
281
1
  0
ACDBDICTIONARYWDFLT
  5
E
102
{ACAD_REACTORS
330
C
102
}
100
AcDbDictionary
281
1
  3
Normal
350
F
100
AcDbDictionaryWithDefault
340
F
  0
DICTIONARY
  5
17
102
{ACAD_REACTORS
330
C
102
}
100
AcDbDictionary
280
0
281
1
  3
Standard
350
18
  0
DICTIONARY
  5
19
102
{ACAD_REACTORS
330
C
102
}
100
AcDbDictionary
281
1
  0
DICTIONARY
  5
1A
102
{ACAD_REACTORS
330
C
102
}
100
AcDbDictionary
281
1
  3
Model
350
3EE
  3
Layout1
350
3EF
  0
ACDBPLACEHOLDER
  5
F
102
{ACAD_REACTORS
330
E
102
}
  0
MLINESTYLE
  5
18
102
{ACAD_REACTORS
330
17
102
}
100
AcDbMlineStyle
  2
STANDARD
 70
0
  3

 62
256
 51
90.0
 52
90.0
 71
2
 49
0.5
 62
256
  6
BYLAYER
 49
-0.5
 62
256
  6
BYLAYER
  0
LAYOUT
  5
3EE
102
{ACAD_REACTORS
330
1A
102
}
100
AcDbPlotSettings
  1

  2
none_device
  4
ISO_A4_(297.00_x_210.00_MM)
  6

 40
0.0
 41
0.0
 42
0.0
 43
0.0
 44
297.0
 45
210.0
 46
0.0
 47
0.0
 48
0.0
 49
0.0
140
0.0
141
0.0
142
1.0
143
1.0
 70
1024
 72
1
 73
0
 74
0
  7

 75
0
147
1.0
148
0.0
149
0.0
100
AcDbLayout
  1
Model
 70
0
 71
0
 10
0.0
 20
0.0
 11
297.0
 21
210.0
 12
0.0
 22
0.0
 32
0.0
 14
0.0
 24
0.0
 34
0.0
 15
0.0
 25
0.0
 35
0.0
146
0.0
 13
0.0
 23
0.0
 33
0.0
 16
1.0
 26
0.0
 36
0.0
 17
0.0
 27
1.0
 37
0.0
 76
0
330
218
345
0
346
0
  0
LAYOUT
  5
3EF
102
{ACAD_REACTORS
330
1A
102
}
100
AcDbPlotSettings
  1

  2
none_device
  4
ISO_A4_(297.00_x_210.00_MM)
  6

 40
0.0
 41
0.0
 42
0.0
 43
0.0
 44
297.0
 45
210.0
 46
0.0
 47
0.0
 48
0.0
 49
0.0
140
0.0
141
0.0
142
1.0
143
1.0
 70
0
 72
1
 73
0
 74
0
  7

 75
0
147
1.0
148
0.0
149
0.0
100
AcDbLayout
  1
Layout1
 70
0
 71
1
 10
0.0
 20
0.0
 11
297.0
 21
210.0
 12
0.0
 22
0.0
 32
0.0
 14
0.0
 24
0.0
 34
0.0
 15
0.0
 25
0.0
 35
0.0
146
0.0
 13
0.0
 23
0.0
 33
0.0
 16
1.0
 26
0.0
 36
0.0
 17
0.0
 27
1.0
 37
0.0
 76
0
330
219
345
0
346
0
  0
ENDSEC
  0
EOF
