  0
SECTION
  2
HEADER
  9
$ACADVER
  1
AC1024
  9
$DWGCODEPAGE
  3
ANSI_1252
  9
$EXTMAX
 10
297.0
 20
210.0
 30
0.0
  9
$EXTMIN
 10
0.0
 20
0.0
 30
0.0
  9
$LIMMIN
 10
0.0
 20
0.0
  9
$LIMMAX
 10
297.0
 20
210.0
  9
$VIEWCTR
 10
148.5
 20
105.0
  9
$VIEWSIZE
 40
210.0
  9
$CLAYER
  8
0
  9
$LTSCALE
 40
16.335
  9
$CELTYPE
  6
BYLAYER
  9
$DIMSCALE
 40
1.0
  9
$DIMASZ
 40
3.0
  9
$DIMEXO
 40
0.5
  9
$DIMDLI
 40
11.286
  9
$DIMEXE
 40
1.5
  9
$DIMCEN
 40
2.673
  9
$DIMLFAC
 40
1.0
  9
$DIMBLK
  1
_FILLED
  9
$DIMALT
 70
0
  9
$DIMALTF
 40
0.0393700787
  9
$DIMTXT
 40
3.0
  9
$DIMTOL
 70
1
  9
$DIMLIM
 70
0
  9
$DIMTFAC
 40
1.0
  9
$DIMTP
 40
0.01
  9
$DIMTM
 40
0.01
  9
$DIMGAP
 40
0.625
  9
$DIMDSEP
 70
44
  9
$AUNITS
 70
0
  9
$PDMODE
 70
3
  9
$PDSIZE
 40
3.0
  9
$HANDSEED
  5
397
  9
$TILEMODE
 70
1
  9
$MEASUREMENT
 70
1
  9
$INSUNITS
 70
4
  0
ENDSEC
  0
SECTION
  2
CLASSES
  0
CLASS
  1
ACDBDICTIONARYWDFLT
  2
AcDbDictionaryWithDefault
  3
AutoCAD 2000
 90
0
 91
1
280
0
281
0
  0
CLASS
  1
ACDBPLACEHOLDER
  2
AcDbPlaceHolder
  3
AutoCAD 2000
 90
0
 91
1
280
0
281
0
  0
CLASS
  1
LAYOUT
  2
AcDbLayout
  3
AutoCAD 2000
 90
0
 91
0
280
0
281
0
  0
ENDSEC
  0
SECTION
  2
TABLES
  0
TABLE
  2
VPORT
  5
8
100
AcDbSymbolTable
 70
2
  0
VPORT
  5
1F4
100
AcDbSymbolTableRecord
100
AcDbViewportTableRecord
  2
*ACTIVE
 70
0
 10
0.0
 20
0.0
 11
1.0
 21
1.0
 12
148.5
 22
105.0
 13
0.0
 23
0.0
 14
1.0
 24
1.0
 15
0.0
 25
0.0
 16
0.0
 26
0.0
 36
1.0
 17
0.0
 27
0.0
 37
0.0
 40
210.0
 41
1.4142857143
 42
50.0
 43
0.0
 44
0.0
 50
0.0
 51
0.0
 71
0
 72
100
 73
1
 74
1
 75
0
 76
0
 77
0
 78
0
  0
ENDTAB
  0
TABLE
  2
LTYPE
  5
5
100
AcDbSymbolTable
 70
6
  0
LTYPE
  5
14
100
AcDbSymbolTableRecord
100
AcDbLinetypeTableRecord
  2
BYBLOCK
 70
0
  3

 72
65
 73
0
 40
0.0
  0
LTYPE
  5
15
100
AcDbSymbolTableRecord
100
AcDbLinetypeTableRecord
  2
BYLAYER
 70
0
  3

 72
65
 73
0
 40
0.0
  0
LTYPE
  5
16
100
AcDbSymbolTableRecord
100
AcDbLinetypeTableRecord
  2
CONTINUOUS
 70
64
  3
Solid line
 72
65
 73
0
 40
0.0
  0
LTYPE
  5
1F5
100
AcDbSymbolTableRecord
100
AcDbLinetypeTableRecord
  2
CENTER
 70
64
  3
____ _ ____ _ ____ _ ____ _ ____ _ ____ _ ____
 72
65
 73
4
 40
0.6
 49
0.375
 74
0
 49
-0.075
 74
0
 49
0.075
 74
0
 49
-0.075
 74
0
  0
LTYPE
  5
1F6
100
AcDbSymbolTableRecord
100
AcDbLinetypeTableRecord
  2
HIDDEN
 70
64
  3
- - - - - - - - - - - - - - - - - - - -
 72
65
 73
2
 40
0.2
 49
0.1
 74
0
 49
-0.1
 74
0
  0
LTYPE
  5
1F7
100
AcDbSymbolTableRecord
100
AcDbLinetypeTableRecord
  2
PHANTOM
 70
64
  3
_____ _ _ _____ _ _ _____ _ _ _____
 72
65
 73
6
 40
0.8
 49
0.45
 74
0
 49
-0.05
 74
0
 49
0.1
 74
0
 49
-0.05
 74
0
 49
0.1
 74
0
 49
-0.05
 74
0
  0
LTYPE
  5
1F8
100
AcDbSymbolTableRecord
100
AcDbLinetypeTableRecord
  2
DOT
 70
64
  3
. . . . . . . . . . . . . . . . . . . .
 72
65
 73
2
 40
0.2
 49
0.1
 74
0
 49
-0.1
 74
0
  0
LTYPE
  5
1F9
100
AcDbSymbolTableRecord
100
AcDbLinetypeTableRecord
  2
DASHED
 70
64
  3
- - - - - - - - - - - - - - - - - - - -
 72
65
 73
2
 40
0.2
 49
0.1
 74
0
 49
-0.1
 74
0
  0
ENDTAB
  0
TABLE
  2
LAYER
  5
2
100
AcDbSymbolTable
 70
36
  0
LAYER
  5
10
100
AcDbSymbolTableRecord
100
AcDbLayerTableRecord
  2
0
 70
0
 62
7
  6
CONTINUOUS
370
-3
390
F
  0
LAYER
  5
1FA
100
AcDbSymbolTableRecord
100
AcDbLayerTableRecord
  2
DEFAULT_1
 70
0
 62
7
  6
CENTER
370
-3
390
F
  0
LAYER
  5
1FB
100
AcDbSymbolTableRecord
100
AcDbLayerTableRecord
  2
DEFAULT_2
 70
0
 62
7
  6
HIDDEN
370
-3
390
F
  0
LAYER
  5
1FC
100
AcDbSymbolTableRecord
100
AcDbLayerTableRecord
  2
DEFAULT_3
 70
0
 62
7
  6
PHANTOM
370
-3
390
F
  0
LAYER
  5
1FD
100
AcDbSymbolTableRecord
100
AcDbLayerTableRecord
  2
262146410
 70
0
 62
7
  6
CONTINUOUS
370
-3
390
F
  0
LAYER
  5
1FE
100
AcDbSymbolTableRecord
100
AcDbLayerTableRecord
  2
262146420
 70
0
 62
7
  6
CONTINUOUS
370
-3
390
F
  0
LAYER
  5
1FF
100
AcDbSymbolTableRecord
100
AcDbLayerTableRecord
  2
262146520
 70
0
 62
7
  6
CONTINUOUS
370
-3
390
F
  0
LAYER
  5
200
100
AcDbSymbolTableRecord
100
AcDbLayerTableRecord
  2
262146530
 70
0
 62
7
  6
CONTINUOUS
370
-3
390
F
  0
LAYER
  5
201
100
AcDbSymbolTableRecord
100
AcDbLayerTableRecord
  2
262146540
 70
0
 62
7
  6
CONTINUOUS
370
-3
390
F
  0
LAYER
  5
202
100
AcDbSymbolTableRecord
100
AcDbLayerTableRecord
  2
262146570
 70
0
 62
7
  6
CONTINUOUS
370
-3
390
F
  0
LAYER
  5
203
100
AcDbSymbolTableRecord
100
AcDbLayerTableRecord
  2
ASSI
 70
0
 62
7
  6
CONTINUOUS
370
-3
390
F
  0
LAYER
  5
204
100
AcDbSymbolTableRecord
100
AcDbLayerTableRecord
  2
COORDINATE
 70
0
 62
7
  6
CONTINUOUS
370
-3
390
F
  0
LAYER
  5
205
100
AcDbSymbolTableRecord
100
AcDbLayerTableRecord
  2
COORD_ORIGINE
 70
0
 62
7
  6
CONTINUOUS
370
-3
390
F
  0
LAYER
  5
206
100
AcDbSymbolTableRecord
100
AcDbLayerTableRecord
  2
CURVE
 70
0
 62
7
  6
CONTINUOUS
370
-3
390
F
  0
LAYER
  5
207
100
AcDbSymbolTableRecord
100
AcDbLayerTableRecord
  2
DRAFT
 70
0
 62
7
  6
CONTINUOUS
370
-3
390
F
  0
LAYER
  5
208
100
AcDbSymbolTableRecord
100
AcDbLayerTableRecord
  2
IGES
 70
0
 62
7
  6
CONTINUOUS
370
-3
390
F
  0
LAYER
  5
209
100
AcDbSymbolTableRecord
100
AcDbLayerTableRecord
  2
IGES_CONTROLLO_PUNTI
 70
0
 62
7
  6
CONTINUOUS
370
-3
390
F
  0
LAYER
  5
20A
100
AcDbSymbolTableRecord
100
AcDbLayerTableRecord
  2
IGES_PUNTI_DI_CONTROLLO
 70
0
 62
7
  6
CONTINUOUS
370
-3
390
F
  0
LAYER
  5
20B
100
AcDbSymbolTableRecord
100
AcDbLayerTableRecord
  2
IGES_SCRITTA_VIMAR
 70
0
 62
7
  6
CONTINUOUS
370
-3
390
F
  0
LAYER
  5
20C
100
AcDbSymbolTableRecord
100
AcDbLayerTableRecord
  2
INTF_1
 70
0
 62
7
  6
CONTINUOUS
370
-3
390
F
  0
LAYER
  5
20D
100
AcDbSymbolTableRecord
100
AcDbLayerTableRecord
  2
INTF_6
 70
0
 62
7
  6
CONTINUOUS
370
-3
390
F
  0
LAYER
  5
20E
100
AcDbSymbolTableRecord
100
AcDbLayerTableRecord
  2
INTF_7
 70
0
 62
7
  6
CONTINUOUS
370
-3
390
F
  0
LAYER
  5
20F
100
AcDbSymbolTableRecord
100
AcDbLayerTableRecord
  2
INTF_BLANK
 70
0
 62
7
  6
CONTINUOUS
370
-3
390
F
  0
LAYER
  5
210
100
AcDbSymbolTableRecord
100
AcDbLayerTableRecord
  2
INTF_GREEN
 70
0
 62
7
  6
CONTINUOUS
370
-3
390
F
  0
LAYER
  5
211
100
AcDbSymbolTableRecord
100
AcDbLayerTableRecord
  2
INTF_RED
 70
0
 62
7
  6
CONTINUOUS
370
-3
390
F
  0
LAYER
  5
212
100
AcDbSymbolTableRecord
100
AcDbLayerTableRecord
  2
INTF_YELLOW
 70
0
 62
7
  6
CONTINUOUS
370
-3
390
F
  0
LAYER
  5
213
100
AcDbSymbolTableRecord
100
AcDbLayerTableRecord
  2
PIANI
 70
0
 62
7
  6
CONTINUOUS
370
-3
390
F
  0
LAYER
  5
214
100
AcDbSymbolTableRecord
100
AcDbLayerTableRecord
  2
PIANI_COST_ANGOLO
 70
0
 62
7
  6
CONTINUOUS
370
-3
390
F
  0
LAYER
  5
215
100
AcDbSymbolTableRecord
100
AcDbLayerTableRecord
  2
PIANI_ORIGINE
 70
0
 62
7
  6
CONTINUOUS
370
-3
390
F
  0
LAYER
  5
216
100
AcDbSymbolTableRecord
100
AcDbLayerTableRecord
  2
PIANO_RIFERIMENTO
 70
0
 62
7
  6
CONTINUOUS
370
-3
390
F
  0
LAYER
  5
217
100
AcDbSymbolTableRecord
100
AcDbLayerTableRecord
  2
PUBLISH_GEOM
 70
0
 62
7
  6
CONTINUOUS
370
-3
390
F
  0
LAYER
  5
218
100
AcDbSymbolTableRecord
100
AcDbLayerTableRecord
  2
PUNTI
 70
0
 62
7
  6
CONTINUOUS
370
-3
390
F
  0
LAYER
  5
219
100
AcDbSymbolTableRecord
100
AcDbLayerTableRecord
  2
RACCORDO
 70
0
 62
7
  6
CONTINUOUS
370
-3
390
F
  0
LAYER
  5
21A
100
AcDbSymbolTableRecord
100
AcDbLayerTableRecord
  2
RGB__255__255__255__
 70
0
 62
7
  6
CONTINUOUS
370
-3
390
F
  0
LAYER
  5
21B
100
AcDbSymbolTableRecord
100
AcDbLayerTableRecord
  2
RGB____0____0____0__
 70
0
 62
7
  6
CONTINUOUS
370
-3
390
F
  0
LAYER
  5
21C
100
AcDbSymbolTableRecord
100
AcDbLayerTableRecord
  2
SNAPLINE
 70
0
 62
7
  6
CONTINUOUS
370
-3
390
F
  0
LAYER
  5
21D
100
AcDbSymbolTableRecord
100
AcDbLayerTableRecord
  2
SOLIDO
 70
0
 62
7
  6
CONTINUOUS
370
-3
390
F
  0
LAYER
  5
21E
100
AcDbSymbolTableRecord
100
AcDbLayerTableRecord
  2
SUPERFICI
 70
0
 62
7
  6
CONTINUOUS
370
-3
390
F
  0
LAYER
  5
21F
100
AcDbSymbolTableRecord
100
AcDbLayerTableRecord
  2
SUPERFICI_UTENSILE_INTERNO
 70
0
 62
7
  6
CONTINUOUS
370
-3
390
F
  0
LAYER
  5
220
100
AcDbSymbolTableRecord
100
AcDbLayerTableRecord
  2
SUP_SRITTA_VIMAR
 70
0
 62
7
  6
CONTINUOUS
370
-3
390
F
  0
LAYER
  5
221
100
AcDbSymbolTableRecord
100
AcDbLayerTableRecord
  2
TRASH
 70
0
 62
7
  6
CONTINUOUS
370
-3
390
F
  0
LAYER
  5
222
100
AcDbSymbolTableRecord
100
AcDbLayerTableRecord
  2
WHITE
 70
0
 62
7
  6
CONTINUOUS
370
-3
390
F
  0
ENDTAB
  0
TABLE
  2
STYLE
  5
3
100
AcDbSymbolTable
 70
1
  0
STYLE
  5
11
100
AcDbSymbolTableRecord
100
AcDbTextStyleTableRecord
  2
STANDARD
 70
0
 40
0.0
 41
0.8
 50
0.0
 71
0
 42
0.2
  3
txt
  4

  0
STYLE
  5
223
100
AcDbSymbolTableRecord
100
AcDbTextStyleTableRecord
  2
TEXTSTYLE_1
 70
0
 40
0.0
 41
0.8
 50
0.0
 71
0
 42
0.2
  3
gdt
  4

  0
ENDTAB
  0
TABLE
  2
VIEW
  5
6
100
AcDbSymbolTable
 70
0
  0
ENDTAB
  0
TABLE
  2
UCS
  5
7
100
AcDbSymbolTable
 70
0
  0
ENDTAB
  0
TABLE
  2
APPID
  5
9
100
AcDbSymbolTable
 70
1
  0
APPID
  5
224
100
AcDbSymbolTableRecord
100
AcDbRegAppTableRecord
  2
ACAD
 70
0
  0
ENDTAB
  0
TABLE
  2
BLOCK_RECORD
  5
1
100
AcDbSymbolTable
 70
0
  0
BLOCK_RECORD
  5
225
100
AcDbSymbolTableRecord
100
AcDbBlockTableRecord
  2
*Model_Space
  0
BLOCK_RECORD
  5
226
100
AcDbSymbolTableRecord
100
AcDbBlockTableRecord
  2
*Paper_Space
  0
BLOCK_RECORD
  5
227
100
AcDbSymbolTableRecord
100
AcDbBlockTableRecord
  2
_FILLED
  0
ENDTAB
  0
TABLE
  2
DIMSTYLE
  5
A
100
AcDbSymbolTable
 70
1
100
AcDbDimStyleTable
 71
0
  0
DIMSTYLE
105
228
100
AcDbSymbolTableRecord
100
AcDbDimStyleTableRecord
  2
STANDARD
 70
0
  3

  4

 40
1.0
 41
3.0
 42
0.5
 43
0.38
 44
1.5
 45
0.0
 46
0.0
 47
0.01
 48
0.01
140
3.0
141
0.09
142
0.0
143
25.4
144
1.0
145
0.0
146
1.0
147
0.625
 71
1
 72
0
 73
0
 74
0
 75
0
 76
0
 77
1
 78
8
 79
2
170
0
171
1
172
0
173
0
174
0
175
0
176
0
177
0
178
0
270
2
179
2
271
2
272
2
273
2
274
2
275
0
280
0
281
0
282
0
283
1
284
8
285
0
286
0
287
3
288
0
340
11
278
44
341
227
342
227
343
227
344
227
  0
ENDTAB
  0
ENDSEC
  0
SECTION
  2
BLOCKS
  0
BLOCK
  5
20
100
AcDbEntity
  8
0
100
AcDbBlockBegin
  2
*Model_Space
 70
0
 10
0.0
 20
0.0
 30
0.0
  3
*Model_Space
  1

  0
ENDBLK
  5
21
100
AcDbEntity
  8
0
100
AcDbBlockEnd
  0
BLOCK
  5
1C
100
AcDbEntity
  8
0
100
AcDbBlockBegin
  2
*Paper_Space
 70
0
 10
0.0
 20
0.0
 30
0.0
  3
*Paper_Space
  1

  0
ENDBLK
  5
1D
100
AcDbEntity
  8
0
100
AcDbBlockEnd
  0
BLOCK
  5
229
100
AcDbEntity
  8
0
100
AcDbBlockBegin
  2
_FILLED
 70
64
 10
0.0
 20
0.0
  3
_FILLED
  1

  0
SOLID
  5
22A
100
AcDbEntity
  8
0
  6
BYBLOCK
 62
0
100
AcDbTrace
 10
0.0
 20
0.0
 11
-1.0
 21
0.3166666667
 12
-1.0
 22
-0.3166666667
 13
-1.0
 23
-0.3166666667
  0
ENDBLK
  5
22B
100
AcDbEntity
  8
0
  6
BYBLOCK
 62
0
100
AcDbBlockEnd
  0
ENDSEC
  0
SECTION
  2
ENTITIES
  0
LWPOLYLINE
  5
22C
100
AcDbEntity
  8
RACCORDO
100
AcDbPolyline
 62
7
  6
CONTINUOUS
 90
10
 70
0
 10
-92.0871411298
 20
54.9552074352
 10
-92.1071646032
 20
54.9254509337
 10
-92.1803742506
 20
54.8046546958
 10
-92.2450738292
 20
54.6770960728
 10
-92.300622196
 20
54.5435278063
 10
-92.3465814642
 20
54.4045109704
 10
-92.3826159202
 20
54.2606250437
 10
-92.4084285558
 20
54.1126207491
 10
-92.4238283198
 20
53.9610755702
 10
-92.4286831556
 20
53.7987024108
  0
LINE
  5
22D
100
AcDbEntity
  8
SUPERFICI
100
AcDbLine
 62
7
  6
CONTINUOUS
 10
-90.2937398169
 20
57.567689311
 11
-92.0875823256
 21
54.9545669505
  0
LINE
  5
22E
100
AcDbEntity
  8
RACCORDO
100
AcDbLine
 62
7
  6
CONTINUOUS
 10
-92.0871918337
 20
54.9551354682
 11
-92.0875840096
 21
54.9545644974
  0
LWPOLYLINE
  5
22F
100
AcDbEntity
  8
SUPERFICI
100
AcDbPolyline
 62
7
  6
CONTINUOUS
 90
14
 70
0
 10
-90.294073836
 20
57.5672025217
 10
-90.2312895636
 20
57.6517945331
 10
-90.1104647791
 20
57.7839312527
 10
-89.9719180976
 20
57.9018734439
 10
-89.8187657283
 20
58.0029803319
 10
-89.6506813376
 20
58.0868757669
 10
-89.467991259
 20
58.1539358987
 10
-89.2747907016
 20
58.202648401
 10
-89.0708424936
 20
58.232603565
 10
-88.8563838068
 20
58.2442110995
 10
-88.6362213658
 20
58.2371878052
 10
-88.4119574124
 20
58.2114392823
 10
-88.1819897048
 20
58.1670599304
 10
-87.9463182431
 20
58.1040497497
  0
LINE
  5
230
100
AcDbEntity
  8
RACCORDO
100
AcDbLine
 62
250
  6
CONTINUOUS
 10
-91.9686045384
 20
53.2923553745
 11
-91.9771327408
 21
52.9407325523
  0
LINE
  5
231
100
AcDbEntity
  8
RACCORDO
100
AcDbLine
 62
250
  6
CONTINUOUS
 10
-91.9771327408
 20
52.9407325523
 11
-91.9815569126
 21
52.7852625718
  0
LWPOLYLINE
  5
232
100
AcDbEntity
  8
RACCORDO
100
AcDbPolyline
 62
250
  6
CONTINUOUS
 90
4
 70
0
 10
-91.9815569126
 20
52.7852625718
 10
-91.9868954005
 20
52.6452912743
 10
-91.9885956644
 20
52.5794802905
 10
-91.988741125
 20
52.5160238968
  0
LWPOLYLINE
  5
233
100
AcDbEntity
  8
RACCORDO
100
AcDbPolyline
 62
250
  6
CONTINUOUS
 90
16
 70
0
 10
-90.3592035803
 20
54.21425727
 10
-90.3543912362
 20
54.2945626083
 10
-90.3453262389
 20
54.3784958219
 10
-90.3320900035
 20
54.4653030775
 10
-90.3148014086
 20
54.5542047289
 10
-90.2936157287
 20
54.6444023196
 10
-90.268723239
 20
54.7350857537
 10
-90.2403475075
 20
54.8254405719
 10
-90.208743386
 20
54.9146552664
 10
-90.1741947218
 20
55.001928569
 10
-90.1370118084
 20
55.0864766481
 10
-90.0975285982
 20
55.1675401481
 10
-90.0560997035
 20
55.2443910099
 10
-90.0130972118
 20
55.3163390093
 10
-89.9689073431
 20
55.3827379565
 10
-87.9463182431
 20
58.1040497497
  0
LWPOLYLINE
  5
234
100
AcDbEntity
  8
RACCORDO
100
AcDbPolyline
 62
250
  6
CONTINUOUS
 90
28
 70
0
 10
-90.5399321797
 20
-4.1379560429
 10
-90.5317716656
 20
-4.2164210717
 10
-90.518612551
 20
-4.2971622854
 10
-90.5003386597
 20
-4.3799167228
 10
-90.4768050741
 20
-4.464630435
 10
-90.4479742977
 20
-4.5508406511
 10
-90.4140340304
 20
-4.6376585731
 10
-90.3751191163
 20
-4.7246587414
 10
-90.3312719971
 20
-4.8116619122
 10
-90.2827170959
 20
-4.8981333955
 10
-90.2296761289
 20
-4.9836776987
 10
-90.1722742676
 20
-5.0681096941
 10
-90.110635048
 20
-5.1512162345
 10
-90.0448906464
 20
-5.2327795495
 10
-89.9753012999
 20
-5.3124628353
 10
-89.9021952406
 20
-5.3898818551
 10
-89.8258756235
 20
-5.4647238468
 10
-89.7465526209
 20
-5.5368181002
 10
-89.6644223008
 20
-5.6059969779
 10
-89.5796419303
 20
-5.6721094919
 10
-89.4926031379
 20
-5.7348573683
 10
-89.4038657527
 20
-5.7938763938
 10
-89.3136192632
 20
-5.8490755876
 10
-89.222296563
 20
-5.9002352655
 10
-89.1308610711
 20
-5.9469247298
 10
-89.0398534686
 20
-5.9890232521
 10
-88.9493838441
 20
-6.0266377843
 10
-88.859790586
 20
-6.0597855753
  0
LINE
  5
235
100
AcDbEntity
  8
RACCORDO
100
AcDbLine
 62
250
  6
CONTINUOUS
 10
-90.5905083094
 20
-3.4921660438
 11
-90.5780662623
 21
-3.6358453629
  0
LWPOLYLINE
  5
236
100
AcDbEntity
  8
RACCORDO
100
AcDbPolyline
 62
7
  6
CONTINUOUS
 90
24
 70
0
 10
-91.0003772271
 20
-3.6163122859
 10
-90.9903447524
 20
-3.7499367044
 10
-90.9692113678
 20
-3.9021870139
 10
-90.9372234613
 20
-4.0573125021
 10
-90.8942121604
 20
-4.2143120697
 10
-90.8405377609
 20
-4.3711151307
 10
-90.7762678965
 20
-4.5273094287
 10
-90.7014935455
 20
-4.6824504832
 10
-90.6171978349
 20
-4.8344931327
 10
-90.5239118573
 20
-4.98281034
 10
-90.4218437118
 20
-5.1272910784
 10
-90.3119596794
 20
-5.2667477201
 10
-90.1949489262
 20
-5.400631005
 10
-90.0710604403
 20
-5.5288565832
 10
-89.9408352339
 20
-5.6509849156
 10
-89.8047405241
 20
-5.7666865344
 10
-89.6631919791
 20
-5.8756232671
 10
-89.5167399365
 20
-5.9773933885
 10
-89.365828247
 20
-6.0716645428
 10
-89.2108846211
 20
-6.1580836416
 10
-89.0524083728
 20
-6.2362866048
 10
-88.8908109001
 20
-6.3059164521
 10
-88.726554493
 20
-6.3666086218
 10
-88.6969511692
 20
-6.3764871765
  0
LWPOLYLINE
  5
237
100
AcDbEntity
  8
RACCORDO
100
AcDbPolyline
 62
250
  6
CONTINUOUS
 90
3
 70
0
 10
-90.5780662623
 20
-3.6358453629
 10
-90.546576115
 20
-4.0478579135
 10
-90.5399329581
 20
-4.1379568617
  0
LINE
  5
238
100
AcDbEntity
  8
RACCORDO
100
AcDbLine
 62
250
  6
CONTINUOUS
 10
-90.9993038142
 20
-3.6329503348
 11
-91.0003653723
 21
-3.6165735144
  0
LWPOLYLINE
  5
239
100
AcDbEntity
  8
RACCORDO
100
AcDbPolyline
 62
250
  6
CONTINUOUS
 90
3
 70
0
 10
-90.5987728303
 20
-3.3617544876
 10
-90.5955089143
 20
-3.4251408093
 10
-90.5905083094
 20
-3.4921660438
  0
LINE
  5
23A
100
AcDbEntity
  8
RACCORDO
100
AcDbLine
 62
7
  6
CONTINUOUS
 10
-91.0003653723
 20
-3.6165735144
 11
-91.0003772271
 21
-3.6163122859
  0
LINE
  5
23B
100
AcDbEntity
  8
RACCORDO
100
AcDbLine
 62
7
  6
CONTINUOUS
 10
-91.0434707519
 20
-2.3496085808
 11
-91.0003779985
 21
-3.6165740822
  0
LINE
  5
23C
100
AcDbEntity
  8
RACCORDO
100
AcDbLine
 62
250
  6
CONTINUOUS
 10
-90.8939900293
 20
4.6548524109
 11
-90.5987728303
 21
-3.3617544876
  0
LINE
  5
23D
100
AcDbEntity
  8
RACCORDO
100
AcDbLine
 62
250
  6
CONTINUOUS
 10
-91.0693347962
 20
10.4479858312
 11
-90.8939900293
 21
4.6548524109
  0
LINE
  5
23E
100
AcDbEntity
  8
RACCORDO
100
AcDbLine
 62
7
  6
CONTINUOUS
 10
-91.2516836864
 20
4.9666596334
 11
-91.0434707519
 21
-2.3496085808
  0
LINE
  5
23F
100
AcDbEntity
  8
RACCORDO
100
AcDbLine
 62
7
  6
CONTINUOUS
 10
-91.5031447719
 20
14.5995231201
 11
-91.2516836864
 21
4.9666596334
  0
LINE
  5
240
100
AcDbEntity
  8
RACCORDO
100
AcDbLine
 62
250
  6
CONTINUOUS
 10
-91.3367108301
 20
20.9701458901
 11
-91.0693347962
 21
10.4479858312
  0
LINE
  5
241
100
AcDbEntity
  8
RACCORDO
100
AcDbLine
 62
7
  6
CONTINUOUS
 10
-92.2506010043
 20
45.1224933241
 11
-91.5031447719
 21
14.5995231201
  0
LINE
  5
242
100
AcDbEntity
  8
RACCORDO
100
AcDbLine
 62
250
  6
CONTINUOUS
 10
-91.8237544994
 20
41.1895396307
 11
-91.3367108301
 21
20.9701458901
  0
LWPOLYLINE
  5
243
100
AcDbEntity
  8
RACCORDO
100
AcDbPolyline
 62
7
  6
CONTINUOUS
 90
3
 70
0
 10
-92.4286965771
 20
53.7986874114
 10
-92.4081725266
 20
52.5106943013
 10
-92.2506010043
 20
45.1224933241
  0
LINE
  5
244
100
AcDbEntity
  8
RACCORDO
100
AcDbLine
 62
250
  6
CONTINUOUS
 10
-91.9102555931
 20
46.0501243556
 11
-91.8237544994
 21
41.1895396307
  0
LINE
  5
245
100
AcDbEntity
  8
RACCORDO
100
AcDbLine
 62
250
  6
CONTINUOUS
 10
-91.988741125
 20
52.5160238968
 11
-91.9102555931
 21
46.0501243556
  0
LWPOLYLINE
  5
246
100
AcDbEntity
  8
RACCORDO
100
AcDbPolyline
 62
250
  6
CONTINUOUS
 90
9
 70
0
 10
-88.8597913746
 20
-6.0597866277
 10
-88.8513610101
 20
-6.1249252509
 10
-88.8387438027
 20
-6.1837895083
 10
-88.822053071
 20
-6.2358507143
 10
-88.8014387198
 20
-6.2806412848
 10
-88.7770858937
 20
-6.3177589362
 10
-88.7492133142
 20
-6.3468702992
 10
-88.7180713153
 20
-6.3677139122
 10
-88.6973102982
 20
-6.376377392
  0
LWPOLYLINE
  5
247
100
AcDbEntity
  8
RACCORDO
100
AcDbPolyline
 62
250
  6
CONTINUOUS
 90
10
 70
0
 10
-72.5330372385
 20
34.9810999381
 10
-72.4846062134
 20
35.1637446675
 10
-72.4408892521
 20
35.3458173096
 10
-72.4020624524
 20
35.5265844937
 10
-72.368282215
 20
35.7053181071
 10
-72.3396846138
 20
35.8812982284
 10
-72.316384847
 20
36.053816027
 10
-72.2984767739
 20
36.2221766181
 10
-72.2860325364
 20
36.3857018621
 10
-72.2791022685
 20
36.5437330956
  0
LINE
  5
248
100
AcDbEntity
  8
DRAFT
100
AcDbLine
 62
7
  6
CONTINUOUS
 10
-70.5930764173
 20
0.7352174572
 11
-70.5884815732
 21
0.6920057191
  0
LWPOLYLINE
  5
249
100
AcDbEntity
  8
0
100
AcDbPolyline
 62
250
  6
CONTINUOUS
 90
16
 70
0
 10
-71.5409444476
 20
-0.5389597992
 10
-71.5388758475
 20
-0.5637231539
 10
-71.5339024026
 20
-0.5891142057
 10
-71.5260786032
 20
-0.614854765
 10
-71.5154901684
 20
-0.6406628126
 10
-71.5022531073
 20
-0.6662555903
 10
-71.4865124479
 20
-0.6913526982
 10
-71.4684406482
 20
-0.7156791672
 10
-71.4482357066
 20
-0.7389684714
 10
-71.4261189926
 20
-0.7609654483
 10
-71.4023328217
 20
-0.7814290944
 10
-71.3771378001
 20
-0.8001352057
 10
-71.3508099697
 20
-0.8168788341
 10
-71.3236377837
 20
-0.831476533
 10
-71.2959189463
 20
-0.843768367
 10
-71.2679571508
 20
-0.853619664
  0
LINE
  5
24A
100
AcDbEntity
  8
RACCORDO
100
AcDbLine
 62
250
  6
CONTINUOUS
 10
-74.5220253194
 20
0.2368462543
 11
-74.5705027615
 21
1.7816996433
  0
LINE
  5
24B
100
AcDbEntity
  8
RACCORDO
100
AcDbLine
 62
250
  6
CONTINUOUS
 10
-74.5705027615
 20
1.7816996433
 11
-74.7047145898
 21
6.7332108917
  0
LINE
  5
24C
100
AcDbEntity
  8
RACCORDO
100
AcDbLine
 62
250
  6
CONTINUOUS
 10
-74.7047145898
 20
6.7332108917
 11
-74.9793966295
 21
17.5023669479
  0
LINE
  5
24D
100
AcDbEntity
  8
0
100
AcDbLine
 62
250
  6
CONTINUOUS
 10
-72.4000435452
 20
33.9954720617
 11
-71.5409444476
 21
-0.5389597992
  0
LINE
  5
24E
100
AcDbEntity
  8
DRAFT
100
AcDbLine
 62
7
  6
CONTINUOUS
 10
-71.4129374623
 20
33.6923413467
 11
-70.5930764173
 21
0.7352174572
  0
LINE
  5
24F
100
AcDbEntity
  8
0
100
AcDbLine
 62
7
  6
CONTINUOUS
 10
-70.5870365455
 20
0.6564199675
 11
-71.4088263978
 21
33.6910788786
  0
LINE
  5
250
100
AcDbEntity
  8
DRAFT
100
AcDbLine
 62
7
  6
CONTINUOUS
 10
-70.181929094
 20
1.1050633114
 11
-70.9893537238
 21
33.5622628843
  0
LINE
  5
251
100
AcDbEntity
  8
RACCORDO
100
AcDbLine
 62
250
  6
CONTINUOUS
 10
-73.3267834026
 20
-0.5600358919
 11
-74.1870314949
 21
34.0205837499
  0
LINE
  5
252
100
AcDbEntity
  8
RACCORDO
100
AcDbLine
 62
250
  6
CONTINUOUS
 10
-74.9793969345
 20
17.5023665313
 11
-75.3281625306
 21
32.1036373441
  0
LINE
  5
253
100
AcDbEntity
  8
RACCORDO
100
AcDbLine
 62
250
  6
CONTINUOUS
 10
-75.3281625306
 20
32.1036373441
 11
-75.3639211651
 21
33.7747266291
  0
LINE
  5
254
100
AcDbEntity
  8
RACCORDO
100
AcDbLine
 62
250
  6
CONTINUOUS
 10
-75.3639211651
 20
33.7747266291
 11
-75.3815369896
 21
34.7878721111
  0
LWPOLYLINE
  5
255
100
AcDbEntity
  8
RACCORDO
100
AcDbPolyline
 62
250
  6
CONTINUOUS
 90
61
 70
0
 10
-74.1870314949
 20
34.0205837499
 10
-74.1868491923
 20
34.0966249546
 10
-74.182262404
 20
34.1684690529
 10
-74.1737357476
 20
34.2360871217
 10
-74.1617292147
 20
34.2993439201
 10
-74.1466981244
 20
34.358424802
 10
-74.1290264993
 20
34.4138132451
 10
-74.1090398485
 20
34.4656919558
 10
-74.0871114424
 20
34.5140335842
 10
-74.0636169273
 20
34.5590236055
 10
-74.0389481745
 20
34.6007255196
 10
-74.0133356851
 20
34.6393388467
 10
-73.9868446336
 20
34.6752414909
 10
-73.9596837909
 20
34.7085627112
 10
-73.9320851601
 20
34.7394006279
 10
-73.904062699
 20
34.7680374398
 10
-73.8757564696
 20
34.7945941097
 10
-73.847349095
 20
34.8191475107
 10
-73.8188650143
 20
34.8418798601
 10
-73.7904457442
 20
34.8628694292
 10
-73.7621994456
 20
34.8822183675
 10
-73.7340615039
 20
34.9001157816
 10
-73.7061281609
 20
34.916632053
 10
-73.6784839526
 20
34.9318436416
 10
-73.6510103806
 20
34.9459160673
 10
-73.6236225885
 20
34.9589801728
 10
-73.5965266019
 20
34.9710101149
 10
-73.5700366204
 20
34.9819379735
 10
-73.5443233626
 20
34.991802278
 10
-73.5193520062
 20
35.0007113624
 10
-73.4951356128
 20
35.0087144679
 10
-73.4719591251
 20
35.0157987523
 10
-73.4496472366
 20
35.0221092635
 10
-73.4274906661
 20
35.0278868245
 10
-73.4054944173
 20
35.0331428469
 10
-73.3836921031
 20
35.0379035032
 10
-73.3613692202
 20
35.0423572161
 10
-73.3383373196
 20
35.0465210813
 10
-73.3147756195
 20
35.0503387823
 10
-73.2904941265
 20
35.0538437851
 10
-73.2654939775
 20
35.0570156255
 10
-73.2397596133
 20
35.0598209826
 10
-73.213065403
 20
35.0622526184
 10
-73.1854487081
 20
35.0642656038
 10
-73.1568516801
 20
35.0658250297
 10
-73.1268923489
 20
35.0669052728
 10
-73.0953697479
 20
35.0674417535
 10
-73.0624494682
 20
35.0673589417
 10
-73.0282963054
 20
35.0666016125
 10
-72.9927842256
 20
35.0651164262
 10
-72.9560237455
 20
35.0628285614
 10
-72.9185540208
 20
35.0596940169
 10
-72.8807513088
 20
35.0557377678
 10
-72.8422661857
 20
35.0508936035
 10
-72.8025581744
 20
35.0449796806
 10
-72.761649273
 20
35.0379194288
 10
-72.7195432164
 20
35.0296598919
 10
-72.6756660404
 20
35.0199772555
 10
-72.6298388519
 20
35.0087058886
 10
-72.5822846917
 20
34.9957838485
 10
-72.5330373129
 20
34.9810999408
  0
LWPOLYLINE
  5
256
100
AcDbEntity
  8
RACCORDO
100
AcDbPolyline
 62
250
  6
CONTINUOUS
 90
61
 70
0
 10
-75.3815473303
 20
34.7878606603
 10
-75.3792094018
 20
34.9340213422
 10
-75.3682319529
 20
35.0717092265
 10
-75.3495213158
 20
35.2010197167
 10
-75.3234561644
 20
35.3218902062
 10
-75.2914352388
 20
35.4343289396
 10
-75.2559901034
 20
35.5385429577
 10
-75.2193214105
 20
35.6347153886
 10
-75.1812689848
 20
35.7231083208
 10
-75.1404451682
 20
35.8046269394
 10
-75.0965934365
 20
35.8798780178
 10
-75.0505654747
 20
35.9497742599
 10
-75.0025760223
 20
36.0149766539
 10
-74.9530830668
 20
36.0755262936
 10
-74.9026106654
 20
36.1313846634
 10
-74.8512641126
 20
36.1831078535
 10
-74.7992873899
 20
36.2309284494
 10
-74.7469951125
 20
36.2749959541
 10
-74.6945103272
 20
36.3156841778
 10
-74.6421147238
 20
36.3531230148
 10
-74.5900035226
 20
36.3874728606
 10
-74.5380829333
 20
36.4191178117
 10
-74.4865192427
 20
36.4481872222
 10
-74.4354680222
 20
36.4748123288
 10
-74.3847902866
 20
36.4993119961
 10
-74.3344693565
 20
36.5218225893
 10
-74.284764781
 20
36.5423985828
 10
-74.2357113035
 20
36.5612901755
 10
-74.1871504287
 20
36.5786704031
 10
-74.1389722193
 20
36.5946956474
 10
-74.0915197618
 20
36.6094858808
 10
-74.0454616892
 20
36.622991055
 10
-74.000666299
 20
36.6352763311
 10
-73.9562691093
 20
36.6465922563
 10
-73.9125324337
 20
36.6570510775
 10
-73.869579503
 20
36.666557643
 10
-73.8263033789
 20
36.6749657618
 10
-73.7826568712
 20
36.6821020505
 10
-73.7390541909
 20
36.6881531898
 10
-73.6947925436
 20
36.6934529602
 10
-73.6495410145
 20
36.6981031867
 10
-73.6029679672
 20
36.702045839
 10
-73.5545144437
 20
36.7052758411
 10
-73.5042853717
 20
36.7077177145
 10
-73.4523367708
 20
36.709277469
 10
-73.3980414552
 20
36.7098568302
 10
-73.3410713836
 20
36.7093113465
 10
-73.2817000479
 20
36.7075617731
 10
-73.2201693561
 20
36.7045955152
 10
-73.1563386475
 20
36.7001043491
 10
-73.0902712523
 20
36.6942084607
 10
-73.0222091653
 20
36.6874946117
 10
-72.9520728622
 20
36.6801705491
 10
-72.8788540282
 20
36.6715766264
 10
-72.80192714
 20
36.6610214547
 10
-72.7219711783
 20
36.6482949004
 10
-72.6397643072
 20
36.6333740334
 10
-72.554632995
 20
36.6157501254
 10
-72.4661162652
 20
36.5950501496
 10
-72.3742696256
 20
36.5711238546
 10
-72.2791060442
 20
36.5437289181
  0
LWPOLYLINE
  5
257
100
AcDbEntity
  8
RACCORDO
100
AcDbPolyline
 62
250
  6
CONTINUOUS
 90
3
 70
0
 10
-72.4332215791
 20
34.0056607145
 10
-72.4466986172
 20
33.9905131598
 10
-72.4993554686
 20
33.9421133887
  0
LWPOLYLINE
  5
258
100
AcDbEntity
  8
RACCORDO
100
AcDbPolyline
 62
250
  6
CONTINUOUS
 90
23
 70
0
 10
-72.4993554686
 20
33.9421133887
 10
-72.5587175741
 20
33.8968700309
 10
-72.6242826818
 20
33.8551658822
 10
-72.6954960573
 20
33.8173537938
 10
-72.7717551772
 20
33.7837536868
 10
-72.852414827
 20
33.7546498458
 10
-72.9367925601
 20
33.7302885128
 10
-73.024174472
 20
33.7108758048
 10
-73.1138212402
 20
33.6965759691
 10
-73.2049743799
 20
33.687509994
 10
-73.2968626608
 20
33.683754585
 10
-73.3887086331
 20
33.6853415161
 10
-73.4797352048
 20
33.6922573604
 10
-73.5691722166
 20
33.7044436043
 10
-73.6562629583
 20
33.7217971421
 10
-73.7402705711
 20
33.7441711489
 10
-73.8204842818
 20
33.771376322
 10
-73.8962253736
 20
33.8031824636
 10
-73.9668530643
 20
33.8393204826
 10
-74.0317698964
 20
33.8794846967
 10
-74.0904266199
 20
33.9233353305
 10
-74.1423268728
 20
33.9705013652
 10
-74.1870314949
 20
34.0205837499
  0
LWPOLYLINE
  5
259
100
AcDbEntity
  8
RACCORDO
100
AcDbPolyline
 62
250
  6
CONTINUOUS
 90
13
 70
0
 10
-61.9002701999
 20
-6.3377781687
 10
-61.8521783237
 20
-6.9836398629
 10
-61.7937120492
 20
-7.6550595869
 10
-61.7210543563
 20
-8.3732774501
 10
-61.6329121049
 20
-9.1281889227
 10
-61.5297157725
 20
-9.8972018277
 10
-61.4123874025
 20
-10.6640571695
 10
-61.2831181722
 20
-11.412417856
 10
-61.1411898328
 20
-12.1449323007
 10
-60.9827925703
 20
-12.8770703939
 10
-60.8053656247
 20
-13.6130178695
 10
-60.6085655764
 20
-14.346519666
 10
-60.3914866916
 20
-15.0743148893
  0
LWPOLYLINE
  5
25A
100
AcDbEntity
  8
RACCORDO
100
AcDbPolyline
 62
250
  6
CONTINUOUS
 90
13
 70
0
 10
-62.8957235066
 20
33.6778780294
 10
-62.881701624
 20
34.4015774622
 10
-62.8591657481
 20
35.1745047452
 10
-62.825554459
 20
36.0258930733
 10
-62.7791652709
 20
36.9493917827
 10
-62.7193125809
 20
37.9227284144
 10
-62.6460781995
 20
38.9283860403
 10
-62.560732547
 20
39.9456899212
 10
-62.4627286022
 20
40.9788737913
 10
-62.3492334014
 20
42.0517311585
 10
-62.2180430371
 20
43.1744183187
 10
-62.0685330582
 20
44.3418933405
 10
-61.899695193
 20
45.5532938567
  0
LWPOLYLINE
  5
25B
100
AcDbEntity
  8
RACCORDO
100
AcDbPolyline
 62
250
  6
CONTINUOUS
 90
13
 70
0
 10
-61.8997552875
 20
45.5533123112
 10
-61.8845261786
 20
45.6448794708
 10
-61.8652754841
 20
45.7382402591
 10
-61.8421881868
 20
45.8324959827
 10
-61.8154909253
 20
45.9267407868
 10
-61.7854361079
 20
46.020066165
 10
-61.7522994385
 20
46.1115696902
 10
-61.7163956336
 20
46.200369342
 10
-61.6780748407
 20
46.2856118261
 10
-61.6377055609
 20
46.3664765788
 10
-61.5956763603
 20
46.4421852787
 10
-61.5523921286
 20
46.5120093381
 10
-61.5082696738
 20
46.5752767594
  0
LWPOLYLINE
  5
25C
100
AcDbEntity
  8
RACCORDO
100
AcDbPolyline
 62
250
  6
CONTINUOUS
 90
10
 70
0
 10
-63.135711332
 20
32.0944333081
 10
-63.0883392382
 20
32.27977276
 10
-63.0457945304
 20
32.4645055588
 10
-63.0082529746
 20
32.6478695471
 10
-62.9758696935
 20
32.8291082153
 10
-62.9487785258
 20
33.0074738233
 10
-62.9270914749
 20
33.1822304851
 10
-62.9108982461
 20
33.3526572061
 10
-62.9002658764
 20
33.5180508571
 10
-62.8952384586
 20
33.6777290759
  0
LWPOLYLINE
  5
25D
100
AcDbEntity
  8
RACCORDO
100
AcDbPolyline
 62
250
  6
CONTINUOUS
 90
6
 70
0
 10
-60.3915467787
 20
-15.0742964584
 10
-60.3728688067
 20
-15.1234386645
 10
-60.3503118725
 20
-15.1644504022
 10
-60.3240931352
 20
-15.1969369179
 10
-60.294464999
 20
-15.2205855135
 10
-60.2634404279
 20
-15.2346508859
  0
LWPOLYLINE
  5
25E
100
AcDbEntity
  8
DRAFT
100
AcDbPolyline
 62
7
  6
CONTINUOUS
 90
6
 70
0
 10
-70.1658334682
 20
1.0257910059
 10
-70.1712851667
 20
1.0419278655
 10
-70.1756384998
 20
1.0579914999
 10
-70.1788736607
 20
1.0739159065
 10
-70.1809741012
 20
1.0896291727
 10
-70.181929094
 20
1.1050633114
  0
LWPOLYLINE
  5
25F
100
AcDbEntity
  8
DRAFT
100
AcDbPolyline
 62
7
  6
CONTINUOUS
 90
4
 70
0
 10
-70.5884815732
 20
0.6920057191
 10
-70.5783199349
 20
0.6491288828
 10
-70.5625915023
 20
0.6065869482
 10
-70.5408431955
 20
0.56368383
  0
LINE
  5
260
100
AcDbEntity
  8
RACCORDO
100
AcDbLine
 62
250
  6
CONTINUOUS
 10
-55.3299217339
 20
-2.4084051938
 11
-55.3063985195
 21
-3.3540013996
  0
LINE
  5
261
100
AcDbEntity
  8
RACCORDO
100
AcDbLine
 62
7
  6
CONTINUOUS
 10
-55.3033099944
 20
-2.3549192042
 11
-55.2811291058
 21
-3.2465560242
  0
LWPOLYLINE
  5
262
100
AcDbEntity
  8
RACCORDO
100
AcDbPolyline
 62
7
  6
CONTINUOUS
 90
4
 70
0
 10
-55.2838416713
 20
-3.2467549685
 10
-55.284596237
 20
-3.2606594673
 10
-55.2936661781
 20
-3.3149010776
 10
-55.3117284042
 20
-3.361724574
  0
LINE
  5
263
100
AcDbEntity
  8
DRAFT
100
AcDbLine
 62
7
  6
CONTINUOUS
 10
-61.396123638
 20
-1.6333439846
 11
-61.3378055134
 21
-1.4722720756
  0
LINE
  5
264
100
AcDbEntity
  8
DRAFT
100
AcDbLine
 62
7
  6
CONTINUOUS
 10
-61.1456637014
 20
-1.3558969375
 11
-61.089428964
 21
-1.2005792453
  0
LINE
  5
265
100
AcDbEntity
  8
DRAFT
100
AcDbLine
 62
7
  6
CONTINUOUS
 10
-60.8952037649
 20
-1.0784498904
 11
-60.8410524146
 21
-0.928886415
  0
LINE
  5
266
100
AcDbEntity
  8
DRAFT
100
AcDbLine
 62
250
  6
CONTINUOUS
 10
-70.2248932625
 20
0.310829718
 11
-69.9089417972
 21
0.7904034466
  0
LWPOLYLINE
  5
267
100
AcDbEntity
  8
RACCORDO
100
AcDbPolyline
 62
250
  6
CONTINUOUS
 90
25
 70
0
 10
-71.2679571508
 20
-0.853619664
 10
-71.309797556
 20
-0.9094638727
 10
-71.3511161708
 20
-0.9714497577
 10
-71.391560301
 20
-1.03904821
 10
-71.430784717
 20
-1.1116822115
 10
-71.4684546008
 20
-1.1887317612
 10
-71.5042484036
 20
-1.269539167
 10
-71.5378605908
 20
-1.35341466
 10
-71.56900425
 20
-1.439642282
 10
-71.5974135402
 20
-1.5274859972
 10
-71.6228459608
 20
-1.6161959752
 10
-71.6450844214
 20
-1.7050149906
 10
-71.6639390955
 20
-1.7931848879
 10
-71.6792490402
 20
-1.879953052
 10
-71.6908835705
 20
-1.9645788332
 10
-71.6987433744
 20
-2.0463398689
 10
-71.702761361
 20
-2.1245382499
 10
-71.7029032328
 20
-2.1985064779
 10
-71.6991677788
 20
-2.2676131629
 10
-71.6915868893
 20
-2.3312683836
 10
-71.6802252736
 20
-2.3889288163
 10
-71.6651798896
 20
-2.4401023426
 10
-71.6465791394
 20
-2.4843521371
 10
-71.6245817903
 20
-2.5213004264
 10
-71.5993755985
 20
-2.5506317865
  0
LINE
  5
268
100
AcDbEntity
  8
0
100
AcDbLine
 62
250
  6
CONTINUOUS
 10
-70.5870365455
 20
0.6564199675
 11
-71.5409444476
 21
-0.5389597992
  0
LINE
  5
269
100
AcDbEntity
  8
0
100
AcDbLine
 62
250
  6
CONTINUOUS
 10
-70.3140492487
 20
0.3417601027
 11
-71.2679571508
 21
-0.853619664
  0
LWPOLYLINE
  5
26A
100
AcDbEntity
  8
RACCORDO
100
AcDbPolyline
 62
250
  6
CONTINUOUS
 90
10
 70
0
 10
-71.5993758744
 20
-2.5506325115
 10
-71.5449499825
 20
-2.6090246187
 10
-71.4949809306
 20
-2.6783187601
 10
-71.4496699726
 20
-2.7582358296
 10
-71.4091996007
 20
-2.8484539322
 10
-71.3737328106
 20
-2.9486096808
 10
-71.3434124453
 20
-3.0582996601
 10
-71.3183606192
 20
-3.1770820509
 10
-71.2986782264
 20
-3.3044784106
 10
-71.2844445345
 20
-3.4399755993
  0
LWPOLYLINE
  5
26B
100
AcDbEntity
  8
RACCORDO
100
AcDbPolyline
 62
250
  6
CONTINUOUS
 90
10
 70
0
 10
-73.3267832034
 20
-0.5600358264
 10
-73.4199530592
 20
-0.4505793914
 10
-73.5242255895
 20
-0.3453768651
 10
-73.6391542073
 20
-0.2448788185
 10
-73.7642466867
 20
-0.1495156737
 10
-73.8989672715
 20
-0.0596958607
 10
-74.042738969
 20
0.0241959318
 10
-74.1949460221
 20
0.1018004045
 10
-74.3549365458
 20
0.1727851854
 10
-74.5220253194
 20
0.2368462543
  0
LWPOLYLINE
  5
26C
100
AcDbEntity
  8
DRAFT
100
AcDbPolyline
 62
7
  6
CONTINUOUS
 90
8
 70
0
 10
-70.5408431955
 20
0.56368383
 10
-70.5135280945
 20
0.5211156136
 10
-70.4820054387
 20
0.480970555
 10
-70.4460740883
 20
0.4433644921
 10
-70.405935183
 20
0.408181587
 10
-70.363551382
 20
0.3771625827
 10
-70.3195769047
 20
0.350887727
 10
-70.2733575315
 20
0.3287767721
  0
LWPOLYLINE
  5
26D
100
AcDbEntity
  8
DRAFT
100
AcDbPolyline
 62
7
  6
CONTINUOUS
 90
5
 70
0
 10
-70.1335445044
 20
0.9617905437
 10
-70.1431247129
 20
0.9775699293
 10
-70.1517234875
 20
0.9935428274
 10
-70.1593042112
 20
1.0096406234
 10
-70.1658334682
 20
1.0257910059
  0
LWPOLYLINE
  5
26E
100
AcDbEntity
  8
RACCORDO
100
AcDbPolyline
 62
7
  6
CONTINUOUS
 90
4
 70
0
 10
-55.3060414049
 20
-2.3543606122
 10
-55.3070437342
 20
-2.3583054037
 10
-55.3168926858
 20
-2.3812320162
 10
-55.335256023
 20
-2.4159513215
  0
LINE
  5
26F
100
AcDbEntity
  8
DRAFT
100
AcDbLine
 62
7
  6
CONTINUOUS
 10
-55.9047926172
 20
-3.3196785413
 11
-55.8577784568
 21
-3.1551352944
  0
LINE
  5
270
100
AcDbEntity
  8
DRAFT
100
AcDbLine
 62
7
  6
CONTINUOUS
 10
-55.7010106956
 20
-3.027897128
 11
-55.6556760935
 21
-2.8692321098
  0
LINE
  5
271
100
AcDbEntity
  8
DRAFT
100
AcDbLine
 62
7
  6
CONTINUOUS
 10
-55.497228774
 20
-2.7361157148
 11
-55.4535737303
 21
-2.5833289253
  0
LWPOLYLINE
  5
272
100
AcDbEntity
  8
RACCORDO
100
AcDbPolyline
 62
250
  6
CONTINUOUS
 90
25
 70
0
 10
-71.5409444476
 20
-0.5389597992
 10
-71.5864505548
 20
-0.5901065123
 10
-71.6391074446
 20
-0.6385063102
 10
-71.698469596
 20
-0.6837496904
 10
-71.7640347562
 20
-0.7254538566
 10
-71.8352481897
 20
-0.7632659569
 10
-71.9115073718
 20
-0.7968660696
 10
-71.9921670867
 20
-0.8259699101
 10
-72.0765448865
 20
-0.8503312357
 10
-72.1639268652
 20
-0.8697439295
 10
-72.2535736989
 20
-0.8840437439
 10
-72.3447269011
 20
-0.8931096908
 10
-72.4366152404
 20
-0.8968650647
 10
-72.5284612653
 20
-0.895278092
 10
-72.6194878824
 20
-0.8883621999
 10
-72.7089249312
 20
-0.8761759025
 10
-72.7960157002
 20
-0.858822306
 10
-72.8800233295
 20
-0.8364482361
 10
-72.9602370449
 20
-0.8092429961
 10
-73.0359781684
 20
-0.7774367664
 10
-73.1066058716
 20
-0.7412986529
 10
-73.1715225948
 20
-0.7011344075
 10
-73.2301790891
 20
-0.657283849
 10
-73.2820790651
 20
-0.6101179901
 10
-73.3267834026
 20
-0.5600358919
  0
LINE
  5
273
100
AcDbEntity
  8
DRAFT
100
AcDbLine
 62
250
  6
CONTINUOUS
 10
-70.5930764173
 20
0.7352174572
 11
-70.181929094
 21
1.1050633114
  0
LWPOLYLINE
  5
274
100
AcDbEntity
  8
RACCORDO
100
AcDbPolyline
 62
250
  6
CONTINUOUS
 90
10
 70
0
 10
69.973480315
 20
-44.5661600424
 10
70.1679788316
 20
-44.5450476782
 10
70.3637664065
 20
-44.5319941104
 10
70.5600044833
 20
-44.5270551953
 10
70.7558525761
 20
-44.5302520372
 10
70.9504718698
 20
-44.5415708982
 10
71.1430288118
 20
-44.5609632567
 10
71.3326986831
 20
-44.5883460157
 10
71.5186691298
 20
-44.6236018586
 10
71.7001436429
 20
-44.6665797515
  0
LWPOLYLINE
  5
275
100
AcDbEntity
  8
RACCORDO
100
AcDbPolyline
 62
250
  6
CONTINUOUS
 90
10
 70
0
 10
-62.2020744183
 20
-5.4363014681
 10
-62.1487505306
 20
-5.4950957094
 10
-62.0999882852
 20
-5.5650539526
 10
-62.0559895949
 20
-5.6458873255
 10
-62.01697331
 20
-5.7372508463
 10
-61.9830646503
 20
-5.8387785255
 10
-61.9542945373
 20
-5.9500849222
 10
-61.9307454355
 20
-6.0707219081
 10
-61.9125508607
 20
-6.2001805618
 10
-61.8997851639
 20
-6.3379269475
  0
LWPOLYLINE
  5
276
100
AcDbEntity
  8
DRAFT
100
AcDbPolyline
 62
7
  6
CONTINUOUS
 90
10
 70
0
 10
-70.0923950749
 20
0.9084897315
 10
-70.0974823989
 20
0.9141586301
 10
-70.1024483442
 20
0.9198999282
 10
-70.1072896066
 20
0.925709813
 10
-70.1120029628
 20
0.9315844247
 10
-70.1165852775
 20
0.9375198631
 10
-70.1210335045
 20
0.9435121913
 10
-70.1253446835
 20
0.9495574309
 10
-70.1295159428
 20
0.9556515645
 10
-70.1335445044
 20
0.9617905437
  0
LINE
  5
277
100
AcDbEntity
  8
RACCORDO
100
AcDbLine
 62
7
  6
CONTINUOUS
 10
-55.3117284042
 20
-3.361724574
 11
-55.499946938
 21
-3.634459281
  0
LINE
  5
278
100
AcDbEntity
  8
RACCORDO
100
AcDbLine
 62
7
  6
CONTINUOUS
 10
-55.3299217339
 20
-2.4084051938
 11
-55.4535737303
 21
-2.5833289253
  0
LINE
  5
279
100
AcDbEntity
  8
DRAFT
100
AcDbLine
 62
7
  6
CONTINUOUS
 10
-55.5460660719
 20
-2.7141727938
 11
-55.6556760935
 21
-2.8692321098
  0
LINE
  5
27A
100
AcDbEntity
  8
DRAFT
100
AcDbLine
 62
7
  6
CONTINUOUS
 10
-55.7517269309
 20
-3.005109988
 11
-55.8577784568
 21
-3.1551352944
  0
LINE
  5
27B
100
AcDbEntity
  8
DRAFT
100
AcDbLine
 62
7
  6
CONTINUOUS
 10
-55.95738779
 20
-3.2960471823
 11
-56.0598808201
 21
-3.4410384789
  0
LINE
  5
27C
100
AcDbEntity
  8
RACCORDO
100
AcDbLine
 62
7
  6
CONTINUOUS
 10
-60.6956441997
 20
-0.7698280436
 11
-60.8410524146
 21
-0.928886415
  0
LINE
  5
27D
100
AcDbEntity
  8
DRAFT
100
AcDbLine
 62
7
  6
CONTINUOUS
 10
-60.9547221822
 20
-1.0532269011
 11
-61.089428964
 21
-1.2005792453
  0
LINE
  5
27E
100
AcDbEntity
  8
DRAFT
100
AcDbLine
 62
7
  6
CONTINUOUS
 10
-61.2074719952
 20
-1.3297035338
 11
-61.3378055134
 21
-1.4722720756
  0
LINE
  5
27F
100
AcDbEntity
  8
DRAFT
100
AcDbLine
 62
7
  6
CONTINUOUS
 10
-61.4602218081
 20
-1.6061801665
 11
-61.5861820629
 21
-1.7439649058
  0
LWPOLYLINE
  5
280
100
AcDbEntity
  8
RACCORDO
100
AcDbPolyline
 62
250
  6
CONTINUOUS
 90
16
 70
0
 10
90.9259382594
 20
-59.8643678422
 10
91.0155591958
 20
-59.8816554395
 10
91.1076344482
 20
-59.8932333843
 10
91.2013393255
 20
-59.8989979798
 10
91.2958345407
 20
-59.8988975975
 10
91.3902737278
 20
-59.89293314
 10
91.4838110227
 20
-59.8811580325
 10
91.5756086393
 20
-59.8636777447
 10
91.6648443731
 20
-59.8406488458
 10
91.750718966
 20
-59.8122776025
 10
91.8324632643
 20
-59.778818131
 10
91.9093451084
 20
-59.7405701216
 10
91.9806758902
 20
-59.6978761541
 10
92.0458167207
 20
-59.6511186294
 10
92.1041841528
 20
-59.6007163445
 10
92.1552554065
 20
-59.5471207415
  0
LWPOLYLINE
  5
281
100
AcDbEntity
  8
RACCORDO
100
AcDbPolyline
 62
250
  6
CONTINUOUS
 90
11
 70
0
 10
-90.5399321797
 20
-4.1379560429
 10
-90.6171095221
 20
-4.1040205984
 10
-90.6887720798
 20
-4.0653154984
 10
-90.7542780012
 20
-4.0221874077
 10
-90.8130405772
 20
-3.975022606
 10
-90.8645334957
 20
-3.9242435282
 10
-90.9082955562
 20
-3.8703049809
 10
-90.9439348001
 20
-3.8136900688
 10
-90.9711320217
 20
-3.7549058679
 10
-90.9896436266
 20
-3.6944788835
 10
-90.9989669659
 20
-3.6350958197
  0
LWPOLYLINE
  5
282
100
AcDbEntity
  8
RACCORDO
100
AcDbPolyline
 62
250
  6
CONTINUOUS
 90
10
 70
0
 10
-73.7516590871
 20
16.7237863732
 10
-73.8479790366
 20
16.8319459951
 10
-73.955580963
 20
16.9356719356
 10
-74.073993147
 20
17.034509738
 10
-74.2026964772
 20
17.1280263752
 10
-74.3411267256
 20
17.215812148
 10
-74.4886770217
 20
17.2974824814
 10
-74.6447005127
 20
17.3726796103
 10
-74.8085131993
 20
17.4410741483
 10
-74.9793969345
 20
17.5023665313
  0
LINE
  5
283
100
AcDbEntity
  8
RACCORDO
100
AcDbLine
 62
250
  6
CONTINUOUS
 10
-35.2850341178
 20
-8.7563527456
 11
-35.2663329218
 21
-9.5081113973
  0
LINE
  5
284
100
AcDbEntity
  8
RACCORDO
100
AcDbLine
 62
7
  6
CONTINUOUS
 10
-35.2584223783
 20
-8.7028667559
 11
-35.2410635081
 21
-9.4006660219
  0
LWPOLYLINE
  5
285
100
AcDbEntity
  8
RACCORDO
100
AcDbPolyline
 62
7
  6
CONTINUOUS
 90
4
 70
0
 10
-35.2437760736
 20
-9.4008649662
 10
-35.2445306394
 20
-9.414769465
 10
-35.2536005804
 20
-9.4690110754
 10
-35.2716628066
 20
-9.5158345718
  0
LWPOLYLINE
  5
286
100
AcDbEntity
  8
RACCORDO
100
AcDbPolyline
 62
7
  6
CONTINUOUS
 90
4
 70
0
 10
-35.2611537887
 20
-8.702308164
 10
-35.2621561181
 20
-8.7062529555
 10
-35.2720050697
 20
-8.729179568
 10
-35.2903684069
 20
-8.7638988733
  0
LWPOLYLINE
  5
287
100
AcDbEntity
  8
RACCORDO
100
AcDbPolyline
 62
250
  6
CONTINUOUS
 90
10
 70
0
 10
69.5318573377
 20
-27.2771933962
 10
69.7289971796
 20
-27.2590116186
 10
69.9272937581
 20
-27.249084499
 10
70.1258777492
 20
-27.2474558352
 10
70.3238785687
 20
-27.2541330443
 10
70.520428189
 20
-27.2690871307
 10
70.7146649446
 20
-27.2922528129
 10
70.9057373097
 20
-27.3235288098
 10
71.092807631
 20
-27.3627782847
 10
71.2750558002
 20
-27.4098294454
  0
LWPOLYLINE
  5
288
100
AcDbEntity
  8
RACCORDO
100
AcDbPolyline
 62
250
  6
CONTINUOUS
 90
28
 70
0
 10
89.323113456
 20
-60.7780291813
 10
89.4147401444
 20
-60.8005322559
 10
89.5068011229
 20
-60.8189710354
 10
89.5989617065
 20
-60.8331216322
 10
89.691116525
 20
-60.8428109395
 10
89.7827254992
 20
-60.8478277817
 10
89.8728323048
 20
-60.8480133111
 10
89.9610169395
 20
-60.8433252912
 10
90.0470995606
 20
-60.8337412867
 10
90.1305343964
 20
-60.8192859954
 10
90.2109447472
 20
-60.8000217482
 10
90.2881830654
 20
-60.776005928
 10
90.3620619052
 20
-60.7472883981
 10
90.432378393
 20
-60.7139130258
 10
90.4988390518
 20
-60.6760093515
 10
90.561128395
 20
-60.63376393
 10
90.6189979573
 20
-60.5873573459
 10
90.6723195371
 20
-60.5369274157
 10
90.7209708225
 20
-60.482611799
 10
90.7648253278
 20
-60.4245183513
 10
90.8036694805
 20
-60.3629088822
 10
90.8372946096
 20
-60.298185047
 10
90.8656535505
 20
-60.2304985343
 10
90.8886201779
 20
-60.1601946708
 10
90.9060471588
 20
-60.0880594949
 10
90.9179895227
 20
-60.0145843247
 10
90.9245806456
 20
-59.9399086228
 10
90.9259387674
 20
-59.8643669757
  0
LWPOLYLINE
  5
289
100
AcDbEntity
  8
RACCORDO
100
AcDbPolyline
 62
7
  6
CONTINUOUS
 90
18
 70
0
 10
89.4732304887
 20
-61.0908288681
 10
89.6366706537
 20
-61.1329889642
 10
89.7943710423
 20
-61.1647954375
 10
89.9523705995
 20
-61.1877955026
 10
90.1099664432
 20
-61.2017191491
 10
90.2657570723
 20
-61.2063481994
 10
90.4193268904
 20
-61.2016426121
 10
90.5703217073
 20
-61.1875938168
 10
90.7174172023
 20
-61.1643501912
 10
90.8599139468
 20
-61.1321492156
 10
90.9977074838
 20
-61.0911761601
 10
91.1303135799
 20
-61.0417034777
 10
91.2572239159
 20
-60.9840567033
 10
91.3781013547
 20
-60.9185668934
 10
91.4926353616
 20
-60.8455826406
 10
91.6004268071
 20
-60.7655264719
 10
91.7010844111
 20
-60.6788817015
 10
91.8027513818
 20
-60.5770807242
  0
LINE
  5
28A
100
AcDbEntity
  8
RACCORDO
100
AcDbLine
 62
7
  6
CONTINUOUS
 10
89.4732304887
 20
-61.0908288681
 11
89.4734561941
 21
-61.090893391
  0
LINE
  5
28B
100
AcDbEntity
  8
RACCORDO
100
AcDbLine
 62
250
  6
CONTINUOUS
 10
78.8729457455
 20
-57.7404641142
 11
80.9508400913
 21
-58.340397207
  0
LINE
  5
28C
100
AcDbEntity
  8
RACCORDO
100
AcDbLine
 62
250
  6
CONTINUOUS
 10
80.9508400913
 20
-58.340397207
 11
85.0365616111
 21
-59.5276730383
  0
LINE
  5
28D
100
AcDbEntity
  8
RACCORDO
100
AcDbLine
 62
250
  6
CONTINUOUS
 10
85.0365616111
 20
-59.5276730383
 11
87.1400511209
 21
-60.1469581633
  0
LINE
  5
28E
100
AcDbEntity
  8
RACCORDO
100
AcDbLine
 62
250
  6
CONTINUOUS
 10
87.1400511209
 20
-60.1469581633
 11
87.5820483945
 21
-60.2779084331
  0
LINE
  5
28F
100
AcDbEntity
  8
RACCORDO
100
AcDbLine
 62
250
  6
CONTINUOUS
 10
71.6812908816
 20
-55.6174616326
 11
78.8729457455
 21
-57.7404641142
  0
LINE
  5
290
100
AcDbEntity
  8
RACCORDO
100
AcDbLine
 62
7
  6
CONTINUOUS
 10
77.747820585
 20
-57.5770412983
 11
85.3565082868
 21
-59.8541386993
  0
LWPOLYLINE
  5
291
100
AcDbEntity
  8
RACCORDO
100
AcDbPolyline
 62
250
  6
CONTINUOUS
 90
6
 70
0
 10
87.5820483945
 20
-60.2779084331
 10
88.5514015847
 20
-60.5662568055
 10
88.6260031273
 20
-60.5882135999
 10
88.7001107712
 20
-60.6091873387
 10
88.7740052633
 20
-60.6295116057
 10
89.323113186
 20
-60.7780295928
  0
LWPOLYLINE
  5
292
100
AcDbEntity
  8
RACCORDO
100
AcDbPolyline
 62
7
  6
CONTINUOUS
 90
3
 70
0
 10
85.3565082868
 20
-59.8541386993
 10
88.2100826519
 20
-60.7142638365
 10
89.4734541531
 20
-61.0909005222
  0
LINE
  5
293
100
AcDbEntity
  8
RACCORDO
100
AcDbLine
 62
7
  6
CONTINUOUS
 10
71.222805586
 20
-55.6088450742
 11
77.747820585
 21
-57.5770412983
  0
LINE
  5
294
100
AcDbEntity
  8
RACCORDO
100
AcDbLine
 62
250
  6
CONTINUOUS
 10
68.6759523212
 20
-54.713279266
 11
71.6812908816
 21
-55.6174616326
  0
LINE
  5
295
100
AcDbEntity
  8
RACCORDO
100
AcDbLine
 62
7
  6
CONTINUOUS
 10
67.8182914341
 20
-54.5710140799
 11
71.222805586
 21
-55.6088450742
  0
LINE
  5
296
100
AcDbEntity
  8
RACCORDO
100
AcDbLine
 62
7
  6
CONTINUOUS
 10
-67.2308321481
 20
-13.0987277319
 11
-60.26341747
 21
-15.2346579501
  0
LWPOLYLINE
  5
297
100
AcDbEntity
  8
RACCORDO
100
AcDbPolyline
 62
7
  6
CONTINUOUS
 90
3
 70
0
 10
-60.2634404279
 20
-15.2346508859
 10
64.3201927711
 20
-53.4957869786
 10
67.8182914341
 20
-54.5710140799
  0
LINE
  5
298
100
AcDbEntity
  8
RACCORDO
100
AcDbLine
 62
250
  6
CONTINUOUS
 10
64.4963374578
 20
-53.4319587853
 11
68.6759523212
 21
-54.713279266
  0
LINE
  5
299
100
AcDbEntity
  8
RACCORDO
100
AcDbLine
 62
250
  6
CONTINUOUS
 10
-60.2294806915
 20
-15.1240653836
 11
62.6916901698
 21
-52.8744525457
  0
LINE
  5
29A
100
AcDbEntity
  8
RACCORDO
100
AcDbLine
 62
250
  6
CONTINUOUS
 10
62.6916901698
 20
-52.8744525457
 11
64.4963374578
 21
-53.4319587853
  0
LINE
  5
29B
100
AcDbEntity
  8
RACCORDO
100
AcDbLine
 62
250
  6
CONTINUOUS
 10
-67.8371127157
 20
-12.7930296491
 11
-60.2294806915
 21
-15.1240653836
  0
LINE
  5
29C
100
AcDbEntity
  8
RACCORDO
100
AcDbLine
 62
7
  6
CONTINUOUS
 10
-70.624886354
 20
-12.0487489168
 11
-67.2308321481
 21
-13.0987277319
  0
LINE
  5
29D
100
AcDbEntity
  8
RACCORDO
100
AcDbLine
 62
7
  6
CONTINUOUS
 10
-87.4613929216
 20
-6.7671926176
 11
-84.6302649575
 21
-7.6527580554
  0
LINE
  5
29E
100
AcDbEntity
  8
RACCORDO
100
AcDbLine
 62
7
  6
CONTINUOUS
 10
-77.1016627741
 20
-10.0241872282
 11
-70.624886354
 21
-12.0487489168
  0
LINE
  5
29F
100
AcDbEntity
  8
RACCORDO
100
AcDbLine
 62
250
  6
CONTINUOUS
 10
-70.9162283373
 20
-11.8305993987
 11
-67.8371127157
 21
-12.7930296491
  0
LINE
  5
2A0
100
AcDbEntity
  8
RACCORDO
100
AcDbLine
 62
7
  6
CONTINUOUS
 10
-84.6302649575
 20
-7.6527580554
 11
-77.1016627741
 21
-10.0241872282
  0
LINE
  5
2A1
100
AcDbEntity
  8
RACCORDO
100
AcDbLine
 62
7
  6
CONTINUOUS
 10
-88.6973102982
 20
-6.376377392
 11
-87.4613929216
 21
-6.7671926176
  0
LINE
  5
2A2
100
AcDbEntity
  8
RACCORDO
100
AcDbLine
 62
250
  6
CONTINUOUS
 10
-88.1952342828
 20
-6.2877171637
 11
-84.4287567489
 21
-7.4891158172
  0
LINE
  5
2A3
100
AcDbEntity
  8
RACCORDO
100
AcDbLine
 62
250
  6
CONTINUOUS
 10
-79.0518094456
 20
-9.2339063235
 11
-70.9162283373
 21
-11.8305993987
  0
LINE
  5
2A4
100
AcDbEntity
  8
RACCORDO
100
AcDbLine
 62
250
  6
CONTINUOUS
 10
-84.4287567489
 20
-7.4891158172
 11
-80.3786564609
 21
-8.8005999142
  0
LINE
  5
2A5
100
AcDbEntity
  8
RACCORDO
100
AcDbLine
 62
250
  6
CONTINUOUS
 10
-80.3786564609
 20
-8.8005999142
 11
-79.0518094456
 21
-9.2339063235
  0
LINE
  5
2A6
100
AcDbEntity
  8
RACCORDO
100
AcDbLine
 62
7
  6
CONTINUOUS
 10
-88.6973102982
 20
-6.376377392
 11
-88.696953628
 21
-6.3764946735
  0
LINE
  5
2A7
100
AcDbEntity
  8
RACCORDO
100
AcDbLine
 62
250
  6
CONTINUOUS
 10
-88.2663791816
 20
-6.2640343981
 11
-88.1952342828
 21
-6.2877171637
  0
LINE
  5
2A8
100
AcDbEntity
  8
RACCORDO
100
AcDbLine
 62
250
  6
CONTINUOUS
 10
-88.8597913746
 20
-6.0597866277
 11
-88.2663791816
 21
-6.2640343981
  0
LWPOLYLINE
  5
2A9
100
AcDbEntity
  8
RACCORDO
100
AcDbPolyline
 62
7
  6
CONTINUOUS
 90
3
 70
0
 10
-55.3122780298
 20
-2.3418562616
 10
-55.3065501948
 20
-2.3456966907
 10
-55.3060414049
 20
-2.3543606122
  0
LWPOLYLINE
  5
2AA
100
AcDbEntity
  8
RACCORDO
100
AcDbPolyline
 62
250
  6
CONTINUOUS
 90
10
 70
0
 10
-74.1870337735
 20
34.020583
 10
-74.2801170336
 20
34.1265581099
 10
-74.3843035703
 20
34.2282934304
 10
-74.499147153
 20
34.325353179
 10
-74.6241559074
 20
34.4173216012
 10
-74.758794422
 20
34.5038047516
 10
-74.9024860413
 20
34.5844321811
 10
-75.0546153357
 20
34.6588585236
 10
-75.2145307372
 20
34.7267649753
 10
-75.3815473303
 20
34.7878606603
  0
LINE
  5
2AB
100
AcDbEntity
  8
RACCORDO
100
AcDbLine
 62
7
  6
CONTINUOUS
 10
-35.2663329218
 20
-9.5081113973
 11
-35.4598813403
 21
-9.7885692787
  0
LINE
  5
2AC
100
AcDbEntity
  8
0
100
AcDbLine
 62
7
  6
CONTINUOUS
 10
-35.2903684069
 20
-8.7638988733
 11
-35.9157409068
 21
-9.6485792222
  0
LINE
  5
2AD
100
AcDbEntity
  8
0
100
AcDbLine
 62
7
  6
CONTINUOUS
 10
-40.6442009338
 20
-7.1106045358
 11
-41.4193169365
 21
-7.9584843419
  0
LWPOLYLINE
  5
2AE
100
AcDbEntity
  8
RACCORDO
100
AcDbPolyline
 62
7
  6
CONTINUOUS
 90
5
 70
0
 10
39.6735909622
 20
-31.7025167555
 10
39.6425817011
 20
-31.6958073879
 10
39.5953110122
 20
-31.695157286
 10
39.5521997862
 20
-31.7056232147
 10
39.5160614569
 20
-31.7270445268
  0
LWPOLYLINE
  5
2AF
100
AcDbEntity
  8
RACCORDO
100
AcDbPolyline
 62
7
  6
CONTINUOUS
 90
5
 70
0
 10
59.7076049485
 20
-37.6633480165
 10
59.6762481596
 20
-37.6558001169
 10
59.6302331672
 20
-37.6544296327
 10
59.5861199005
 20
-37.666834006
 10
59.5447493863
 20
-37.6944880301
  0
LWPOLYLINE
  5
2B0
100
AcDbEntity
  8
0
100
AcDbPolyline
 62
250
  6
CONTINUOUS
 90
7
 70
0
 10
68.6562341999
 20
-43.8229832482
 10
68.6841325981
 20
-43.8302860755
 10
68.7116619383
 20
-43.8349604217
 10
68.7385206034
 20
-43.8369550737
 10
68.7644143242
 20
-43.8362481777
 10
68.7890594037
 20
-43.8328474786
 10
68.8050908244
 20
-43.8286485489
  0
LINE
  5
2B1
100
AcDbEntity
  8
RACCORDO
100
AcDbLine
 62
250
  6
CONTINUOUS
 10
68.614380059
 20
-46.4015479661
 11
67.4706427238
 21
-46.0596067773
  0
LINE
  5
2B2
100
AcDbEntity
  8
RACCORDO
100
AcDbLine
 62
250
  6
CONTINUOUS
 10
67.4706427238
 20
-46.0596067773
 11
65.6202916997
 21
-45.4969757374
  0
LINE
  5
2B3
100
AcDbEntity
  8
RACCORDO
100
AcDbLine
 62
250
  6
CONTINUOUS
 10
65.4712814833
 20
-44.6431878496
 11
-71.5993755985
 21
-2.5506317865
  0
LINE
  5
2B4
100
AcDbEntity
  8
RACCORDO
100
AcDbLine
 62
250
  6
CONTINUOUS
 10
68.3248157522
 20
-45.5199953707
 11
65.4712814833
 21
-44.6431878496
  0
LWPOLYLINE
  5
2B5
100
AcDbEntity
  8
RACCORDO
100
AcDbPolyline
 62
250
  6
CONTINUOUS
 90
4
 70
0
 10
65.6202916997
 20
-45.4969757374
 10
-69.4273152694
 20
-4.0229547962
 10
-70.373378546
 20
-3.7279504513
 10
-71.2844436475
 20
-3.4399743823
  0
LWPOLYLINE
  5
2B6
100
AcDbEntity
  8
RACCORDO
100
AcDbPolyline
 62
250
  6
CONTINUOUS
 90
61
 70
0
 10
-71.5993755985
 20
-2.5506317865
 10
-71.6531616616
 20
-2.533411554
 10
-71.7052855312
 20
-2.5152982535
 10
-71.7556949153
 20
-2.4964437909
 10
-71.8042598858
 20
-2.4770276801
 10
-71.8510336713
 20
-2.4571597981
 10
-71.89625161
 20
-2.4368586653
 10
-71.939957087
 20
-2.4161996977
 10
-71.9820716247
 20
-2.3953171199
 10
-72.0226594623
 20
-2.3742837161
 10
-72.0618753398
 20
-2.3531044795
 10
-72.0995645496
 20
-2.33193827
 10
-72.1353443535
 20
-2.3110954625
 10
-72.1689710763
 20
-2.2908297948
 10
-72.2007298681
 20
-2.2710748053
 10
-72.2310350074
 20
-2.2516543672
 10
-72.2598714984
 20
-2.2326475989
 10
-72.2872878893
 20
-2.2140900642
 10
-72.3137767841
 20
-2.1956993154
 10
-72.3393870066
 20
-2.1774784336
 10
-72.3640876437
 20
-2.1594856461
 10
-72.3882341795
 20
-2.1414889156
 10
-72.4118843223
 20
-2.1234636798
 10
-72.434985498
 20
-2.1054658693
 10
-72.4577149736
 20
-2.0873665862
 10
-72.47984702
 20
-2.0693598386
 10
-72.5016085134
 20
-2.0512768937
 10
-72.5238279131
 20
-2.0324145407
 10
-72.5465821182
 20
-2.012667749
 10
-72.5697405009
 20
-1.9921106816
 10
-72.5937787947
 20
-1.9702681451
 10
-72.6188582725
 20
-1.9469112654
 10
-72.6447110697
 20
-1.9222046368
 10
-72.6711537948
 20
-1.8962510942
 10
-72.6981265649
 20
-1.8690340098
 10
-72.7255787269
 20
-1.840522182
 10
-72.7533481655
 20
-1.8108054588
 10
-72.7812715667
 20
-1.7799848908
 10
-72.8093965813
 20
-1.7479301724
 10
-72.8378648037
 20
-1.7143821109
 10
-72.8666034161
 20
-1.6793083128
 10
-72.8955119541
 20
-1.6427063964
 10
-72.9246555646
 20
-1.604351782
 10
-72.953936172
 20
-1.5642056282
 10
-72.9832135589
 20
-1.5222813696
 10
-73.0124550502
 20
-1.4784290845
 10
-73.0414888256
 20
-1.4326827609
 10
-73.0701825091
 20
-1.3850109695
 10
-73.0985174448
 20
-1.3351659896
 10
-73.1262572372
 20
-1.2832343376
 10
-73.1532325773
 20
-1.2291741257
 10
-73.1794401413
 20
-1.1725480967
 10
-73.2046897815
 20
-1.1132009532
 10
-73.2285702638
 20
-1.0514017652
 10
-73.250683668
 20
-0.9873794307
 10
-73.2706320297
 20
-0.9215187811
 10
-73.2881750159
 20
-0.8536967622
 10
-73.3030400818
 20
-0.7834477158
 10
-73.3147732999
 20
-0.7107924837
 10
-73.3228534759
 20
-0.6362168716
 10
-73.3267834026
 20
-0.5600358919
  0
LWPOLYLINE
  5
2B7
100
AcDbEntity
  8
RACCORDO
100
AcDbPolyline
 62
250
  6
CONTINUOUS
 90
61
 70
0
 10
-71.2844445345
 20
-3.4399755993
 10
-71.3885834934
 20
-3.4053925904
 10
-71.4895048736
 20
-3.3691838428
 10
-71.5870920806
 20
-3.3316489879
 10
-71.6811570855
 20
-3.2929898794
 10
-71.7716885192
 20
-3.2536130034
 10
-71.8588853196
 20
-3.214084279
 10
-71.9425212408
 20
-3.1748659431
 10
-72.0220031425
 20
-3.1362597122
 10
-72.0969550034
 20
-3.0985829225
 10
-72.16775212
 20
-3.0620241259
 10
-72.2350278987
 20
-3.0263239249
 10
-72.299066723
 20
-2.9909879022
 10
-72.3596775398
 20
-2.956119688
 10
-72.4170854592
 20
-2.921942133
 10
-72.4719259423
 20
-2.8882336379
 10
-72.5241501484
 20
-2.8551519507
 10
-72.5738775132
 20
-2.8227375031
 10
-72.6220154796
 20
-2.7904906308
 10
-72.668573751
 20
-2.758488314
 10
-72.7134486769
 20
-2.7268412429
 10
-72.7573271459
 20
-2.695049806
 10
-72.8004475877
 20
-2.6629648869
 10
-72.8432283799
 20
-2.6303084401
 10
-72.8867311182
 20
-2.5962250587
 10
-72.9307250656
 20
-2.560749308
 10
-72.9748554899
 20
-2.5242549001
 10
-73.0197692248
 20
-2.4864946922
 10
-73.0652738867
 20
-2.4476839455
 10
-73.1111708963
 20
-2.4078365272
 10
-73.1581451844
 20
-2.3662865152
 10
-73.2064303431
 20
-2.3227626758
 10
-73.2555398347
 20
-2.277517407
 10
-73.3050362404
 20
-2.2306698958
 10
-73.3547969951
 20
-2.182202334
 10
-73.4050459675
 20
-2.1318204915
 10
-73.4559276823
 20
-2.0791611176
 10
-73.5073260407
 20
-2.0241772065
 10
-73.5591963809
 20
-1.9667794393
 10
-73.6116942186
 20
-1.9065789726
 10
-73.6646534095
 20
-1.8435612584
 10
-73.7179039249
 20
-1.7777006953
 10
-73.77154503
 20
-1.7085635143
 10
-73.8254076927
 20
-1.6360712796
 10
-73.8792129735
 20
-1.5602651995
 10
-73.9328216072
 20
-1.4808996131
 10
-73.9859218593
 20
-1.3980390978
 10
-74.0382887395
 20
-1.3116062236
 10
-74.0898331704
 20
-1.2211425178
 10
-74.1400569332
 20
-1.1268933685
 10
-74.1885741691
 20
-1.0289434684
 10
-74.2352772033
 20
-0.9266771891
 10
-74.2793102006
 20
-0.8200578587
 10
-74.3209180062
 20
-0.7084757138
 10
-74.3615093484
 20
-0.5900229435
 10
-74.4013453419
 20
-0.4639679875
 10
-74.4383237579
 20
-0.3315678573
 10
-74.4699956279
 20
-0.1943547256
 10
-74.4948704282
 20
-0.0536830981
 10
-74.5125162368
 20
0.0901205078
 10
-74.5220324532
 20
0.2368382066
  0
LWPOLYLINE
  5
2B8
100
AcDbEntity
  8
0
100
AcDbPolyline
 62
7
  6
CONTINUOUS
 90
13
 70
0
 10
-70.3140492487
 20
0.3417601027
 10
-70.3499197721
 20
0.3550251185
 10
-70.3841510431
 20
0.3713941248
 10
-70.4167430617
 20
0.3908671215
 10
-70.4481916853
 20
0.4138785193
 10
-70.4780010564
 20
0.4399939076
 10
-70.5046836029
 20
0.4679100544
 10
-70.5280806478
 20
0.4977183426
 10
-70.5483508681
 20
0.5293273893
 10
-70.5644827221
 20
0.5611598132
 10
-70.5761390295
 20
0.5926898207
 10
-70.5836569706
 20
0.6244432055
 10
-70.5870365455
 20
0.6564199675
  0
LINE
  5
2B9
100
AcDbEntity
  8
DRAFT
100
AcDbLine
 62
7
  6
CONTINUOUS
 10
-70.2733575315
 20
0.3287767721
 11
-70.2248932625
 21
0.310829718
  0
LINE
  5
2BA
100
AcDbEntity
  8
DRAFT
100
AcDbLine
 62
7
  6
CONTINUOUS
 10
-55.95738779
 20
-3.2960471823
 11
-55.9047926172
 21
-3.3196785413
  0
LINE
  5
2BB
100
AcDbEntity
  8
DRAFT
100
AcDbLine
 62
7
  6
CONTINUOUS
 10
-55.7517269309
 20
-3.005109988
 11
-55.7010106956
 21
-3.027897128
  0
LINE
  5
2BC
100
AcDbEntity
  8
DRAFT
100
AcDbLine
 62
7
  6
CONTINUOUS
 10
-55.5460660719
 20
-2.7141727938
 11
-55.497228774
 21
-2.7361157148
  0
LWPOLYLINE
  5
2BD
100
AcDbEntity
  8
RACCORDO
100
AcDbPolyline
 62
250
  6
CONTINUOUS
 90
11
 70
0
 10
-91.4251384437
 20
24.5670872388
 10
-91.4857859979
 20
24.6031342328
 10
-91.5412904106
 20
24.6423530569
 10
-91.5912573417
 20
24.6844650746
 10
-91.6353317931
 20
24.7291710942
 10
-91.6732006307
 20
24.7761534947
 10
-91.7045948093
 20
24.825078482
 10
-91.7292912838
 20
24.8755984605
 10
-91.7471145941
 20
24.927354503
 10
-91.7579381116
 20
24.9799789002
 10
-91.7615632728
 20
25.0246039403
  0
LWPOLYLINE
  5
2BE
100
AcDbEntity
  8
RACCORDO
100
AcDbPolyline
 62
7
  6
CONTINUOUS
 90
3
 70
0
 10
-35.2673904137
 20
-8.6898038134
 10
-35.2616625787
 20
-8.6936442425
 10
-35.2611537887
 20
-8.702308164
  0
LINE
  5
2BF
100
AcDbEntity
  8
RACCORDO
100
AcDbLine
 62
250
  6
CONTINUOUS
 10
-15.2449685202
 20
-14.9104627433
 11
-15.2262673241
 21
-15.6622213951
  0
LINE
  5
2C0
100
AcDbEntity
  8
RACCORDO
100
AcDbLine
 62
7
  6
CONTINUOUS
 10
-15.2183567807
 20
-14.8569767537
 11
-15.2009979105
 21
-15.5547760197
  0
LWPOLYLINE
  5
2C1
100
AcDbEntity
  8
RACCORDO
100
AcDbPolyline
 62
250
  6
CONTINUOUS
 90
10
 70
0
 10
69.0219268593
 20
-9.9938537877
 10
69.3078177156
 20
-9.967906595
 10
69.5036923657
 20
-9.9583188775
 10
69.7000168078
 20
-9.9568165934
 10
69.8959502073
 20
-9.963406176
 10
70.0906534045
 20
-9.978059402
 10
70.2832925085
 20
-10.0007135124
 10
70.4730424686
 20
-10.0312714817
 10
70.6590906079
 20
-10.0696024325
 10
70.8406401042
 20
-10.1155421971
  0
LWPOLYLINE
  5
2C2
100
AcDbEntity
  8
RACCORDO
100
AcDbPolyline
 62
250
  6
CONTINUOUS
 90
16
 70
0
 10
90.3022476774
 20
-31.2396324718
 10
90.385223314
 20
-31.2476992616
 10
90.4691450001
 20
-31.2513072751
 10
90.5534165006
 20
-31.2504308784
 10
90.6374390949
 20
-31.2450762982
 10
90.720615831
 20
-31.235281577
 10
90.8023557663
 20
-31.2211163028
 10
90.8820781662
 20
-31.2026811151
 10
90.9592166301
 20
-31.1801069898
 10
91.0332231152
 20
-31.1535543084
 10
91.1035718305
 20
-31.1232117187
 10
91.1697629723
 20
-31.0892947944
 10
91.2313262748
 20
-31.052044504
 10
91.2878243515
 20
-31.011725498
 10
91.3388558029
 20
-30.9686242295
 10
91.3840580677
 20
-30.9230469182
  0
LWPOLYLINE
  5
2C3
100
AcDbEntity
  8
RACCORDO
100
AcDbPolyline
 62
250
  6
CONTINUOUS
 90
10
 70
0
 10
90.3022476766
 20
-31.2396324743
 10
87.9495388003
 20
-30.9249069115
 10
85.6780290964
 20
-30.5806239088
 10
83.4888110797
 20
-30.2105443757
 10
81.4038570204
 20
-29.822440737
 10
79.4056444414
 20
-29.4168830899
 10
77.4276925274
 20
-28.9823943053
 10
75.4421224041
 20
-28.5122980005
 10
73.3617713009
 20
-27.9820951526
 10
71.2750704224
 20
-27.4103984471
  0
LWPOLYLINE
  5
2C4
100
AcDbEntity
  8
RACCORDO
100
AcDbPolyline
 62
7
  6
CONTINUOUS
 90
5
 70
0
 10
-0.4065402331
 20
-19.39429676
 10
-0.4375494943
 20
-19.3875873924
 10
-0.4848201831
 20
-19.3869372905
 10
-0.5279314091
 20
-19.3974032193
 10
-0.5640697385
 20
-19.4188245313
  0
LWPOLYLINE
  5
2C5
100
AcDbEntity
  8
RACCORDO
100
AcDbPolyline
 62
7
  6
CONTINUOUS
 90
5
 70
0
 10
-20.4466058308
 20
-13.2401867622
 10
-20.4776150919
 20
-13.2334773946
 10
-20.5248857808
 20
-13.2328272928
 10
-20.5679970068
 20
-13.2432932215
 10
-20.6041353361
 20
-13.2647145335
  0
LWPOLYLINE
  5
2C6
100
AcDbEntity
  8
RACCORDO
100
AcDbPolyline
 62
7
  6
CONTINUOUS
 90
5
 70
0
 10
-40.4866714284
 20
-7.0860767645
 10
-40.5176806896
 20
-7.0793673969
 10
-40.5649513784
 20
-7.078717295
 10
-40.6080626044
 20
-7.0891832238
 10
-40.6442009338
 20
-7.1106045358
  0
LWPOLYLINE
  5
2C7
100
AcDbEntity
  8
RACCORDO
100
AcDbPolyline
 62
7
  6
CONTINUOUS
 90
5
 70
0
 10
19.6322957716
 20
-25.5489655751
 10
19.6009389828
 20
-25.5414176755
 10
19.5549239903
 20
-25.5400471912
 10
19.5108107237
 20
-25.5524515645
 10
19.4694402094
 20
-25.5801055887
  0
LINE
  5
2C8
100
AcDbEntity
  8
0
100
AcDbLine
 62
250
  6
CONTINUOUS
 10
-71.2679571508
 20
-0.853619664
 11
68.6562341999
 21
-43.8229832482
  0
LINE
  5
2C9
100
AcDbEntity
  8
DRAFT
100
AcDbLine
 62
7
  6
CONTINUOUS
 10
-70.2248932625
 20
0.310829718
 11
68.7688745125
 21
-42.3728098
  0
LINE
  5
2CA
100
AcDbEntity
  8
0
100
AcDbLine
 62
7
  6
CONTINUOUS
 10
68.7687854845
 20
-42.3692310153
 11
-70.3140492487
 21
0.3417601027
  0
LINE
  5
2CB
100
AcDbEntity
  8
DRAFT
100
AcDbLine
 62
7
  6
CONTINUOUS
 10
68.7544202621
 20
-41.7917716771
 11
-69.9089417972
 21
0.7904034466
  0
LINE
  5
2CC
100
AcDbEntity
  8
DRAFT
100
AcDbLine
 62
7
  6
CONTINUOUS
 10
64.1805127659
 20
-40.3656984654
 11
58.6542115231
 21
-38.6686248923
  0
LINE
  5
2CD
100
AcDbEntity
  8
DRAFT
100
AcDbLine
 62
7
  6
CONTINUOUS
 10
-61.5861820629
 20
-1.7439649058
 11
-56.0598808201
 21
-3.4410384789
  0
LINE
  5
2CE
100
AcDbEntity
  8
DRAFT
100
AcDbLine
 62
7
  6
CONTINUOUS
 10
64.283005796
 20
-40.2207071687
 11
58.7801717778
 21
-38.530840153
  0
LINE
  5
2CF
100
AcDbEntity
  8
DRAFT
100
AcDbLine
 62
7
  6
CONTINUOUS
 10
-61.4602218081
 20
-1.6061801665
 11
-55.95738779
 21
-3.2960471823
  0
LINE
  5
2D0
100
AcDbEntity
  8
DRAFT
100
AcDbLine
 62
7
  6
CONTINUOUS
 10
64.3826151291
 20
-40.0797952808
 11
58.9025880725
 21
-38.396932062
  0
LINE
  5
2D1
100
AcDbEntity
  8
DRAFT
100
AcDbLine
 62
7
  6
CONTINUOUS
 10
-61.3378055134
 20
-1.4722720756
 11
-55.8577784568
 21
-3.1551352944
  0
LINE
  5
2D2
100
AcDbEntity
  8
DRAFT
100
AcDbLine
 62
7
  6
CONTINUOUS
 10
64.488666655
 20
-39.9297699745
 11
59.0329215908
 21
-38.2543635203
  0
LINE
  5
2D3
100
AcDbEntity
  8
DRAFT
100
AcDbLine
 62
7
  6
CONTINUOUS
 10
-61.2074719952
 20
-1.3297035338
 11
-55.7517269309
 21
-3.005109988
  0
LINE
  5
2D4
100
AcDbEntity
  8
DRAFT
100
AcDbLine
 62
7
  6
CONTINUOUS
 10
64.5847174924
 20
-39.7938920963
 11
59.1509646219
 21
-38.1252392318
  0
LINE
  5
2D5
100
AcDbEntity
  8
DRAFT
100
AcDbLine
 62
7
  6
CONTINUOUS
 10
-61.089428964
 20
-1.2005792453
 11
-55.6556760935
 21
-2.8692321098
  0
LINE
  5
2D6
100
AcDbEntity
  8
DRAFT
100
AcDbLine
 62
7
  6
CONTINUOUS
 10
-60.9547221822
 20
-1.0532269011
 11
-55.5460660719
 21
-2.7141727938
  0
LINE
  5
2D7
100
AcDbEntity
  8
DRAFT
100
AcDbLine
 62
7
  6
CONTINUOUS
 10
64.694327514
 20
-39.6388327802
 11
59.2856714037
 21
-37.9778868876
  0
LINE
  5
2D8
100
AcDbEntity
  8
DRAFT
100
AcDbLine
 62
7
  6
CONTINUOUS
 10
64.7868198557
 20
-39.5079889118
 11
59.3993411714
 21
-37.8535464015
  0
LINE
  5
2D9
100
AcDbEntity
  8
DRAFT
100
AcDbLine
 62
7
  6
CONTINUOUS
 10
-60.8410524146
 20
-0.928886415
 11
-55.4535737303
 21
-2.5833289253
  0
LINE
  5
2DA
100
AcDbEntity
  8
RACCORDO
100
AcDbLine
 62
250
  6
CONTINUOUS
 10
-40.6507565836
 20
-7.1177755954
 11
-35.2903684069
 21
-8.7638988733
  0
LINE
  5
2DB
100
AcDbEntity
  8
RACCORDO
100
AcDbLine
 62
250
  6
CONTINUOUS
 10
-20.6106909859
 20
-13.2718855932
 11
-15.2503028093
 21
-14.918008871
  0
LINE
  5
2DC
100
AcDbEntity
  8
RACCORDO
100
AcDbLine
 62
250
  6
CONTINUOUS
 10
-0.5706253883
 20
-19.4259955909
 11
4.7897627884
 21
-21.0721188688
  0
LINE
  5
2DD
100
AcDbEntity
  8
RACCORDO
100
AcDbLine
 62
250
  6
CONTINUOUS
 10
19.4694402094
 20
-25.5801055887
 11
24.8298283861
 21
-27.2262288665
  0
LINE
  5
2DE
100
AcDbEntity
  8
RACCORDO
100
AcDbLine
 62
250
  6
CONTINUOUS
 10
39.5095058071
 20
-31.7342155864
 11
44.8698939837
 21
-33.3803388643
  0
LINE
  5
2DF
100
AcDbEntity
  8
RACCORDO
100
AcDbLine
 62
7
  6
CONTINUOUS
 10
-40.4871795119
 20
-7.0868562319
 11
-35.2686153879
 21
-8.6894267171
  0
LINE
  5
2E0
100
AcDbEntity
  8
RACCORDO
100
AcDbLine
 62
7
  6
CONTINUOUS
 10
-20.4471139142
 20
-13.2409662296
 11
-15.2285497902
 21
-14.8435367149
  0
LINE
  5
2E1
100
AcDbEntity
  8
RACCORDO
100
AcDbLine
 62
7
  6
CONTINUOUS
 10
-0.4070483166
 20
-19.3950762274
 11
4.8115158074
 21
-20.9976467126
  0
LINE
  5
2E2
100
AcDbEntity
  8
RACCORDO
100
AcDbLine
 62
7
  6
CONTINUOUS
 10
19.6330172811
 20
-25.5491862251
 11
24.8515814051
 21
-27.1517567104
  0
LINE
  5
2E3
100
AcDbEntity
  8
RACCORDO
100
AcDbLine
 62
7
  6
CONTINUOUS
 10
39.6730828787
 20
-31.7032962228
 11
44.8916470027
 21
-33.3058667081
  0
LINE
  5
2E4
100
AcDbEntity
  8
RACCORDO
100
AcDbLine
 62
250
  6
CONTINUOUS
 10
-60.6956441997
 20
-0.7698280436
 11
-55.335256023
 21
-2.4159513215
  0
LINE
  5
2E5
100
AcDbEntity
  8
RACCORDO
100
AcDbLine
 62
250
  6
CONTINUOUS
 10
59.5447493863
 20
-37.6944880301
 11
64.9051375629
 21
-39.340611308
  0
LINE
  5
2E6
100
AcDbEntity
  8
RACCORDO
100
AcDbLine
 62
7
  6
CONTINUOUS
 10
-60.532067128
 20
-0.7389086801
 11
-55.313503004
 21
-2.3414791653
  0
LINE
  5
2E7
100
AcDbEntity
  8
RACCORDO
100
AcDbLine
 62
7
  6
CONTINUOUS
 10
59.7083264579
 20
-37.6635686665
 11
64.9268905819
 21
-39.2661391518
  0
LWPOLYLINE
  5
2E8
100
AcDbEntity
  8
DRAFT
100
AcDbPolyline
 62
7
  6
CONTINUOUS
 90
10
 70
0
 10
-69.9089417972
 20
0.7904034466
 10
-69.9287616212
 20
0.7971247891
 10
-69.9490883133
 20
0.8053437626
 10
-69.9697909766
 20
0.815124187
 10
-69.9907008959
 20
0.8265057527
 10
-70.0116650016
 20
0.8395299165
 10
-70.0325410894
 20
0.8542480292
 10
-70.0531266142
 20
0.8706745658
 10
-70.0731645296
 20
0.8887731828
 10
-70.0923950749
 20
0.9084897315
  0
LWPOLYLINE
  5
2E9
100
AcDbEntity
  8
RACCORDO
100
AcDbPolyline
 62
250
  6
CONTINUOUS
 90
10
 70
0
 10
-91.4251384463
 20
24.5670872369
 10
-89.595132714
 20
23.5973416654
 10
-87.7764737322
 20
22.6855734901
 10
-85.9746449182
 20
21.8300412066
 10
-84.2129323915
 20
21.036870803
 10
-82.4814421407
 20
20.2970728443
 10
-80.7251512583
 20
19.5848118433
 10
-78.9185971158
 20
18.890383524
 10
-76.977523975
 20
18.185645946
 10
-74.9794112179
 20
17.5029359575
  0
LWPOLYLINE
  5
2EA
100
AcDbEntity
  8
RACCORDO
100
AcDbPolyline
 62
7
  6
CONTINUOUS
 90
3
 70
0
 10
-15.227324816
 20
-14.8439138111
 10
-15.221596981
 20
-14.8477542403
 10
-15.2210881911
 20
-14.8564181617
  0
LWPOLYLINE
  5
2EB
100
AcDbEntity
  8
RACCORDO
100
AcDbPolyline
 62
7
  6
CONTINUOUS
 90
3
 70
0
 10
4.8127407817
 20
-20.9980238089
 10
4.8184686167
 20
-21.001864238
 10
4.8189774066
 20
-21.0105281594
  0
LWPOLYLINE
  5
2EC
100
AcDbEntity
  8
RACCORDO
100
AcDbPolyline
 62
7
  6
CONTINUOUS
 90
4
 70
0
 10
-15.203710476
 20
-15.554974964
 10
-15.2044650417
 20
-15.5688794628
 10
-15.2135349828
 20
-15.6231210731
 10
-15.2315972089
 20
-15.6699445695
  0
LWPOLYLINE
  5
2ED
100
AcDbEntity
  8
RACCORDO
100
AcDbPolyline
 62
7
  6
CONTINUOUS
 90
4
 70
0
 10
-15.2210881911
 20
-14.8564181617
 10
-15.2220905204
 20
-14.8603629532
 10
-15.2319394721
 20
-14.8832895657
 10
-15.2503028093
 20
-14.918008871
  0
LWPOLYLINE
  5
2EE
100
AcDbEntity
  8
RACCORDO
100
AcDbPolyline
 62
7
  6
CONTINUOUS
 90
5
 70
0
 10
-60.5315590445
 20
-0.7381292127
 10
-60.5625683057
 20
-0.7314198451
 10
-60.6098389945
 20
-0.7307697432
 10
-60.6529502205
 20
-0.741235672
 10
-60.6890885499
 20
-0.762656984
  0
LINE
  5
2EF
100
AcDbEntity
  8
DRAFT
100
AcDbLine
 62
7
  6
CONTINUOUS
 10
64.283005796
 20
-40.2207071687
 11
64.3356009687
 21
-40.2443385277
  0
LINE
  5
2F0
100
AcDbEntity
  8
DRAFT
100
AcDbLine
 62
7
  6
CONTINUOUS
 10
64.488666655
 20
-39.9297699745
 11
64.5393828903
 21
-39.9525571145
  0
LINE
  5
2F1
100
AcDbEntity
  8
DRAFT
100
AcDbLine
 62
7
  6
CONTINUOUS
 10
64.694327514
 20
-39.6388327802
 11
64.743164812
 21
-39.6607757012
  0
LWPOLYLINE
  5
2F2
100
AcDbEntity
  8
RACCORDO
100
AcDbPolyline
 62
7
  6
CONTINUOUS
 90
3
 70
0
 10
24.8514142091
 20
-27.1507698712
 10
24.8582755616
 20
-27.1556902021
 10
24.861829262
 20
-27.1674569854
  0
LINE
  5
2F3
100
AcDbEntity
  8
RACCORDO
100
AcDbLine
 62
7
  6
CONTINUOUS
 10
-15.2262673241
 20
-15.6622213951
 11
-15.4198157426
 21
-15.9426792764
  0
LINE
  5
2F4
100
AcDbEntity
  8
0
100
AcDbLine
 62
7
  6
CONTINUOUS
 10
-15.2503028093
 20
-14.918008871
 11
-15.8756753092
 21
-15.8026892199
  0
LINE
  5
2F5
100
AcDbEntity
  8
0
100
AcDbLine
 62
7
  6
CONTINUOUS
 10
-20.6041353361
 20
-13.2647145335
 11
-21.3792513388
 21
-14.1125943396
  0
LINE
  5
2F6
100
AcDbEntity
  8
RACCORDO
100
AcDbLine
 62
250
  6
CONTINUOUS
 10
92.915670684
 20
-32.0603644305
 11
92.6962871069
 21
-31.9929938594
  0
LINE
  5
2F7
100
AcDbEntity
  8
RACCORDO
100
AcDbLine
 62
250
  6
CONTINUOUS
 10
92.6729641555
 20
-31.2991220248
 11
93.484844492
 21
-31.5484426106
  0
LINE
  5
2F8
100
AcDbEntity
  8
RACCORDO
100
AcDbLine
 62
7
  6
CONTINUOUS
 10
92.6705734252
 20
-31.2030184286
 11
93.6243065741
 21
-31.4959006389
  0
LWPOLYLINE
  5
2F9
100
AcDbEntity
  8
RACCORDO
100
AcDbPolyline
 62
7
  6
CONTINUOUS
 90
3
 70
0
 10
44.892871977
 20
-33.3062438043
 10
44.898599812
 20
-33.3100842335
 10
44.8991086019
 20
-33.3187481549
  0
LINE
  5
2FA
100
AcDbEntity
  8
RACCORDO
100
AcDbLine
 62
250
  6
CONTINUOUS
 10
4.7950970775
 20
-21.0645727411
 11
4.8137982735
 21
-21.8163313928
  0
LINE
  5
2FB
100
AcDbEntity
  8
RACCORDO
100
AcDbLine
 62
7
  6
CONTINUOUS
 10
4.821708817
 20
-21.0110867514
 11
4.8390676872
 21
-21.7088860174
  0
LWPOLYLINE
  5
2FC
100
AcDbEntity
  8
RACCORDO
100
AcDbPolyline
 62
7
  6
CONTINUOUS
 90
4
 70
0
 10
4.8363551217
 20
-21.7090849617
 10
4.8356005559
 20
-21.7229894605
 10
4.8265306149
 20
-21.7772310708
 10
4.8084683887
 20
-21.8240545672
  0
LWPOLYLINE
  5
2FD
100
AcDbEntity
  8
RACCORDO
100
AcDbPolyline
 62
250
  6
CONTINUOUS
 90
17
 70
0
 10
-72.4526262641
 20
34.0116197053
 10
-72.4818282532
 20
34.024585376
 10
-72.5100031331
 20
34.046118001
 10
-72.5351824233
 20
34.0755160358
 10
-72.5571511942
 20
34.1125285394
 10
-72.5757219206
 20
34.1568395738
 10
-72.5907360835
 20
34.2080709013
 10
-72.6020655221
 20
34.2657852123
 10
-72.6096135288
 20
34.329489859
 10
-72.613315674
 20
34.3986410599
 10
-72.6131403561
 20
34.4726485421
 10
-72.6090890703
 20
34.5508805979
 10
-72.6011963979
 20
34.6326694235
 10
-72.58952972
 20
34.7173168121
 10
-72.5741886345
 20
34.8041001911
 10
-72.5553040973
 20
34.8922787971
 10
-72.5330373129
 20
34.9810999408
  0
LWPOLYLINE
  5
2FE
100
AcDbEntity
  8
RACCORDO
100
AcDbPolyline
 62
7
  6
CONTINUOUS
 90
3
 70
0
 10
64.9281155562
 20
-39.266516248
 10
64.9338433912
 20
-39.2703566772
 10
64.9343521811
 20
-39.2790205986
  0
LWPOLYLINE
  5
2FF
100
AcDbEntity
  8
RACCORDO
100
AcDbPolyline
 62
7
  6
CONTINUOUS
 90
4
 70
0
 10
4.8189774066
 20
-21.0105281594
 10
4.8179750772
 20
-21.014472951
 10
4.8081261256
 20
-21.0373995635
 10
4.7897627884
 20
-21.0721188688
  0
LINE
  5
300
100
AcDbEntity
  8
RACCORDO
100
AcDbLine
 62
7
  6
CONTINUOUS
 10
4.8137982735
 20
-21.8163313928
 11
4.620249855
 21
-22.0967892742
  0
LINE
  5
301
100
AcDbEntity
  8
0
100
AcDbLine
 62
7
  6
CONTINUOUS
 10
4.7897627884
 20
-21.0721188688
 11
4.1643902885
 21
-21.9567992177
  0
LINE
  5
302
100
AcDbEntity
  8
0
100
AcDbLine
 62
7
  6
CONTINUOUS
 10
-0.5640697385
 20
-19.4188245313
 11
-1.3391857412
 21
-20.2667043374
  0
LWPOLYLINE
  5
303
100
AcDbEntity
  8
RACCORDO
100
AcDbPolyline
 62
250
  6
CONTINUOUS
 90
16
 70
0
 10
89.4972680915
 20
-2.4340539629
 10
89.5869137837
 20
-2.4523648244
 10
89.6790255722
 20
-2.4654441835
 10
89.77277845
 20
-2.4731748946
 10
89.8673327117
 20
-2.4754877176
 10
89.9618414741
 20
-2.4723619381
 10
90.0554582615
 20
-2.4638255528
 10
90.1473445875
 20
-2.4499550191
 10
90.2366774643
 20
-2.4308745697
 10
90.3226567748
 20
-2.4067551007
 10
90.4045124378
 20
-2.3778126401
 10
90.4815113065
 20
-2.3443064136
 10
90.5529637339
 20
-2.3065365226
 10
90.6182297505
 20
-2.2648412562
 10
90.6767247956
 20
-2.2195940615
 10
90.7279249536
 20
-2.1712001986
  0
LWPOLYLINE
  5
304
100
AcDbEntity
  8
0
100
AcDbPolyline
 62
7
  6
CONTINUOUS
 90
7
 70
0
 10
-72.4526262641
 20
34.0116197053
 10
-72.4773739193
 20
34.0185394267
 10
-72.4988352874
 20
34.0233418116
 10
-72.516653517
 20
34.0263324457
 10
-72.5305578363
 20
34.0278814513
 10
-72.5403367312
 20
34.0284095342
 10
-72.5426352062
 20
34.0284380816
  0
LINE
  5
305
100
AcDbEntity
  8
RACCORDO
100
AcDbLine
 62
250
  6
CONTINUOUS
 10
-72.2791022685
 20
36.5437330956
 11
-69.4412979474
 21
35.6801034415
  0
LINE
  5
306
100
AcDbEntity
  8
RACCORDO
100
AcDbLine
 62
250
  6
CONTINUOUS
 10
-69.4412979474
 20
35.6801034415
 11
-62.8952385036
 21
33.6777295731
  0
LINE
  5
307
100
AcDbEntity
  8
0
100
AcDbLine
 62
7
  6
CONTINUOUS
 10
67.4715650867
 20
-8.957743879
 11
-72.4526262641
 21
34.0116197053
  0
LINE
  5
308
100
AcDbEntity
  8
RACCORDO
100
AcDbLine
 62
250
  6
CONTINUOUS
 10
57.993411644
 20
-5.1031468641
 11
61.3946599065
 21
-6.1488511707
  0
LINE
  5
309
100
AcDbEntity
  8
RACCORDO
100
AcDbLine
 62
250
  6
CONTINUOUS
 10
61.3946599065
 20
-6.1488511707
 11
67.3911540378
 21
-7.9882636435
  0
LINE
  5
30A
100
AcDbEntity
  8
RACCORDO
100
AcDbLine
 62
250
  6
CONTINUOUS
 10
-62.8952384586
 20
33.6777290759
 11
60.531331441
 21
-4.2279734341
  0
LINE
  5
30B
100
AcDbEntity
  8
RACCORDO
100
AcDbLine
 62
250
  6
CONTINUOUS
 10
-72.5330373129
 20
34.9810999408
 11
57.993411644
 21
-5.1031468641
  0
LWPOLYLINE
  5
30C
100
AcDbEntity
  8
RACCORDO
100
AcDbPolyline
 62
250
  6
CONTINUOUS
 90
3
 70
0
 10
60.531331441
 20
-4.2279734341
 10
66.705831695
 20
-6.1334040893
 10
67.6197216243
 20
-6.4178402548
  0
LWPOLYLINE
  5
30D
100
AcDbEntity
  8
RACCORDO
100
AcDbPolyline
 62
250
  6
CONTINUOUS
 90
61
 70
0
 10
67.3911540378
 20
-7.9882636435
 10
67.4450438738
 20
-8.0053538342
 10
67.4972160927
 20
-8.0234065462
 10
67.547618383
 20
-8.0422698982
 10
67.596113651
 20
-8.0617733561
 10
67.6427623231
 20
-8.0817980227
 10
67.6878212787
 20
-8.1022983834
 10
67.7313251208
 20
-8.1232100278
 10
67.7732042503
 20
-8.1443876049
 10
67.813570853
 20
-8.1656982469
 10
67.8525935975
 20
-8.187119506
 10
67.8901037914
 20
-8.2085100475
 10
67.925724688
 20
-8.229551988
 10
67.9592168531
 20
-8.2499862753
 10
67.9908611499
 20
-8.269884743
 10
68.0210650592
 20
-8.2894320364
 10
68.0498127477
 20
-8.3085500867
 10
68.0771535832
 20
-8.3272023028
 10
68.1035758679
 20
-8.3456765233
 10
68.1291283212
 20
-8.363969798
 10
68.1537801263
 20
-8.3820237788
 10
68.1778827717
 20
-8.4000755101
 10
68.2014986776
 20
-8.4181436496
 10
68.224570554
 20
-8.4361781762
 10
68.2472575378
 20
-8.4543307076
 10
68.2693313149
 20
-8.4724104745
 10
68.2910213569
 20
-8.4905829581
 10
68.3131457738
 20
-8.5095643378
 10
68.335777079
 20
-8.5294651402
 10
68.3587890706
 20
-8.5502056562
 10
68.3826603588
 20
-8.5722574739
 10
68.4075462568
 20
-8.5958569362
 10
68.43318492
 20
-8.6208319046
 10
68.4594137742
 20
-8.6470534573
 10
68.4861776408
 20
-8.674532327
 10
68.513421157
 20
-8.7033056171
 10
68.5409888605
 20
-8.7332751424
 10
68.5687188383
 20
-8.7643380969
 10
68.596657319
 20
-8.7966265684
 10
68.624948303
 20
-8.8303967343
 10
68.6535185756
 20
-8.8656814857
 10
68.6822680461
 20
-8.902482736
 10
68.7112654172
 20
-8.9410206086
 10
68.7404117067
 20
-8.9813350816
 10
68.7695675777
 20
-9.0234116165
 10
68.7987065852
 20
-9.0673923281
 10
68.8276556949
 20
-9.1132447497
 10
68.8562837187
 20
-9.1609988218
 10
68.8845818266
 20
-9.2108899521
 10
68.9123118839
 20
-9.2628338036
 10
68.9393063109
 20
-9.316870097
 10
68.9655768199
 20
-9.373417247
 10
68.9909588416
 20
-9.4325984981
 10
69.0150156403
 20
-9.494176737
 10
69.0372876597
 20
-9.5580003045
 10
69.0573789736
 20
-9.6236818151
 10
69.0750471721
 20
-9.6913469253
 10
69.089951772
 20
-9.7615464302
 10
69.101616185
 20
-9.8342878848
 10
69.1095418978
 20
-9.9090570608
 10
69.1132318023
 20
-9.9855388218
  0
LWPOLYLINE
  5
30E
100
AcDbEntity
  8
RACCORDO
100
AcDbPolyline
 62
250
  6
CONTINUOUS
 90
61
 70
0
 10
67.619720748
 20
-6.4178412474
 10
67.7241629882
 20
-6.4520442027
 10
67.825156854
 20
-6.4881621156
 10
67.9226088202
 20
-6.5258664461
 10
68.0163225059
 20
-6.5649658066
 10
68.1062936843
 20
-6.6050447607
 10
68.1927614316
 20
-6.6454870905
 10
68.2755994825
 20
-6.6857052691
 10
68.3543144343
 20
-6.7252725953
 10
68.4285919766
 20
-6.7637944004
 10
68.4988309536
 20
-6.8010526239
 10
68.5656473739
 20
-6.8373284651
 10
68.6292926148
 20
-6.8731577027
 10
68.6895661186
 20
-6.9084486172
 10
68.7466946895
 20
-6.9429762348
 10
68.8012975908
 20
-6.9769824531
 10
68.8533164912
 20
-7.0103214169
 10
68.9028647603
 20
-7.0429602965
 10
68.9508440703
 20
-7.0754059875
 10
68.9972711246
 20
-7.1075727376
 10
69.0420493156
 20
-7.139341031
 10
69.0858637262
 20
-7.1712127421
 10
69.1289295067
 20
-7.2033661594
 10
69.1716287831
 20
-7.2361247569
 10
69.2149961262
 20
-7.2703778073
 10
69.2587852066
 20
-7.3061102849
 10
69.3026405787
 20
-7.3429493716
 10
69.3472008844
 20
-7.3811524758
 10
69.3922659125
 20
-7.4205141449
 10
69.4376409215
 20
-7.4610157029
 10
69.4840147832
 20
-7.5033181329
 10
69.5316392163
 20
-7.5476699538
 10
69.5800587852
 20
-7.5937797921
 10
69.6288662523
 20
-7.6414906395
 10
69.6779562131
 20
-7.6907987996
 10
69.7275488996
 20
-7.7420030601
 10
69.7777877062
 20
-7.7954680876
 10
69.8285667737
 20
-7.8512280566
 10
69.8798459103
 20
-7.9093666846
 10
69.9317757591
 20
-7.9702789205
 10
69.9841916518
 20
-8.0339774632
 10
70.036928484
 20
-8.100481743
 10
70.0900867997
 20
-8.1702239267
 10
70.1435068813
 20
-8.2432707773
 10
70.1969202772
 20
-8.3195679439
 10
70.2501928948
 20
-8.3993546054
 10
70.3030179151
 20
-8.4825600245
 10
70.3551689195
 20
-8.5692634212
 10
70.4065519163
 20
-8.6599294265
 10
70.456695227
 20
-8.7542793935
 10
70.505274725
 20
-8.8521512705
 10
70.5522416431
 20
-8.9540868664
 10
70.5966909191
 20
-9.0601845416
 10
70.638780077
 20
-9.1711634847
 10
70.6799251381
 20
-9.288922368
 10
70.7204199974
 20
-9.4141516731
 10
70.7580527605
 20
-9.5457318151
 10
70.7901167732
 20
-9.6824535372
 10
70.8149157703
 20
-9.8232201567
 10
70.83203904
 20
-9.9676785768
 10
70.8406342067
 20
-10.1155504795
  0
LWPOLYLINE
  5
30F
100
AcDbEntity
  8
RACCORDO
100
AcDbPolyline
 62
250
  6
CONTINUOUS
 90
12
 70
0
 10
-91.9686045384
 20
53.2923553745
 10
-92.0457579027
 20
53.3252662767
 10
-92.1173845679
 20
53.3624689176
 10
-92.1828429936
 20
53.4036300821
 10
-92.2415468868
 20
53.4483810999
 10
-92.2929704529
 20
53.4963211475
 10
-92.3366531052
 20
53.5470208378
 10
-92.3722035902
 20
53.6000260666
 10
-92.3993034921
 20
53.6548620795
 10
-92.4177100846
 20
53.7110377244
 10
-92.4272585047
 20
53.7680498504
 10
-92.4286965771
 20
53.7986874114
  0
LWPOLYLINE
  5
310
100
AcDbEntity
  8
RACCORDO
100
AcDbPolyline
 62
250
  6
CONTINUOUS
 90
10
 70
0
 10
58.9270485577
 20
-42.6338816403
 10
58.9806025901
 20
-42.6927465668
 10
59.0295918435
 20
-42.7627745342
 10
59.0738144057
 20
-42.8436766684
 10
59.1130880325
 20
-42.9351192277
 10
59.1472508994
 20
-43.0367249792
 10
59.1761622695
 20
-43.1480747561
 10
59.199703074
 20
-43.2687091865
 10
59.2177764035
 20
-43.398130589
 10
59.2303079082
 20
-43.5358050268
  0
LINE
  5
311
100
AcDbEntity
  8
RACCORDO
100
AcDbLine
 62
250
  6
CONTINUOUS
 10
24.8351626752
 20
-27.2186827388
 11
24.8538638712
 21
-27.9704413906
  0
LINE
  5
312
100
AcDbEntity
  8
RACCORDO
100
AcDbLine
 62
7
  6
CONTINUOUS
 10
24.8617744147
 20
-27.1651967492
 11
24.8791332848
 21
-27.8629960152
  0
LWPOLYLINE
  5
313
100
AcDbEntity
  8
RACCORDO
100
AcDbPolyline
 62
250
  6
CONTINUOUS
 90
17
 70
0
 10
67.4715650867
 20
-8.957743879
 10
67.4423633094
 20
-8.9447783338
 10
67.4141884301
 20
-8.923245786
 10
67.3890091339
 20
-8.8938478394
 10
67.3670403503
 20
-8.8568354335
 10
67.348469604
 20
-8.8125245051
 10
67.3334554142
 20
-8.7612932904
 10
67.3221259414
 20
-8.7035790972
 10
67.3145778936
 20
-8.6398745718
 10
67.3108757007
 20
-8.5707234935
 10
67.3110509644
 20
-8.4967161334
 10
67.3151021859
 20
-8.4184842538
 10
67.3229947832
 20
-8.3366956043
 10
67.3346614049
 20
-8.2520482059
 10
67.3500024891
 20
-8.1652645545
 10
67.368887095
 20
-8.0770854685
 10
67.4366098583
 20
-7.804705428
  0
LWPOLYLINE
  5
314
100
AcDbEntity
  8
RACCORDO
100
AcDbPolyline
 62
250
  6
CONTINUOUS
 90
10
 70
0
 10
68.3248158221
 20
-45.5199951873
 10
68.3762668229
 20
-45.5774737947
 10
68.4232727297
 20
-45.6458580181
 10
68.4656442161
 20
-45.7248724145
 10
68.5032106227
 20
-45.8141987231
 10
68.5358206448
 20
-45.9134771478
 10
68.5633429414
 20
-46.0223078062
 10
68.5856666647
 20
-46.1402523401
 10
68.6027019062
 20
-46.2668356815
 10
68.614380059
 20
-46.4015479661
  0
LWPOLYLINE
  5
315
100
AcDbEntity
  8
RACCORDO
100
AcDbPolyline
 62
7
  6
CONTINUOUS
 90
4
 70
0
 10
24.861829262
 20
-27.1674569854
 10
24.8617112062
 20
-27.170611524
 10
24.8545069123
 20
-27.1921041238
 10
24.8351626752
 20
-27.2186827388
  0
LWPOLYLINE
  5
316
100
AcDbEntity
  8
RACCORDO
100
AcDbPolyline
 62
7
  6
CONTINUOUS
 90
4
 70
0
 10
24.8764207193
 20
-27.8631949595
 10
24.8756661536
 20
-27.8770994583
 10
24.8665962125
 20
-27.9313410686
 10
24.8485339864
 20
-27.978164565
  0
LINE
  5
317
100
AcDbEntity
  8
0
100
AcDbLine
 62
7
  6
CONTINUOUS
 10
19.4759958592
 20
-25.572934529
 11
18.7008798565
 21
-26.4208143351
  0
LWPOLYLINE
  5
318
100
AcDbEntity
  8
RACCORDO
100
AcDbPolyline
 62
250
  6
CONTINUOUS
 90
28
 70
0
 10
-90.3592035803
 20
54.21425727
 10
-90.4486016366
 20
54.2395531318
 10
-90.5386572062
 20
54.2605049686
 10
-90.6290257141
 20
54.2769012865
 10
-90.7195903564
 20
54.2885833065
 10
-90.8098084202
 20
54.2953431536
 10
-90.8987234035
 20
54.2970222027
 10
-90.9859071462
 20
54.2935884402
 10
-91.071172071
 20
54.2850291232
 10
-91.1539681175
 20
54.2713743242
 10
-91.2339127825
 20
54.2526936463
 10
-91.3108541255
 20
54.2290499774
 10
-91.3846015967
 20
54.2004970708
 10
-91.45495043
 20
54.1670811651
 10
-91.5216084336
 20
54.12893019
 10
-91.5842615283
 20
54.0862289371
 10
-91.6426623121
 20
54.0391566584
 10
-91.6966873064
 20
53.9878452516
 10
-91.7462214751
 20
53.9324232589
 10
-91.791146675
 20
53.8729880814
 10
-91.8312572946
 20
53.8097915524
 10
-91.8663519796
 20
53.7432261586
 10
-91.896396131
 20
53.6734278419
 10
-91.9212737651
 20
53.6007292203
 10
-91.9408387989
 20
53.5259147656
 10
-91.9551522618
 20
53.4494682774
 10
-91.9643633797
 20
53.371509356
 10
-91.9686028538
 20
53.2923569722
  0
LINE
  5
319
100
AcDbEntity
  8
RACCORDO
100
AcDbLine
 62
250
  6
CONTINUOUS
 10
-89.7835161482
 20
54.0445863566
 11
-89.9222061632
 21
54.0836635706
  0
LINE
  5
31A
100
AcDbEntity
  8
RACCORDO
100
AcDbLine
 62
250
  6
CONTINUOUS
 10
88.2099889631
 20
0.739799785
 11
87.9716871404
 21
0.8081496098
  0
LINE
  5
31B
100
AcDbEntity
  8
RACCORDO
100
AcDbLine
 62
250
  6
CONTINUOUS
 10
-89.9222061632
 20
54.0836635706
 11
-90.0640018975
 21
54.1250728573
  0
LINE
  5
31C
100
AcDbEntity
  8
RACCORDO
100
AcDbLine
 62
250
  6
CONTINUOUS
 10
87.9716871404
 20
0.8081496098
 11
87.7458841743
 21
0.8743113861
  0
LWPOLYLINE
  5
31D
100
AcDbEntity
  8
RACCORDO
100
AcDbPolyline
 62
250
  6
CONTINUOUS
 90
20
 70
0
 10
-89.9239274605
 20
55.4429997649
 10
-90.0609342183
 20
55.4836718393
 10
-90.1988213102
 20
55.5176155468
 10
-90.33711721
 20
55.5445174178
 10
-90.4756504042
 20
55.5641105702
 10
-90.6135700442
 20
55.5760493009
 10
-90.7494005741
 20
55.5800893254
 10
-90.8824749445
 20
55.5761683833
 10
-91.0124898617
 20
55.5642505036
 10
-91.1386000438
 20
55.5443979689
 10
-91.2602156736
 20
55.5167291812
 10
-91.377084886
 20
55.4813232616
 10
-91.4889104942
 20
55.4382683087
 10
-91.5953753444
 20
55.387655904
 10
-91.6960065633
 20
55.3296743221
 10
-91.7903120078
 20
55.2646045513
 10
-91.8779093973
 20
55.1927494633
 10
-91.9585917108
 20
55.1143179586
 10
-92.032172404
 20
55.0294962659
 10
-92.0871918337
 20
54.9551354682
  0
LINE
  5
31E
100
AcDbEntity
  8
RACCORDO
100
AcDbLine
 62
250
  6
CONTINUOUS
 10
84.6474085155
 20
1.8072000906
 11
77.882408659
 21
3.8240804312
  0
LINE
  5
31F
100
AcDbEntity
  8
RACCORDO
100
AcDbLine
 62
250
  6
CONTINUOUS
 10
-90.0640018975
 20
54.1250728573
 11
-90.2095047274
 21
54.1685559158
  0
LINE
  5
320
100
AcDbEntity
  8
RACCORDO
100
AcDbLine
 62
250
  6
CONTINUOUS
 10
85.2135222782
 20
1.6372172772
 11
84.6474085155
 21
1.8072000906
  0
LINE
  5
321
100
AcDbEntity
  8
RACCORDO
100
AcDbLine
 62
250
  6
CONTINUOUS
 10
77.882408659
 20
3.8240804312
 11
72.6524014565
 21
5.3941399751
  0
LWPOLYLINE
  5
322
100
AcDbEntity
  8
RACCORDO
100
AcDbPolyline
 62
250
  6
CONTINUOUS
 90
3
 70
0
 10
87.7458841743
 20
0.8743113861
 10
87.4545550403
 20
0.9617516348
 10
85.2135222782
 20
1.6372172772
  0
LINE
  5
323
100
AcDbEntity
  8
RACCORDO
100
AcDbLine
 62
250
  6
CONTINUOUS
 10
72.6524014565
 20
5.3941399751
 11
69.6857105171
 21
6.2901295649
  0
LINE
  5
324
100
AcDbEntity
  8
RACCORDO
100
AcDbLine
 62
250
  6
CONTINUOUS
 10
-79.1881046686
 20
50.8261374714
 11
-81.730921621
 21
51.5922766999
  0
LINE
  5
325
100
AcDbEntity
  8
RACCORDO
100
AcDbLine
 62
250
  6
CONTINUOUS
 10
69.6857105171
 20
6.2901295649
 11
67.0195022602
 21
7.1019716777
  0
LINE
  5
326
100
AcDbEntity
  8
RACCORDO
100
AcDbLine
 62
250
  6
CONTINUOUS
 10
-90.2095047274
 20
54.1685559158
 11
-90.3592043779
 21
54.2142564625
  0
LINE
  5
327
100
AcDbEntity
  8
RACCORDO
100
AcDbLine
 62
250
  6
CONTINUOUS
 10
-81.730921621
 20
51.5922766999
 11
-85.8200842259
 21
52.8356782161
  0
LINE
  5
328
100
AcDbEntity
  8
SUPERFICI
100
AcDbLine
 62
7
  6
CONTINUOUS
 10
-87.9463182431
 20
58.1040497497
 11
90.1875981805
 21
3.4008497698
  0
LWPOLYLINE
  5
329
100
AcDbEntity
  8
RACCORDO
100
AcDbPolyline
 62
250
  6
CONTINUOUS
 90
4
 70
0
 10
-85.8200842259
 20
52.8356782161
 10
-89.6437158503
 20
54.0036056514
 10
-89.7138280357
 20
54.0246080113
 10
-89.7835161482
 20
54.0445863566
  0
LINE
  5
32A
100
AcDbEntity
  8
RACCORDO
100
AcDbLine
 62
250
  6
CONTINUOUS
 10
-61.8996350572
 20
45.5532753929
 11
-64.4262842622
 21
46.3305861662
  0
LINE
  5
32B
100
AcDbEntity
  8
RACCORDO
100
AcDbLine
 62
250
  6
CONTINUOUS
 10
-64.4262842622
 20
46.3305861662
 11
-79.1881046686
 21
50.8261374714
  0
LINE
  5
32C
100
AcDbEntity
  8
RACCORDO
100
AcDbLine
 62
250
  6
CONTINUOUS
 10
67.0195022602
 20
7.1019716777
 11
-69.3260836516
 21
48.9729994019
  0
LINE
  5
32D
100
AcDbEntity
  8
RACCORDO
100
AcDbLine
 62
250
  6
CONTINUOUS
 10
87.823700187
 20
-0.5039866552
 11
87.6595262209
 21
-0.453259401
  0
LINE
  5
32E
100
AcDbEntity
  8
RACCORDO
100
AcDbLine
 62
250
  6
CONTINUOUS
 10
71.5773339636
 20
4.5482619707
 11
-61.8997552875
 21
45.5533123112
  0
LINE
  5
32F
100
AcDbEntity
  8
RACCORDO
100
AcDbLine
 62
250
  6
CONTINUOUS
 10
-69.3260836516
 20
48.9729994019
 11
-71.8993884813
 21
49.7709109593
  0
LINE
  5
330
100
AcDbEntity
  8
RACCORDO
100
AcDbLine
 62
250
  6
CONTINUOUS
 10
82.1088765561
 20
1.2693185729
 11
79.0492814204
 21
2.2186654721
  0
LINE
  5
331
100
AcDbEntity
  8
RACCORDO
100
AcDbLine
 62
250
  6
CONTINUOUS
 10
-71.8993884813
 20
49.7709109593
 11
-75.3889893447
 21
50.8617260345
  0
LINE
  5
332
100
AcDbEntity
  8
RACCORDO
100
AcDbLine
 62
250
  6
CONTINUOUS
 10
79.0492814204
 20
2.2186654721
 11
71.5773339636
 21
4.5482619707
  0
LINE
  5
333
100
AcDbEntity
  8
RACCORDO
100
AcDbLine
 62
250
  6
CONTINUOUS
 10
-85.9628797709
 20
54.1967780978
 11
-89.4993458451
 21
55.3049195589
  0
LWPOLYLINE
  5
334
100
AcDbEntity
  8
RACCORDO
100
AcDbPolyline
 62
250
  6
CONTINUOUS
 90
3
 70
0
 10
-75.3889893447
 20
50.8617260345
 10
-81.0033752195
 20
52.6284941861
 10
-85.9628797709
 20
54.1967780978
  0
LINE
  5
335
100
AcDbEntity
  8
RACCORDO
100
AcDbLine
 62
250
  6
CONTINUOUS
 10
87.6595262209
 20
-0.453259401
 11
87.5006639964
 21
-0.4030208283
  0
LINE
  5
336
100
AcDbEntity
  8
RACCORDO
100
AcDbLine
 62
250
  6
CONTINUOUS
 10
-89.4993458451
 20
55.3049195589
 11
-89.7067276819
 21
55.3717492907
  0
LINE
  5
337
100
AcDbEntity
  8
RACCORDO
100
AcDbLine
 62
250
  6
CONTINUOUS
 10
87.5006639964
 20
-0.4030208283
 11
87.3461903662
 21
-0.3530834314
  0
LINE
  5
338
100
AcDbEntity
  8
RACCORDO
100
AcDbLine
 62
250
  6
CONTINUOUS
 10
-89.7067276819
 20
55.3717492907
 11
-89.9239274605
 21
55.4429997649
  0
LWPOLYLINE
  5
339
100
AcDbEntity
  8
RACCORDO
100
AcDbPolyline
 62
250
  6
CONTINUOUS
 90
4
 70
0
 10
87.3461903662
 20
-0.3530834314
 10
87.197373762
 20
-0.3040399479
 10
87.123649437
 20
-0.280085688
 10
82.1088765561
 20
1.2693185729
  0
LINE
  5
33A
100
AcDbEntity
  8
RACCORDO
100
AcDbLine
 62
7
  6
CONTINUOUS
 10
24.8538638712
 20
-27.9704413906
 11
24.6603154527
 21
-28.2508992719
  0
LINE
  5
33B
100
AcDbEntity
  8
0
100
AcDbLine
 62
7
  6
CONTINUOUS
 10
24.8298283861
 20
-27.2262288665
 11
24.2044558862
 21
-28.1109092154
  0
LWPOLYLINE
  5
33C
100
AcDbEntity
  8
SUPERFICI
100
AcDbPolyline
 62
7
  6
CONTINUOUS
 90
19
 70
0
 10
90.1875981805
 20
3.4008497698
 10
90.4237389936
 20
3.3189709785
 10
90.6550223253
 20
3.2217046105
 10
90.8814481756
 20
3.1090506659
 10
91.1046481914
 20
2.9799216488
 10
91.3229907259
 20
2.8354050551
 10
91.5315808382
 20
2.6787633723
 10
91.7301982425
 20
2.5097273722
 10
91.9190632248
 20
2.3285662831
 10
92.0939417024
 20
2.1393502766
 10
92.2545211761
 20
1.9418993825
 10
92.4011141452
 20
1.736393571
 10
92.5304240249
 20
1.5274429242
 10
92.6420658096
 20
1.3149680819
 10
92.7364245049
 20
1.0990484042
 10
92.8113585432
 20
0.8845320532
 10
92.8661540686
 20
0.6730350827
 10
92.901524937
 20
0.4629414388
 10
92.9174711483
 20
0.2542511215
  0
LWPOLYLINE
  5
33D
100
AcDbEntity
  8
RACCORDO
100
AcDbPolyline
 62
250
  6
CONTINUOUS
 90
6
 70
0
 10
60.7396365784
 20
-52.2725093536
 10
60.7582726636
 20
-52.3216386975
 10
60.7808028424
 20
-52.3626422192
 10
60.8070099555
 20
-52.3951251651
 10
60.836646182
 20
-52.4187762447
 10
60.8676700011
 20
-52.4328413834
  0
LINE
  5
33E
100
AcDbEntity
  8
RACCORDO
100
AcDbLine
 62
250
  6
CONTINUOUS
 10
44.8752282728
 20
-33.3727927366
 11
44.8939294688
 21
-34.1245513883
  0
LINE
  5
33F
100
AcDbEntity
  8
RACCORDO
100
AcDbLine
 62
7
  6
CONTINUOUS
 10
44.9018400123
 20
-33.3193067469
 11
44.9191988825
 21
-34.0171060129
  0
LWPOLYLINE
  5
340
100
AcDbEntity
  8
RACCORDO
100
AcDbPolyline
 62
7
  6
CONTINUOUS
 90
4
 70
0
 10
44.916486317
 20
-34.0173049572
 10
44.9157317512
 20
-34.031209456
 10
44.9066618102
 20
-34.0854510663
 10
44.888599584
 20
-34.1322745627
  0
LWPOLYLINE
  5
341
100
AcDbEntity
  8
RACCORDO
100
AcDbPolyline
 62
250
  6
CONTINUOUS
 90
11
 70
0
 10
59.3373511732
 20
-44.8532361535
 10
59.4100089111
 20
-45.5714543509
 10
59.4981512185
 20
-46.3263661501
 10
59.6013476192
 20
-47.0953793736
 10
59.7186760702
 20
-47.8622350277
 10
59.8479454169
 20
-48.6105961422
 10
59.9898738885
 20
-49.343110989
 10
60.1482712087
 20
-50.0752490561
 10
60.3256980829
 20
-50.8111959774
 10
60.5224979356
 20
-51.544696869
 10
60.7395764765
 20
-52.2724908755
  0
LINE
  5
342
100
AcDbEntity
  8
RACCORDO
100
AcDbLine
 62
250
  6
CONTINUOUS
 10
59.2788848665
 20
-44.181816124
 11
59.3373511732
 21
-44.8532361535
  0
LWPOLYLINE
  5
343
100
AcDbEntity
  8
RACCORDO
100
AcDbPolyline
 62
7
  6
CONTINUOUS
 90
4
 70
0
 10
44.8991086019
 20
-33.3187481549
 10
44.8981062725
 20
-33.3226929464
 10
44.8882573209
 20
-33.3456195589
 10
44.8698939837
 20
-33.3803388643
  0
LINE
  5
344
100
AcDbEntity
  8
0
100
AcDbLine
 62
7
  6
CONTINUOUS
 10
39.5160614569
 20
-31.7270445268
 11
38.7409454541
 21
-32.5749243328
  0
LINE
  5
345
100
AcDbEntity
  8
RACCORDO
100
AcDbLine
 62
250
  6
CONTINUOUS
 10
59.2307929681
 20
-43.5359541551
 11
59.2788848665
 21
-44.181816124
  0
LWPOLYLINE
  5
346
100
AcDbEntity
  8
RACCORDO
100
AcDbPolyline
 62
250
  6
CONTINUOUS
 90
13
 70
0
 10
58.2353396642
 20
-3.5202977637
 10
58.249361541
 20
-2.7965986477
 10
58.2718974049
 20
-2.0236716849
 10
58.3055086743
 20
-1.1722836905
 10
58.351897837
 20
-0.2487852819
 10
58.4117504961
 20
0.7245510724
 10
58.4849848393
 20
1.7302084049
 10
58.5703304352
 20
2.7475118554
 10
58.6683343132
 20
3.7806952851
 10
58.7818294786
 20
4.8535525824
 10
58.9130198683
 20
5.976240187
 10
59.0625299361
 20
7.1437160538
 10
59.2313679692
 20
8.3551178305
  0
LWPOLYLINE
  5
347
100
AcDbEntity
  8
RACCORDO
100
AcDbPolyline
 62
250
  6
CONTINUOUS
 90
13
 70
0
 10
59.2314280695
 20
8.3550994159
 10
59.2466152908
 20
8.4466794369
 10
59.2658392289
 20
8.5400484401
 10
59.2889149011
 20
8.6343077323
 10
59.315620252
 20
8.7285500514
 10
59.3456982901
 20
8.8218682982
 10
59.3788595621
 20
8.9133642682
 10
59.4147849382
 20
9.0021572961
 10
59.4531286842
 20
9.0873927325
 10
59.4935217891
 20
9.1682501699
 10
59.5355755165
 20
9.2439513391
 10
59.5788851469
 20
9.3137676001
 10
59.6230338723
 20
9.3770269553
  0
LWPOLYLINE
  5
348
100
AcDbEntity
  8
RACCORDO
100
AcDbPolyline
 62
250
  6
CONTINUOUS
 90
10
 70
0
 10
57.993411644
 20
-5.1031468641
 10
58.0410138627
 20
-4.9178781222
 10
58.0837855668
 20
-4.7332150622
 10
58.1215509897
 20
-4.5499198413
 10
58.1541916133
 20
-4.3687602109
 10
58.1815369928
 20
-4.1904726695
 10
58.2033653087
 20
-4.0157593778
 10
58.2195502497
 20
-3.8453300895
 10
58.2300613824
 20
-3.6798991769
 10
58.2348546134
 20
-3.5201490034
  0
LINE
  5
349
100
AcDbEntity
  8
RACCORDO
100
AcDbLine
 62
7
  6
CONTINUOUS
 10
44.8939294688
 20
-34.1245513883
 11
44.7003810503
 21
-34.4050092697
  0
LINE
  5
34A
100
AcDbEntity
  8
0
100
AcDbLine
 62
7
  6
CONTINUOUS
 10
44.8698939837
 20
-33.3803388643
 11
44.2445214838
 21
-34.2650192131
  0
LWPOLYLINE
  5
34B
100
AcDbEntity
  8
RACCORDO
100
AcDbPolyline
 62
250
  6
CONTINUOUS
 90
20
 70
0
 10
68.8086275135
 20
-43.9708178851
 10
68.8117400351
 20
-44.0116118247
 10
68.8233410959
 20
-44.0690480362
 10
68.8432758685
 20
-44.1254427291
 10
68.8713756884
 20
-44.1803187582
 10
68.9074028081
 20
-44.2332118273
 10
68.9510524088
 20
-44.283674418
 10
69.0019551791
 20
-44.3312795755
 10
69.05968044
 20
-44.3756245211
 10
69.1237397887
 20
-44.4163340604
 10
69.1935912306
 20
-44.4530637575
 10
69.2686437655
 20
-44.4855028491
 10
69.3482623875
 20
-44.5133768739
 10
69.4317734581
 20
-44.5364499949
 10
69.5184703533
 20
-44.5545269854
 10
69.6076195955
 20
-44.5674549147
 10
69.6984670725
 20
-44.5751244108
 10
69.7902441997
 20
-44.5774705551
 10
69.8821744119
 20
-44.5744734628
 10
69.9734798946
 20
-44.5661584637
  0
LWPOLYLINE
  5
34C
100
AcDbEntity
  8
RACCORDO
100
AcDbPolyline
 62
250
  6
CONTINUOUS
 90
19
 70
0
 10
67.9483794212
 20
-9.3901982433
 10
67.9514919698
 20
-9.430992394
 10
67.9630930709
 20
-9.4884286372
 10
67.9830278933
 20
-9.5448233585
 10
68.0111277719
 20
-9.5996994119
 10
68.0471549586
 20
-9.6525925005
 10
68.0908046334
 20
-9.7030551049
 10
68.141707484
 20
-9.7506602699
 10
68.1994328302
 20
-9.7950052162
 10
68.2634922677
 20
-9.835714749
 10
68.3333438007
 20
-9.8724444319
 10
68.4083964273
 20
-9.9048835013
 10
68.4880151403
 20
-9.932757496
 10
68.5715262994
 20
-9.9558305788
 10
68.6582233267
 20
-9.9739075315
 10
68.7473726978
 20
-9.9868354095
 10
68.8382201489
 20
-9.9945048331
 10
68.9299970405
 20
-9.99685091
 10
69.0219268593
 20
-9.9938537877
  0
LINE
  5
34D
100
AcDbEntity
  8
RACCORDO
100
AcDbLine
 62
250
  6
CONTINUOUS
 10
64.910471852
 20
-39.3330651803
 11
64.9339950665
 21
-40.2786613861
  0
LINE
  5
34E
100
AcDbEntity
  8
RACCORDO
100
AcDbLine
 62
7
  6
CONTINUOUS
 10
64.9370835915
 20
-39.2795791906
 11
64.9592644802
 21
-40.1712160106
  0
LINE
  5
34F
100
AcDbEntity
  8
0
100
AcDbLine
 62
7
  6
CONTINUOUS
 10
68.8086275135
 20
-43.9708178851
 11
67.9483794212
 21
-9.3901982433
  0
LINE
  5
350
100
AcDbEntity
  8
RACCORDO
100
AcDbLine
 62
250
  6
CONTINUOUS
 10
70.8406401042
 20
-10.1155421971
 11
71.1207408553
 21
-21.1385513076
  0
LINE
  5
351
100
AcDbEntity
  8
RACCORDO
100
AcDbLine
 62
250
  6
CONTINUOUS
 10
71.1207408553
 20
-21.1385513076
 11
71.5443390264
 21
-38.1790329057
  0
LINE
  5
352
100
AcDbEntity
  8
RACCORDO
100
AcDbLine
 62
250
  6
CONTINUOUS
 10
71.5443390264
 20
-38.1790329057
 11
71.7001521822
 21
-44.6665675429
  0
LINE
  5
353
100
AcDbEntity
  8
RACCORDO
100
AcDbLine
 62
250
  6
CONTINUOUS
 10
69.1132318023
 20
-9.9855388218
 11
69.9734798946
 21
-44.5661584637
  0
LWPOLYLINE
  5
354
100
AcDbEntity
  8
RACCORDO
100
AcDbPolyline
 62
250
  6
CONTINUOUS
 90
61
 70
0
 10
69.9734798946
 20
-44.5661584637
 10
69.9735440606
 20
-44.6418908088
 10
69.9691134162
 20
-44.713539237
 10
69.9606524733
 20
-44.7810749575
 10
69.9485949038
 20
-44.8443957119
 10
69.9334223358
 20
-44.9036538852
 10
69.9155976452
 20
-44.9592341406
 10
69.8954538154
 20
-45.0113098187
 10
69.8733566636
 20
-45.0598629089
 10
69.8497381586
 20
-45.105008307
 10
69.8250141668
 20
-45.1467794431
 10
69.7993911233
 20
-45.185405996
 10
69.7729183885
 20
-45.2212856868
 10
69.7458026292
 20
-45.2545504113
 10
69.7182779662
 20
-45.2852956361
 10
69.6903488813
 20
-45.3138154346
 10
69.6621544795
 20
-45.3402319688
 10
69.6338783706
 20
-45.3646208758
 10
69.6055384248
 20
-45.387172604
 10
69.5772751967
 20
-45.4079666306
 10
69.5491978376
 20
-45.4271038641
 10
69.5212380837
 20
-45.4447779839
 10
69.4934915455
 20
-45.4610601629
 10
69.4660434146
 20
-45.4760260392
 10
69.438773468
 20
-45.4898432938
 10
69.4116008504
 20
-45.5026377555
 10
69.3847276135
 20
-45.5143885612
 10
69.3584542455
 20
-45.525044973
 10
69.3329526976
 20
-45.5346439753
 10
69.3081868963
 20
-45.5432954706
 10
69.2841524167
 20
-45.5510706126
 10
69.2611283891
 20
-45.5579638433
 10
69.2389452562
 20
-45.5641130057
 10
69.2168935734
 20
-45.5697591277
 10
69.1949724159
 20
-45.5749210503
 10
69.1732212908
 20
-45.5796175594
 10
69.1509432791
 20
-45.5840150425
 10
69.127951156
 20
-45.588129061
 10
69.1044229117
 20
-45.5919048371
 10
69.0801824701
 20
-45.5953583968
 10
69.055234939
 20
-45.5984642996
 10
69.0295607944
 20
-45.6011941932
 10
69.0029364237
 20
-45.6035383102
 10
68.9753981996
 20
-45.6054529608
 10
68.9468892724
 20
-45.606901984
 10
68.9170326774
 20
-45.6078534844
 10
68.885627733
 20
-45.6082425249
 10
68.8528397689
 20
-45.6079939031
 10
68.8188377748
 20
-45.6070471385
 10
68.7835037773
 20
-45.6053387902
 10
68.7469402843
 20
-45.6028040731
 10
68.7096665215
 20
-45.5994239609
 10
68.6720631201
 20
-45.5952179478
 10
68.6337762835
 20
-45.5901253028
 10
68.5942324111
 20
-45.584005691
 10
68.5534459557
 20
-45.5767919972
 10
68.5114281212
 20
-45.5684219057
 10
68.4675943004
 20
-45.5586849392
 10
68.4217620459
 20
-45.5474199208
 10
68.3741579401
 20
-45.5345604695
 10
68.3248157522
 20
-45.5199953707
  0
LWPOLYLINE
  5
355
100
AcDbEntity
  8
RACCORDO
100
AcDbPolyline
 62
7
  6
CONTINUOUS
 90
4
 70
0
 10
64.9565519147
 20
-40.1714149549
 10
64.9557973489
 20
-40.1853194537
 10
64.9467274078
 20
-40.2395610641
 10
64.9286651817
 20
-40.2863845605
  0
LWPOLYLINE
  5
356
100
AcDbEntity
  8
RACCORDO
100
AcDbPolyline
 62
250
  6
CONTINUOUS
 90
9
 70
0
 10
67.4366098583
 20
-7.804705428
 10
67.4773636371
 20
-7.6217229149
 10
67.5132509088
 20
-7.4400531282
 10
67.5441271053
 20
-7.2604278155
 10
67.5698678434
 20
-7.0835704895
 10
67.5903694265
 20
-6.9101935142
 10
67.6055492618
 20
-6.7409952352
 10
67.6153461933
 20
-6.5766571669
 10
67.619720748
 20
-6.4178412474
  0
LINE
  5
357
100
AcDbEntity
  8
DRAFT
100
AcDbLine
 62
7
  6
CONTINUOUS
 10
58.844269948
 20
-38.558003971
 11
58.9025880725
 21
-38.396932062
  0
LINE
  5
358
100
AcDbEntity
  8
DRAFT
100
AcDbLine
 62
7
  6
CONTINUOUS
 10
59.0947298845
 20
-38.2805569239
 11
59.1509646219
 21
-38.1252392318
  0
LINE
  5
359
100
AcDbEntity
  8
DRAFT
100
AcDbLine
 62
7
  6
CONTINUOUS
 10
59.345189821
 20
-38.0031098769
 11
59.3993411714
 21
-37.8535464015
  0
LINE
  5
35A
100
AcDbEntity
  8
RACCORDO
100
AcDbLine
 62
250
  6
CONTINUOUS
 10
88.2099889631
 20
0.739799785
 11
90.1875981805
 21
3.4008497698
  0
LINE
  5
35B
100
AcDbEntity
  8
RACCORDO
100
AcDbLine
 62
250
  6
CONTINUOUS
 10
92.9174711483
 20
0.2542511215
 11
90.7279379439
 21
-2.1712047439
  0
LINE
  5
35C
100
AcDbEntity
  8
RACCORDO
100
AcDbLine
 62
7
  6
CONTINUOUS
 10
59.5513050361
 20
-37.6873169705
 11
59.3993411714
 21
-37.8535464015
  0
LINE
  5
35D
100
AcDbEntity
  8
DRAFT
100
AcDbLine
 62
7
  6
CONTINUOUS
 10
59.2856714037
 20
-37.9778868876
 11
59.1509646219
 21
-38.1252392318
  0
LINE
  5
35E
100
AcDbEntity
  8
DRAFT
100
AcDbLine
 62
7
  6
CONTINUOUS
 10
59.0329215908
 20
-38.2543635203
 11
58.9025880725
 21
-38.396932062
  0
LINE
  5
35F
100
AcDbEntity
  8
DRAFT
100
AcDbLine
 62
7
  6
CONTINUOUS
 10
58.7801717778
 20
-38.530840153
 11
58.6542115231
 21
-38.6686248923
  0
LWPOLYLINE
  5
360
100
AcDbEntity
  8
0
100
AcDbPolyline
 62
7
  6
CONTINUOUS
 90
23
 70
0
 10
67.948228855
 20
-9.3939897025
 10
67.9477585039
 20
-9.3919371393
 10
67.9451588466
 20
-9.3825331601
 10
67.9404490835
 20
-9.3687999465
 10
67.933402477
 20
-9.3515824033
 10
67.9238461419
 20
-9.3314737851
 10
67.9116144983
 20
-9.3088941985
 10
67.8966323174
 20
-9.2843161292
 10
67.8788582055
 20
-9.2581637205
 10
67.8583544466
 20
-9.2309239878
 10
67.8352199001
 20
-9.2030407228
 10
67.8095639212
 20
-9.1749008112
 10
67.7816418664
 20
-9.1469827243
 10
67.7518443211
 20
-9.1198023702
 10
67.7204738659
 20
-9.0937046273
 10
67.6879289288
 20
-9.069049178
 10
67.6548334628
 20
-9.0462736183
 10
67.6216445215
 20
-9.0256001911
 10
67.5887966341
 20
-9.00717666
 10
67.5569168263
 20
-8.9911888641
 10
67.5265058017
 20
-8.977675533
 10
67.4979248093
 20
-8.9665610922
 10
67.4715650867
 20
-8.957743879
  0
LWPOLYLINE
  5
361
100
AcDbEntity
  8
RACCORDO
100
AcDbPolyline
 62
250
  6
CONTINUOUS
 90
61
 70
0
 10
71.7001436429
 20
-44.6665797515
 10
71.6987213053
 20
-44.8115930701
 10
71.6882821731
 20
-44.9486063685
 10
71.6696718399
 20
-45.0777911638
 10
71.6432072585
 20
-45.1991621948
 10
71.6104389167
 20
-45.3125375451
 10
71.5742422851
 20
-45.4176932929
 10
71.5370136956
 20
-45.5145673523
 10
71.49855397
 20
-45.6034706883
 10
71.4573901889
 20
-45.6854153298
 10
71.4132995833
 20
-45.7609657505
 10
71.3672134073
 20
-45.8309349431
 10
71.3193161304
 20
-45.8960218284
 10
71.2700148214
 20
-45.9563313082
 10
71.2197928837
 20
-46.011875812
 10
71.1687545076
 20
-46.0632128136
 10
71.1171431768
 20
-46.1105755227
 10
71.0652705837
 20
-46.1541171043
 10
71.0132573419
 20
-46.1942144181
 10
70.9613761833
 20
-46.231008584
 10
70.9098118785
 20
-46.2646730922
 10
70.8584668522
 20
-46.2955967826
 10
70.8074998256
 20
-46.3239184897
 10
70.7570641101
 20
-46.3497722827
 10
70.7070339452
 20
-46.3734604535
 10
70.6573968172
 20
-46.3951141472
 10
70.608400666
 20
-46.4148023862
 10
70.5600551867
 20
-46.4328067584
 10
70.5121858241
 20
-46.4493204246
 10
70.4646764541
 20
-46.4645075198
 10
70.4178528439
 20
-46.4785097197
 10
70.3723541754
 20
-46.4913138824
 10
70.3280282869
 20
-46.5030108074
 10
70.2840138857
 20
-46.5138470452
 10
70.2405750511
 20
-46.5239326301
 10
70.1978291061
 20
-46.5331798135
 10
70.1546835565
 20
-46.5414243042
 10
70.1111173961
 20
-46.5484599066
 10
70.0675869908
 20
-46.5544204753
 10
70.023406112
 20
-46.5596190315
 10
69.9782521169
 20
-46.5641470341
 10
69.9318009643
 20
-46.5679369354
 10
69.8835016657
 20
-46.5709736722
 10
69.8334603066
 20
-46.5731803151
 10
69.7817295014
 20
-46.5744671412
 10
69.7276834005
 20
-46.5747342017
 10
69.6709958912
 20
-46.5738346279
 10
69.611946717
 20
-46.5716813412
 10
69.5507963816
 20
-46.5682384436
 10
69.4874067044
 20
-46.5631946036
 10
69.4218695976
 20
-46.5566341897
 10
69.3544371748
 20
-46.5491312835
 10
69.2850003975
 20
-46.5409306175
 10
69.2124831218
 20
-46.5314575444
 10
69.1362178797
 20
-46.5200732376
 10
69.0568452352
 20
-46.5066157057
 10
68.9750869567
 20
-46.4911326894
 10
68.8902237091
 20
-46.473172859
 10
68.8017834767
 20
-46.4523770212
 10
68.7098320205
 20
-46.4285820762
 10
68.6143763763
 20
-46.4015531351
  0
LWPOLYLINE
  5
362
100
AcDbEntity
  8
RACCORDO
100
AcDbPolyline
 62
7
  6
CONTINUOUS
 90
4
 70
0
 10
64.9343521811
 20
-39.2790205986
 10
64.9333498517
 20
-39.2829653901
 10
64.9235009001
 20
-39.3058920026
 10
64.9051375629
 20
-39.340611308
  0
LINE
  5
363
100
AcDbEntity
  8
DRAFT
100
AcDbLine
 62
7
  6
CONTINUOUS
 10
64.3356009687
 20
-40.2443385277
 11
64.3826151291
 21
-40.0797952808
  0
LINE
  5
364
100
AcDbEntity
  8
DRAFT
100
AcDbLine
 62
7
  6
CONTINUOUS
 10
64.5393828903
 20
-39.9525571145
 11
64.5847174924
 21
-39.7938920963
  0
LINE
  5
365
100
AcDbEntity
  8
DRAFT
100
AcDbLine
 62
7
  6
CONTINUOUS
 10
64.743164812
 20
-39.6607757012
 11
64.7868198557
 21
-39.5079889118
  0
LINE
  5
366
100
AcDbEntity
  8
RACCORDO
100
AcDbLine
 62
7
  6
CONTINUOUS
 10
64.9339950665
 20
-40.2786613861
 11
64.740446648
 21
-40.5591192674
  0
LINE
  5
367
100
AcDbEntity
  8
RACCORDO
100
AcDbLine
 62
7
  6
CONTINUOUS
 10
64.9051375629
 20
-39.340611308
 11
64.7868198557
 21
-39.5079889118
  0
LINE
  5
368
100
AcDbEntity
  8
DRAFT
100
AcDbLine
 62
7
  6
CONTINUOUS
 10
64.694327514
 20
-39.6388327802
 11
64.5847174924
 21
-39.7938920963
  0
LINE
  5
369
100
AcDbEntity
  8
DRAFT
100
AcDbLine
 62
7
  6
CONTINUOUS
 10
64.488666655
 20
-39.9297699745
 11
64.3826151291
 21
-40.0797952808
  0
LINE
  5
36A
100
AcDbEntity
  8
DRAFT
100
AcDbLine
 62
7
  6
CONTINUOUS
 10
64.283005796
 20
-40.2207071687
 11
64.1805127659
 21
-40.3656984654
  0
LWPOLYLINE
  5
36B
100
AcDbEntity
  8
RACCORDO
100
AcDbPolyline
 62
250
  6
CONTINUOUS
 90
25
 70
0
 10
68.6562341999
 20
-43.8229832482
 10
68.6143937616
 20
-43.8788275039
 10
68.5730751148
 20
-43.9408134452
 10
68.5326309546
 20
-44.0084119617
 10
68.4934065112
 20
-44.0810460342
 10
68.4557366036
 20
-44.1580956598
 10
68.4199427813
 20
-44.2389031448
 10
68.3863305794
 20
-44.3227787184
 10
68.355186911
 20
-44.4090064208
 10
68.3267776175
 20
-44.4968502143
 10
68.3013452002
 20
-44.5855602664
 10
68.2791067494
 20
-44.6743793502
 10
68.260252092
 20
-44.7625493082
 10
68.244942171
 20
-44.8493175236
 10
68.2333076716
 20
-44.9339433451
 10
68.2254479054
 20
-45.0157044087
 10
68.2214299633
 20
-45.0939028038
 10
68.2212881423
 20
-45.1678710308
 10
68.2250236531
 20
-45.2369776988
 10
68.2326046115
 20
-45.3006329287
 10
68.2439663062
 20
-45.3582933444
 10
68.2590117425
 20
-45.4094667249
 10
68.2776124809
 20
-45.4537162603
 10
68.2996097422
 20
-45.4906642658
 10
68.3248157522
 20
-45.5199953707
  0
LINE
  5
36C
100
AcDbEntity
  8
0
100
AcDbLine
 62
250
  6
CONTINUOUS
 10
68.8004540048
 20
-43.6422556996
 11
68.6562341999
 21
-43.8229832482
  0
LINE
  5
36D
100
AcDbEntity
  8
RACCORDO
100
AcDbLine
 62
7
  6
CONTINUOUS
 10
92.915670684
 20
-32.0603644305
 11
93.484844492
 21
-31.5484426106
  0
LWPOLYLINE
  5
36E
100
AcDbEntity
  8
RACCORDO
100
AcDbPolyline
 62
250
  6
CONTINUOUS
 90
9
 70
0
 10
89.323113456
 20
-60.7780291813
 10
89.3306291498
 20
-60.8428857672
 10
89.3418999092
 20
-60.9013354387
 10
89.356824507
 20
-60.952853239
 10
89.3752688997
 20
-60.9969764687
 10
89.3970674313
 20
-61.0333088417
 10
89.4220243212
 20
-61.0615240444
 10
89.4499154226
 20
-61.0813686661
 10
89.4732304887
 20
-61.0908288681
  0
LWPOLYLINE
  5
36F
100
AcDbEntity
  8
RACCORDO
100
AcDbPolyline
 62
250
  6
CONTINUOUS
 90
28
 70
0
 10
89.4972680915
 20
-2.4340539629
 10
89.4919889402
 20
-2.3519781842
 10
89.4814498341
 20
-2.2679537342
 10
89.4655470458
 20
-2.1822279737
 10
89.4441515095
 20
-2.0948349873
 10
89.4172317332
 20
-2.0062300212
 10
89.3849766721
 20
-1.9173003006
 10
89.3475313121
 20
-1.8284585758
 10
89.3049506593
 20
-1.7398683459
 10
89.2574664518
 20
-1.6520551339
 10
89.2053083665
 20
-1.5654044566
 10
89.148609918
 20
-1.4800909867
 10
89.0875019183
 20
-1.3963187538
 10
89.0221212668
 20
-1.3142996092
 10
88.9527292639
 20
-1.2343690242
 10
88.8796555487
 20
-1.1569094727
 10
88.8032045615
 20
-1.0822321062
 10
88.7235845822
 20
-1.010510006
 10
88.6409885752
 20
-0.9419146989
 10
88.5555694147
 20
-0.876602678
 10
88.4677129252
 20
-0.8148794902
 10
88.3779746462
 20
-0.7571147245
 10
88.2865363303
 20
-0.7034090554
 10
88.1938227152
 20
-0.6539923881
 10
88.1007970463
 20
-0.6092956376
 10
88.0079973742
 20
-0.5694428286
 10
87.9155223516
 20
-0.5343413403
 10
87.8237004653
 20
-0.5039863316
  0
LWPOLYLINE
  5
370
100
AcDbEntity
  8
RACCORDO
100
AcDbPolyline
 62
250
  6
CONTINUOUS
 90
9
 70
0
 10
89.5394806805
 20
-3.2291767475
 10
89.5365806081
 20
-3.1648073531
 10
89.5319233651
 20
-3.097065712
 10
89.5263088074
 20
-3.0263849364
 10
89.5209871293
 20
-2.9521489653
 10
89.5163684249
 20
-2.8741179883
 10
89.5120359967
 20
-2.7926427276
 10
89.5079544668
 20
-2.7079071367
 10
89.5041221556
 20
-2.6199408325
  0
LINE
  5
371
100
AcDbEntity
  8
RACCORDO
100
AcDbLine
 62
250
  6
CONTINUOUS
 10
92.1552554065
 20
-59.5471207415
 11
92.1434061199
 21
-59.2916643404
  0
LWPOLYLINE
  5
372
100
AcDbEntity
  8
RACCORDO
100
AcDbPolyline
 62
250
  6
CONTINUOUS
 90
28
 70
0
 10
90.7279379439
 20
-2.1712047439
 10
90.722714722
 20
-2.0474957719
 10
90.7094074108
 20
-1.9207237159
 10
90.6878383877
 20
-1.7912399327
 10
90.6577715336
 20
-1.6591242417
 10
90.6191349326
 20
-1.5250812669
 10
90.5722093965
 20
-1.3904544199
 10
90.5171894854
 20
-1.2558960919
 10
90.4541513174
 20
-1.1216759413
 10
90.3834682879
 20
-0.9885797542
 10
90.3054901528
 20
-0.8572158137
 10
90.2204129653
 20
-0.727881173
 10
90.1284552429
 20
-0.6008864504
 10
90.0298427976
 20
-0.4765734646
 10
89.9249738504
 20
-0.3554847725
 10
89.8143665831
 20
-0.2382116234
 10
89.6985150926
 20
-0.1252392395
 10
89.5777415035
 20
-0.0168555182
 10
89.4523428578
 20
0.0866689605
 10
89.3225817999
 20
0.1850970757
 10
89.1890602297
 20
0.2779444595
 10
89.0526216231
 20
0.3646302261
 10
88.9135711615
 20
0.4450034877
 10
88.7725840216
 20
0.5187143219
 10
88.6311312235
 20
0.5851021523
 10
88.4900543816
 20
0.6439929443
 10
88.3495192715
 20
0.6955500004
 10
88.2099889631
 20
0.739799785
  0
LINE
  5
373
100
AcDbEntity
  8
RACCORDO
100
AcDbLine
 62
250
  6
CONTINUOUS
 10
92.1434061199
 20
-59.2916643404
 11
92.1340637162
 21
-59.0616592799
  0
LINE
  5
374
100
AcDbEntity
  8
RACCORDO
100
AcDbLine
 62
250
  6
CONTINUOUS
 10
89.5041221556
 20
-2.6199408325
 11
89.4972668895
 21
-2.4340558262
  0
LINE
  5
375
100
AcDbEntity
  8
RACCORDO
100
AcDbLine
 62
250
  6
CONTINUOUS
 10
92.1340637162
 20
-59.0616592799
 11
92.1272599857
 21
-58.8614566179
  0
LINE
  5
376
100
AcDbEntity
  8
RACCORDO
100
AcDbLine
 62
250
  6
CONTINUOUS
 10
92.1272599857
 20
-58.8614566179
 11
91.9486352675
 21
-52.8402697132
  0
LINE
  5
377
100
AcDbEntity
  8
RACCORDO
100
AcDbLine
 62
250
  6
CONTINUOUS
 10
89.5429889714
 20
-3.3502197981
 11
89.5394806805
 21
-3.2291767475
  0
LINE
  5
378
100
AcDbEntity
  8
RACCORDO
100
AcDbLine
 62
250
  6
CONTINUOUS
 10
89.8984628587
 20
-15.2889307869
 11
89.5429889714
 21
-3.3502197981
  0
LINE
  5
379
100
AcDbEntity
  8
RACCORDO
100
AcDbLine
 62
250
  6
CONTINUOUS
 10
91.9486352675
 20
-52.8402697132
 11
91.8216036359
 21
-48.2477147484
  0
LINE
  5
37A
100
AcDbEntity
  8
RACCORDO
100
AcDbLine
 62
250
  6
CONTINUOUS
 10
91.8216036359
 20
-48.2477147484
 11
91.6924251084
 21
-43.3256649532
  0
LINE
  5
37B
100
AcDbEntity
  8
RACCORDO
100
AcDbLine
 62
7
  6
CONTINUOUS
 10
92.5702394685
 20
-27.1697512541
 11
92.6883407985
 21
-31.9172388772
  0
LINE
  5
37C
100
AcDbEntity
  8
RACCORDO
100
AcDbLine
 62
7
  6
CONTINUOUS
 10
92.9174711483
 20
0.2542511215
 11
93.5500853816
 21
-25.1758455906
  0
LINE
  5
37D
100
AcDbEntity
  8
RACCORDO
100
AcDbLine
 62
7
  6
CONTINUOUS
 10
93.7121743775
 20
-31.6915681639
 11
94.3447886109
 21
-57.1216648761
  0
LINE
  5
37E
100
AcDbEntity
  8
RACCORDO
100
AcDbLine
 62
250
  6
CONTINUOUS
 10
91.6924251084
 20
-43.3256649532
 11
91.1219269968
 21
-20.4301517897
  0
LINE
  5
37F
100
AcDbEntity
  8
RACCORDO
100
AcDbLine
 62
250
  6
CONTINUOUS
 10
90.2305579627
 20
-28.3427009564
 11
89.8984628587
 21
-15.2889307869
  0
LINE
  5
380
100
AcDbEntity
  8
RACCORDO
100
AcDbLine
 62
250
  6
CONTINUOUS
 10
91.1219269968
 20
-20.4301517897
 11
90.9913095501
 21
-14.9754766741
  0
LINE
  5
381
100
AcDbEntity
  8
RACCORDO
100
AcDbLine
 62
250
  6
CONTINUOUS
 10
90.9913095501
 20
-14.9754766741
 11
90.8812503534
 21
-10.085870365
  0
LINE
  5
382
100
AcDbEntity
  8
RACCORDO
100
AcDbLine
 62
250
  6
CONTINUOUS
 10
90.7770892695
 20
-51.1228178984
 11
90.2305579627
 21
-28.3427009564
  0
LINE
  5
383
100
AcDbEntity
  8
RACCORDO
100
AcDbLine
 62
250
  6
CONTINUOUS
 10
90.8812503534
 20
-10.085870365
 11
90.7974889005
 21
-6.065676789
  0
LINE
  5
384
100
AcDbEntity
  8
RACCORDO
100
AcDbLine
 62
250
  6
CONTINUOUS
 10
90.9296069492
 20
-59.1041034289
 11
90.7770892695
 21
-51.1228178984
  0
LINE
  5
385
100
AcDbEntity
  8
RACCORDO
100
AcDbLine
 62
250
  6
CONTINUOUS
 10
90.7974889005
 20
-6.065676789
 11
90.7323104962
 21
-2.7423715435
  0
LWPOLYLINE
  5
386
100
AcDbEntity
  8
RACCORDO
100
AcDbPolyline
 62
250
  6
CONTINUOUS
 90
11
 70
0
 10
90.9259382594
 20
-59.8643678422
 10
90.9246551336
 20
-59.7752065833
 10
90.9238092201
 20
-59.6888271667
 10
90.9233971098
 20
-59.60523985
 10
90.9234070224
 20
-59.5241633275
 10
90.9238368033
 20
-59.4456881572
 10
90.9246961953
 20
-59.3703815113
 10
90.9264120152
 20
-59.2990993236
 10
90.9285678528
 20
-59.2314812726
 10
90.9299011066
 20
-59.1664510221
 10
90.9296069492
 20
-59.1041034289
  0
LINE
  5
387
100
AcDbEntity
  8
RACCORDO
100
AcDbLine
 62
250
  6
CONTINUOUS
 10
90.7323104962
 20
-2.7423715435
 11
90.7304537803
 21
-2.5967137003
  0
LINE
  5
388
100
AcDbEntity
  8
RACCORDO
100
AcDbLine
 62
250
  6
CONTINUOUS
 10
90.7304537803
 20
-2.5967137003
 11
90.7285827365
 21
-2.3516489264
  0
LINE
  5
389
100
AcDbEntity
  8
RACCORDO
100
AcDbLine
 62
250
  6
CONTINUOUS
 10
90.7285827365
 20
-2.3516489264
 11
90.7279379439
 21
-2.1712047439
  0
LWPOLYLINE
  5
38A
100
AcDbEntity
  8
RACCORDO
100
AcDbPolyline
 62
250
  6
CONTINUOUS
 90
16
 70
0
 10
87.823700187
 20
-0.5039866552
 10
87.8275972351
 20
-0.4234000146
 10
87.8353152658
 20
-0.3390528277
 10
87.8467849573
 20
-0.251702653
 10
87.8619032927
 20
-0.1621340202
 10
87.8805344847
 20
-0.0711513839
 10
87.9025111957
 20
0.0204281015
 10
87.9276360404
 20
0.1117819211
 10
87.9556833588
 20
0.2020895866
 10
87.9864012428
 20
0.2905400058
 10
88.0195137989
 20
0.3763387674
 10
88.0547236257
 20
0.4587152756
 10
88.0917144856
 20
0.5369296715
 10
88.1301541447
 20
0.6102794778
 10
88.1696973564
 20
0.6781059084
 10
88.2099889631
 20
0.739799785
  0
LINE
  5
38B
100
AcDbEntity
  8
RACCORDO
100
AcDbLine
 62
7
  6
CONTINUOUS
 10
93.3418785578
 20
-25.8014370249
 11
92.7784462924
 21
-26.5441598198
  0
LWPOLYLINE
  5
38C
100
AcDbEntity
  8
SUPERFICI
100
AcDbPolyline
 62
7
  6
CONTINUOUS
 90
8
 70
0
 10
94.3447886109
 20
-57.1216648761
 10
94.3390598327
 20
-57.3236989833
 10
94.3136776854
 20
-57.515135943
 10
94.2686421692
 20
-57.6959757554
 10
94.2033094599
 20
-57.8674175474
 10
94.1183233817
 20
-58.028262192
 10
94.0156154065
 20
-58.1749123084
 10
93.951185042
 20
-58.2497385969
  0
LWPOLYLINE
  5
38D
100
AcDbEntity
  8
RACCORDO
100
AcDbPolyline
 62
250
  6
CONTINUOUS
 90
11
 70
0
 10
91.8027399346
 20
-60.5771045939
 10
91.8640487611
 20
-60.505585008
 10
91.9291920528
 20
-60.4159923849
 10
91.9865242764
 20
-60.3208424549
 10
92.0357067257
 20
-60.2207439857
 10
92.0766756995
 20
-60.1159265305
 10
92.1092662815
 20
-60.006929257
 10
92.1332615254
 20
-59.8949758848
 10
92.1487700596
 20
-59.7808375364
 10
92.1560353624
 20
-59.6647302558
 10
92.1552554065
 20
-59.5471207415
  0
LINE
  5
38E
100
AcDbEntity
  8
RACCORDO
100
AcDbLine
 62
250
  6
CONTINUOUS
 10
92.1552554065
 20
-59.5471207415
 11
94.3447886109
 21
-57.1216648761
  0
LINE
  5
38F
100
AcDbEntity
  8
SUPERFICI
100
AcDbLine
 62
7
  6
CONTINUOUS
 10
93.9515820589
 20
-58.2493086952
 11
91.8026091852
 21
-60.5772462523
  0
LINE
  5
390
100
AcDbEntity
  8
RACCORDO
100
AcDbLine
 62
7
  6
CONTINUOUS
 10
91.8026121797
 20
-60.5772430084
 11
91.8027399346
 21
-60.5771045939
  0
ELLIPSE
  5
391
100
AcDbEntity
  8
RACCORDO
100
AcDbEllipse
 62
7
  6
CONTINUOUS
 10
93.2996254451
 20
-25.4532926377
 30
0.0
 11
0.1655627174
 21
0.4721380514
 31
0.0
 40
0.3985724632
 41
-2.2506619197
 42
-0.8107652868
  0
ELLIPSE
  5
392
100
AcDbEntity
  8
RACCORDO
100
AcDbEllipse
 62
7
  6
CONTINUOUS
 10
92.820699405
 20
-26.892304207
 30
0.0
 11
0.1655627174
 21
0.4721380514
 31
0.0
 40
0.3985724632
 41
0.8909307339
 42
2.3308273668
  0
ELLIPSE
  5
393
100
AcDbEntity
  8
RACCORDO
100
AcDbEllipse
 62
7
  6
CONTINUOUS
 10
92.938800735
 20
-31.6397918301
 30
0.0
 11
0.1655627174
 21
0.4721380514
 31
0.0
 40
0.3985724632
 41
2.3308273668
 42
3.7707239997
  0
ELLIPSE
  5
394
100
AcDbEntity
  8
RACCORDO
100
AcDbEllipse
 62
7
  6
CONTINUOUS
 10
93.461714441
 20
-31.969015211
 30
0.0
 11
0.1655627174
 21
0.4721380514
 31
0.0
 40
0.3985724632
 41
5.4724200204
 42
6.9123166533
  0
ENDSEC
  0
SECTION
  2
OBJECTS
  0
DICTIONARY
  5
C
100
AcDbDictionary
280
0
281
1
  3
ACAD_GROUP
350
D
  3
ACAD_MLINESTYLE
350
17
  3
ACAD_LAYOUT
350
1A
  3
ACAD_PLOTSETTINGS
350
19
  3
ACAD_PLOTSTYLENAME
350
E
  0
DICTIONARY
  5
D
102
{ACAD_REACTORS
330
C
102
}
100
AcDbDictionary
280
0
281
1
  0
ACDBDICTIONARYWDFLT
  5
E
102
{ACAD_REACTORS
330
C
102
}
100
AcDbDictionary
281
1
  3
Normal
350
F
100
AcDbDictionaryWithDefault
340
F
  0
DICTIONARY
  5
17
102
{ACAD_REACTORS
330
C
102
}
100
AcDbDictionary
280
0
281
1
  3
Standard
350
18
  0
DICTIONARY
  5
19
102
{ACAD_REACTORS
330
C
102
}
100
AcDbDictionary
281
1
  0
DICTIONARY
  5
1A
102
{ACAD_REACTORS
330
C
102
}
100
AcDbDictionary
281
1
  3
Model
350
395
  3
Layout1
350
396
  0
ACDBPLACEHOLDER
  5
F
102
{ACAD_REACTORS
330
E
102
}
  0
MLINESTYLE
  5
18
102
{ACAD_REACTORS
330
17
102
}
100
AcDbMlineStyle
  2
STANDARD
 70
0
  3

 62
256
 51
90.0
 52
90.0
 71
2
 49
0.5
 62
256
  6
BYLAYER
 49
-0.5
 62
256
  6
BYLAYER
  0
LAYOUT
  5
395
102
{ACAD_REACTORS
330
1A
102
}
100
AcDbPlotSettings
  1

  2
none_device
  4
ISO_A4_(297.00_x_210.00_MM)
  6

 40
0.0
 41
0.0
 42
0.0
 43
0.0
 44
297.0
 45
210.0
 46
0.0
 47
0.0
 48
0.0
 49
0.0
140
0.0
141
0.0
142
1.0
143
1.0
 70
1024
 72
1
 73
0
 74
0
  7

 75
0
147
1.0
148
0.0
149
0.0
100
AcDbLayout
  1
Model
 70
0
 71
0
 10
0.0
 20
0.0
 11
297.0
 21
210.0
 12
0.0
 22
0.0
 32
0.0
 14
0.0
 24
0.0
 34
0.0
 15
0.0
 25
0.0
 35
0.0
146
0.0
 13
0.0
 23
0.0
 33
0.0
 16
1.0
 26
0.0
 36
0.0
 17
0.0
 27
1.0
 37
0.0
 76
0
330
225
345
0
346
0
  0
LAYOUT
  5
396
102
{ACAD_REACTORS
330
1A
102
}
100
AcDbPlotSettings
  1

  2
none_device
  4
ISO_A4_(297.00_x_210.00_MM)
  6

 40
0.0
 41
0.0
 42
0.0
 43
0.0
 44
297.0
 45
210.0
 46
0.0
 47
0.0
 48
0.0
 49
0.0
140
0.0
141
0.0
142
1.0
143
1.0
 70
0
 72
1
 73
0
 74
0
  7

 75
0
147
1.0
148
0.0
149
0.0
100
AcDbLayout
  1
Layout1
 70
0
 71
1
 10
0.0
 20
0.0
 11
297.0
 21
210.0
 12
0.0
 22
0.0
 32
0.0
 14
0.0
 24
0.0
 34
0.0
 15
0.0
 25
0.0
 35
0.0
146
0.0
 13
0.0
 23
0.0
 33
0.0
 16
1.0
 26
0.0
 36
0.0
 17
0.0
 27
1.0
 37
0.0
 76
0
330
226
345
0
346
0
  0
ENDSEC
  0
EOF
