  0
SECTION
  2
HEADER
  9
$ACADVER
  1
AC1024
  9
$DWGCODEPAGE
  3
ANSI_1252
  9
$EXTMAX
 10
297.0
 20
210.0
 30
0.0
  9
$EXTMIN
 10
0.0
 20
0.0
 30
0.0
  9
$LIMMIN
 10
0.0
 20
0.0
  9
$LIMMAX
 10
297.0
 20
210.0
  9
$VIEWCTR
 10
148.5
 20
105.0
  9
$VIEWSIZE
 40
210.0
  9
$CLAYER
  8
0
  9
$LTSCALE
 40
16.335
  9
$CELTYPE
  6
BYLAYER
  9
$DIMSCALE
 40
1.0
  9
$DIMASZ
 40
3.0
  9
$DIMEXO
 40
0.5
  9
$DIMDLI
 40
11.286
  9
$DIMEXE
 40
1.5
  9
$DIMCEN
 40
2.673
  9
$DIMLFAC
 40
1.0
  9
$DIMBLK
  1
_FILLED
  9
$DIMALT
 70
0
  9
$DIMALTF
 40
0.0393700787
  9
$DIMTXT
 40
3.0
  9
$DIMTOL
 70
1
  9
$DIMLIM
 70
0
  9
$DIMTFAC
 40
1.0
  9
$DIMTP
 40
0.01
  9
$DIMTM
 40
0.01
  9
$DIMGAP
 40
0.625
  9
$DIMDSEP
 70
44
  9
$AUNITS
 70
0
  9
$PDMODE
 70
3
  9
$PDSIZE
 40
3.0
  9
$HANDSEED
  5
557
  9
$TILEMODE
 70
1
  9
$MEASUREMENT
 70
1
  9
$INSUNITS
 70
4
  0
ENDSEC
  0
SECTION
  2
CLASSES
  0
CLASS
  1
ACDBDICTIONARYWDFLT
  2
AcDbDictionaryWithDefault
  3
AutoCAD 2000
 90
0
 91
1
280
0
281
0
  0
CLASS
  1
ACDBPLACEHOLDER
  2
AcDbPlaceHolder
  3
AutoCAD 2000
 90
0
 91
1
280
0
281
0
  0
CLASS
  1
LAYOUT
  2
AcDbLayout
  3
AutoCAD 2000
 90
0
 91
0
280
0
281
0
  0
ENDSEC
  0
SECTION
  2
TABLES
  0
TABLE
  2
VPORT
  5
8
100
AcDbSymbolTable
 70
2
  0
VPORT
  5
1F4
100
AcDbSymbolTableRecord
100
AcDbViewportTableRecord
  2
*ACTIVE
 70
0
 10
0.0
 20
0.0
 11
1.0
 21
1.0
 12
148.5
 22
105.0
 13
0.0
 23
0.0
 14
1.0
 24
1.0
 15
0.0
 25
0.0
 16
0.0
 26
0.0
 36
1.0
 17
0.0
 27
0.0
 37
0.0
 40
210.0
 41
1.4142857143
 42
50.0
 43
0.0
 44
0.0
 50
0.0
 51
0.0
 71
0
 72
100
 73
1
 74
1
 75
0
 76
0
 77
0
 78
0
  0
ENDTAB
  0
TABLE
  2
LTYPE
  5
5
100
AcDbSymbolTable
 70
6
  0
LTYPE
  5
14
100
AcDbSymbolTableRecord
100
AcDbLinetypeTableRecord
  2
BYBLOCK
 70
0
  3

 72
65
 73
0
 40
0.0
  0
LTYPE
  5
15
100
AcDbSymbolTableRecord
100
AcDbLinetypeTableRecord
  2
BYLAYER
 70
0
  3

 72
65
 73
0
 40
0.0
  0
LTYPE
  5
16
100
AcDbSymbolTableRecord
100
AcDbLinetypeTableRecord
  2
CONTINUOUS
 70
64
  3
Solid line
 72
65
 73
0
 40
0.0
  0
LTYPE
  5
1F5
100
AcDbSymbolTableRecord
100
AcDbLinetypeTableRecord
  2
CENTER
 70
64
  3
____ _ ____ _ ____ _ ____ _ ____ _ ____ _ ____
 72
65
 73
4
 40
0.6
 49
0.375
 74
0
 49
-0.075
 74
0
 49
0.075
 74
0
 49
-0.075
 74
0
  0
LTYPE
  5
1F6
100
AcDbSymbolTableRecord
100
AcDbLinetypeTableRecord
  2
HIDDEN
 70
64
  3
- - - - - - - - - - - - - - - - - - - -
 72
65
 73
2
 40
0.2
 49
0.1
 74
0
 49
-0.1
 74
0
  0
LTYPE
  5
1F7
100
AcDbSymbolTableRecord
100
AcDbLinetypeTableRecord
  2
PHANTOM
 70
64
  3
_____ _ _ _____ _ _ _____ _ _ _____
 72
65
 73
6
 40
0.8
 49
0.45
 74
0
 49
-0.05
 74
0
 49
0.1
 74
0
 49
-0.05
 74
0
 49
0.1
 74
0
 49
-0.05
 74
0
  0
LTYPE
  5
1F8
100
AcDbSymbolTableRecord
100
AcDbLinetypeTableRecord
  2
DOT
 70
64
  3
. . . . . . . . . . . . . . . . . . . .
 72
65
 73
2
 40
0.2
 49
0.1
 74
0
 49
-0.1
 74
0
  0
LTYPE
  5
1F9
100
AcDbSymbolTableRecord
100
AcDbLinetypeTableRecord
  2
DASHED
 70
64
  3
- - - - - - - - - - - - - - - - - - - -
 72
65
 73
2
 40
0.2
 49
0.1
 74
0
 49
-0.1
 74
0
  0
ENDTAB
  0
TABLE
  2
LAYER
  5
2
100
AcDbSymbolTable
 70
36
  0
LAYER
  5
10
100
AcDbSymbolTableRecord
100
AcDbLayerTableRecord
  2
0
 70
0
 62
7
  6
CONTINUOUS
370
-3
390
F
  0
LAYER
  5
1FA
100
AcDbSymbolTableRecord
100
AcDbLayerTableRecord
  2
DEFAULT_1
 70
0
 62
7
  6
CENTER
370
-3
390
F
  0
LAYER
  5
1FB
100
AcDbSymbolTableRecord
100
AcDbLayerTableRecord
  2
DEFAULT_2
 70
0
 62
7
  6
HIDDEN
370
-3
390
F
  0
LAYER
  5
1FC
100
AcDbSymbolTableRecord
100
AcDbLayerTableRecord
  2
DEFAULT_3
 70
0
 62
7
  6
PHANTOM
370
-3
390
F
  0
LAYER
  5
1FD
100
AcDbSymbolTableRecord
100
AcDbLayerTableRecord
  2
ASSI
 70
0
 62
7
  6
CONTINUOUS
370
-3
390
F
  0
LAYER
  5
1FE
100
AcDbSymbolTableRecord
100
AcDbLayerTableRecord
  2
COORDINATE
 70
0
 62
7
  6
CONTINUOUS
370
-3
390
F
  0
LAYER
  5
1FF
100
AcDbSymbolTableRecord
100
AcDbLayerTableRecord
  2
COORD_ORIGINE
 70
0
 62
7
  6
CONTINUOUS
370
-3
390
F
  0
LAYER
  5
200
100
AcDbSymbolTableRecord
100
AcDbLayerTableRecord
  2
CURVE
 70
0
 62
7
  6
CONTINUOUS
370
-3
390
F
  0
LAYER
  5
201
100
AcDbSymbolTableRecord
100
AcDbLayerTableRecord
  2
DRAFT
 70
0
 62
7
  6
CONTINUOUS
370
-3
390
F
  0
LAYER
  5
202
100
AcDbSymbolTableRecord
100
AcDbLayerTableRecord
  2
MARCHI_SOTTO
 70
0
 62
7
  6
CONTINUOUS
370
-3
390
F
  0
LAYER
  5
203
100
AcDbSymbolTableRecord
100
AcDbLayerTableRecord
  2
NOTE
 70
0
 62
7
  6
CONTINUOUS
370
-3
390
F
  0
LAYER
  5
204
100
AcDbSymbolTableRecord
100
AcDbLayerTableRecord
  2
PIANI
 70
0
 62
7
  6
CONTINUOUS
370
-3
390
F
  0
LAYER
  5
205
100
AcDbSymbolTableRecord
100
AcDbLayerTableRecord
  2
PIANI_ORIGINE
 70
0
 62
7
  6
CONTINUOUS
370
-3
390
F
  0
LAYER
  5
206
100
AcDbSymbolTableRecord
100
AcDbLayerTableRecord
  2
PUNTI
 70
0
 62
7
  6
CONTINUOUS
370
-3
390
F
  0
LAYER
  5
207
100
AcDbSymbolTableRecord
100
AcDbLayerTableRecord
  2
RACCORDO
 70
0
 62
7
  6
CONTINUOUS
370
-3
390
F
  0
LAYER
  5
208
100
AcDbSymbolTableRecord
100
AcDbLayerTableRecord
  2
SCRITTA_VIMAR
 70
0
 62
7
  6
CONTINUOUS
370
-3
390
F
  0
LAYER
  5
209
100
AcDbSymbolTableRecord
100
AcDbLayerTableRecord
  2
SNAPLINE
 70
0
 62
7
  6
CONTINUOUS
370
-3
390
F
  0
LAYER
  5
20A
100
AcDbSymbolTableRecord
100
AcDbLayerTableRecord
  2
SUPERFICI
 70
0
 62
7
  6
CONTINUOUS
370
-3
390
F
  0
LAYER
  5
20B
100
AcDbSymbolTableRecord
100
AcDbLayerTableRecord
  2
TRASH
 70
0
 62
7
  6
CONTINUOUS
370
-3
390
F
  0
LAYER
  5
20C
100
AcDbSymbolTableRecord
100
AcDbLayerTableRecord
  2
XSEC_DATUMS
 70
0
 62
7
  6
CONTINUOUS
370
-3
390
F
  0
ENDTAB
  0
TABLE
  2
STYLE
  5
3
100
AcDbSymbolTable
 70
1
  0
STYLE
  5
11
100
AcDbSymbolTableRecord
100
AcDbTextStyleTableRecord
  2
STANDARD
 70
0
 40
0.0
 41
0.8
 50
0.0
 71
0
 42
0.2
  3
txt
  4

  0
STYLE
  5
20D
100
AcDbSymbolTableRecord
100
AcDbTextStyleTableRecord
  2
TEXTSTYLE_1
 70
0
 40
0.0
 41
0.8
 50
0.0
 71
0
 42
0.2
  3
gdt
  4

  0
ENDTAB
  0
TABLE
  2
VIEW
  5
6
100
AcDbSymbolTable
 70
0
  0
ENDTAB
  0
TABLE
  2
UCS
  5
7
100
AcDbSymbolTable
 70
0
  0
ENDTAB
  0
TABLE
  2
APPID
  5
9
100
AcDbSymbolTable
 70
1
  0
APPID
  5
20E
100
AcDbSymbolTableRecord
100
AcDbRegAppTableRecord
  2
ACAD
 70
0
  0
ENDTAB
  0
TABLE
  2
BLOCK_RECORD
  5
1
100
AcDbSymbolTable
 70
0
  0
BLOCK_RECORD
  5
20F
100
AcDbSymbolTableRecord
100
AcDbBlockTableRecord
  2
*Model_Space
  0
BLOCK_RECORD
  5
210
100
AcDbSymbolTableRecord
100
AcDbBlockTableRecord
  2
*Paper_Space
  0
BLOCK_RECORD
  5
211
100
AcDbSymbolTableRecord
100
AcDbBlockTableRecord
  2
_FILLED
  0
ENDTAB
  0
TABLE
  2
DIMSTYLE
  5
A
100
AcDbSymbolTable
 70
1
100
AcDbDimStyleTable
 71
0
  0
DIMSTYLE
105
212
100
AcDbSymbolTableRecord
100
AcDbDimStyleTableRecord
  2
STANDARD
 70
0
  3

  4

 40
1.0
 41
3.0
 42
0.5
 43
0.38
 44
1.5
 45
0.0
 46
0.0
 47
0.01
 48
0.01
140
3.0
141
0.09
142
0.0
143
25.4
144
1.0
145
0.0
146
1.0
147
0.625
 71
1
 72
0
 73
0
 74
0
 75
0
 76
0
 77
1
 78
8
 79
2
170
0
171
1
172
0
173
0
174
0
175
0
176
0
177
0
178
0
270
2
179
2
271
2
272
2
273
2
274
2
275
0
280
0
281
0
282
0
283
1
284
8
285
0
286
0
287
3
288
0
340
11
278
44
341
211
342
211
343
211
344
211
  0
ENDTAB
  0
ENDSEC
  0
SECTION
  2
BLOCKS
  0
BLOCK
  5
20
100
AcDbEntity
  8
0
100
AcDbBlockBegin
  2
*Model_Space
 70
0
 10
0.0
 20
0.0
 30
0.0
  3
*Model_Space
  1

  0
ENDBLK
  5
21
100
AcDbEntity
  8
0
100
AcDbBlockEnd
  0
BLOCK
  5
1C
100
AcDbEntity
  8
0
100
AcDbBlockBegin
  2
*Paper_Space
 70
0
 10
0.0
 20
0.0
 30
0.0
  3
*Paper_Space
  1

  0
ENDBLK
  5
1D
100
AcDbEntity
  8
0
100
AcDbBlockEnd
  0
BLOCK
  5
213
100
AcDbEntity
  8
0
100
AcDbBlockBegin
  2
_FILLED
 70
64
 10
0.0
 20
0.0
  3
_FILLED
  1

  0
SOLID
  5
214
100
AcDbEntity
  8
0
  6
BYBLOCK
 62
0
100
AcDbTrace
 10
0.0
 20
0.0
 11
-1.0
 21
0.3166666667
 12
-1.0
 22
-0.3166666667
 13
-1.0
 23
-0.3166666667
  0
ENDBLK
  5
215
100
AcDbEntity
  8
0
  6
BYBLOCK
 62
0
100
AcDbBlockEnd
  0
ENDSEC
  0
SECTION
  2
ENTITIES
  0
LWPOLYLINE
  5
216
100
AcDbEntity
  8
RACCORDO
100
AcDbPolyline
 62
7
  6
CONTINUOUS
 90
7
 70
0
 10
-93.3515436606
 20
56.1329186125
 10
-93.4287497523
 20
56.0043606618
 10
-93.5298431584
 20
55.7919655318
 10
-93.6071844152
 20
55.5649109409
 10
-93.6591689981
 20
55.326162598
 10
-93.6849410261
 20
55.0780272355
 10
-93.687861911
 20
54.9391180841
  0
LINE
  5
217
100
AcDbEntity
  8
RACCORDO
100
AcDbLine
 62
7
  6
CONTINUOUS
 10
-93.3532311453
 20
56.1303364904
 11
-91.3678035359
 21
59.1786435476
  0
LINE
  5
218
100
AcDbEntity
  8
RACCORDO
100
AcDbLine
 62
250
  6
CONTINUOUS
 10
-90.9865359769
 20
56.6988715393
 11
-89.0045918638
 21
59.7418302441
  0
LWPOLYLINE
  5
219
100
AcDbEntity
  8
RACCORDO
100
AcDbPolyline
 62
250
  6
CONTINUOUS
 90
10
 70
0
 10
-90.9865359769
 20
56.6988715392
 10
-91.0601726992
 20
56.5951883686
 10
-91.1309233704
 20
56.4756531967
 10
-91.1970377508
 20
56.3432229308
 10
-91.2568802897
 20
56.2011734637
 10
-91.308970582
 20
56.0530186378
 10
-91.3520199884
 20
55.9024233229
 10
-91.3849635153
 20
55.7531127596
 10
-91.4069861601
 20
55.6087804084
 10
-91.4175430684
 20
55.4729965838
  0
LWPOLYLINE
  5
21A
100
AcDbEntity
  8
RACCORDO
100
AcDbPolyline
 62
250
  6
CONTINUOUS
 90
14
 70
0
 10
-93.351467532
 20
56.1330373956
 10
-93.2869300997
 20
56.223632954
 10
-93.1667459484
 20
56.3598481336
 10
-93.0290412449
 20
56.480585414
 10
-92.8747884663
 20
56.5849719855
 10
-92.7050741592
 20
56.6722098355
 10
-92.5212668331
 20
56.7415352037
 10
-92.3249677191
 20
56.7923392866
 10
-92.1175179524
 20
56.8242464366
 10
-91.9007617235
 20
56.8369462833
 10
-91.677335471
 20
56.8304083527
 10
-91.449404904
 20
56.804937129
 10
-91.2185261134
 20
56.7609190907
 10
-90.9865359769
 20
56.6988715393
  0
LWPOLYLINE
  5
21B
100
AcDbEntity
  8
RACCORDO
100
AcDbPolyline
 62
250
  6
CONTINUOUS
 90
19
 70
0
 10
-93.2321395526
 20
54.4325879707
 10
-93.2236469873
 20
54.5592846196
 10
-93.2034131556
 20
54.6843432534
 10
-93.1706167814
 20
54.8065221617
 10
-93.1242137037
 20
54.9254911771
 10
-93.0638240279
 20
55.0388796628
 10
-92.9907088506
 20
55.1429374713
 10
-92.906109252
 20
55.2362236765
 10
-92.8101493444
 20
55.3189388594
 10
-92.7034153519
 20
55.3904697204
 10
-92.5865640799
 20
55.4502535275
 10
-92.4605592844
 20
55.4978652329
 10
-92.3264670229
 20
55.5329205735
 10
-92.1851115279
 20
55.5551207099
 10
-92.0376983499
 20
55.5642852415
 10
-91.8859715287
 20
55.5604393545
 10
-91.7313027745
 20
55.5437542568
 10
-91.5746960418
 20
55.514459405
 10
-91.417529289
 20
55.473010574
  0
LINE
  5
21C
100
AcDbEntity
  8
RACCORDO
100
AcDbLine
 62
250
  6
CONTINUOUS
 10
-91.8439112313
 20
-2.1971857734
 11
-91.8506832345
 21
-2.11515852
  0
LWPOLYLINE
  5
21D
100
AcDbEntity
  8
RACCORDO
100
AcDbPolyline
 62
250
  6
CONTINUOUS
 90
7
 70
0
 10
-91.8506832345
 20
-2.11515852
 10
-91.8538857153
 20
-2.0740334977
 10
-91.8568907102
 20
-2.0329419464
 10
-91.8596979842
 20
-1.9920662468
 10
-91.8620954551
 20
-1.9508696144
 10
-91.8638726509
 20
-1.909305712
 10
-91.8667797351
 20
-1.8234524398
  0
LINE
  5
21E
100
AcDbEntity
  8
RACCORDO
100
AcDbLine
 62
250
  6
CONTINUOUS
 10
-91.820598854
 20
-2.5031141601
 11
-91.8439112313
 21
-2.1971857734
  0
LINE
  5
21F
100
AcDbEntity
  8
RACCORDO
100
AcDbLine
 62
250
  6
CONTINUOUS
 10
-91.813329172
 20
-2.6015290783
 11
-91.820598854
 21
-2.5031141601
  0
LWPOLYLINE
  5
220
100
AcDbEntity
  8
RACCORDO
100
AcDbPolyline
 62
7
  6
CONTINUOUS
 90
17
 70
0
 10
-92.2693237107
 20
-2.0825213359
 10
-92.2626465812
 20
-2.1856542024
 10
-92.2304194788
 20
-2.4240172295
 10
-92.172497359
 20
-2.67170195
 10
-92.0878388774
 20
-2.9244221718
 10
-91.9789567394
 20
-3.1731662086
 10
-91.8474812424
 20
-3.4152115972
 10
-91.6937589535
 20
-3.6504980347
 10
-91.521233879
 20
-3.8744946625
 10
-91.3323975781
 20
-4.0849427735
 10
-91.1281220119
 20
-4.2817500315
 10
-90.9101507981
 20
-4.4636817584
 10
-90.6800693049
 20
-4.6294116159
 10
-90.4393880849
 20
-4.7778624156
 10
-90.1895265695
 20
-4.9079100824
 10
-89.9318830978
 20
-5.0182373456
 10
-89.7572223216
 20
-5.0800540808
  0
LWPOLYLINE
  5
221
100
AcDbEntity
  8
RACCORDO
100
AcDbPolyline
 62
250
  6
CONTINUOUS
 90
8
 70
0
 10
-93.6878605312
 20
54.93883615
 10
-93.686513949
 20
54.9091668847
 10
-93.6660603439
 20
54.8145152986
 10
-93.6214797346
 20
54.7231021545
 10
-93.5538717349
 20
54.6371822226
 10
-93.4649039459
 20
54.5588747785
 10
-93.356770824
 20
54.4901113291
 10
-93.2321395526
 20
54.4325879707
  0
LINE
  5
222
100
AcDbEntity
  8
RACCORDO
100
AcDbLine
 62
7
  6
CONTINUOUS
 10
-92.2694256819
 20
-2.0825258076
 11
-92.2693852678
 21
-2.0834284216
  0
LINE
  5
223
100
AcDbEntity
  8
RACCORDO
100
AcDbLine
 62
250
  6
CONTINUOUS
 10
-91.8667797351
 20
-1.8234524398
 11
-91.9699393075
 21
0.7973405812
  0
LINE
  5
224
100
AcDbEntity
  8
RACCORDO
100
AcDbLine
 62
250
  6
CONTINUOUS
 10
-91.9699393075
 20
0.7973405812
 11
-92.0201829206
 21
2.1004020585
  0
LINE
  5
225
100
AcDbEntity
  8
RACCORDO
100
AcDbLine
 62
250
  6
CONTINUOUS
 10
-92.0201829206
 20
2.1004020585
 11
-92.0560152066
 21
3.0580814655
  0
LINE
  5
226
100
AcDbEntity
  8
RACCORDO
100
AcDbLine
 62
250
  6
CONTINUOUS
 10
-92.0560152066
 20
3.0580814655
 11
-92.0892542204
 21
3.9753051329
  0
LINE
  5
227
100
AcDbEntity
  8
RACCORDO
100
AcDbLine
 62
250
  6
CONTINUOUS
 10
-92.0892542204
 20
3.9753051329
 11
-92.1180986734
 21
4.7977981077
  0
LINE
  5
228
100
AcDbEntity
  8
RACCORDO
100
AcDbLine
 62
250
  6
CONTINUOUS
 10
-92.1180986734
 20
4.7977981077
 11
-92.148986897
 21
5.7084607161
  0
LINE
  5
229
100
AcDbEntity
  8
RACCORDO
100
AcDbLine
 62
250
  6
CONTINUOUS
 10
-92.148986897
 20
5.7084607161
 11
-92.1820529926
 21
6.716293533
  0
LINE
  5
22A
100
AcDbEntity
  8
RACCORDO
100
AcDbLine
 62
250
  6
CONTINUOUS
 10
-92.1820529926
 20
6.716293533
 11
-92.2175635565
 21
7.8315489463
  0
LINE
  5
22B
100
AcDbEntity
  8
RACCORDO
100
AcDbLine
 62
250
  6
CONTINUOUS
 10
-92.2175635565
 20
7.8315489463
 11
-92.2557769762
 21
9.0666722931
  0
LINE
  5
22C
100
AcDbEntity
  8
RACCORDO
100
AcDbLine
 62
250
  6
CONTINUOUS
 10
-92.2557769762
 20
9.0666722931
 11
-92.2861908263
 21
10.0794730343
  0
LINE
  5
22D
100
AcDbEntity
  8
RACCORDO
100
AcDbLine
 62
250
  6
CONTINUOUS
 10
-92.2861908263
 20
10.0794730343
 11
-92.3181045004
 21
11.1731843968
  0
LINE
  5
22E
100
AcDbEntity
  8
RACCORDO
100
AcDbLine
 62
250
  6
CONTINUOUS
 10
-92.3181045004
 20
11.1731843968
 11
-92.3515300078
 21
12.3544172147
  0
LINE
  5
22F
100
AcDbEntity
  8
RACCORDO
100
AcDbLine
 62
250
  6
CONTINUOUS
 10
-92.3515300078
 20
12.3544172147
 11
-92.3864863631
 21
13.6302644912
  0
LINE
  5
230
100
AcDbEntity
  8
RACCORDO
100
AcDbLine
 62
250
  6
CONTINUOUS
 10
-92.3864863631
 20
13.6302644912
 11
-92.4230313339
 21
15.0082755123
  0
LINE
  5
231
100
AcDbEntity
  8
RACCORDO
100
AcDbLine
 62
250
  6
CONTINUOUS
 10
-92.4230313339
 20
15.0082755123
 11
-92.4612841636
 21
16.4964290672
  0
LINE
  5
232
100
AcDbEntity
  8
RACCORDO
100
AcDbLine
 62
250
  6
CONTINUOUS
 10
-92.765217762
 20
28.8214413789
 11
-92.863063143
 21
32.6527061241
  0
LINE
  5
233
100
AcDbEntity
  8
RACCORDO
100
AcDbLine
 62
250
  6
CONTINUOUS
 10
-92.7106693337
 20
26.657933551
 11
-92.765217762
 21
28.8214413789
  0
LINE
  5
234
100
AcDbEntity
  8
RACCORDO
100
AcDbLine
 62
7
  6
CONTINUOUS
 10
-93.0902679054
 20
28.7923319765
 11
-92.9684284372
 21
23.894400504
  0
LINE
  5
235
100
AcDbEntity
  8
RACCORDO
100
AcDbLine
 62
7
  6
CONTINUOUS
 10
-93.0295389486
 20
26.3558018478
 11
-93.0295362806
 21
26.3556945988
  0
LINE
  5
236
100
AcDbEntity
  8
RACCORDO
100
AcDbLine
 62
250
  6
CONTINUOUS
 10
-92.4612841636
 20
16.4964290672
 11
-92.5014541041
 21
18.1030310201
  0
LINE
  5
237
100
AcDbEntity
  8
RACCORDO
100
AcDbLine
 62
250
  6
CONTINUOUS
 10
-92.863063143
 20
32.6527061241
 11
-92.905652736
 21
34.349790746
  0
LWPOLYLINE
  5
238
100
AcDbEntity
  8
RACCORDO
100
AcDbPolyline
 62
7
  6
CONTINUOUS
 90
11
 70
0
 10
-92.9684284372
 20
23.894400504
 10
-92.8377332375
 20
18.5938066447
 10
-92.7737595714
 20
16.0294109134
 10
-92.7100772835
 20
13.5231511325
 10
-92.6464003929
 20
11.075293395
 10
-92.5826451946
 20
8.6858601855
 10
-92.5189503758
 20
6.3547816874
 10
-92.4551017601
 20
4.0825128262
 10
-92.3908622548
 20
1.8695070022
 10
-92.3269626305
 20
-0.2853096597
 10
-92.2693852678
 20
-2.0834284216
  0
LINE
  5
239
100
AcDbEntity
  8
RACCORDO
100
AcDbLine
 62
250
  6
CONTINUOUS
 10
-92.905652736
 20
34.349790746
 11
-92.9440336749
 21
35.9173308411
  0
LINE
  5
23A
100
AcDbEntity
  8
RACCORDO
100
AcDbLine
 62
250
  6
CONTINUOUS
 10
-92.5014541041
 20
18.1030310201
 11
-92.5736406184
 21
21.0661748372
  0
LWPOLYLINE
  5
23B
100
AcDbEntity
  8
RACCORDO
100
AcDbPolyline
 62
250
  6
CONTINUOUS
 90
3
 70
0
 10
-92.5736406184
 20
21.0661748372
 10
-92.6211248065
 20
23.0305055292
 10
-92.7106693337
 20
26.657933551
  0
LINE
  5
23C
100
AcDbEntity
  8
RACCORDO
100
AcDbLine
 62
250
  6
CONTINUOUS
 10
-92.9440336749
 20
35.9173308411
 11
-92.9784046878
 21
37.3659939503
  0
LINE
  5
23D
100
AcDbEntity
  8
RACCORDO
100
AcDbLine
 62
250
  6
CONTINUOUS
 10
-92.9784046878
 20
37.3659939503
 11
-93.0090461022
 21
38.7054334596
  0
LINE
  5
23E
100
AcDbEntity
  8
RACCORDO
100
AcDbLine
 62
250
  6
CONTINUOUS
 10
-93.0090461022
 20
38.7054334596
 11
-93.0362825406
 21
39.9444070775
  0
LINE
  5
23F
100
AcDbEntity
  8
RACCORDO
100
AcDbLine
 62
250
  6
CONTINUOUS
 10
-93.0362825406
 20
39.9444070775
 11
-93.0604587275
 21
41.0908793643
  0
LINE
  5
240
100
AcDbEntity
  8
RACCORDO
100
AcDbLine
 62
250
  6
CONTINUOUS
 10
-93.0604587275
 20
41.0908793643
 11
-93.0819144545
 21
42.1521099705
  0
LINE
  5
241
100
AcDbEntity
  8
RACCORDO
100
AcDbLine
 62
250
  6
CONTINUOUS
 10
-93.0819144545
 20
42.1521099705
 11
-93.1009657467
 21
43.134723814
  0
LINE
  5
242
100
AcDbEntity
  8
RACCORDO
100
AcDbLine
 62
250
  6
CONTINUOUS
 10
-93.1009657467
 20
43.134723814
 11
-93.1231591371
 21
44.3328421833
  0
LWPOLYLINE
  5
243
100
AcDbEntity
  8
RACCORDO
100
AcDbPolyline
 62
7
  6
CONTINUOUS
 90
11
 70
0
 10
-93.6879280575
 20
54.9388355984
 10
-93.6546616492
 20
53.0808848774
 10
-93.6106355887
 20
50.8977980564
 10
-93.5641221578
 20
48.6596249435
 10
-93.5143991022
 20
46.3674527691
 10
-93.4617159742
 20
44.0210005377
 10
-93.406283066
 20
41.6199422262
 10
-93.347966726
 20
39.1645043912
 10
-93.286849773
 20
36.6545638713
 10
-93.2232151335
 20
34.0896706068
 10
-93.0902679054
 20
28.7923319765
  0
LINE
  5
244
100
AcDbEntity
  8
RACCORDO
100
AcDbLine
 62
250
  6
CONTINUOUS
 10
-93.1231591371
 20
44.3328421833
 11
-93.1422569453
 21
45.415106446
  0
LINE
  5
245
100
AcDbEntity
  8
RACCORDO
100
AcDbLine
 62
250
  6
CONTINUOUS
 10
-93.1422569453
 20
45.415106446
 11
-93.1585058044
 21
46.3928998062
  0
LINE
  5
246
100
AcDbEntity
  8
RACCORDO
100
AcDbLine
 62
250
  6
CONTINUOUS
 10
-93.2469638741
 20
53.661385068
 11
-93.2483474419
 21
53.747355882
  0
LINE
  5
247
100
AcDbEntity
  8
RACCORDO
100
AcDbLine
 62
250
  6
CONTINUOUS
 10
-93.1585058044
 20
46.3928998062
 11
-93.1721900649
 21
47.276274848
  0
LINE
  5
248
100
AcDbEntity
  8
RACCORDO
100
AcDbLine
 62
250
  6
CONTINUOUS
 10
-93.1721900649
 20
47.276274848
 11
-93.1836579657
 21
48.074512906
  0
LINE
  5
249
100
AcDbEntity
  8
RACCORDO
100
AcDbLine
 62
250
  6
CONTINUOUS
 10
-93.1836579657
 20
48.074512906
 11
-93.1954542698
 21
48.9648395778
  0
LINE
  5
24A
100
AcDbEntity
  8
RACCORDO
100
AcDbLine
 62
250
  6
CONTINUOUS
 10
-93.1954542698
 20
48.9648395778
 11
-93.2067626474
 21
49.8951711817
  0
LINE
  5
24B
100
AcDbEntity
  8
RACCORDO
100
AcDbLine
 62
250
  6
CONTINUOUS
 10
-93.2067626474
 20
49.8951711817
 11
-93.2196305451
 21
51.0484581695
  0
LINE
  5
24C
100
AcDbEntity
  8
RACCORDO
100
AcDbLine
 62
250
  6
CONTINUOUS
 10
-93.2412949282
 20
53.1259676334
 11
-93.2469638741
 21
53.661385068
  0
LINE
  5
24D
100
AcDbEntity
  8
RACCORDO
100
AcDbLine
 62
250
  6
CONTINUOUS
 10
-93.2196305451
 20
51.0484581695
 11
-93.2412949282
 21
53.1259676334
  0
LWPOLYLINE
  5
24E
100
AcDbEntity
  8
RACCORDO
100
AcDbPolyline
 62
250
  6
CONTINUOUS
 90
3
 70
0
 10
-93.2483474419
 20
53.747355882
 10
-93.2486171012
 20
53.7887392864
 10
-93.2481830479
 20
53.8292263089
  0
LINE
  5
24F
100
AcDbEntity
  8
RACCORDO
100
AcDbLine
 62
250
  6
CONTINUOUS
 10
-93.2481830479
 20
53.8292263089
 11
-93.2462318662
 21
53.9090523816
  0
LINE
  5
250
100
AcDbEntity
  8
RACCORDO
100
AcDbLine
 62
250
  6
CONTINUOUS
 10
-93.2400574545
 20
54.1116335266
 11
-93.2321437779
 21
54.4325839862
  0
LINE
  5
251
100
AcDbEntity
  8
RACCORDO
100
AcDbLine
 62
250
  6
CONTINUOUS
 10
-93.2423894972
 20
54.0295150146
 11
-93.2400574545
 21
54.1116335266
  0
LINE
  5
252
100
AcDbEntity
  8
RACCORDO
100
AcDbLine
 62
250
  6
CONTINUOUS
 10
-93.2462318662
 20
53.9090523816
 11
-93.2423894972
 21
54.0295150146
  0
LWPOLYLINE
  5
253
100
AcDbEntity
  8
RACCORDO
100
AcDbPolyline
 62
250
  6
CONTINUOUS
 90
7
 70
0
 10
-92.26842124
 20
-2.0985718212
 10
-92.247796473
 20
-2.1998433129
 10
-92.20306059
 20
-2.2971588074
 10
-92.1353171147
 20
-2.3881177749
 10
-92.0462371115
 20
-2.4704764863
 10
-91.9380179642
 20
-2.5422033608
 10
-91.813329172
 20
-2.6015290783
  0
LWPOLYLINE
  5
254
100
AcDbEntity
  8
RACCORDO
100
AcDbPolyline
 62
250
  6
CONTINUOUS
 90
7
 70
0
 10
-93.0295362806
 20
26.3556945988
 10
-93.019367424
 20
26.2754682984
 10
-92.9895161039
 20
26.1891889163
 10
-92.9406927784
 20
26.1066924634
 10
-92.8738626496
 20
26.0296098352
 10
-92.7903469009
 20
25.9594648997
 10
-92.6917965784
 20
25.8976443719
  0
LWPOLYLINE
  5
255
100
AcDbEntity
  8
RACCORDO
100
AcDbPolyline
 62
250
  6
CONTINUOUS
 90
4
 70
0
 10
-75.7137882162
 20
1.5558294393
 10
-75.7389690029
 20
2.309296142
 10
-75.7623382698
 20
3.0885942824
 10
-75.7850167938
 20
3.8930825422
  0
LINE
  5
256
100
AcDbEntity
  8
RACCORDO
100
AcDbLine
 62
250
  6
CONTINUOUS
 10
-75.7850167938
 20
3.8930825422
 11
-75.8311150305
 21
5.5771872595
  0
LINE
  5
257
100
AcDbEntity
  8
RACCORDO
100
AcDbLine
 62
250
  6
CONTINUOUS
 10
-75.8311150305
 20
5.5771872595
 11
-75.8786098919
 21
7.3501581232
  0
LINE
  5
258
100
AcDbEntity
  8
RACCORDO
100
AcDbLine
 62
250
  6
CONTINUOUS
 10
-75.8786098919
 20
7.3501581232
 11
-75.9277079002
 21
9.211100068
  0
LINE
  5
259
100
AcDbEntity
  8
RACCORDO
100
AcDbLine
 62
250
  6
CONTINUOUS
 10
-75.9277079002
 20
9.211100068
 11
-75.9784936263
 21
11.1680138556
  0
LINE
  5
25A
100
AcDbEntity
  8
RACCORDO
100
AcDbLine
 62
250
  6
CONTINUOUS
 10
-75.3182321214
 20
32.9920010104
 11
-75.3786189911
 21
35.3439254809
  0
LINE
  5
25B
100
AcDbEntity
  8
RACCORDO
100
AcDbLine
 62
250
  6
CONTINUOUS
 10
-75.9784936263
 20
11.1680138556
 11
-76.0583241018
 21
14.2918493791
  0
LINE
  5
25C
100
AcDbEntity
  8
RACCORDO
100
AcDbLine
 62
250
  6
CONTINUOUS
 10
-76.0583241018
 20
14.2918493791
 11
-76.1728766592
 21
18.8252660164
  0
LINE
  5
25D
100
AcDbEntity
  8
RACCORDO
100
AcDbLine
 62
250
  6
CONTINUOUS
 10
-75.1843646528
 20
27.6678727429
 11
-75.3182321214
 21
32.9920010104
  0
LINE
  5
25E
100
AcDbEntity
  8
RACCORDO
100
AcDbLine
 62
250
  6
CONTINUOUS
 10
-74.9146193472
 20
16.8739039381
 11
-75.1843646528
 21
27.6678727429
  0
LINE
  5
25F
100
AcDbEntity
  8
RACCORDO
100
AcDbLine
 62
250
  6
CONTINUOUS
 10
-74.7792531757
 20
11.4038735251
 11
-74.9146193472
 21
16.8739039381
  0
LINE
  5
260
100
AcDbEntity
  8
RACCORDO
100
AcDbLine
 62
250
  6
CONTINUOUS
 10
-76.1728767995
 20
18.8252657555
 11
-76.3351129309
 21
25.4706226071
  0
LINE
  5
261
100
AcDbEntity
  8
RACCORDO
100
AcDbLine
 62
250
  6
CONTINUOUS
 10
-76.3351129309
 20
25.4706226071
 11
-76.3832728787
 21
27.4782748558
  0
LWPOLYLINE
  5
262
100
AcDbEntity
  8
RACCORDO
100
AcDbPolyline
 62
250
  6
CONTINUOUS
 90
3
 70
0
 10
-74.5183708987
 20
0.7633058391
 10
-74.5364931263
 20
1.5218536162
 10
-74.7792531757
 20
11.4038735251
  0
LINE
  5
263
100
AcDbEntity
  8
RACCORDO
100
AcDbLine
 62
250
  6
CONTINUOUS
 10
-76.3832728787
 20
27.4782748558
 11
-76.4283423417
 21
29.3889006082
  0
LINE
  5
264
100
AcDbEntity
  8
RACCORDO
100
AcDbLine
 62
250
  6
CONTINUOUS
 10
-76.4283423417
 20
29.3889006082
 11
-76.470432587
 21
31.2058386837
  0
LWPOLYLINE
  5
265
100
AcDbEntity
  8
RACCORDO
100
AcDbPolyline
 62
250
  6
CONTINUOUS
 90
6
 70
0
 10
-76.470432587
 20
31.2058386837
 10
-76.5097704013
 20
32.9372255535
 10
-76.5281954064
 20
33.7676986043
 10
-76.5455782377
 20
34.5732248839
 10
-76.5610227249
 20
35.3540943245
 10
-76.5733735193
 20
36.1098449326
  0
LWPOLYLINE
  5
266
100
AcDbEntity
  8
RACCORDO
100
AcDbPolyline
 62
250
  6
CONTINUOUS
 90
73
 70
0
 10
-75.3786189911
 20
35.3439254809
 10
-75.3790634522
 20
35.3883477702
 10
-75.3780020223
 20
35.43067104
 10
-75.3755961261
 20
35.470911201
 10
-75.3720134002
 20
35.5089728501
 10
-75.3674010286
 20
35.5450040767
 10
-75.3618495248
 20
35.5793813243
 10
-75.3555279954
 20
35.6118414718
 10
-75.3484989267
 20
35.642704498
 10
-75.3405525334
 20
35.673164041
 10
-75.3316180744
 20
35.7034018935
 10
-75.3217535896
 20
35.7331888947
 10
-75.3107947234
 20
35.7630303002
 10
-75.2986135327
 20
35.7930988885
 10
-75.2852350114
 20
35.8231211109
 10
-75.2706930709
 20
35.8529161304
 10
-75.254939086
 20
35.8824864836
 10
-75.2379611908
 20
35.9117426759
 10
-75.2198912087
 20
35.9403919455
 10
-75.2007150686
 20
35.968427729
 10
-75.1804474375
 20
35.9958033216
 10
-75.1593250852
 20
36.0222099477
 10
-75.1373822253
 20
36.0476514972
 10
-75.1146553717
 20
36.0721265389
 10
-75.091449772
 20
36.0953726425
 10
-75.0678562666
 20
36.1173987961
 10
-75.0439138509
 20
36.1382616012
 10
-75.0198999105
 20
36.1578184692
 10
-74.9959328404
 20
36.176093642
 10
-74.9720486147
 20
36.193172627
 10
-74.9484249095
 20
36.2090331965
 10
-74.9251950187
 20
36.2237010045
 10
-74.902372512
 20
36.2372759418
 10
-74.879953474
 20
36.2498496652
 10
-74.8580559738
 20
36.2614454599
 10
-74.8366761844
 20
36.2721494511
 10
-74.815605587
 20
36.2821256377
 10
-74.7948715565
 20
36.2914177289
 10
-74.7745171194
 20
36.3000522284
 10
-74.7543326978
 20
36.3081381261
 10
-74.7344216795
 20
36.315667478
 10
-74.7147264769
 20
36.3226934169
 10
-74.6947687958
 20
36.3293791401
 10
-74.6745291606
 20
36.3357250619
 10
-74.6540346397
 20
36.3417236598
 10
-74.6328465365
 20
36.3474807938
 10
-74.610931717
 20
36.3529662794
 10
-74.5883053012
 20
36.3581591606
 10
-74.564575438
 20
36.3631377022
 10
-74.539477273
 20
36.367900883
 10
-74.5132308827
 20
36.3723443895
 10
-74.4861701614
 20
36.3763889941
 10
-74.4584500231
 20
36.37998866
 10
-74.4299031447
 20
36.3831302014
 10
-74.4003872708
 20
36.3857944565
 10
-74.3698526599
 20
36.3879403051
 10
-74.3383309599
 20
36.3895218564
 10
-74.3057991368
 20
36.3905027013
 10
-74.2720949058
 20
36.3908397494
 10
-74.2373675072
 20
36.3904767968
 10
-74.2020737449
 20
36.389384523
 10
-74.1662449128
 20
36.3875627938
 10
-74.1298687937
 20
36.3849758314
 10
-74.0933593426
 20
36.3815954018
 10
-74.0572853857
 20
36.3774930347
 10
-74.0211254878
 20
36.3726353876
 10
-73.9836516593
 20
36.3667867206
 10
-73.9445777505
 20
36.3598177263
 10
-73.9042047431
 20
36.3517065812
 10
-73.8621710918
 20
36.3422765417
 10
-73.8183679789
 20
36.3313920072
 10
-73.7729432583
 20
36.3189862476
 10
-73.7259262925
 20
36.3049589961
  0
LWPOLYLINE
  5
267
100
AcDbEntity
  8
RACCORDO
100
AcDbPolyline
 62
250
  6
CONTINUOUS
 90
63
 70
0
 10
-76.5733579984
 20
36.1098621851
 10
-76.5730157959
 20
36.1951774022
 10
-76.5697597151
 20
36.2763967135
 10
-76.5639080861
 20
36.353525771
 10
-76.5558113482
 20
36.4263633113
 10
-76.5457407993
 20
36.4952099113
 10
-76.5338005632
 20
36.5608825166
 10
-76.5200825991
 20
36.6230259897
 10
-76.5048953964
 20
36.6821951269
 10
-76.4884952995
 20
36.7402328134
 10
-76.4711622308
 20
36.7971071092
 10
-76.4529308112
 20
36.8521899612
 10
-76.4333293066
 20
36.906668358
 10
-76.4121864104
 20
36.9613269825
 10
-76.3892741425
 20
37.0160591536
 10
-76.3639877399
 20
37.0704915866
 10
-76.3360306967
 20
37.1244778458
 10
-76.3056338422
 20
37.1778459402
 10
-76.2730962678
 20
37.2300771198
 10
-76.2384000597
 20
37.2811748011
 10
-76.2015607856
 20
37.3310347681
 10
-76.1630319199
 20
37.3790804709
 10
-76.1228809948
 20
37.425294577
 10
-76.0811868673
 20
37.4696672278
 10
-76.0385409972
 20
37.5117295937
 10
-75.9951110376
 20
37.551487098
 10
-75.9509743275
 20
37.5890394587
 10
-75.9066754492
 20
37.6241516885
 10
-75.8624405422
 20
37.6568592569
 10
-75.8183420012
 20
37.6873092617
 10
-75.774729204
 20
37.7154911979
 10
-75.7318246
 20
37.7414564181
 10
-75.6896384084
 20
37.7653907771
 10
-75.6482012356
 20
37.7874908455
 10
-75.6078242298
 20
37.8077663922
 10
-75.5685177894
 20
37.8263545187
 10
-75.5298133108
 20
37.843603292
 10
-75.4915623133
 20
37.8596163822
 10
-75.4536099838
 20
37.874575638
 10
-75.4152857019
 20
37.8889309055
 10
-75.3767346585
 20
37.9026511628
 10
-75.3380661062
 20
37.9156752084
 10
-75.2986419299
 20
37.9282660969
 10
-75.2584139185
 20
37.9404283294
 10
-75.2173978727
 20
37.9520836012
 10
-75.1749305216
 20
37.9633282165
 10
-75.13117049
 20
37.9741921412
 10
-75.086620835
 20
37.9844149676
 10
-75.0413352427
 20
37.9935837663
 10
-74.9951501495
 20
38.0015086596
 10
-74.9478445126
 20
38.0084130524
 10
-74.899086282
 20
38.0145584964
 10
-74.8487379118
 20
38.0200163962
 10
-74.7967489901
 20
38.0246406769
 10
-74.7430237405
 20
38.0283241968
 10
-74.6875748292
 20
38.0309734661
 10
-74.6304583075
 20
38.0325237925
 10
-74.571631636
 20
38.0329016792
 10
-74.5108358578
 20
38.0319735494
 10
-74.4483075567
 20
38.0297380711
 10
-74.3847515026
 20
38.0263574199
 10
-74.3201889318
 20
38.0216318462
 10
-74.2541118577
 20
38.0155929153
  0
LWPOLYLINE
  5
268
100
AcDbEntity
  8
RACCORDO
100
AcDbPolyline
 62
250
  6
CONTINUOUS
 90
10
 70
0
 10
-73.7259252085
 20
36.3049589593
 10
-73.6776516535
 20
36.4878739875
 10
-73.6341058861
 20
36.6702042728
 10
-73.5954637256
 20
36.8512135868
 10
-73.5618811914
 20
37.0301710352
 10
-73.5334938726
 20
37.2063540088
 10
-73.5104163809
 20
37.3790511012
 10
-73.4927418874
 20
37.5475649816
 10
-73.480541747
 20
37.7112152105
 10
-73.4738652095
 20
37.869340987
  0
LWPOLYLINE
  5
269
100
AcDbEntity
  8
RACCORDO
100
AcDbPolyline
 62
250
  6
CONTINUOUS
 90
10
 70
0
 10
-62.8076884611
 20
47.8825804761
 10
-62.8665791852
 20
47.7964142508
 10
-62.9237143719
 20
47.6989100164
 10
-62.978109877
 20
47.5917469762
 10
-63.0288287399
 20
47.4767706804
 10
-63.0749973206
 20
47.3559612414
 10
-63.115820345
 20
47.2313992317
 10
-63.150594602
 20
47.1052298519
 10
-63.1787210543
 20
46.9796259852
 10
-63.199715155
 20
46.8567507752
  0
LINE
  5
26A
100
AcDbEntity
  8
ASSI
100
AcDbLine
 62
250
  6
CONTINUOUS
 10
-72.0124862535
 20
33.9335047042
 11
-72.6030006691
 21
33.1935077057
  0
LWPOLYLINE
  5
26B
100
AcDbEntity
  8
RACCORDO
100
AcDbPolyline
 62
250
  6
CONTINUOUS
 90
4
 70
0
 10
-73.6267693303
 20
35.3306217167
 10
-73.6560675592
 20
35.2988155824
 10
-73.7307040291
 20
35.2363970466
 10
-73.8166480772
 20
35.1800306631
  0
LINE
  5
26C
100
AcDbEntity
  8
0
100
AcDbLine
 62
250
  6
CONTINUOUS
 10
-73.593143212
 20
35.3376071203
 11
-72.7336101441
 21
0.7857303325
  0
LINE
  5
26D
100
AcDbEntity
  8
ASSI
100
AcDbLine
 62
7
  6
CONTINUOUS
 10
-72.6486929108
 20
35.0302639238
 11
-72.6030006691
 21
33.1935077057
  0
LINE
  5
26E
100
AcDbEntity
  8
ASSI
100
AcDbLine
 62
7
  6
CONTINUOUS
 10
-71.9075002788
 20
5.2354864425
 11
-71.8251264278
 21
1.9241872532
  0
LINE
  5
26F
100
AcDbEntity
  8
ASSI
100
AcDbLine
 62
7
  6
CONTINUOUS
 10
-72.0124862535
 20
33.9335047042
 11
-71.3169858632
 21
5.9754834409
  0
LWPOLYLINE
  5
270
100
AcDbEntity
  8
ASSI
100
AcDbPolyline
 62
7
  6
CONTINUOUS
 90
7
 70
0
 10
-71.3169858632
 20
5.9754834409
 10
-71.3219250886
 20
5.8050706659
 10
-71.3436483116
 20
5.6437259993
 10
-71.3821555322
 20
5.4914494411
 10
-71.4380064116
 20
5.3471993967
 10
-71.5106412886
 20
5.2120174606
 10
-71.5894849562
 20
5.1000426745
  0
LWPOLYLINE
  5
271
100
AcDbEntity
  8
RACCORDO
100
AcDbPolyline
 62
250
  6
CONTINUOUS
 90
10
 70
0
 10
-64.4175412798
 20
33.445955265
 10
-64.3701952449
 20
33.6313439452
 10
-64.3276808451
 20
33.8161191446
 10
-64.2901738169
 20
33.9995181088
 10
-64.2578292244
 20
34.1807837648
 10
-64.2307808194
 20
34.3591678469
 10
-64.2091404889
 20
34.5339339855
 10
-64.1929977934
 20
34.7043607474
 10
-64.1824195969
 20
34.8697446137
 10
-64.1774497911
 20
35.0294028848
  0
LWPOLYLINE
  5
272
100
AcDbEntity
  8
ASSI
100
AcDbPolyline
 62
7
  6
CONTINUOUS
 90
10
 70
0
 10
-71.8251264278
 20
1.9241872532
 10
-71.8190325304
 20
1.8804084021
 10
-71.806135417
 20
1.8379764717
 10
-71.7864350874
 20
1.7968914621
 10
-71.7589399284
 20
1.7560103863
 10
-71.7246415532
 20
1.7164762314
 10
-71.6865148019
 20
1.681717958
 10
-71.6455512877
 20
1.6528785532
 10
-71.6007593974
 20
1.62881503
 10
-71.552139131
 20
1.6095273884
  0
LWPOLYLINE
  5
273
100
AcDbEntity
  8
RACCORDO
100
AcDbPolyline
 62
250
  6
CONTINUOUS
 90
8
 70
0
 10
-73.7913092618
 20
35.57020906
 10
-73.8022438837
 20
35.6537636308
 10
-73.8063510781
 20
35.7469942565
 10
-73.8035686153
 20
35.8484881234
 10
-73.7939386247
 20
35.9567074395
 10
-73.7776069691
 20
36.070012319
 10
-73.7548211028
 20
36.1866855615
 10
-73.7259262925
 20
36.3049589961
  0
LWPOLYLINE
  5
274
100
AcDbEntity
  8
0
100
AcDbPolyline
 62
250
  6
CONTINUOUS
 90
10
 70
0
 10
-72.7336101441
 20
0.7857303325
 10
-72.7285459607
 20
0.7440922901
 10
-72.7155168867
 20
0.701226205
 10
-72.6949188037
 20
0.6584345414
 10
-72.6673775742
 20
0.6170175025
 10
-72.6337300244
 20
0.5782335239
 10
-72.5949985182
 20
0.5432610373
 10
-72.5523598927
 20
0.513162664
 10
-72.507109701
 20
0.4888529278
 10
-72.4606228473
 20
0.4710704677
  0
LWPOLYLINE
  5
275
100
AcDbEntity
  8
RACCORDO
100
AcDbPolyline
 62
250
  6
CONTINUOUS
 90
10
 70
0
 10
-63.1824192607
 20
-4.9866975399
 10
-63.1183721717
 20
-5.8315800111
 10
-63.0348349907
 20
-6.7356982036
 10
-62.9256785399
 20
-7.7120038877
 10
-62.7897992655
 20
-8.7247359076
 10
-62.6253811833
 20
-9.756312102
 10
-62.4344644235
 20
-10.7766279148
 10
-62.2170141943
 20
-11.7759449076
 10
-61.9702855753
 20
-12.7582597049
 10
-61.692545693
 20
-13.7208958499
  0
LWPOLYLINE
  5
276
100
AcDbEntity
  8
RACCORDO
100
AcDbPolyline
 62
250
  6
CONTINUOUS
 90
10
 70
0
 10
-64.177741641
 20
35.0294925091
 10
-64.1584172986
 20
35.9789866129
 10
-64.1234260076
 20
37.032094813
 10
-64.0678696207
 20
38.2151905462
 10
-63.9890644592
 20
39.4971438284
 10
-63.8845344716
 20
40.8656007976
 10
-63.7546581173
 20
42.2875178496
 10
-63.5987810462
 20
43.7542587385
 10
-63.4143911308
 20
45.2766371857
 10
-63.199606519
 20
46.8567174141
  0
LINE
  5
277
100
AcDbEntity
  8
DRAFT
100
AcDbLine
 62
7
  6
CONTINUOUS
 10
-62.6631655922
 20
-0.1988520148
 11
-62.6192559111
 21
-0.0775755469
  0
LINE
  5
278
100
AcDbEntity
  8
DRAFT
100
AcDbLine
 62
7
  6
CONTINUOUS
 10
-62.4380737627
 20
0.0085295175
 11
-62.3687959746
 21
0.1998715002
  0
LINE
  5
279
100
AcDbEntity
  8
DRAFT
100
AcDbLine
 62
7
  6
CONTINUOUS
 10
-62.1876138262
 20
0.2859765646
 11
-62.1183360381
 21
0.4773185473
  0
LINE
  5
27A
100
AcDbEntity
  8
DRAFT
100
AcDbLine
 62
7
  6
CONTINUOUS
 10
-61.9371538896
 20
0.5634236117
 11
-61.8678761016
 21
0.7547655944
  0
LWPOLYLINE
  5
27B
100
AcDbEntity
  8
RACCORDO
100
AcDbPolyline
 62
250
  6
CONTINUOUS
 90
19
 70
0
 10
-72.4606228473
 20
0.4710704677
 10
-72.5162900973
 20
0.3952533283
 10
-72.5708214117
 20
0.3088348794
 10
-72.6233903772
 20
0.2131247786
 10
-72.6732003199
 20
0.1095734968
 10
-72.719496378
 20
-0.0002496633
 10
-72.7615769426
 20
-0.1146803496
 10
-72.7988042894
 20
-0.2319843838
 10
-72.8306142441
 20
-0.3503840425
 10
-72.8565247322
 20
-0.4680849981
 10
-72.8761430842
 20
-0.5833035119
 10
-72.8891719875
 20
-0.6942934662
 10
-72.8954139909
 20
-0.7993728264
 10
-72.8947745002
 20
-0.8969490826
 10
-72.8872632119
 20
-0.9855435415
 10
-72.8729939302
 20
-1.063813685
 10
-72.8521828601
 20
-1.1305733197
 10
-72.8251453675
 20
-1.1848106068
 10
-72.7922911764
 20
-1.2257035198
  0
LINE
  5
27C
100
AcDbEntity
  8
ASSI
100
AcDbLine
 62
250
  6
CONTINUOUS
 10
-71.9075002788
 20
5.2354864425
 11
-71.3169858632
 21
5.9754834409
  0
LINE
  5
27D
100
AcDbEntity
  8
ASSI
100
AcDbLine
 62
7
  6
CONTINUOUS
 10
-71.8946187057
 20
4.7176674744
 11
-71.589578727
 21
5.0999251512
  0
LINE
  5
27E
100
AcDbEntity
  8
RACCORDO
100
AcDbLine
 62
250
  6
CONTINUOUS
 10
-73.8166480772
 20
35.1800306631
 11
-73.9126105176
 21
35.1305619443
  0
LWPOLYLINE
  5
27F
100
AcDbEntity
  8
RACCORDO
100
AcDbPolyline
 62
250
  6
CONTINUOUS
 90
15
 70
0
 10
-73.9126105176
 20
35.1305619443
 10
-74.0171518854
 20
35.0887329355
 10
-74.1287040294
 20
35.0551710841
 10
-74.2455936347
 20
35.0303798278
 10
-74.366067323
 20
35.0147310426
 10
-74.4883179535
 20
35.0084594649
 10
-74.6105117308
 20
35.0116591703
 10
-74.7308157125
 20
35.0242821622
 10
-74.8474253034
 20
35.0461390921
 10
-74.9585910853
 20
35.0769020214
 10
-75.0626458106
 20
35.1161095377
 10
-75.1580292398
 20
35.1631738586
 10
-75.2433105708
 20
35.2173892773
 10
-75.3172100871
 20
35.2779425633
 10
-75.3786189911
 20
35.3439254809
  0
LINE
  5
280
100
AcDbEntity
  8
RACCORDO
100
AcDbLine
 62
7
  6
CONTINUOUS
 10
-56.319549698
 20
-0.8012261535
 11
-56.3194116736
 21
-0.8025272101
  0
LINE
  5
281
100
AcDbEntity
  8
RACCORDO
100
AcDbLine
 62
250
  6
CONTINUOUS
 10
-56.3330836664
 20
-0.8148305922
 11
-56.3165543743
 21
-1.4792821246
  0
LINE
  5
282
100
AcDbEntity
  8
RACCORDO
100
AcDbLine
 62
7
  6
CONTINUOUS
 10
-56.3194186245
 20
-0.8025257561
 11
-56.303584086
 21
-1.4390492833
  0
LINE
  5
283
100
AcDbEntity
  8
RACCORDO
100
AcDbLine
 62
250
  6
CONTINUOUS
 10
-56.303584086
 20
-1.4390492833
 11
-56.3035784829
 21
-1.4417774721
  0
LWPOLYLINE
  5
284
100
AcDbEntity
  8
RACCORDO
100
AcDbPolyline
 62
250
  6
CONTINUOUS
 90
6
 70
0
 10
-56.3165543743
 20
-1.4792821246
 10
-56.3168937747
 20
-1.49110545
 10
-56.3187373943
 20
-1.5023967901
 10
-56.3220649383
 20
-1.5130318463
 10
-56.326840435
 20
-1.5228946784
 10
-56.3296130788
 20
-1.5272940534
  0
LWPOLYLINE
  5
285
100
AcDbEntity
  8
RACCORDO
100
AcDbPolyline
 62
250
  6
CONTINUOUS
 90
5
 70
0
 10
-56.3035784829
 20
-1.4417774721
 10
-56.3045503539
 20
-1.4513855638
 10
-56.3070568589
 20
-1.4609034663
 10
-56.3110720383
 20
-1.4702343471
 10
-56.3165543743
 20
-1.4792821246
  0
LINE
  5
286
100
AcDbEntity
  8
DRAFT
100
AcDbLine
 62
7
  6
CONTINUOUS
 10
-57.1500380637
 20
-1.8918800678
 11
-57.1146395181
 21
-1.7679899127
  0
LINE
  5
287
100
AcDbEntity
  8
DRAFT
100
AcDbLine
 62
7
  6
CONTINUOUS
 10
-56.9690989619
 20
-1.6800454558
 11
-56.9108575964
 21
-1.4762084994
  0
LINE
  5
288
100
AcDbEntity
  8
DRAFT
100
AcDbLine
 62
7
  6
CONTINUOUS
 10
-56.7653170402
 20
-1.3882640426
 11
-56.7070756748
 21
-1.1844270862
  0
LINE
  5
289
100
AcDbEntity
  8
DRAFT
100
AcDbLine
 62
7
  6
CONTINUOUS
 10
-56.5615351186
 20
-1.0964826293
 11
-56.5032937532
 21
-0.8926456729
  0
LINE
  5
28A
100
AcDbEntity
  8
ASSI
100
AcDbLine
 62
250
  6
CONTINUOUS
 10
-71.8251264278
 20
1.9241872532
 11
-72.7336101441
 21
0.7857303325
  0
LINE
  5
28B
100
AcDbEntity
  8
ASSI
100
AcDbLine
 62
250
  6
CONTINUOUS
 10
-71.552139131
 20
1.6095273884
 11
-72.4606228473
 21
0.4710704677
  0
LINE
  5
28C
100
AcDbEntity
  8
ASSI
100
AcDbLine
 62
250
  6
CONTINUOUS
 10
-68.733526684
 20
1.0882267904
 11
-68.9541787657
 21
0.8117189291
  0
LINE
  5
28D
100
AcDbEntity
  8
ASSI
100
AcDbLine
 62
250
  6
CONTINUOUS
 10
-67.1578294708
 20
1.1814157182
 11
-67.7483438864
 21
0.4414187198
  0
LWPOLYLINE
  5
28E
100
AcDbEntity
  8
RACCORDO
100
AcDbPolyline
 62
250
  6
CONTINUOUS
 90
19
 70
0
 10
-72.7336101441
 20
0.7857303325
 10
-72.7958194969
 20
0.7181959121
 10
-72.8704560072
 20
0.6557773526
 10
-72.9564001046
 20
0.5994109516
 10
-73.0523626012
 20
0.5499422224
 10
-73.15690403
 20
0.508113211
 10
-73.2684562377
 20
0.4745513655
 10
-73.3853459069
 20
0.4497601238
 10
-73.5058196566
 20
0.4341113623
 10
-73.6280703437
 20
0.427839817
 10
-73.7502641704
 20
0.4310395632
 10
-73.8705681918
 20
0.4436626036
 10
-73.9871778107
 20
0.4655195888
 10
-74.0983436382
 20
0.4962825893
 10
-74.2023983891
 20
0.5354901861
 10
-74.2977817419
 20
0.58255455
 10
-74.3830628975
 20
0.6367699376
 10
-74.4569622025
 20
0.6973231158
 10
-74.5183708987
 20
0.7633058391
  0
LWPOLYLINE
  5
28F
100
AcDbEntity
  8
RACCORDO
100
AcDbPolyline
 62
250
  6
CONTINUOUS
 90
5
 70
0
 10
88.4368406002
 20
-59.4254584427
 10
88.2835776416
 20
-59.4235582727
 10
88.1269452901
 20
-59.4093660721
 10
87.967904099
 20
-59.3831643944
 10
87.8077642672
 20
-59.3454930631
  0
LWPOLYLINE
  5
290
100
AcDbEntity
  8
RACCORDO
100
AcDbPolyline
 62
250
  6
CONTINUOUS
 90
10
 70
0
 10
-72.7922934012
 20
-1.2257093611
 10
-72.738021518
 20
-1.2842811048
 10
-72.6882181997
 20
-1.3537791588
 10
-72.6430844026
 20
-1.4339229352
 10
-72.6028022359
 20
-1.5243888558
 10
-72.5675342262
 20
-1.624811659
 10
-72.5374226617
 20
-1.7347858744
 10
-72.512589018
 20
-1.8538674603
 10
-72.4931334671
 20
-1.9815755965
 10
-72.4791344738
 20
-2.117394626
  0
LWPOLYLINE
  5
291
100
AcDbEntity
  8
RACCORDO
100
AcDbPolyline
 62
250
  6
CONTINUOUS
 90
10
 70
0
 10
-74.5183686603
 20
0.76330658
 10
-74.6117698326
 20
0.8722405407
 10
-74.7162172457
 20
0.9769213577
 10
-74.8312652381
 20
1.0769023933
 10
-74.9564229172
 20
1.1717570629
 10
-75.091156254
 20
1.2610806556
 10
-75.2348903614
 20
1.3444920609
 10
-75.3870119475
 20
1.4216353945
 10
-75.546871932
 20
1.4921815173
 10
-75.7137882162
 20
1.5558294393
  0
LINE
  5
292
100
AcDbEntity
  8
RACCORDO
100
AcDbLine
 62
250
  6
CONTINUOUS
 10
-56.6935564138
 20
-2.0320611602
 11
-56.3165543743
 21
-1.4792821246
  0
LINE
  5
293
100
AcDbEntity
  8
RACCORDO
100
AcDbLine
 62
7
  6
CONTINUOUS
 10
-56.6772794368
 20
-2.0370596621
 11
-56.329614784
 21
-1.5272965537
  0
LINE
  5
294
100
AcDbEntity
  8
DRAFT
100
AcDbLine
 62
7
  6
CONTINUOUS
 10
-56.482915561
 20
-0.8634675316
 11
-56.5032937532
 21
-0.8926456729
  0
LINE
  5
295
100
AcDbEntity
  8
DRAFT
100
AcDbLine
 62
7
  6
CONTINUOUS
 10
-56.6255629061
 20
-1.0677145209
 11
-56.7070756748
 21
-1.1844270862
  0
LINE
  5
296
100
AcDbEntity
  8
DRAFT
100
AcDbLine
 62
7
  6
CONTINUOUS
 10
-56.8293448278
 20
-1.3594959341
 11
-56.9108575964
 21
-1.4762084994
  0
LINE
  5
297
100
AcDbEntity
  8
DRAFT
100
AcDbLine
 62
7
  6
CONTINUOUS
 10
-57.0331267494
 20
-1.6512773474
 11
-57.1146395181
 21
-1.7679899127
  0
LINE
  5
298
100
AcDbEntity
  8
DRAFT
100
AcDbLine
 62
7
  6
CONTINUOUS
 10
-61.8428301079
 20
0.7825102991
 11
-61.8678761016
 21
0.7547655944
  0
LINE
  5
299
100
AcDbEntity
  8
DRAFT
100
AcDbLine
 62
7
  6
CONTINUOUS
 10
-62.0181520635
 20
0.5882973662
 11
-62.1183360381
 21
0.4773185473
  0
LINE
  5
29A
100
AcDbEntity
  8
DRAFT
100
AcDbLine
 62
7
  6
CONTINUOUS
 10
-62.268612
 20
0.3108503191
 11
-62.3687959746
 21
0.1998715002
  0
LINE
  5
29B
100
AcDbEntity
  8
DRAFT
100
AcDbLine
 62
7
  6
CONTINUOUS
 10
-62.5190719365
 20
0.033403272
 11
-62.6192559111
 21
-0.0775755469
  0
LINE
  5
29C
100
AcDbEntity
  8
RACCORDO
100
AcDbLine
 62
7
  6
CONTINUOUS
 10
58.397563478
 20
-36.1421496873
 11
58.5808028645
 21
-36.1037718651
  0
LWPOLYLINE
  5
29D
100
AcDbEntity
  8
RACCORDO
100
AcDbPolyline
 62
250
  6
CONTINUOUS
 90
10
 70
0
 10
68.6002977881
 20
-43.1870498756
 10
68.7945015048
 20
-43.1664321415
 10
68.9899602606
 20
-43.1538454564
 10
69.1858400557
 20
-43.1493435516
 10
69.381305094
 20
-43.15294566
 10
69.575521349
 20
-43.1646364341
 10
69.7676601224
 20
-43.1843660113
 10
69.9569015804
 20
-43.2120502272
 10
70.1424382517
 20
-43.2475709741
 10
70.3234784727
 20
-43.2907767053
  0
LWPOLYLINE
  5
29E
100
AcDbEntity
  8
RACCORDO
100
AcDbPolyline
 62
250
  6
CONTINUOUS
 90
10
 70
0
 10
-63.4836938441
 20
-4.0841955539
 10
-63.4303911676
 20
-4.1431008229
 10
-63.3816544752
 20
-4.2131740005
 10
-63.3376856808
 20
-4.2941255823
 10
-63.2987033452
 20
-4.3856099967
 10
-63.264832894
 20
-4.4872604679
 10
-63.2361059498
 20
-4.5986905769
 10
-63.2126051245
 20
-4.7194513508
 10
-63.194463528
 20
-4.8490331624
 10
-63.1817553391
 20
-4.9869012707
  0
LWPOLYLINE
  5
29F
100
AcDbEntity
  8
RACCORDO
100
AcDbPolyline
 62
250
  6
CONTINUOUS
 90
10
 70
0
 10
-74.9436907378
 20
18.0478696938
 10
-75.0402328676
 20
18.1559230692
 10
-75.148043045
 20
18.2595348048
 10
-75.2666488285
 20
18.3582511128
 10
-75.3955304679
 20
18.4516396578
 10
-75.534123182
 20
18.5392914524
 10
-75.6818196334
 20
18.6208226484
 10
-75.8379725902
 20
18.6958762197
 10
-76.0018977622
 20
18.7641235265
 10
-76.1728767995
 20
18.8252657555
  0
LWPOLYLINE
  5
2A0
100
AcDbEntity
  8
ASSI
100
AcDbPolyline
 62
7
  6
CONTINUOUS
 90
7
 70
0
 10
-72.2972425678
 20
34.9223369283
 10
-72.2474005469
 20
34.8285802932
 10
-72.16686985
 20
34.6463626933
 10
-72.1029269223
 20
34.4653251313
 10
-72.0561922635
 20
34.2868716177
 10
-72.0260453739
 20
34.109598142
 10
-72.0124862535
 20
33.9335047042
  0
LWPOLYLINE
  5
2A1
100
AcDbEntity
  8
RACCORDO
100
AcDbPolyline
 62
7
  6
CONTINUOUS
 90
4
 70
0
 10
-56.319549698
 20
-0.8012261535
 10
-56.3211801114
 20
-0.7980596246
 10
-56.3238497886
 20
-0.7961415718
 10
-56.3246547819
 20
-0.7958505778
  0
LINE
  5
2A2
100
AcDbEntity
  8
RACCORDO
100
AcDbLine
 62
250
  6
CONTINUOUS
 10
-36.3068101917
 20
-7.218469176
 11
-36.2959228173
 21
-7.6561244944
  0
LINE
  5
2A3
100
AcDbEntity
  8
RACCORDO
100
AcDbLine
 62
7
  6
CONTINUOUS
 10
-36.2895164739
 20
-7.1648253877
 11
-36.2786290995
 21
-7.6024807061
  0
LINE
  5
2A4
100
AcDbEntity
  8
RACCORDO
100
AcDbLine
 62
250
  6
CONTINUOUS
 10
-36.2895164739
 20
-7.1648253877
 11
-36.2895101126
 21
-7.165100163
  0
LWPOLYLINE
  5
2A5
100
AcDbEntity
  8
RACCORDO
100
AcDbPolyline
 62
250
  6
CONTINUOUS
 90
6
 70
0
 10
-36.2786290995
 20
-7.6024807061
 10
-36.2786345982
 20
-7.6066559651
 10
-36.2800073764
 20
-7.6194152255
 10
-36.2833875639
 20
-7.6319872564
 10
-36.2887181158
 20
-7.6442635613
 10
-36.2959228173
 20
-7.6561244944
  0
LWPOLYLINE
  5
2A6
100
AcDbEntity
  8
RACCORDO
100
AcDbPolyline
 62
250
  6
CONTINUOUS
 90
6
 70
0
 10
-36.2895101126
 20
-7.165100163
 10
-36.2895219726
 20
-7.1690006467
 10
-36.2908947508
 20
-7.1817599072
 10
-36.2942749383
 20
-7.194331938
 10
-36.2996054902
 20
-7.2066082429
 10
-36.3068101917
 20
-7.218469176
  0
LWPOLYLINE
  5
2A7
100
AcDbEntity
  8
RACCORDO
100
AcDbPolyline
 62
250
  6
CONTINUOUS
 90
10
 70
0
 10
68.0206414052
 20
-45.1761462564
 10
67.8852427304
 20
-45.1602948146
 10
67.8152452594
 20
-45.1512112583
 10
67.7423584505
 20
-45.1402401533
 10
67.6668094984
 20
-45.1270426643
 10
67.5890074564
 20
-45.1117982249
 10
67.5080214904
 20
-45.0942187753
 10
67.4234008123
 20
-45.0740171334
 10
67.3353914505
 20
-45.0510181828
 10
67.2441093021
 20
-45.0250372158
  0
LWPOLYLINE
  5
2A8
100
AcDbEntity
  8
RACCORDO
100
AcDbPolyline
 62
250
  6
CONTINUOUS
 90
19
 70
0
 10
-89.9189540918
 20
-4.7673390464
 10
-90.0754934389
 20
-4.7078849655
 10
-90.2318771936
 20
-4.6375139981
 10
-90.3867824781
 20
-4.556541531
 10
-90.539206815
 20
-4.4653497181
 10
-90.6878683449
 20
-4.3645355564
 10
-90.8312086249
 20
-4.2549713585
 10
-90.9680980366
 20
-4.1374854528
 10
-91.0976336769
 20
-4.0128861726
 10
-91.2186963153
 20
-3.8821960137
 10
-91.3303223266
 20
-3.7464193627
 10
-91.4318615927
 20
-3.6065273633
 10
-91.5226819078
 20
-3.4635032472
 10
-91.6021512901
 20
-3.3182977953
 10
-91.6696893874
 20
-3.172083554
 10
-91.724842394
 20
-3.0261760908
 10
-91.7672744224
 20
-2.8817273223
 10
-91.7967752392
 20
-2.7397689411
 10
-91.8133226507
 20
-2.6015223287
  0
LWPOLYLINE
  5
2A9
100
AcDbEntity
  8
RACCORDO
100
AcDbPolyline
 62
250
  6
CONTINUOUS
 90
6
 70
0
 10
-89.7572223216
 20
-5.0800540808
 10
-89.788515559
 20
-5.0657139639
 10
-89.8363851088
 20
-5.0225365859
 10
-89.8746691923
 20
-4.9572540699
 10
-89.9024209625
 20
-4.8714810719
 10
-89.9189540918
 20
-4.7673390464
  0
LWPOLYLINE
  5
2AA
100
AcDbEntity
  8
RACCORDO
100
AcDbPolyline
 62
250
  6
CONTINUOUS
 90
5
 70
0
 10
-61.5640705816
 20
-13.8834195394
 10
-61.5955313395
 20
-13.8689448269
 10
-61.6342792672
 20
-13.8349519008
 10
-61.6667577606
 20
-13.7853315885
 10
-61.6924071991
 20
-13.720938546
  0
LWPOLYLINE
  5
2AB
100
AcDbEntity
  8
ASSI
100
AcDbPolyline
 62
7
  6
CONTINUOUS
 90
4
 70
0
 10
-71.3718944762
 20
1.5541760011
 10
-71.5262505882
 20
1.6775923765
 10
-71.7205301104
 20
1.8570544701
 10
-71.8262634958
 20
1.9698955979
  0
LWPOLYLINE
  5
2AC
100
AcDbEntity
  8
RACCORDO
100
AcDbPolyline
 62
250
  6
CONTINUOUS
 90
6
 70
0
 10
-36.2959228173
 20
-7.6561244944
 10
-36.2964455544
 20
-7.6719558127
 10
-36.2989624959
 20
-7.6870808516
 10
-36.3034460814
 20
-7.701333994
 10
-36.3098472166
 20
-7.7145591704
 10
-36.3139601323
 20
-7.7210524568
  0
LWPOLYLINE
  5
2AD
100
AcDbEntity
  8
ASSI
100
AcDbPolyline
 62
7
  6
CONTINUOUS
 90
10
 70
0
 10
-68.733526684
 20
1.0882267904
 10
-68.5905441957
 20
1.1615074312
 10
-68.4384940421
 20
1.219118232
 10
-68.2773762231
 20
1.2610591928
 10
-68.1057988451
 20
1.2874126323
 10
-67.9251538017
 20
1.2980962317
 10
-67.7396167745
 20
1.2928630356
 10
-67.5505796571
 20
1.2716307254
 10
-67.3566505559
 20
1.2344816196
 10
-67.1578294708
 20
1.1814157182
  0
LWPOLYLINE
  5
2AE
100
AcDbEntity
  8
ASSI
100
AcDbPolyline
 62
7
  6
CONTINUOUS
 90
4
 70
0
 10
-68.733526684
 20
1.0882267904
 10
-68.9065469819
 20
1.0024358544
 10
-69.0913470517
 20
0.9390620106
 10
-69.2566825555
 20
0.9046149123
  0
LWPOLYLINE
  5
2AF
100
AcDbEntity
  8
RACCORDO
100
AcDbPolyline
 62
250
  6
CONTINUOUS
 90
10
 70
0
 10
68.159671571
 20
-25.897786548
 10
68.3568048511
 20
-25.8797852004
 10
68.5550762615
 20
-25.8700364128
 10
68.7536169396
 20
-25.8685831678
 10
68.9515568429
 20
-25.8754320955
 10
69.1480285616
 20
-25.8905534435
 10
69.3421711197
 20
-25.9138812083
 10
69.5331337482
 20
-25.9453134238
 10
69.7200796132
 20
-25.9847126084
 10
69.9021894834
 20
-26.0319063675
  0
LWPOLYLINE
  5
2B0
100
AcDbEntity
  8
RACCORDO
100
AcDbPolyline
 62
7
  6
CONTINUOUS
 90
4
 70
0
 10
58.6297687728
 20
-36.1010482318
 10
58.643158149
 20
-36.1024941347
 10
58.6565261424
 20
-36.1055010952
 10
58.6597585811
 20
-36.1064499575
  0
LINE
  5
2B1
100
AcDbEntity
  8
SCRITTA_VIMAR
100
AcDbLine
 62
250
  6
CONTINUOUS
 10
70.0179683112
 20
-48.3575733093
 11
69.8868096991
 21
-48.3226656392
  0
LWPOLYLINE
  5
2B2
100
AcDbEntity
  8
RACCORDO
100
AcDbPolyline
 62
7
  6
CONTINUOUS
 90
12
 70
0
 10
87.9587484885
 20
-59.6549055841
 10
88.0872672003
 20
-59.6895016529
 10
88.3776902411
 20
-59.7480313827
 10
88.6640226828
 20
-59.7782381913
 10
88.9449797434
 20
-59.779985882
 10
89.2178108429
 20
-59.7531205283
 10
89.4779864012
 20
-59.6981519974
 10
89.7223201275
 20
-59.6166198563
 10
89.9497867924
 20
-59.5097251496
 10
90.158655236
 20
-59.3787074818
 10
90.3463217495
 20
-59.225947501
 10
90.4196390801
 20
-59.1546635754
  0
LINE
  5
2B3
100
AcDbEntity
  8
RACCORDO
100
AcDbLine
 62
250
  6
CONTINUOUS
 10
87.8077518086
 20
-59.345511946
 11
87.6187946851
 21
-59.2946585445
  0
LWPOLYLINE
  5
2B4
100
AcDbEntity
  8
RACCORDO
100
AcDbPolyline
 62
250
  6
CONTINUOUS
 90
4
 70
0
 10
87.6187946851
 20
-59.2946585445
 10
87.4183638126
 20
-59.2392001794
 10
87.3144914078
 20
-59.2100019794
 10
87.2079343165
 20
-59.1794376889
  0
LINE
  5
2B5
100
AcDbEntity
  8
RACCORDO
100
AcDbLine
 62
7
  6
CONTINUOUS
 10
87.9593472997
 20
-59.6551751993
 11
87.9587224427
 21
-59.6549955746
  0
LINE
  5
2B6
100
AcDbEntity
  8
RACCORDO
100
AcDbLine
 62
250
  6
CONTINUOUS
 10
79.4593033407
 20
-56.916593787
 11
78.1579501694
 21
-56.5434896221
  0
LINE
  5
2B7
100
AcDbEntity
  8
RACCORDO
100
AcDbLine
 62
250
  6
CONTINUOUS
 10
78.1579501694
 20
-56.5434896221
 11
77.6680188475
 21
-56.4023546934
  0
LINE
  5
2B8
100
AcDbEntity
  8
RACCORDO
100
AcDbLine
 62
250
  6
CONTINUOUS
 10
83.1120065794
 20
-57.9738376502
 11
80.0864946863
 21
-57.0987250692
  0
LINE
  5
2B9
100
AcDbEntity
  8
RACCORDO
100
AcDbLine
 62
250
  6
CONTINUOUS
 10
80.0864946863
 20
-57.0987250692
 11
79.4593033407
 21
-56.916593787
  0
LINE
  5
2BA
100
AcDbEntity
  8
RACCORDO
100
AcDbLine
 62
250
  6
CONTINUOUS
 10
77.6680188475
 20
-56.4023546934
 11
77.1437841469
 21
-56.2498864214
  0
LINE
  5
2BB
100
AcDbEntity
  8
RACCORDO
100
AcDbLine
 62
250
  6
CONTINUOUS
 10
75.9933952561
 20
-55.9130589162
 11
75.3682441319
 21
-55.7300043836
  0
LINE
  5
2BC
100
AcDbEntity
  8
RACCORDO
100
AcDbLine
 62
250
  6
CONTINUOUS
 10
77.1437841469
 20
-56.2498864214
 11
75.9933952561
 21
-55.9130589162
  0
LINE
  5
2BD
100
AcDbEntity
  8
RACCORDO
100
AcDbLine
 62
250
  6
CONTINUOUS
 10
75.3682441319
 20
-55.7300043836
 11
74.0166618072
 21
-55.3337087231
  0
LINE
  5
2BE
100
AcDbEntity
  8
RACCORDO
100
AcDbLine
 62
250
  6
CONTINUOUS
 10
84.6909428475
 20
-58.4353231814
 11
83.1120065794
 21
-57.9738376502
  0
LINE
  5
2BF
100
AcDbEntity
  8
RACCORDO
100
AcDbLine
 62
250
  6
CONTINUOUS
 10
74.0166618072
 20
-55.3337087231
 11
72.9089749164
 21
-55.0081095098
  0
LINE
  5
2C0
100
AcDbEntity
  8
RACCORDO
100
AcDbLine
 62
250
  6
CONTINUOUS
 10
72.9089749164
 20
-55.0081095098
 11
71.71347757
 21
-54.6554885051
  0
LINE
  5
2C1
100
AcDbEntity
  8
RACCORDO
100
AcDbLine
 62
250
  6
CONTINUOUS
 10
71.71347757
 20
-54.6554885051
 11
70.8635610036
 21
-54.403813938
  0
LINE
  5
2C2
100
AcDbEntity
  8
RACCORDO
100
AcDbLine
 62
250
  6
CONTINUOUS
 10
86.496505567
 20
-58.9682583431
 11
84.6909428475
 21
-58.4353231814
  0
LWPOLYLINE
  5
2C3
100
AcDbEntity
  8
RACCORDO
100
AcDbPolyline
 62
7
  6
CONTINUOUS
 90
5
 70
0
 10
77.1697095774
 20
-56.431434726
 10
81.8051378887
 20
-57.8109425156
 10
84.0305787834
 20
-58.4750968648
 10
86.1937046613
 20
-59.1251315987
 10
87.9593472997
 20
-59.6551751993
  0
LINE
  5
2C4
100
AcDbEntity
  8
RACCORDO
100
AcDbLine
 62
250
  6
CONTINUOUS
 10
70.8635610036
 20
-54.403813938
 11
69.9688552703
 21
-54.1378364528
  0
LINE
  5
2C5
100
AcDbEntity
  8
RACCORDO
100
AcDbLine
 62
250
  6
CONTINUOUS
 10
87.2079343165
 20
-59.1794376889
 11
86.496505567
 21
-58.9682583431
  0
LINE
  5
2C6
100
AcDbEntity
  8
RACCORDO
100
AcDbLine
 62
250
  6
CONTINUOUS
 10
69.9688552703
 20
-54.1378364528
 11
69.02644467
 21
-53.856348207
  0
LWPOLYLINE
  5
2C7
100
AcDbEntity
  8
RACCORDO
100
AcDbPolyline
 62
250
  6
CONTINUOUS
 90
7
 70
0
 10
69.02644467
 20
-53.856348207
 10
68.0331490372
 20
-53.5579268479
 10
67.5170725078
 20
-53.4021603767
 10
66.9870325403
 20
-53.2416089577
 10
66.44301109
 20
-53.0762261031
 10
65.8850697527
 20
-52.9060503646
 10
65.312306372
 20
-52.7308009831
  0
LINE
  5
2C8
100
AcDbEntity
  8
RACCORDO
100
AcDbLine
 62
250
  6
CONTINUOUS
 10
-63.9536686104
 20
-13.0299843178
 11
-65.3423522461
 21
-12.6063371557
  0
LINE
  5
2C9
100
AcDbEntity
  8
RACCORDO
100
AcDbLine
 62
250
  6
CONTINUOUS
 10
-62.4694425266
 20
-13.4830403017
 11
-63.9536686104
 21
-13.0299843178
  0
LWPOLYLINE
  5
2CA
100
AcDbEntity
  8
RACCORDO
100
AcDbPolyline
 62
250
  6
CONTINUOUS
 90
9
 70
0
 10
-65.3423522461
 20
-12.6063371557
 10
-66.6462498925
 20
-12.2075794445
 10
-67.2674624965
 20
-12.0169649987
 10
-67.8704697402
 20
-11.8314070451
 10
-68.4553748335
 20
-11.650834209
 10
-69.0220242021
 20
-11.4753011521
 10
-69.5724008936
 20
-11.3042163797
 10
-70.1065854872
 20
-11.1375820113
 10
-70.6244744373
 20
-10.9754900404
  0
LINE
  5
2CB
100
AcDbEntity
  8
RACCORDO
100
AcDbLine
 62
7
  6
CONTINUOUS
 10
59.5671497332
 20
-51.0816446293
 11
-61.5636296774
 21
-13.8835557821
  0
LINE
  5
2CC
100
AcDbEntity
  8
RACCORDO
100
AcDbLine
 62
250
  6
CONTINUOUS
 10
-61.5295341021
 20
-13.7709552961
 11
-62.4694425266
 21
-13.4830403017
  0
LINE
  5
2CD
100
AcDbEntity
  8
RACCORDO
100
AcDbLine
 62
250
  6
CONTINUOUS
 10
65.312306372
 20
-52.7308009831
 11
64.1221873029
 21
-52.3650665717
  0
LWPOLYLINE
  5
2CE
100
AcDbEntity
  8
RACCORDO
100
AcDbPolyline
 62
7
  6
CONTINUOUS
 90
7
 70
0
 10
59.5671490024
 20
-51.081644297
 10
64.6384848271
 20
-52.6439045301
 10
67.2501556979
 20
-53.444289507
 10
69.8099119514
 20
-54.2216679932
 10
72.3167206105
 20
-54.9770427251
 10
74.7699427288
 20
-55.7128633238
 10
77.1697095774
 20
-56.431434726
  0
LINE
  5
2CF
100
AcDbEntity
  8
RACCORDO
100
AcDbLine
 62
250
  6
CONTINUOUS
 10
59.6017499899
 20
-50.9693816579
 11
-61.5295341021
 21
-13.7709552961
  0
LINE
  5
2D0
100
AcDbEntity
  8
RACCORDO
100
AcDbLine
 62
250
  6
CONTINUOUS
 10
60.8686823803
 20
-51.3601645223
 11
59.6017499899
 21
-50.9693816579
  0
LWPOLYLINE
  5
2D1
100
AcDbEntity
  8
RACCORDO
100
AcDbPolyline
 62
250
  6
CONTINUOUS
 90
3
 70
0
 10
64.1221873029
 20
-52.3650665717
 10
62.8712956982
 20
-51.9791150713
 10
60.8686823803
 20
-51.3601645223
  0
LINE
  5
2D2
100
AcDbEntity
  8
RACCORDO
100
AcDbLine
 62
7
  6
CONTINUOUS
 10
-61.5636296774
 20
-13.8835557821
 11
-63.4065287354
 21
-13.3190989573
  0
LWPOLYLINE
  5
2D3
100
AcDbEntity
  8
RACCORDO
100
AcDbPolyline
 62
7
  6
CONTINUOUS
 90
7
 70
0
 10
-75.7239943026
 20
-9.5050600208
 10
-73.7655819534
 20
-10.1199784991
 10
-71.7700263337
 20
-10.7439784053
 10
-69.7367067739
 20
-11.3758566507
 10
-67.6646139851
 20
-12.0150129815
 10
-65.5542410154
 20
-12.6621381856
 10
-63.4065287354
 20
-13.3190989573
  0
LWPOLYLINE
  5
2D4
100
AcDbEntity
  8
RACCORDO
100
AcDbPolyline
 62
7
  6
CONTINUOUS
 90
8
 70
0
 10
-89.7565623079
 20
-5.0804135879
 10
-88.400460718
 20
-5.5067500144
 10
-86.701742421
 20
-6.0387629869
 10
-84.9661188332
 20
-6.5852359173
 10
-83.1920866133
 20
-7.146406225
 10
-81.3811094905
 20
-7.7199331609
 10
-79.5305097526
 20
-8.306783791
 10
-75.7239943026
 20
-9.5050600208
  0
LINE
  5
2D5
100
AcDbEntity
  8
RACCORDO
100
AcDbLine
 62
250
  6
CONTINUOUS
 10
-70.6244744373
 20
-10.9754900404
 11
-71.6165864151
 21
-10.6635658753
  0
LINE
  5
2D6
100
AcDbEntity
  8
RACCORDO
100
AcDbLine
 62
250
  6
CONTINUOUS
 10
-88.5786096592
 20
-5.2045014372
 11
-89.1368784571
 21
-5.028447868
  0
LINE
  5
2D7
100
AcDbEntity
  8
RACCORDO
100
AcDbLine
 62
250
  6
CONTINUOUS
 10
-71.6165864151
 20
-10.6635658753
 11
-72.5519916183
 21
-10.3679213852
  0
LINE
  5
2D8
100
AcDbEntity
  8
RACCORDO
100
AcDbLine
 62
250
  6
CONTINUOUS
 10
-72.5519916183
 20
-10.3679213852
 11
-73.4352595309
 21
-10.0875593813
  0
LINE
  5
2D9
100
AcDbEntity
  8
RACCORDO
100
AcDbLine
 62
250
  6
CONTINUOUS
 10
-73.4352595309
 20
-10.0875593813
 11
-74.2702192636
 21
-9.8216045122
  0
LINE
  5
2DA
100
AcDbEntity
  8
RACCORDO
100
AcDbLine
 62
250
  6
CONTINUOUS
 10
-87.8059752075
 20
-5.4508982297
 11
-88.5786096592
 21
-5.2045014372
  0
LINE
  5
2DB
100
AcDbEntity
  8
RACCORDO
100
AcDbLine
 62
250
  6
CONTINUOUS
 10
-74.2702192636
 20
-9.8216045122
 11
-75.4379056767
 21
-9.4484121736
  0
LINE
  5
2DC
100
AcDbEntity
  8
RACCORDO
100
AcDbLine
 62
250
  6
CONTINUOUS
 10
-86.6621029457
 20
-5.8166688401
 11
-87.8059752075
 21
-5.4508982297
  0
LINE
  5
2DD
100
AcDbEntity
  8
RACCORDO
100
AcDbLine
 62
250
  6
CONTINUOUS
 10
-75.4379056767
 20
-9.4484121736
 11
-76.8523335625
 21
-8.9949025747
  0
LINE
  5
2DE
100
AcDbEntity
  8
RACCORDO
100
AcDbLine
 62
250
  6
CONTINUOUS
 10
-76.8523335625
 20
-8.9949025747
 11
-79.2610322614
 21
-8.2206007431
  0
LINE
  5
2DF
100
AcDbEntity
  8
RACCORDO
100
AcDbLine
 62
250
  6
CONTINUOUS
 10
-89.1368784571
 20
-5.028447868
 11
-89.3268378716
 21
-4.9672093062
  0
LINE
  5
2E0
100
AcDbEntity
  8
RACCORDO
100
AcDbLine
 62
250
  6
CONTINUOUS
 10
-85.5764364518
 20
-6.1661023607
 11
-86.6621029457
 21
-5.8166688401
  0
LINE
  5
2E1
100
AcDbEntity
  8
RACCORDO
100
AcDbLine
 62
250
  6
CONTINUOUS
 10
-79.2610322614
 20
-8.2206007431
 11
-79.7816336322
 21
-8.0525769031
  0
LINE
  5
2E2
100
AcDbEntity
  8
RACCORDO
100
AcDbLine
 62
250
  6
CONTINUOUS
 10
-81.5550147609
 20
-7.4722818879
 11
-82.3439994658
 21
-7.2164243926
  0
LINE
  5
2E3
100
AcDbEntity
  8
RACCORDO
100
AcDbLine
 62
250
  6
CONTINUOUS
 10
-84.17033422
 20
-6.6219155084
 11
-85.5764364518
 21
-6.1661023607
  0
LWPOLYLINE
  5
2E4
100
AcDbEntity
  8
RACCORDO
100
AcDbPolyline
 62
250
  6
CONTINUOUS
 90
3
 70
0
 10
-82.9615410308
 20
-7.0154374091
 10
-83.4119752019
 20
-6.8687186719
 10
-84.17033422
 20
-6.6219155084
  0
LINE
  5
2E5
100
AcDbEntity
  8
RACCORDO
100
AcDbLine
 62
250
  6
CONTINUOUS
 10
-82.3439994658
 20
-7.2164243926
 11
-82.9615410308
 21
-7.0154374091
  0
LINE
  5
2E6
100
AcDbEntity
  8
RACCORDO
100
AcDbLine
 62
250
  6
CONTINUOUS
 10
-79.7816336322
 20
-8.0525769031
 11
-80.268004315
 21
-7.8942075159
  0
LWPOLYLINE
  5
2E7
100
AcDbEntity
  8
RACCORDO
100
AcDbPolyline
 62
250
  6
CONTINUOUS
 90
4
 70
0
 10
-80.268004315
 20
-7.8942075159
 10
-80.9386696196
 20
-7.6743407606
 10
-81.1495096654
 20
-7.6050116183
 10
-81.5550147609
 20
-7.4722818879
  0
LWPOLYLINE
  5
2E8
100
AcDbEntity
  8
RACCORDO
100
AcDbPolyline
 62
250
  6
CONTINUOUS
 90
3
 70
0
 10
-89.3268378716
 20
-4.9672093062
 10
-89.5215028487
 20
-4.9028531075
 10
-89.7191652492
 20
-4.8361237111
  0
LINE
  5
2E9
100
AcDbEntity
  8
RACCORDO
100
AcDbLine
 62
250
  6
CONTINUOUS
 10
-89.7191652492
 20
-4.8361237111
 11
-89.9190016813
 21
-4.7674037915
  0
LWPOLYLINE
  5
2EA
100
AcDbEntity
  8
RACCORDO
100
AcDbPolyline
 62
250
  6
CONTINUOUS
 90
10
 70
0
 10
-75.3786175623
 20
35.3439259538
 10
-75.4719380715
 20
35.4497289628
 10
-75.5763053517
 20
35.5512926136
 10
-75.6912740802
 20
35.648183571
 10
-75.816353699
 20
35.739988436
 10
-75.9510105081
 20
35.8263155101
 10
-76.0946699428
 20
35.9067964664
 10
-76.2467190248
 20
35.981087921
 10
-76.4065089785
 20
36.0488728987
 10
-76.5733579984
 20
36.1098621851
  0
LINE
  5
2EB
100
AcDbEntity
  8
RACCORDO
100
AcDbLine
 62
250
  6
CONTINUOUS
 10
-36.660278006
 20
-8.1840868776
 11
-36.2959228173
 21
-7.6561244944
  0
LINE
  5
2EC
100
AcDbEntity
  8
RACCORDO
100
AcDbLine
 62
7
  6
CONTINUOUS
 10
-36.6381888216
 20
-8.1908702522
 11
-36.3139601323
 21
-7.7210524568
  0
LINE
  5
2ED
100
AcDbEntity
  8
RACCORDO
100
AcDbLine
 62
250
  6
CONTINUOUS
 10
-37.2021882478
 20
-8.0176714924
 11
-36.4925192945
 21
-7.0137415509
  0
LINE
  5
2EE
100
AcDbEntity
  8
RACCORDO
100
AcDbLine
 62
250
  6
CONTINUOUS
 10
-36.930694692
 20
-8.1010445332
 11
-36.3068101917
 21
-7.218469176
  0
LINE
  5
2EF
100
AcDbEntity
  8
RACCORDO
100
AcDbLine
 62
7
  6
CONTINUOUS
 10
-42.4376220088
 20
-6.4099205051
 11
-41.6122190263
 21
-5.5070330427
  0
LINE
  5
2F0
100
AcDbEntity
  8
RACCORDO
100
AcDbLine
 62
250
  6
CONTINUOUS
 10
-42.339827945
 20
-6.4399521146
 11
-41.4676702769
 21
-5.4859208833
  0
LWPOLYLINE
  5
2F1
100
AcDbEntity
  8
RACCORDO
100
AcDbPolyline
 62
250
  6
CONTINUOUS
 90
10
 70
0
 10
-41.6122190263
 20
-5.5070330427
 10
-41.6062592778
 20
-5.5010958015
 10
-41.5950506905
 20
-5.4924058748
 10
-41.582412519
 20
-5.4853630904
 10
-41.5684797003
 20
-5.4800413112
 10
-41.5533829424
 20
-5.4764952627
 10
-41.537307708
 20
-5.4747729465
 10
-41.5204987141
 20
-5.4748892938
 10
-41.5031712485
 20
-5.4768177607
 10
-41.4854972599
 20
-5.4805151381
  0
LWPOLYLINE
  5
2F2
100
AcDbEntity
  8
RACCORDO
100
AcDbPolyline
 62
250
  6
CONTINUOUS
 90
8
 70
0
 10
43.7295197931
 20
-31.5950510353
 10
43.7212935765
 20
-31.5938661451
 10
43.7131314053
 20
-31.5949597554
 10
43.7045076318
 20
-31.5981393578
 10
43.6955523683
 20
-31.6033457072
 10
43.6863785673
 20
-31.610487944
 10
43.6770754103
 20
-31.6194722806
 10
43.6677430962
 20
-31.6301815419
  0
LWPOLYLINE
  5
2F3
100
AcDbEntity
  8
RACCORDO
100
AcDbPolyline
 62
250
  6
CONTINUOUS
 90
8
 70
0
 10
23.6894541954
 20
-25.4409410376
 10
23.6812279788
 20
-25.4397561473
 10
23.6730658077
 20
-25.4408497577
 10
23.6644420341
 20
-25.4440293601
 10
23.6554867706
 20
-25.4492357095
 10
23.6463129696
 20
-25.4563779463
 10
23.6370098127
 20
-25.4653622829
 10
23.6276774985
 20
-25.4760715442
  0
LWPOLYLINE
  5
2F4
100
AcDbEntity
  8
RACCORDO
100
AcDbPolyline
 62
250
  6
CONTINUOUS
 90
8
 70
0
 10
38.7543688106
 20
-30.0672303677
 10
38.7463312625
 20
-30.0660450077
 10
38.7382084142
 20
-30.0670817733
 10
38.7296245225
 20
-30.0701916573
 10
38.720672593
 20
-30.0753409642
 10
38.7114496192
 20
-30.0824739017
 10
38.7020555314
 20
-30.091513185
 10
38.6925921137
 20
-30.1023608743
  0
LWPOLYLINE
  5
2F5
100
AcDbEntity
  8
0
100
AcDbPolyline
 62
250
  6
CONTINUOUS
 90
5
 70
0
 10
67.285434587
 20
-42.4435899166
 10
67.3317456232
 20
-42.4543047894
 10
67.3764737045
 20
-42.4576265092
 10
67.4182597908
 20
-42.4534541469
 10
67.4342733237
 20
-42.4485361532
  0
LINE
  5
2F6
100
AcDbEntity
  8
SCRITTA_VIMAR
100
AcDbLine
 62
250
  6
CONTINUOUS
 10
69.8868096991
 20
-48.3226656392
 11
69.6222817768
 21
-48.2515985688
  0
LINE
  5
2F7
100
AcDbEntity
  8
SCRITTA_VIMAR
100
AcDbLine
 62
250
  6
CONTINUOUS
 10
69.6222817768
 20
-48.2515985688
 11
69.4215590071
 21
-48.1970981714
  0
LWPOLYLINE
  5
2F8
100
AcDbEntity
  8
SCRITTA_VIMAR
100
AcDbPolyline
 62
250
  6
CONTINUOUS
 90
96
 70
0
 10
68.9257092301
 20
-46.9511761193
 10
68.9326391759
 20
-46.9530745975
 10
68.9397161805
 20
-46.9548971156
 10
68.9467999289
 20
-46.9566053412
 10
68.957229953
 20
-46.9588973493
 10
68.9674780555
 20
-46.9608835007
 10
68.9776365533
 20
-46.9625938992
 10
68.9876925741
 20
-46.9640288658
 10
68.9976144381
 20
-46.9651830901
 10
69.0074004256
 20
-46.966058519
 10
69.0170539262
 20
-46.966658547
 10
69.0265688087
 20
-46.9669851
 10
69.0359365612
 20
-46.9670397371
 10
69.0451486719
 20
-46.9668240171
 10
69.0541993028
 20
-46.9663387924
 10
69.06309331
 20
-46.9655820883
 10
69.0718382233
 20
-46.9645512235
 10
69.0804415727
 20
-46.9632435167
 10
69.0889075669
 20
-46.9616559793
 10
69.0972271302
 20
-46.9597843949
 10
69.1053878662
 20
-46.9576242397
 10
69.1133773781
 20
-46.95517099
 10
69.1211814974
 20
-46.9524216374
 10
69.1287789674
 20
-46.9493792342
 10
69.1361467595
 20
-46.9460483477
 10
69.1432618451
 20
-46.9424335455
 10
69.150102454
 20
-46.9385411645
 10
69.1566518497
 20
-46.9343846199
 10
69.1628945543
 20
-46.9299790963
 10
69.1688150896
 20
-46.9253397781
 10
69.1744016863
 20
-46.9204792498
 10
69.1796574093
 20
-46.9153996948
 10
69.1845890322
 20
-46.9101006962
 10
69.1892033285
 20
-46.9045818372
 10
69.1935054665
 20
-46.8988418692
 10
69.1974941936
 20
-46.8928762162
 10
69.2011666515
 20
-46.8866794701
 10
69.2045199824
 20
-46.8802462233
 10
69.2075498095
 20
-46.8735745759
 10
69.2102456812
 20
-46.8666766612
 10
69.2125956273
 20
-46.8595681205
 10
69.2145876775
 20
-46.8522645952
 10
69.2162123712
 20
-46.8447835332
 10
69.2174702864
 20
-46.8371496095
 10
69.2183645109
 20
-46.8293893055
 10
69.2188981324
 20
-46.8215291028
 10
69.2190733012
 20
-46.8135876365
 10
69.2188884184
 20
-46.8055521564
 10
69.2183409476
 20
-46.797402066
 10
69.2174283524
 20
-46.7891167688
 10
69.2159360551
 20
-46.7794655029
 10
69.2139658413
 20
-46.7696377477
 10
69.2115200045
 20
-46.7596605123
 10
69.208600838
 20
-46.7495608057
 10
69.2052106354
 20
-46.739365637
 10
69.2013516899
 20
-46.7291020151
 10
69.1970262951
 20
-46.7187969491
 10
69.1922397671
 20
-46.7084767578
 10
69.1870095128
 20
-46.698165
 10
69.1813559618
 20
-46.6878845444
 10
69.1752995438
 20
-46.6776582596
 10
69.1688606884
 20
-46.6675090142
 10
69.1620598252
 20
-46.6574596769
 10
69.1549173839
 20
-46.6475331163
 10
69.1483981945
 20
-46.638959881
 10
69.1416143344
 20
-46.6304763484
 10
69.1345470123
 20
-46.6220607115
 10
69.1271774371
 20
-46.6136911634
 10
69.1194950059
 20
-46.6053555811
 10
69.1115218706
 20
-46.5970805787
 10
69.1032883716
 20
-46.5889024541
 10
69.0948248494
 20
-46.5808575056
 10
69.086162475
 20
-46.572979515
 10
69.0773357424
 20
-46.5652922005
 10
69.068379976
 20
-46.5578167638
 10
69.0593305007
 20
-46.550574407
 10
69.0502193674
 20
-46.5435827398
 10
69.0410655337
 20
-46.5368450034
 10
69.0318846838
 20
-46.5303608467
 10
69.0226925019
 20
-46.5241299186
 10
69.013499573
 20
-46.5181494962
 10
69.0042960868
 20
-46.5124073681
 10
68.9950671337
 20
-46.5068889507
 10
68.9857978044
 20
-46.5015796607
 10
68.9733600155
 20
-46.4948080381
 10
68.9608479636
 20
-46.4883916679
 10
68.9482856717
 20
-46.4823399468
 10
68.9388422483
 20
-46.4780447067
 10
68.9293750989
 20
-46.4739554152
 10
68.919883141
 20
-46.4700702737
 10
68.9103968773
 20
-46.4663980979
 10
68.9009274973
 20
-46.4629425838
 10
68.8913773524
 20
-46.4596763329
 10
68.8849340452
 20
-46.4575952171
 10
68.8785422576
 20
-46.4556238088
 10
68.8723448973
 20
-46.4538033304
  0
LINE
  5
2F9
100
AcDbEntity
  8
SCRITTA_VIMAR
100
AcDbLine
 62
250
  6
CONTINUOUS
 10
68.7955892448
 20
-47.2772437185
 11
68.4918344908
 21
-47.191035399
  0
LINE
  5
2FA
100
AcDbEntity
  8
SCRITTA_VIMAR
100
AcDbLine
 62
250
  6
CONTINUOUS
 10
68.4345730053
 20
-47.9226149032
 11
68.0866320812
 21
-47.8235833402
  0
LINE
  5
2FB
100
AcDbEntity
  8
SCRITTA_VIMAR
100
AcDbLine
 62
250
  6
CONTINUOUS
 10
68.4918344908
 20
-47.191035399
 11
68.3380955871
 21
-47.1470579743
  0
LINE
  5
2FC
100
AcDbEntity
  8
SCRITTA_VIMAR
100
AcDbLine
 62
250
  6
CONTINUOUS
 10
68.0866320812
 20
-47.8235833402
 11
67.9106650339
 21
-47.7731078212
  0
LINE
  5
2FD
100
AcDbEntity
  8
SCRITTA_VIMAR
100
AcDbLine
 62
250
  6
CONTINUOUS
 10
68.432136983
 20
-46.8104437937
 11
68.9257088366
 21
-46.9511746497
  0
LINE
  5
2FE
100
AcDbEntity
  8
SCRITTA_VIMAR
100
AcDbLine
 62
250
  6
CONTINUOUS
 10
68.2885017248
 20
-46.7690421205
 11
68.432136983
 21
-46.8104437937
  0
LINE
  5
2FF
100
AcDbEntity
  8
SCRITTA_VIMAR
100
AcDbLine
 62
250
  6
CONTINUOUS
 10
68.8723443687
 20
-46.4538018047
 11
68.5929993962
 21
-46.3734819482
  0
LINE
  5
300
100
AcDbEntity
  8
SCRITTA_VIMAR
100
AcDbLine
 62
250
  6
CONTINUOUS
 10
68.5929993962
 20
-46.3734819482
 11
68.2365339299
 21
-46.2699080448
  0
LINE
  5
301
100
AcDbEntity
  8
SCRITTA_VIMAR
100
AcDbLine
 62
250
  6
CONTINUOUS
 10
67.5621985127
 20
-47.6724445932
 11
67.2155503118
 21
-47.5714381934
  0
LINE
  5
302
100
AcDbEntity
  8
SCRITTA_VIMAR
100
AcDbLine
 62
250
  6
CONTINUOUS
 10
68.5169052336
 20
-45.9800298534
 11
68.9085808902
 21
-46.093854081
  0
LINE
  5
303
100
AcDbEntity
  8
SCRITTA_VIMAR
100
AcDbLine
 62
250
  6
CONTINUOUS
 10
67.2155503118
 20
-47.5714381934
 11
67.0405178753
 21
-47.5201399547
  0
LINE
  5
304
100
AcDbEntity
  8
SCRITTA_VIMAR
100
AcDbLine
 62
250
  6
CONTINUOUS
 10
66.8272645039
 20
-47.0769339341
 11
66.374074303
 21
-46.942242627
  0
LWPOLYLINE
  5
305
100
AcDbEntity
  8
SCRITTA_VIMAR
100
AcDbPolyline
 62
250
  6
CONTINUOUS
 90
3
 70
0
 10
67.6870190727
 20
-45.7346529845
 10
67.7728373516
 20
-45.7602289584
 10
68.5169052336
 20
-45.9800298534
  0
LWPOLYLINE
  5
306
100
AcDbEntity
  8
SCRITTA_VIMAR
100
AcDbPolyline
 62
250
  6
CONTINUOUS
 90
81
 70
0
 10
68.9085808902
 20
-46.093854081
 10
68.9284664469
 20
-46.0997946749
 10
68.9488347483
 20
-46.106260243
 10
68.9694600049
 20
-46.1131939145
 10
69.0005460264
 20
-46.1243957063
 10
69.0319016956
 20
-46.1366188027
 10
69.0636728862
 20
-46.1499422205
 10
69.0957908649
 20
-46.1643769191
 10
69.1173484122
 20
-46.1746211339
 10
69.1390494642
 20
-46.1853949318
 10
69.1609377912
 20
-46.1967366842
 10
69.1830456119
 20
-46.2086809167
 10
69.2053589388
 20
-46.221246771
 10
69.2278522332
 20
-46.2344495428
 10
69.2504839
 20
-46.2482917998
 10
69.27314812
 20
-46.2627251972
 10
69.2957230178
 20
-46.2776886621
 10
69.3225518527
 20
-46.2962732361
 10
69.3490367409
 20
-46.315515935
 10
69.3751378604
 20
-46.3353995318
 10
69.4008153888
 20
-46.3559067991
 10
69.426029504
 20
-46.3770205098
 10
69.4507402907
 20
-46.3987221122
 10
69.474907461
 20
-46.4209877566
 10
69.4984906343
 20
-46.4437922688
 10
69.5214494296
 20
-46.4671104747
 10
69.5437434661
 20
-46.4909172
 10
69.5617865683
 20
-46.5111153518
 10
69.5793266599
 20
-46.5316459106
 10
69.5963504106
 20
-46.552519516
 10
69.6128444903
 20
-46.5737468076
 10
69.6287955685
 20
-46.5953384248
 10
69.6441903151
 20
-46.6173050073
 10
69.6590078989
 20
-46.6396453163
 10
69.6731974855
 20
-46.6623106003
 10
69.6867007397
 20
-46.6852402296
 10
69.6994593263
 20
-46.7083735744
 10
69.71141491
 20
-46.731650005
 10
69.7225091556
 20
-46.7550088917
 10
69.7326912246
 20
-46.7783894586
 10
69.7419402653
 20
-46.8017303456
 10
69.7502429228
 20
-46.8249700465
 10
69.7575858422
 20
-46.8480470548
 10
69.7639556684
 20
-46.8708998645
 10
69.7693390465
 20
-46.8934669692
 10
69.77372624
 20
-46.915697934
 10
69.7771219856
 20
-46.937586609
 10
69.7795346385
 20
-46.9591379155
 10
69.7809725539
 20
-46.980356775
 10
69.781444087
 20
-47.0012481089
 10
69.7809575929
 20
-47.0218168385
 10
69.7795181045
 20
-47.0420643892
 10
69.7771173658
 20
-47.0619782017
 10
69.7737437985
 20
-47.0815422207
 10
69.7693858243
 20
-47.100740391
 10
69.7640318649
 20
-47.1195566572
 10
69.757670342
 20
-47.1379749641
 10
69.7502915598
 20
-47.1559761278
 10
69.7418933532
 20
-47.1735284505
 10
69.7324754395
 20
-47.1905971058
 10
69.7220375359
 20
-47.2071472673
 10
69.71057936
 20
-47.2231441087
 10
69.6981006289
 20
-47.2385528036
 10
69.6846167161
 20
-47.2533314564
 10
69.6702056183
 20
-47.2674098949
 10
69.6549609885
 20
-47.2807108778
 10
69.6389689652
 20
-47.293172076
 10
69.6222856298
 20
-47.304790811
 10
69.6049595497
 20
-47.3155793168
 10
69.5870267527
 20
-47.3255522466
 10
69.5684731091
 20
-47.3347339299
 10
69.54927195
 20
-47.3431511155
 10
69.5294089112
 20
-47.3508246837
 10
69.5089188482
 20
-47.3577520409
 10
69.487848921
 20
-47.3639247251
 10
69.4662281326
 20
-47.3693361261
 10
69.4440128567
 20
-47.3739870414
 10
69.4211413096
 20
-47.3778801205
 10
69.3976093179
 20
-47.3810144069
 10
69.3736431491
 20
-47.3833745203
 10
69.3495266808
 20
-47.3849414744
  0
LWPOLYLINE
  5
307
100
AcDbEntity
  8
RACCORDO
100
AcDbPolyline
 62
250
  6
CONTINUOUS
 90
5
 70
0
 10
67.2441052691
 20
-45.0250428579
 10
66.2919967195
 20
-44.740522286
 10
65.3184908183
 20
-44.4455820622
 10
64.323812895
 20
-44.1418586789
 10
63.3071329371
 20
-43.8304050221
  0
LINE
  5
308
100
AcDbEntity
  8
SCRITTA_VIMAR
100
AcDbLine
 62
250
  6
CONTINUOUS
 10
66.374074303
 20
-46.942242627
 11
66.0066197239
 21
-46.8323350906
  0
LINE
  5
309
100
AcDbEntity
  8
SCRITTA_VIMAR
100
AcDbLine
 62
250
  6
CONTINUOUS
 10
66.1211691488
 20
-46.4940946216
 11
66.6243915485
 21
-46.6447392168
  0
LINE
  5
30A
100
AcDbEntity
  8
SCRITTA_VIMAR
100
AcDbLine
 62
250
  6
CONTINUOUS
 10
65.890763303
 20
-47.179045639
 11
65.3719098505
 21
-47.023220663
  0
LINE
  5
30B
100
AcDbEntity
  8
SCRITTA_VIMAR
100
AcDbLine
 62
250
  6
CONTINUOUS
 10
65.0263339785
 20
-46.9189272622
 11
64.5083592606
 21
-46.7619947129
  0
LINE
  5
30C
100
AcDbEntity
  8
SCRITTA_VIMAR
100
AcDbLine
 62
250
  6
CONTINUOUS
 10
65.9907239934
 20
-45.2229765388
 11
66.5085271237
 21
-45.3801630215
  0
LINE
  5
30D
100
AcDbEntity
  8
SCRITTA_VIMAR
100
AcDbLine
 62
250
  6
CONTINUOUS
 10
64.018976919
 20
-46.613194033
 11
63.8457800356
 21
-46.5604388261
  0
LINE
  5
30E
100
AcDbEntity
  8
SCRITTA_VIMAR
100
AcDbLine
 62
250
  6
CONTINUOUS
 10
63.8457800356
 20
-46.5604388261
 11
63.6733304589
 21
-46.5078681745
  0
LINE
  5
30F
100
AcDbEntity
  8
SCRITTA_VIMAR
100
AcDbLine
 62
250
  6
CONTINUOUS
 10
63.6733304589
 20
-46.5078681745
 11
63.5016383935
 21
-46.4554900971
  0
LINE
  5
310
100
AcDbEntity
  8
SCRITTA_VIMAR
100
AcDbLine
 62
250
  6
CONTINUOUS
 10
63.0126974152
 20
-46.3061524512
 11
62.4956649995
 21
-46.1480390658
  0
LINE
  5
311
100
AcDbEntity
  8
SCRITTA_VIMAR
100
AcDbLine
 62
250
  6
CONTINUOUS
 10
61.9787475062
 20
-45.9898025112
 11
61.4619131714
 21
-45.8314464993
  0
LINE
  5
312
100
AcDbEntity
  8
SCRITTA_VIMAR
100
AcDbLine
 62
250
  6
CONTINUOUS
 10
64.426263659
 20
-44.7449402462
 11
64.8156359587
 21
-44.8642460478
  0
LWPOLYLINE
  5
313
100
AcDbEntity
  8
SCRITTA_VIMAR
100
AcDbPolyline
 62
250
  6
CONTINUOUS
 90
3
 70
0
 10
64.0344158742
 20
-44.6247279278
 10
64.1652979371
 20
-44.6648943839
 10
64.426263659
 20
-44.7449402462
  0
LINE
  5
314
100
AcDbEntity
  8
SCRITTA_VIMAR
100
AcDbLine
 62
250
  6
CONTINUOUS
 10
60.2879597991
 20
-45.4712731971
 11
59.771319713
 21
-45.3126445818
  0
LINE
  5
315
100
AcDbEntity
  8
RACCORDO
100
AcDbLine
 62
250
  6
CONTINUOUS
 10
63.0049025377
 20
-42.9272576483
 11
57.6448976023
 21
-41.2816124985
  0
LWPOLYLINE
  5
316
100
AcDbEntity
  8
RACCORDO
100
AcDbPolyline
 62
250
  6
CONTINUOUS
 90
6
 70
0
 10
-63.1827192144
 20
-4.9866064236
 10
-68.5555388041
 20
-3.3366437581
 10
-69.5698109968
 20
-3.024415152
 10
-70.5620307131
 20
-2.717994764
 10
-71.5320198034
 20
-2.4161135375
 10
-72.4791309638
 20
-2.1173898154
  0
LINE
  5
317
100
AcDbEntity
  8
RACCORDO
100
AcDbLine
 62
250
  6
CONTINUOUS
 10
63.3071329371
 20
-43.8304050221
 11
59.0540934705
 21
-42.5244545404
  0
LINE
  5
318
100
AcDbEntity
  8
RACCORDO
100
AcDbLine
 62
250
  6
CONTINUOUS
 10
59.0540934705
 20
-42.5244545404
 11
-63.1817553391
 21
-4.9869012707
  0
LINE
  5
319
100
AcDbEntity
  8
RACCORDO
100
AcDbLine
 62
250
  6
CONTINUOUS
 10
57.6448976024
 20
-41.2816124985
 11
-72.7922911764
 21
-1.2257035198
  0
LINE
  5
31A
100
AcDbEntity
  8
RACCORDO
100
AcDbLine
 62
250
  6
CONTINUOUS
 10
65.0198879566
 20
-43.546119768
 11
63.0049025377
 21
-42.9272576483
  0
LINE
  5
31B
100
AcDbEntity
  8
SCRITTA_VIMAR
100
AcDbLine
 62
250
  6
CONTINUOUS
 10
62.2889573264
 20
-44.0883573899
 11
63.069762432
 21
-44.3283955363
  0
LINE
  5
31C
100
AcDbEntity
  8
SCRITTA_VIMAR
100
AcDbLine
 62
250
  6
CONTINUOUS
 10
61.256002434
 20
-43.7707702828
 11
61.7724871004
 21
-43.9295700746
  0
LINE
  5
31D
100
AcDbEntity
  8
RACCORDO
100
AcDbLine
 62
250
  6
CONTINUOUS
 10
66.9537662579
 20
-44.1403639041
 11
65.0198879566
 21
-43.546119768
  0
LINE
  5
31E
100
AcDbEntity
  8
SCRITTA_VIMAR
100
AcDbLine
 62
250
  6
CONTINUOUS
 10
60.3952116504
 20
-43.5060775721
 11
60.9116873726
 21
-43.6648982999
  0
LINE
  5
31F
100
AcDbEntity
  8
SCRITTA_VIMAR
100
AcDbLine
 62
250
  6
CONTINUOUS
 10
58.7370221908
 20
-42.9960959677
 11
59.2534757938
 21
-43.1549444138
  0
LWPOLYLINE
  5
320
100
AcDbEntity
  8
RACCORDO
100
AcDbPolyline
 62
250
  6
CONTINUOUS
 90
67
 70
0
 10
-72.7922911764
 20
-1.2257035198
 10
-72.8490187142
 20
-1.2074927245
 10
-72.9040594549
 20
-1.188235257
 10
-72.9573521359
 20
-1.1680955927
 10
-73.0087265189
 20
-1.1472797121
 10
-73.0582621791
 20
-1.1258972423
 10
-73.1062859833
 20
-1.1039305661
 10
-73.1528755791
 20
-1.0814379017
 10
-73.1979059372
 20
-1.0585765329
 10
-73.2414120787
 20
-1.035436564
 10
-73.2835059418
 20
-1.0120477218
 10
-73.3240693839
 20
-0.98855566
 10
-73.3628110229
 20
-0.9652278375
 10
-73.3995949268
 20
-0.9422562446
 10
-73.4345938696
 20
-0.9196363886
 10
-73.4679878661
 20
-0.8973412067
 10
-73.4997587491
 20
-0.8754669267
 10
-73.5299664143
 20
-0.8540546667
 10
-73.5588991003
 20
-0.8329695035
 10
-73.5866509547
 20
-0.8122015232
 10
-73.613162461
 20
-0.7918508876
 10
-73.6384841551
 20
-0.7719318124
 10
-73.6625326725
 20
-0.7525666157
 10
-73.6854311708
 20
-0.7337106851
 10
-73.7075293032
 20
-0.7151135622
 10
-73.7287222256
 20
-0.696896516
 10
-73.7491377088
 20
-0.6789852755
 10
-73.7694464669
 20
-0.6608055247
 10
-73.7897281284
 20
-0.6422785575
 10
-73.8098863163
 20
-0.6234855691
 10
-73.8302972872
 20
-0.6040625162
 10
-73.8510178676
 20
-0.5839251207
 10
-73.8719477683
 20
-0.5631400501
 10
-73.8932095787
 20
-0.5415547405
 10
-73.9147846261
 20
-0.5191481678
 10
-73.9366327683
 20
-0.4959185228
 10
-73.9588325236
 20
-0.4717349108
 10
-73.9813109825
 20
-0.4466232056
 10
-74.0040630906
 20
-0.4205329955
 10
-74.0272500135
 20
-0.3932103862
 10
-74.0508438545
 20
-0.3646026611
 10
-74.0747530205
 20
-0.3347305398
 10
-74.0990195125
 20
-0.3034424019
 10
-74.1235958573
 20
-0.2706841297
 10
-74.1483704225
 20
-0.2364820947
 10
-74.1732736689
 20
-0.2008046607
 10
-74.1982338728
 20
-0.1636133065
 10
-74.2231316933
 20
-0.1249354022
 10
-74.2478228562
 20
-0.0848437124
 10
-74.2721989128
 20
-0.0433551779
 10
-74.296160065
 20
-0.0004685829
 10
-74.3195767616
 20
0.0437626137
 10
-74.3424284625
 20
0.0895100979
 10
-74.3644943485
 20
0.1365570052
 10
-74.3853970425
 20
0.1842549448
 10
-74.405134025
 20
0.232714912
 10
-74.4235644806
 20
0.2817462265
 10
-74.440257653
 20
0.3302373704
 10
-74.4550771222
 20
0.377560805
 10
-74.4682649438
 20
0.4242615324
 10
-74.4799910394
 20
0.4709779746
 10
-74.4901577671
 20
0.5173734837
 10
-74.4988200708
 20
0.5636880955
 10
-74.5061575075
 20
0.6113858328
 10
-74.5120349768
 20
0.6608788901
 10
-74.5161723397
 20
0.711557086
 10
-74.5183708987
 20
0.7633058391
  0
LWPOLYLINE
  5
321
100
AcDbEntity
  8
RACCORDO
100
AcDbPolyline
 62
250
  6
CONTINUOUS
 90
67
 70
0
 10
-72.4791344738
 20
-2.117394626
 10
-72.5888157925
 20
-2.0809913116
 10
-72.6951972771
 20
-2.04269693
 10
-72.7983376755
 20
-2.002770358
 10
-72.8984016174
 20
-1.9612775373
 10
-72.9955313167
 20
-1.9185181803
 10
-73.0892429197
 20
-1.8753007062
 10
-73.1785546859
 20
-1.8324740581
 10
-73.2627688651
 20
-1.7905225973
 10
-73.3423003107
 20
-1.749451569
 10
-73.4180803282
 20
-1.7091337076
 10
-73.4907120456
 20
-1.6692557803
 10
-73.5603150339
 20
-1.6294003909
 10
-73.626699871
 20
-1.5896960485
 10
-73.689986526
 20
-1.5504270537
 10
-73.7504612471
 20
-1.5115706078
 10
-73.8080493687
 20
-1.4733092958
 10
-73.8628581471
 20
-1.435728833
 10
-73.9154607407
 20
-1.3985867999
 10
-73.9659909046
 20
-1.361948536
 10
-74.0143948878
 20
-1.3258762017
 10
-74.0611185098
 20
-1.289959805
 10
-74.1063558347
 20
-1.2539788495
 10
-74.1504969427
 20
-1.2178472669
 10
-74.1940853632
 20
-1.1814682546
 10
-74.2365897493
 20
-1.1454046766
 10
-74.2777251455
 20
-1.1098698543
 10
-74.3182553411
 20
-1.074295566
 10
-74.3582905975
 20
-1.0386265753
 10
-74.3977710072
 20
-1.0028860157
 10
-74.4372917626
 20
-0.966461606
 10
-74.4768343742
 20
-0.9293504063
 10
-74.516173827
 20
-0.8917136543
 10
-74.5555910398
 20
-0.8531293314
 10
-74.5952040589
 20
-0.8133940147
 10
-74.6352022136
 20
-0.7722784341
 10
-74.675989711
 20
-0.7292540586
 10
-74.7174473465
 20
-0.6843468996
 10
-74.7594490382
 20
-0.6375853154
 10
-74.8022234461
 20
-0.5885602089
 10
-74.8457280058
 20
-0.5371679092
 10
-74.8898158776
 20
-0.483418205
 10
-74.9345523251
 20
-0.4270168957
 10
-74.9798504082
 20
-0.367868289
 10
-75.0254966505
 20
-0.3060248586
 10
-75.0713244545
 20
-0.241432478
 10
-75.1172019212
 20
-0.1740267471
 10
-75.1629017512
 20
-0.1038654836
 10
-75.2081103464
 20
-0.0310873286
 10
-75.2526396984
 20
0.0442963289
 10
-75.2963032352
 20
0.1222841688
 10
-75.3387824917
 20
0.2027085126
 10
-75.3799849165
 20
0.2857200679
 10
-75.4194849942
 20
0.3708647107
 10
-75.4565732721
 20
0.4570867394
 10
-75.4909182319
 20
0.5447308657
 10
-75.5227584331
 20
0.6338176721
 10
-75.5525585628
 20
0.7230165679
 10
-75.5806803793
 20
0.8114869505
 10
-75.6069147289
 20
0.9001108781
 10
-75.6308342376
 20
0.9898808602
 10
-75.651937168
 20
1.0798857157
 10
-75.6703235405
 20
1.170126301
 10
-75.686048773
 20
1.2627212472
 10
-75.6988133508
 20
1.3583548745
 10
-75.7081788349
 20
1.4561046021
 10
-75.7137761852
 20
1.5558430367
  0
LINE
  5
322
100
AcDbEntity
  8
DRAFT
100
AcDbLine
 62
7
  6
CONTINUOUS
 10
-57.0331267494
 20
-1.6512773474
 11
-56.9690989619
 21
-1.6800454558
  0
LINE
  5
323
100
AcDbEntity
  8
DRAFT
100
AcDbLine
 62
7
  6
CONTINUOUS
 10
-56.8293448278
 20
-1.3594959341
 11
-56.7653170402
 21
-1.3882640426
  0
LINE
  5
324
100
AcDbEntity
  8
DRAFT
100
AcDbLine
 62
7
  6
CONTINUOUS
 10
-56.6255629061
 20
-1.0677145209
 11
-56.5615351186
 21
-1.0964826293
  0
LWPOLYLINE
  5
325
100
AcDbEntity
  8
RACCORDO
100
AcDbPolyline
 62
250
  6
CONTINUOUS
 90
5
 70
0
 10
59.567148794
 20
-51.0816443409
 10
59.5352253457
 20
-51.0670266908
 10
59.4964499322
 20
-51.0330253204
 10
59.4639476642
 20
-50.9833977081
 10
59.4382781613
 20
-50.9189985113
  0
LINE
  5
326
100
AcDbEntity
  8
RACCORDO
100
AcDbLine
 62
250
  6
CONTINUOUS
 10
-16.266744594
 20
-13.3725791738
 11
-16.2558572196
 21
-13.8102344922
  0
LINE
  5
327
100
AcDbEntity
  8
RACCORDO
100
AcDbLine
 62
7
  6
CONTINUOUS
 10
-16.2494508763
 20
-13.3189353854
 11
-16.2385635019
 21
-13.7565907038
  0
LINE
  5
328
100
AcDbEntity
  8
RACCORDO
100
AcDbLine
 62
250
  6
CONTINUOUS
 10
-16.2494508763
 20
-13.3189353854
 11
-16.2494445149
 21
-13.3192101608
  0
LWPOLYLINE
  5
329
100
AcDbEntity
  8
RACCORDO
100
AcDbPolyline
 62
250
  6
CONTINUOUS
 90
6
 70
0
 10
-16.2385635019
 20
-13.7565907038
 10
-16.2385690006
 20
-13.7607659628
 10
-16.2399417787
 20
-13.7735252233
 10
-16.2433219663
 20
-13.7860972541
 10
-16.2486525181
 20
-13.798373559
 10
-16.2558572196
 20
-13.8102344922
  0
LWPOLYLINE
  5
32A
100
AcDbEntity
  8
RACCORDO
100
AcDbPolyline
 62
250
  6
CONTINUOUS
 90
6
 70
0
 10
-16.2494445149
 20
-13.3192101608
 10
-16.249456375
 20
-13.3231106445
 10
-16.2508291531
 20
-13.3358699049
 10
-16.2542093407
 20
-13.3484419357
 10
-16.2595398925
 20
-13.3607182406
 10
-16.266744594
 20
-13.3725791738
  0
LWPOLYLINE
  5
32B
100
AcDbEntity
  8
RACCORDO
100
AcDbPolyline
 62
250
  6
CONTINUOUS
 90
6
 70
0
 10
-16.2558572196
 20
-13.8102344922
 10
-16.2563799568
 20
-13.8260658105
 10
-16.2588968982
 20
-13.8411908493
 10
-16.2633804838
 20
-13.8554439918
 10
-16.2697816189
 20
-13.8686691682
 10
-16.2738945347
 20
-13.8751624545
  0
LINE
  5
32C
100
AcDbEntity
  8
RACCORDO
100
AcDbLine
 62
7
  6
CONTINUOUS
 10
-56.482915561
 20
-0.8634675316
 11
-56.3330836664
 21
-0.8148305922
  0
LWPOLYLINE
  5
32D
100
AcDbEntity
  8
RACCORDO
100
AcDbPolyline
 62
250
  6
CONTINUOUS
 90
10
 70
0
 10
67.7400495483
 20
-8.6064296717
 10
67.9343305516
 20
-8.5889471213
 10
68.1298660128
 20
-8.5794818982
 10
68.3258216111
 20
-8.578074409
 10
68.5213612327
 20
-8.5847306794
 10
68.7156505389
 20
-8.5994223283
 10
68.9078605261
 20
-8.622086689
 10
69.0971710626
 20
-8.6526270762
 10
69.2827743882
 20
-8.6909131988
 10
69.463878561
 20
-8.7367817158
  0
LWPOLYLINE
  5
32E
100
AcDbEntity
  8
RACCORDO
100
AcDbPolyline
 62
250
  6
CONTINUOUS
 90
3
 70
0
 10
88.9836785552
 20
-29.8931740676
 10
86.6263374308
 20
-29.574900439
 10
84.3499933253
 20
-29.2273910447
  0
LWPOLYLINE
  5
32F
100
AcDbEntity
  8
RACCORDO
100
AcDbPolyline
 62
250
  6
CONTINUOUS
 90
8
 70
0
 10
3.6493885977
 20
-19.2868310398
 10
3.6411623812
 20
-19.2856461496
 10
3.63300021
 20
-19.2867397599
 10
3.6243764365
 20
-19.2899193623
 10
3.615421173
 20
-19.2951257117
 10
3.606247372
 20
-19.3022679485
 10
3.596944215
 20
-19.3112522851
 10
3.5876119008
 20
-19.3219615464
  0
LWPOLYLINE
  5
330
100
AcDbEntity
  8
RACCORDO
100
AcDbPolyline
 62
250
  6
CONTINUOUS
 90
8
 70
0
 10
-16.3906769999
 20
-13.1327210421
 10
-16.3989032165
 20
-13.1315361518
 10
-16.4070653877
 20
-13.1326297622
 10
-16.4156891612
 20
-13.1358093646
 10
-16.4246444247
 20
-13.141015714
 10
-16.4338182257
 20
-13.1481579508
 10
-16.4431213826
 20
-13.1571422874
 10
-16.4524536968
 20
-13.1678515487
  0
LWPOLYLINE
  5
331
100
AcDbEntity
  8
RACCORDO
100
AcDbPolyline
 62
250
  6
CONTINUOUS
 90
8
 70
0
 10
18.714303213
 20
-23.9131203699
 10
18.7062656648
 20
-23.91193501
 10
18.6981428166
 20
-23.9129717756
 10
18.6895589248
 20
-23.9160816595
 10
18.6806069953
 20
-23.9212309664
 10
18.6713840216
 20
-23.9283639039
 10
18.6619899337
 20
-23.9374031873
 10
18.6525265161
 20
-23.9482508765
  0
LWPOLYLINE
  5
332
100
AcDbEntity
  8
RACCORDO
100
AcDbPolyline
 62
250
  6
CONTINUOUS
 90
8
 70
0
 10
-1.3257623847
 20
-17.7590103722
 10
-1.3337999328
 20
-17.7578250123
 10
-1.3419227811
 20
-17.7588617779
 10
-1.3505066729
 20
-17.7619716618
 10
-1.3594586023
 20
-17.7671209687
 10
-1.3686815761
 20
-17.7742539062
 10
-1.3780756639
 20
-17.7832931895
 10
-1.3875390816
 20
-17.7941408788
  0
LWPOLYLINE
  5
333
100
AcDbEntity
  8
RACCORDO
100
AcDbPolyline
 62
250
  6
CONTINUOUS
 90
8
 70
0
 10
-21.3658279823
 20
-11.6049003745
 10
-21.3738655305
 20
-11.6037150145
 10
-21.3819883787
 20
-11.6047517801
 10
-21.3905722705
 20
-11.607861664
 10
-21.3995242
 20
-11.6130109709
 10
-21.4087471738
 20
-11.6201439085
 10
-21.4181412616
 20
-11.6291831918
 10
-21.4276046792
 20
-11.640030881
  0
LWPOLYLINE
  5
334
100
AcDbEntity
  8
RACCORDO
100
AcDbPolyline
 62
250
  6
CONTINUOUS
 90
8
 70
0
 10
84.3499933253
 20
-29.2273910447
 10
82.156621694
 20
-28.8544471623
 10
80.0686532221
 20
-28.4638830152
 10
78.0658759672
 20
-28.0555585847
 10
76.0824665784
 20
-27.6179280216
 10
74.086292674
 20
-27.1431676747
 10
71.9904245783
 20
-26.6067475691
 10
69.9022099499
 20
-26.0327258348
  0
LINE
  5
335
100
AcDbEntity
  8
0
100
AcDbLine
 62
250
  6
CONTINUOUS
 10
-72.4606228473
 20
0.4710704677
 11
67.285434587
 21
-42.4435899166
  0
LINE
  5
336
100
AcDbEntity
  8
ASSI
100
AcDbLine
 62
7
  6
CONTINUOUS
 10
-71.552139131
 20
1.6095273884
 11
-67.7483438864
 21
0.4414187198
  0
LINE
  5
337
100
AcDbEntity
  8
ASSI
100
AcDbLine
 62
7
  6
CONTINUOUS
 10
64.3901230588
 20
-40.1370243273
 11
67.3997625024
 21
-41.0612554431
  0
LINE
  5
338
100
AcDbEntity
  8
ASSI
100
AcDbLine
 62
7
  6
CONTINUOUS
 10
-67.1578294708
 20
1.1814157182
 11
64.9806374744
 21
-39.3970273288
  0
LINE
  5
339
100
AcDbEntity
  8
DRAFT
100
AcDbLine
 62
7
  6
CONTINUOUS
 10
63.1257540679
 20
-38.6926498991
 11
57.6211376748
 21
-37.0022355333
  0
LINE
  5
33A
100
AcDbEntity
  8
DRAFT
100
AcDbLine
 62
7
  6
CONTINUOUS
 10
-57.1146395181
 20
-1.7679899127
 11
-62.6192559111
 21
-0.0775755469
  0
LINE
  5
33B
100
AcDbEntity
  8
DRAFT
100
AcDbLine
 62
7
  6
CONTINUOUS
 10
63.2072668365
 20
-38.5759373338
 11
57.7213216494
 21
-36.8912567145
  0
LINE
  5
33C
100
AcDbEntity
  8
DRAFT
100
AcDbLine
 62
7
  6
CONTINUOUS
 10
-57.0331267494
 20
-1.6512773474
 11
-62.5190719365
 21
0.033403272
  0
LINE
  5
33D
100
AcDbEntity
  8
DRAFT
100
AcDbLine
 62
7
  6
CONTINUOUS
 10
63.3295359895
 20
-38.4008684859
 11
57.8715976113
 21
-36.7247884862
  0
LINE
  5
33E
100
AcDbEntity
  8
DRAFT
100
AcDbLine
 62
7
  6
CONTINUOUS
 10
-56.9108575964
 20
-1.4762084994
 11
-62.3687959746
 21
0.1998715002
  0
LINE
  5
33F
100
AcDbEntity
  8
DRAFT
100
AcDbLine
 62
7
  6
CONTINUOUS
 10
63.4110487582
 20
-38.2841559206
 11
57.9717815859
 21
-36.6138096674
  0
LINE
  5
340
100
AcDbEntity
  8
DRAFT
100
AcDbLine
 62
7
  6
CONTINUOUS
 10
-56.8293448278
 20
-1.3594959341
 11
-62.268612
 21
0.3108503191
  0
LINE
  5
341
100
AcDbEntity
  8
DRAFT
100
AcDbLine
 62
7
  6
CONTINUOUS
 10
63.5333179111
 20
-38.1090870726
 11
58.1220575478
 21
-36.4473414391
  0
LINE
  5
342
100
AcDbEntity
  8
DRAFT
100
AcDbLine
 62
7
  6
CONTINUOUS
 10
-56.7070756748
 20
-1.1844270862
 11
-62.1183360381
 21
0.4773185473
  0
LINE
  5
343
100
AcDbEntity
  8
DRAFT
100
AcDbLine
 62
7
  6
CONTINUOUS
 10
63.6148306798
 20
-37.9923745073
 11
58.2222415225
 21
-36.3363626203
  0
LINE
  5
344
100
AcDbEntity
  8
DRAFT
100
AcDbLine
 62
7
  6
CONTINUOUS
 10
-56.6255629061
 20
-1.0677145209
 11
-62.0181520635
 21
0.5882973662
  0
LINE
  5
345
100
AcDbEntity
  8
DRAFT
100
AcDbLine
 62
7
  6
CONTINUOUS
 10
63.7370998328
 20
-37.8173056594
 11
58.3725174844
 21
-36.169894392
  0
LINE
  5
346
100
AcDbEntity
  8
DRAFT
100
AcDbLine
 62
7
  6
CONTINUOUS
 10
-56.5032937532
 20
-0.8926456729
 11
-61.8678761016
 21
0.7547655944
  0
LINE
  5
347
100
AcDbEntity
  8
RACCORDO
100
AcDbLine
 62
250
  6
CONTINUOUS
 10
-41.4854972599
 20
-5.4805151381
 11
-36.4925192945
 21
-7.0137415509
  0
LINE
  5
348
100
AcDbEntity
  8
RACCORDO
100
AcDbLine
 62
250
  6
CONTINUOUS
 10
-21.4454316622
 20
-11.6346251359
 11
-16.4524536968
 21
-13.1678515487
  0
LINE
  5
349
100
AcDbEntity
  8
RACCORDO
100
AcDbLine
 62
250
  6
CONTINUOUS
 10
-1.4053660646
 20
-17.7887351336
 11
3.5876119008
 21
-19.3219615464
  0
LINE
  5
34A
100
AcDbEntity
  8
RACCORDO
100
AcDbLine
 62
250
  6
CONTINUOUS
 10
18.6346995331
 20
-23.9428451313
 11
23.6276774985
 21
-25.4760715442
  0
LINE
  5
34B
100
AcDbEntity
  8
RACCORDO
100
AcDbLine
 62
250
  6
CONTINUOUS
 10
38.6747651307
 20
-30.0969551291
 11
43.6677430962
 21
-31.6301815419
  0
LINE
  5
34C
100
AcDbEntity
  8
DRAFT
100
AcDbLine
 62
7
  6
CONTINUOUS
 10
63.7574780249
 20
-37.7881275181
 11
58.397563478
 21
-36.1421496873
  0
LINE
  5
34D
100
AcDbEntity
  8
DRAFT
100
AcDbLine
 62
7
  6
CONTINUOUS
 10
-56.482915561
 20
-0.8634675316
 11
-61.8428301079
 21
0.7825102991
  0
LINE
  5
34E
100
AcDbEntity
  8
RACCORDO
100
AcDbLine
 62
7
  6
CONTINUOUS
 10
-41.40589358
 20
-5.4507903767
 11
-36.4307425976
 21
-6.9786110444
  0
LINE
  5
34F
100
AcDbEntity
  8
RACCORDO
100
AcDbLine
 62
7
  6
CONTINUOUS
 10
-21.3658279823
 20
-11.6049003745
 11
-16.3906769999
 21
-13.1327210421
  0
LINE
  5
350
100
AcDbEntity
  8
RACCORDO
100
AcDbLine
 62
7
  6
CONTINUOUS
 10
-1.3257623847
 20
-17.7590103722
 11
3.6493885977
 21
-19.2868310398
  0
LINE
  5
351
100
AcDbEntity
  8
RACCORDO
100
AcDbLine
 62
7
  6
CONTINUOUS
 10
18.714303213
 20
-23.9131203699
 11
23.6894541954
 21
-25.4409410376
  0
LINE
  5
352
100
AcDbEntity
  8
RACCORDO
100
AcDbLine
 62
7
  6
CONTINUOUS
 10
38.7543688106
 20
-30.0672303677
 11
43.7295197931
 21
-31.5950510353
  0
LINE
  5
353
100
AcDbEntity
  8
RACCORDO
100
AcDbLine
 62
250
  6
CONTINUOUS
 10
-61.6106248131
 20
0.8236117547
 11
-56.319549698
 21
-0.8012261535
  0
LINE
  5
354
100
AcDbEntity
  8
RACCORDO
100
AcDbLine
 62
250
  6
CONTINUOUS
 10
58.6297687728
 20
-36.1010482318
 11
63.920843888
 21
-37.7258861399
  0
LINE
  5
355
100
AcDbEntity
  8
RACCORDO
100
AcDbLine
 62
7
  6
CONTINUOUS
 10
-61.5807186397
 20
0.8182357369
 11
-56.3245129307
 21
-0.7958941144
  0
LINE
  5
356
100
AcDbEntity
  8
RACCORDO
100
AcDbLine
 62
7
  6
CONTINUOUS
 10
58.6596749463
 20
-36.1064242496
 11
63.9158806552
 21
-37.7205541009
  0
LWPOLYLINE
  5
357
100
AcDbEntity
  8
RACCORDO
100
AcDbPolyline
 62
250
  6
CONTINUOUS
 90
16
 70
0
 10
-36.4925192945
 20
-7.0137415509
 10
-36.4734163567
 20
-7.0196893301
 10
-36.4544890355
 20
-7.0272807888
 10
-36.4359445819
 20
-7.0364328016
 10
-36.4179860549
 20
-7.0470451554
 10
-36.4008100977
 20
-7.0590016467
 10
-36.3846047841
 20
-7.0721713536
 10
-36.36954756
 20
-7.0864100699
 10
-36.3558032996
 20
-7.101561884
 10
-36.3435225004
 20
-7.1174608857
 10
-36.3328396353
 20
-7.1339329835
 10
-36.32387168
 20
-7.1507978104
 10
-36.3167168321
 20
-7.1678706993
 10
-36.3114534362
 20
-7.1849647046
 10
-36.3081391257
 20
-7.2018926497
 10
-36.3068101917
 20
-7.218469176
  0
LWPOLYLINE
  5
358
100
AcDbEntity
  8
RACCORDO
100
AcDbPolyline
 62
250
  6
CONTINUOUS
 90
16
 70
0
 10
-16.4524536968
 20
-13.1678515487
 10
-16.4333507591
 20
-13.1737993279
 10
-16.4144234378
 20
-13.1813907865
 10
-16.3958789842
 20
-13.1905427993
 10
-16.3779204573
 20
-13.2011551532
 10
-16.3607445
 20
-13.2131116444
 10
-16.3445391865
 20
-13.2262813513
 10
-16.3294819624
 20
-13.2405200677
 10
-16.315737702
 20
-13.2556718817
 10
-16.3034569028
 20
-13.2715708834
 10
-16.2927740377
 20
-13.2880429812
 10
-16.2838060823
 20
-13.3049078082
 10
-16.2766512344
 20
-13.3219806971
 10
-16.2713878386
 20
-13.3390747024
 10
-16.268073528
 20
-13.3560026474
 10
-16.266744594
 20
-13.3725791738
  0
LWPOLYLINE
  5
359
100
AcDbEntity
  8
RACCORDO
100
AcDbPolyline
 62
250
  6
CONTINUOUS
 90
16
 70
0
 10
3.5876119008
 20
-19.3219615464
 10
3.6067148386
 20
-19.3279093256
 10
3.6256421599
 20
-19.3355007843
 10
3.6441866134
 20
-19.3446527971
 10
3.6621451404
 20
-19.3552651509
 10
3.6793210976
 20
-19.3672216421
 10
3.6955264112
 20
-19.3803913491
 10
3.7105836353
 20
-19.3946300654
 10
3.7243278957
 20
-19.4097818794
 10
3.7366086949
 20
-19.4256808812
 10
3.74729156
 20
-19.442152979
 10
3.7562595154
 20
-19.4590178059
 10
3.7634143632
 20
-19.4760906948
 10
3.7686777591
 20
-19.4931847001
 10
3.7719920696
 20
-19.5101126451
 10
3.7733210037
 20
-19.5266891715
  0
LWPOLYLINE
  5
35A
100
AcDbEntity
  8
RACCORDO
100
AcDbPolyline
 62
250
  6
CONTINUOUS
 90
16
 70
0
 10
23.6276774985
 20
-25.4760715442
 10
23.6467804362
 20
-25.4820193234
 10
23.6657077575
 20
-25.489610782
 10
23.6842522111
 20
-25.4987627948
 10
23.702210738
 20
-25.5093751486
 10
23.7193866953
 20
-25.5213316399
 10
23.7355920088
 20
-25.5345013468
 10
23.7506492329
 20
-25.5487400631
 10
23.7643934933
 20
-25.5638918772
 10
23.7766742925
 20
-25.5797908789
 10
23.7873571577
 20
-25.5962629767
 10
23.796325113
 20
-25.6131278037
 10
23.8034799609
 20
-25.6302006925
 10
23.8087433568
 20
-25.6472946978
 10
23.8120576673
 20
-25.6642226429
 10
23.8133866013
 20
-25.6807991693
  0
LWPOLYLINE
  5
35B
100
AcDbEntity
  8
RACCORDO
100
AcDbPolyline
 62
250
  6
CONTINUOUS
 90
16
 70
0
 10
43.6677430962
 20
-31.6301815419
 10
43.6868460339
 20
-31.6361293211
 10
43.7057733552
 20
-31.6437207798
 10
43.7243178087
 20
-31.6528727926
 10
43.7422763357
 20
-31.6634851464
 10
43.759452293
 20
-31.6754416376
 10
43.7756576065
 20
-31.6886113445
 10
43.7907148306
 20
-31.7028500609
 10
43.804459091
 20
-31.7180018749
 10
43.8167398902
 20
-31.7339008767
 10
43.8274227553
 20
-31.7503729744
 10
43.8363907107
 20
-31.7672378014
 10
43.8435455585
 20
-31.7843106903
 10
43.8488089544
 20
-31.8014046956
 10
43.852123265
 20
-31.8183326406
 10
43.853452199
 20
-31.834909167
  0
LWPOLYLINE
  5
35C
100
AcDbEntity
  8
ASSI
100
AcDbPolyline
 62
7
  6
CONTINUOUS
 90
10
 70
0
 10
64.9806374744
 20
-39.3970273288
 10
65.1798591541
 20
-39.4661965043
 10
65.374911539
 20
-39.5484998445
 10
65.5657946289
 20
-39.6439373492
 10
65.753925875
 20
-39.7534540598
 10
65.9378878261
 20
-39.876104935
 10
66.1134281294
 20
-40.0090548514
 10
66.2791293336
 20
-40.1513587681
 10
66.4364088899
 20
-40.3039617261
 10
66.5852667983
 20
-40.4668637253
  0
LWPOLYLINE
  5
35D
100
AcDbEntity
  8
RACCORDO
100
AcDbPolyline
 62
250
  6
CONTINUOUS
 90
7
 70
0
 10
-87.2206935942
 20
23.1596854612
 10
-85.4536788452
 20
22.3664216092
 10
-83.7156614809
 20
21.6259842546
 10
-81.9521042604
 20
20.9129576766
 10
-80.1334102857
 20
20.2162090643
 10
-78.1751553649
 20
19.5076472805
 10
-76.1728832794
 20
18.8255201886
  0
LWPOLYLINE
  5
35E
100
AcDbEntity
  8
RACCORDO
100
AcDbPolyline
 62
250
  6
CONTINUOUS
 90
6
 70
0
 10
87.9587224427
 20
-59.6549955746
 10
87.9266947877
 20
-59.6404251571
 10
87.8830098969
 20
-59.5985200357
 10
87.8480882786
 20
-59.5342540096
 10
87.8227937062
 20
-59.4492168007
 10
87.8077518086
 20
-59.345511946
  0
LWPOLYLINE
  5
35F
100
AcDbEntity
  8
RACCORDO
100
AcDbPolyline
 62
250
  6
CONTINUOUS
 90
3
 70
0
 10
-90.854723069
 20
24.9278138242
 10
-89.0289560986
 20
24.0156046522
 10
-87.2206935942
 20
23.1596854612
  0
LINE
  5
360
100
AcDbEntity
  8
RACCORDO
100
AcDbLine
 62
250
  6
CONTINUOUS
 10
-92.6917956707
 20
25.8976040082
 11
-90.854723069
 21
24.9278138242
  0
LINE
  5
361
100
AcDbEntity
  8
RACCORDO
100
AcDbLine
 62
7
  6
CONTINUOUS
 10
-22.3975564111
 20
-12.5640305028
 11
-21.5721534286
 21
-11.6611430405
  0
LINE
  5
362
100
AcDbEntity
  8
RACCORDO
100
AcDbLine
 62
250
  6
CONTINUOUS
 10
-22.2997623474
 20
-12.5940621124
 11
-21.4276046792
 21
-11.640030881
  0
LWPOLYLINE
  5
363
100
AcDbEntity
  8
RACCORDO
100
AcDbPolyline
 62
250
  6
CONTINUOUS
 90
10
 70
0
 10
-21.5721534286
 20
-11.6611430405
 10
-21.5661936801
 20
-11.6552057992
 10
-21.5549850928
 20
-11.6465158726
 10
-21.5423469213
 20
-11.6394730882
 10
-21.5284141026
 20
-11.634151309
 10
-21.5133173448
 20
-11.6306052605
 10
-21.4972421103
 20
-11.6288829442
 10
-21.4804331165
 20
-11.6289992916
 10
-21.4631056509
 20
-11.6309277585
 10
-21.4454316622
 20
-11.6346251359
  0
LWPOLYLINE
  5
364
100
AcDbEntity
  8
RACCORDO
100
AcDbPolyline
 62
250
  6
CONTINUOUS
 90
8
 70
0
 10
-36.4307425976
 20
-6.9786110444
 10
-36.4389688141
 20
-6.9774261541
 10
-36.4471309853
 20
-6.9785197645
 10
-36.4557547588
 20
-6.9816993668
 10
-36.4647100223
 20
-6.9869057162
 10
-36.4738838233
 20
-6.994047953
 10
-36.4831869803
 20
-7.0030322897
 10
-36.4925192945
 20
-7.0137415509
  0
LWPOLYLINE
  5
365
100
AcDbEntity
  8
RACCORDO
100
AcDbPolyline
 62
250
  6
CONTINUOUS
 90
8
 70
0
 10
-41.40589358
 20
-5.4507903767
 10
-41.4139311281
 20
-5.4496050168
 10
-41.4220539764
 20
-5.4506417824
 10
-41.4306378682
 20
-5.4537516663
 10
-41.4395897977
 20
-5.4589009732
 10
-41.4488127714
 20
-5.4660339107
 10
-41.4582068592
 20
-5.4750731941
 10
-41.4676702769
 20
-5.4859208833
  0
LINE
  5
366
100
AcDbEntity
  8
DRAFT
100
AcDbLine
 62
7
  6
CONTINUOUS
 10
63.2072668365
 20
-38.5759373338
 11
63.2712946241
 21
-38.6047054423
  0
LINE
  5
367
100
AcDbEntity
  8
DRAFT
100
AcDbLine
 62
7
  6
CONTINUOUS
 10
63.4110487582
 20
-38.2841559206
 11
63.4750765457
 21
-38.312924029
  0
LINE
  5
368
100
AcDbEntity
  8
DRAFT
100
AcDbLine
 62
7
  6
CONTINUOUS
 10
63.6148306798
 20
-37.9923745073
 11
63.6788584674
 21
-38.0211426158
  0
LINE
  5
369
100
AcDbEntity
  8
RACCORDO
100
AcDbLine
 62
250
  6
CONTINUOUS
 10
-16.6202124084
 20
-14.3381968754
 11
-16.2558572196
 21
-13.8102344922
  0
LINE
  5
36A
100
AcDbEntity
  8
RACCORDO
100
AcDbLine
 62
7
  6
CONTINUOUS
 10
-16.598123224
 20
-14.3449802499
 11
-16.2738945347
 21
-13.8751624545
  0
LINE
  5
36B
100
AcDbEntity
  8
RACCORDO
100
AcDbLine
 62
250
  6
CONTINUOUS
 10
-17.1621226501
 20
-14.1717814901
 11
-16.4524536968
 21
-13.1678515487
  0
LINE
  5
36C
100
AcDbEntity
  8
RACCORDO
100
AcDbLine
 62
250
  6
CONTINUOUS
 10
-16.8906290944
 20
-14.2551545309
 11
-16.266744594
 21
-13.3725791738
  0
LWPOLYLINE
  5
36D
100
AcDbEntity
  8
RACCORDO
100
AcDbPolyline
 62
7
  6
CONTINUOUS
 90
4
 70
0
 10
-61.6106248131
 20
0.8236117547
 10
-61.597235437
 20
0.8221658517
 10
-61.5838674435
 20
0.8191588912
 10
-61.5806350048
 20
0.8182100289
  0
LINE
  5
36E
100
AcDbEntity
  8
RACCORDO
100
AcDbLine
 62
7
  6
CONTINUOUS
 10
91.049383677
 20
-31.6586104744
 11
91.2850760469
 21
-31.7309893178
  0
LINE
  5
36F
100
AcDbEntity
  8
RACCORDO
100
AcDbLine
 62
250
  6
CONTINUOUS
 10
92.1778250722
 20
-31.4613011554
 11
92.0359509481
 21
-31.4177329864
  0
LINE
  5
370
100
AcDbEntity
  8
0
100
AcDbLine
 62
7
  6
CONTINUOUS
 10
92.5150858357
 20
-30.8561489342
 11
92.6787449453
 21
-30.9064070612
  0
LINE
  5
371
100
AcDbEntity
  8
DRAFT
100
AcDbLine
 62
250
  6
CONTINUOUS
 10
92.1231112083
 20
-30.3733717382
 11
91.4513973507
 21
-30.16709492
  0
LINE
  5
372
100
AcDbEntity
  8
DRAFT
100
AcDbLine
 62
7
  6
CONTINUOUS
 10
92.4737551195
 20
-29.9849458723
 11
91.4363827589
 21
-29.6663788703
  0
LWPOLYLINE
  5
373
100
AcDbEntity
  8
RACCORDO
100
AcDbPolyline
 62
250
  6
CONTINUOUS
 90
6
 70
0
 10
-73.6452919605
 20
35.3363098369
 10
-73.6840993879
 20
35.3554926178
 10
-73.7196987003
 20
35.3894189644
 10
-73.7497215429
 20
35.4370275563
 10
-73.7737129251
 20
35.4975968939
 10
-73.7913092618
 20
35.57020906
  0
LINE
  5
374
100
AcDbEntity
  8
RACCORDO
100
AcDbLine
 62
250
  6
CONTINUOUS
 10
3.7733210037
 20
-19.5266891715
 11
3.7842083781
 21
-19.9643444899
  0
LINE
  5
375
100
AcDbEntity
  8
RACCORDO
100
AcDbLine
 62
7
  6
CONTINUOUS
 10
3.7906147214
 20
-19.4730453832
 11
3.8015020958
 21
-19.9107007015
  0
LINE
  5
376
100
AcDbEntity
  8
RACCORDO
100
AcDbLine
 62
250
  6
CONTINUOUS
 10
3.7906147214
 20
-19.4730453832
 11
3.7906210827
 21
-19.4733201585
  0
LWPOLYLINE
  5
377
100
AcDbEntity
  8
RACCORDO
100
AcDbPolyline
 62
250
  6
CONTINUOUS
 90
6
 70
0
 10
3.8015020958
 20
-19.9107007015
 10
3.8014965971
 20
-19.9148759606
 10
3.8001238189
 20
-19.927635221
 10
3.7967436314
 20
-19.9402072519
 10
3.7914130795
 20
-19.9524835567
 10
3.7842083781
 20
-19.9643444899
  0
LWPOLYLINE
  5
378
100
AcDbEntity
  8
RACCORDO
100
AcDbPolyline
 62
250
  6
CONTINUOUS
 90
6
 70
0
 10
3.7906210827
 20
-19.4733201585
 10
3.7906092227
 20
-19.4772206422
 10
3.7892364445
 20
-19.4899799027
 10
3.785856257
 20
-19.5025519335
 10
3.7805257052
 20
-19.5148282384
 10
3.7733210037
 20
-19.5266891715
  0
LWPOLYLINE
  5
379
100
AcDbEntity
  8
RACCORDO
100
AcDbPolyline
 62
250
  6
CONTINUOUS
 90
6
 70
0
 10
3.7842083781
 20
-19.9643444899
 10
3.7836856409
 20
-19.9801758082
 10
3.7811686995
 20
-19.995300847
 10
3.7766851139
 20
-20.0095539895
 10
3.7702839788
 20
-20.0227791659
 10
3.766171063
 20
-20.0292724523
  0
LINE
  5
37A
100
AcDbEntity
  8
RACCORDO
100
AcDbLine
 62
250
  6
CONTINUOUS
 10
3.4198531893
 20
-20.4923068731
 11
3.7842083781
 21
-19.9643444899
  0
LINE
  5
37B
100
AcDbEntity
  8
RACCORDO
100
AcDbLine
 62
7
  6
CONTINUOUS
 10
3.4419423737
 20
-20.4990902477
 11
3.766171063
 21
-20.0292724523
  0
LINE
  5
37C
100
AcDbEntity
  8
RACCORDO
100
AcDbLine
 62
250
  6
CONTINUOUS
 10
2.8779429475
 20
-20.3258914879
 11
3.5876119008
 21
-19.3219615464
  0
LINE
  5
37D
100
AcDbEntity
  8
RACCORDO
100
AcDbLine
 62
250
  6
CONTINUOUS
 10
3.1494365033
 20
-20.4092645286
 11
3.7733210037
 21
-19.5266891715
  0
LINE
  5
37E
100
AcDbEntity
  8
RACCORDO
100
AcDbLine
 62
7
  6
CONTINUOUS
 10
-2.3574908135
 20
-18.7181405005
 11
-1.532087831
 21
-17.8152530382
  0
LINE
  5
37F
100
AcDbEntity
  8
RACCORDO
100
AcDbLine
 62
250
  6
CONTINUOUS
 10
-2.2596967497
 20
-18.7481721101
 11
-1.3875390816
 21
-17.7941408788
  0
LWPOLYLINE
  5
380
100
AcDbEntity
  8
RACCORDO
100
AcDbPolyline
 62
250
  6
CONTINUOUS
 90
10
 70
0
 10
-1.532087831
 20
-17.8152530382
 10
-1.5261280825
 20
-17.8093157969
 10
-1.5149194952
 20
-17.8006258703
 10
-1.5022813237
 20
-17.7935830859
 10
-1.488348505
 20
-17.7882613067
 10
-1.4732517471
 20
-17.7847152582
 10
-1.4571765127
 20
-17.7829929419
 10
-1.4403675188
 20
-17.7831092893
 10
-1.4230400532
 20
-17.7850377562
 10
-1.4053660646
 20
-17.7887351336
  0
LINE
  5
381
100
AcDbEntity
  8
RACCORDO
100
AcDbLine
 62
7
  6
CONTINUOUS
 10
-61.8428301079
 20
0.7825102991
 11
-61.6595907214
 21
0.8208881214
  0
LWPOLYLINE
  5
382
100
AcDbEntity
  8
0
100
AcDbPolyline
 62
7
  6
CONTINUOUS
 90
7
 70
0
 10
-73.6452919605
 20
35.3363098369
 10
-73.6795732744
 20
35.3455105959
 10
-73.7068434518
 20
35.350668716
 10
-73.7261956615
 20
35.3527907009
 10
-73.7369881201
 20
35.3531163882
 10
-73.7389796127
 20
35.3530726148
 10
-73.7385551623
 20
35.3531241706
  0
LWPOLYLINE
  5
383
100
AcDbEntity
  8
RACCORDO
100
AcDbPolyline
 62
250
  6
CONTINUOUS
 90
3
 70
0
 10
-73.4738652095
 20
37.869340987
 10
-72.5243755713
 20
37.5815720349
 10
-71.5519910839
 20
37.2852616637
  0
LWPOLYLINE
  5
384
100
AcDbEntity
  8
RACCORDO
100
AcDbPolyline
 62
250
  6
CONTINUOUS
 90
3
 70
0
 10
-71.5519910839
 20
37.2852616637
 10
-66.3741980417
 20
35.7016467763
 10
-64.1774501636
 20
35.0294030103
  0
LWPOLYLINE
  5
385
100
AcDbEntity
  8
RACCORDO
100
AcDbPolyline
 62
250
  6
CONTINUOUS
 90
3
 70
0
 10
63.0969802743
 20
-5.7145314989
 10
64.0916075467
 20
-6.0195101292
 10
66.0201311418
 20
-6.6097013881
  0
LINE
  5
386
100
AcDbEntity
  8
0
100
AcDbLine
 62
7
  6
CONTINUOUS
 10
66.1007654738
 20
-7.5783505473
 11
-73.6452919605
 21
35.3363098369
  0
LINE
  5
387
100
AcDbEntity
  8
RACCORDO
100
AcDbLine
 62
250
  6
CONTINUOUS
 10
-70.796421551
 20
35.402835454
 11
-64.4175412798
 21
33.445955265
  0
LINE
  5
388
100
AcDbEntity
  8
RACCORDO
100
AcDbLine
 62
250
  6
CONTINUOUS
 10
-64.1774497911
 20
35.0294028848
 11
56.9523315603
 21
-2.1683793825
  0
LWPOLYLINE
  5
389
100
AcDbEntity
  8
RACCORDO
100
AcDbPolyline
 62
250
  6
CONTINUOUS
 90
6
 70
0
 10
-64.4175412798
 20
33.445955265
 10
57.8241753909
 20
-4.0937158502
 10
58.9176280301
 20
-4.4298932754
 10
59.9916348504
 20
-4.7600635533
 10
61.0464618511
 20
-5.0844205255
 10
63.0969802743
 20
-5.7145314989
  0
LINE
  5
38A
100
AcDbEntity
  8
RACCORDO
100
AcDbLine
 62
250
  6
CONTINUOUS
 10
56.9532940731
 20
-2.1686759369
 11
60.2327807819
 21
-3.1793239661
  0
LWPOLYLINE
  5
38B
100
AcDbEntity
  8
RACCORDO
100
AcDbPolyline
 62
250
  6
CONTINUOUS
 90
3
 70
0
 10
-73.7259262925
 20
36.3049589961
 10
-72.7696648064
 20
36.0100941979
 10
-70.796421551
 20
35.402835454
  0
LINE
  5
38C
100
AcDbEntity
  8
RACCORDO
100
AcDbLine
 62
250
  6
CONTINUOUS
 10
60.2327807819
 20
-3.1793239661
 11
62.3223007219
 21
-3.8234159445
  0
LWPOLYLINE
  5
38D
100
AcDbEntity
  8
RACCORDO
100
AcDbPolyline
 62
250
  6
CONTINUOUS
 90
4
 70
0
 10
62.3223007219
 20
-3.8234159445
 10
64.3285794304
 20
-4.4423323907
 10
65.2996716507
 20
-4.7428314554
 10
66.2493720056
 20
-5.0383108247
  0
LWPOLYLINE
  5
38E
100
AcDbEntity
  8
RACCORDO
100
AcDbPolyline
 62
250
  6
CONTINUOUS
 90
67
 70
0
 10
66.0201311418
 20
-6.6097013881
 10
66.0769468279
 20
-6.6277978248
 10
66.1320159851
 20
-6.6470159555
 10
66.1852773446
 20
-6.6671913463
 10
66.2365534437
 20
-6.6881270663
 10
66.2859311476
 20
-6.7097044115
 10
66.3337591003
 20
-6.7319138314
 10
66.3801051204
 20
-6.7547095599
 10
66.424854135
 20
-6.7779217389
 10
66.4680925086
 20
-6.8013956858
 10
66.5099453805
 20
-6.8250850612
 10
66.5502813373
 20
-6.8488609198
 10
66.5888205161
 20
-6.8724413455
 10
66.6254337411
 20
-6.8956259374
 10
66.66028695
 20
-6.9184277034
 10
66.6935512888
 20
-6.9408846347
 10
66.7252067889
 20
-6.9629026293
 10
66.7553151198
 20
-6.9844384758
 10
66.78416103
 20
-7.005631679
 10
66.8118415482
 20
-7.026488677
 10
66.8382942535
 20
-7.0469128122
 10
66.8635575235
 20
-7.0669049087
 10
66.8875491049
 20
-7.0863412243
 10
66.9103910435
 20
-7.1052677954
 10
66.9324175157
 20
-7.1239543719
 10
66.9535183341
 20
-7.1422863612
 10
66.973826636
 20
-7.1603313291
 10
66.9940137353
 20
-7.1786627974
 10
67.0141574924
 20
-7.1973616042
 10
67.034163333
 20
-7.2163443818
 10
67.0544134632
 20
-7.2359679302
 10
67.0749633543
 20
-7.2563182666
 10
67.0957140942
 20
-7.2773269584
 10
67.1167982981
 20
-7.2991340978
 10
67.1382000133
 20
-7.3217573838
 10
67.1598763674
 20
-7.3452019628
 10
67.1819077151
 20
-7.3695962705
 10
67.2042214146
 20
-7.3949140763
 10
67.2268121386
 20
-7.4212061597
 10
67.2498420819
 20
-7.4487250443
 10
67.2732829375
 20
-7.477524007
 10
67.2970435206
 20
-7.5075817799
 10
67.3211680937
 20
-7.5390469507
 10
67.3456087106
 20
-7.5719741692
 10
67.3702542242
 20
-7.6063365442
 10
67.3950387955
 20
-7.6421611065
 10
67.4198901801
 20
-7.6794869393
 10
67.4446895734
 20
-7.718286131
 10
67.469297969
 20
-7.7584796692
 10
67.4936071839
 20
-7.8000502777
 10
67.5175171431
 20
-7.8429995395
 10
67.540902715
 20
-7.8872688137
 10
67.5637413983
 20
-7.9330321586
 10
67.5858142985
 20
-7.9800703602
 10
67.6067542373
 20
-8.0277227625
 10
67.6265705151
 20
-8.0760856086
 10
67.645110407
 20
-8.1249829401
 10
67.6619177058
 20
-8.1733351935
 10
67.6768612155
 20
-8.2205084212
 10
67.690177632
 20
-8.2670540009
 10
67.7019955205
 20
-8.3136615528
 10
67.7122040984
 20
-8.3600107262
 10
67.7208713481
 20
-8.4063252807
 10
67.7281747512
 20
-8.4540716055
 10
67.7339785053
 20
-8.5036626581
 10
67.7380031397
 20
-8.5544874137
 10
67.7400499558
 20
-8.6064312252
  0
LWPOLYLINE
  5
38F
100
AcDbEntity
  8
ASSI
100
AcDbPolyline
 62
7
  6
CONTINUOUS
 90
4
 70
0
 10
67.125682958
 20
-40.9770882703
 10
66.9560748457
 20
-40.8397832324
 10
66.7652522073
 20
-40.6610592941
 10
66.5852667983
 20
-40.4668637253
  0
LWPOLYLINE
  5
390
100
AcDbEntity
  8
RACCORDO
100
AcDbPolyline
 62
250
  6
CONTINUOUS
 90
10
 70
0
 10
57.6448976024
 20
-41.2816124985
 10
57.6984287831
 20
-41.340587952
 10
57.7473908629
 20
-41.4107303598
 10
57.7915819285
 20
-41.4917502149
 10
57.8308197631
 20
-41.5833131045
 10
57.8649425991
 20
-41.6850410899
 10
57.8938097853
 20
-41.796514267
 10
57.9173023678
 20
-41.9172724999
 10
57.9353235812
 20
-42.0468173206
 10
57.947799248
 20
-42.1846139864
  0
LINE
  5
391
100
AcDbEntity
  8
RACCORDO
100
AcDbLine
 62
250
  6
CONTINUOUS
 10
23.8133866013
 20
-25.6807991693
 11
23.8242739757
 21
-26.1184544876
  0
LINE
  5
392
100
AcDbEntity
  8
RACCORDO
100
AcDbLine
 62
7
  6
CONTINUOUS
 10
23.830680319
 20
-25.6271553809
 11
23.8415676934
 21
-26.0648106993
  0
LINE
  5
393
100
AcDbEntity
  8
RACCORDO
100
AcDbLine
 62
250
  6
CONTINUOUS
 10
23.830680319
 20
-25.6271553809
 11
23.8306866804
 21
-25.6274301563
  0
LWPOLYLINE
  5
394
100
AcDbEntity
  8
RACCORDO
100
AcDbPolyline
 62
250
  6
CONTINUOUS
 90
67
 70
0
 10
66.2493685347
 20
-5.0383147623
 10
66.3593291118
 20
-5.0743603417
 10
66.4657481646
 20
-5.1126002574
 10
66.5686752577
 20
-5.1527874164
 10
66.6682501874
 20
-5.1948870972
 10
66.7646373825
 20
-5.2385717536
 10
66.8574772209
 20
-5.2828769582
 10
66.9458981426
 20
-5.3268159718
 10
67.0292246879
 20
-5.3698765762
 10
67.1078885504
 20
-5.4120324813
 10
67.1828875882
 20
-5.4533272083
 10
67.2548797439
 20
-5.4940050292
 10
67.3239573215
 20
-5.5345170628
 10
67.3898892696
 20
-5.574787141
 10
67.4527834653
 20
-5.6145463011
 10
67.5129098636
 20
-5.6538377015
 10
67.5701891837
 20
-5.6924845267
 10
67.6247256458
 20
-5.7304050424
 10
67.6770944382
 20
-5.7678389959
 10
67.7274410992
 20
-5.8047058215
 10
67.7757113752
 20
-5.8409435164
 10
67.8223108224
 20
-5.877012835
 10
67.8673766257
 20
-5.9132063616
 10
67.911280878
 20
-5.9496333233
 10
67.9545809071
 20
-5.9863729458
 10
67.9967562226
 20
-6.0228483054
 10
68.0375092719
 20
-6.0588615035
 10
68.0775971085
 20
-6.0949891663
 10
68.1171414317
 20
-6.1312723529
 10
68.1560924742
 20
-6.1676755625
 10
68.1950490852
 20
-6.2048066314
 10
68.2340139453
 20
-6.2426415889
 10
68.2727830195
 20
-6.2809924031
 10
68.3116341481
 20
-6.3202849741
 10
68.3506819389
 20
-6.3607274221
 10
68.3901227368
 20
-6.4025405042
 10
68.4303632957
 20
-6.4462495181
 10
68.471287803
 20
-6.4918241139
 10
68.5127694041
 20
-6.539236791
 10
68.5550302213
 20
-6.588904643
 10
68.5980307773
 20
-6.6409275824
 10
68.6416296319
 20
-6.695289033
 10
68.6858935024
 20
-6.752281034
 10
68.7307395397
 20
-6.8119940255
 10
68.7759585594
 20
-6.8743702973
 10
68.8213861198
 20
-6.9394613336
 10
68.8668958795
 20
-7.0073244235
 10
68.9122662992
 20
-7.0778947954
 10
68.957187522
 20
-7.151029779
 10
69.0014772513
 20
-7.2267107662
 10
69.0449549788
 20
-7.3049288164
 10
69.0873085337
 20
-7.3855090443
 10
69.1284553256
 20
-7.4685898094
 10
69.1679731381
 20
-7.5537131099
 10
69.2051490135
 20
-7.6398283247
 10
69.2396483876
 20
-7.7272834904
 10
69.2717657972
 20
-7.8160280602
 10
69.3020185935
 20
-7.904665222
 10
69.3306934543
 20
-7.9924491723
 10
69.3574443901
 20
-8.0804341103
 10
69.3817426684
 20
-8.169739852
 10
69.403087476
 20
-8.2594538392
 10
69.4215927411
 20
-8.3495583943
 10
69.4372876181
 20
-8.4422035338
 10
69.4498518671
 20
-8.5380992013
 10
69.4588427123
 20
-8.6363286589
 10
69.4638885541
 20
-8.7367677146
  0
LWPOLYLINE
  5
395
100
AcDbEntity
  8
RACCORDO
100
AcDbPolyline
 62
250
  6
CONTINUOUS
 90
12
 70
0
 10
66.1007654738
 20
-7.5783505473
 10
66.0619578659
 20
-7.5591676394
 10
66.0263585564
 20
-7.5252411991
 10
65.9963357269
 20
-7.4776324985
 10
65.9723443685
 20
-7.4170630397
 10
65.9547480664
 20
-7.3444507429
 10
65.9438134895
 20
-7.2608960356
 10
65.9397063501
 20
-7.1676652273
 10
65.9424888834
 20
-7.0661711727
 10
65.9521189414
 20
-6.9579518204
 10
65.9684506241
 20
-6.8446471314
 10
65.9912364539
 20
-6.7279742663
  0
LWPOLYLINE
  5
396
100
AcDbEntity
  8
RACCORDO
100
AcDbPolyline
 62
250
  6
CONTINUOUS
 90
10
 70
0
 10
66.9537672747
 20
-44.1403612346
 10
67.0053710287
 20
-44.1981160518
 10
67.0525150359
 20
-44.2667993891
 10
67.095008923
 20
-44.3461339089
 10
67.1326810932
 20
-44.4357992656
 10
67.165379419
 20
-44.535433399
 10
67.1929718566
 20
-44.6446339965
 10
67.2153469789
 20
-44.7629601174
 10
67.2324144259
 20
-44.8899339735
 10
67.2441052691
 20
-45.0250428579
  0
LWPOLYLINE
  5
397
100
AcDbEntity
  8
RACCORDO
100
AcDbPolyline
 62
250
  6
CONTINUOUS
 90
6
 70
0
 10
23.8415676934
 20
-26.0648106993
 10
23.8415621947
 20
-26.0689859583
 10
23.8401894166
 20
-26.0817452188
 10
23.836809229
 20
-26.0943172496
 10
23.8314786772
 20
-26.1065935545
 10
23.8242739757
 20
-26.1184544876
  0
LWPOLYLINE
  5
398
100
AcDbEntity
  8
RACCORDO
100
AcDbPolyline
 62
250
  6
CONTINUOUS
 90
6
 70
0
 10
23.8306866804
 20
-25.6274301563
 10
23.8306748203
 20
-25.63133064
 10
23.8293020422
 20
-25.6440899004
 10
23.8259218547
 20
-25.6566619312
 10
23.8205913028
 20
-25.6689382361
 10
23.8133866013
 20
-25.6807991693
  0
LWPOLYLINE
  5
399
100
AcDbEntity
  8
RACCORDO
100
AcDbPolyline
 62
250
  6
CONTINUOUS
 90
6
 70
0
 10
23.8242739757
 20
-26.1184544876
 10
23.8237512385
 20
-26.134285806
 10
23.8212342971
 20
-26.1494108448
 10
23.8167507115
 20
-26.1636639872
 10
23.8103495764
 20
-26.1768891637
 10
23.8062366607
 20
-26.18338245
  0
LINE
  5
39A
100
AcDbEntity
  8
RACCORDO
100
AcDbLine
 62
7
  6
CONTINUOUS
 10
17.6825747842
 20
-24.8722504983
 11
18.5079777667
 21
-23.9693630359
  0
LINE
  5
39B
100
AcDbEntity
  8
RACCORDO
100
AcDbLine
 62
250
  6
CONTINUOUS
 10
17.7803688479
 20
-24.9022821078
 11
18.6525265161
 21
-23.9482508765
  0
LWPOLYLINE
  5
39C
100
AcDbEntity
  8
RACCORDO
100
AcDbPolyline
 62
250
  6
CONTINUOUS
 90
10
 70
0
 10
18.5079777667
 20
-23.9693630359
 10
18.5139375152
 20
-23.9634257947
 10
18.5251461025
 20
-23.954735868
 10
18.537784274
 20
-23.9476930837
 10
18.5517170927
 20
-23.9423713045
 10
18.5668138505
 20
-23.938825256
 10
18.582889085
 20
-23.9371029397
 10
18.5996980788
 20
-23.937219287
 10
18.6170255445
 20
-23.9391477539
 10
18.6346995331
 20
-23.9428451313
  0
LWPOLYLINE
  5
39D
100
AcDbEntity
  8
RACCORDO
100
AcDbPolyline
 62
250
  6
CONTINUOUS
 90
10
 70
0
 10
-74.2541118577
 20
38.0155929153
 10
-74.1172550156
 20
38.0015967477
 10
-74.0465059615
 20
37.9934702737
 10
-73.9729425911
 20
37.9833633953
 10
-73.8968698674
 20
37.9708403261
 10
-73.8187016606
 20
37.9560751914
 10
-73.7375012291
 20
37.9387872981
 10
-73.652811256
 20
37.9186975551
 10
-73.5648863176
 20
37.8956197491
 10
-73.4738610881
 20
37.8693455641
  0
LINE
  5
39E
100
AcDbEntity
  8
RACCORDO
100
AcDbLine
 62
250
  6
CONTINUOUS
 10
-91.2319488994
 20
55.4180672869
 11
-90.9304854337
 21
55.3300995772
  0
LWPOLYLINE
  5
39F
100
AcDbEntity
  8
RACCORDO
100
AcDbPolyline
 62
250
  6
CONTINUOUS
 90
4
 70
0
 10
-90.9304854337
 20
55.3300995772
 10
-90.8245506556
 20
55.2988571948
 10
-90.7157667374
 20
55.2658969444
 10
-89.5791344676
 20
54.9173848677
  0
LINE
  5
3A0
100
AcDbEntity
  8
RACCORDO
100
AcDbLine
 62
250
  6
CONTINUOUS
 10
86.3066085404
 20
2.2491344816
 11
86.6995939945
 21
2.1331824407
  0
LINE
  5
3A1
100
AcDbEntity
  8
RACCORDO
100
AcDbLine
 62
250
  6
CONTINUOUS
 10
-91.4175430684
 20
55.4729965838
 11
-91.2319488994
 21
55.4180672869
  0
LINE
  5
3A2
100
AcDbEntity
  8
RACCORDO
100
AcDbLine
 62
250
  6
CONTINUOUS
 10
78.6604177782
 20
4.5310708943
 11
79.0593640236
 21
4.4127517982
  0
LINE
  5
3A3
100
AcDbEntity
  8
RACCORDO
100
AcDbLine
 62
250
  6
CONTINUOUS
 10
79.0593640236
 20
4.4127517982
 11
81.1792245124
 21
3.7838362492
  0
LINE
  5
3A4
100
AcDbEntity
  8
RACCORDO
100
AcDbLine
 62
250
  6
CONTINUOUS
 10
76.7171397156
 20
5.1056369995
 11
78.6604177782
 21
4.5310708943
  0
LINE
  5
3A5
100
AcDbEntity
  8
RACCORDO
100
AcDbLine
 62
250
  6
CONTINUOUS
 10
81.1792245124
 20
3.7838362492
 11
82.3273402849
 21
3.4423662616
  0
LWPOLYLINE
  5
3A6
100
AcDbEntity
  8
RACCORDO
100
AcDbPolyline
 62
250
  6
CONTINUOUS
 90
5
 70
0
 10
75.0944552026
 20
5.589572912
 10
75.3856512915
 20
5.502669231
 10
75.6685889632
 20
5.4182392878
 10
75.9433271639
 20
5.3362334957
 10
76.7171397156
 20
5.1056369995
  0
LWPOLYLINE
  5
3A7
100
AcDbEntity
  8
RACCORDO
100
AcDbPolyline
 62
250
  6
CONTINUOUS
 90
3
 70
0
 10
73.5135584706
 20
6.0614931806
 10
73.8468689203
 20
5.9619646317
 10
75.0944552026
 20
5.589572912
  0
LINE
  5
3A8
100
AcDbEntity
  8
RACCORDO
100
AcDbLine
 62
250
  6
CONTINUOUS
 10
72.8198070987
 20
6.2687399327
 11
73.5135584706
 21
6.0614931806
  0
LINE
  5
3A9
100
AcDbEntity
  8
RACCORDO
100
AcDbLine
 62
250
  6
CONTINUOUS
 10
82.3273402849
 20
3.4423662616
 11
83.16219271
 21
3.1931978133
  0
LINE
  5
3AA
100
AcDbEntity
  8
RACCORDO
100
AcDbLine
 62
250
  6
CONTINUOUS
 10
70.4976421149
 20
6.9639356926
 11
72.8198070987
 21
6.2687399327
  0
LINE
  5
3AB
100
AcDbEntity
  8
RACCORDO
100
AcDbLine
 62
250
  6
CONTINUOUS
 10
83.16219271
 20
3.1931978133
 11
84.1496163302
 21
2.8974308202
  0
LINE
  5
3AC
100
AcDbEntity
  8
RACCORDO
100
AcDbLine
 62
250
  6
CONTINUOUS
 10
69.183823437
 20
7.3588428775
 11
70.4976421149
 21
6.9639356926
  0
LWPOLYLINE
  5
3AD
100
AcDbEntity
  8
RACCORDO
100
AcDbPolyline
 62
250
  6
CONTINUOUS
 90
3
 70
0
 10
84.1496163302
 20
2.8974308202
 10
85.1722996057
 20
2.5901073286
 10
85.3605779075
 20
2.5334249396
  0
LINE
  5
3AE
100
AcDbEntity
  8
RACCORDO
100
AcDbLine
 62
250
  6
CONTINUOUS
 10
68.2444717061
 20
7.6421530868
 11
69.183823437
 21
7.3588428775
  0
LWPOLYLINE
  5
3AF
100
AcDbEntity
  8
RACCORDO
100
AcDbPolyline
 62
250
  6
CONTINUOUS
 90
4
 70
0
 10
85.3605779075
 20
2.5334249396
 10
85.7363289263
 20
2.4201403782
 10
85.9238016433
 20
2.3635382058
 10
86.3066085404
 20
2.2491344816
  0
LINE
  5
3B0
100
AcDbEntity
  8
RACCORDO
100
AcDbLine
 62
250
  6
CONTINUOUS
 10
-81.8595912347
 20
52.5585684363
 11
-81.1181117092
 21
52.3347613714
  0
LINE
  5
3B1
100
AcDbEntity
  8
RACCORDO
100
AcDbLine
 62
250
  6
CONTINUOUS
 10
67.2494776346
 20
7.9433721323
 11
68.2444717061
 21
7.6421530868
  0
LINE
  5
3B2
100
AcDbEntity
  8
RACCORDO
100
AcDbLine
 62
250
  6
CONTINUOUS
 10
-82.5249647122
 20
52.7600089879
 11
-81.8595912347
 21
52.5585684363
  0
LINE
  5
3B3
100
AcDbEntity
  8
RACCORDO
100
AcDbLine
 62
250
  6
CONTINUOUS
 10
66.1957837798
 20
8.2636469431
 11
67.2494776346
 21
7.9433721323
  0
LINE
  5
3B4
100
AcDbEntity
  8
RACCORDO
100
AcDbLine
 62
250
  6
CONTINUOUS
 10
-80.0097780544
 20
51.9969883288
 11
-79.4058149748
 21
51.8128006083
  0
LINE
  5
3B5
100
AcDbEntity
  8
RACCORDO
100
AcDbLine
 62
250
  6
CONTINUOUS
 10
-74.1769673559
 20
50.2188497997
 11
-73.2624179694
 21
49.9399487401
  0
LINE
  5
3B6
100
AcDbEntity
  8
RACCORDO
100
AcDbLine
 62
250
  6
CONTINUOUS
 10
-84.6416702785
 20
53.4070622472
 11
-83.7677684255
 21
53.140884916
  0
LINE
  5
3B7
100
AcDbEntity
  8
RACCORDO
100
AcDbLine
 62
250
  6
CONTINUOUS
 10
-79.4058149748
 20
51.8128006083
 11
-79.0914972409
 21
51.7169686217
  0
LINE
  5
3B8
100
AcDbEntity
  8
RACCORDO
100
AcDbLine
 62
250
  6
CONTINUOUS
 10
-75.8674945359
 20
50.7342147168
 11
-74.6161490098
 21
50.352735796
  0
LINE
  5
3B9
100
AcDbEntity
  8
RACCORDO
100
AcDbLine
 62
250
  6
CONTINUOUS
 10
-74.6161490098
 20
50.352735796
 11
-74.1769673559
 21
50.2188497997
  0
LINE
  5
3BA
100
AcDbEntity
  8
RACCORDO
100
AcDbLine
 62
250
  6
CONTINUOUS
 10
-79.0914972409
 20
51.7169686217
 11
-75.8674945359
 21
50.7342147168
  0
LINE
  5
3BB
100
AcDbEntity
  8
RACCORDO
100
AcDbLine
 62
250
  6
CONTINUOUS
 10
-81.1181117092
 20
52.3347613714
 11
-80.0097780544
 21
51.9969883288
  0
LINE
  5
3BC
100
AcDbEntity
  8
RACCORDO
100
AcDbLine
 62
250
  6
CONTINUOUS
 10
-73.2624179694
 20
49.9399487401
 11
-70.7524320722
 21
49.174005745
  0
LINE
  5
3BD
100
AcDbEntity
  8
RACCORDO
100
AcDbLine
 62
250
  6
CONTINUOUS
 10
65.0785833714
 20
8.6048130183
 11
66.1957837798
 21
8.2636469431
  0
LINE
  5
3BE
100
AcDbEntity
  8
RACCORDO
100
AcDbLine
 62
250
  6
CONTINUOUS
 10
84.9570073733
 20
1.3182565332
 11
85.5192891105
 21
1.1466540811
  0
LINE
  5
3BF
100
AcDbEntity
  8
RACCORDO
100
AcDbLine
 62
250
  6
CONTINUOUS
 10
-86.9851720751
 20
54.1230369726
 11
-84.6416702785
 21
53.4070622472
  0
LINE
  5
3C0
100
AcDbEntity
  8
RACCORDO
100
AcDbLine
 62
250
  6
CONTINUOUS
 10
-70.7524320722
 20
49.174005745
 11
-69.0785433942
 21
48.6620967844
  0
LINE
  5
3C1
100
AcDbEntity
  8
RACCORDO
100
AcDbLine
 62
250
  6
CONTINUOUS
 10
-83.1468550443
 20
52.9500562187
 11
-82.5249647122
 21
52.7600089879
  0
LINE
  5
3C2
100
AcDbEntity
  8
RACCORDO
100
AcDbLine
 62
250
  6
CONTINUOUS
 10
-89.5791344676
 20
54.9173848677
 11
-89.4356314314
 21
54.8734309365
  0
LWPOLYLINE
  5
3C3
100
AcDbEntity
  8
RACCORDO
100
AcDbPolyline
 62
250
  6
CONTINUOUS
 90
7
 70
0
 10
-89.4356314314
 20
54.8734309365
 10
-88.3266227442
 20
54.5337758227
 10
-88.1530394574
 20
54.4806097803
 10
-87.9751750447
 20
54.4261281911
 10
-87.7910438491
 20
54.36973877
 10
-87.6005398075
 20
54.3114051273
 10
-86.9851720751
 20
54.1230369726
  0
LINE
  5
3C4
100
AcDbEntity
  8
RACCORDO
100
AcDbLine
 62
250
  6
CONTINUOUS
 10
-64.2401470628
 20
48.3211733705
 11
-62.8076884611
 21
47.8825804761
  0
LINE
  5
3C5
100
AcDbEntity
  8
RACCORDO
100
AcDbLine
 62
250
  6
CONTINUOUS
 10
-67.4972585201
 20
49.3174967231
 11
-64.2401470628
 21
48.3211733705
  0
LINE
  5
3C6
100
AcDbEntity
  8
RACCORDO
100
AcDbLine
 62
250
  6
CONTINUOUS
 10
59.460695315
 20
9.1892870267
 11
60.1902385325
 21
8.9655037887
  0
LINE
  5
3C7
100
AcDbEntity
  8
RACCORDO
100
AcDbLine
 62
250
  6
CONTINUOUS
 10
-69.0785433942
 20
48.6620967844
 11
-67.2692309119
 21
48.1073213463
  0
LINE
  5
3C8
100
AcDbEntity
  8
RACCORDO
100
AcDbLine
 62
250
  6
CONTINUOUS
 10
57.9311631956
 20
9.6586316667
 11
59.460695315
 21
9.1892870267
  0
LINE
  5
3C9
100
AcDbEntity
  8
RACCORDO
100
AcDbLine
 62
250
  6
CONTINUOUS
 10
63.8916863028
 20
8.968773736
 11
65.0785833714
 21
8.6048130183
  0
LINE
  5
3CA
100
AcDbEntity
  8
RACCORDO
100
AcDbLine
 62
250
  6
CONTINUOUS
 10
-62.8076884611
 20
47.8825804761
 11
58.3234918372
 21
10.6843685498
  0
LINE
  5
3CB
100
AcDbEntity
  8
RACCORDO
100
AcDbLine
 62
250
  6
CONTINUOUS
 10
-68.6870536692
 20
49.6824127102
 11
-67.4972585201
 21
49.3174967231
  0
LINE
  5
3CC
100
AcDbEntity
  8
RACCORDO
100
AcDbLine
 62
250
  6
CONTINUOUS
 10
60.1902385325
 20
8.9655037887
 11
62.2384130969
 21
8.3367411837
  0
LINE
  5
3CD
100
AcDbEntity
  8
RACCORDO
100
AcDbLine
 62
250
  6
CONTINUOUS
 10
-67.2692309119
 20
48.1073213463
 11
57.931163065
 21
9.6586315823
  0
LINE
  5
3CE
100
AcDbEntity
  8
RACCORDO
100
AcDbLine
 62
250
  6
CONTINUOUS
 10
77.6639203644
 20
3.5666003632
 11
78.4634357391
 21
3.3215132011
  0
LINE
  5
3CF
100
AcDbEntity
  8
RACCORDO
100
AcDbLine
 62
250
  6
CONTINUOUS
 10
62.2384130969
 20
8.3367411837
 11
63.5003605992
 21
7.9486427358
  0
LINE
  5
3D0
100
AcDbEntity
  8
RACCORDO
100
AcDbLine
 62
250
  6
CONTINUOUS
 10
-83.7677684255
 20
53.140884916
 11
-83.1468550443
 21
52.9500562187
  0
LINE
  5
3D1
100
AcDbEntity
  8
RACCORDO
100
AcDbLine
 62
250
  6
CONTINUOUS
 10
82.4915827215
 20
2.0777295424
 11
83.0246081302
 21
1.9136206284
  0
LINE
  5
3D2
100
AcDbEntity
  8
RACCORDO
100
AcDbLine
 62
250
  6
CONTINUOUS
 10
83.0246081302
 20
1.9136206284
 11
83.2770876497
 21
1.8358726128
  0
LINE
  5
3D3
100
AcDbEntity
  8
RACCORDO
100
AcDbLine
 62
250
  6
CONTINUOUS
 10
81.928291009
 20
2.2512466702
 11
82.4915827215
 21
2.0777295424
  0
LINE
  5
3D4
100
AcDbEntity
  8
RACCORDO
100
AcDbLine
 62
250
  6
CONTINUOUS
 10
63.5003605992
 20
7.9486427358
 11
64.6881932181
 21
7.5826647751
  0
LINE
  5
3D5
100
AcDbEntity
  8
RACCORDO
100
AcDbLine
 62
250
  6
CONTINUOUS
 10
-69.8159627585
 20
50.0299122897
 11
-68.6870536692
 21
49.6824127102
  0
LINE
  5
3D6
100
AcDbEntity
  8
RACCORDO
100
AcDbLine
 62
250
  6
CONTINUOUS
 10
58.3234918372
 20
10.6843685498
 11
59.8535796778
 21
10.213045821
  0
LINE
  5
3D7
100
AcDbEntity
  8
RACCORDO
100
AcDbLine
 62
250
  6
CONTINUOUS
 10
81.3537271088
 20
2.4283479069
 11
81.928291009
 21
2.2512466702
  0
LINE
  5
3D8
100
AcDbEntity
  8
RACCORDO
100
AcDbLine
 62
250
  6
CONTINUOUS
 10
80.7819991949
 20
2.6046799055
 11
81.3537271088
 21
2.4283479069
  0
LWPOLYLINE
  5
3D9
100
AcDbEntity
  8
RACCORDO
100
AcDbPolyline
 62
250
  6
CONTINUOUS
 90
3
 70
0
 10
59.8535796778
 20
10.213045821
 10
61.9696293068
 20
9.560529892
 10
63.8916863028
 20
8.968773736
  0
LINE
  5
3DA
100
AcDbEntity
  8
RACCORDO
100
AcDbLine
 62
250
  6
CONTINUOUS
 10
64.6881932181
 20
7.5826647751
 11
66.3414393284
 21
7.0722962905
  0
LINE
  5
3DB
100
AcDbEntity
  8
RACCORDO
100
AcDbLine
 62
250
  6
CONTINUOUS
 10
79.7420277491
 20
2.9258432494
 11
80.7819991949
 21
2.6046799055
  0
LWPOLYLINE
  5
3DC
100
AcDbEntity
  8
RACCORDO
100
AcDbPolyline
 62
250
  6
CONTINUOUS
 90
3
 70
0
 10
66.3414393284
 20
7.0722962905
 10
67.3653885627
 20
6.7558354927
 10
67.855920323
 20
6.6041790887
  0
LINE
  5
3DD
100
AcDbEntity
  8
RACCORDO
100
AcDbLine
 62
250
  6
CONTINUOUS
 10
83.2770876497
 20
1.8358726128
 11
84.9570073733
 21
1.3182565332
  0
LINE
  5
3DE
100
AcDbEntity
  8
RACCORDO
100
AcDbLine
 62
250
  6
CONTINUOUS
 10
-70.886805979
 20
50.3609059649
 11
-69.8159627585
 21
50.0299122897
  0
LWPOLYLINE
  5
3DF
100
AcDbEntity
  8
RACCORDO
100
AcDbPolyline
 62
250
  6
CONTINUOUS
 90
3
 70
0
 10
78.4634357391
 20
3.3215132011
 10
78.8670342928
 20
3.1966324062
 10
79.7420277491
 20
2.9258432494
  0
LINE
  5
3E0
100
AcDbEntity
  8
RACCORDO
100
AcDbLine
 62
250
  6
CONTINUOUS
 10
67.855920323
 20
6.6041790887
 11
75.8164712448
 21
4.1418417879
  0
LINE
  5
3E1
100
AcDbEntity
  8
RACCORDO
100
AcDbLine
 62
250
  6
CONTINUOUS
 10
-71.9015800328
 20
50.6759535807
 11
-70.886805979
 21
50.3609059649
  0
LINE
  5
3E2
100
AcDbEntity
  8
RACCORDO
100
AcDbLine
 62
250
  6
CONTINUOUS
 10
76.7988235139
 20
3.8354051396
 11
77.6639203644
 21
3.5666003632
  0
LINE
  5
3E3
100
AcDbEntity
  8
RACCORDO
100
AcDbLine
 62
250
  6
CONTINUOUS
 10
-72.8635804869
 20
50.9758104116
 11
-71.9015800328
 21
50.6759535807
  0
LWPOLYLINE
  5
3E4
100
AcDbEntity
  8
RACCORDO
100
AcDbPolyline
 62
250
  6
CONTINUOUS
 90
3
 70
0
 10
75.8164712448
 20
4.1418417879
 10
76.3240916382
 20
3.9837129685
 10
76.7988235139
 20
3.8354051396
  0
LINE
  5
3E5
100
AcDbEntity
  8
RACCORDO
100
AcDbLine
 62
250
  6
CONTINUOUS
 10
85.5192891105
 20
1.1466540811
 11
85.7104493319
 21
1.0867626867
  0
LINE
  5
3E6
100
AcDbEntity
  8
RACCORDO
100
AcDbLine
 62
250
  6
CONTINUOUS
 10
-74.214576122
 20
51.39859196
 11
-72.8635804869
 21
50.9758104116
  0
LINE
  5
3E7
100
AcDbEntity
  8
RACCORDO
100
AcDbLine
 62
250
  6
CONTINUOUS
 10
-76.2441415202
 20
52.0365655574
 11
-74.214576122
 21
51.39859196
  0
LINE
  5
3E8
100
AcDbEntity
  8
RACCORDO
100
AcDbLine
 62
250
  6
CONTINUOUS
 10
-88.2446553724
 20
55.836496305
 11
-87.3732528434
 21
55.5620939536
  0
LINE
  5
3E9
100
AcDbEntity
  8
RACCORDO
100
AcDbLine
 62
250
  6
CONTINUOUS
 10
-78.6823334566
 20
52.8057102786
 11
-76.2441415202
 21
52.0365655574
  0
LINE
  5
3EA
100
AcDbEntity
  8
RACCORDO
100
AcDbLine
 62
250
  6
CONTINUOUS
 10
-87.3732528434
 20
55.5620939536
 11
-86.3449219202
 21
55.2370802255
  0
LINE
  5
3EB
100
AcDbEntity
  8
RACCORDO
100
AcDbLine
 62
250
  6
CONTINUOUS
 10
-90.711587808
 20
56.6101362272
 11
-88.2446553724
 21
55.836496305
  0
LINE
  5
3EC
100
AcDbEntity
  8
RACCORDO
100
AcDbLine
 62
250
  6
CONTINUOUS
 10
-81.4447446754
 20
53.6790136947
 11
-78.6823334566
 21
52.8057102786
  0
LWPOLYLINE
  5
3ED
100
AcDbEntity
  8
RACCORDO
100
AcDbPolyline
 62
250
  6
CONTINUOUS
 90
7
 70
0
 10
-86.3449219202
 20
55.2370802255
 10
-85.1603012319
 20
54.8613528429
 10
-84.9196733806
 20
54.7849107107
 10
-84.6829254428
 20
54.7096909018
 10
-84.4514349402
 20
54.6361310204
 10
-84.223824351
 20
54.5637934624
 10
-83.564191505
 20
54.3542911574
  0
LINE
  5
3EE
100
AcDbEntity
  8
RACCORDO
100
AcDbLine
 62
250
  6
CONTINUOUS
 10
-83.564191505
 20
54.3542911574
 11
-82.7294775815
 21
54.0889747717
  0
LINE
  5
3EF
100
AcDbEntity
  8
RACCORDO
100
AcDbLine
 62
250
  6
CONTINUOUS
 10
-82.7294775815
 20
54.0889747717
 11
-81.4447446754
 21
53.6790136947
  0
LWPOLYLINE
  5
3F0
100
AcDbEntity
  8
RACCORDO
100
AcDbPolyline
 62
250
  6
CONTINUOUS
 90
3
 70
0
 10
85.7104493319
 20
1.0867626867
 10
86.1060617078
 20
0.9595487144
 10
86.3091457557
 20
0.8948073906
  0
LWPOLYLINE
  5
3F1
100
AcDbEntity
  8
RACCORDO
100
AcDbPolyline
 62
250
  6
CONTINUOUS
 90
3
 70
0
 10
-90.9865359769
 20
56.6988715393
 10
-90.8979254943
 20
56.6700079979
 10
-90.711587808
 20
56.6101362272
  0
LWPOLYLINE
  5
3F2
100
AcDbEntity
  8
RACCORDO
100
AcDbPolyline
 62
250
  6
CONTINUOUS
 90
19
 70
0
 10
86.6995939945
 20
2.1331824407
 10
86.9297966838
 20
2.0534152332
 10
87.1593268696
 20
1.956455368
 10
87.3864928422
 20
1.8429146251
 10
87.6098072338
 20
1.7134061605
 10
87.827324516
 20
1.5689066005
 10
88.0367197672
 20
1.4108810041
 10
88.2362804484
 20
1.2406449236
 10
88.4246076626
 20
1.0594148941
 10
88.6000422472
 20
0.8687903278
 10
88.7611868788
 20
0.6703548007
 10
88.9069368895
 20
0.4655303129
 10
89.0362515236
 20
0.2557720625
 10
89.1482153664
 20
0.0425222803
 10
89.2418736347
 20
-0.1724854001
 10
89.3163800664
 20
-0.3873403873
 10
89.3712060642
 20
-0.6003608021
 10
89.4060508166
 20
-0.8101056857
 10
89.4207119582
 20
-1.0150767211
  0
LWPOLYLINE
  5
3F3
100
AcDbEntity
  8
RACCORDO
100
AcDbPolyline
 62
250
  6
CONTINUOUS
 90
19
 70
0
 10
86.3091897738
 20
0.8948574413
 10
86.4687130558
 20
0.8391507918
 10
86.6275463191
 20
0.7718555991
 10
86.7844333293
 20
0.6933703611
 10
86.9384122777
 20
0.6041270129
 10
87.0882312075
 20
0.504760786
 10
87.2323607263
 20
0.3961831916
 10
87.3696911788
 20
0.2792486701
 10
87.4993278027
 20
0.1547747463
 10
87.6201583491
 20
0.0237923864
 10
87.731222184
 20
-0.1126904018
 10
87.8318554475
 20
-0.2537194911
 10
87.9214082292
 20
-0.3983336204
 10
87.9992283994
 20
-0.5456072365
 10
88.0646991086
 20
-0.6944135058
 10
88.1173193611
 20
-0.8434958238
 10
88.1567052461
 20
-0.9917624334
 10
88.1825847429
 20
-1.1382591661
 10
88.1948449377
 20
-1.2818783769
  0
LINE
  5
3F4
100
AcDbEntity
  8
SCRITTA_VIMAR
100
AcDbLine
 62
250
  6
CONTINUOUS
 10
69.865088663
 20
-48.1388715219
 11
70.0179683112
 21
-48.3575733093
  0
LINE
  5
3F5
100
AcDbEntity
  8
SCRITTA_VIMAR
100
AcDbLine
 62
250
  6
CONTINUOUS
 10
69.7146653012
 20
-47.9216411848
 11
69.865088663
 21
-48.1388715219
  0
LINE
  5
3F6
100
AcDbEntity
  8
SCRITTA_VIMAR
100
AcDbLine
 62
250
  6
CONTINUOUS
 10
69.4215590071
 20
-48.1970981714
 11
69.2787296505
 21
-47.9907409519
  0
LINE
  5
3F7
100
AcDbEntity
  8
SCRITTA_VIMAR
100
AcDbLine
 62
250
  6
CONTINUOUS
 10
69.2787296505
 20
-47.9907409519
 11
69.137992309
 21
-47.7854440877
  0
LINE
  5
3F8
100
AcDbEntity
  8
SCRITTA_VIMAR
100
AcDbLine
 62
250
  6
CONTINUOUS
 10
69.5667267276
 20
-47.7058600571
 11
69.7146653012
 21
-47.9216411848
  0
LWPOLYLINE
  5
3F9
100
AcDbEntity
  8
SCRITTA_VIMAR
100
AcDbPolyline
 62
250
  6
CONTINUOUS
 90
3
 70
0
 10
69.137992309
 20
-47.7854440877
 10
68.9993854017
 20
-47.5812463499
 10
68.9309064305
 20
-47.4796025664
  0
LINE
  5
3FA
100
AcDbEntity
  8
RACCORDO
100
AcDbLine
 62
250
  6
CONTINUOUS
 10
23.459918787
 20
-26.6464168709
 11
23.8242739757
 21
-26.1184544876
  0
LINE
  5
3FB
100
AcDbEntity
  8
RACCORDO
100
AcDbLine
 62
7
  6
CONTINUOUS
 10
23.4820079713
 20
-26.6532002454
 11
23.8062366607
 21
-26.18338245
  0
LINE
  5
3FC
100
AcDbEntity
  8
RACCORDO
100
AcDbLine
 62
250
  6
CONTINUOUS
 10
22.9180085452
 20
-26.4800014856
 11
23.6276774985
 21
-25.4760715442
  0
LINE
  5
3FD
100
AcDbEntity
  8
RACCORDO
100
AcDbLine
 62
250
  6
CONTINUOUS
 10
23.189502101
 20
-26.5633745264
 11
23.8133866013
 21
-25.6807991693
  0
LINE
  5
3FE
100
AcDbEntity
  8
RACCORDO
100
AcDbLine
 62
7
  6
CONTINUOUS
 10
89.13664835
 20
5.0363811991
 11
-89.0045918638
 21
59.7418302441
  0
LWPOLYLINE
  5
3FF
100
AcDbEntity
  8
SCRITTA_VIMAR
100
AcDbPolyline
 62
250
  6
CONTINUOUS
 90
3
 70
0
 10
69.3495266808
 20
-47.3849414744
 10
69.4213009462
 20
-47.4915448095
 10
69.5667267276
 20
-47.7058600571
  0
LINE
  5
400
100
AcDbEntity
  8
SCRITTA_VIMAR
100
AcDbLine
 62
250
  6
CONTINUOUS
 10
68.9309064305
 20
-47.4796025664
 11
68.7955892448
 21
-47.2772437185
  0
LWPOLYLINE
  5
401
100
AcDbEntity
  8
SCRITTA_VIMAR
100
AcDbPolyline
 62
250
  6
CONTINUOUS
 90
14
 70
0
 10
59.771319713
 20
-45.3126445818
 10
59.6977099111
 20
-45.1562823461
 10
59.624840729
 20
-45.0002928713
 10
59.5527523382
 20
-44.8447913313
 10
59.4814849105
 20
-44.6898929001
 10
59.4110786175
 20
-44.5357127517
 10
59.3415435201
 20
-44.3822947338
 10
59.2727692361
 20
-44.2293973897
 10
59.2046152722
 20
-44.0767079368
 10
59.1369411353
 20
-43.9239135922
 10
59.0696063325
 20
-43.770701573
 10
58.9578992289
 20
-43.513891509
 10
58.8469645015
 20
-43.2555303296
 10
58.7370221908
 20
-42.9960959677
  0
LWPOLYLINE
  5
402
100
AcDbEntity
  8
SCRITTA_VIMAR
100
AcDbPolyline
 62
250
  6
CONTINUOUS
 90
3
 70
0
 10
59.7980921798
 20
-44.4074876476
 10
59.8775763241
 20
-44.5838864644
 10
59.9576368807
 20
-44.7600409392
  0
LINE
  5
403
100
AcDbEntity
  8
SCRITTA_VIMAR
100
AcDbLine
 62
250
  6
CONTINUOUS
 10
59.6606912031
 20
-44.0988695818
 11
59.7980921798
 21
-44.4074876476
  0
LINE
  5
404
100
AcDbEntity
  8
SCRITTA_VIMAR
100
AcDbLine
 62
250
  6
CONTINUOUS
 10
59.5442780159
 20
-43.8335742761
 11
59.6606912031
 21
-44.0988695818
  0
LINE
  5
405
100
AcDbEntity
  8
SCRITTA_VIMAR
100
AcDbLine
 62
250
  6
CONTINUOUS
 10
59.4280379047
 20
-43.5650907409
 11
59.5442780159
 21
-43.8335742761
  0
LWPOLYLINE
  5
406
100
AcDbEntity
  8
SCRITTA_VIMAR
100
AcDbPolyline
 62
250
  6
CONTINUOUS
 90
3
 70
0
 10
59.2534757938
 20
-43.1549444138
 10
59.3116263217
 20
-43.2925344577
 10
59.4280379047
 20
-43.5650907409
  0
LINE
  5
407
100
AcDbEntity
  8
RACCORDO
100
AcDbLine
 62
250
  6
CONTINUOUS
 10
43.853452199
 20
-31.834909167
 11
43.8643395734
 21
-32.2725644854
  0
LINE
  5
408
100
AcDbEntity
  8
RACCORDO
100
AcDbLine
 62
7
  6
CONTINUOUS
 10
43.8707459167
 20
-31.7812653787
 11
43.8816332911
 21
-32.218920697
  0
LINE
  5
409
100
AcDbEntity
  8
RACCORDO
100
AcDbLine
 62
250
  6
CONTINUOUS
 10
43.8707459167
 20
-31.7812653787
 11
43.8707522781
 21
-31.781540154
  0
LWPOLYLINE
  5
40A
100
AcDbEntity
  8
RACCORDO
100
AcDbPolyline
 62
250
  6
CONTINUOUS
 90
6
 70
0
 10
43.8816332911
 20
-32.218920697
 10
43.8816277924
 20
-32.2230959561
 10
43.8802550142
 20
-32.2358552165
 10
43.8768748267
 20
-32.2484272473
 10
43.8715442749
 20
-32.2607035522
 10
43.8643395734
 20
-32.2725644854
  0
LWPOLYLINE
  5
40B
100
AcDbEntity
  8
RACCORDO
100
AcDbPolyline
 62
250
  6
CONTINUOUS
 90
6
 70
0
 10
43.8707522781
 20
-31.781540154
 10
43.870740418
 20
-31.7854406377
 10
43.8693676398
 20
-31.7981998982
 10
43.8659874523
 20
-31.810771929
 10
43.8606569005
 20
-31.8230482339
 10
43.853452199
 20
-31.834909167
  0
LWPOLYLINE
  5
40C
100
AcDbEntity
  8
RACCORDO
100
AcDbPolyline
 62
250
  6
CONTINUOUS
 90
6
 70
0
 10
43.8643395734
 20
-32.2725644854
 10
43.8638168362
 20
-32.2883958037
 10
43.8612998948
 20
-32.3035208425
 10
43.8568163092
 20
-32.317773985
 10
43.8504151741
 20
-32.3309991614
 10
43.8463022583
 20
-32.3374924477
  0
LWPOLYLINE
  5
40D
100
AcDbEntity
  8
RACCORDO
100
AcDbPolyline
 62
250
  6
CONTINUOUS
 90
10
 70
0
 10
58.3234918372
 20
10.6843685498
 10
58.2645567787
 20
10.598215957
 10
58.2073796105
 20
10.5007246294
 10
58.1529444768
 20
10.3935737683
 10
58.1021878867
 20
10.2786090611
 10
58.0559839328
 20
10.1578104806
 10
58.0151292447
 20
10.0332581839
 10
57.9803274861
 20
9.9070972334
 10
57.9521772436
 20
9.7815006512
 10
57.931163065
 20
9.6586315823
  0
LWPOLYLINE
  5
40E
100
AcDbEntity
  8
RACCORDO
100
AcDbPolyline
 62
7
  6
CONTINUOUS
 90
4
 70
0
 10
63.920843888
 20
-37.7258861399
 10
63.9192134745
 20
-37.722719611
 10
63.9165437973
 20
-37.7208015582
 10
63.9157388041
 20
-37.7205105643
  0
LINE
  5
40F
100
AcDbEntity
  8
SCRITTA_VIMAR
100
AcDbLine
 62
250
  6
CONTINUOUS
 10
67.4519322817
 20
-47.4461813966
 11
67.5621985127
 21
-47.6724445932
  0
LINE
  5
410
100
AcDbEntity
  8
SCRITTA_VIMAR
100
AcDbLine
 62
250
  6
CONTINUOUS
 10
67.0405178753
 20
-47.5201399547
 11
66.932981342
 21
-47.2980581273
  0
LINE
  5
411
100
AcDbEntity
  8
SCRITTA_VIMAR
100
AcDbLine
 62
250
  6
CONTINUOUS
 10
67.3442218451
 20
-47.2222523072
 11
67.4519322817
 21
-47.4461813966
  0
LINE
  5
412
100
AcDbEntity
  8
SCRITTA_VIMAR
100
AcDbLine
 62
250
  6
CONTINUOUS
 10
66.932981342
 20
-47.2980581273
 11
66.8272645039
 21
-47.0769339341
  0
LINE
  5
413
100
AcDbEntity
  8
SCRITTA_VIMAR
100
AcDbLine
 62
250
  6
CONTINUOUS
 10
67.2393368433
 20
-47.001434804
 11
67.3442218451
 21
-47.2222523072
  0
LINE
  5
414
100
AcDbEntity
  8
SCRITTA_VIMAR
100
AcDbLine
 62
250
  6
CONTINUOUS
 10
67.1375210598
 20
-46.7844473177
 11
67.2393368433
 21
-47.001434804
  0
LINE
  5
415
100
AcDbEntity
  8
SCRITTA_VIMAR
100
AcDbLine
 62
250
  6
CONTINUOUS
 10
67.0384235695
 20
-46.5706501749
 11
67.1375210598
 21
-46.7844473177
  0
LINE
  5
416
100
AcDbEntity
  8
SCRITTA_VIMAR
100
AcDbLine
 62
250
  6
CONTINUOUS
 10
66.6243915485
 20
-46.6447392168
 11
66.5429844974
 21
-46.4683327982
  0
LINE
  5
417
100
AcDbEntity
  8
SCRITTA_VIMAR
100
AcDbLine
 62
250
  6
CONTINUOUS
 10
66.9410987389
 20
-46.3580455982
 11
67.0384235695
 21
-46.5706501749
  0
LINE
  5
418
100
AcDbEntity
  8
SCRITTA_VIMAR
100
AcDbLine
 62
250
  6
CONTINUOUS
 10
66.5429844974
 20
-46.4683327982
 11
66.4633842948
 21
-46.2941622234
  0
LINE
  5
419
100
AcDbEntity
  8
SCRITTA_VIMAR
100
AcDbLine
 62
250
  6
CONTINUOUS
 10
66.4633842948
 20
-46.2941622234
 11
66.3766786173
 21
-46.1025087042
  0
LINE
  5
41A
100
AcDbEntity
  8
SCRITTA_VIMAR
100
AcDbLine
 62
250
  6
CONTINUOUS
 10
66.3766786173
 20
-46.1025087042
 11
66.308383297
 21
-45.9500925986
  0
LINE
  5
41B
100
AcDbEntity
  8
SCRITTA_VIMAR
100
AcDbLine
 62
250
  6
CONTINUOUS
 10
63.5016383935
 20
-46.4554900971
 11
63.3909907987
 21
-46.2027258644
  0
LWPOLYLINE
  5
41C
100
AcDbEntity
  8
SCRITTA_VIMAR
100
AcDbPolyline
 62
250
  6
CONTINUOUS
 90
6
 70
0
 10
66.5085271237
 20
-45.3801630215
 10
66.5918948997
 20
-45.5731344333
 10
66.6758521156
 20
-45.7651437096
 10
66.760158824
 20
-45.955766077
 10
66.8445750775
 20
-46.144576762
 10
66.9410987389
 20
-46.3580455982
  0
LINE
  5
41D
100
AcDbEntity
  8
SCRITTA_VIMAR
100
AcDbLine
 62
250
  6
CONTINUOUS
 10
63.3909907987
 20
-46.2027258644
 11
63.2823395837
 21
-45.951132947
  0
LINE
  5
41E
100
AcDbEntity
  8
SCRITTA_VIMAR
100
AcDbLine
 62
250
  6
CONTINUOUS
 10
63.2823395837
 20
-45.951132947
 11
63.1756335917
 21
-45.7007504223
  0
LINE
  5
41F
100
AcDbEntity
  8
SCRITTA_VIMAR
100
AcDbLine
 62
250
  6
CONTINUOUS
 10
63.1756335917
 20
-45.7007504223
 11
63.0709218125
 21
-45.4518100286
  0
LINE
  5
420
100
AcDbEntity
  8
SCRITTA_VIMAR
100
AcDbLine
 62
250
  6
CONTINUOUS
 10
63.5516173269
 20
-45.5234480384
 11
63.6792096157
 21
-45.8272922149
  0
LINE
  5
421
100
AcDbEntity
  8
SCRITTA_VIMAR
100
AcDbLine
 62
250
  6
CONTINUOUS
 10
63.0709218125
 20
-45.4518100286
 11
62.9682582045
 21
-45.2045349965
  0
LINE
  5
422
100
AcDbEntity
  8
SCRITTA_VIMAR
100
AcDbLine
 62
250
  6
CONTINUOUS
 10
63.427723964
 20
-45.223645843
 11
63.5516173269
 21
-45.5234480384
  0
LINE
  5
423
100
AcDbEntity
  8
SCRITTA_VIMAR
100
AcDbLine
 62
250
  6
CONTINUOUS
 10
62.9682582045
 20
-45.2045349965
 11
62.8676164536
 21
-44.9589218667
  0
LINE
  5
424
100
AcDbEntity
  8
SCRITTA_VIMAR
100
AcDbLine
 62
250
  6
CONTINUOUS
 10
63.3071242775
 20
-44.9270332858
 11
63.427723964
 21
-45.223645843
  0
LWPOLYLINE
  5
425
100
AcDbEntity
  8
SCRITTA_VIMAR
100
AcDbPolyline
 62
250
  6
CONTINUOUS
 90
4
 70
0
 10
63.069762432
 20
-44.3283955363
 10
63.1352217958
 20
-44.4955773729
 10
63.2011169871
 20
-44.6622148494
 10
63.3071242775
 20
-44.9270332858
  0
LINE
  5
426
100
AcDbEntity
  8
RACCORDO
100
AcDbLine
 62
7
  6
CONTINUOUS
 10
37.7226403819
 20
-31.026360496
 11
38.5480433644
 21
-30.1234730337
  0
LINE
  5
427
100
AcDbEntity
  8
RACCORDO
100
AcDbLine
 62
250
  6
CONTINUOUS
 10
37.8204344456
 20
-31.0563921056
 11
38.6925921137
 21
-30.1023608743
  0
LWPOLYLINE
  5
428
100
AcDbEntity
  8
RACCORDO
100
AcDbPolyline
 62
250
  6
CONTINUOUS
 90
10
 70
0
 10
38.5480433644
 20
-30.1234730337
 10
38.5540031128
 20
-30.1175357924
 10
38.5652117002
 20
-30.1088458658
 10
38.5778498716
 20
-30.1018030814
 10
38.5917826904
 20
-30.0964813022
 10
38.6068794482
 20
-30.0929352537
 10
38.6229546826
 20
-30.0912129374
 10
38.6397636765
 20
-30.0913292848
 10
38.6570911421
 20
-30.0932577517
 10
38.6747651307
 20
-30.0969551291
  0
LINE
  5
429
100
AcDbEntity
  8
SCRITTA_VIMAR
100
AcDbLine
 62
250
  6
CONTINUOUS
 10
64.4340887405
 20
-46.1229269284
 11
64.4147488347
 21
-45.9436295038
  0
LINE
  5
42A
100
AcDbEntity
  8
SCRITTA_VIMAR
100
AcDbLine
 62
250
  6
CONTINUOUS
 10
62.922911715
 20
-45.5127635352
 11
62.9470718456
 21
-45.7375977785
  0
LINE
  5
42B
100
AcDbEntity
  8
RACCORDO
100
AcDbLine
 62
7
  6
CONTINUOUS
 10
63.920843888
 20
-37.7258861399
 11
63.9209819123
 21
-37.7271871966
  0
LINE
  5
42C
100
AcDbEntity
  8
SCRITTA_VIMAR
100
AcDbLine
 62
250
  6
CONTINUOUS
 10
64.9198718794
 20
-45.9846141413
 11
64.9442874453
 21
-46.2133434416
  0
LINE
  5
42D
100
AcDbEntity
  8
SCRITTA_VIMAR
100
AcDbLine
 62
250
  6
CONTINUOUS
 10
62.430871167
 20
-45.5854444308
 11
62.4011850048
 21
-45.3072873828
  0
LINE
  5
42E
100
AcDbEntity
  8
SCRITTA_VIMAR
100
AcDbLine
 62
250
  6
CONTINUOUS
 10
61.8846824687
 20
-45.1511250739
 11
61.9142654634
 21
-45.4288500665
  0
LINE
  5
42F
100
AcDbEntity
  8
SCRITTA_VIMAR
100
AcDbLine
 62
250
  6
CONTINUOUS
 10
61.3977014372
 20
-45.2721834251
 11
61.3681972773
 21
-44.9948257884
  0
LINE
  5
430
100
AcDbEntity
  8
SCRITTA_VIMAR
100
AcDbLine
 62
250
  6
CONTINUOUS
 10
64.4147488347
 20
-45.9436295038
 11
64.3962332334
 21
-45.7661403703
  0
LINE
  5
431
100
AcDbEntity
  8
SCRITTA_VIMAR
100
AcDbLine
 62
250
  6
CONTINUOUS
 10
62.8999263804
 20
-45.2897648775
 11
62.922911715
 21
-45.5127635352
  0
LINE
  5
432
100
AcDbEntity
  8
SCRITTA_VIMAR
100
AcDbLine
 62
250
  6
CONTINUOUS
 10
64.8967732526
 20
-45.7584687116
 11
64.9198718794
 21
-45.9846141413
  0
LINE
  5
433
100
AcDbEntity
  8
SCRITTA_VIMAR
100
AcDbLine
 62
250
  6
CONTINUOUS
 10
62.4011850048
 20
-45.3072873828
 11
62.3732342637
 21
-45.0314230636
  0
LINE
  5
434
100
AcDbEntity
  8
SCRITTA_VIMAR
100
AcDbLine
 62
250
  6
CONTINUOUS
 10
61.3681972773
 20
-44.9948257884
 11
61.3403667313
 21
-44.7191429898
  0
LINE
  5
435
100
AcDbEntity
  8
SCRITTA_VIMAR
100
AcDbLine
 62
250
  6
CONTINUOUS
 10
61.8568040517
 20
-44.875403892
 11
61.8846824687
 21
-45.1511250739
  0
LWPOLYLINE
  5
436
100
AcDbEntity
  8
SCRITTA_VIMAR
100
AcDbPolyline
 62
250
  6
CONTINUOUS
 90
3
 70
0
 10
64.3962332334
 20
-45.7661403703
 10
64.3699790872
 20
-45.5034626492
 10
64.3616221274
 20
-45.4168298151
  0
LINE
  5
437
100
AcDbEntity
  8
SCRITTA_VIMAR
100
AcDbLine
 62
250
  6
CONTINUOUS
 10
64.8748510838
 20
-45.5338069488
 11
64.8967732526
 21
-45.7584687116
  0
LWPOLYLINE
  5
438
100
AcDbEntity
  8
SCRITTA_VIMAR
100
AcDbPolyline
 62
250
  6
CONTINUOUS
 90
3
 70
0
 10
62.8676164536
 20
-44.9589218667
 10
62.8781016984
 20
-45.0687246499
 10
62.8999263804
 20
-45.2897648775
  0
LINE
  5
439
100
AcDbEntity
  8
SCRITTA_VIMAR
100
AcDbLine
 62
250
  6
CONTINUOUS
 10
62.3732342637
 20
-45.0314230636
 11
62.3470137162
 21
-44.7582426013
  0
LINE
  5
43A
100
AcDbEntity
  8
SCRITTA_VIMAR
100
AcDbLine
 62
250
  6
CONTINUOUS
 10
61.8306202053
 20
-44.6019880577
 11
61.8568040517
 21
-44.875403892
  0
LINE
  5
43B
100
AcDbEntity
  8
SCRITTA_VIMAR
100
AcDbLine
 62
250
  6
CONTINUOUS
 10
61.3403667313
 20
-44.7191429898
 11
61.3142026861
 21
-44.4454287077
  0
LINE
  5
43C
100
AcDbEntity
  8
SCRITTA_VIMAR
100
AcDbLine
 62
250
  6
CONTINUOUS
 10
62.3470137162
 20
-44.7582426013
 11
62.3225165348
 21
-44.488062467
  0
LINE
  5
43D
100
AcDbEntity
  8
SCRITTA_VIMAR
100
AcDbLine
 62
250
  6
CONTINUOUS
 10
61.8061203609
 20
-44.3311222641
 11
61.8306202053
 21
-44.6019880577
  0
LINE
  5
43E
100
AcDbEntity
  8
SCRITTA_VIMAR
100
AcDbLine
 62
250
  6
CONTINUOUS
 10
61.3142026861
 20
-44.4454287077
 11
61.2896966045
 21
-44.1739217571
  0
LWPOLYLINE
  5
43F
100
AcDbEntity
  8
SCRITTA_VIMAR
100
AcDbPolyline
 62
250
  6
CONTINUOUS
 90
3
 70
0
 10
62.3225165348
 20
-44.488062467
 10
62.2997227334
 20
-44.2208668742
 10
62.2889573264
 20
-44.0883573899
  0
LWPOLYLINE
  5
440
100
AcDbEntity
  8
SCRITTA_VIMAR
100
AcDbPolyline
 62
250
  6
CONTINUOUS
 90
3
 70
0
 10
61.2896966045
 20
-44.1739217571
 10
61.2668288906
 20
-43.9046172221
 10
61.256002434
 20
-43.7707702828
  0
LWPOLYLINE
  5
441
100
AcDbEntity
  8
SCRITTA_VIMAR
100
AcDbPolyline
 62
250
  6
CONTINUOUS
 90
3
 70
0
 10
61.7724871004
 20
-43.9295700746
 10
61.7832860586
 20
-44.0627995776
 10
61.8061203609
 20
-44.3311222641
  0
LWPOLYLINE
  5
442
100
AcDbEntity
  8
RACCORDO
100
AcDbPolyline
 62
250
  6
CONTINUOUS
 90
10
 70
0
 10
57.9484631251
 20
-42.18481801
 10
58.0125141605
 20
-43.0297017024
 10
58.0964907194
 20
-43.9339548301
 10
58.206012573
 20
-44.9103727285
 10
58.3420243669
 20
-45.9231454406
 10
58.506160645
 20
-46.9546350888
 10
58.6965328917
 20
-47.9747836825
 10
58.9134929408
 20
-48.9739501449
 10
59.1600698622
 20
-49.9562183583
 10
59.4382655318
 20
-50.9189944735
  0
LWPOLYLINE
  5
443
100
AcDbEntity
  8
RACCORDO
100
AcDbPolyline
 62
250
  6
CONTINUOUS
 90
10
 70
0
 10
56.9529954316
 20
-2.1685831754
 10
56.9724090457
 20
-1.2191127876
 10
57.0076952981
 20
-0.16609224
 10
57.063497636
 20
1.0169298394
 10
57.1424254056
 20
2.2988450768
 10
57.2468585039
 20
3.6673293353
 10
57.376478577
 20
5.0893225493
 10
57.5320932918
 20
6.5561419992
 10
57.7163622239
 20
8.0785568987
 10
57.931301486
 20
9.6585887957
  0
LWPOLYLINE
  5
444
100
AcDbEntity
  8
RACCORDO
100
AcDbPolyline
 62
250
  6
CONTINUOUS
 90
10
 70
0
 10
56.7112769471
 20
-3.751531278
 10
56.7588514603
 20
-3.566212808
 10
56.8015912319
 20
-3.3815068509
 10
56.8393205244
 20
-3.1981761612
 10
56.8719206157
 20
-3.016988973
 10
56.8992214102
 20
-2.8386823914
 10
56.9210019908
 20
-2.663959303
 10
56.9371364526
 20
-2.4935299812
 10
56.9475942735
 20
-2.3281091072
 10
56.9523315603
 20
-2.1683793825
  0
LINE
  5
445
100
AcDbEntity
  8
RACCORDO
100
AcDbLine
 62
250
  6
CONTINUOUS
 10
43.4999843846
 20
-32.8005268686
 11
43.8643395734
 21
-32.2725644854
  0
LINE
  5
446
100
AcDbEntity
  8
RACCORDO
100
AcDbLine
 62
7
  6
CONTINUOUS
 10
43.522073569
 20
-32.8073102431
 11
43.8463022583
 21
-32.3374924477
  0
LINE
  5
447
100
AcDbEntity
  8
RACCORDO
100
AcDbLine
 62
250
  6
CONTINUOUS
 10
42.9580741428
 20
-32.6341114834
 11
43.6677430962
 21
-31.6301815419
  0
LINE
  5
448
100
AcDbEntity
  8
RACCORDO
100
AcDbLine
 62
250
  6
CONTINUOUS
 10
43.2295676986
 20
-32.7174845241
 11
43.853452199
 21
-31.834909167
  0
LWPOLYLINE
  5
449
100
AcDbEntity
  8
RACCORDO
100
AcDbPolyline
 62
250
  6
CONTINUOUS
 90
10
 70
0
 10
89.4207119582
 20
-1.0150767211
 10
89.3316549165
 20
-1.0941903954
 10
89.2234406072
 20
-1.1638799286
 10
89.0987384106
 20
-1.2224262468
 10
88.9606244227
 20
-1.268385151
 10
88.8125055748
 20
-1.3006229438
 10
88.6580355934
 20
-1.3183443952
 10
88.501024872
 20
-1.3211123562
 10
88.3453464776
 20
-1.3088585423
 10
88.1948406124
 20
-1.2818852198
  0
LINE
  5
44A
100
AcDbEntity
  8
RACCORDO
100
AcDbLine
 62
7
  6
CONTINUOUS
 10
63.7574780249
 20
-37.7881275181
 11
63.9073099195
 21
-37.7394905787
  0
LINE
  5
44B
100
AcDbEntity
  8
SCRITTA_VIMAR
100
AcDbLine
 62
250
  6
CONTINUOUS
 10
64.9974812119
 20
-46.6808479973
 11
65.0263339785
 21
-46.9189272622
  0
LINE
  5
44C
100
AcDbEntity
  8
SCRITTA_VIMAR
100
AcDbLine
 62
250
  6
CONTINUOUS
 10
64.5083592606
 20
-46.7619947129
 11
64.4806270926
 21
-46.5318287851
  0
LINE
  5
44D
100
AcDbEntity
  8
SCRITTA_VIMAR
100
AcDbLine
 62
250
  6
CONTINUOUS
 10
62.9855283337
 20
-46.0776825999
 11
63.0126974152
 21
-46.3061524512
  0
LINE
  5
44E
100
AcDbEntity
  8
SCRITTA_VIMAR
100
AcDbLine
 62
250
  6
CONTINUOUS
 10
62.4956649995
 20
-46.1480390658
 11
62.4623368449
 21
-45.8656964526
  0
LINE
  5
44F
100
AcDbEntity
  8
SCRITTA_VIMAR
100
AcDbLine
 62
250
  6
CONTINUOUS
 10
61.4619131714
 20
-45.8314464993
 11
61.428917148
 21
-45.5510618216
  0
LINE
  5
450
100
AcDbEntity
  8
SCRITTA_VIMAR
100
AcDbLine
 62
250
  6
CONTINUOUS
 10
61.9455955012
 20
-45.7084167679
 11
61.9787475062
 21
-45.9898025112
  0
LINE
  5
451
100
AcDbEntity
  8
SCRITTA_VIMAR
100
AcDbLine
 62
250
  6
CONTINUOUS
 10
64.9701416679
 20
-46.4454935072
 11
64.9974812119
 21
-46.6808479973
  0
LINE
  5
452
100
AcDbEntity
  8
SCRITTA_VIMAR
100
AcDbLine
 62
250
  6
CONTINUOUS
 10
64.4806270926
 20
-46.5318287851
 11
64.4542526102
 21
-46.3037998978
  0
LINE
  5
453
100
AcDbEntity
  8
SCRITTA_VIMAR
100
AcDbLine
 62
250
  6
CONTINUOUS
 10
62.4623368449
 20
-45.8656964526
 11
62.430871167
 21
-45.5854444308
  0
LWPOLYLINE
  5
454
100
AcDbEntity
  8
SCRITTA_VIMAR
100
AcDbPolyline
 62
250
  6
CONTINUOUS
 90
3
 70
0
 10
62.9470718456
 20
-45.7375977785
 10
62.9595931507
 20
-45.8506093862
 10
62.9855283337
 20
-46.0776825999
  0
LINE
  5
455
100
AcDbEntity
  8
SCRITTA_VIMAR
100
AcDbLine
 62
250
  6
CONTINUOUS
 10
61.9142654634
 20
-45.4288500665
 11
61.9455955012
 21
-45.7084167679
  0
LINE
  5
456
100
AcDbEntity
  8
SCRITTA_VIMAR
100
AcDbLine
 62
250
  6
CONTINUOUS
 10
64.4542526102
 20
-46.3037998978
 11
64.4340887405
 21
-46.1229269284
  0
LINE
  5
457
100
AcDbEntity
  8
SCRITTA_VIMAR
100
AcDbLine
 62
250
  6
CONTINUOUS
 10
61.428917148
 20
-45.5510618216
 11
61.3977014372
 21
-45.2721834251
  0
LINE
  5
458
100
AcDbEntity
  8
SCRITTA_VIMAR
100
AcDbLine
 62
250
  6
CONTINUOUS
 10
64.9442874453
 20
-46.2133434416
 11
64.9701416679
 21
-46.4454935072
  0
LINE
  5
459
100
AcDbEntity
  8
SCRITTA_VIMAR
100
AcDbLine
 62
250
  6
CONTINUOUS
 10
67.7923079758
 20
-46.79106167
 11
67.7718773909
 21
-46.6024151021
  0
LINE
  5
45A
100
AcDbEntity
  8
SCRITTA_VIMAR
100
AcDbLine
 62
250
  6
CONTINUOUS
 10
68.2589861355
 20
-46.4911638935
 11
68.2885017248
 21
-46.7690421205
  0
LWPOLYLINE
  5
45B
100
AcDbEntity
  8
SCRITTA_VIMAR
100
AcDbPolyline
 62
250
  6
CONTINUOUS
 90
6
 70
0
 10
67.7718773909
 20
-46.6024151021
 10
67.7520962635
 20
-46.4130510738
 10
67.7351718937
 20
-46.2455091637
 10
67.7186354157
 20
-46.0763213255
 10
67.702560064
 20
-45.9058988392
 10
67.6870190727
 20
-45.7346529845
  0
LINE
  5
45C
100
AcDbEntity
  8
SCRITTA_VIMAR
100
AcDbLine
 62
250
  6
CONTINUOUS
 10
68.2365339299
 20
-46.2699080448
 11
68.2589861355
 21
-46.4911638935
  0
LINE
  5
45D
100
AcDbEntity
  8
SCRITTA_VIMAR
100
AcDbLine
 62
250
  6
CONTINUOUS
 10
64.8499570447
 20
-45.2650397501
 11
64.8748510838
 21
-45.5338069488
  0
LWPOLYLINE
  5
45E
100
AcDbEntity
  8
SCRITTA_VIMAR
100
AcDbPolyline
 62
250
  6
CONTINUOUS
 90
3
 70
0
 10
64.8156359587
 20
-44.8642460478
 10
64.8266566798
 20
-44.9974289648
 10
64.8499570447
 20
-45.2650397501
  0
LINE
  5
45F
100
AcDbEntity
  8
0
100
AcDbLine
 62
7
  6
CONTINUOUS
 10
66.5775798083
 20
-8.0108049116
 11
66.5779516748
 21
-8.0171109025
  0
LINE
  5
460
100
AcDbEntity
  8
RACCORDO
100
AcDbLine
 62
250
  6
CONTINUOUS
 10
68.5588022557
 20
-41.6446892642
 11
68.6002980482
 21
-43.187050867
  0
LINE
  5
461
100
AcDbEntity
  8
RACCORDO
100
AcDbLine
 62
250
  6
CONTINUOUS
 10
68.5161411034
 20
-40.0070285028
 11
68.5588022557
 21
-41.6446892642
  0
LWPOLYLINE
  5
462
100
AcDbEntity
  8
RACCORDO
100
AcDbPolyline
 62
250
  6
CONTINUOUS
 90
3
 70
0
 10
68.4019900611
 20
-35.5159220082
 10
68.4259081216
 20
-36.4590957393
 10
68.5161411034
 20
-40.0070285028
  0
LINE
  5
463
100
AcDbEntity
  8
RACCORDO
100
AcDbLine
 62
250
  6
CONTINUOUS
 10
68.1596715721
 20
-25.8977865526
 11
68.4019900611
 21
-35.5159220082
  0
LINE
  5
464
100
AcDbEntity
  8
RACCORDO
100
AcDbLine
 62
250
  6
CONTINUOUS
 10
63.9073099195
 20
-37.7394905787
 11
63.9238392116
 21
-38.4039421111
  0
LINE
  5
465
100
AcDbEntity
  8
RACCORDO
100
AcDbLine
 62
7
  6
CONTINUOUS
 10
63.9209749615
 20
-37.7271857426
 11
63.9368094999
 21
-38.3637092698
  0
LINE
  5
466
100
AcDbEntity
  8
0
100
AcDbLine
 62
7
  6
CONTINUOUS
 10
67.4378279006
 20
-42.5914245534
 11
66.5775798083
 21
-8.0108049116
  0
LINE
  5
467
100
AcDbEntity
  8
RACCORDO
100
AcDbLine
 62
250
  6
CONTINUOUS
 10
67.7942398245
 20
-10.9564155761
 11
68.1596715721
 21
-25.8977865526
  0
LINE
  5
468
100
AcDbEntity
  8
RACCORDO
100
AcDbLine
 62
250
  6
CONTINUOUS
 10
67.7400499558
 20
-8.6064312252
 11
67.7942398245
 21
-10.9564155761
  0
LINE
  5
469
100
AcDbEntity
  8
RACCORDO
100
AcDbLine
 62
250
  6
CONTINUOUS
 10
63.9368094999
 20
-38.3637092698
 11
63.9368151031
 21
-38.3664374586
  0
LWPOLYLINE
  5
46A
100
AcDbEntity
  8
RACCORDO
100
AcDbPolyline
 62
250
  6
CONTINUOUS
 90
6
 70
0
 10
63.9238392116
 20
-38.4039421111
 10
63.9234998113
 20
-38.4157654365
 10
63.9216561916
 20
-38.4270567766
 10
63.9183286477
 20
-38.4376918327
 10
63.9135531509
 20
-38.4475546649
 10
63.9107805071
 20
-38.4519540399
  0
LWPOLYLINE
  5
46B
100
AcDbEntity
  8
RACCORDO
100
AcDbPolyline
 62
250
  6
CONTINUOUS
 90
5
 70
0
 10
63.9368151031
 20
-38.3664374586
 10
63.935843232
 20
-38.3760455502
 10
63.9333367271
 20
-38.3855634527
 10
63.9293215477
 20
-38.3948943335
 10
63.9238392116
 20
-38.4039421111
  0
LWPOLYLINE
  5
46C
100
AcDbEntity
  8
RACCORDO
100
AcDbPolyline
 62
250
  6
CONTINUOUS
 90
10
 70
0
 10
65.9912364539
 20
-6.7279742663
 10
66.0657355166
 20
-6.4259676991
 10
66.1066230167
 20
-6.2428213909
 10
66.142626015
 20
-6.0610018846
 10
66.1735989886
 20
-5.8812433267
 10
66.1994167345
 20
-5.7042715442
 10
66.2199748756
 20
-5.5308011138
 10
66.2351902819
 20
-5.3615324763
 10
66.2450014066
 20
-5.1971491083
 10
66.2493685347
 20
-5.0383147623
  0
LINE
  5
46D
100
AcDbEntity
  8
DRAFT
100
AcDbLine
 62
7
  6
CONTINUOUS
 10
57.5772279937
 20
-37.1235120012
 11
57.6211376748
 21
-37.0022355333
  0
LINE
  5
46E
100
AcDbEntity
  8
DRAFT
100
AcDbLine
 62
7
  6
CONTINUOUS
 10
57.8023198233
 20
-36.916130469
 11
57.8715976113
 21
-36.7247884862
  0
LINE
  5
46F
100
AcDbEntity
  8
DRAFT
100
AcDbLine
 62
7
  6
CONTINUOUS
 10
58.0527797598
 20
-36.6386834219
 11
58.1220575478
 21
-36.4473414391
  0
LINE
  5
470
100
AcDbEntity
  8
DRAFT
100
AcDbLine
 62
7
  6
CONTINUOUS
 10
58.3032396963
 20
-36.3612363748
 11
58.3725174844
 21
-36.169894392
  0
LINE
  5
471
100
AcDbEntity
  8
RACCORDO
100
AcDbLine
 62
250
  6
CONTINUOUS
 10
86.6995939945
 20
2.1331824407
 11
89.13664835
 21
5.0363811991
  0
LINE
  5
472
100
AcDbEntity
  8
DRAFT
100
AcDbLine
 62
7
  6
CONTINUOUS
 10
58.397563478
 20
-36.1421496873
 11
58.3725174844
 21
-36.169894392
  0
LINE
  5
473
100
AcDbEntity
  8
DRAFT
100
AcDbLine
 62
7
  6
CONTINUOUS
 10
58.2222415225
 20
-36.3363626203
 11
58.1220575478
 21
-36.4473414391
  0
LINE
  5
474
100
AcDbEntity
  8
DRAFT
100
AcDbLine
 62
7
  6
CONTINUOUS
 10
57.9717815859
 20
-36.6138096674
 11
57.8715976113
 21
-36.7247884862
  0
LINE
  5
475
100
AcDbEntity
  8
DRAFT
100
AcDbLine
 62
7
  6
CONTINUOUS
 10
57.7213216494
 20
-36.8912567145
 11
57.6211376748
 21
-37.0022355333
  0
LWPOLYLINE
  5
476
100
AcDbEntity
  8
0
100
AcDbPolyline
 62
7
  6
CONTINUOUS
 90
18
 70
0
 10
66.5779516748
 20
-8.0171109025
 10
66.5775001165
 20
-8.0149230702
 10
66.5748024185
 20
-8.0046013431
 10
66.5685948537
 20
-7.9866374542
 10
66.5580159754
 20
-7.9621874164
 10
66.542714395
 20
-7.9328329042
 10
66.5225015732
 20
-7.8998045849
 10
66.4972946689
 20
-7.8641331697
 10
66.467245444
 20
-7.8269137212
 10
66.4325377267
 20
-7.7890553142
 10
66.3938121398
 20
-7.751750766
 10
66.3521436846
 20
-7.7162793664
 10
66.3084034972
 20
-7.6834337281
 10
66.2636168088
 20
-7.6539132874
 10
66.219328219
 20
-7.6284913211
 10
66.1768023241
 20
-7.6074749784
 10
66.1369492025
 20
-7.5908106419
 10
66.1007654738
 20
-7.5783505473
  0
LINE
  5
477
100
AcDbEntity
  8
SCRITTA_VIMAR
100
AcDbLine
 62
250
  6
CONTINUOUS
 10
68.4005155293
 20
-47.6603524186
 11
68.4345730053
 21
-47.9226149032
  0
LINE
  5
478
100
AcDbEntity
  8
SCRITTA_VIMAR
100
AcDbLine
 62
250
  6
CONTINUOUS
 10
67.9106650339
 20
-47.7731078212
 11
67.8846076797
 21
-47.5708089708
  0
LWPOLYLINE
  5
479
100
AcDbEntity
  8
RACCORDO
100
AcDbPolyline
 62
250
  6
CONTINUOUS
 90
15
 70
0
 10
67.4378279006
 20
-42.5914245534
 10
67.4476473632
 20
-42.6701821954
 10
67.4722656091
 20
-42.7455606544
 10
67.5113629336
 20
-42.8182539857
 10
67.5643528653
 20
-42.887171768
 10
67.6304405398
 20
-42.9512802145
 10
67.7086346225
 20
-43.0096176796
 10
67.7977621792
 20
-43.0613090842
 10
67.8964862703
 20
-43.105579042
 10
68.0033257598
 20
-43.1417634195
 10
68.1166782407
 20
-43.16931955
 10
68.2348442018
 20
-43.1878341781
 10
68.3560514537
 20
-43.1970294028
 10
68.4784815876
 20
-43.1967670503
 10
68.6002980482
 20
-43.187050867
  0
LWPOLYLINE
  5
47A
100
AcDbEntity
  8
RACCORDO
100
AcDbPolyline
 62
250
  6
CONTINUOUS
 90
15
 70
0
 10
66.5775798083
 20
-8.0108049116
 10
66.5873993087
 20
-8.0895627209
 10
66.6120176008
 20
-8.1649412077
 10
66.6511149829
 20
-8.2376345616
 10
66.7041049823
 20
-8.30655236
 10
66.7701927328
 20
-8.3706608148
 10
66.8483868978
 20
-8.4289982795
 10
66.9375145408
 20
-8.4806896743
 10
67.03623872
 20
-8.5249596123
 10
67.1430783286
 20
-8.5611439691
 10
67.2564309283
 20
-8.5887000634
 10
67.3745968984
 20
-8.6072146276
 10
67.4958040037
 20
-8.6164097846
 10
67.6182338709
 20
-8.6161473931
 10
67.7400499558
 20
-8.6064312252
  0
LINE
  5
47B
100
AcDbEntity
  8
SCRITTA_VIMAR
100
AcDbLine
 62
250
  6
CONTINUOUS
 10
67.8846076797
 20
-47.5708089708
 11
67.8597329016
 21
-47.3708678966
  0
LINE
  5
47C
100
AcDbEntity
  8
SCRITTA_VIMAR
100
AcDbLine
 62
250
  6
CONTINUOUS
 10
68.368370935
 20
-47.4016858593
 11
68.4005155293
 21
-47.6603524186
  0
LINE
  5
47D
100
AcDbEntity
  8
SCRITTA_VIMAR
100
AcDbLine
 62
250
  6
CONTINUOUS
 10
67.8597329016
 20
-47.3708678966
 11
67.8360659282
 21
-47.1740240089
  0
LINE
  5
47E
100
AcDbEntity
  8
SCRITTA_VIMAR
100
AcDbLine
 62
250
  6
CONTINUOUS
 10
68.3380955871
 20
-47.1470579743
 11
68.368370935
 21
-47.4016858593
  0
LINE
  5
47F
100
AcDbEntity
  8
SCRITTA_VIMAR
100
AcDbLine
 62
250
  6
CONTINUOUS
 10
67.8360659282
 20
-47.1740240089
 11
67.8136264942
 21
-46.9809602825
  0
LINE
  5
480
100
AcDbEntity
  8
SCRITTA_VIMAR
100
AcDbLine
 62
250
  6
CONTINUOUS
 10
67.8136264942
 20
-46.9809602825
 11
67.7923079758
 21
-46.79106167
  0
LWPOLYLINE
  5
481
100
AcDbEntity
  8
RACCORDO
100
AcDbPolyline
 62
250
  6
CONTINUOUS
 90
3
 70
0
 10
69.463878561
 20
-8.7367817158
 10
69.4850878441
 20
-9.4952111952
 10
69.5058836947
 20
-10.277719551
  0
LINE
  5
482
100
AcDbEntity
  8
RACCORDO
100
AcDbLine
 62
250
  6
CONTINUOUS
 10
69.5058836947
 20
-10.277719551
 11
69.5930880448
 21
-13.6489526598
  0
LINE
  5
483
100
AcDbEntity
  8
RACCORDO
100
AcDbLine
 62
250
  6
CONTINUOUS
 10
69.5930880448
 20
-13.6489526598
 11
69.6632142375
 21
-16.4101801748
  0
LWPOLYLINE
  5
484
100
AcDbEntity
  8
RACCORDO
100
AcDbPolyline
 62
250
  6
CONTINUOUS
 90
3
 70
0
 10
69.9021894834
 20
-26.0319063675
 10
69.9884286142
 20
-29.4720016107
 10
70.0157640994
 20
-30.5650664164
  0
LINE
  5
485
100
AcDbEntity
  8
RACCORDO
100
AcDbLine
 62
250
  6
CONTINUOUS
 10
69.6632142375
 20
-16.4101801748
 11
69.7123799223
 21
-18.3690842714
  0
LINE
  5
486
100
AcDbEntity
  8
RACCORDO
100
AcDbLine
 62
250
  6
CONTINUOUS
 10
70.0157640994
 20
-30.5650664164
 11
70.068277112
 21
-32.6725696869
  0
LINE
  5
487
100
AcDbEntity
  8
RACCORDO
100
AcDbLine
 62
250
  6
CONTINUOUS
 10
69.7123799223
 20
-18.3690842714
 11
69.7636656363
 21
-20.42793316
  0
LINE
  5
488
100
AcDbEntity
  8
RACCORDO
100
AcDbLine
 62
250
  6
CONTINUOUS
 10
69.7636656363
 20
-20.42793316
 11
69.902189611
 21
-26.0319058237
  0
LINE
  5
489
100
AcDbEntity
  8
RACCORDO
100
AcDbLine
 62
250
  6
CONTINUOUS
 10
70.068277112
 20
-32.6725696869
 11
70.1179320898
 21
-34.6783892196
  0
LINE
  5
48A
100
AcDbEntity
  8
RACCORDO
100
AcDbLine
 62
250
  6
CONTINUOUS
 10
70.1179320898
 20
-34.6783892196
 11
70.187148623
 21
-37.5050877231
  0
LINE
  5
48B
100
AcDbEntity
  8
RACCORDO
100
AcDbLine
 62
250
  6
CONTINUOUS
 10
70.187148623
 20
-37.5050877231
 11
70.2298727701
 21
-39.2768473409
  0
LWPOLYLINE
  5
48C
100
AcDbEntity
  8
RACCORDO
100
AcDbPolyline
 62
250
  6
CONTINUOUS
 90
5
 70
0
 10
70.2298727701
 20
-39.2768473409
 10
70.2700132293
 20
-40.9589699119
 10
70.2891243071
 20
-41.7623468551
 10
70.3071442848
 20
-42.5400047478
 10
70.3234655888
 20
-43.2907950478
  0
LWPOLYLINE
  5
48D
100
AcDbEntity
  8
RACCORDO
100
AcDbPolyline
 62
250
  6
CONTINUOUS
 90
73
 70
0
 10
68.6002980482
 20
-43.187050867
 10
68.600878187
 20
-43.2312951372
 10
68.5999231852
 20
-43.2734782975
 10
68.5975943743
 20
-43.3136162846
 10
68.5940571619
 20
-43.3516164298
 10
68.5894607974
 20
-43.3876241018
 10
68.5839021754
 20
-43.4220075775
 10
68.5775499847
 20
-43.454504377
 10
68.570467038
 20
-43.4854338027
 10
68.5624511635
 20
-43.5159793957
 10
68.5534252191
 20
-43.5463308117
 10
68.5434538018
 20
-43.5762510889
 10
68.5323996398
 20
-43.6062119491
 10
68.5201412602
 20
-43.6363780703
 10
68.506697209
 20
-43.666484083
 10
68.4921089616
 20
-43.6963399993
 10
68.4763311193
 20
-43.7259442867
 10
68.4593484247
 20
-43.7552114702
 10
68.4412902432
 20
-43.7838517041
 10
68.4221419596
 20
-43.8118589584
 10
68.4019186203
 20
-43.8391858879
 10
68.3808559137
 20
-43.8655248504
 10
68.3589886906
 20
-43.8908787826
 10
68.3363526905
 20
-43.9152470662
 10
68.3132499834
 20
-43.9383710554
 10
68.2897715845
 20
-43.9602593863
 10
68.2659562318
 20
-43.9809688789
 10
68.2420775191
 20
-44.0003616152
 10
68.2182537349
 20
-44.0184618721
 10
68.1945209324
 20
-44.0353550273
 10
68.1710533174
 20
-44.0510233319
 10
68.1479837809
 20
-44.065492958
 10
68.1253263286
 20
-44.0788632596
 10
68.1030748704
 20
-44.0912288463
 10
68.0813471773
 20
-44.102613444
 10
68.0601397787
 20
-44.113102769
 10
68.0392429781
 20
-44.122862532
 10
68.0186866255
 20
-44.1319335341
 10
67.9985113311
 20
-44.1403452375
 10
67.9784989765
 20
-44.1482171506
 10
67.9587522332
 20
-44.1555419799
 10
67.9392142164
 20
-44.1623722321
 10
67.9194002039
 20
-44.1688797382
 10
67.8992892736
 20
-44.1750670369
 10
67.8789099594
 20
-44.1809245911
 10
67.857821507
 20
-44.1865607134
 10
67.8359851783
 20
-44.1919525736
 10
67.8134217057
 20
-44.19707195
 10
67.7897539764
 20
-44.2019775617
 10
67.7647183906
 20
-44.206666268
 10
67.7385337251
 20
-44.2110358038
 10
67.7115447699
 20
-44.2149935932
 10
67.6839092904
 20
-44.2184901281
 10
67.6554571051
 20
-44.2215156487
 10
67.6260483051
 20
-44.2240479948
 10
67.5956326337
 20
-44.2260467185
 10
67.5642422526
 20
-44.2274651903
 10
67.5318580189
 20
-44.2282618625
 10
67.4983201951
 20
-44.2283906533
 10
67.4637754881
 20
-44.2277982343
 10
67.428676954
 20
-44.226458882
 10
67.3930642858
 20
-44.2243608415
 10
67.3569168594
 20
-44.2214796836
 10
67.3206196382
 20
-44.2178253377
 10
67.2847369594
 20
-44.2134758808
 10
67.2487518504
 20
-44.2083915367
 10
67.211420709
 20
-44.2023553911
 10
67.1724550634
 20
-44.195240673
 10
67.132158158
 20
-44.187023006
 10
67.0901596909
 20
-44.1775368127
 10
67.0463479281
 20
-44.1666501991
 10
67.0008736528
 20
-44.1542926694
 10
66.9537662579
 20
-44.1403639041
  0
LWPOLYLINE
  5
48E
100
AcDbEntity
  8
RACCORDO
100
AcDbPolyline
 62
250
  6
CONTINUOUS
 90
63
 70
0
 10
70.3234784727
 20
-43.2907767053
 10
70.3236144844
 20
-43.3754776418
 10
70.3206996191
 20
-43.4562567829
 10
70.3150699833
 20
-43.5330972934
 10
70.3070902665
 20
-43.6057798403
 10
70.2970370953
 20
-43.6745981794
 10
70.2850041184
 20
-43.7403823528
 10
70.271070346
 20
-43.8027942391
 10
70.2555657175
 20
-43.8623606823
 10
70.2388092083
 20
-43.9208435475
 10
70.2211187184
 20
-43.9781615685
 10
70.2025296438
 20
-44.0336878273
 10
70.1825769969
 20
-44.0886042162
 10
70.1611365972
 20
-44.1436375952
 10
70.1380320545
 20
-44.1986152086
 10
70.1126412211
 20
-44.2531847204
 10
70.0846380179
 20
-44.3072364221
 10
70.0542421227
 20
-44.3606126715
 10
70.0217492634
 20
-44.4127988369
 10
69.987148484
 20
-44.4637893588
 10
69.9504605737
 20
-44.5134730115
 10
69.9121388638
 20
-44.5612728689
 10
69.8722467354
 20
-44.6071765004
 10
69.8308586509
 20
-44.6511793135
 10
69.7885599323
 20
-44.6928197771
 10
69.7455149259
 20
-44.7321072111
 10
69.7017984927
 20
-44.7691442498
 10
69.657950166
 20
-44.8037020586
 10
69.6141921841
 20
-44.8358208066
 10
69.5705939654
 20
-44.8656512864
 10
69.5274993945
 20
-44.8931901112
 10
69.4851229955
 20
-44.9184985533
 10
69.443471113
 20
-44.9417673447
 10
69.4025765003
 20
-44.9631908977
 10
69.3627514443
 20
-44.9827778055
 10
69.3240068362
 20
-45.0006646608
 10
69.2858768746
 20
-45.0171963847
 10
69.2481972649
 20
-45.0324968385
 10
69.2108091907
 20
-45.0467528884
 10
69.1730584273
 20
-45.0603936635
 10
69.1350785752
 20
-45.0734023602
 10
69.0969592878
 20
-45.0857425369
 10
69.0580561677
 20
-45.0976856081
 10
69.018304786
 20
-45.1092560558
 10
68.977701538
 20
-45.1203995012
 10
68.9355719222
 20
-45.1312266068
 10
68.8920973116
 20
-45.1417404545
 10
68.8477996335
 20
-45.1516564855
 10
68.8027237833
 20
-45.1605704091
 10
68.7566965629
 20
-45.168302454
 10
68.7095230638
 20
-45.1750446406
 10
68.6609203203
 20
-45.1809985677
 10
68.6107841873
 20
-45.1861950941
 10
68.5590564828
 20
-45.1904970978
 10
68.5056296539
 20
-45.1938112702
 10
68.4505077612
 20
-45.1960543522
 10
68.3937499004
 20
-45.1971576926
 10
68.335317869
 20
-45.1970418007
 10
68.2749590341
 20
-45.1955658077
 10
68.2129287176
 20
-45.1927050644
 10
68.1499560186
 20
-45.1885900855
 10
68.0860426093
 20
-45.1830435675
 10
68.0206414052
 20
-45.1761462564
  0
LINE
  5
48F
100
AcDbEntity
  8
SCRITTA_VIMAR
100
AcDbLine
 62
250
  6
CONTINUOUS
 10
64.1334777108
 20
-46.2055852832
 11
64.018976919
 21
-46.613194033
  0
LINE
  5
490
100
AcDbEntity
  8
DRAFT
100
AcDbLine
 62
7
  6
CONTINUOUS
 10
63.0903555222
 20
-38.8165400543
 11
63.1257540679
 21
-38.6926498991
  0
LINE
  5
491
100
AcDbEntity
  8
DRAFT
100
AcDbLine
 62
7
  6
CONTINUOUS
 10
63.2712946241
 20
-38.6047054423
 11
63.3295359895
 21
-38.4008684859
  0
LINE
  5
492
100
AcDbEntity
  8
DRAFT
100
AcDbLine
 62
7
  6
CONTINUOUS
 10
63.4750765457
 20
-38.312924029
 11
63.5333179111
 21
-38.1090870726
  0
LINE
  5
493
100
AcDbEntity
  8
DRAFT
100
AcDbLine
 62
7
  6
CONTINUOUS
 10
63.6788584674
 20
-38.0211426158
 11
63.7370998328
 21
-37.8173056594
  0
LINE
  5
494
100
AcDbEntity
  8
SCRITTA_VIMAR
100
AcDbLine
 62
250
  6
CONTINUOUS
 10
64.2479283303
 20
-45.8062216766
 11
64.1334777108
 21
-46.2055852832
  0
LINE
  5
495
100
AcDbEntity
  8
SCRITTA_VIMAR
100
AcDbLine
 62
250
  6
CONTINUOUS
 10
63.6792096157
 20
-45.8272922149
 11
63.7510388612
 21
-45.5785778313
  0
LINE
  5
496
100
AcDbEntity
  8
SCRITTA_VIMAR
100
AcDbLine
 62
250
  6
CONTINUOUS
 10
63.7510388612
 20
-45.5785778313
 11
63.8225596945
 21
-45.3337862702
  0
LINE
  5
497
100
AcDbEntity
  8
SCRITTA_VIMAR
100
AcDbLine
 62
250
  6
CONTINUOUS
 10
64.3616221274
 20
-45.4168298151
 11
64.2479283303
 21
-45.8062216766
  0
LINE
  5
498
100
AcDbEntity
  8
SCRITTA_VIMAR
100
AcDbLine
 62
250
  6
CONTINUOUS
 10
63.8225596945
 20
-45.3337862702
 11
63.8936976773
 21
-45.0930457911
  0
LINE
  5
499
100
AcDbEntity
  8
SCRITTA_VIMAR
100
AcDbLine
 62
250
  6
CONTINUOUS
 10
63.8936976773
 20
-45.0930457911
 11
63.9643278548
 21
-44.8566683757
  0
LINE
  5
49A
100
AcDbEntity
  8
SCRITTA_VIMAR
100
AcDbLine
 62
250
  6
CONTINUOUS
 10
63.9643278548
 20
-44.8566683757
 11
64.0344158742
 21
-44.6247279278
  0
LINE
  5
49B
100
AcDbEntity
  8
SCRITTA_VIMAR
100
AcDbLine
 62
250
  6
CONTINUOUS
 10
60.4117727886
 20
-45.1026430343
 11
60.2879597991
 21
-45.4712731971
  0
LINE
  5
49C
100
AcDbEntity
  8
SCRITTA_VIMAR
100
AcDbLine
 62
250
  6
CONTINUOUS
 10
60.5363774849
 20
-44.7370539872
 11
60.4117727886
 21
-45.1026430343
  0
LINE
  5
49D
100
AcDbEntity
  8
SCRITTA_VIMAR
100
AcDbLine
 62
250
  6
CONTINUOUS
 10
59.9576368807
 20
-44.7600409392
 11
60.0441567479
 21
-44.5074358713
  0
LINE
  5
49E
100
AcDbEntity
  8
SCRITTA_VIMAR
100
AcDbLine
 62
250
  6
CONTINUOUS
 10
60.0441567479
 20
-44.5074358713
 11
60.130651666
 21
-44.2572909753
  0
LINE
  5
49F
100
AcDbEntity
  8
SCRITTA_VIMAR
100
AcDbLine
 62
250
  6
CONTINUOUS
 10
60.661491064
 20
-44.3749753324
 11
60.5363774849
 21
-44.7370539872
  0
LINE
  5
4A0
100
AcDbEntity
  8
SCRITTA_VIMAR
100
AcDbLine
 62
250
  6
CONTINUOUS
 10
60.130651666
 20
-44.2572909753
 11
60.2173219539
 21
-44.0089570979
  0
LINE
  5
4A1
100
AcDbEntity
  8
SCRITTA_VIMAR
100
AcDbLine
 62
250
  6
CONTINUOUS
 10
60.7866525901
 20
-44.0174832547
 11
60.661491064
 21
-44.3749753324
  0
LINE
  5
4A2
100
AcDbEntity
  8
SCRITTA_VIMAR
100
AcDbLine
 62
250
  6
CONTINUOUS
 10
60.2173219539
 20
-44.0089570979
 11
60.2955347818
 21
-43.7867496846
  0
LINE
  5
4A3
100
AcDbEntity
  8
SCRITTA_VIMAR
100
AcDbLine
 62
250
  6
CONTINUOUS
 10
60.2955347818
 20
-43.7867496846
 11
60.3952116504
 21
-43.5060775721
  0
LINE
  5
4A4
100
AcDbEntity
  8
SCRITTA_VIMAR
100
AcDbLine
 62
250
  6
CONTINUOUS
 10
60.9116873726
 20
-43.6648982999
 11
60.7866525901
 21
-44.0174832547
  0
LWPOLYLINE
  5
4A5
100
AcDbEntity
  8
RACCORDO
100
AcDbPolyline
 62
250
  6
CONTINUOUS
 90
10
 70
0
 10
86.6995992361
 20
2.1330914466
 10
86.6324088441
 20
2.0274378803
 10
86.5679446721
 20
1.905984039
 10
86.50780116
 20
1.7717339165
 10
86.4534658873
 20
1.6280080035
 10
86.4062827871
 20
1.4783611584
 10
86.3674189074
 20
1.326494683
 10
86.3378355404
 20
1.176164775
 10
86.3182644491
 20
1.0310896228
 10
86.3091897738
 20
0.8948574413
  0
LINE
  5
4A6
100
AcDbEntity
  8
RACCORDO
100
AcDbLine
 62
250
  6
CONTINUOUS
 10
63.5468371721
 20
-38.9567211466
 11
63.9238392116
 21
-38.4039421111
  0
LINE
  5
4A7
100
AcDbEntity
  8
RACCORDO
100
AcDbLine
 62
7
  6
CONTINUOUS
 10
63.5631141491
 20
-38.9617196486
 11
63.910778802
 21
-38.4519565402
  0
LINE
  5
4A8
100
AcDbEntity
  8
DRAFT
100
AcDbLine
 62
7
  6
CONTINUOUS
 10
63.7574780249
 20
-37.7881275181
 11
63.7370998328
 21
-37.8173056594
  0
LINE
  5
4A9
100
AcDbEntity
  8
DRAFT
100
AcDbLine
 62
7
  6
CONTINUOUS
 10
63.6148306798
 20
-37.9923745073
 11
63.5333179111
 21
-38.1090870726
  0
LINE
  5
4AA
100
AcDbEntity
  8
DRAFT
100
AcDbLine
 62
7
  6
CONTINUOUS
 10
63.4110487582
 20
-38.2841559206
 11
63.3295359895
 21
-38.4008684859
  0
LINE
  5
4AB
100
AcDbEntity
  8
DRAFT
100
AcDbLine
 62
7
  6
CONTINUOUS
 10
63.2072668365
 20
-38.5759373338
 11
63.1257540679
 21
-38.6926498991
  0
LINE
  5
4AC
100
AcDbEntity
  8
RACCORDO
100
AcDbLine
 62
250
  6
CONTINUOUS
 10
89.4207119582
 20
-1.0150767211
 11
91.8627801218
 21
1.894094855
  0
LINE
  5
4AD
100
AcDbEntity
  8
SCRITTA_VIMAR
100
AcDbLine
 62
250
  6
CONTINUOUS
 10
65.3719098505
 20
-47.023220663
 11
65.4768514135
 21
-46.7092253777
  0
LINE
  5
4AE
100
AcDbEntity
  8
SCRITTA_VIMAR
100
AcDbLine
 62
250
  6
CONTINUOUS
 10
66.0066197239
 20
-46.8323350906
 11
65.890763303
 21
-47.179045639
  0
LINE
  5
4AF
100
AcDbEntity
  8
SCRITTA_VIMAR
100
AcDbLine
 62
250
  6
CONTINUOUS
 10
65.4768514135
 20
-46.7092253777
 11
65.58100229
 21
-46.401359133
  0
LINE
  5
4B0
100
AcDbEntity
  8
SCRITTA_VIMAR
100
AcDbLine
 62
250
  6
CONTINUOUS
 10
65.58100229
 20
-46.401359133
 11
65.6840570077
 21
-46.1001648167
  0
LINE
  5
4B1
100
AcDbEntity
  8
SCRITTA_VIMAR
100
AcDbLine
 62
250
  6
CONTINUOUS
 10
66.2621201209
 20
-46.083537625
 11
66.1211691488
 21
-46.4940946216
  0
LINE
  5
4B2
100
AcDbEntity
  8
SCRITTA_VIMAR
100
AcDbLine
 62
250
  6
CONTINUOUS
 10
65.6840570077
 20
-46.1001648167
 11
65.7864643658
 21
-45.8041188234
  0
LINE
  5
4B3
100
AcDbEntity
  8
SCRITTA_VIMAR
100
AcDbLine
 62
250
  6
CONTINUOUS
 10
66.308383297
 20
-45.9500925986
 11
66.2621201209
 21
-46.083537625
  0
LINE
  5
4B4
100
AcDbEntity
  8
SCRITTA_VIMAR
100
AcDbLine
 62
250
  6
CONTINUOUS
 10
65.7864643658
 20
-45.8041188234
 11
65.8682780653
 21
-45.5698523893
  0
LWPOLYLINE
  5
4B5
100
AcDbEntity
  8
SCRITTA_VIMAR
100
AcDbPolyline
 62
250
  6
CONTINUOUS
 90
3
 70
0
 10
65.8682780653
 20
-45.5698523893
 10
65.9499653101
 20
-45.337938147
 10
65.9907239934
 20
-45.2229765388
  0
LWPOLYLINE
  5
4B6
100
AcDbEntity
  8
RACCORDO
100
AcDbPolyline
 62
250
  6
CONTINUOUS
 90
15
 70
0
 10
67.0728572447
 20
-42.8050865984
 10
67.0265612059
 20
-42.9149096678
 10
66.9844806529
 20
-43.0293402629
 10
66.9472533086
 20
-43.1466442093
 10
66.9154433466
 20
-43.265043787
 10
66.8895328409
 20
-43.3827446723
 10
66.8699144607
 20
-43.49796313
 10
66.8568855187
 20
-43.6089530455
 10
66.8506434662
 20
-43.714032387
 10
66.8512828964
 20
-43.8116086052
 10
66.8587941094
 20
-43.9002030592
 10
66.8730633259
 20
-43.9784733325
 10
66.8938743798
 20
-44.0452332122
 10
66.9209119249
 20
-44.0994707655
 10
66.9537662579
 20
-44.1403639041
  0
LWPOLYLINE
  5
4B7
100
AcDbEntity
  8
RACCORDO
100
AcDbPolyline
 62
250
  6
CONTINUOUS
 90
5
 70
0
 10
67.285434587
 20
-42.4435899166
 10
67.2297673743
 20
-42.5194070011
 10
67.1752360952
 20
-42.6058253815
 10
67.1226671611
 20
-42.7015354032
 10
67.0728572447
 20
-42.8050865984
  0
LINE
  5
4B8
100
AcDbEntity
  8
ASSI
100
AcDbLine
 62
250
  6
CONTINUOUS
 10
64.9806374744
 20
-39.3970273288
 11
64.3901230588
 21
-40.1370243273
  0
LINE
  5
4B9
100
AcDbEntity
  8
ASSI
100
AcDbLine
 62
250
  6
CONTINUOUS
 10
66.5852667983
 20
-40.4668637253
 11
66.3646147166
 21
-40.7433715866
  0
LINE
  5
4BA
100
AcDbEntity
  8
ASSI
100
AcDbLine
 62
250
  6
CONTINUOUS
 10
67.429654392
 20
-42.2628623679
 11
67.285434587
 21
-42.4435899166
  0
LINE
  5
4BB
100
AcDbEntity
  8
RACCORDO
100
AcDbLine
 62
250
  6
CONTINUOUS
 10
88.2151812044
 20
-1.6987684059
 11
88.2238076088
 21
-1.8234772742
  0
LWPOLYLINE
  5
4BC
100
AcDbEntity
  8
RACCORDO
100
AcDbPolyline
 62
250
  6
CONTINUOUS
 90
5
 70
0
 10
88.2238076088
 20
-1.8234772742
 10
88.2290962886
 20
-1.9060323907
 10
88.2312505321
 20
-1.9474961043
 10
88.2327085005
 20
-1.9894118595
 10
88.2348064544
 20
-2.0761600406
  0
LINE
  5
4BD
100
AcDbEntity
  8
RACCORDO
100
AcDbLine
 62
250
  6
CONTINUOUS
 10
88.2101589715
 20
-1.6139754407
 11
88.2151812044
 21
-1.6987684059
  0
LINE
  5
4BE
100
AcDbEntity
  8
RACCORDO
100
AcDbLine
 62
250
  6
CONTINUOUS
 10
88.2054775292
 20
-1.5257519073
 11
88.2101589715
 21
-1.6139754407
  0
LINE
  5
4BF
100
AcDbEntity
  8
RACCORDO
100
AcDbLine
 62
250
  6
CONTINUOUS
 10
88.2010648084
 20
-1.4330704716
 11
88.2054775292
 21
-1.5257519073
  0
LINE
  5
4C0
100
AcDbEntity
  8
RACCORDO
100
AcDbLine
 62
250
  6
CONTINUOUS
 10
90.8286759486
 20
-57.7819966989
 11
90.8383120151
 21
-58.0003682978
  0
LWPOLYLINE
  5
4C1
100
AcDbEntity
  8
RACCORDO
100
AcDbPolyline
 62
250
  6
CONTINUOUS
 90
3
 70
0
 10
88.1948406124
 20
-1.2818852198
 10
88.1968568289
 20
-1.3338351689
 10
88.2010648084
 20
-1.4330704716
  0
LINE
  5
4C2
100
AcDbEntity
  8
RACCORDO
100
AcDbLine
 62
250
  6
CONTINUOUS
 10
90.8210931898
 20
-57.5874404232
 11
90.8286759486
 21
-57.7819966989
  0
LINE
  5
4C3
100
AcDbEntity
  8
RACCORDO
100
AcDbLine
 62
250
  6
CONTINUOUS
 10
90.8160324358
 20
-57.4367954336
 11
90.8210931898
 21
-57.5874404232
  0
LINE
  5
4C4
100
AcDbEntity
  8
RACCORDO
100
AcDbLine
 62
250
  6
CONTINUOUS
 10
90.8070095871
 20
-57.1433020635
 11
90.80978923
 21
-57.2335980937
  0
LINE
  5
4C5
100
AcDbEntity
  8
RACCORDO
100
AcDbLine
 62
250
  6
CONTINUOUS
 10
90.7414920242
 20
-55.0158328155
 11
90.8070095871
 21
-57.1433020635
  0
LWPOLYLINE
  5
4C6
100
AcDbEntity
  8
RACCORDO
100
AcDbPolyline
 62
250
  6
CONTINUOUS
 90
5
 70
0
 10
90.7249168073
 20
-54.474671223
 10
90.7283921495
 20
-54.5883547122
 10
90.7317849791
 20
-54.6992255885
 10
90.735095588
 20
-54.80728905
 10
90.7414920242
 20
-55.0158328155
  0
LWPOLYLINE
  5
4C7
100
AcDbEntity
  8
RACCORDO
100
AcDbPolyline
 62
250
  6
CONTINUOUS
 90
3
 70
0
 10
90.80978923
 20
-57.2335980937
 10
90.8123797494
 20
-57.3182047395
 10
90.8160324358
 20
-57.4367954336
  0
LWPOLYLINE
  5
4C8
100
AcDbEntity
  8
RACCORDO
100
AcDbPolyline
 62
250
  6
CONTINUOUS
 90
4
 70
0
 10
90.7101535147
 20
-53.9902561444
 10
90.7139775981
 20
-54.1159727797
 10
90.7177130008
 20
-54.2386176915
 10
90.7249168073
 20
-54.474671223
  0
LWPOLYLINE
  5
4C9
100
AcDbEntity
  8
RACCORDO
100
AcDbPolyline
 62
250
  6
CONTINUOUS
 90
3
 70
0
 10
90.6981184074
 20
-53.5932710508
 10
90.7022239193
 20
-53.7289052799
 10
90.7101535147
 20
-53.9902561444
  0
LWPOLYLINE
  5
4CA
100
AcDbEntity
  8
RACCORDO
100
AcDbPolyline
 62
250
  6
CONTINUOUS
 90
3
 70
0
 10
90.6852150354
 20
-53.1652389147
 10
90.6896139654
 20
-53.3114378682
 10
90.6981184074
 20
-53.5932710508
  0
LINE
  5
4CB
100
AcDbEntity
  8
RACCORDO
100
AcDbLine
 62
250
  6
CONTINUOUS
 10
90.6761120657
 20
-52.8615849357
 11
90.6852150354
 21
-53.1652389147
  0
LINE
  5
4CC
100
AcDbEntity
  8
RACCORDO
100
AcDbLine
 62
250
  6
CONTINUOUS
 10
88.3642698195
 20
-6.3440884713
 11
88.4058541109
 21
-7.7336137259
  0
LINE
  5
4CD
100
AcDbEntity
  8
RACCORDO
100
AcDbLine
 62
250
  6
CONTINUOUS
 10
90.6665970009
 20
-52.5426260436
 11
90.6761120657
 21
-52.8615849357
  0
LINE
  5
4CE
100
AcDbEntity
  8
RACCORDO
100
AcDbLine
 62
250
  6
CONTINUOUS
 10
90.6566546963
 20
-52.2075064572
 11
90.6665970009
 21
-52.5426260436
  0
LINE
  5
4CF
100
AcDbEntity
  8
RACCORDO
100
AcDbLine
 62
250
  6
CONTINUOUS
 10
88.2348064544
 20
-2.0761600406
 11
88.3642698195
 21
-6.3440884713
  0
LINE
  5
4D0
100
AcDbEntity
  8
RACCORDO
100
AcDbLine
 62
250
  6
CONTINUOUS
 10
90.6462657615
 20
-51.855166132
 11
90.6566546963
 21
-52.2075064572
  0
LINE
  5
4D1
100
AcDbEntity
  8
RACCORDO
100
AcDbLine
 62
250
  6
CONTINUOUS
 10
90.635417963
 20
-51.4849122989
 11
90.6462657615
 21
-51.855166132
  0
LINE
  5
4D2
100
AcDbEntity
  8
RACCORDO
100
AcDbLine
 62
250
  6
CONTINUOUS
 10
88.4058541109
 20
-7.7336137259
 11
88.4422497206
 21
-8.9763675452
  0
LINE
  5
4D3
100
AcDbEntity
  8
RACCORDO
100
AcDbLine
 62
250
  6
CONTINUOUS
 10
90.6240938622
 20
-51.0957067039
 11
90.635417963
 21
-51.4849122989
  0
LINE
  5
4D4
100
AcDbEntity
  8
RACCORDO
100
AcDbLine
 62
250
  6
CONTINUOUS
 10
88.4422497206
 20
-8.9763675452
 11
88.4554342142
 21
-9.4341931055
  0
LINE
  5
4D5
100
AcDbEntity
  8
RACCORDO
100
AcDbLine
 62
250
  6
CONTINUOUS
 10
90.6061732271
 20
-50.4741154215
 11
90.6240938622
 21
-51.0957067039
  0
LINE
  5
4D6
100
AcDbEntity
  8
RACCORDO
100
AcDbLine
 62
250
  6
CONTINUOUS
 10
90.5935715435
 20
-50.03299737
 11
90.6061732271
 21
-50.4741154215
  0
LINE
  5
4D7
100
AcDbEntity
  8
RACCORDO
100
AcDbLine
 62
250
  6
CONTINUOUS
 10
88.4554342142
 20
-9.4341931055
 11
88.4835029523
 21
-10.4222018129
  0
LINE
  5
4D8
100
AcDbEntity
  8
RACCORDO
100
AcDbLine
 62
250
  6
CONTINUOUS
 10
90.5736325879
 20
-49.328790604
 11
90.5935715435
 21
-50.03299737
  0
LINE
  5
4D9
100
AcDbEntity
  8
RACCORDO
100
AcDbLine
 62
250
  6
CONTINUOUS
 10
90.5596068308
 20
-48.8292160836
 11
90.5736325879
 21
-49.328790604
  0
LINE
  5
4DA
100
AcDbEntity
  8
RACCORDO
100
AcDbLine
 62
250
  6
CONTINUOUS
 10
90.5449541209
 20
-48.3040820538
 11
90.5596068308
 21
-48.8292160836
  0
LINE
  5
4DB
100
AcDbEntity
  8
RACCORDO
100
AcDbLine
 62
250
  6
CONTINUOUS
 10
88.4835029523
 20
-10.4222018129
 11
88.5220641241
 21
-11.8057542553
  0
LINE
  5
4DC
100
AcDbEntity
  8
RACCORDO
100
AcDbLine
 62
250
  6
CONTINUOUS
 10
90.5296387039
 20
-47.7518291251
 11
90.5449541209
 21
-48.3040820538
  0
LINE
  5
4DD
100
AcDbEntity
  8
RACCORDO
100
AcDbLine
 62
250
  6
CONTINUOUS
 10
90.5136415137
 20
-47.1713779812
 11
90.5296387039
 21
-47.7518291251
  0
LINE
  5
4DE
100
AcDbEntity
  8
RACCORDO
100
AcDbLine
 62
250
  6
CONTINUOUS
 10
88.5220641241
 20
-11.8057542553
 11
88.5561416993
 21
-13.0460179875
  0
LINE
  5
4DF
100
AcDbEntity
  8
RACCORDO
100
AcDbLine
 62
250
  6
CONTINUOUS
 10
90.496942108
 20
-46.5610550919
 11
90.5136415137
 21
-47.1713779812
  0
LINE
  5
4E0
100
AcDbEntity
  8
RACCORDO
100
AcDbLine
 62
250
  6
CONTINUOUS
 10
88.5561416993
 20
-13.0460179875
 11
88.5743250725
 21
-13.7148802738
  0
LINE
  5
4E1
100
AcDbEntity
  8
RACCORDO
100
AcDbLine
 62
250
  6
CONTINUOUS
 10
90.4705264117
 20
-45.5858080403
 11
90.496942108
 21
-46.5610550919
  0
LINE
  5
4E2
100
AcDbEntity
  8
RACCORDO
100
AcDbLine
 62
250
  6
CONTINUOUS
 10
88.5743250725
 20
-13.7148802738
 11
88.6030951505
 21
-14.7842816528
  0
LINE
  5
4E3
100
AcDbEntity
  8
RACCORDO
100
AcDbLine
 62
250
  6
CONTINUOUS
 10
90.4423966636
 20
-44.5337103001
 11
90.4705264117
 21
-45.5858080403
  0
LINE
  5
4E4
100
AcDbEntity
  8
RACCORDO
100
AcDbLine
 62
250
  6
CONTINUOUS
 10
88.6030951505
 20
-14.7842816528
 11
88.6443990335
 21
-16.3434224993
  0
LINE
  5
4E5
100
AcDbEntity
  8
RACCORDO
100
AcDbLine
 62
250
  6
CONTINUOUS
 10
90.4020569985
 20
-43.0000933843
 11
90.4423966636
 21
-44.5337103001
  0
LINE
  5
4E6
100
AcDbEntity
  8
RACCORDO
100
AcDbLine
 62
250
  6
CONTINUOUS
 10
88.6443990335
 20
-16.3434224993
 11
88.6777196003
 21
-17.6215528057
  0
LINE
  5
4E7
100
AcDbEntity
  8
RACCORDO
100
AcDbLine
 62
250
  6
CONTINUOUS
 10
90.3695346857
 20
-41.7426849743
 11
90.4020569985
 21
-43.0000933843
  0
LINE
  5
4E8
100
AcDbEntity
  8
RACCORDO
100
AcDbLine
 62
250
  6
CONTINUOUS
 10
88.6777196003
 20
-17.6215528057
 11
88.7131821802
 21
-19.001244292
  0
LINE
  5
4E9
100
AcDbEntity
  8
RACCORDO
100
AcDbLine
 62
250
  6
CONTINUOUS
 10
89.6154827844
 20
-57.581035825
 11
89.6175580115
 21
-57.6628936058
  0
LINE
  5
4EA
100
AcDbEntity
  8
RACCORDO
100
AcDbLine
 62
250
  6
CONTINUOUS
 10
89.055244099
 20
-32.7559159534
 11
89.1200420156
 21
-35.3300517179
  0
LINE
  5
4EB
100
AcDbEntity
  8
RACCORDO
100
AcDbLine
 62
250
  6
CONTINUOUS
 10
88.7131821802
 20
-19.001244292
 11
88.7509367378
 21
-20.4904505678
  0
LINE
  5
4EC
100
AcDbEntity
  8
RACCORDO
100
AcDbLine
 62
250
  6
CONTINUOUS
 10
90.3228676308
 20
-39.9080040688
 11
90.3695346857
 21
-41.7426849743
  0
LINE
  5
4ED
100
AcDbEntity
  8
RACCORDO
100
AcDbLine
 62
250
  6
CONTINUOUS
 10
89.1200420156
 20
-35.3300517179
 11
89.1498607813
 21
-36.5195582281
  0
LINE
  5
4EE
100
AcDbEntity
  8
RACCORDO
100
AcDbLine
 62
250
  6
CONTINUOUS
 10
88.7509367378
 20
-20.4904505678
 11
88.7774640413
 21
-21.5481077438
  0
LINE
  5
4EF
100
AcDbEntity
  8
RACCORDO
100
AcDbLine
 62
250
  6
CONTINUOUS
 10
90.2979939194
 20
-38.917284991
 11
90.3228676308
 21
-39.9080040688
  0
LINE
  5
4F0
100
AcDbEntity
  8
RACCORDO
100
AcDbLine
 62
250
  6
CONTINUOUS
 10
89.8716903291
 20
-21.780502797
 11
90.012901568
 21
-27.3973077727
  0
LINE
  5
4F1
100
AcDbEntity
  8
RACCORDO
100
AcDbLine
 62
250
  6
CONTINUOUS
 10
90.012901568
 20
-27.3973077727
 11
90.0305969231
 21
-28.1054105906
  0
LINE
  5
4F2
100
AcDbEntity
  8
RACCORDO
100
AcDbLine
 62
250
  6
CONTINUOUS
 10
89.1498607813
 20
-36.5195582281
 11
89.1780137805
 21
-37.6479697296
  0
LINE
  5
4F3
100
AcDbEntity
  8
RACCORDO
100
AcDbLine
 62
250
  6
CONTINUOUS
 10
88.7774640413
 20
-21.5481077438
 11
88.8051744359
 21
-22.6609715552
  0
LINE
  5
4F4
100
AcDbEntity
  8
RACCORDO
100
AcDbLine
 62
250
  6
CONTINUOUS
 10
89.8446685186
 20
-20.6959060564
 11
89.8716903291
 21
-21.780502797
  0
LINE
  5
4F5
100
AcDbEntity
  8
RACCORDO
100
AcDbLine
 62
250
  6
CONTINUOUS
 10
90.2719997164
 20
-37.8738661923
 11
90.2979939194
 21
-38.917284991
  0
LINE
  5
4F6
100
AcDbEntity
  8
RACCORDO
100
AcDbLine
 62
250
  6
CONTINUOUS
 10
90.067193348
 20
-29.5761830905
 11
90.0857202607
 21
-30.3200912416
  0
LINE
  5
4F7
100
AcDbEntity
  8
RACCORDO
100
AcDbLine
 62
250
  6
CONTINUOUS
 10
90.0305969231
 20
-28.1054105906
 11
90.067193348
 21
-29.5761830905
  0
LINE
  5
4F8
100
AcDbEntity
  8
RACCORDO
100
AcDbLine
 62
250
  6
CONTINUOUS
 10
90.0857202607
 20
-30.3200912416
 11
90.1037339359
 21
-31.0453911616
  0
LWPOLYLINE
  5
4F9
100
AcDbEntity
  8
RACCORDO
100
AcDbPolyline
 62
250
  6
CONTINUOUS
 90
3
 70
0
 10
88.8051744359
 20
-22.6609715552
 10
88.8341233545
 20
-23.8309326308
 10
88.8490967292
 20
-24.4382607948
  0
LINE
  5
4FA
100
AcDbEntity
  8
RACCORDO
100
AcDbLine
 62
250
  6
CONTINUOUS
 10
89.1780137805
 20
-37.6479697296
 11
89.2045492222
 21
-38.7190927723
  0
LINE
  5
4FB
100
AcDbEntity
  8
RACCORDO
100
AcDbLine
 62
250
  6
CONTINUOUS
 10
89.8191634934
 20
-19.6647149264
 11
89.8446685186
 21
-20.6959060564
  0
LINE
  5
4FC
100
AcDbEntity
  8
RACCORDO
100
AcDbLine
 62
250
  6
CONTINUOUS
 10
90.2447759253
 20
-36.7742663124
 11
90.2719997164
 21
-37.8738661923
  0
LINE
  5
4FD
100
AcDbEntity
  8
RACCORDO
100
AcDbLine
 62
250
  6
CONTINUOUS
 10
90.1037339359
 20
-31.0453911616
 11
90.1381926557
 21
-32.439625029
  0
LINE
  5
4FE
100
AcDbEntity
  8
RACCORDO
100
AcDbLine
 62
250
  6
CONTINUOUS
 10
90.2162397948
 20
-35.6160746595
 11
90.2447759253
 21
-36.7742663124
  0
LINE
  5
4FF
100
AcDbEntity
  8
RACCORDO
100
AcDbLine
 62
250
  6
CONTINUOUS
 10
88.8490967292
 20
-24.4382607948
 11
89.055244099
 21
-32.7559159534
  0
LINE
  5
500
100
AcDbEntity
  8
RACCORDO
100
AcDbLine
 62
250
  6
CONTINUOUS
 10
89.2045492222
 20
-38.7190927723
 11
89.2295510297
 21
-39.7363215865
  0
LINE
  5
501
100
AcDbEntity
  8
RACCORDO
100
AcDbLine
 62
250
  6
CONTINUOUS
 10
90.1381926557
 20
-32.439625029
 11
90.2162397948
 21
-35.6160746595
  0
LINE
  5
502
100
AcDbEntity
  8
RACCORDO
100
AcDbLine
 62
250
  6
CONTINUOUS
 10
89.7836539804
 20
-18.2134884263
 11
89.8191634934
 21
-19.6647149264
  0
LINE
  5
503
100
AcDbEntity
  8
RACCORDO
100
AcDbLine
 62
250
  6
CONTINUOUS
 10
89.2295510297
 20
-39.7363215865
 11
89.2643123181
 21
-41.1664137019
  0
LINE
  5
504
100
AcDbEntity
  8
RACCORDO
100
AcDbLine
 62
250
  6
CONTINUOUS
 10
89.2643123181
 20
-41.1664137019
 11
89.2960219237
 21
-42.4901204384
  0
LINE
  5
505
100
AcDbEntity
  8
RACCORDO
100
AcDbLine
 62
250
  6
CONTINUOUS
 10
89.7410954412
 20
-16.4437261397
 11
89.7836539804
 21
-18.2134884263
  0
LINE
  5
506
100
AcDbEntity
  8
RACCORDO
100
AcDbLine
 62
250
  6
CONTINUOUS
 10
89.2960219237
 20
-42.4901204384
 11
89.3339936329
 21
-44.1037499421
  0
LINE
  5
507
100
AcDbEntity
  8
RACCORDO
100
AcDbLine
 62
250
  6
CONTINUOUS
 10
89.703476325
 20
-14.8455271731
 11
89.7410954412
 21
-16.4437261397
  0
LINE
  5
508
100
AcDbEntity
  8
RACCORDO
100
AcDbLine
 62
250
  6
CONTINUOUS
 10
89.3339936329
 20
-44.1037499421
 11
89.3595799955
 21
-45.2105470802
  0
LINE
  5
509
100
AcDbEntity
  8
RACCORDO
100
AcDbLine
 62
250
  6
CONTINUOUS
 10
89.6781635286
 20
-13.7495145654
 11
89.703476325
 21
-14.8455271731
  0
LINE
  5
50A
100
AcDbEntity
  8
RACCORDO
100
AcDbLine
 62
250
  6
CONTINUOUS
 10
89.3595799955
 20
-45.2105470802
 11
89.3753937656
 21
-45.9030802686
  0
LINE
  5
50B
100
AcDbEntity
  8
RACCORDO
100
AcDbLine
 62
250
  6
CONTINUOUS
 10
89.6550760922
 20
-12.7341237687
 11
89.6781635286
 21
-13.7495145654
  0
LINE
  5
50C
100
AcDbEntity
  8
RACCORDO
100
AcDbLine
 62
250
  6
CONTINUOUS
 10
89.3753937656
 20
-45.9030802686
 11
89.3973865693
 21
-46.8781065155
  0
LINE
  5
50D
100
AcDbEntity
  8
RACCORDO
100
AcDbLine
 62
250
  6
CONTINUOUS
 10
89.3973865693
 20
-46.8781065155
 11
89.4109907417
 21
-47.4882366916
  0
LINE
  5
50E
100
AcDbEntity
  8
RACCORDO
100
AcDbLine
 62
250
  6
CONTINUOUS
 10
89.4109907417
 20
-47.4882366916
 11
89.4238292372
 21
-48.0684559319
  0
LINE
  5
50F
100
AcDbEntity
  8
RACCORDO
100
AcDbLine
 62
250
  6
CONTINUOUS
 10
89.4238292372
 20
-48.0684559319
 11
89.4359566263
 21
-48.6204442064
  0
LINE
  5
510
100
AcDbEntity
  8
RACCORDO
100
AcDbLine
 62
250
  6
CONTINUOUS
 10
89.4359566263
 20
-48.6204442064
 11
89.4528504462
 21
-49.3981476053
  0
LINE
  5
511
100
AcDbEntity
  8
RACCORDO
100
AcDbLine
 62
250
  6
CONTINUOUS
 10
89.4528504462
 20
-49.3981476053
 11
89.4682513751
 21
-50.1197236013
  0
LINE
  5
512
100
AcDbEntity
  8
RACCORDO
100
AcDbLine
 62
250
  6
CONTINUOUS
 10
89.4682513751
 20
-50.1197236013
 11
89.4866719895
 21
-51.0013917053
  0
LINE
  5
513
100
AcDbEntity
  8
RACCORDO
100
AcDbLine
 62
250
  6
CONTINUOUS
 10
89.4866719895
 20
-51.0013917053
 11
89.4990616495
 21
-51.6071972028
  0
LWPOLYLINE
  5
514
100
AcDbEntity
  8
RACCORDO
100
AcDbPolyline
 62
250
  6
CONTINUOUS
 90
3
 70
0
 10
89.4990616495
 20
-51.6071972028
 10
89.5103738051
 20
-52.1691973321
 10
89.5139278569
 20
-52.3473916209
  0
LINE
  5
515
100
AcDbEntity
  8
RACCORDO
100
AcDbLine
 62
250
  6
CONTINUOUS
 10
89.6077794704
 20
-57.190638574
 11
89.6088763202
 21
-57.2459094664
  0
LINE
  5
516
100
AcDbEntity
  8
RACCORDO
100
AcDbLine
 62
250
  6
CONTINUOUS
 10
89.5139278569
 20
-52.3473916209
 11
89.5207284163
 21
-52.6906005701
  0
LWPOLYLINE
  5
517
100
AcDbEntity
  8
RACCORDO
100
AcDbPolyline
 62
250
  6
CONTINUOUS
 90
3
 70
0
 10
89.5207284163
 20
-52.6906005701
 10
89.5271559615
 20
-53.0172742662
 10
89.5302326432
 20
-53.1745429705
  0
LWPOLYLINE
  5
518
100
AcDbEntity
  8
RACCORDO
100
AcDbPolyline
 62
250
  6
CONTINUOUS
 90
4
 70
0
 10
89.6031023442
 20
-56.9523969842
 10
89.6043159887
 20
-57.0144976834
 10
89.6054990683
 20
-57.074931322
 10
89.6077794704
 20
-57.190638574
  0
LWPOLYLINE
  5
519
100
AcDbEntity
  8
RACCORDO
100
AcDbPolyline
 62
250
  6
CONTINUOUS
 90
4
 70
0
 10
89.5302326432
 20
-53.1745429705
 10
89.5361454379
 20
-53.4778145913
 10
89.5389793886
 20
-53.623819946
 10
89.5417406801
 20
-53.7662994347
  0
LINE
  5
51A
100
AcDbEntity
  8
RACCORDO
100
AcDbLine
 62
250
  6
CONTINUOUS
 10
89.5951559849
 20
-56.5439927591
 11
89.6031023442
 21
-56.9523969842
  0
LWPOLYLINE
  5
51B
100
AcDbEntity
  8
RACCORDO
100
AcDbPolyline
 62
250
  6
CONTINUOUS
 90
3
 70
0
 10
89.6088763202
 20
-57.2459094664
 10
89.6109226272
 20
-57.3507832137
 10
89.6154827844
 20
-57.581035825
  0
LINE
  5
51C
100
AcDbEntity
  8
RACCORDO
100
AcDbLine
 62
250
  6
CONTINUOUS
 10
89.5417406801
 20
-53.7662994347
 11
89.5520706985
 21
-54.3016470054
  0
LINE
  5
51D
100
AcDbEntity
  8
RACCORDO
100
AcDbLine
 62
250
  6
CONTINUOUS
 10
89.5520706985
 20
-54.3016470054
 11
89.5951559849
 21
-56.5439927591
  0
LINE
  5
51E
100
AcDbEntity
  8
RACCORDO
100
AcDbLine
 62
250
  6
CONTINUOUS
 10
89.4531487428
 20
-2.9746454973
 11
89.6550760922
 21
-12.7341237687
  0
LINE
  5
51F
100
AcDbEntity
  8
RACCORDO
100
AcDbLine
 62
250
  6
CONTINUOUS
 10
89.4246122236
 20
-1.4572297207
 11
89.4531487428
 21
-2.9746454973
  0
LWPOLYLINE
  5
520
100
AcDbEntity
  8
RACCORDO
100
AcDbPolyline
 62
250
  6
CONTINUOUS
 90
4
 70
0
 10
89.6175580115
 20
-57.6628936058
 10
89.6180430686
 20
-57.7026528217
 10
89.6176569374
 20
-57.7417210406
 10
89.6136325345
 20
-57.9344843735
  0
LINE
  5
521
100
AcDbEntity
  8
RACCORDO
100
AcDbLine
 62
250
  6
CONTINUOUS
 10
89.4222425395
 20
-1.2510587782
 11
89.4246122236
 21
-1.4572297207
  0
LINE
  5
522
100
AcDbEntity
  8
RACCORDO
100
AcDbLine
 62
250
  6
CONTINUOUS
 10
89.6128277199
 20
-58.2234429109
 11
89.6136551287
 21
-58.3159984107
  0
LINE
  5
523
100
AcDbEntity
  8
RACCORDO
100
AcDbLine
 62
250
  6
CONTINUOUS
 10
89.4207119582
 20
-1.0150767211
 11
89.4222425395
 21
-1.2510587782
  0
LINE
  5
524
100
AcDbEntity
  8
RACCORDO
100
AcDbLine
 62
250
  6
CONTINUOUS
 10
89.6124810677
 20
-58.135987775
 11
89.6128277199
 21
-58.2234429109
  0
LWPOLYLINE
  5
525
100
AcDbEntity
  8
RACCORDO
100
AcDbPolyline
 62
250
  6
CONTINUOUS
 90
3
 70
0
 10
89.6128238669
 20
-58.012980583
 10
89.612599463
 20
-58.0531924259
 10
89.6124810677
 20
-58.135987775
  0
LINE
  5
526
100
AcDbEntity
  8
RACCORDO
100
AcDbLine
 62
7
  6
CONTINUOUS
 10
92.4742913628
 20
-22.6876947697
 11
91.9733714898
 21
-23.2425888638
  0
LINE
  5
527
100
AcDbEntity
  8
DRAFT
100
AcDbLine
 62
7
  6
CONTINUOUS
 10
92.3194505289
 20
-23.7821441428
 11
91.9688066178
 21
-24.1705700087
  0
LINE
  5
528
100
AcDbEntity
  8
DRAFT
100
AcDbLine
 62
7
  6
CONTINUOUS
 10
92.4737551195
 20
-29.9849458723
 11
92.1231112083
 21
-30.3733717382
  0
LINE
  5
529
100
AcDbEntity
  8
RACCORDO
100
AcDbLine
 62
7
  6
CONTINUOUS
 10
92.496900808
 20
-30.9153661317
 11
92.1462568969
 21
-31.3037919976
  0
LINE
  5
52A
100
AcDbEntity
  8
RACCORDO
100
AcDbLine
 62
7
  6
CONTINUOUS
 10
92.6787449453
 20
-30.9064070612
 11
92.1778250722
 21
-31.4613011554
  0
LWPOLYLINE
  5
52B
100
AcDbEntity
  8
RACCORDO
100
AcDbPolyline
 62
250
  6
CONTINUOUS
 90
10
 70
0
 10
90.0672000812
 20
-29.5764541976
 10
89.9884833739
 20
-29.6512047174
 10
89.8942090551
 20
-29.7184887205
 10
89.7862408598
 20
-29.7769760508
 10
89.6667132413
 20
-29.825510456
 10
89.5379891744
 20
-29.8631324461
 10
89.4026134408
 20
-29.8890982615
 10
89.2632623211
 20
-29.9028945769
 10
89.1226906862
 20
-29.904248649
 10
88.9836775358
 20
-29.8931337089
  0
LINE
  5
52C
100
AcDbEntity
  8
RACCORDO
100
AcDbLine
 62
7
  6
CONTINUOUS
 10
90.7692919917
 20
-26.5681996398
 11
90.8773052051
 21
-30.9101608504
  0
LINE
  5
52D
100
AcDbEntity
  8
DRAFT
100
AcDbLine
 62
7
  6
CONTINUOUS
 10
91.3426852788
 20
-25.8998876122
 11
91.4468408774
 21
-30.0867787796
  0
LINE
  5
52E
100
AcDbEntity
  8
DRAFT
100
AcDbLine
 62
7
  6
CONTINUOUS
 10
92.2971070326
 20
-22.8839707486
 11
92.3194505289
 21
-23.7821441428
  0
LINE
  5
52F
100
AcDbEntity
  8
DRAFT
100
AcDbLine
 62
7
  6
CONTINUOUS
 10
92.4737551195
 20
-29.9849458723
 11
92.496900808
 21
-30.9153661317
  0
LINE
  5
530
100
AcDbEntity
  8
RACCORDO
100
AcDbLine
 62
7
  6
CONTINUOUS
 10
93.2902561862
 20
-55.4881966858
 11
92.6787449453
 21
-30.9064070612
  0
LINE
  5
531
100
AcDbEntity
  8
RACCORDO
100
AcDbLine
 62
7
  6
CONTINUOUS
 10
92.4742913628
 20
-22.6876947697
 11
91.8627801218
 21
1.894094855
  0
LINE
  5
532
100
AcDbEntity
  8
RACCORDO
100
AcDbLine
 62
250
  6
CONTINUOUS
 10
89.6136325345
 20
-57.9344843735
 11
89.6128238669
 21
-58.012980583
  0
LWPOLYLINE
  5
533
100
AcDbEntity
  8
RACCORDO
100
AcDbPolyline
 62
250
  6
CONTINUOUS
 90
8
 70
0
 10
90.8383120151
 20
-58.0003682978
 10
90.8348014285
 20
-58.1837518568
 10
90.8131420508
 20
-58.3652714512
 10
90.7722359752
 20
-58.5430655536
 10
90.7105779606
 20
-58.7164135576
 10
90.6276070365
 20
-58.8816972388
 10
90.525172985
 20
-59.0334524041
 10
90.4196183973
 20
-59.1547940715
  0
LWPOLYLINE
  5
534
100
AcDbEntity
  8
RACCORDO
100
AcDbPolyline
 62
250
  6
CONTINUOUS
 90
15
 70
0
 10
89.613657974
 20
-58.3159935072
 10
89.6091382304
 20
-58.4378533163
 10
89.5923579452
 20
-58.5586425993
 10
89.5625439276
 20
-58.6770762538
 10
89.5187070931
 20
-58.7927706802
 10
89.4604743858
 20
-58.9033827456
 10
89.3890875366
 20
-59.0052143672
 10
89.3058055416
 20
-59.0968003332
 10
89.2107961006
 20
-59.1782847692
 10
89.104665628
 20
-59.2490293209
 10
88.9880833341
 20
-59.3084542247
 10
88.8620096991
 20
-59.3561382019
 10
88.7275062315
 20
-59.3917033949
 10
88.5853892748
 20
-59.4148604584
 10
88.4368406002
 20
-59.4254584427
  0
LINE
  5
535
100
AcDbEntity
  8
RACCORDO
100
AcDbLine
 62
250
  6
CONTINUOUS
 10
90.8383120151
 20
-58.0003682978
 11
93.2902561862
 21
-55.4881966858
  0
LINE
  5
536
100
AcDbEntity
  8
RACCORDO
100
AcDbLine
 62
7
  6
CONTINUOUS
 10
90.4193687809
 20
-59.1550498839
 11
92.8705244062
 21
-56.6436861868
  0
LWPOLYLINE
  5
537
100
AcDbEntity
  8
RACCORDO
100
AcDbPolyline
 62
250
  6
CONTINUOUS
 90
10
 70
0
 10
90.8382426278
 20
-58.0003440148
 10
90.7493832157
 20
-58.0871926773
 10
90.6413635241
 20
-58.1644273467
 10
90.5168479367
 20
-58.2301429736
 10
90.3789077204
 20
-58.2827186339
 10
90.2309452699
 20
-58.3208575098
 10
90.0766101856
 20
-58.3436188762
 10
89.9197092535
 20
-58.3504413045
 10
89.7641125481
 20
-58.3411565111
 10
89.613657974
 20
-58.3159935072
  0
ARC
  5
538
100
AcDbEntity
  8
RACCORDO
100
AcDbCircle
 62
7
  6
CONTINUOUS
 10
-36.4785672437
 20
-7.6074544864
 40
0.2
100
AcDbArc
 50
325.3898293783
 51
1.4513142515
  0
ARC
  5
539
100
AcDbEntity
  8
RACCORDO
100
AcDbCircle
 62
7
  6
CONTINUOUS
 10
-41.4646056006
 20
-5.6419785004
 40
0.2
100
AcDbArc
 50
72.9287850948
 51
137.5682709683
  0
ARC
  5
53A
100
AcDbEntity
  8
RACCORDO
100
AcDbCircle
 62
7
  6
CONTINUOUS
 10
-36.4894546181
 20
-7.1697991681
 40
0.2
100
AcDbArc
 50
1.3462915805
 51
72.9087568557
  0
ARC
  5
53B
100
AcDbEntity
  8
RACCORDO
100
AcDbCircle
 62
7
  6
CONTINUOUS
 10
-16.4385016461
 20
-13.7615644842
 40
0.2
100
AcDbArc
 50
325.3898293783
 51
1.4513142515
  0
ARC
  5
53C
100
AcDbEntity
  8
RACCORDO
100
AcDbCircle
 62
7
  6
CONTINUOUS
 10
-21.4245400029
 20
-11.7960884981
 40
0.2
100
AcDbArc
 50
72.9287850948
 51
137.5682709683
  0
ARC
  5
53D
100
AcDbEntity
  8
RACCORDO
100
AcDbCircle
 62
7
  6
CONTINUOUS
 10
-16.4493890205
 20
-13.3239091658
 40
0.2
100
AcDbArc
 50
1.3462915805
 51
72.9087568557
  0
ARC
  5
53E
100
AcDbEntity
  8
RACCORDO
100
AcDbCircle
 62
7
  6
CONTINUOUS
 10
3.6015639516
 20
-19.9156744819
 40
0.2
100
AcDbArc
 50
325.3898293783
 51
1.4513142515
  0
ARC
  5
53F
100
AcDbEntity
  8
RACCORDO
100
AcDbCircle
 62
7
  6
CONTINUOUS
 10
-1.3844744052
 20
-17.9501984959
 40
0.2
100
AcDbArc
 50
72.9287850948
 51
137.5682709683
  0
ARC
  5
540
100
AcDbEntity
  8
RACCORDO
100
AcDbCircle
 62
7
  6
CONTINUOUS
 10
3.5906765772
 20
-19.4780191635
 40
0.2
100
AcDbArc
 50
1.3462915805
 51
72.9087568557
  0
ARC
  5
541
100
AcDbEntity
  8
RACCORDO
100
AcDbCircle
 62
7
  6
CONTINUOUS
 10
23.6416295492
 20
-26.0697844797
 40
0.2
100
AcDbArc
 50
325.3898293783
 51
1.4513142515
  0
ARC
  5
542
100
AcDbEntity
  8
RACCORDO
100
AcDbCircle
 62
7
  6
CONTINUOUS
 10
18.6555911924
 20
-24.1043084936
 40
0.2
100
AcDbArc
 50
72.9287850948
 51
137.5682709683
  0
ARC
  5
543
100
AcDbEntity
  8
RACCORDO
100
AcDbCircle
 62
7
  6
CONTINUOUS
 10
23.6307421748
 20
-25.6321291613
 40
0.2
100
AcDbArc
 50
1.3462915805
 51
72.9087568557
  0
ARC
  5
544
100
AcDbEntity
  8
RACCORDO
100
AcDbCircle
 62
7
  6
CONTINUOUS
 10
43.6816951469
 20
-32.2238944774
 40
0.2
100
AcDbArc
 50
325.3898293783
 51
1.4513142515
  0
ARC
  5
545
100
AcDbEntity
  8
RACCORDO
100
AcDbCircle
 62
7
  6
CONTINUOUS
 10
38.6956567901
 20
-30.2584184914
 40
0.2
100
AcDbArc
 50
72.9287850948
 51
137.5682709683
  0
ARC
  5
546
100
AcDbEntity
  8
RACCORDO
100
AcDbCircle
 62
7
  6
CONTINUOUS
 10
43.6708077725
 20
-31.786239159
 40
0.2
100
AcDbArc
 50
1.3462915805
 51
72.9087568557
  0
ARC
  5
547
100
AcDbEntity
  8
RACCORDO
100
AcDbCircle
 62
7
  6
CONTINUOUS
 10
-56.4535376942
 20
-1.4427796186
 40
0.15
100
AcDbArc
 50
325.706691543
 51
1.4285363892
  0
ARC
  5
548
100
AcDbEntity
  8
RACCORDO
100
AcDbCircle
 62
7
  6
CONTINUOUS
 10
63.7868558917
 20
-38.3674396051
 40
0.15
100
AcDbArc
 50
325.706691543
 51
1.4285363892
  0
ELLIPSE
  5
549
100
AcDbEntity
  8
RACCORDO
100
AcDbEllipse
 62
7
  6
CONTINUOUS
 10
-61.5298267779
 20
0.7789624987
 30
0.0
 11
0.1505926105
 21
-0.0294362225
 31
0.0
 40
0.2251237175
 41
2.1804824813
 42
2.6517213793
  0
ELLIPSE
  5
54A
100
AcDbEntity
  8
RACCORDO
100
AcDbEllipse
 62
7
  6
CONTINUOUS
 10
-56.4701544081
 20
-0.7748138682
 30
0.0
 11
0.1505926105
 21
-0.0294362225
 31
0.0
 40
0.2251237175
 41
-0.3851515191
 42
0.0498062696
  0
ELLIPSE
  5
54B
100
AcDbEntity
  8
DRAFT
100
AcDbEllipse
 62
7
  6
CONTINUOUS
 10
91.9938811138
 20
-25.1785252898
 30
0.0
 11
0.4304630652
 21
1.2275589336
 31
0.0
 40
0.3985724632
 41
0.76003104
 42
2.3308273668
  0
ELLIPSE
  5
54C
100
AcDbEntity
  8
DRAFT
100
AcDbEllipse
 62
7
  6
CONTINUOUS
 10
92.0980367124
 20
-29.3654164571
 30
0.0
 11
0.4304630652
 21
1.2275589336
 31
0.0
 40
0.3985724632
 41
2.3308273668
 42
3.9016236936
  0
ELLIPSE
  5
54D
100
AcDbEntity
  8
RACCORDO
100
AcDbEllipse
 62
7
  6
CONTINUOUS
 10
92.0980367124
 20
-29.3654164571
 30
0.0
 11
0.8278135869
 21
2.3606902569
 31
0.0
 40
0.3985724632
 41
-3.685656758
 42
-2.3815616136
  0
ELLIPSE
  5
54E
100
AcDbEntity
  8
RACCORDO
100
AcDbEllipse
 62
7
  6
CONTINUOUS
 10
58.710566808
 20
-36.1456974877
 30
0.0
 11
0.1505926105
 21
-0.0294362225
 31
0.0
 40
0.2251237175
 41
2.1804824813
 42
2.6517213793
  0
ELLIPSE
  5
54F
100
AcDbEntity
  8
RACCORDO
100
AcDbEllipse
 62
7
  6
CONTINUOUS
 10
63.7702391779
 20
-37.6994738546
 30
0.0
 11
0.1505926105
 21
-0.0294362225
 31
0.0
 40
0.2251237175
 41
-0.3851515191
 42
0.0498062696
  0
ELLIPSE
  5
550
100
AcDbEntity
  8
RACCORDO
100
AcDbEllipse
 62
7
  6
CONTINUOUS
 10
92.0215916743
 20
-25.1809644043
 30
0.0
 11
0.8278135869
 21
2.3606902569
 31
0.0
 40
0.3985724632
 41
0.76003104
 42
2.3308273668
  0
ELLIPSE
  5
551
100
AcDbEntity
  8
RACCORDO
100
AcDbEllipse
 62
7
  6
CONTINUOUS
 10
-88.939319417
 20
57.410336841
 30
0.0
 11
2.3475766321
 21
-1.8801564348
 31
0.0
 40
0.6836826228
 41
2.0961514176
 42
3.2086948423
  0
ELLIPSE
  5
552
100
AcDbEntity
  8
RACCORDO
100
AcDbEllipse
 62
7
  6
CONTINUOUS
 10
89.1872631656
 20
2.7093890125
 30
0.0
 11
2.3486830781
 21
-1.867365038
 31
0.0
 40
0.686928133
 41
0.5215401104
 42
2.0895973814
  0
ELLIPSE
  5
553
100
AcDbEntity
  8
RACCORDO
100
AcDbEllipse
 62
7
  6
CONTINUOUS
 10
90.6144218087
 20
-54.6601426925
 30
0.0
 11
2.3475766321
 21
-1.8801564348
 31
0.0
 40
0.6836826228
 41
-0.0671028495
 42
0.522616035
  0
ELLIPSE
  5
554
100
AcDbEntity
  8
RACCORDO
100
AcDbEllipse
 62
7
  6
CONTINUOUS
 10
92.1296048877
 20
-29.5229256149
 30
0.0
 11
0.8278135869
 21
2.3606902569
 31
0.0
 40
0.3985724632
 41
2.3308273668
 42
3.9016236936
  0
ENDSEC
  0
SECTION
  2
OBJECTS
  0
DICTIONARY
  5
C
100
AcDbDictionary
280
0
281
1
  3
ACAD_GROUP
350
D
  3
ACAD_MLINESTYLE
350
17
  3
ACAD_LAYOUT
350
1A
  3
ACAD_PLOTSETTINGS
350
19
  3
ACAD_PLOTSTYLENAME
350
E
  0
DICTIONARY
  5
D
102
{ACAD_REACTORS
330
C
102
}
100
AcDbDictionary
280
0
281
1
  0
ACDBDICTIONARYWDFLT
  5
E
102
{ACAD_REACTORS
330
C
102
}
100
AcDbDictionary
281
1
  3
Normal
350
F
100
AcDbDictionaryWithDefault
340
F
  0
DICTIONARY
  5
17
102
{ACAD_REACTORS
330
C
102
}
100
AcDbDictionary
280
0
281
1
  3
Standard
350
18
  0
DICTIONARY
  5
19
102
{ACAD_REACTORS
330
C
102
}
100
AcDbDictionary
281
1
  0
DICTIONARY
  5
1A
102
{ACAD_REACTORS
330
C
102
}
100
AcDbDictionary
281
1
  3
Model
350
555
  3
Layout1
350
556
  0
ACDBPLACEHOLDER
  5
F
102
{ACAD_REACTORS
330
E
102
}
  0
MLINESTYLE
  5
18
102
{ACAD_REACTORS
330
17
102
}
100
AcDbMlineStyle
  2
STANDARD
 70
0
  3

 62
256
 51
90.0
 52
90.0
 71
2
 49
0.5
 62
256
  6
BYLAYER
 49
-0.5
 62
256
  6
BYLAYER
  0
LAYOUT
  5
555
102
{ACAD_REACTORS
330
1A
102
}
100
AcDbPlotSettings
  1

  2
none_device
  4
ISO_A4_(297.00_x_210.00_MM)
  6

 40
0.0
 41
0.0
 42
0.0
 43
0.0
 44
297.0
 45
210.0
 46
0.0
 47
0.0
 48
0.0
 49
0.0
140
0.0
141
0.0
142
1.0
143
1.0
 70
1024
 72
1
 73
0
 74
0
  7

 75
0
147
1.0
148
0.0
149
0.0
100
AcDbLayout
  1
Model
 70
0
 71
0
 10
0.0
 20
0.0
 11
297.0
 21
210.0
 12
0.0
 22
0.0
 32
0.0
 14
0.0
 24
0.0
 34
0.0
 15
0.0
 25
0.0
 35
0.0
146
0.0
 13
0.0
 23
0.0
 33
0.0
 16
1.0
 26
0.0
 36
0.0
 17
0.0
 27
1.0
 37
0.0
 76
0
330
20F
345
0
346
0
  0
LAYOUT
  5
556
102
{ACAD_REACTORS
330
1A
102
}
100
AcDbPlotSettings
  1

  2
none_device
  4
ISO_A4_(297.00_x_210.00_MM)
  6

 40
0.0
 41
0.0
 42
0.0
 43
0.0
 44
297.0
 45
210.0
 46
0.0
 47
0.0
 48
0.0
 49
0.0
140
0.0
141
0.0
142
1.0
143
1.0
 70
0
 72
1
 73
0
 74
0
  7

 75
0
147
1.0
148
0.0
149
0.0
100
AcDbLayout
  1
Layout1
 70
0
 71
1
 10
0.0
 20
0.0
 11
297.0
 21
210.0
 12
0.0
 22
0.0
 32
0.0
 14
0.0
 24
0.0
 34
0.0
 15
0.0
 25
0.0
 35
0.0
146
0.0
 13
0.0
 23
0.0
 33
0.0
 16
1.0
 26
0.0
 36
0.0
 17
0.0
 27
1.0
 37
0.0
 76
0
330
210
345
0
346
0
  0
ENDSEC
  0
EOF
