  0
SECTION
  2
HEADER
  9
$ACADVER
  1
AC1024
  9
$DWGCODEPAGE
  3
ANSI_1252
  9
$EXTMAX
 10
297.0
 20
210.0
 30
0.0
  9
$EXTMIN
 10
0.0
 20
0.0
 30
0.0
  9
$LIMMIN
 10
0.0
 20
0.0
  9
$LIMMAX
 10
297.0
 20
210.0
  9
$VIEWCTR
 10
148.5
 20
105.0
  9
$VIEWSIZE
 40
210.0
  9
$CLAYER
  8
0
  9
$LTSCALE
 40
16.335
  9
$CELTYPE
  6
BYLAYER
  9
$DIMSCALE
 40
1.0
  9
$DIMASZ
 40
3.0
  9
$DIMEXO
 40
0.5
  9
$DIMDLI
 40
11.286
  9
$DIMEXE
 40
1.5
  9
$DIMCEN
 40
2.673
  9
$DIMLFAC
 40
1.0
  9
$DIMBLK
  1
_FILLED
  9
$DIMALT
 70
0
  9
$DIMALTF
 40
0.0393700787
  9
$DIMTXT
 40
3.0
  9
$DIMTOL
 70
1
  9
$DIMLIM
 70
0
  9
$DIMTFAC
 40
1.0
  9
$DIMTP
 40
0.01
  9
$DIMTM
 40
0.01
  9
$DIMGAP
 40
0.625
  9
$DIMDSEP
 70
44
  9
$AUNITS
 70
0
  9
$PDMODE
 70
3
  9
$PDSIZE
 40
3.0
  9
$HANDSEED
  5
3CD
  9
$TILEMODE
 70
1
  9
$MEASUREMENT
 70
1
  9
$INSUNITS
 70
4
  0
ENDSEC
  0
SECTION
  2
CLASSES
  0
CLASS
  1
ACDBDICTIONARYWDFLT
  2
AcDbDictionaryWithDefault
  3
AutoCAD 2000
 90
0
 91
1
280
0
281
0
  0
CLASS
  1
ACDBPLACEHOLDER
  2
AcDbPlaceHolder
  3
AutoCAD 2000
 90
0
 91
1
280
0
281
0
  0
CLASS
  1
LAYOUT
  2
AcDbLayout
  3
AutoCAD 2000
 90
0
 91
0
280
0
281
0
  0
ENDSEC
  0
SECTION
  2
TABLES
  0
TABLE
  2
VPORT
  5
8
100
AcDbSymbolTable
 70
2
  0
VPORT
  5
1F4
100
AcDbSymbolTableRecord
100
AcDbViewportTableRecord
  2
*ACTIVE
 70
0
 10
0.0
 20
0.0
 11
1.0
 21
1.0
 12
148.5
 22
105.0
 13
0.0
 23
0.0
 14
1.0
 24
1.0
 15
0.0
 25
0.0
 16
0.0
 26
0.0
 36
1.0
 17
0.0
 27
0.0
 37
0.0
 40
210.0
 41
1.4142857143
 42
50.0
 43
0.0
 44
0.0
 50
0.0
 51
0.0
 71
0
 72
100
 73
1
 74
1
 75
0
 76
0
 77
0
 78
0
  0
ENDTAB
  0
TABLE
  2
LTYPE
  5
5
100
AcDbSymbolTable
 70
6
  0
LTYPE
  5
14
100
AcDbSymbolTableRecord
100
AcDbLinetypeTableRecord
  2
BYBLOCK
 70
0
  3

 72
65
 73
0
 40
0.0
  0
LTYPE
  5
15
100
AcDbSymbolTableRecord
100
AcDbLinetypeTableRecord
  2
BYLAYER
 70
0
  3

 72
65
 73
0
 40
0.0
  0
LTYPE
  5
16
100
AcDbSymbolTableRecord
100
AcDbLinetypeTableRecord
  2
CONTINUOUS
 70
64
  3
Solid line
 72
65
 73
0
 40
0.0
  0
LTYPE
  5
1F5
100
AcDbSymbolTableRecord
100
AcDbLinetypeTableRecord
  2
CENTER
 70
64
  3
____ _ ____ _ ____ _ ____ _ ____ _ ____ _ ____
 72
65
 73
4
 40
0.6
 49
0.375
 74
0
 49
-0.075
 74
0
 49
0.075
 74
0
 49
-0.075
 74
0
  0
LTYPE
  5
1F6
100
AcDbSymbolTableRecord
100
AcDbLinetypeTableRecord
  2
HIDDEN
 70
64
  3
- - - - - - - - - - - - - - - - - - - -
 72
65
 73
2
 40
0.2
 49
0.1
 74
0
 49
-0.1
 74
0
  0
LTYPE
  5
1F7
100
AcDbSymbolTableRecord
100
AcDbLinetypeTableRecord
  2
PHANTOM
 70
64
  3
_____ _ _ _____ _ _ _____ _ _ _____
 72
65
 73
6
 40
0.8
 49
0.45
 74
0
 49
-0.05
 74
0
 49
0.1
 74
0
 49
-0.05
 74
0
 49
0.1
 74
0
 49
-0.05
 74
0
  0
LTYPE
  5
1F8
100
AcDbSymbolTableRecord
100
AcDbLinetypeTableRecord
  2
DOT
 70
64
  3
. . . . . . . . . . . . . . . . . . . .
 72
65
 73
2
 40
0.2
 49
0.1
 74
0
 49
-0.1
 74
0
  0
LTYPE
  5
1F9
100
AcDbSymbolTableRecord
100
AcDbLinetypeTableRecord
  2
DASHED
 70
64
  3
- - - - - - - - - - - - - - - - - - - -
 72
65
 73
2
 40
0.2
 49
0.1
 74
0
 49
-0.1
 74
0
  0
ENDTAB
  0
TABLE
  2
LAYER
  5
2
100
AcDbSymbolTable
 70
36
  0
LAYER
  5
10
100
AcDbSymbolTableRecord
100
AcDbLayerTableRecord
  2
0
 70
0
 62
7
  6
CONTINUOUS
370
-3
390
F
  0
LAYER
  5
1FA
100
AcDbSymbolTableRecord
100
AcDbLayerTableRecord
  2
DEFAULT_1
 70
0
 62
7
  6
CENTER
370
-3
390
F
  0
LAYER
  5
1FB
100
AcDbSymbolTableRecord
100
AcDbLayerTableRecord
  2
DEFAULT_2
 70
0
 62
7
  6
HIDDEN
370
-3
390
F
  0
LAYER
  5
1FC
100
AcDbSymbolTableRecord
100
AcDbLayerTableRecord
  2
DEFAULT_3
 70
0
 62
7
  6
PHANTOM
370
-3
390
F
  0
LAYER
  5
1FD
100
AcDbSymbolTableRecord
100
AcDbLayerTableRecord
  2
ASSI
 70
0
 62
7
  6
CONTINUOUS
370
-3
390
F
  0
LAYER
  5
1FE
100
AcDbSymbolTableRecord
100
AcDbLayerTableRecord
  2
COLOR16
 70
0
 62
7
  6
CONTINUOUS
370
-3
390
F
  0
LAYER
  5
1FF
100
AcDbSymbolTableRecord
100
AcDbLayerTableRecord
  2
COLOR5
 70
0
 62
7
  6
CONTINUOUS
370
-3
390
F
  0
LAYER
  5
200
100
AcDbSymbolTableRecord
100
AcDbLayerTableRecord
  2
COORDINATE
 70
0
 62
7
  6
CONTINUOUS
370
-3
390
F
  0
LAYER
  5
201
100
AcDbSymbolTableRecord
100
AcDbLayerTableRecord
  2
COORD_ORIGINE
 70
0
 62
7
  6
CONTINUOUS
370
-3
390
F
  0
LAYER
  5
202
100
AcDbSymbolTableRecord
100
AcDbLayerTableRecord
  2
CURVE
 70
0
 62
7
  6
CONTINUOUS
370
-3
390
F
  0
LAYER
  5
203
100
AcDbSymbolTableRecord
100
AcDbLayerTableRecord
  2
DRAFT
 70
0
 62
7
  6
CONTINUOUS
370
-3
390
F
  0
LAYER
  5
204
100
AcDbSymbolTableRecord
100
AcDbLayerTableRecord
  2
ESTRATTORI
 70
0
 62
7
  6
CONTINUOUS
370
-3
390
F
  0
LAYER
  5
205
100
AcDbSymbolTableRecord
100
AcDbLayerTableRecord
  2
IGES
 70
0
 62
7
  6
CONTINUOUS
370
-3
390
F
  0
LAYER
  5
206
100
AcDbSymbolTableRecord
100
AcDbLayerTableRecord
  2
INTF_1
 70
0
 62
7
  6
CONTINUOUS
370
-3
390
F
  0
LAYER
  5
207
100
AcDbSymbolTableRecord
100
AcDbLayerTableRecord
  2
INTF_6
 70
0
 62
7
  6
CONTINUOUS
370
-3
390
F
  0
LAYER
  5
208
100
AcDbSymbolTableRecord
100
AcDbLayerTableRecord
  2
INTF_7
 70
0
 62
7
  6
CONTINUOUS
370
-3
390
F
  0
LAYER
  5
209
100
AcDbSymbolTableRecord
100
AcDbLayerTableRecord
  2
INTF_BLANK
 70
0
 62
7
  6
CONTINUOUS
370
-3
390
F
  0
LAYER
  5
20A
100
AcDbSymbolTableRecord
100
AcDbLayerTableRecord
  2
INTF_RED
 70
0
 62
7
  6
CONTINUOUS
370
-3
390
F
  0
LAYER
  5
20B
100
AcDbSymbolTableRecord
100
AcDbLayerTableRecord
  2
NOTE
 70
0
 62
7
  6
CONTINUOUS
370
-3
390
F
  0
LAYER
  5
20C
100
AcDbSymbolTableRecord
100
AcDbLayerTableRecord
  2
PIANI
 70
0
 62
7
  6
CONTINUOUS
370
-3
390
F
  0
LAYER
  5
20D
100
AcDbSymbolTableRecord
100
AcDbLayerTableRecord
  2
PIANI_ORIGINE
 70
0
 62
7
  6
CONTINUOUS
370
-3
390
F
  0
LAYER
  5
20E
100
AcDbSymbolTableRecord
100
AcDbLayerTableRecord
  2
PLACCA
 70
0
 62
7
  6
CONTINUOUS
370
-3
390
F
  0
LAYER
  5
20F
100
AcDbSymbolTableRecord
100
AcDbLayerTableRecord
  2
PUNTI
 70
0
 62
7
  6
CONTINUOUS
370
-3
390
F
  0
LAYER
  5
210
100
AcDbSymbolTableRecord
100
AcDbLayerTableRecord
  2
RACCORDO
 70
0
 62
7
  6
CONTINUOUS
370
-3
390
F
  0
LAYER
  5
211
100
AcDbSymbolTableRecord
100
AcDbLayerTableRecord
  2
RGB__255__255__255__
 70
0
 62
7
  6
CONTINUOUS
370
-3
390
F
  0
LAYER
  5
212
100
AcDbSymbolTableRecord
100
AcDbLayerTableRecord
  2
RGB____0____0____0__
 70
0
 62
7
  6
CONTINUOUS
370
-3
390
F
  0
LAYER
  5
213
100
AcDbSymbolTableRecord
100
AcDbLayerTableRecord
  2
SMUSSO
 70
0
 62
7
  6
CONTINUOUS
370
-3
390
F
  0
LAYER
  5
214
100
AcDbSymbolTableRecord
100
AcDbLayerTableRecord
  2
SNAPLINE
 70
0
 62
7
  6
CONTINUOUS
370
-3
390
F
  0
LAYER
  5
215
100
AcDbSymbolTableRecord
100
AcDbLayerTableRecord
  2
SUPERFICI
 70
0
 62
7
  6
CONTINUOUS
370
-3
390
F
  0
LAYER
  5
216
100
AcDbSymbolTableRecord
100
AcDbLayerTableRecord
  2
SUPPORTO
 70
0
 62
7
  6
CONTINUOUS
370
-3
390
F
  0
LAYER
  5
217
100
AcDbSymbolTableRecord
100
AcDbLayerTableRecord
  2
TEMP
 70
0
 62
7
  6
CONTINUOUS
370
-3
390
F
  0
LAYER
  5
218
100
AcDbSymbolTableRecord
100
AcDbLayerTableRecord
  2
TRASH
 70
0
 62
7
  6
CONTINUOUS
370
-3
390
F
  0
LAYER
  5
219
100
AcDbSymbolTableRecord
100
AcDbLayerTableRecord
  2
WHITE
 70
0
 62
7
  6
CONTINUOUS
370
-3
390
F
  0
LAYER
  5
21A
100
AcDbSymbolTableRecord
100
AcDbLayerTableRecord
  2
XSEC_DATUMS
 70
0
 62
7
  6
CONTINUOUS
370
-3
390
F
  0
ENDTAB
  0
TABLE
  2
STYLE
  5
3
100
AcDbSymbolTable
 70
1
  0
STYLE
  5
11
100
AcDbSymbolTableRecord
100
AcDbTextStyleTableRecord
  2
STANDARD
 70
0
 40
0.0
 41
0.8
 50
0.0
 71
0
 42
0.2
  3
txt
  4

  0
STYLE
  5
21B
100
AcDbSymbolTableRecord
100
AcDbTextStyleTableRecord
  2
TEXTSTYLE_1
 70
0
 40
0.0
 41
0.8
 50
0.0
 71
0
 42
0.2
  3
gdt
  4

  0
ENDTAB
  0
TABLE
  2
VIEW
  5
6
100
AcDbSymbolTable
 70
0
  0
ENDTAB
  0
TABLE
  2
UCS
  5
7
100
AcDbSymbolTable
 70
0
  0
ENDTAB
  0
TABLE
  2
APPID
  5
9
100
AcDbSymbolTable
 70
1
  0
APPID
  5
21C
100
AcDbSymbolTableRecord
100
AcDbRegAppTableRecord
  2
ACAD
 70
0
  0
ENDTAB
  0
TABLE
  2
BLOCK_RECORD
  5
1
100
AcDbSymbolTable
 70
0
  0
BLOCK_RECORD
  5
21D
100
AcDbSymbolTableRecord
100
AcDbBlockTableRecord
  2
*Model_Space
  0
BLOCK_RECORD
  5
21E
100
AcDbSymbolTableRecord
100
AcDbBlockTableRecord
  2
*Paper_Space
  0
BLOCK_RECORD
  5
21F
100
AcDbSymbolTableRecord
100
AcDbBlockTableRecord
  2
_FILLED
  0
ENDTAB
  0
TABLE
  2
DIMSTYLE
  5
A
100
AcDbSymbolTable
 70
1
100
AcDbDimStyleTable
 71
0
  0
DIMSTYLE
105
220
100
AcDbSymbolTableRecord
100
AcDbDimStyleTableRecord
  2
STANDARD
 70
0
  3

  4

 40
1.0
 41
3.0
 42
0.5
 43
0.38
 44
1.5
 45
0.0
 46
0.0
 47
0.01
 48
0.01
140
3.0
141
0.09
142
0.0
143
25.4
144
1.0
145
0.0
146
1.0
147
0.625
 71
1
 72
0
 73
0
 74
0
 75
0
 76
0
 77
1
 78
8
 79
2
170
0
171
1
172
0
173
0
174
0
175
0
176
0
177
0
178
0
270
2
179
2
271
2
272
2
273
2
274
2
275
0
280
0
281
0
282
0
283
1
284
8
285
0
286
0
287
3
288
0
340
11
278
44
341
21F
342
21F
343
21F
344
21F
  0
ENDTAB
  0
ENDSEC
  0
SECTION
  2
BLOCKS
  0
BLOCK
  5
20
100
AcDbEntity
  8
0
100
AcDbBlockBegin
  2
*Model_Space
 70
0
 10
0.0
 20
0.0
 30
0.0
  3
*Model_Space
  1

  0
ENDBLK
  5
21
100
AcDbEntity
  8
0
100
AcDbBlockEnd
  0
BLOCK
  5
1C
100
AcDbEntity
  8
0
100
AcDbBlockBegin
  2
*Paper_Space
 70
0
 10
0.0
 20
0.0
 30
0.0
  3
*Paper_Space
  1

  0
ENDBLK
  5
1D
100
AcDbEntity
  8
0
100
AcDbBlockEnd
  0
BLOCK
  5
221
100
AcDbEntity
  8
0
100
AcDbBlockBegin
  2
_FILLED
 70
64
 10
0.0
 20
0.0
  3
_FILLED
  1

  0
SOLID
  5
222
100
AcDbEntity
  8
0
  6
BYBLOCK
 62
0
100
AcDbTrace
 10
0.0
 20
0.0
 11
-1.0
 21
0.3166666667
 12
-1.0
 22
-0.3166666667
 13
-1.0
 23
-0.3166666667
  0
ENDBLK
  5
223
100
AcDbEntity
  8
0
  6
BYBLOCK
 62
0
100
AcDbBlockEnd
  0
ENDSEC
  0
SECTION
  2
ENTITIES
  0
LWPOLYLINE
  5
224
100
AcDbEntity
  8
SUPERFICI
100
AcDbPolyline
 62
7
  6
CONTINUOUS
 90
5
 70
0
 10
-94.1764448016
 20
55.2119100698
 10
-94.2750143112
 20
55.0509691696
 10
-94.3575887829
 20
54.8788419068
 10
-94.4231814341
 20
54.6970932931
 10
-94.4456711958
 20
54.6173669373
  0
LINE
  5
225
100
AcDbEntity
  8
SUPERFICI
100
AcDbLine
 62
7
  6
CONTINUOUS
 10
-94.1764448016
 20
55.2119100698
 11
-92.3337288492
 21
57.8963809584
  0
LWPOLYLINE
  5
226
100
AcDbEntity
  8
SUPERFICI
100
AcDbPolyline
 62
7
  6
CONTINUOUS
 90
6
 70
0
 10
-94.4452071329
 20
54.6173332551
 10
-94.4722630557
 20
54.4961199115
 10
-94.4927254133
 20
54.3660234152
 10
-94.5046268495
 20
54.2373880775
 10
-94.5083831912
 20
54.111313211
 10
-94.5069113176
 20
53.9867994123
  0
LINE
  5
227
100
AcDbEntity
  8
SUPERFICI
100
AcDbLine
 62
7
  6
CONTINUOUS
 10
-94.4452071329
 20
54.6173332551
 11
-94.4451856102
 21
54.61741671
  0
LWPOLYLINE
  5
228
100
AcDbEntity
  8
SUPERFICI
100
AcDbPolyline
 62
7
  6
CONTINUOUS
 90
5
 70
0
 10
-93.0810977744
 20
-3.3292198877
 10
-93.073765026
 20
-3.4828289177
 10
-93.0565571434
 20
-3.6410709679
 10
-93.0278900013
 20
-3.7994093275
 10
-92.9986864567
 20
-3.9198736359
  0
LINE
  5
229
100
AcDbEntity
  8
SUPERFICI
100
AcDbLine
 62
7
  6
CONTINUOUS
 10
-94.5069113176
 20
53.9867994123
 11
-93.0980372291
 21
-2.6537120697
  0
LINE
  5
22A
100
AcDbEntity
  8
SUPERFICI
100
AcDbLine
 62
7
  6
CONTINUOUS
 10
-93.0977556164
 20
-2.6542790935
 11
-93.0810977744
 21
-3.3292198877
  0
LINE
  5
22B
100
AcDbEntity
  8
SUPERFICI
100
AcDbLine
 62
7
  6
CONTINUOUS
 10
-93.5652883184
 20
16.0758390818
 11
-93.5652321265
 21
16.0732419045
  0
LWPOLYLINE
  5
22C
100
AcDbEntity
  8
SUPERFICI
100
AcDbPolyline
 62
7
  6
CONTINUOUS
 90
10
 70
0
 10
-77.2710388313
 20
36.0009604945
 10
-77.3022743125
 20
35.928346184
 10
-77.3286915223
 20
35.8504581313
 10
-77.3510661126
 20
35.7679291097
 10
-77.3706180429
 20
35.6816744652
 10
-77.3877168826
 20
35.5920826642
 10
-77.4012480264
 20
35.4985107809
 10
-77.4106342056
 20
35.4005920451
 10
-77.4160694531
 20
35.2984072397
 10
-77.4173880977
 20
35.1918558923
  0
LWPOLYLINE
  5
22D
100
AcDbEntity
  8
SUPERFICI
100
AcDbPolyline
 62
7
  6
CONTINUOUS
 90
39
 70
0
 10
-92.9998130229
 20
-3.9162748278
 10
-92.9617841517
 20
-4.044182649
 10
-92.8964712264
 20
-4.2233541577
 10
-92.8264178252
 20
-4.3822434228
 10
-92.7540820776
 20
-4.5234905626
 10
-92.6791930242
 20
-4.6526625998
 10
-92.6030269448
 20
-4.7707969271
 10
-92.5275451662
 20
-4.87756034
 10
-92.452140597
 20
-4.9758357694
 10
-92.3773429786
 20
-5.0663447803
 10
-92.3040609896
 20
-5.1492048315
 10
-92.2317225198
 20
-5.2260273809
 10
-92.1606596924
 20
-5.2971866481
 10
-92.0913720553
 20
-5.3628329647
 10
-92.0233259959
 20
-5.4240087488
 10
-91.956721329
 20
-5.4809736265
 10
-91.8918440078
 20
-5.5338655769
 10
-91.8281904591
 20
-5.5833625436
 10
-91.7658957925
 20
-5.6295765892
 10
-91.7052382857
 20
-5.6725457276
 10
-91.6458432201
 20
-5.7127529094
 10
-91.5877272355
 20
-5.7503894119
 10
-91.5310471406
 20
-5.7855528752
 10
-91.4755771334
 20
-5.8185684769
 10
-91.4213867937
 20
-5.8495673384
 10
-91.3685377362
 20
-5.8786689358
 10
-91.3167763527
 20
-5.9060909902
 10
-91.2661150218
 20
-5.9318570143
 10
-91.2166199879
 20
-5.9559720698
 10
-91.1681127951
 20
-5.9786018398
 10
-91.1206288579
 20
-5.9998243637
 10
-91.0742208066
 20
-6.0197052676
 10
-91.0287432773
 20
-6.0383858669
 10
-90.9842350702
 20
-6.0559198455
 10
-90.9407320048
 20
-6.0723587446
 10
-90.8980864092
 20
-6.087807415
 10
-90.8561712877
 20
-6.1023006089
 10
-90.8150948102
 20
-6.1158300505
 10
-90.6987396875
 20
-6.1527379088
  0
LINE
  5
22E
100
AcDbEntity
  8
SUPERFICI
100
AcDbLine
 62
7
  6
CONTINUOUS
 10
-92.9986864567
 20
-3.9198736359
 11
-92.9996405841
 21
-3.9163496454
  0
LWPOLYLINE
  5
22F
100
AcDbEntity
  8
SUPERFICI
100
AcDbPolyline
 62
7
  6
CONTINUOUS
 90
18
 70
0
 10
-77.3791080081
 20
33.1200122017
 10
-77.3775956249
 20
33.0208306464
 10
-77.3765073298
 20
32.9704976785
 10
-77.3744139785
 20
32.9137663229
 10
-77.3719192923
 20
32.8548453259
 10
-77.3704146275
 20
32.8013171172
 10
-77.371103592
 20
32.7587270313
 10
-77.3728302887
 20
32.7215500179
 10
-77.3734496845
 20
32.6807646049
 10
-77.3715250501
 20
32.6303843828
 10
-77.368458126
 20
32.576389985
 10
-77.3663692071
 20
32.527709772
 10
-77.3664787942
 20
32.489002341
 10
-77.3676044895
 20
32.4556202634
 10
-77.3682790691
 20
32.4225362226
 10
-77.3677727859
 20
32.3903405584
 10
-77.3668126869
 20
32.3584470866
 10
-77.3660990375
 20
32.3200554931
  0
LINE
  5
230
100
AcDbEntity
  8
SUPERFICI
100
AcDbLine
 62
7
  6
CONTINUOUS
 10
-77.348766221
 20
31.4867694142
 11
-77.337656837
 21
30.7238865839
  0
LWPOLYLINE
  5
231
100
AcDbEntity
  8
SUPERFICI
100
AcDbPolyline
 62
7
  6
CONTINUOUS
 90
6
 70
0
 10
-77.4173880977
 20
35.1918558923
 10
-77.4177436171
 20
34.9760408083
 10
-77.4165555005
 20
34.7613151541
 10
-77.413999802
 20
34.5478541037
 10
-77.4101063201
 20
34.3356457226
 10
-77.4050298637
 20
34.12455489
  0
LWPOLYLINE
  5
232
100
AcDbEntity
  8
SUPERFICI
100
AcDbPolyline
 62
7
  6
CONTINUOUS
 90
7
 70
0
 10
-77.3660990375
 20
32.3200554931
 10
-77.3664191184
 20
32.2126205809
 10
-77.3660462824
 20
32.159028351
 10
-77.364480231
 20
32.1145612808
 10
-77.362280446
 20
32.0734910755
 10
-77.3602429857
 20
32.0285125304
 10
-77.3586266594
 20
31.9771873894
  0
LWPOLYLINE
  5
233
100
AcDbEntity
  8
SUPERFICI
100
AcDbPolyline
 62
7
  6
CONTINUOUS
 90
16
 70
0
 10
-76.2837524687
 20
34.2994707223
 10
-76.2782993902
 20
34.4493273051
 10
-76.2544880808
 20
34.59409164
 10
-76.2124523648
 20
34.731304467
 10
-76.1525996218
 20
34.8580395421
 10
-76.0751044379
 20
34.9725347514
 10
-75.9808462744
 20
35.074429488
 10
-75.8702999346
 20
35.1627418316
 10
-75.7455467407
 20
35.2354353553
 10
-75.6067424122
 20
35.2922404705
 10
-75.4561700988
 20
35.3324476539
 10
-75.2951607442
 20
35.3547251711
 10
-75.1258511779
 20
35.3587761468
 10
-74.951026631
 20
35.3453547442
 10
-74.7739130308
 20
35.3152263864
 10
-74.5974918682
 20
35.269167082
  0
LWPOLYLINE
  5
234
100
AcDbEntity
  8
SUPERFICI
100
AcDbPolyline
 62
7
  6
CONTINUOUS
 90
13
 70
0
 10
-74.5987014764
 20
35.2711044765
 10
-74.6273798945
 20
35.1553921556
 10
-74.6498816375
 20
35.0419324753
 10
-74.6659241295
 20
34.9317246947
 10
-74.6752760691
 20
34.8254767837
 10
-74.6776398495
 20
34.7248537671
 10
-74.6729212298
 20
34.6321582238
 10
-74.6611597334
 20
34.548286084
 10
-74.6424631311
 20
34.4746567706
 10
-74.6174801429
 20
34.4135110093
 10
-74.5867538479
 20
34.3654801356
 10
-74.5507106903
 20
34.3309688198
 10
-74.5312274172
 20
34.3191370496
  0
LINE
  5
235
100
AcDbEntity
  8
SUPERFICI
100
AcDbLine
 62
7
  6
CONTINUOUS
 10
-74.5749265533
 20
34.2379246574
 11
-74.5135768571
 21
34.3010286509
  0
LWPOLYLINE
  5
236
100
AcDbEntity
  8
SUPERFICI
100
AcDbPolyline
 62
7
  6
CONTINUOUS
 90
13
 70
0
 10
-73.6562265727
 20
-0.1631046703
 10
-73.6528081179
 20
-0.1984265374
 10
-73.6442730728
 20
-0.2349158818
 10
-73.6306901004
 20
-0.2719718838
 10
-73.6121958502
 20
-0.3090063637
 10
-73.5890498149
 20
-0.3453397424
 10
-73.5616772891
 20
-0.3802241958
 10
-73.5305028127
 20
-0.4130725981
 10
-73.4960733226
 20
-0.4432679978
 10
-73.4591901026
 20
-0.4701243718
 10
-73.4205940147
 20
-0.4931751696
 10
-73.3808986011
 20
-0.5121229283
 10
-73.3407904626
 20
-0.5266933242
  0
LWPOLYLINE
  5
237
100
AcDbEntity
  8
SUPERFICI
100
AcDbPolyline
 62
7
  6
CONTINUOUS
 90
6
 70
0
 10
-75.4259849317
 20
-0.1814344979
 10
-75.4129349573
 20
-0.3369611766
 10
-75.3814998716
 20
-0.4986606518
 10
-75.3319386498
 20
-0.6639613193
 10
-75.2648114437
 20
-0.8296482095
 10
-75.2297428423
 20
-0.9021982121
  0
LWPOLYLINE
  5
238
100
AcDbEntity
  8
DRAFT
100
AcDbPolyline
 62
7
  6
CONTINUOUS
 90
8
 70
0
 10
-72.9422390189
 20
0.6971005142
 10
-72.9411947543
 20
0.6804716464
 10
-72.9389553104
 20
0.6636820132
 10
-72.9355206871
 20
0.6467316146
 10
-72.930866012
 20
0.6295467006
 10
-72.9250161577
 20
0.6122010211
 10
-72.9180457408
 20
0.5949158264
 10
-72.9099404073
 20
0.5776918913
  0
LWPOLYLINE
  5
239
100
AcDbEntity
  8
DRAFT
100
AcDbPolyline
 62
7
  6
CONTINUOUS
 90
25
 70
0
 10
-72.3672714171
 20
1.4418717886
 10
-72.3661705104
 20
1.4243409517
 10
-72.3638095964
 20
1.4066406293
 10
-72.3601886751
 20
1.3887708214
 10
-72.3552815251
 20
1.3706537776
 10
-72.3491143679
 20
1.3523672483
 10
-72.3417658675
 20
1.3341444846
 10
-72.3332208913
 20
1.3159863033
 10
-72.3234945721
 20
1.2978918875
 10
-72.3127109724
 20
1.2800920378
 10
-72.3008565487
 20
1.2625905276
 10
-72.2879448445
 20
1.2453835836
 10
-72.2741405531
 20
1.2286906862
 10
-72.2594322407
 20
1.2125184204
 10
-72.243831341
 20
1.1968602012
 10
-72.2275368492
 20
1.1819157548
 10
-72.2105398802
 20
1.1676942245
 10
-72.1928493191
 20
1.1541864669
 10
-72.1746908149
 20
1.1415647782
 10
-72.1560583734
 20
1.1298405087
 10
-72.136957989
 20
1.1190023082
 10
-72.1176332936
 20
1.1091884215
 10
-72.098165498
 20
1.1004449305
 10
-72.0784733915
 20
1.0927257534
 10
-72.058556974
 20
1.0860308902
  0
LWPOLYLINE
  5
23A
100
AcDbEntity
  8
DRAFT
100
AcDbPolyline
 62
7
  6
CONTINUOUS
 90
25
 70
0
 10
-72.8498360961
 20
0.8104688187
 10
-72.8488219826
 20
0.794050942
 10
-72.8465915009
 20
0.7773285008
 10
-72.8431542022
 20
0.760373103
 10
-72.8385248058
 20
0.7432573543
 10
-72.8327231352
 20
0.726054547
 10
-72.8257740342
 20
0.7088383461
 10
-72.8177072599
 20
0.691682474
 10
-72.8085573554
 20
0.6746603949
 10
-72.7983635021
 20
0.6578449998
 10
-72.7871693516
 20
0.6413082949
 10
-72.7750228389
 20
0.6251210929
 10
-72.7619759773
 20
0.6093527098
 10
-72.7480846355
 20
0.5940706684
 10
-72.7334082983
 20
0.5793404086
 10
-72.718009812
 20
0.5652250077
 10
-72.7019551154
 20
0.55178491
 10
-72.685312957
 20
0.5390776681
 10
-72.6681546012
 20
0.5271576962
 10
-72.6505535228
 20
0.5160760377
 10
-72.6325850921
 20
0.5058801458
 10
-72.6143262528
 20
0.4966136809
 10
-72.5958551921
 20
0.4883163234
 10
-72.5772510058
 20
0.481023604
 10
-72.55859336
 20
0.474766751
  0
LWPOLYLINE
  5
23B
100
AcDbEntity
  8
SUPERFICI
100
AcDbPolyline
 62
7
  6
CONTINUOUS
 90
5
 70
0
 10
-76.5602946446
 20
0.7380477813
 10
-76.5713576268
 20
0.9526558545
 10
-76.5808036875
 20
1.1654073941
 10
-76.5888034688
 20
1.376260022
 10
-76.5953855424
 20
1.5851524844
  0
LWPOLYLINE
  5
23C
100
AcDbEntity
  8
SUPERFICI
100
AcDbPolyline
 62
7
  6
CONTINUOUS
 90
7
 70
0
 10
-76.6566229799
 20
3.6799327361
 10
-76.6589111565
 20
3.733309021
 10
-76.6595306254
 20
3.7766964285
 10
-76.6593360034
 20
3.8162306211
 10
-76.6595011292
 20
3.859792574
 10
-76.6604107696
 20
3.9100073187
 10
-76.6632719029
 20
4.0225051419
  0
LINE
  5
23D
100
AcDbEntity
  8
SUPERFICI
100
AcDbLine
 62
7
  6
CONTINUOUS
 10
-76.6809380607
 20
4.581359293
 11
-76.7014862318
 21
5.1508293182
  0
LINE
  5
23E
100
AcDbEntity
  8
SUPERFICI
100
AcDbLine
 62
7
  6
CONTINUOUS
 10
-76.6632719029
 20
4.0225051419
 11
-76.6809380607
 21
4.581359293
  0
LWPOLYLINE
  5
23F
100
AcDbEntity
  8
SUPERFICI
100
AcDbPolyline
 62
7
  6
CONTINUOUS
 90
18
 70
0
 10
-76.6189579194
 20
2.6059399467
 10
-76.6291486125
 20
2.9278532711
 10
-76.6298446894
 20
2.9832525404
 10
-76.6302410033
 20
3.040545198
 10
-76.6313761351
 20
3.0931326612
 10
-76.6341991058
 20
3.1363262619
 10
-76.6378085884
 20
3.1748342811
 10
-76.6404704907
 20
3.2161544152
 10
-76.6410204999
 20
3.265250972
 10
-76.6405876016
 20
3.3171402674
 10
-76.6408854235
 20
3.364403279
 10
-76.6429243361
 20
3.4032516963
 10
-76.6457322496
 20
3.4374921456
 10
-76.6480660689
 20
3.4711069265
 10
-76.6491536545
 20
3.5029822803
 10
-76.6497642365
 20
3.5342277131
 10
-76.6509491133
 20
3.5721538872
 10
-76.6566229799
 20
3.6799327361
  0
LWPOLYLINE
  5
240
100
AcDbEntity
  8
SUPERFICI
100
AcDbPolyline
 62
7
  6
CONTINUOUS
 90
3
 70
0
 10
-77.4050298637
 20
34.12455489
 10
-77.3872142724
 20
33.4991124488
 10
-77.3824053728
 20
33.2953265289
  0
LINE
  5
241
100
AcDbEntity
  8
SUPERFICI
100
AcDbLine
 62
7
  6
CONTINUOUS
 10
-76.7014862318
 20
5.1508293182
 11
-76.7184883483
 21
5.7294308499
  0
LINE
  5
242
100
AcDbEntity
  8
SUPERFICI
100
AcDbLine
 62
7
  6
CONTINUOUS
 10
-76.7347419757
 20
6.3684582855
 11
-76.8011584285
 21
8.660114718
  0
LINE
  5
243
100
AcDbEntity
  8
SUPERFICI
100
AcDbLine
 62
7
  6
CONTINUOUS
 10
-76.6136954297
 20
2.4048721682
 11
-76.6189579119
 21
2.6059399466
  0
LINE
  5
244
100
AcDbEntity
  8
SUPERFICI
100
AcDbLine
 62
7
  6
CONTINUOUS
 10
-76.7184883352
 20
5.7294308427
 11
-76.7347419757
 21
6.3684582855
  0
LINE
  5
245
100
AcDbEntity
  8
0
100
AcDbLine
 62
7
  6
CONTINUOUS
 10
-73.4104730333
 20
0.1321693877
 11
-74.2587952478
 21
34.2333875081
  0
LINE
  5
246
100
AcDbEntity
  8
0
100
AcDbLine
 62
7
  6
CONTINUOUS
 10
-73.002909178
 20
0.7157317323
 11
-73.8334647084
 21
34.1027571102
  0
LINE
  5
247
100
AcDbEntity
  8
0
100
AcDbLine
 62
7
  6
CONTINUOUS
 10
-73.7727944939
 20
34.0841236627
 11
-73.4191343701
 21
19.8675432001
  0
LINE
  5
248
100
AcDbEntity
  8
0
100
AcDbLine
 62
7
  6
CONTINUOUS
 10
-73.322694001
 20
15.9907921191
 11
-72.9422390189
 21
0.6971005142
  0
LINE
  5
249
100
AcDbEntity
  8
0
100
AcDbLine
 62
7
  6
CONTINUOUS
 10
-72.8498360961
 20
0.8104688187
 11
-73.2302910782
 21
16.1041604236
  0
LINE
  5
24A
100
AcDbEntity
  8
0
100
AcDbLine
 62
7
  6
CONTINUOUS
 10
-73.3267314473
 20
19.9809115045
 11
-73.6768382219
 21
34.0546529222
  0
LINE
  5
24B
100
AcDbEntity
  8
0
100
AcDbLine
 62
7
  6
CONTINUOUS
 10
-73.1747301459
 20
33.9004420868
 11
-72.8441667683
 21
20.6123144744
  0
LINE
  5
24C
100
AcDbEntity
  8
0
100
AcDbLine
 62
7
  6
CONTINUOUS
 10
-72.7477263992
 20
16.7355633935
 11
-72.3672714171
 21
1.4418717886
  0
LINE
  5
24D
100
AcDbEntity
  8
SUPERFICI
100
AcDbLine
 62
7
  6
CONTINUOUS
 10
-75.4265765781
 20
-0.1821759134
 11
-76.2843441151
 21
34.2987293068
  0
LINE
  5
24E
100
AcDbEntity
  8
SUPERFICI
100
AcDbLine
 62
7
  6
CONTINUOUS
 10
-77.3301108625
 20
30.3359028577
 11
-77.3027287449
 21
29.1710064089
  0
LINE
  5
24F
100
AcDbEntity
  8
SUPERFICI
100
AcDbLine
 62
7
  6
CONTINUOUS
 10
-77.3586266594
 20
31.9771873894
 11
-77.3558436901
 21
31.862801171
  0
LINE
  5
250
100
AcDbEntity
  8
SUPERFICI
100
AcDbLine
 62
7
  6
CONTINUOUS
 10
-76.5953855424
 20
1.5851524844
 11
-76.6136954297
 21
2.4048721682
  0
LINE
  5
251
100
AcDbEntity
  8
SUPERFICI
100
AcDbLine
 62
7
  6
CONTINUOUS
 10
-77.3027287449
 20
29.1710064089
 11
-77.2620993021
 21
27.1892125058
  0
LINE
  5
252
100
AcDbEntity
  8
SUPERFICI
100
AcDbLine
 62
7
  6
CONTINUOUS
 10
-77.3824053804
 20
33.2953265344
 11
-77.3791080081
 21
33.1200122017
  0
LINE
  5
253
100
AcDbEntity
  8
SUPERFICI
100
AcDbLine
 62
7
  6
CONTINUOUS
 10
-77.3558436901
 20
31.862801171
 11
-77.348766221
 21
31.4867694142
  0
LINE
  5
254
100
AcDbEntity
  8
SUPERFICI
100
AcDbLine
 62
7
  6
CONTINUOUS
 10
-77.337656837
 20
30.7238865839
 11
-77.3301108625
 21
30.3359028577
  0
LINE
  5
255
100
AcDbEntity
  8
0
100
AcDbLine
 62
7
  6
CONTINUOUS
 10
-73.3267314473
 20
19.9809115045
 11
-72.8441667683
 21
20.6123144744
  0
LINE
  5
256
100
AcDbEntity
  8
0
100
AcDbLine
 62
7
  6
CONTINUOUS
 10
-73.3267314473
 20
19.9809115045
 11
-73.4191343701
 21
19.8675432001
  0
LWPOLYLINE
  5
257
100
AcDbEntity
  8
SUPERFICI
100
AcDbPolyline
 62
7
  6
CONTINUOUS
 90
10
 70
0
 10
-76.6576089841
 20
36.726364352
 10
-76.751718385
 20
36.660797419
 10
-76.8393319287
 20
36.5915959517
 10
-76.920143969
 20
36.5185968563
 10
-76.9938462419
 20
36.4420651929
 10
-77.0610006626
 20
36.3621722959
 10
-77.1222393748
 20
36.2783076842
 10
-77.1775580923
 20
36.1896344331
 10
-77.2270460747
 20
36.0969256329
 10
-77.2710388311
 20
36.0009604944
  0
LWPOLYLINE
  5
258
100
AcDbEntity
  8
SUPERFICI
100
AcDbPolyline
 62
7
  6
CONTINUOUS
 90
10
 70
0
 10
-76.3712043321
 20
-0.1709704099
 10
-76.4066014836
 20
-0.076292124
 10
-76.4373538045
 20
0.0200844686
 10
-76.4642203885
 20
0.1181265248
 10
-76.4883989507
 20
0.2178552023
 10
-76.5102471325
 20
0.3191794805
 10
-76.5286614048
 20
0.4219016758
 10
-76.5430715597
 20
0.5259388613
 10
-76.5536706329
 20
0.63133172
 10
-76.5602946446
 20
0.7380477813
  0
LINE
  5
259
100
AcDbEntity
  8
0
100
AcDbLine
 62
7
  6
CONTINUOUS
 10
-64.9554089896
 20
-2.0031847942
 11
-64.9540951348
 21
-2.0559996898
  0
LINE
  5
25A
100
AcDbEntity
  8
RACCORDO
100
AcDbLine
 62
7
  6
CONTINUOUS
 10
-64.3404845198
 20
-2.2444335651
 11
-64.3645578969
 21
-1.2767216872
  0
LINE
  5
25B
100
AcDbEntity
  8
0
100
AcDbLine
 62
7
  6
CONTINUOUS
 10
-72.7477263992
 20
16.7355633935
 11
-73.2302910782
 21
16.1041604236
  0
LINE
  5
25C
100
AcDbEntity
  8
0
100
AcDbLine
 62
7
  6
CONTINUOUS
 10
-73.2302910782
 20
16.1041604236
 11
-73.322694001
 21
15.9907921191
  0
LWPOLYLINE
  5
25D
100
AcDbEntity
  8
SUPERFICI
100
AcDbPolyline
 62
7
  6
CONTINUOUS
 90
10
 70
0
 10
-76.3529493401
 20
36.8828638694
 10
-76.3901143059
 20
36.8674424009
 10
-76.4264505253
 20
36.8514150382
 10
-76.4619617112
 20
36.8348586902
 10
-76.4966271904
 20
36.8178678902
 10
-76.5304761502
 20
36.8004956706
 10
-76.5635528182
 20
36.7826998265
 10
-76.5958210269
 20
36.7644274946
 10
-76.627195054
 20
36.7456625523
 10
-76.6576141778
 20
36.7263692188
  0
LWPOLYLINE
  5
25E
100
AcDbEntity
  8
SUPERFICI
100
AcDbPolyline
 62
7
  6
CONTINUOUS
 90
10
 70
0
 10
-75.2297428423
 20
-0.9021982121
 10
-75.1803836947
 20
-0.993831209
 10
-75.079566525
 20
-1.1555982037
 10
-74.962891375
 20
-1.3136543833
 10
-74.8325737126
 20
-1.4646437373
 10
-74.6887851613
 20
-1.6081965375
 10
-74.5338796146
 20
-1.7421785123
 10
-74.3692754093
 20
-1.8644083363
 10
-74.19715709
 20
-1.9732648106
 10
-74.1759556428
 20
-1.9854843863
  0
LWPOLYLINE
  5
25F
100
AcDbEntity
  8
DRAFT
100
AcDbPolyline
 62
7
  6
CONTINUOUS
 90
4
 70
0
 10
-72.9099404073
 20
0.5776918913
 10
-72.9007145114
 20
0.560528441
 10
-72.8904857326
 20
0.5436444013
 10
-72.879241224
 20
0.5270433513
  0
LWPOLYLINE
  5
260
100
AcDbEntity
  8
SUPERFICI
100
AcDbPolyline
 62
7
  6
CONTINUOUS
 90
15
 70
0
 10
-75.6244451245
 20
7.7938449773
 10
-75.6304454018
 20
7.8083912763
 10
-75.6356365137
 20
7.8212003427
 10
-75.6414829806
 20
7.8320330484
 10
-75.6475852867
 20
7.8415183763
 10
-75.6539719131
 20
7.8503409063
 10
-75.6606058084
 20
7.8592027016
 10
-75.667429744
 20
7.8681727292
 10
-75.6745454036
 20
7.8773718606
 10
-75.6820131087
 20
7.8868953509
 10
-75.6898550533
 20
7.8967494692
 10
-75.6980649073
 20
7.9069120801
 10
-75.7066633615
 20
7.9174328795
 10
-75.7156521602
 20
7.9282719579
 10
-75.7451764438
 20
7.9632839046
  0
LINE
  5
261
100
AcDbEntity
  8
0
100
AcDbLine
 62
7
  6
CONTINUOUS
 10
-60.5007472242
 20
-3.4235796893
 11
-60.502061079
 21
-3.3707647937
  0
LINE
  5
262
100
AcDbEntity
  8
RACCORDO
100
AcDbLine
 62
7
  6
CONTINUOUS
 10
-57.236406381
 20
-2.8484335586
 11
-57.2577015492
 21
-1.9924013059
  0
LINE
  5
263
100
AcDbEntity
  8
0
100
AcDbLine
 62
7
  6
CONTINUOUS
 10
-58.06185525
 20
-3.2122206098
 11
-58.0337034826
 21
-3.1136932049
  0
LINE
  5
264
100
AcDbEntity
  8
0
100
AcDbLine
 62
7
  6
CONTINUOUS
 10
-57.8881629264
 20
-3.025748748
 11
-57.829921561
 21
-2.8219117916
  0
LINE
  5
265
100
AcDbEntity
  8
0
100
AcDbLine
 62
7
  6
CONTINUOUS
 10
-57.6843810047
 20
-2.7339673348
 11
-57.6261396393
 21
-2.5301303784
  0
LINE
  5
266
100
AcDbEntity
  8
0
100
AcDbLine
 62
7
  6
CONTINUOUS
 10
-57.4805990831
 20
-2.4421859215
 11
-57.4223577177
 21
-2.2383489651
  0
LINE
  5
267
100
AcDbEntity
  8
0
100
AcDbLine
 62
7
  6
CONTINUOUS
 10
-64.1271887427
 20
-2.1637811695
 11
-64.0579109546
 21
-1.9724391868
  0
LINE
  5
268
100
AcDbEntity
  8
0
100
AcDbLine
 62
7
  6
CONTINUOUS
 10
-63.8767288062
 20
-1.8863341224
 11
-63.8074510181
 21
-1.6949921397
  0
LINE
  5
269
100
AcDbEntity
  8
0
100
AcDbLine
 62
7
  6
CONTINUOUS
 10
-63.6262688697
 20
-1.6088870753
 11
-63.5569910816
 21
-1.4175450926
  0
LINE
  5
26A
100
AcDbEntity
  8
0
100
AcDbLine
 62
7
  6
CONTINUOUS
 10
-63.3758089331
 20
-1.3314400282
 11
-63.3065311451
 21
-1.1400980455
  0
LINE
  5
26B
100
AcDbEntity
  8
0
100
AcDbLine
 62
7
  6
CONTINUOUS
 10
-63.1253489966
 20
-1.0539929811
 11
-63.0560712086
 21
-0.8626509984
  0
LINE
  5
26C
100
AcDbEntity
  8
0
100
AcDbLine
 62
7
  6
CONTINUOUS
 10
-62.8748890601
 20
-0.776545934
 11
-62.8056112721
 21
-0.5852039513
  0
LWPOLYLINE
  5
26D
100
AcDbEntity
  8
SUPERFICI
100
AcDbPolyline
 62
7
  6
CONTINUOUS
 90
19
 70
0
 10
-73.3407915864
 20
-0.5266929419
 10
-73.3957607955
 20
-0.6022231635
 10
-73.4491587745
 20
-0.6874318635
 10
-73.5005077084
 20
-0.7817364597
 10
-73.5494668009
 20
-0.8847870861
 10
-73.5952547416
 20
-0.9952677652
 10
-73.6368189774
 20
-1.1107265364
 10
-73.6737576362
 20
-1.2300590665
 10
-73.7054381043
 20
-1.3514272532
 10
-73.7309034465
 20
-1.4709767804
 10
-73.7499171062
 20
-1.5869073911
 10
-73.7623350985
 20
-1.6979114115
 10
-73.7679419015
 20
-1.8011717334
 10
-73.7668609133
 20
-1.895165565
 10
-73.7592621291
 20
-1.9794472456
 10
-73.7452961535
 20
-2.0532496749
 10
-73.7251337732
 20
-2.1159383921
 10
-73.6989672227
 20
-2.167007356
 10
-73.6670067844
 20
-2.2060807132
  0
LWPOLYLINE
  5
26E
100
AcDbEntity
  8
SUPERFICI
100
AcDbPolyline
 62
7
  6
CONTINUOUS
 90
19
 70
0
 10
-73.6562265237
 20
-0.1631056399
 10
-73.7188140412
 20
-0.2299592198
 10
-73.7929983463
 20
-0.2912636559
 10
-73.8783223727
 20
-0.346417624
 10
-73.9745367697
 20
-0.3949726865
 10
-74.0804853139
 20
-0.436055972
 10
-74.1938418259
 20
-0.4686989446
 10
-74.3135285417
 20
-0.4925835614
 10
-74.437747217
 20
-0.5072419664
 10
-74.562565632
 20
-0.5122913386
 10
-74.686058028
 20
-0.507893614
 10
-74.8068126241
 20
-0.494211341
 10
-74.9217467263
 20
-0.4717496003
 10
-75.0290924046
 20
-0.4411693111
 10
-75.1282668438
 20
-0.4028816429
 10
-75.2183270048
 20
-0.3573685514
 10
-75.2984783897
 20
-0.3051038547
 10
-75.3680675698
 20
-0.2465538226
 10
-75.4265765781
 20
-0.1821759134
  0
LWPOLYLINE
  5
26F
100
AcDbEntity
  8
SUPERFICI
100
AcDbPolyline
 62
7
  6
CONTINUOUS
 90
10
 70
0
 10
-75.3935818401
 20
-1.6821999903
 10
-75.4321364632
 20
-1.6417594205
 10
-75.4698792621
 20
-1.6012444989
 10
-75.506810393
 20
-1.5607212971
 10
-75.5429043431
 20
-1.5202898149
 10
-75.5781883224
 20
-1.4799765082
 10
-75.61270928
 20
-1.4397141815
 10
-75.6464327336
 20
-1.3994879572
 10
-75.6792719894
 20
-1.359353011
 10
-75.7111667466
 20
-1.3193282039
  0
LWPOLYLINE
  5
270
100
AcDbEntity
  8
SUPERFICI
100
AcDbPolyline
 62
7
  6
CONTINUOUS
 90
10
 70
0
 10
-75.7111616964
 20
-1.3193273029
 10
-75.8101342979
 20
-1.1894012228
 10
-75.9026897427
 20
-1.0599460453
 10
-75.9885205057
 20
-0.9312003832
 10
-76.0672962525
 20
-0.8037863791
 10
-76.139579403
 20
-0.6775124083
 10
-76.2060425885
 20
-0.5513614174
 10
-76.2667214379
 20
-0.4245657993
 10
-76.3216725927
 20
-0.2976636654
 10
-76.371204332
 20
-0.1709704099
  0
LWPOLYLINE
  5
271
100
AcDbEntity
  8
DRAFT
100
AcDbPolyline
 62
7
  6
CONTINUOUS
 90
7
 70
0
 10
-72.879241224
 20
0.5270433513
 10
-72.8669938326
 20
0.5107217119
 10
-72.8538997779
 20
0.4948876713
 10
-72.8399482145
 20
0.4795474755
 10
-72.8251499879
 20
0.4646948785
 10
-72.8096938546
 20
0.4505193303
 10
-72.7935713871
 20
0.4370295038
  0
LWPOLYLINE
  5
272
100
AcDbEntity
  8
RACCORDO
100
AcDbPolyline
 62
7
  6
CONTINUOUS
 90
5
 70
0
 10
-57.2577039438
 20
-1.9923052283
 10
-57.2582264456
 20
-1.9891623338
 10
-57.260292236
 20
-1.9858014202
 10
-57.2637757857
 20
-1.983612191
 10
-57.2645081151
 20
-1.9833756915
  0
LINE
  5
273
100
AcDbEntity
  8
SUPERFICI
100
AcDbLine
 62
7
  6
CONTINUOUS
 10
-42.0377093716
 20
35.9109062846
 11
-42.1346252064
 21
35.0431257885
  0
LINE
  5
274
100
AcDbEntity
  8
RACCORDO
100
AcDbLine
 62
7
  6
CONTINUOUS
 10
-57.2797103725
 20
-2.0341019758
 11
-57.4223577177
 21
-2.2383489651
  0
LINE
  5
275
100
AcDbEntity
  8
0
100
AcDbLine
 62
7
  6
CONTINUOUS
 10
-57.5446268707
 20
-2.4134178131
 11
-57.6261396393
 21
-2.5301303784
  0
LINE
  5
276
100
AcDbEntity
  8
0
100
AcDbLine
 62
7
  6
CONTINUOUS
 10
-57.7484087923
 20
-2.7051992263
 11
-57.829921561
 21
-2.8219117916
  0
LINE
  5
277
100
AcDbEntity
  8
0
100
AcDbLine
 62
7
  6
CONTINUOUS
 10
-57.9521907139
 20
-2.9969806396
 11
-58.0337034826
 21
-3.1136932049
  0
LINE
  5
278
100
AcDbEntity
  8
0
100
AcDbLine
 62
7
  6
CONTINUOUS
 10
-64.8645942829
 20
-1.8879858264
 11
-64.9554089896
 21
-2.0031847942
  0
LINE
  5
279
100
AcDbEntity
  8
0
100
AcDbLine
 62
7
  6
CONTINUOUS
 10
-64.8645942829
 20
-1.8879858264
 11
-64.3645578969
 21
-1.2767216872
  0
LINE
  5
27A
100
AcDbEntity
  8
RACCORDO
100
AcDbLine
 62
7
  6
CONTINUOUS
 10
-62.6302893165
 20
-0.3909910183
 11
-62.8056112721
 21
-0.5852039513
  0
LINE
  5
27B
100
AcDbEntity
  8
0
100
AcDbLine
 62
7
  6
CONTINUOUS
 10
-62.955887234
 20
-0.7516721796
 11
-63.0560712086
 21
-0.8626509984
  0
LINE
  5
27C
100
AcDbEntity
  8
0
100
AcDbLine
 62
7
  6
CONTINUOUS
 10
-63.2063471705
 20
-1.0291192267
 11
-63.3065311451
 21
-1.1400980455
  0
LINE
  5
27D
100
AcDbEntity
  8
0
100
AcDbLine
 62
7
  6
CONTINUOUS
 10
-63.456807107
 20
-1.3065662737
 11
-63.5569910816
 21
-1.4175450926
  0
LINE
  5
27E
100
AcDbEntity
  8
0
100
AcDbLine
 62
7
  6
CONTINUOUS
 10
-63.7072670435
 20
-1.5840133208
 11
-63.8074510181
 21
-1.6949921397
  0
LINE
  5
27F
100
AcDbEntity
  8
0
100
AcDbLine
 62
7
  6
CONTINUOUS
 10
-63.95772698
 20
-1.8614603679
 11
-64.0579109546
 21
-1.9724391868
  0
LINE
  5
280
100
AcDbEntity
  8
0
100
AcDbLine
 62
7
  6
CONTINUOUS
 10
-64.2081869165
 20
-2.138907415
 11
-64.3083708911
 21
-2.2498862339
  0
LWPOLYLINE
  5
281
100
AcDbEntity
  8
SUPERFICI
100
AcDbPolyline
 62
7
  6
CONTINUOUS
 90
14
 70
0
 10
68.1036970989
 20
-44.2580093401
 10
67.984357019
 20
-44.2686127885
 10
67.8650880167
 20
-44.2697972073
 10
67.746901424
 20
-44.2614140303
 10
67.6304966931
 20
-44.2433059304
 10
67.5176316541
 20
-44.2155076692
 10
67.4108693585
 20
-44.1785893136
 10
67.31123438
 20
-44.1328989718
 10
67.2203562797
 20
-44.0790550614
 10
67.1410101976
 20
-44.018814851
 10
67.074122674
 20
-43.9532614109
 10
67.0203173869
 20
-43.883215981
 10
66.9807729854
 20
-43.8105650683
 10
66.9596048366
 20
-43.7516055428
  0
LWPOLYLINE
  5
282
100
AcDbEntity
  8
SUPERFICI
100
AcDbPolyline
 62
7
  6
CONTINUOUS
 90
36
 70
0
 10
-75.7789683946
 20
8.0027687596
 10
-75.7912737533
 20
8.0169702421
 10
-75.8041473092
 20
8.0315382862
 10
-75.8176045758
 20
8.0464616013
 10
-75.8316668248
 20
8.0617290705
 10
-75.8463818406
 20
8.0772149774
 10
-75.8617666796
 20
8.0928242051
 10
-75.8778430676
 20
8.1086312464
 10
-75.8946692311
 20
8.1247633075
 10
-75.9122654546
 20
8.1412466612
 10
-75.9306542598
 20
8.1580334433
 10
-75.949901935
 20
8.1751373873
 10
-75.9700314944
 20
8.1925409719
 10
-75.9910696265
 20
8.2102388147
 10
-76.0130936482
 20
8.2282604125
 10
-76.0361301984
 20
8.2465993873
 10
-76.0602096248
 20
8.2652391132
 10
-76.0854209661
 20
8.284191099
 10
-76.1117939789
 20
8.3034500286
 10
-76.1393629774
 20
8.3229983283
 10
-76.1682305092
 20
8.3428261299
 10
-76.1984287791
 20
8.3629292128
 10
-76.2299957984
 20
8.3832882639
 10
-76.2630503847
 20
8.4038668537
 10
-76.2976270208
 20
8.4246503963
 10
-76.3337683394
 20
8.4456286314
 10
-76.3716144896
 20
8.4667701388
 10
-76.4112056063
 20
8.4881037425
 10
-76.4525871318
 20
8.5095890731
 10
-76.4959172752
 20
8.5310877812
 10
-76.5412310413
 20
8.5525644855
 10
-76.5885860649
 20
8.5740514194
 10
-76.6381864579
 20
8.5955077588
 10
-76.6901375128
 20
8.6169214483
 10
-76.7444371459
 20
8.6383141335
 10
-76.8011339598
 20
8.6596971171
  0
LINE
  5
283
100
AcDbEntity
  8
SUPERFICI
100
AcDbLine
 62
7
  6
CONTINUOUS
 10
-75.7451764438
 20
7.9632839046
 11
-75.7789683946
 21
8.0027687596
  0
LWPOLYLINE
  5
284
100
AcDbEntity
  8
SUPERFICI
100
AcDbPolyline
 62
7
  6
CONTINUOUS
 90
49
 70
0
 10
-76.1210033376
 20
26.3664589063
 10
-76.1278981399
 20
26.3782776592
 10
-76.1350829195
 20
26.3902553067
 10
-76.1426170269
 20
26.4024480639
 10
-76.1505231947
 20
26.4148838532
 10
-76.1587950142
 20
26.4275373814
 10
-76.1674513688
 20
26.4403856851
 10
-76.1764954611
 20
26.4534474811
 10
-76.1859397
 20
26.4667059054
 10
-76.1958189304
 20
26.4800852691
 10
-76.2061468411
 20
26.4935685036
 10
-76.2169311765
 20
26.5071736929
 10
-76.2282034258
 20
26.5208778168
 10
-76.2399776989
 20
26.5346173554
 10
-76.2522739433
 20
26.5484524587
 10
-76.2651356467
 20
26.5625440515
 10
-76.2785783239
 20
26.5768808984
 10
-76.2926235518
 20
26.5914641412
 10
-76.3073266395
 20
26.6064705586
 10
-76.3227088768
 20
26.6219752007
 10
-76.3387878128
 20
26.6378846721
 10
-76.3556165588
 20
26.6541205457
 10
-76.3732134209
 20
26.670629569
 10
-76.3916027854
 20
26.6874388349
 10
-76.4108515728
 20
26.7045874845
 10
-76.4309828816
 20
26.7220613951
 10
-76.4520229803
 20
26.7398382907
 10
-76.4740490176
 20
26.7579409153
 10
-76.4970869774
 20
26.7763365482
 10
-76.5211671709
 20
26.7950071127
 10
-76.5463793218
 20
26.8139916436
 10
-76.5727522419
 20
26.833246848
 10
-76.6003200392
 20
26.8527468586
 10
-76.6291869434
 20
26.8725494344
 10
-76.6593838619
 20
26.8925981884
 10
-76.6909484058
 20
26.9128577344
 10
-76.7240022801
 20
26.9334077025
 10
-76.7585787949
 20
26.954186372
 10
-76.794719357
 20
26.9751341962
 10
-76.8325665574
 20
26.9963179198
 10
-76.8721567363
 20
27.017613824
 10
-76.9135350812
 20
27.0389712982
 10
-76.9568671459
 20
27.0605472426
 10
-77.0021865714
 20
27.0822514446
 10
-77.0495466345
 20
27.1039409589
 10
-77.0991537321
 20
27.1256668109
 10
-77.1511111576
 20
27.1473365886
 10
-77.2054106354
 20
27.1687230308
 10
-77.2620960477
 20
27.1896476869
  0
LINE
  5
285
100
AcDbEntity
  8
0
100
AcDbLine
 62
7
  6
CONTINUOUS
 10
-44.915343392
 20
-8.157294792
 11
-44.9140295372
 21
-8.2101096876
  0
LINE
  5
286
100
AcDbEntity
  8
RACCORDO
100
AcDbLine
 62
7
  6
CONTINUOUS
 10
-44.3004189221
 20
-8.3985435628
 11
-44.3244922992
 21
-7.430831685
  0
LINE
  5
287
100
AcDbEntity
  8
0
100
AcDbLine
 62
7
  6
CONTINUOUS
 10
-40.4606816266
 20
-9.5776896871
 11
-40.4619954814
 21
-9.5248747915
  0
LWPOLYLINE
  5
288
100
AcDbEntity
  8
SUPERFICI
100
AcDbPolyline
 62
7
  6
CONTINUOUS
 90
8
 70
0
 10
-42.1346252064
 20
35.0431257885
 10
-42.1799384947
 20
34.6118597551
 10
-42.2231695358
 20
34.1822390753
 10
-42.2643152206
 20
33.7542969259
 10
-42.303361311
 20
33.3281840083
 10
-42.340305896
 20
32.9039427549
 10
-42.3751555301
 20
32.4815178581
 10
-42.407908155
 20
32.0609336461
  0
LINE
  5
289
100
AcDbEntity
  8
RACCORDO
100
AcDbLine
 62
7
  6
CONTINUOUS
 10
-57.5541385744
 20
-3.3681354821
 11
-57.2728091701
 21
-2.9685428575
  0
LWPOLYLINE
  5
28A
100
AcDbEntity
  8
RACCORDO
100
AcDbPolyline
 62
7
  6
CONTINUOUS
 90
6
 70
0
 10
-57.2754390371
 20
-2.0282062302
 10
-57.2676399102
 20
-2.0174572961
 10
-57.2622171895
 20
-2.0079738852
 10
-57.2589854459
 20
-1.9999334991
 10
-57.2577335575
 20
-1.9936937887
 10
-57.2577039438
 20
-1.9923052283
  0
LINE
  5
28B
100
AcDbEntity
  8
0
100
AcDbLine
 62
7
  6
CONTINUOUS
 10
-60.4112463723
 20
-3.2555658259
 11
-60.502061079
 21
-3.3707647937
  0
LINE
  5
28C
100
AcDbEntity
  8
0
100
AcDbLine
 62
7
  6
CONTINUOUS
 10
-59.9112099863
 20
-2.6443016867
 11
-60.4112463723
 21
-3.2555658259
  0
LWPOLYLINE
  5
28D
100
AcDbEntity
  8
RACCORDO
100
AcDbPolyline
 62
7
  6
CONTINUOUS
 90
6
 70
0
 10
-62.6250408057
 20
-0.3853953538
 10
-62.6131262606
 20
-0.3759102248
 10
-62.5998269655
 20
-0.3688456335
 10
-62.5854828885
 20
-0.3642177374
 10
-62.5704749079
 20
-0.3622023896
 10
-62.5550326893
 20
-0.3625644516
  0
LWPOLYLINE
  5
28E
100
AcDbEntity
  8
SUPERFICI
100
AcDbPolyline
 62
7
  6
CONTINUOUS
 90
35
 70
0
 10
68.2431048372
 20
-36.2351083718
 10
68.3194259677
 20
-36.2274148042
 10
68.3463278472
 20
-36.2248853918
 10
68.3739731079
 20
-36.2224258948
 10
68.4024294954
 20
-36.2201975076
 10
68.4316978904
 20
-36.2183008555
 10
68.4617759968
 20
-36.2166674123
 10
68.4927262757
 20
-36.2152070337
 10
68.5245421456
 20
-36.2138976552
 10
68.5572254474
 20
-36.2127946224
 10
68.5908507716
 20
-36.2119274643
 10
68.6254118593
 20
-36.2113188476
 10
68.6609068286
 20
-36.2109817725
 10
68.6974159083
 20
-36.2109351231
 10
68.7349296654
 20
-36.211190561
 10
68.7734442301
 20
-36.2117728434
 10
68.8130465364
 20
-36.2127245008
 10
68.8537227132
 20
-36.2140557279
 10
68.8954655589
 20
-36.215792424
 10
68.9383692991
 20
-36.2180048847
 10
68.9824135739
 20
-36.220700968
 10
69.0275860518
 20
-36.2239078731
 10
69.0739887858
 20
-36.2277298566
 10
69.1215928354
 20
-36.2321832063
 10
69.1703783249
 20
-36.2372851712
 10
69.220454836
 20
-36.2431438613
 10
69.2717828357
 20
-36.2497306375
 10
69.3243313615
 20
-36.2570903157
 10
69.3782141328
 20
-36.2654447518
 10
69.4333707823
 20
-36.2748215389
 10
69.4897617982
 20
-36.2851940086
 10
69.5475193178
 20
-36.296706244
 10
69.6066386233
 20
-36.3094011862
 10
69.6669816929
 20
-36.3232141644
 10
69.728467075
 20
-36.3381237882
  0
LWPOLYLINE
  5
28F
100
AcDbEntity
  8
SUPERFICI
100
AcDbPolyline
 62
7
  6
CONTINUOUS
 90
3
 70
0
 10
68.1729908697
 20
-36.2415961197
 10
68.1956994869
 20
-36.2395646007
 10
68.2431048372
 20
-36.2351083718
  0
LINE
  5
290
100
AcDbEntity
  8
SUPERFICI
100
AcDbLine
 62
7
  6
CONTINUOUS
 10
67.9784333368
 20
-36.2577792414
 11
68.0688370192
 21
-36.2501521383
  0
LINE
  5
291
100
AcDbEntity
  8
SUPERFICI
100
AcDbLine
 62
7
  6
CONTINUOUS
 10
68.0688370192
 20
-36.2501521383
 11
68.1729908697
 21
-36.2415961197
  0
LWPOLYLINE
  5
292
100
AcDbEntity
  8
SUPERFICI
100
AcDbPolyline
 62
7
  6
CONTINUOUS
 90
10
 70
0
 10
67.6128041983
 20
-46.1732757459
 10
67.7676538989
 20
-46.1783603978
 10
67.918262784
 20
-46.177077258
 10
68.0645224021
 20
-46.1693438998
 10
68.2056265152
 20
-46.1549704999
 10
68.342158174
 20
-46.1339374133
 10
68.475975436
 20
-46.1062503305
 10
68.6074462914
 20
-46.0715987102
 10
68.7354647484
 20
-46.0298078561
 10
68.8595440572
 20
-45.9809383981
  0
LWPOLYLINE
  5
293
100
AcDbEntity
  8
SUPERFICI
100
AcDbPolyline
 62
7
  6
CONTINUOUS
 90
10
 70
0
 10
-74.1570307347
 20
-2.6371328981
 10
-74.308820036
 20
-2.5480516832
 10
-74.4568527302
 20
-2.4550586077
 10
-74.6010281153
 20
-2.3581354736
 10
-74.7405770433
 20
-2.2575762438
 10
-74.876057116
 20
-2.1530109897
 10
-75.0092604501
 20
-2.0433244687
 10
-75.1405688513
 20
-1.9279758845
 10
-75.2688675488
 20
-1.8074725154
 10
-75.393583739
 20
-1.68220037
  0
LWPOLYLINE
  5
294
100
AcDbEntity
  8
DRAFT
100
AcDbPolyline
 62
7
  6
CONTINUOUS
 90
9
 70
0
 10
-72.7935713871
 20
0.4370295038
 10
-72.7767910129
 20
0.4242167261
 10
-72.7595667715
 20
0.4122444287
 10
-72.7418929772
 20
0.401123378
 10
-72.7237753158
 20
0.3908428075
 10
-72.7054448843
 20
0.3815338496
 10
-72.6869787152
 20
0.3732402149
 10
-72.668299776
 20
0.3659181928
 10
-72.6494080667
 20
0.3595677832
  0
LWPOLYLINE
  5
295
100
AcDbEntity
  8
RACCORDO
100
AcDbPolyline
 62
7
  6
CONTINUOUS
 90
5
 70
0
 10
-37.2127169504
 20
-8.3403673277
 10
-37.2133572391
 20
-8.3370886657
 10
-37.2154046199
 20
-8.333748972
 10
-37.218802414
 20
-8.3316585893
 10
-37.219547004
 20
-8.3314079576
  0
LWPOLYLINE
  5
296
100
AcDbEntity
  8
SUPERFICI
100
AcDbPolyline
 62
7
  6
CONTINUOUS
 90
10
 70
0
 10
-41.1901196771
 20
-16.8949365345
 10
-41.1374231457
 20
-17.2202584026
 10
-41.0830980304
 20
-17.5383634757
 10
-41.0272573569
 20
-17.8493641691
 10
-40.9703378833
 20
-18.1518282712
 10
-40.9121434535
 20
-18.4474435655
 10
-40.8517336873
 20
-18.7408439797
 10
-40.7887548373
 20
-19.0334721498
 10
-40.7235512991
 20
-19.3237534438
 10
-40.6561311629
 20
-19.6116391557
  0
LINE
  5
297
100
AcDbEntity
  8
RACCORDO
100
AcDbLine
 62
7
  6
CONTINUOUS
 10
-37.2128139331
 20
-8.3403488577
 11
-37.1963407833
 21
-9.0025435563
  0
LINE
  5
298
100
AcDbEntity
  8
0
100
AcDbLine
 62
7
  6
CONTINUOUS
 10
-44.8245286852
 20
-8.0420958242
 11
-44.915343392
 21
-8.157294792
  0
LWPOLYLINE
  5
299
100
AcDbEntity
  8
SUPERFICI
100
AcDbPolyline
 62
7
  6
CONTINUOUS
 90
17
 70
0
 10
67.5353848358
 20
-17.7490261649
 10
67.5528327756
 20
-17.7446828322
 10
67.5707066269
 20
-17.7404004475
 10
67.5891402391
 20
-17.7361821253
 10
67.6081688778
 20
-17.7320177542
 10
67.6277583219
 20
-17.7279201501
 10
67.6479386066
 20
-17.723927299
 10
67.6686969197
 20
-17.7200175329
 10
67.6900457607
 20
-17.7162153651
 10
67.7120532243
 20
-17.7126280963
 10
67.7347290895
 20
-17.7092800017
 10
67.7580634927
 20
-17.7061523464
 10
67.7820962863
 20
-17.7032900592
 10
67.806827829
 20
-17.7007611029
 10
67.8322605298
 20
-17.6985121932
 10
67.8584376302
 20
-17.6964090389
 10
67.885354099
 20
-17.6944660947
  0
LWPOLYLINE
  5
29A
100
AcDbEntity
  8
SUPERFICI
100
AcDbPolyline
 62
7
  6
CONTINUOUS
 90
21
 70
0
 10
87.4162248024
 20
-60.850064271
 10
87.480762149
 20
-60.8693001629
 10
87.552672073
 20
-60.8903094562
 10
87.632452173
 20
-60.9116532329
 10
87.7185778997
 20
-60.9321269686
 10
87.8116346257
 20
-60.9513031394
 10
87.9118757034
 20
-60.9684134126
 10
88.0188038204
 20
-60.9824356536
 10
88.1318090428
 20
-60.9924769223
 10
88.2497493588
 20
-60.997992155
 10
88.3735612201
 20
-60.9981072811
 10
88.5060548711
 20
-60.9912573966
 10
88.6464515191
 20
-60.9755825266
 10
88.7940302623
 20
-60.949172757
 10
88.9515735406
 20
-60.9091201953
 10
89.1215592908
 20
-60.850892902
 10
89.2972118452
 20
-60.7720952172
 10
89.4675500091
 20
-60.6743700498
 10
89.6291730555
 20
-60.5576341239
 10
89.7802526829
 20
-60.4208061458
 10
89.8194937309
 20
-60.3796941683
  0
LINE
  5
29B
100
AcDbEntity
  8
SUPERFICI
100
AcDbLine
 62
7
  6
CONTINUOUS
 10
-86.1514605016
 20
-7.5525304195
 11
36.6896780799
 21
-45.2727584203
  0
LWPOLYLINE
  5
29C
100
AcDbEntity
  8
SUPERFICI
100
AcDbPolyline
 62
7
  6
CONTINUOUS
 90
3
 70
0
 10
36.6904191623
 20
-45.2761081431
 10
82.8749463984
 20
-59.4588792553
 10
87.4162248024
 20
-60.850064271
  0
LINE
  5
29D
100
AcDbEntity
  8
SUPERFICI
100
AcDbLine
 62
7
  6
CONTINUOUS
 10
87.309710138
 20
-60.8176288895
 11
87.3116760652
 21
-60.8182339723
  0
LINE
  5
29E
100
AcDbEntity
  8
SUPERFICI
100
AcDbLine
 62
7
  6
CONTINUOUS
 10
-90.6987396875
 20
-6.1527379088
 11
-86.1514605016
 21
-7.5525304195
  0
LINE
  5
29F
100
AcDbEntity
  8
SUPERFICI
100
AcDbLine
 62
7
  6
CONTINUOUS
 10
36.6886771485
 20
-45.2755600841
 11
36.6904191623
 21
-45.2761081431
  0
LWPOLYLINE
  5
2A0
100
AcDbEntity
  8
SUPERFICI
100
AcDbPolyline
 62
7
  6
CONTINUOUS
 90
4
 70
0
 10
-74.1759556428
 20
-1.9854843863
 10
-74.0203147837
 20
-2.0677969665
 10
-73.8419855321
 20
-2.1467926018
 10
-73.665157649
 20
-2.2092014295
  0
LWPOLYLINE
  5
2A1
100
AcDbEntity
  8
SUPERFICI
100
AcDbPolyline
 62
7
  6
CONTINUOUS
 90
18
 70
0
 10
-76.2837524687
 20
34.2994707223
 10
-76.2240876857
 20
34.2352926931
 10
-76.1525710839
 20
34.1766366877
 10
-76.0696341491
 20
34.1240807685
 10
-75.9755063814
 20
34.0780565237
 10
-75.8713077753
 20
34.0393980124
 10
-75.7593272928
 20
34.0090187735
 10
-75.6406317817
 20
33.9872139398
 10
-75.5169998173
 20
33.9744151936
 10
-75.3923495143
 20
33.9709474964
 10
-75.2686158908
 20
33.9766301553
 10
-75.1472178971
 20
33.9912878226
 10
-75.03125954
 20
34.0143942636
 10
-74.9225382069
 20
34.0452872281
 10
-74.8216547242
 20
34.0835603675
 10
-74.7295717286
 20
34.1287354065
 10
-74.6471041847
 20
34.1803436009
 10
-74.5749265533
 20
34.2379246574
  0
LINE
  5
2A2
100
AcDbEntity
  8
0
100
AcDbLine
 62
7
  6
CONTINUOUS
 10
-24.8752777943
 20
-14.3114047897
 11
-24.8739639395
 21
-14.3642196853
  0
LINE
  5
2A3
100
AcDbEntity
  8
RACCORDO
100
AcDbLine
 62
7
  6
CONTINUOUS
 10
-24.2603533245
 20
-14.5526535606
 11
-24.2844267016
 21
-13.5849416827
  0
LWPOLYLINE
  5
2A4
100
AcDbEntity
  8
RACCORDO
100
AcDbPolyline
 62
7
  6
CONTINUOUS
 90
6
 70
0
 10
-37.230551421
 20
-8.376153782
 10
-37.2231936959
 20
-8.3648960644
 10
-37.2176815127
 20
-8.3555157727
 10
-37.2140978298
 20
-8.3478810509
 10
-37.2127164773
 20
-8.3417905677
 10
-37.2127169504
 20
-8.3403673277
  0
LINE
  5
2A5
100
AcDbEntity
  8
RACCORDO
100
AcDbLine
 62
7
  6
CONTINUOUS
 10
-37.2348227564
 20
-8.3820495276
 11
-37.9398290696
 21
-9.3914999085
  0
LINE
  5
2A6
100
AcDbEntity
  8
RACCORDO
100
AcDbLine
 62
7
  6
CONTINUOUS
 10
-37.5140729767
 20
-9.5222454799
 11
-37.2327435724
 21
-9.1226528552
  0
LINE
  5
2A7
100
AcDbEntity
  8
0
100
AcDbLine
 62
7
  6
CONTINUOUS
 10
-40.3711807746
 20
-9.4096758237
 11
-40.4619954814
 21
-9.5248747915
  0
LINE
  5
2A8
100
AcDbEntity
  8
0
100
AcDbLine
 62
7
  6
CONTINUOUS
 10
-44.8245286852
 20
-8.0420958242
 11
-44.3244922992
 21
-7.430831685
  0
LINE
  5
2A9
100
AcDbEntity
  8
0
100
AcDbLine
 62
7
  6
CONTINUOUS
 10
-39.8711443886
 20
-8.7984116845
 11
-40.3711807746
 21
-9.4096758237
  0
LINE
  5
2AA
100
AcDbEntity
  8
RACCORDO
100
AcDbLine
 62
7
  6
CONTINUOUS
 10
-42.5854017004
 20
-6.7389385701
 11
-44.1306431135
 21
-8.4506800689
  0
LWPOLYLINE
  5
2AB
100
AcDbEntity
  8
RACCORDO
100
AcDbPolyline
 62
7
  6
CONTINUOUS
 90
3
 70
0
 10
57.6853608966
 20
-37.2872244381
 10
57.7012056274
 20
-37.289363672
 10
57.7172801098
 20
-37.293180525
  0
LWPOLYLINE
  5
2AC
100
AcDbEntity
  8
RACCORDO
100
AcDbPolyline
 62
7
  6
CONTINUOUS
 90
4
 70
0
 10
37.6501349466
 20
-31.3269418416
 10
37.6659620482
 20
-31.3290912283
 10
37.6819544105
 20
-31.3329553748
 10
37.6847503951
 20
-31.3337920193
  0
LINE
  5
2AD
100
AcDbEntity
  8
SUPERFICI
100
AcDbLine
 62
7
  6
CONTINUOUS
 10
66.7809420592
 20
-43.5544663132
 11
66.7409468939
 21
-43.5444377605
  0
LWPOLYLINE
  5
2AE
100
AcDbEntity
  8
SUPERFICI
100
AcDbPolyline
 62
7
  6
CONTINUOUS
 90
10
 70
0
 10
66.7476220165
 20
-46.0291149418
 10
66.8406704485
 20
-46.0535532976
 10
66.9345645174
 20
-46.0760918105
 10
67.0292428504
 20
-46.0966312124
 10
67.1245330969
 20
-46.1150155729
 10
67.2204754153
 20
-46.1311946496
 10
67.3173204804
 20
-46.1452160561
 10
67.4150986017
 20
-46.1570120582
 10
67.5136214514
 20
-46.1664073114
 10
67.6128041992
 20
-46.1732757466
  0
LINE
  5
2AF
100
AcDbEntity
  8
SUPERFICI
100
AcDbLine
 62
7
  6
CONTINUOUS
 10
65.9982996471
 20
-45.8207572402
 11
66.7476220165
 21
-46.0291149418
  0
LINE
  5
2B0
100
AcDbEntity
  8
SUPERFICI
100
AcDbLine
 62
7
  6
CONTINUOUS
 10
65.653969274
 20
-45.723120932
 11
65.9982996471
 21
-45.8207572402
  0
LINE
  5
2B1
100
AcDbEntity
  8
SUPERFICI
100
AcDbLine
 62
7
  6
CONTINUOUS
 10
65.1775833585
 20
-45.5826625224
 11
63.9264273663
 21
-45.2097812376
  0
LWPOLYLINE
  5
2B2
100
AcDbEntity
  8
SUPERFICI
100
AcDbPolyline
 62
7
  6
CONTINUOUS
 90
3
 70
0
 10
65.1764952665
 20
-45.5824019666
 10
65.3306592709
 20
-45.6291566253
 10
65.653969274
 20
-45.723120932
  0
LINE
  5
2B3
100
AcDbEntity
  8
SUPERFICI
100
AcDbLine
 62
7
  6
CONTINUOUS
 10
63.9264273663
 20
-45.2097812376
 11
62.7815313988
 21
-44.8629009137
  0
LINE
  5
2B4
100
AcDbEntity
  8
SUPERFICI
100
AcDbLine
 62
7
  6
CONTINUOUS
 10
-41.960627513
 20
-11.941879513
 11
-73.6645660026
 21
-2.208460014
  0
LINE
  5
2B5
100
AcDbEntity
  8
SUPERFICI
100
AcDbLine
 62
7
  6
CONTINUOUS
 10
-71.1110168755
 20
-3.7446311284
 11
-62.4828947211
 21
-6.3927493243
  0
LINE
  5
2B6
100
AcDbEntity
  8
SUPERFICI
100
AcDbLine
 62
7
  6
CONTINUOUS
 10
34.71640836
 20
-35.4886543857
 11
66.4183465094
 21
-45.2265653291
  0
LWPOLYLINE
  5
2B7
100
AcDbEntity
  8
SUPERFICI
100
AcDbPolyline
 62
7
  6
CONTINUOUS
 90
3
 70
0
 10
62.7815313988
 20
-44.8629009137
 10
60.4677351072
 20
-44.1522917474
 10
-62.4828947211
 20
-6.3927493243
  0
LINE
  5
2B8
100
AcDbEntity
  8
SUPERFICI
100
AcDbLine
 62
7
  6
CONTINUOUS
 10
-71.7866905984
 20
-3.522334481
 11
-71.9416182737
 21
-3.4741700793
  0
LINE
  5
2B9
100
AcDbEntity
  8
SUPERFICI
100
AcDbLine
 62
7
  6
CONTINUOUS
 10
-71.7877938589
 20
-3.5219220936
 11
-71.1128714445
 21
-3.7362991685
  0
LINE
  5
2BA
100
AcDbEntity
  8
SUPERFICI
100
AcDbLine
 62
7
  6
CONTINUOUS
 10
-71.9416182737
 20
-3.4741700793
 11
-72.2629731481
 21
-3.3701640476
  0
LINE
  5
2BB
100
AcDbEntity
  8
SUPERFICI
100
AcDbLine
 62
7
  6
CONTINUOUS
 10
-72.2629731481
 20
-3.3701640476
 11
-72.5979795597
 21
-3.2591826106
  0
LINE
  5
2BC
100
AcDbEntity
  8
SUPERFICI
100
AcDbLine
 62
7
  6
CONTINUOUS
 10
-72.5979795597
 20
-3.2591826106
 11
-73.317705428
 21
-3.0164098305
  0
LWPOLYLINE
  5
2BD
100
AcDbEntity
  8
SUPERFICI
100
AcDbPolyline
 62
7
  6
CONTINUOUS
 90
10
 70
0
 10
-73.317705428
 20
-3.0164098305
 10
-73.4070483708
 20
-2.9848375621
 10
-73.4974689683
 20
-2.9507748266
 10
-73.5889018936
 20
-2.9141612641
 10
-73.6811769672
 20
-2.8749461319
 10
-73.7743171564
 20
-2.8330598024
 10
-73.8685368504
 20
-2.7884070724
 10
-73.9638444644
 20
-2.7409083157
 10
-74.0600437571
 20
-2.6905062855
 10
-74.1570307355
 20
-2.6371328983
  0
LWPOLYLINE
  5
2BE
100
AcDbEntity
  8
0
100
AcDbPolyline
 62
7
  6
CONTINUOUS
 90
13
 70
0
 10
-73.1033463617
 20
-0.2218413597
 10
-73.1426403612
 20
-0.2075528881
 10
-73.1813734498
 20
-0.1890312201
 10
-73.2188828899
 20
-0.1665932601
 10
-73.2545268864
 20
-0.1406229173
 10
-73.2876955453
 20
-0.111564552
 10
-73.317821316
 20
-0.0799153789
 10
-73.3443887344
 20
-0.046216928
 10
-73.3669432217
 20
-0.011045793
 10
-73.3850988521
 20
0.0249962124
 10
-73.398544982
 20
0.0612923876
 10
-73.4070515561
 20
0.0972216997
 10
-73.4104730333
 20
0.1321693877
  0
LWPOLYLINE
  5
2BF
100
AcDbEntity
  8
0
100
AcDbPolyline
 62
7
  6
CONTINUOUS
 90
13
 70
0
 10
-72.6480942119
 20
0.3067528876
 10
-72.6947168771
 20
0.3239940709
 10
-72.7392089303
 20
0.3452696657
 10
-72.7815703716
 20
0.3705796722
 10
-72.822445693
 20
0.4004887158
 10
-72.8611904024
 20
0.4344321711
 10
-72.8958710232
 20
0.4707161611
 10
-72.9262813136
 20
0.509459462
 10
-72.9526275153
 20
0.5505432975
 10
-72.9735948777
 20
0.5919174629
 10
-72.9887451505
 20
0.6328985563
 10
-72.9985165839
 20
0.6741699794
 10
-73.002909178
 20
0.7157317323
  0
LINE
  5
2C0
100
AcDbEntity
  8
0
100
AcDbLine
 62
7
  6
CONTINUOUS
 10
-57.9521907139
 20
-2.9969806396
 11
-57.8881629264
 21
-3.025748748
  0
LINE
  5
2C1
100
AcDbEntity
  8
0
100
AcDbLine
 62
7
  6
CONTINUOUS
 10
-57.7484087923
 20
-2.7051992263
 11
-57.6843810047
 21
-2.7339673348
  0
LINE
  5
2C2
100
AcDbEntity
  8
0
100
AcDbLine
 62
7
  6
CONTINUOUS
 10
-57.5446268707
 20
-2.4134178131
 11
-57.4805990831
 21
-2.4421859215
  0
LINE
  5
2C3
100
AcDbEntity
  8
0
100
AcDbLine
 62
7
  6
CONTINUOUS
 10
-20.4206160289
 20
-15.7317996848
 11
-20.4219298837
 21
-15.6789847892
  0
LINE
  5
2C4
100
AcDbEntity
  8
RACCORDO
100
AcDbLine
 62
7
  6
CONTINUOUS
 10
-17.1727483354
 20
-14.4944588554
 11
-17.1562751857
 21
-15.1566535541
  0
LWPOLYLINE
  5
2C5
100
AcDbEntity
  8
RACCORDO
100
AcDbPolyline
 62
7
  6
CONTINUOUS
 90
6
 70
0
 10
-42.5801531895
 20
-6.7333429056
 10
-42.5678159551
 20
-6.7236143471
 10
-42.5546023299
 20
-6.7165990936
 10
-42.5405952723
 20
-6.7121652892
 10
-42.5257112674
 20
-6.7102213398
 10
-42.510127444
 20
-6.7105018506
  0
LWPOLYLINE
  5
2C6
100
AcDbEntity
  8
SUPERFICI
100
AcDbPolyline
 62
7
  6
CONTINUOUS
 90
31
 70
0
 10
67.885354099
 20
-17.6944660947
 10
67.9707556933
 20
-17.6891498599
 10
68.0008312515
 20
-17.6874139865
 10
68.0317789479
 20
-17.6858497956
 10
68.0635941793
 20
-17.6845147474
 10
68.0962769218
 20
-17.6833892308
 10
68.1299011338
 20
-17.6824773671
 10
68.1644604721
 20
-17.6817984244
 10
68.1999534748
 20
-17.6813822965
 10
68.2364605389
 20
-17.6812546203
 10
68.2739728865
 20
-17.6814534002
 10
68.312486684
 20
-17.682004844
 10
68.3520881807
 20
-17.6829239562
 10
68.3927644502
 20
-17.6842589084
 10
68.4345084971
 20
-17.6860438937
 10
68.4774128648
 20
-17.6882815802
 10
68.5214584912
 20
-17.6910319925
 10
68.5666334445
 20
-17.6943384026
 10
68.6130368904
 20
-17.6981890078
 10
68.6606410613
 20
-17.7026472307
 10
68.7094273073
 20
-17.7077796065
 10
68.7595027682
 20
-17.7135960803
 10
68.8108317058
 20
-17.720220556
 10
68.8633834122
 20
-17.7277080906
 10
68.9172642621
 20
-17.7359852904
 10
68.9724152522
 20
-17.7451345798
 10
69.0288012286
 20
-17.7553044691
 10
69.0865520436
 20
-17.7665471919
 10
69.1456649786
 20
-17.7789860459
 10
69.2060082034
 20
-17.792805267
 10
69.2675049871
 20
-17.8081732183
  0
LWPOLYLINE
  5
2C7
100
AcDbEntity
  8
RACCORDO
100
AcDbPolyline
 62
7
  6
CONTINUOUS
 90
4
 70
0
 10
-2.4299962487
 20
-19.0187218461
 10
-2.4141691471
 20
-19.0208712328
 10
-2.3981767848
 20
-19.0247353793
 10
-2.3953808002
 20
-19.0255720238
  0
LWPOLYLINE
  5
2C8
100
AcDbEntity
  8
RACCORDO
100
AcDbPolyline
 62
7
  6
CONTINUOUS
 90
4
 70
0
 10
-22.4700618464
 20
-12.8646118484
 10
-22.4542347448
 20
-12.866761235
 10
-22.4382423825
 20
-12.8706253816
 10
-22.4354463979
 20
-12.871462026
  0
LWPOLYLINE
  5
2C9
100
AcDbEntity
  8
RACCORDO
100
AcDbPolyline
 62
7
  6
CONTINUOUS
 90
16
 70
0
 10
17.804021842
 20
-25.142201143
 10
17.7857606714
 20
-25.1372744432
 10
17.7669736901
 20
-25.1335914607
 10
17.7476608984
 20
-25.1311521953
 10
17.7275803358
 20
-25.129931812
 10
17.7069739627
 20
-25.1299551458
 10
17.6865676598
 20
-25.1312967023
 10
17.6663331798
 20
-25.1340408639
 10
17.64629877
 20
-25.1381032481
 10
17.6272750532
 20
-25.1433052128
 10
17.6093818755
 20
-25.1496846374
 10
17.5924993908
 20
-25.1572036424
 10
17.5770786841
 20
-25.1655699473
 10
17.563270117
 20
-25.1746861253
 10
17.5509233279
 20
-25.1846496031
 10
17.5400383167
 20
-25.1954603808
  0
LINE
  5
2CA
100
AcDbEntity
  8
0
100
AcDbLine
 62
7
  6
CONTINUOUS
 10
66.9339368598
 20
-43.2259343618
 11
-73.1033463617
 21
-0.2218413597
  0
LINE
  5
2CB
100
AcDbEntity
  8
0
100
AcDbLine
 62
7
  6
CONTINUOUS
 10
66.9172822651
 20
-42.5524221251
 11
-72.6480942119
 21
0.3067528876
  0
LINE
  5
2CC
100
AcDbEntity
  8
0
100
AcDbLine
 62
7
  6
CONTINUOUS
 10
-72.6494080667
 20
0.3595677832
 11
-64.9554089896
 21
-2.0031847942
  0
LINE
  5
2CD
100
AcDbEntity
  8
0
100
AcDbLine
 62
7
  6
CONTINUOUS
 10
-60.502061079
 20
-3.3707647937
 11
-44.915343392
 21
-8.157294792
  0
LINE
  5
2CE
100
AcDbEntity
  8
0
100
AcDbLine
 62
7
  6
CONTINUOUS
 10
-40.4619954814
 20
-9.5248747915
 11
-24.8752777943
 21
-14.3114047897
  0
LINE
  5
2CF
100
AcDbEntity
  8
0
100
AcDbLine
 62
7
  6
CONTINUOUS
 10
-20.4219298837
 20
-15.6789847892
 11
-4.8352121966
 21
-20.4655147875
  0
LINE
  5
2D0
100
AcDbEntity
  8
0
100
AcDbLine
 62
7
  6
CONTINUOUS
 10
-0.3818642861
 20
-21.833094787
 11
15.204853401
 21
-26.6196247852
  0
LINE
  5
2D1
100
AcDbEntity
  8
0
100
AcDbLine
 62
7
  6
CONTINUOUS
 10
19.6582013116
 20
-27.9872047847
 11
35.2449189987
 21
-32.773734783
  0
LINE
  5
2D2
100
AcDbEntity
  8
0
100
AcDbLine
 62
7
  6
CONTINUOUS
 10
39.6982669093
 20
-34.1413147825
 11
55.2849845963
 21
-38.9278447807
  0
LINE
  5
2D3
100
AcDbEntity
  8
0
100
AcDbLine
 62
7
  6
CONTINUOUS
 10
59.7383325069
 20
-40.2954247802
 11
66.9159763197
 21
-42.4996096584
  0
LINE
  5
2D4
100
AcDbEntity
  8
0
100
AcDbLine
 62
7
  6
CONTINUOUS
 10
59.7978287493
 20
-40.219953461
 11
56.0322066694
 21
-39.0635674015
  0
LINE
  5
2D5
100
AcDbEntity
  8
0
100
AcDbLine
 62
7
  6
CONTINUOUS
 10
-60.4425648366
 20
-3.2952934746
 11
-64.2081869165
 21
-2.138907415
  0
LINE
  5
2D6
100
AcDbEntity
  8
0
100
AcDbLine
 62
7
  6
CONTINUOUS
 10
66.9124109866
 20
-42.3554274947
 11
59.8291472136
 21
-40.1802258124
  0
LINE
  5
2D7
100
AcDbEntity
  8
0
100
AcDbLine
 62
7
  6
CONTINUOUS
 10
55.3757993031
 20
-38.8126458129
 11
39.789081616
 21
-34.0261158146
  0
LINE
  5
2D8
100
AcDbEntity
  8
0
100
AcDbLine
 62
7
  6
CONTINUOUS
 10
35.3357337054
 20
-32.6585358151
 11
19.7490160183
 21
-27.8720058169
  0
LINE
  5
2D9
100
AcDbEntity
  8
0
100
AcDbLine
 62
7
  6
CONTINUOUS
 10
15.2956681077
 20
-26.5044258174
 11
-0.2910495793
 21
-21.7178958191
  0
LINE
  5
2DA
100
AcDbEntity
  8
0
100
AcDbLine
 62
7
  6
CONTINUOUS
 10
-4.7443974899
 20
-20.3503158196
 11
-20.331115177
 21
-15.5637858214
  0
LINE
  5
2DB
100
AcDbEntity
  8
0
100
AcDbLine
 62
7
  6
CONTINUOUS
 10
-24.7844630876
 20
-14.1962058219
 11
-40.3711807746
 21
-9.4096758237
  0
LINE
  5
2DC
100
AcDbEntity
  8
0
100
AcDbLine
 62
7
  6
CONTINUOUS
 10
-44.8245286852
 20
-8.0420958242
 11
-60.4112463723
 21
-3.2555658259
  0
LINE
  5
2DD
100
AcDbEntity
  8
0
100
AcDbLine
 62
7
  6
CONTINUOUS
 10
-64.8645942829
 20
-1.8879858264
 11
-72.55859336
 21
0.474766751
  0
LINE
  5
2DE
100
AcDbEntity
  8
0
100
AcDbLine
 62
7
  6
CONTINUOUS
 10
59.9358932821
 20
-40.0497352212
 11
56.1824826313
 21
-38.8970991732
  0
LINE
  5
2DF
100
AcDbEntity
  8
0
100
AcDbLine
 62
7
  6
CONTINUOUS
 10
-60.3045003039
 20
-3.1250752347
 11
-64.0579109546
 21
-1.9724391868
  0
LINE
  5
2E0
100
AcDbEntity
  8
0
100
AcDbLine
 62
7
  6
CONTINUOUS
 10
60.0285651362
 20
-39.9364495029
 11
56.2826666059
 21
-38.7861203544
  0
LINE
  5
2E1
100
AcDbEntity
  8
0
100
AcDbLine
 62
7
  6
CONTINUOUS
 10
-60.2118284497
 20
-3.0117895165
 11
-63.95772698
 21
-1.8614603679
  0
LINE
  5
2E2
100
AcDbEntity
  8
0
100
AcDbLine
 62
7
  6
CONTINUOUS
 10
60.1675729174
 20
-39.7665209256
 11
56.4329425678
 21
-38.6196521261
  0
LINE
  5
2E3
100
AcDbEntity
  8
0
100
AcDbLine
 62
7
  6
CONTINUOUS
 10
-60.0728206685
 20
-2.8418609391
 11
-63.8074510181
 21
-1.6949921397
  0
LINE
  5
2E4
100
AcDbEntity
  8
0
100
AcDbLine
 62
7
  6
CONTINUOUS
 10
60.2602447715
 20
-39.6532352073
 11
56.5331265424
 21
-38.5086733073
  0
LINE
  5
2E5
100
AcDbEntity
  8
0
100
AcDbLine
 62
7
  6
CONTINUOUS
 10
-59.9801488144
 20
-2.7285752208
 11
-63.7072670435
 21
-1.5840133208
  0
LINE
  5
2E6
100
AcDbEntity
  8
0
100
AcDbLine
 62
7
  6
CONTINUOUS
 10
-72.058556974
 20
1.0860308902
 11
-64.3645578969
 21
-1.2767216872
  0
LINE
  5
2E7
100
AcDbEntity
  8
0
100
AcDbLine
 62
7
  6
CONTINUOUS
 10
-59.9112099863
 20
-2.6443016867
 11
-44.3244922992
 21
-7.430831685
  0
LINE
  5
2E8
100
AcDbEntity
  8
0
100
AcDbLine
 62
7
  6
CONTINUOUS
 10
-39.8711443886
 20
-8.7984116845
 11
-24.2844267016
 21
-13.5849416827
  0
LINE
  5
2E9
100
AcDbEntity
  8
0
100
AcDbLine
 62
7
  6
CONTINUOUS
 10
-19.831078791
 20
-14.9525216822
 11
-4.2443611039
 21
-19.7390516805
  0
LINE
  5
2EA
100
AcDbEntity
  8
0
100
AcDbLine
 62
7
  6
CONTINUOUS
 10
0.2089868067
 20
-21.10663168
 11
15.7957044938
 21
-25.8931616782
  0
LINE
  5
2EB
100
AcDbEntity
  8
0
100
AcDbLine
 62
7
  6
CONTINUOUS
 10
20.2490524043
 20
-27.2607416777
 11
35.8357700914
 21
-32.047271676
  0
LINE
  5
2EC
100
AcDbEntity
  8
0
100
AcDbLine
 62
7
  6
CONTINUOUS
 10
40.289118002
 20
-33.4148516755
 11
55.8758356891
 21
-38.2013816737
  0
LINE
  5
2ED
100
AcDbEntity
  8
0
100
AcDbLine
 62
7
  6
CONTINUOUS
 10
60.3291835997
 20
-39.5689616732
 11
66.8933530314
 21
-41.5847545123
  0
LINE
  5
2EE
100
AcDbEntity
  8
0
100
AcDbLine
 62
7
  6
CONTINUOUS
 10
62.2066901033
 20
-40.0383531913
 11
56.6834025044
 21
-38.342205079
  0
LINE
  5
2EF
100
AcDbEntity
  8
0
100
AcDbLine
 62
7
  6
CONTINUOUS
 10
-58.0337034826
 20
-3.1136932049
 11
-63.5569910816
 21
-1.4175450926
  0
LINE
  5
2F0
100
AcDbEntity
  8
0
100
AcDbLine
 62
7
  6
CONTINUOUS
 10
62.288202872
 20
-39.921640626
 11
56.783586479
 21
-38.2312262602
  0
LINE
  5
2F1
100
AcDbEntity
  8
0
100
AcDbLine
 62
7
  6
CONTINUOUS
 10
-57.9521907139
 20
-2.9969806396
 11
-63.456807107
 21
-1.3065662737
  0
LINE
  5
2F2
100
AcDbEntity
  8
0
100
AcDbLine
 62
7
  6
CONTINUOUS
 10
62.410472025
 20
-39.7465717781
 11
56.9338624409
 21
-38.064758032
  0
LINE
  5
2F3
100
AcDbEntity
  8
0
100
AcDbLine
 62
7
  6
CONTINUOUS
 10
-57.829921561
 20
-2.8219117916
 11
-63.3065311451
 21
-1.1400980455
  0
LINE
  5
2F4
100
AcDbEntity
  8
0
100
AcDbLine
 62
7
  6
CONTINUOUS
 10
62.4919847936
 20
-39.6298592128
 11
57.0340464155
 21
-37.9537792131
  0
LINE
  5
2F5
100
AcDbEntity
  8
0
100
AcDbLine
 62
7
  6
CONTINUOUS
 10
-57.7484087923
 20
-2.7051992263
 11
-63.2063471705
 21
-1.0291192267
  0
LINE
  5
2F6
100
AcDbEntity
  8
0
100
AcDbLine
 62
7
  6
CONTINUOUS
 10
62.6142539466
 20
-39.4547903648
 11
57.1843223774
 21
-37.7873109849
  0
LINE
  5
2F7
100
AcDbEntity
  8
0
100
AcDbLine
 62
7
  6
CONTINUOUS
 10
-57.6261396393
 20
-2.5301303784
 11
-63.0560712086
 21
-0.8626509984
  0
LINE
  5
2F8
100
AcDbEntity
  8
0
100
AcDbLine
 62
7
  6
CONTINUOUS
 10
62.6957667153
 20
-39.3380777995
 11
57.284506352
 21
-37.676332166
  0
LINE
  5
2F9
100
AcDbEntity
  8
0
100
AcDbLine
 62
7
  6
CONTINUOUS
 10
-57.5446268707
 20
-2.4134178131
 11
-62.955887234
 21
-0.7516721796
  0
LINE
  5
2FA
100
AcDbEntity
  8
0
100
AcDbLine
 62
7
  6
CONTINUOUS
 10
62.8180358683
 20
-39.1630089516
 11
57.4347823139
 21
-37.5098639378
  0
LINE
  5
2FB
100
AcDbEntity
  8
0
100
AcDbLine
 62
7
  6
CONTINUOUS
 10
-57.4223577177
 20
-2.2383489651
 11
-62.8056112721
 21
-0.5852039513
  0
LINE
  5
2FC
100
AcDbEntity
  8
RACCORDO
100
AcDbLine
 62
7
  6
CONTINUOUS
 10
-42.4754759134
 20
-6.7173631051
 11
-37.2196092728
 21
-8.3313888318
  0
LINE
  5
2FD
100
AcDbEntity
  8
RACCORDO
100
AcDbLine
 62
7
  6
CONTINUOUS
 10
-22.4354103157
 20
-12.8714731028
 11
-17.1795436751
 21
-14.4854988295
  0
LINE
  5
2FE
100
AcDbEntity
  8
RACCORDO
100
AcDbLine
 62
7
  6
CONTINUOUS
 10
-2.395344718
 20
-19.0255831006
 11
2.8605219225
 21
-20.6396088273
  0
LINE
  5
2FF
100
AcDbEntity
  8
RACCORDO
100
AcDbLine
 62
7
  6
CONTINUOUS
 10
37.6847864773
 20
-31.333803096
 11
42.9406531178
 21
-32.9478288228
  0
LINE
  5
300
100
AcDbEntity
  8
RACCORDO
100
AcDbLine
 62
7
  6
CONTINUOUS
 10
22.7978440304
 20
-26.6757555571
 11
17.804021842
 21
-25.142201143
  0
LINE
  5
301
100
AcDbEntity
  8
RACCORDO
100
AcDbLine
 62
7
  6
CONTINUOUS
 10
-62.5231134761
 20
-0.3685205385
 11
-57.2644968889
 21
-1.98344128
  0
LINE
  5
302
100
AcDbEntity
  8
RACCORDO
100
AcDbLine
 62
7
  6
CONTINUOUS
 10
57.7172801098
 20
-37.293180525
 11
63.0169280161
 21
-38.920701587
  0
LWPOLYLINE
  5
303
100
AcDbEntity
  8
RACCORDO
100
AcDbPolyline
 62
7
  6
CONTINUOUS
 90
5
 70
0
 10
-17.1726513527
 20
-14.4944773255
 10
-17.1732916415
 20
-14.4911986634
 10
-17.1753390222
 20
-14.4878589697
 10
-17.1787368163
 20
-14.4857685871
 10
-17.1794814063
 20
-14.4855179554
  0
LINE
  5
304
100
AcDbEntity
  8
SUPERFICI
100
AcDbLine
 62
7
  6
CONTINUOUS
 10
-3.5106528877
 20
25.6475770063
 11
-3.2837655506
 21
27.2971865343
  0
LINE
  5
305
100
AcDbEntity
  8
0
100
AcDbLine
 62
7
  6
CONTINUOUS
 10
-24.7844630876
 20
-14.1962058219
 11
-24.8752777943
 21
-14.3114047897
  0
LINE
  5
306
100
AcDbEntity
  8
0
100
AcDbLine
 62
7
  6
CONTINUOUS
 10
-24.7844630876
 20
-14.1962058219
 11
-24.2844267016
 21
-13.5849416827
  0
LINE
  5
307
100
AcDbEntity
  8
RACCORDO
100
AcDbLine
 62
7
  6
CONTINUOUS
 10
-22.5453361027
 20
-12.8930485679
 11
-24.0905775158
 21
-14.6047900666
  0
LWPOLYLINE
  5
308
100
AcDbEntity
  8
RACCORDO
100
AcDbPolyline
 62
7
  6
CONTINUOUS
 90
3
 70
0
 10
-62.5550326893
 20
-0.3625644516
 10
-62.5391879586
 20
-0.3647036855
 10
-62.5231134761
 20
-0.3685205385
  0
LWPOLYLINE
  5
309
100
AcDbEntity
  8
RACCORDO
100
AcDbPolyline
 62
7
  6
CONTINUOUS
 90
4
 70
0
 10
-42.510127444
 20
-6.7105018506
 10
-42.4943003425
 20
-6.7126512373
 10
-42.4783079801
 20
-6.7165153838
 10
-42.4755119955
 20
-6.7173520283
  0
LINE
  5
30A
100
AcDbEntity
  8
0
100
AcDbLine
 62
7
  6
CONTINUOUS
 10
62.288202872
 20
-39.921640626
 11
62.3522306596
 21
-39.9504087345
  0
LINE
  5
30B
100
AcDbEntity
  8
0
100
AcDbLine
 62
7
  6
CONTINUOUS
 10
62.4919847936
 20
-39.6298592128
 11
62.5560125812
 21
-39.6586273212
  0
LINE
  5
30C
100
AcDbEntity
  8
0
100
AcDbLine
 62
7
  6
CONTINUOUS
 10
62.6957667153
 20
-39.3380777995
 11
62.7597945028
 21
-39.366845908
  0
LWPOLYLINE
  5
30D
100
AcDbEntity
  8
SUPERFICI
100
AcDbPolyline
 62
7
  6
CONTINUOUS
 90
4
 70
0
 10
-2.3801799625
 20
-31.1452080423
 10
-2.2268673683
 20
-31.7703902771
 10
-2.0679666254
 20
-32.3461533353
 10
-1.7752050854
 20
-33.3445702772
  0
LWPOLYLINE
  5
30E
100
AcDbEntity
  8
SUPERFICI
100
AcDbPolyline
 62
7
  6
CONTINUOUS
 90
9
 70
0
 10
-3.3068078954
 20
-24.5667010183
 10
-3.2293059773
 20
-25.5359456002
 10
-3.1326245307
 20
-26.5007137784
 10
-3.0214274954
 20
-27.4340378567
 10
-2.9034420023
 20
-28.2932355976
 10
-2.7800611717
 20
-29.0876029611
 10
-2.6456312949
 20
-29.8577356146
 10
-2.5133439018
 20
-30.5346885303
 10
-2.3801799625
 20
-31.1452080423
  0
LINE
  5
30F
100
AcDbEntity
  8
0
100
AcDbLine
 62
7
  6
CONTINUOUS
 10
-4.8352121966
 20
-20.4655147875
 11
-4.8338983418
 21
-20.5183296831
  0
LINE
  5
310
100
AcDbEntity
  8
RACCORDO
100
AcDbLine
 62
7
  6
CONTINUOUS
 10
-4.2202877268
 20
-20.7067635583
 11
-4.2443611039
 21
-19.7390516805
  0
LINE
  5
311
100
AcDbEntity
  8
0
100
AcDbLine
 62
7
  6
CONTINUOUS
 10
-0.3805504313
 20
-21.8859096826
 11
-0.3818642861
 21
-21.833094787
  0
LWPOLYLINE
  5
312
100
AcDbEntity
  8
SUPERFICI
100
AcDbPolyline
 62
7
  6
CONTINUOUS
 90
11
 70
0
 10
-4.2992391796
 20
15.3274749253
 10
-4.2731884153
 20
16.4264854743
 10
-4.2289017749
 20
17.5679063446
 10
-4.1694600365
 20
18.7150646274
 10
-4.1000637456
 20
19.8090779023
 10
-4.0224703145
 20
20.8552940716
 10
-3.9333265852
 20
21.9055956644
 10
-3.8416999353
 20
22.8631441344
 10
-3.7460443809
 20
23.7604064153
 10
-3.6321659426
 20
24.7204163137
 10
-3.5106528877
 20
25.6475770063
  0
LWPOLYLINE
  5
313
100
AcDbEntity
  8
RACCORDO
100
AcDbPolyline
 62
7
  6
CONTINUOUS
 90
6
 70
0
 10
-17.1904858233
 20
-14.5302637798
 10
-17.1831280983
 20
-14.5190060621
 10
-17.177615915
 20
-14.5096257705
 10
-17.1740322321
 20
-14.5019910487
 10
-17.1726508796
 20
-14.4959005655
 10
-17.1726513527
 20
-14.4944773255
  0
LINE
  5
314
100
AcDbEntity
  8
RACCORDO
100
AcDbLine
 62
7
  6
CONTINUOUS
 10
-17.1947571588
 20
-14.5361595254
 11
-17.8997634719
 21
-15.5456099062
  0
LINE
  5
315
100
AcDbEntity
  8
RACCORDO
100
AcDbLine
 62
7
  6
CONTINUOUS
 10
-17.474007379
 20
-15.6763554776
 11
-17.1926779747
 21
-15.276762853
  0
LINE
  5
316
100
AcDbEntity
  8
0
100
AcDbLine
 62
7
  6
CONTINUOUS
 10
-20.331115177
 20
-15.5637858214
 11
-20.4219298837
 21
-15.6789847892
  0
LINE
  5
317
100
AcDbEntity
  8
0
100
AcDbLine
 62
7
  6
CONTINUOUS
 10
-19.831078791
 20
-14.9525216822
 11
-20.331115177
 21
-15.5637858214
  0
LWPOLYLINE
  5
318
100
AcDbEntity
  8
RACCORDO
100
AcDbPolyline
 62
7
  6
CONTINUOUS
 90
6
 70
0
 10
-22.5400875919
 20
-12.8874529034
 10
-22.5277503575
 20
-12.8777243448
 10
-22.5145367323
 20
-12.8707090914
 10
-22.5005296747
 20
-12.8662752869
 10
-22.4856456697
 20
-12.8643313375
 10
-22.4700618464
 20
-12.8646118484
  0
LWPOLYLINE
  5
319
100
AcDbEntity
  8
SUPERFICI
100
AcDbPolyline
 62
7
  6
CONTINUOUS
 90
7
 70
0
 10
65.6039119086
 20
-8.7144513508
 10
65.6124111804
 20
-8.715346141
 10
65.6394984895
 20
-8.7195765293
 10
65.670294026
 20
-8.7266123627
 10
65.7037919499
 20
-8.7366312979
 10
65.7392393176
 20
-8.7497018697
 10
65.7759871008
 20
-8.7658193613
  0
LWPOLYLINE
  5
31A
100
AcDbEntity
  8
RACCORDO
100
AcDbPolyline
 62
7
  6
CONTINUOUS
 90
33
 70
0
 10
91.1600031866
 20
-30.9548509738
 10
91.1480488477
 20
-30.9513211963
 10
91.1308804805
 20
-30.9467218975
 10
91.113613316
 20
-30.9426243771
 10
91.0962685896
 20
-30.9390108221
 10
91.0788300761
 20
-30.9358574445
 10
91.0613170736
 20
-30.9331496411
 10
91.0437535988
 20
-30.9308736085
 10
91.0261307469
 20
-30.9290122662
 10
91.008466781
 20
-30.92755331
 10
90.9907852816
 20
-30.9264849406
 10
90.9730863439
 20
-30.9257944945
 10
90.955388776
 20
-30.925471229
 10
90.9377160338
 20
-30.9255045323
 10
90.9200762307
 20
-30.925884118
 10
90.9024887001
 20
-30.9266001896
 10
90.8849775491
 20
-30.9276428188
 10
90.8675588207
 20
-30.9290026547
 10
90.8502520844
 20
-30.9306704731
 10
90.8330827389
 20
-30.9326365922
 10
90.8160759049
 20
-30.9348912223
 10
90.7992509564
 20
-30.9374254238
 10
90.782635133
 20
-30.9402292537
 10
90.7662644738
 20
-30.9432909017
 10
90.7502028342
 20
-30.9465918108
 10
90.7344308871
 20
-30.9501299885
 10
90.7188663287
 20
-30.9539228481
 10
90.7035608286
 20
-30.957959963
 10
90.6885283689
 20
-30.9622405095
 10
90.6736532872
 20
-30.9668068044
 10
90.6589749013
 20
-30.9716630663
 10
90.6445671665
 20
-30.9768026425
 10
90.6366622607
 20
-30.9797948732
  0
LINE
  5
31B
100
AcDbEntity
  8
0
100
AcDbLine
 62
7
  6
CONTINUOUS
 10
-73.3833641601
 20
16.0094233372
 11
-73.322694001
 21
15.9907921191
  0
LINE
  5
31C
100
AcDbEntity
  8
RACCORDO
100
AcDbLine
 62
7
  6
CONTINUOUS
 10
-72.7477263992
 20
16.7355633935
 11
-73.4064603596
 21
16.9378542109
  0
LINE
  5
31D
100
AcDbEntity
  8
RACCORDO
100
AcDbLine
 62
7
  6
CONTINUOUS
 10
91.1600102142
 20
-30.9548518391
 11
91.7247447873
 21
-31.1282763554
  0
LINE
  5
31E
100
AcDbEntity
  8
0
100
AcDbLine
 62
7
  6
CONTINUOUS
 10
-73.4191343701
 20
19.8675432001
 11
-73.4798045292
 21
19.8861744182
  0
LWPOLYLINE
  5
31F
100
AcDbEntity
  8
RACCORDO
100
AcDbPolyline
 62
7
  6
CONTINUOUS
 90
5
 70
0
 10
2.8674142449
 20
-20.6485873232
 10
2.8667739562
 20
-20.6453086611
 10
2.8647265755
 20
-20.6419689675
 10
2.8613287813
 20
-20.6398785848
 10
2.8605841913
 20
-20.6396279531
  0
LINE
  5
320
100
AcDbEntity
  8
RACCORDO
100
AcDbLine
 62
7
  6
CONTINUOUS
 10
2.8673172622
 20
-20.6485688531
 11
2.883790412
 21
-21.3107635518
  0
LINE
  5
321
100
AcDbEntity
  8
SUPERFICI
100
AcDbLine
 62
7
  6
CONTINUOUS
 10
65.6039119086
 20
-8.7144513508
 11
65.5776577307
 21
-8.7093165203
  0
LINE
  5
322
100
AcDbEntity
  8
SUPERFICI
100
AcDbLine
 62
7
  6
CONTINUOUS
 10
-74.5312274172
 20
34.3191370496
 11
-74.5096599102
 21
34.3104347635
  0
LINE
  5
323
100
AcDbEntity
  8
0
100
AcDbLine
 62
7
  6
CONTINUOUS
 10
15.204853401
 20
-26.6196247852
 11
15.2061672558
 21
-26.6724396808
  0
LINE
  5
324
100
AcDbEntity
  8
RACCORDO
100
AcDbLine
 62
7
  6
CONTINUOUS
 10
15.8197778708
 20
-26.8608735561
 11
15.7957044938
 21
-25.8931616782
  0
LWPOLYLINE
  5
325
100
AcDbEntity
  8
RACCORDO
100
AcDbPolyline
 62
7
  6
CONTINUOUS
 90
6
 70
0
 10
2.8495797743
 20
-20.6843737775
 10
2.8569374994
 20
-20.6731160599
 10
2.8624496826
 20
-20.6637357682
 10
2.8660333656
 20
-20.6561010464
 10
2.867414718
 20
-20.6500105632
 10
2.8674142449
 20
-20.6485873232
  0
LINE
  5
326
100
AcDbEntity
  8
RACCORDO
100
AcDbLine
 62
7
  6
CONTINUOUS
 10
2.8453084389
 20
-20.6902695231
 11
2.1403021257
 21
-21.6997199039
  0
LINE
  5
327
100
AcDbEntity
  8
RACCORDO
100
AcDbLine
 62
7
  6
CONTINUOUS
 10
2.5660582186
 20
-21.8304654754
 11
2.8473876229
 21
-21.4308728507
  0
LINE
  5
328
100
AcDbEntity
  8
0
100
AcDbLine
 62
7
  6
CONTINUOUS
 10
-4.7443974899
 20
-20.3503158196
 11
-4.8352121966
 21
-20.4655147875
  0
LINE
  5
329
100
AcDbEntity
  8
0
100
AcDbLine
 62
7
  6
CONTINUOUS
 10
-0.2910495793
 20
-21.7178958191
 11
-0.3818642861
 21
-21.833094787
  0
LINE
  5
32A
100
AcDbEntity
  8
0
100
AcDbLine
 62
7
  6
CONTINUOUS
 10
-4.7443974899
 20
-20.3503158196
 11
-4.2443611039
 21
-19.7390516805
  0
LINE
  5
32B
100
AcDbEntity
  8
0
100
AcDbLine
 62
7
  6
CONTINUOUS
 10
0.2089868067
 20
-21.10663168
 11
-0.2910495793
 21
-21.7178958191
  0
LINE
  5
32C
100
AcDbEntity
  8
RACCORDO
100
AcDbLine
 62
7
  6
CONTINUOUS
 10
-2.5052705051
 20
-19.0471585656
 11
-4.0505119181
 21
-20.7589000644
  0
LWPOLYLINE
  5
32D
100
AcDbEntity
  8
RACCORDO
100
AcDbPolyline
 62
7
  6
CONTINUOUS
 90
6
 70
0
 10
-2.5000219942
 20
-19.0415629011
 10
-2.4876847598
 20
-19.0318343425
 10
-2.4744711346
 20
-19.0248190891
 10
-2.460464077
 20
-19.0203852847
 10
-2.4455800721
 20
-19.0184413352
 10
-2.4299962487
 20
-19.0187218461
  0
LWPOLYLINE
  5
32E
100
AcDbEntity
  8
SUPERFICI
100
AcDbPolyline
 62
7
  6
CONTINUOUS
 90
10
 70
0
 10
65.7559946857
 20
-6.1672566483
 10
65.8491031978
 20
-6.1941101327
 10
65.9431702754
 20
-6.2236033196
 10
66.0381382768
 20
-6.2557869382
 10
66.1338399032
 20
-6.2907081214
 10
66.2303176849
 20
-6.3284119817
 10
66.3278223479
 20
-6.3689481868
 10
66.4263870949
 20
-6.4123653011
 10
66.5258289699
 20
-6.4587039232
 10
66.6260672471
 20
-6.5080029791
  0
LINE
  5
32F
100
AcDbEntity
  8
SUPERFICI
100
AcDbLine
 62
7
  6
CONTINUOUS
 10
-72.7785337435
 20
36.3481992065
 11
-73.0923297985
 21
36.4406031233
  0
LINE
  5
330
100
AcDbEntity
  8
SUPERFICI
100
AcDbLine
 62
7
  6
CONTINUOUS
 10
64.1857443349
 20
-5.7122945099
 11
63.6560556069
 21
-5.5523820712
  0
LINE
  5
331
100
AcDbEntity
  8
SUPERFICI
100
AcDbLine
 62
7
  6
CONTINUOUS
 10
63.6560556069
 20
-5.5523820712
 11
63.5042452957
 21
-5.506158864
  0
LINE
  5
332
100
AcDbEntity
  8
SUPERFICI
100
AcDbLine
 62
7
  6
CONTINUOUS
 10
-4.4770054918
 20
12.8009650701
 11
65.5777408633
 21
-8.7090488533
  0
LINE
  5
333
100
AcDbEntity
  8
SUPERFICI
100
AcDbLine
 62
7
  6
CONTINUOUS
 10
-42.8929138513
 20
25.5345642612
 11
-74.5987014764
 21
35.2711044765
  0
LINE
  5
334
100
AcDbEntity
  8
SUPERFICI
100
AcDbLine
 62
7
  6
CONTINUOUS
 10
33.7841220216
 20
1.9877893884
 11
65.4860122901
 21
-7.7481968176
  0
LINE
  5
335
100
AcDbEntity
  8
SUPERFICI
100
AcDbLine
 62
7
  6
CONTINUOUS
 10
58.3051491583
 20
-3.8979435859
 11
63.5049413542
 21
-5.4946306119
  0
LINE
  5
336
100
AcDbEntity
  8
SUPERFICI
100
AcDbLine
 62
7
  6
CONTINUOUS
 10
-74.5096599102
 20
34.3104347635
 11
-4.4770182521
 21
12.8009689886
  0
LINE
  5
337
100
AcDbEntity
  8
SUPERFICI
100
AcDbLine
 62
7
  6
CONTINUOUS
 10
58.3059041911
 20
-3.8969384345
 11
-72.1034443297
 21
36.1493908634
  0
LWPOLYLINE
  5
338
100
AcDbEntity
  8
SUPERFICI
100
AcDbPolyline
 62
7
  6
CONTINUOUS
 90
4
 70
0
 10
-73.0923297985
 20
36.4406031233
 10
-73.2545760512
 20
36.4907122916
 10
-73.4202270634
 20
36.5439985187
 10
-73.5895423943
 20
36.6000830367
  0
LWPOLYLINE
  5
339
100
AcDbEntity
  8
SUPERFICI
100
AcDbPolyline
 62
7
  6
CONTINUOUS
 90
3
 70
0
 10
-72.7796328825
 20
36.3484459188
 10
-72.7050739262
 20
36.3249782432
 10
-72.1048099592
 20
36.1380682301
  0
LWPOLYLINE
  5
33A
100
AcDbEntity
  8
SUPERFICI
100
AcDbPolyline
 62
7
  6
CONTINUOUS
 90
6
 70
0
 10
64.1846521214
 20
-5.7118682791
 10
64.4979073395
 20
-5.8120257335
 10
64.6623663709
 20
-5.8622445928
 10
64.8320058423
 20
-5.911922825
 10
65.0067368125
 20
-5.9614915929
 10
65.7559946857
 20
-6.1672566483
  0
LWPOLYLINE
  5
33B
100
AcDbEntity
  8
SUPERFICI
100
AcDbPolyline
 62
7
  6
CONTINUOUS
 90
10
 70
0
 10
-74.3093327588
 20
36.845448463
 10
-74.3986156214
 20
36.8746056028
 10
-74.4888632103
 20
36.9017136644
 10
-74.5800064672
 20
36.9266830101
 10
-74.6718701609
 20
36.9493613196
 10
-74.7644748868
 20
36.9697228656
 10
-74.8580349829
 20
36.9878607969
 10
-74.9525559712
 20
37.0037384413
 10
-75.0478362387
 20
37.0171971027
 10
-75.1437676877
 20
37.0281398693
  0
LWPOLYLINE
  5
33C
100
AcDbEntity
  8
SUPERFICI
100
AcDbPolyline
 62
7
  6
CONTINUOUS
 90
6
 70
0
 10
65.5776577307
 20
-8.7093165203
 10
65.5695039214
 20
-8.7065327298
 10
65.5297586718
 20
-8.6832958419
 10
65.4947617258
 20
-8.6454837634
 10
65.4655791883
 20
-8.5944156582
 10
65.4425151108
 20
-8.5312143261
  0
LINE
  5
33D
100
AcDbEntity
  8
SUPERFICI
100
AcDbLine
 62
7
  6
CONTINUOUS
 10
-73.5895423943
 20
36.6000830367
 11
-74.3093327588
 21
36.845448463
  0
LWPOLYLINE
  5
33E
100
AcDbEntity
  8
SUPERFICI
100
AcDbPolyline
 62
7
  6
CONTINUOUS
 90
6
 70
0
 10
67.4435487355
 20
-17.7534375097
 10
67.4567656109
 20
-17.7589404036
 10
67.4705095441
 20
-17.7610315911
 10
67.4853239741
 20
-17.760626187
 10
67.5012438078
 20
-17.7578087823
 10
67.5353848358
 20
-17.7490261649
  0
LWPOLYLINE
  5
33F
100
AcDbEntity
  8
RACCORDO
100
AcDbPolyline
 62
7
  6
CONTINUOUS
 90
12
 70
0
 10
22.9069336879
 20
-26.7846228481
 10
22.9062716484
 20
-26.7763081706
 10
22.9035996198
 20
-26.7636133704
 10
22.8987327446
 20
-26.7510748364
 10
22.8917922478
 20
-26.7387287196
 10
22.883040658
 20
-26.7270832168
 10
22.8723869362
 20
-26.7162034277
 10
22.8599221214
 20
-26.7060242524
 10
22.8461818589
 20
-26.696858588
 10
22.8313446971
 20
-26.6888107335
 10
22.8152320876
 20
-26.6817763899
 10
22.7978440304
 20
-26.6757555571
  0
LINE
  5
340
100
AcDbEntity
  8
0
100
AcDbLine
 62
7
  6
CONTINUOUS
 10
19.6595151664
 20
-28.0400196803
 11
19.6582013116
 21
-27.9872047847
  0
LINE
  5
341
100
AcDbEntity
  8
RACCORDO
100
AcDbLine
 62
7
  6
CONTINUOUS
 10
22.906933803
 20
-26.7846274688
 11
22.9238560097
 21
-27.4648735496
  0
LWPOLYLINE
  5
342
100
AcDbEntity
  8
SUPERFICI
100
AcDbPolyline
 62
7
  6
CONTINUOUS
 90
6
 70
0
 10
-76.0853851227
 20
26.3229075759
 10
-76.0910307416
 20
26.3231971713
 10
-76.0959940977
 20
26.3268508111
 10
-76.1017382231
 20
26.3335695484
 10
-76.1078429072
 20
26.3431504692
 10
-76.1210033376
 20
26.3664589063
  0
LWPOLYLINE
  5
343
100
AcDbEntity
  8
SUPERFICI
100
AcDbPolyline
 62
7
  6
CONTINUOUS
 90
15
 70
0
 10
65.7759871008
 20
-8.7658193613
 10
65.8131065028
 20
-8.7847429504
 10
65.8497057229
 20
-8.8060924773
 10
65.8853674376
 20
-8.8296580374
 10
65.9198209112
 20
-8.8553225003
 10
65.9524878393
 20
-8.8827296063
 10
65.9826487044
 20
-8.9112987446
 10
66.0097139815
 20
-8.9404151906
 10
66.0331899105
 20
-8.9693500941
 10
66.0527740891
 20
-8.9972051161
 10
66.0683189286
 20
-9.0229868713
 10
66.0798659906
 20
-9.0456825311
 10
66.0877748118
 20
-9.0645676961
 10
66.0926545707
 20
-9.0793349942
 10
66.0946173583
 20
-9.0871120505
  0
LINE
  5
344
100
AcDbEntity
  8
0
100
AcDbLine
 62
7
  6
CONTINUOUS
 10
15.2956681077
 20
-26.5044258174
 11
15.204853401
 21
-26.6196247852
  0
LINE
  5
345
100
AcDbEntity
  8
0
100
AcDbLine
 62
7
  6
CONTINUOUS
 10
15.2956681077
 20
-26.5044258174
 11
15.7957044938
 21
-25.8931616782
  0
LINE
  5
346
100
AcDbEntity
  8
RACCORDO
100
AcDbLine
 62
7
  6
CONTINUOUS
 10
17.5400383167
 20
-25.1954603808
 11
15.9895536795
 21
-26.9130100621
  0
LWPOLYLINE
  5
347
100
AcDbEntity
  8
SUPERFICI
100
AcDbPolyline
 62
7
  6
CONTINUOUS
 90
10
 70
0
 10
-75.1437676868
 20
37.0281398684
 10
-75.2936231298
 20
37.0394830222
 10
-75.4394593355
 20
37.0441807161
 10
-75.5811729402
 20
37.0421441473
 10
-75.7179961866
 20
37.0331352709
 10
-75.8504780479
 20
37.0171771459
 10
-75.9803858668
 20
36.9943891411
 10
-76.1080804932
 20
36.964469663
 10
-76.232455445
 20
36.9272446295
 10
-76.3529512951
 20
36.8828657454
  0
LINE
  5
348
100
AcDbEntity
  8
0
100
AcDbLine
 62
7
  6
CONTINUOUS
 10
88.294049147
 20
3.6671840626
 11
-90.0187911812
 21
58.4253298402
  0
LWPOLYLINE
  5
349
100
AcDbEntity
  8
SUPERFICI
100
AcDbPolyline
 62
7
  6
CONTINUOUS
 90
10
 70
0
 10
66.6260672462
 20
-6.5080029794
 10
66.782850805
 20
-6.5908256923
 10
66.9356561787
 20
-6.6778379343
 10
67.0843775773
 20
-6.7690642789
 10
67.2282073718
 20
-6.8642589852
 10
67.367737242
 20
-6.9637492777
 10
67.5048500192
 20
-7.0685367207
 10
67.6399346495
 20
-7.1791531627
 10
67.7718768522
 20
-7.2950907112
 10
67.900176501
 20
-7.4158722826
  0
LWPOLYLINE
  5
34A
100
AcDbEntity
  8
SUPERFICI
100
AcDbPolyline
 62
7
  6
CONTINUOUS
 90
10
 70
0
 10
35.4869161933
 20
-40.4417114064
 10
35.5397418613
 20
-40.7670729312
 10
35.5940400208
 20
-41.0851697264
 10
35.6497787683
 20
-41.3961391194
 10
35.7066607007
 20
-41.6985916929
 10
35.7648981206
 20
-41.994220189
 10
35.8253023503
 20
-42.287618903
 10
35.8882102918
 20
-42.5802252978
 10
35.9533953505
 20
-42.8705009169
 10
36.0209047113
 20
-43.1584140289
  0
LINE
  5
34B
100
AcDbEntity
  8
0
100
AcDbLine
 62
7
  6
CONTINUOUS
 10
35.2449189987
 20
-32.773734783
 11
35.2462328535
 21
-32.8265496786
  0
LINE
  5
34C
100
AcDbEntity
  8
RACCORDO
100
AcDbLine
 62
7
  6
CONTINUOUS
 10
35.8598434685
 20
-33.0149835538
 11
35.8357700914
 21
-32.047271676
  0
LINE
  5
34D
100
AcDbEntity
  8
0
100
AcDbLine
 62
7
  6
CONTINUOUS
 10
39.6995807641
 20
-34.1941296781
 11
39.6982669093
 21
-34.1413147825
  0
LWPOLYLINE
  5
34E
100
AcDbEntity
  8
SUPERFICI
100
AcDbPolyline
 62
7
  6
CONTINUOUS
 90
5
 70
0
 10
34.2690623134
 20
8.5140981741
 10
34.3030004576
 20
8.9479853849
 10
34.3386667035
 20
9.3788621966
 10
34.3760275042
 20
9.806657348
 10
34.4148757217
 20
10.2291317362
  0
LWPOLYLINE
  5
34F
100
AcDbEntity
  8
SUPERFICI
100
AcDbPolyline
 62
7
  6
CONTINUOUS
 90
5
 70
0
 10
34.4148757217
 20
10.2291317362
 10
34.4979253485
 20
11.0708478354
 10
34.5429090386
 20
11.4987681399
 10
34.5901465962
 20
11.9299538237
 10
34.6396859648
 20
12.3644061226
  0
LWPOLYLINE
  5
350
100
AcDbEntity
  8
RACCORDO
100
AcDbPolyline
 62
7
  6
CONTINUOUS
 90
6
 70
0
 10
22.8896400852
 20
-26.8382712572
 10
22.8968978607
 20
-26.8263465905
 10
22.9021831616
 20
-26.8142145981
 10
22.9054959879
 20
-26.8018752799
 10
22.9068700554
 20
-26.7891953881
 10
22.9069336879
 20
-26.7846228481
  0
LINE
  5
351
100
AcDbEntity
  8
RACCORDO
100
AcDbLine
 62
7
  6
CONTINUOUS
 10
22.8896400852
 20
-26.8382712572
 11
22.1803677234
 21
-27.8538299017
  0
LINE
  5
352
100
AcDbEntity
  8
RACCORDO
100
AcDbLine
 62
7
  6
CONTINUOUS
 10
22.6061238163
 20
-27.9845754731
 11
22.8874532206
 21
-27.5849828485
  0
LINE
  5
353
100
AcDbEntity
  8
0
100
AcDbLine
 62
7
  6
CONTINUOUS
 10
19.7490160183
 20
-27.8720058169
 11
19.6582013116
 21
-27.9872047847
  0
LINE
  5
354
100
AcDbEntity
  8
0
100
AcDbLine
 62
7
  6
CONTINUOUS
 10
20.2490524043
 20
-27.2607416777
 11
19.7490160183
 21
-27.8720058169
  0
LWPOLYLINE
  5
355
100
AcDbEntity
  8
SUPERFICI
100
AcDbPolyline
 62
7
  6
CONTINUOUS
 90
11
 70
0
 10
-74.6632780127
 20
34.3697803274
 10
-74.6698175184
 20
34.3694245369
 10
-74.6777699113
 20
34.3693413557
 10
-74.6782574375
 20
34.3693177172
 10
-74.6714930153
 20
34.3684355652
 10
-74.6576855501
 20
34.3658404805
 10
-74.6369994461
 20
34.3606879021
 10
-74.6100670266
 20
34.352270226
 10
-74.5782767957
 20
34.3402550232
 10
-74.5426221074
 20
34.3243681053
 10
-74.5313295794
 20
34.3188272829
  0
LWPOLYLINE
  5
356
100
AcDbEntity
  8
0
100
AcDbPolyline
 62
7
  6
CONTINUOUS
 90
14
 70
0
 10
-90.0187911812
 20
58.4253298402
 10
-90.2510481334
 20
58.4874492896
 10
-90.4777263437
 20
58.5312058585
 10
-90.6988258121
 20
58.5565995467
 10
-90.9159371568
 20
58.5635447269
 10
-91.1274697595
 20
58.5521270265
 10
-91.3286517659
 20
58.522603328
 10
-91.519247121
 20
58.474562154
 10
-91.6994918797
 20
58.4084149819
 10
-91.8653223516
 20
58.3256531263
 10
-92.0164111
 20
58.2258991659
 10
-92.1530855617
 20
58.109530522
 10
-92.272264356
 20
57.9791707723
 10
-92.3340586312
 20
57.8959003439
  0
LWPOLYLINE
  5
357
100
AcDbEntity
  8
0
100
AcDbPolyline
 62
7
  6
CONTINUOUS
 90
19
 70
0
 10
88.294049147
 20
3.6671840626
 10
88.5267675733
 20
3.5865140779
 10
88.7547420106
 20
3.4906512233
 10
88.9779724588
 20
3.3795954988
 10
89.1980783189
 20
3.2522755112
 10
89.41344019
 20
3.1097626536
 10
89.6191998692
 20
2.9552711059
 10
89.8151382973
 20
2.7885291518
 10
90.0014745337
 20
2.6098085076
 10
90.174007553
 20
2.4231385018
 10
90.3324237999
 20
2.2283385559
 10
90.4770368298
 20
2.0255892484
 10
90.6045862839
 20
1.8194616438
 10
90.7146846871
 20
1.6098781514
 10
90.8077195144
 20
1.3969163619
 10
90.8815928332
 20
1.185380112
 10
90.9356053324
 20
0.9768706805
 10
90.9704563229
 20
0.7697867886
 10
90.9861458048
 20
0.5641284363
  0
LWPOLYLINE
  5
358
100
AcDbEntity
  8
RACCORDO
100
AcDbPolyline
 62
7
  6
CONTINUOUS
 90
5
 70
0
 10
42.9475454403
 20
-32.9568073187
 10
42.9469051515
 20
-32.9535286566
 10
42.9448577708
 20
-32.950188963
 10
42.9414599766
 20
-32.9480985803
 10
42.9407153866
 20
-32.9478479486
  0
LINE
  5
359
100
AcDbEntity
  8
RACCORDO
100
AcDbLine
 62
7
  6
CONTINUOUS
 10
42.9474484576
 20
-32.9567888486
 11
42.9639216073
 21
-33.6189835473
  0
LWPOLYLINE
  5
35A
100
AcDbEntity
  8
SUPERFICI
100
AcDbPolyline
 62
7
  6
CONTINUOUS
 90
10
 70
0
 10
67.9001744016
 20
-7.4158729136
 10
67.939861133
 20
-7.4548947937
 10
67.9787182613
 20
-7.4940133051
 10
68.0167521272
 20
-7.533154626
 10
68.0539428048
 20
-7.5722117556
 10
68.0903234373
 20
-7.6111508026
 10
68.1259390456
 20
-7.6500413793
 10
68.1607447065
 20
-7.6889114467
 10
68.1946419645
 20
-7.7277205683
 10
68.2275593175
 20
-7.7664639202
  0
LINE
  5
35B
100
AcDbEntity
  8
0
100
AcDbLine
 62
7
  6
CONTINUOUS
 10
55.2849845963
 20
-38.9278447807
 11
55.2862984511
 21
-38.9806596763
  0
LINE
  5
35C
100
AcDbEntity
  8
RACCORDO
100
AcDbLine
 62
7
  6
CONTINUOUS
 10
55.8999090662
 20
-39.1690935515
 11
55.8758356891
 21
-38.2013816737
  0
LWPOLYLINE
  5
35D
100
AcDbEntity
  8
RACCORDO
100
AcDbPolyline
 62
7
  6
CONTINUOUS
 90
6
 70
0
 10
42.9297109696
 20
-32.992593773
 10
42.9370686947
 20
-32.9813360554
 10
42.9425808779
 20
-32.9719557637
 10
42.9461645609
 20
-32.9643210419
 10
42.9475459133
 20
-32.9582305587
 10
42.9475454403
 20
-32.9568073187
  0
LINE
  5
35E
100
AcDbEntity
  8
RACCORDO
100
AcDbLine
 62
7
  6
CONTINUOUS
 10
42.9254396342
 20
-32.9984895186
 11
42.220433321
 21
-34.0079398994
  0
LINE
  5
35F
100
AcDbEntity
  8
RACCORDO
100
AcDbLine
 62
7
  6
CONTINUOUS
 10
42.6461894139
 20
-34.1386854709
 11
42.9275188182
 21
-33.7390928462
  0
LINE
  5
360
100
AcDbEntity
  8
0
100
AcDbLine
 62
7
  6
CONTINUOUS
 10
35.3357337054
 20
-32.6585358151
 11
35.2449189987
 21
-32.773734783
  0
LINE
  5
361
100
AcDbEntity
  8
0
100
AcDbLine
 62
7
  6
CONTINUOUS
 10
39.789081616
 20
-34.0261158146
 11
39.6982669093
 21
-34.1413147825
  0
LINE
  5
362
100
AcDbEntity
  8
0
100
AcDbLine
 62
7
  6
CONTINUOUS
 10
35.3357337054
 20
-32.6585358151
 11
35.8357700914
 21
-32.047271676
  0
LINE
  5
363
100
AcDbEntity
  8
0
100
AcDbLine
 62
7
  6
CONTINUOUS
 10
40.289118002
 20
-33.4148516755
 11
39.789081616
 21
-34.0261158146
  0
LINE
  5
364
100
AcDbEntity
  8
RACCORDO
100
AcDbLine
 62
7
  6
CONTINUOUS
 10
37.5748606902
 20
-31.3553785611
 11
36.0296192772
 21
-33.0671200599
  0
LWPOLYLINE
  5
365
100
AcDbEntity
  8
RACCORDO
100
AcDbPolyline
 62
7
  6
CONTINUOUS
 90
6
 70
0
 10
37.5801092011
 20
-31.3497828966
 10
37.5924464355
 20
-31.340054338
 10
37.6056600607
 20
-31.3330390846
 10
37.6196671183
 20
-31.3286052801
 10
37.6345511232
 20
-31.3266613307
 10
37.6501349466
 20
-31.3269418416
  0
LWPOLYLINE
  5
366
100
AcDbEntity
  8
SUPERFICI
100
AcDbPolyline
 62
7
  6
CONTINUOUS
 90
10
 70
0
 10
68.2275537417
 20
-7.7664654798
 10
68.3297730024
 20
-7.8923230428
 10
68.4254853917
 20
-8.017822128
 10
68.514246605
 20
-8.1428955268
 10
68.5956231339
 20
-8.2670503879
 10
68.6701887344
 20
-8.3904641303
 10
68.7386198116
 20
-8.5141490782
 10
68.8009013978
 20
-8.6389362433
 10
68.8572120231
 20
-8.7641347709
 10
68.9080305281
 20
-8.8892155293
  0
LINE
  5
367
100
AcDbEntity
  8
SUPERFICI
100
AcDbLine
 62
7
  6
CONTINUOUS
 10
66.9596048366
 20
-43.7516055428
 11
66.959846234
 21
-43.7524851004
  0
LWPOLYLINE
  5
368
100
AcDbEntity
  8
SUPERFICI
100
AcDbPolyline
 62
7
  6
CONTINUOUS
 90
4
 70
0
 10
66.9596048366
 20
-43.7516055428
 10
66.9557066838
 20
-43.7366266
 10
66.9449503749
 20
-43.6619578089
 10
66.9446215221
 20
-43.6530484993
  0
LINE
  5
369
100
AcDbEntity
  8
0
100
AcDbLine
 62
7
  6
CONTINUOUS
 10
59.7396463617
 20
-40.3482396758
 11
59.7383325069
 21
-40.2954247802
  0
LINE
  5
36A
100
AcDbEntity
  8
RACCORDO
100
AcDbLine
 62
7
  6
CONTINUOUS
 10
63.0460535968
 20
-38.9971194402
 11
63.0639614756
 21
-39.716987987
  0
LINE
  5
36B
100
AcDbEntity
  8
RACCORDO
100
AcDbLine
 62
7
  6
CONTINUOUS
 10
90.6359291208
 20
-30.9800571568
 11
90.6360201334
 21
-30.9800199286
  0
LWPOLYLINE
  5
36C
100
AcDbEntity
  8
SUPERFICI
100
AcDbPolyline
 62
7
  6
CONTINUOUS
 90
10
 70
0
 10
68.9080305283
 20
-8.8892155292
 10
68.9444542845
 20
-8.9826073361
 10
68.9758041653
 20
-9.0782351027
 10
69.0029217041
 20
-9.1759626776
 10
69.0271289944
 20
-9.2756553548
 10
69.0488311875
 20
-9.3771625771
 10
69.0668225632
 20
-9.4804147208
 10
69.0804705396
 20
-9.5854070226
 10
69.0899698189
 20
-9.6921780765
 10
69.0951360974
 20
-9.800720881
  0
LWPOLYLINE
  5
36D
100
AcDbEntity
  8
SUPERFICI
100
AcDbPolyline
 62
7
  6
CONTINUOUS
 90
14
 70
0
 10
66.1006695643
 20
-9.2715544483
 10
66.1288384007
 20
-9.3456635255
 10
66.1719434066
 20
-9.417746482
 10
66.2294746028
 20
-9.4866567978
 10
66.2995082554
 20
-9.5502603809
 10
66.3806609556
 20
-9.6077156549
 10
66.471863165
 20
-9.6584311939
 10
66.5705898699
 20
-9.7012030659
 10
66.6749241111
 20
-9.7355571062
 10
66.7839898357
 20
-9.761449613
 10
66.8966010751
 20
-9.7787030551
 10
67.0116730706
 20
-9.7872073519
 10
67.1282169549
 20
-9.7869165847
 10
67.2453379155
 20
-9.7778455354
  0
LWPOLYLINE
  5
36E
100
AcDbEntity
  8
SUPERFICI
100
AcDbPolyline
 62
7
  6
CONTINUOUS
 90
9
 70
0
 10
65.4425151108
 20
-8.5312143261
 10
65.4257646882
 20
-8.4567624015
 10
65.4156612021
 20
-8.373189265
 10
65.4121637306
 20
-8.2822236243
 10
65.4151369173
 20
-8.1846937884
 10
65.4244786428
 20
-8.0816835558
 10
65.4400618488
 20
-7.974200629
 10
65.4617335736
 20
-7.863183628
 10
65.4893180003
 20
-7.7494922425
  0
LWPOLYLINE
  5
36F
100
AcDbEntity
  8
SUPERFICI
100
AcDbPolyline
 62
7
  6
CONTINUOUS
 90
16
 70
0
 10
67.2459295619
 20
-9.7771041199
 10
67.2328872867
 20
-9.6215677931
 10
67.2014717445
 20
-9.4598438272
 10
67.1519366033
 20
-9.294510477
 10
67.084836635
 20
-9.1287894541
 10
67.0004327117
 20
-8.9645765975
 10
66.8996370048
 20
-8.8027827071
 10
66.7829834428
 20
-8.6446994747
 10
66.6526875455
 20
-8.493682846
 10
66.5089206901
 20
-8.3501028578
 10
66.3540372555
 20
-8.2160931734
 10
66.1894589842
 20
-8.0938308505
 10
66.0173686718
 20
-7.9849392796
 10
65.8405519549
 20
-7.8903750567
 10
65.6622413307
 20
-7.8113560786
 10
65.4854206437
 20
-7.7489382331
  0
LWPOLYLINE
  5
370
100
AcDbEntity
  8
SUPERFICI
100
AcDbPolyline
 62
7
  6
CONTINUOUS
 90
3
 70
0
 10
66.08691912
 20
-9.1797057859
 10
66.0876950177
 20
-9.1961283358
 10
66.1006695643
 20
-9.2715544483
  0
LWPOLYLINE
  5
371
100
AcDbEntity
  8
SUPERFICI
100
AcDbPolyline
 62
7
  6
CONTINUOUS
 90
3
 70
0
 10
69.9259483576
 20
-43.2046754007
 10
69.9008717761
 20
-42.5883319939
 10
69.8942314592
 20
-42.3868410958
  0
LWPOLYLINE
  5
372
100
AcDbEntity
  8
SUPERFICI
100
AcDbPolyline
 62
7
  6
CONTINUOUS
 90
5
 70
0
 10
69.0951360974
 20
-9.800720881
 10
69.1031780364
 20
-10.0191147431
 10
69.1097334659
 20
-10.2354886471
 10
69.1149899031
 20
-10.4497790682
 10
69.1189175222
 20
-10.6619979325
  0
LWPOLYLINE
  5
373
100
AcDbEntity
  8
SUPERFICI
100
AcDbPolyline
 62
7
  6
CONTINUOUS
 90
8
 70
0
 10
69.1585976258
 20
-12.7837925331
 10
69.1603704119
 20
-12.8378146742
 10
69.1604842012
 20
-12.8818357688
 10
69.159776377
 20
-12.9220130754
 10
69.1594020846
 20
-12.9662509946
 10
69.1597391299
 20
-13.0171832809
 10
69.1603980912
 20
-13.0721727353
 10
69.1613745474
 20
-13.1312170972
  0
LINE
  5
374
100
AcDbEntity
  8
SUPERFICI
100
AcDbLine
 62
7
  6
CONTINUOUS
 10
69.8558906106
 20
-41.0298775989
 11
69.8483759609
 21
-40.7864396303
  0
LINE
  5
375
100
AcDbEntity
  8
SUPERFICI
100
AcDbLine
 62
7
  6
CONTINUOUS
 10
69.8199592324
 20
-39.6544533983
 11
69.7803334502
 21
-38.3054051433
  0
LINE
  5
376
100
AcDbEntity
  8
SUPERFICI
100
AcDbLine
 62
7
  6
CONTINUOUS
 10
69.8483759609
 20
-40.7864396303
 11
69.8379304238
 21
-40.41316575
  0
LINE
  5
377
100
AcDbEntity
  8
SUPERFICI
100
AcDbLine
 62
7
  6
CONTINUOUS
 10
69.1733288672
 20
-13.6972289786
 11
69.1888592687
 21
-14.2729869695
  0
LINE
  5
378
100
AcDbEntity
  8
SUPERFICI
100
AcDbLine
 62
7
  6
CONTINUOUS
 10
66.08691912
 20
-9.1797057859
 11
66.5182172369
 21
-26.4225220546
  0
LINE
  5
379
100
AcDbEntity
  8
SUPERFICI
100
AcDbLine
 62
7
  6
CONTINUOUS
 10
69.7803334502
 20
-38.3054051433
 11
69.7284536051
 21
-36.3377095649
  0
LINE
  5
37A
100
AcDbEntity
  8
SUPERFICI
100
AcDbLine
 62
7
  6
CONTINUOUS
 10
67.2453379155
 20
-9.7778455354
 11
68.1031054525
 21
-44.2587507556
  0
LINE
  5
37B
100
AcDbEntity
  8
SUPERFICI
100
AcDbLine
 62
7
  6
CONTINUOUS
 10
66.5182146741
 20
-26.4224190358
 11
66.9444985831
 21
-43.6530507226
  0
LWPOLYLINE
  5
37C
100
AcDbEntity
  8
SUPERFICI
100
AcDbPolyline
 62
7
  6
CONTINUOUS
 90
18
 70
0
 10
69.8942314673
 20
-42.3868411005
 10
69.8871632375
 20
-42.1151753961
 10
69.8856198676
 20
-42.0654127004
 10
69.8829477575
 20
-42.0094066104
 10
69.8798224273
 20
-41.9512758984
 10
69.8777875423
 20
-41.8984121296
 10
69.878172086
 20
-41.8562035255
 10
69.8797015789
 20
-41.8192736359
 10
69.8800178567
 20
-41.7788680721
 10
69.8775410401
 20
-41.7291798114
 10
69.8738137384
 20
-41.6760129588
 10
69.8711690214
 20
-41.6280292385
 10
69.8709460953
 20
-41.5897384931
 10
69.87184772
 20
-41.5566372071
 10
69.8722703431
 20
-41.5238689029
 10
69.8714443489
 20
-41.4920738813
 10
69.8701376948
 20
-41.4606146914
 10
69.8690329948
 20
-41.4227131389
  0
LINE
  5
37D
100
AcDbEntity
  8
SUPERFICI
100
AcDbLine
 62
7
  6
CONTINUOUS
 10
69.1307840062
 20
-11.6974545128
 11
69.1373155711
 21
-11.9724791517
  0
LINE
  5
37E
100
AcDbEntity
  8
SUPERFICI
100
AcDbLine
 62
7
  6
CONTINUOUS
 10
69.8379304238
 20
-40.41316575
 11
69.8199592324
 21
-39.6544533983
  0
LINE
  5
37F
100
AcDbEntity
  8
SUPERFICI
100
AcDbLine
 62
7
  6
CONTINUOUS
 10
69.2142294523
 20
-15.5004976448
 11
69.2675127316
 21
-17.8086117771
  0
LINE
  5
380
100
AcDbEntity
  8
SUPERFICI
100
AcDbLine
 62
7
  6
CONTINUOUS
 10
69.1888592687
 20
-14.2729869695
 11
69.2017598249
 21
-14.8567283289
  0
LINE
  5
381
100
AcDbEntity
  8
SUPERFICI
100
AcDbLine
 62
7
  6
CONTINUOUS
 10
69.1613745474
 20
-13.1312170972
 11
69.1733288672
 21
-13.6972289786
  0
LINE
  5
382
100
AcDbEntity
  8
SUPERFICI
100
AcDbLine
 62
7
  6
CONTINUOUS
 10
69.2017598193
 20
-14.8567283124
 11
69.2142294523
 21
-15.5004976448
  0
LWPOLYLINE
  5
383
100
AcDbEntity
  8
SUPERFICI
100
AcDbPolyline
 62
7
  6
CONTINUOUS
 90
18
 70
0
 10
69.1373155711
 20
-11.9724791517
 10
69.1382611503
 20
-12.022768293
 10
69.1383784684
 20
-12.0788928278
 10
69.1381441383
 20
-12.1369757704
 10
69.13874905
 20
-12.1902276736
 10
69.1412675998
 20
-12.2338027561
 10
69.1446798786
 20
-12.2725578991
 10
69.1470386629
 20
-12.3142578824
 10
69.1470364899
 20
-12.3640464006
 10
69.145943214
 20
-12.4167632413
 10
69.1456852378
 20
-12.4647227455
 10
69.1473916372
 20
-12.5039878484
 10
69.1499754802
 20
-12.5385090893
 10
69.1520573429
 20
-12.5724396068
 10
69.1528252175
 20
-12.6047156031
 10
69.1530892444
 20
-12.6363953179
 10
69.1538830706
 20
-12.674811533
 10
69.1585976258
 20
-12.7837925331
  0
LINE
  5
384
100
AcDbEntity
  8
SUPERFICI
100
AcDbLine
 62
7
  6
CONTINUOUS
 10
69.1273529335
 20
-11.4940917133
 11
69.1307839983
 21
-11.6974545134
  0
LWPOLYLINE
  5
385
100
AcDbEntity
  8
SUPERFICI
100
AcDbPolyline
 62
7
  6
CONTINUOUS
 90
6
 70
0
 10
69.9522295505
 20
-44.254528992
 10
69.9495640267
 20
-44.0424996969
 10
69.9454852789
 20
-43.8313964071
 10
69.9401862363
 20
-43.6213731499
 10
69.9336383
 20
-43.4124911707
 10
69.9259483576
 20
-43.2046754007
  0
LINE
  5
386
100
AcDbEntity
  8
SUPERFICI
100
AcDbLine
 62
7
  6
CONTINUOUS
 10
69.1189175222
 20
-10.6619979325
 11
69.1273529335
 21
-11.4940917133
  0
LWPOLYLINE
  5
387
100
AcDbEntity
  8
SUPERFICI
100
AcDbPolyline
 62
7
  6
CONTINUOUS
 90
8
 70
0
 10
69.8690329948
 20
-41.4227131389
 10
69.8683937642
 20
-41.3164803779
 10
69.8675055378
 20
-41.2635340042
 10
69.8654338068
 20
-41.2197006211
 10
69.8627208196
 20
-41.1792735298
 10
69.8601439411
 20
-41.134970951
 10
69.8579550197
 20
-41.0843633515
 10
69.8558906106
 20
-41.0298775989
  0
LWPOLYLINE
  5
388
100
AcDbEntity
  8
SUPERFICI
100
AcDbPolyline
 62
7
  6
CONTINUOUS
 90
16
 70
0
 10
68.1036970989
 20
-44.2580093401
 10
68.0982517195
 20
-44.4078562748
 10
68.0744599536
 20
-44.5525961189
 10
68.0324503183
 20
-44.6897762633
 10
67.972624813
 20
-44.8164772058
 10
67.8951534549
 20
-44.930942558
 10
67.8009167542
 20
-45.0328103987
 10
67.6903920024
 20
-45.1210956896
 10
67.5656605736
 20
-45.1937619386
 10
67.426877941
 20
-45.2505398657
 10
67.2763277397
 20
-45.2907193396
 10
67.1153443191
 20
-45.312964358
 10
66.9460627597
 20
-45.316980237
 10
66.7712638022
 20
-45.3035267675
 10
66.5941688295
 20
-45.2733750668
 10
66.417754863
 20
-45.2273067447
  0
LWPOLYLINE
  5
389
100
AcDbEntity
  8
RACCORDO
100
AcDbPolyline
 62
7
  6
CONTINUOUS
 90
6
 70
0
 10
63.0639614756
 20
-39.716987987
 10
63.0625868005
 20
-39.7347247339
 10
63.0584739588
 20
-39.7520995652
 10
63.0518622977
 20
-39.7690202387
 10
63.0429343862
 20
-39.7855181198
 10
63.0361200188
 20
-39.7958567397
  0
LWPOLYLINE
  5
38A
100
AcDbEntity
  8
SUPERFICI
100
AcDbPolyline
 62
7
  6
CONTINUOUS
 90
3
 70
0
 10
66.0978711857
 20
-9.0803921244
 10
66.0901156159
 20
-9.1210799798
 10
66.08691912
 20
-9.1797057859
  0
LINE
  5
38B
100
AcDbEntity
  8
0
100
AcDbLine
 62
7
  6
CONTINUOUS
 10
62.1785383359
 20
-40.1368805962
 11
62.2066901033
 21
-40.0383531913
  0
LINE
  5
38C
100
AcDbEntity
  8
0
100
AcDbLine
 62
7
  6
CONTINUOUS
 10
62.3522306596
 20
-39.9504087345
 11
62.410472025
 21
-39.7465717781
  0
LINE
  5
38D
100
AcDbEntity
  8
0
100
AcDbLine
 62
7
  6
CONTINUOUS
 10
62.5560125812
 20
-39.6586273212
 11
62.6142539466
 21
-39.4547903648
  0
LINE
  5
38E
100
AcDbEntity
  8
0
100
AcDbLine
 62
7
  6
CONTINUOUS
 10
56.1132048433
 20
-39.088441156
 11
56.1824826313
 21
-38.8970991732
  0
LINE
  5
38F
100
AcDbEntity
  8
0
100
AcDbLine
 62
7
  6
CONTINUOUS
 10
56.3636647798
 20
-38.8109941089
 11
56.4329425678
 21
-38.6196521261
  0
LINE
  5
390
100
AcDbEntity
  8
0
100
AcDbLine
 62
7
  6
CONTINUOUS
 10
56.6141247163
 20
-38.5335470618
 11
56.6834025044
 21
-38.342205079
  0
LINE
  5
391
100
AcDbEntity
  8
0
100
AcDbLine
 62
7
  6
CONTINUOUS
 10
56.8645846528
 20
-38.2561000147
 11
56.9338624409
 21
-38.064758032
  0
LINE
  5
392
100
AcDbEntity
  8
0
100
AcDbLine
 62
7
  6
CONTINUOUS
 10
57.1150445893
 20
-37.9786529676
 11
57.1843223774
 21
-37.7873109849
  0
LINE
  5
393
100
AcDbEntity
  8
0
100
AcDbLine
 62
7
  6
CONTINUOUS
 10
57.3655045258
 20
-37.7012059205
 11
57.4347823139
 21
-37.5098639378
  0
LINE
  5
394
100
AcDbEntity
  8
0
100
AcDbLine
 62
7
  6
CONTINUOUS
 10
55.3757993031
 20
-38.8126458129
 11
55.2849845963
 21
-38.9278447807
  0
LINE
  5
395
100
AcDbEntity
  8
0
100
AcDbLine
 62
7
  6
CONTINUOUS
 10
55.3757993031
 20
-38.8126458129
 11
55.8758356891
 21
-38.2013816737
  0
LINE
  5
396
100
AcDbEntity
  8
RACCORDO
100
AcDbLine
 62
7
  6
CONTINUOUS
 10
57.6101042694
 20
-37.3156510048
 11
57.4347823139
 21
-37.5098639378
  0
LINE
  5
397
100
AcDbEntity
  8
0
100
AcDbLine
 62
7
  6
CONTINUOUS
 10
57.284506352
 20
-37.676332166
 11
57.1843223774
 21
-37.7873109849
  0
LINE
  5
398
100
AcDbEntity
  8
0
100
AcDbLine
 62
7
  6
CONTINUOUS
 10
57.0340464155
 20
-37.9537792131
 11
56.9338624409
 21
-38.064758032
  0
LINE
  5
399
100
AcDbEntity
  8
0
100
AcDbLine
 62
7
  6
CONTINUOUS
 10
56.783586479
 20
-38.2312262602
 11
56.6834025044
 21
-38.342205079
  0
LINE
  5
39A
100
AcDbEntity
  8
0
100
AcDbLine
 62
7
  6
CONTINUOUS
 10
56.5331265424
 20
-38.5086733073
 11
56.4329425678
 21
-38.6196521261
  0
LINE
  5
39B
100
AcDbEntity
  8
0
100
AcDbLine
 62
7
  6
CONTINUOUS
 10
56.2826666059
 20
-38.7861203544
 11
56.1824826313
 21
-38.8970991732
  0
LINE
  5
39C
100
AcDbEntity
  8
0
100
AcDbLine
 62
7
  6
CONTINUOUS
 10
56.0322066694
 20
-39.0635674015
 11
55.9320226948
 21
-39.1745462203
  0
LWPOLYLINE
  5
39D
100
AcDbEntity
  8
RACCORDO
100
AcDbPolyline
 62
7
  6
CONTINUOUS
 90
6
 70
0
 10
57.6153527803
 20
-37.3100553403
 10
57.6272673254
 20
-37.3005702112
 10
57.6405666205
 20
-37.29350562
 10
57.6549106975
 20
-37.2888777238
 10
57.6699186781
 20
-37.2868623761
 10
57.6853608966
 20
-37.2872244381
  0
LWPOLYLINE
  5
39E
100
AcDbEntity
  8
SUPERFICI
100
AcDbPolyline
 62
7
  6
CONTINUOUS
 90
6
 70
0
 10
67.9044887336
 20
-36.2825001083
 10
67.9173509508
 20
-36.2737462987
 10
67.9308671281
 20
-36.2666820596
 10
67.9455792166
 20
-36.2621626871
 10
67.9615014284
 20
-36.2594408752
 10
67.9784333368
 20
-36.2577792414
  0
LWPOLYLINE
  5
39F
100
AcDbEntity
  8
SUPERFICI
100
AcDbPolyline
 62
7
  6
CONTINUOUS
 90
6
 70
0
 10
66.9417032447
 20
-43.5400071667
 10
66.9278836379
 20
-43.5464823222
 10
66.8944379433
 20
-43.5558339103
 10
66.8583333311
 20
-43.5602764281
 10
66.8202986777
 20
-43.5597946677
 10
66.7809420592
 20
-43.5544663132
  0
LWPOLYLINE
  5
3A0
100
AcDbEntity
  8
SUPERFICI
100
AcDbPolyline
 62
7
  6
CONTINUOUS
 90
10
 70
0
 10
68.8595419016
 20
-45.9809367733
 10
68.8978389757
 20
-45.9640966151
 10
68.9352895245
 20
-45.9466728422
 10
68.9719034454
 20
-45.9287346133
 10
69.0076656522
 20
-45.9103694607
 10
69.0426112652
 20
-45.8916229814
 10
69.0767825838
 20
-45.8724553873
 10
69.1101329998
 20
-45.8528268985
 10
69.1425650291
 20
-45.8327361316
 10
69.1740067487
 20
-45.812161343
  0
LINE
  5
3A1
100
AcDbEntity
  8
0
100
AcDbLine
 62
7
  6
CONTINUOUS
 10
62.7597945028
 20
-39.366845908
 11
62.8180358683
 21
-39.1630089516
  0
LINE
  5
3A2
100
AcDbEntity
  8
RACCORDO
100
AcDbLine
 62
7
  6
CONTINUOUS
 10
62.9606832134
 20
-38.9587619623
 11
62.8180358683
 21
-39.1630089516
  0
LINE
  5
3A3
100
AcDbEntity
  8
0
100
AcDbLine
 62
7
  6
CONTINUOUS
 10
62.6957667153
 20
-39.3380777995
 11
62.6142539466
 21
-39.4547903648
  0
LINE
  5
3A4
100
AcDbEntity
  8
0
100
AcDbLine
 62
7
  6
CONTINUOUS
 10
62.4919847936
 20
-39.6298592128
 11
62.410472025
 21
-39.7465717781
  0
LINE
  5
3A5
100
AcDbEntity
  8
0
100
AcDbLine
 62
7
  6
CONTINUOUS
 10
62.288202872
 20
-39.921640626
 11
62.2066901033
 21
-40.0383531913
  0
LINE
  5
3A6
100
AcDbEntity
  8
RACCORDO
100
AcDbLine
 62
7
  6
CONTINUOUS
 10
62.6862550116
 20
-40.2927954686
 11
63.0361163446
 21
-39.7958619586
  0
LINE
  5
3A7
100
AcDbEntity
  8
0
100
AcDbLine
 62
7
  6
CONTINUOUS
 10
59.8291472136
 20
-40.1802258124
 11
59.7383325069
 21
-40.2954247802
  0
LINE
  5
3A8
100
AcDbEntity
  8
0
100
AcDbLine
 62
7
  6
CONTINUOUS
 10
60.3291835997
 20
-39.5689616732
 11
59.8291472136
 21
-40.1802258124
  0
LWPOLYLINE
  5
3A9
100
AcDbEntity
  8
SUPERFICI
100
AcDbPolyline
 62
7
  6
CONTINUOUS
 90
10
 70
0
 10
69.1740010294
 20
-45.8121571348
 10
69.2713570895
 20
-45.7425216845
 10
69.3621275778
 20
-45.6693641251
 10
69.4458700683
 20
-45.5926927664
 10
69.5221731233
 20
-45.5129019599
 10
69.5916099939
 20
-45.4301488346
 10
69.6548165979
 20
-45.3438181798
 10
69.7117380522
 20
-45.2531364757
 10
69.7625855051
 20
-45.1587240692
 10
69.8078650273
 20
-45.0611464336
  0
LWPOLYLINE
  5
3AA
100
AcDbEntity
  8
SUPERFICI
100
AcDbPolyline
 62
7
  6
CONTINUOUS
 90
10
 70
0
 10
69.8078650275
 20
-45.0611464337
 10
69.8401271134
 20
-44.9872456441
 10
69.8671418831
 20
-44.9086087654
 10
69.8897674281
 20
-44.8257652625
 10
69.9093480865
 20
-44.7394746177
 10
69.9263009376
 20
-44.6500657609
 10
69.9394091849
 20
-44.5570238259
 10
69.9480331854
 20
-44.4600602064
 10
69.9523686391
 20
-44.3592535962
 10
69.9522295505
 20
-44.254528992
  0
LWPOLYLINE
  5
3AB
100
AcDbEntity
  8
SUPERFICI
100
AcDbPolyline
 62
7
  6
CONTINUOUS
 90
19
 70
0
 10
66.7409480643
 20
-43.5444380828
 10
66.6870415499
 20
-43.6202946476
 10
66.6346813646
 20
-43.705822044
 10
66.5843361154
 20
-43.8004348621
 10
66.5363400591
 20
-43.9037812275
 10
66.4914592828
 20
-44.014540488
 10
66.4507255192
 20
-44.1302542892
 10
66.4145326084
 20
-44.2498158313
 10
66.3835004784
 20
-44.3713831163
 10
66.3585663851
 20
-44.4910957849
 10
66.3399616243
 20
-44.6071519645
 10
66.3278268781
 20
-44.718242967
 10
66.3223723355
 20
-44.8215500466
 10
66.3234762008
 20
-44.9155509036
 10
66.3309714481
 20
-44.999800789
 10
66.3447099329
 20
-45.073533358
 10
66.3645237674
 20
-45.1361150402
 10
66.3902240774
 20
-45.1870408262
 10
66.4216043386
 20
-45.2259360166
  0
LINE
  5
3AC
100
AcDbEntity
  8
RACCORDO
100
AcDbLine
 62
7
  6
CONTINUOUS
 10
90.7035461972
 20
-32.0680940683
 11
91.6345225174
 21
-31.1659165042
  0
LINE
  5
3AD
100
AcDbEntity
  8
RACCORDO
100
AcDbLine
 62
7
  6
CONTINUOUS
 10
90.4361912866
 20
-26.9871687331
 11
90.5606032453
 21
-31.9883337021
  0
LINE
  5
3AE
100
AcDbEntity
  8
RACCORDO
100
AcDbLine
 62
7
  6
CONTINUOUS
 10
90.5440470141
 20
-30.8930981182
 11
90.5473584955
 21
-31.0262144623
  0
LINE
  5
3AF
100
AcDbEntity
  8
RACCORDO
100
AcDbLine
 62
7
  6
CONTINUOUS
 10
92.4150641176
 20
-56.8761392195
 11
91.7774654693
 21
-31.2456768704
  0
LINE
  5
3B0
100
AcDbEntity
  8
RACCORDO
100
AcDbLine
 62
7
  6
CONTINUOUS
 10
91.6237444531
 20
-25.0663339128
 11
90.9861458048
 21
0.5641284363
  0
LINE
  5
3B1
100
AcDbEntity
  8
RACCORDO
100
AcDbLine
 62
7
  6
CONTINUOUS
 10
91.4923303074
 20
-25.4500134113
 11
90.5676054323
 21
-26.6034892346
  0
LWPOLYLINE
  5
3B2
100
AcDbEntity
  8
0
100
AcDbPolyline
 62
7
  6
CONTINUOUS
 90
8
 70
0
 10
92.0269054956
 20
-57.9885940305
 10
92.0905676127
 20
-57.9146494617
 10
92.1918534085
 20
-57.7699800089
 10
92.275643537
 20
-57.6113194503
 10
92.3400486109
 20
-57.4422471551
 10
92.3844388344
 20
-57.2639562464
 10
92.4094440033
 20
-57.0752536012
 10
92.4150641176
 20
-56.8761392195
  0
LINE
  5
3B3
100
AcDbEntity
  8
SUPERFICI
100
AcDbLine
 62
7
  6
CONTINUOUS
 10
89.8182780415
 20
-60.3811538985
 11
92.027297297
 21
-57.9881697764
  0
ARC
  5
3B4
100
AcDbEntity
  8
RACCORDO
100
AcDbCircle
 62
7
  6
CONTINUOUS
 10
90.8170268743
 20
-31.4461063455
 40
0.5
100
AcDbArc
 50
111.1323602173
 51
124.1670458878
  0
ARC
  5
3B5
100
AcDbEntity
  8
RACCORDO
100
AcDbCircle
 62
7
  6
CONTINUOUS
 10
-17.3562133299
 20
-15.1616273344
 40
0.2
100
AcDbArc
 50
324.8529017591
 51
1.4641416772
  0
ARC
  5
3B6
100
AcDbEntity
  8
RACCORDO
100
AcDbCircle
 62
7
  6
CONTINUOUS
 10
2.6838522678
 20
-21.3157373322
 40
0.2
100
AcDbArc
 50
324.8588914599
 51
1.4250300306
  0
ARC
  5
3B7
100
AcDbEntity
  8
RACCORDO
100
AcDbCircle
 62
7
  6
CONTINUOUS
 10
22.7239178655
 20
-27.4698473299
 40
0.2
100
AcDbArc
 50
324.8529017591
 51
1.4641416772
  0
ARC
  5
3B8
100
AcDbEntity
  8
RACCORDO
100
AcDbCircle
 62
7
  6
CONTINUOUS
 10
42.7639834631
 20
-33.6239573277
 40
0.2
100
AcDbArc
 50
324.8529017591
 51
1.4641416772
  0
ARC
  5
3B9
100
AcDbEntity
  8
RACCORDO
100
AcDbCircle
 62
7
  6
CONTINUOUS
 10
-37.3962789275
 20
-9.0075173367
 40
0.2
100
AcDbArc
 50
324.8588914599
 51
1.4250300306
  0
ARC
  5
3BA
100
AcDbEntity
  8
RACCORDO
100
AcDbCircle
 62
7
  6
CONTINUOUS
 10
-57.4363445252
 20
-2.853407339
 40
0.2
100
AcDbArc
 50
324.8588914599
 51
1.4250300306
  0
ELLIPSE
  5
3BB
100
AcDbEntity
  8
RACCORDO
100
AcDbEllipse
 62
7
  6
CONTINUOUS
 10
57.6139618842
 20
-37.470721048
 30
0.0
 11
0.066225087
 21
0.1888552206
 31
0.0
 40
0.3985724632
 41
0.7076711624
 42
0.76003104
  0
ELLIPSE
  5
3BC
100
AcDbEntity
  8
RACCORDO
100
AcDbEllipse
 62
7
  6
CONTINUOUS
 10
37.578718305
 20
-31.5104486043
 30
0.0
 11
0.066225087
 21
0.1888552206
 31
0.0
 40
0.3985724632
 41
0.7076711624
 42
0.76003104
  0
ELLIPSE
  5
3BD
100
AcDbEntity
  8
RACCORDO
100
AcDbEllipse
 62
7
  6
CONTINUOUS
 10
-2.5014128903
 20
-19.2022286089
 30
0.0
 11
0.066225087
 21
0.1888552206
 31
0.0
 40
0.3985724632
 41
0.7076711624
 42
0.76003104
  0
ELLIPSE
  5
3BE
100
AcDbEntity
  8
RACCORDO
100
AcDbEllipse
 62
7
  6
CONTINUOUS
 10
-22.541478488
 20
-13.0481186111
 30
0.0
 11
0.066225087
 21
0.1888552206
 31
0.0
 40
0.3985724632
 41
0.7076711624
 42
0.76003104
  0
ELLIPSE
  5
3BF
100
AcDbEntity
  8
RACCORDO
100
AcDbEllipse
 62
7
  6
CONTINUOUS
 10
-42.5815440856
 20
-6.8940086134
 30
0.0
 11
0.066225087
 21
0.1888552206
 31
0.0
 40
0.3985724632
 41
0.7076711624
 42
0.76003104
  0
ELLIPSE
  5
3C0
100
AcDbEntity
  8
RACCORDO
100
AcDbEllipse
 62
7
  6
CONTINUOUS
 10
-62.6264317017
 20
-0.5460610616
 30
0.0
 11
0.066225087
 21
0.1888552206
 31
0.0
 40
0.3985724632
 41
0.7076711624
 42
0.76003104
  0
ELLIPSE
  5
3C1
100
AcDbEntity
  8
RACCORDO
100
AcDbEllipse
 62
7
  6
CONTINUOUS
 10
62.9645408282
 20
-39.1138320055
 30
0.0
 11
0.0516258078
 21
0.1933488958
 31
0.0
 40
0.3268599536
 41
5.4446340408
 42
7.0154303676
  0
ELLIPSE
  5
3C2
100
AcDbEntity
  8
RACCORDO
100
AcDbEllipse
 62
7
  6
CONTINUOUS
 10
42.929297249
 20
-33.1535595618
 30
0.0
 11
0.0516258078
 21
0.1933488958
 31
0.0
 40
0.3268599536
 41
0.6798851829
 42
0.7322450604
  0
ELLIPSE
  5
3C3
100
AcDbEntity
  8
RACCORDO
100
AcDbEllipse
 62
7
  6
CONTINUOUS
 10
2.8491660537
 20
-20.8453395664
 30
0.0
 11
0.0516258078
 21
0.1933488958
 31
0.0
 40
0.3268599536
 41
0.6798851829
 42
0.7322450604
  0
ELLIPSE
  5
3C4
100
AcDbEntity
  8
RACCORDO
100
AcDbEllipse
 62
7
  6
CONTINUOUS
 10
-17.190899544
 20
-14.6912295686
 30
0.0
 11
0.0516258078
 21
0.1933488958
 31
0.0
 40
0.3268599536
 41
0.6798851829
 42
0.7322450604
  0
ELLIPSE
  5
3C5
100
AcDbEntity
  8
RACCORDO
100
AcDbEllipse
 62
7
  6
CONTINUOUS
 10
-37.2309651417
 20
-8.5371195709
 30
0.0
 11
0.0516258078
 21
0.1933488958
 31
0.0
 40
0.3268599536
 41
0.6798851829
 42
0.7322450604
  0
ELLIPSE
  5
3C6
100
AcDbEntity
  8
RACCORDO
100
AcDbEllipse
 62
7
  6
CONTINUOUS
 10
-57.2758527578
 20
-2.1891720191
 30
0.0
 11
0.0516258078
 21
0.1933488958
 31
0.0
 40
0.3268599536
 41
0.6798851829
 42
0.7322450604
  0
ELLIPSE
  5
3C7
100
AcDbEntity
  8
RACCORDO
100
AcDbEllipse
 62
7
  6
CONTINUOUS
 10
91.4734684912
 20
-25.232802141
 30
0.0
 11
0.0993376304
 21
0.2832828308
 31
0.0
 40
0.3985724632
 41
-2.294295151
 42
-0.8107652868
  0
ELLIPSE
  5
3C8
100
AcDbEntity
  8
RACCORDO
100
AcDbEllipse
 62
7
  6
CONTINUOUS
 10
90.5864672485
 20
-26.8207005049
 30
0.0
 11
0.0993376304
 21
0.2832828308
 31
0.0
 40
0.3985724632
 41
0.8472975026
 42
2.3308273668
  0
ELLIPSE
  5
3C9
100
AcDbEntity
  8
RACCORDO
100
AcDbEllipse
 62
7
  6
CONTINUOUS
 10
91.6271895074
 20
-31.4121450987
 30
0.0
 11
0.0993376304
 21
0.2832828308
 31
0.0
 40
0.3985724632
 41
5.4724200204
 42
6.9559498846
  0
ELLIPSE
  5
3CA
100
AcDbEntity
  8
RACCORDO
100
AcDbEllipse
 62
7
  6
CONTINUOUS
 10
90.7108792072
 20
-31.8218654739
 30
0.0
 11
0.0993376304
 21
0.2832828308
 31
0.0
 40
0.3985724632
 41
2.3308273668
 42
3.814357231
  0
ENDSEC
  0
SECTION
  2
OBJECTS
  0
DICTIONARY
  5
C
100
AcDbDictionary
280
0
281
1
  3
ACAD_GROUP
350
D
  3
ACAD_MLINESTYLE
350
17
  3
ACAD_LAYOUT
350
1A
  3
ACAD_PLOTSETTINGS
350
19
  3
ACAD_PLOTSTYLENAME
350
E
  0
DICTIONARY
  5
D
102
{ACAD_REACTORS
330
C
102
}
100
AcDbDictionary
280
0
281
1
  0
ACDBDICTIONARYWDFLT
  5
E
102
{ACAD_REACTORS
330
C
102
}
100
AcDbDictionary
281
1
  3
Normal
350
F
100
AcDbDictionaryWithDefault
340
F
  0
DICTIONARY
  5
17
102
{ACAD_REACTORS
330
C
102
}
100
AcDbDictionary
280
0
281
1
  3
Standard
350
18
  0
DICTIONARY
  5
19
102
{ACAD_REACTORS
330
C
102
}
100
AcDbDictionary
281
1
  0
DICTIONARY
  5
1A
102
{ACAD_REACTORS
330
C
102
}
100
AcDbDictionary
281
1
  3
Model
350
3CB
  3
Layout1
350
3CC
  0
ACDBPLACEHOLDER
  5
F
102
{ACAD_REACTORS
330
E
102
}
  0
MLINESTYLE
  5
18
102
{ACAD_REACTORS
330
17
102
}
100
AcDbMlineStyle
  2
STANDARD
 70
0
  3

 62
256
 51
90.0
 52
90.0
 71
2
 49
0.5
 62
256
  6
BYLAYER
 49
-0.5
 62
256
  6
BYLAYER
  0
LAYOUT
  5
3CB
102
{ACAD_REACTORS
330
1A
102
}
100
AcDbPlotSettings
  1

  2
none_device
  4
ISO_A4_(297.00_x_210.00_MM)
  6

 40
0.0
 41
0.0
 42
0.0
 43
0.0
 44
297.0
 45
210.0
 46
0.0
 47
0.0
 48
0.0
 49
0.0
140
0.0
141
0.0
142
1.0
143
1.0
 70
1024
 72
1
 73
0
 74
0
  7

 75
0
147
1.0
148
0.0
149
0.0
100
AcDbLayout
  1
Model
 70
0
 71
0
 10
0.0
 20
0.0
 11
297.0
 21
210.0
 12
0.0
 22
0.0
 32
0.0
 14
0.0
 24
0.0
 34
0.0
 15
0.0
 25
0.0
 35
0.0
146
0.0
 13
0.0
 23
0.0
 33
0.0
 16
1.0
 26
0.0
 36
0.0
 17
0.0
 27
1.0
 37
0.0
 76
0
330
21D
345
0
346
0
  0
LAYOUT
  5
3CC
102
{ACAD_REACTORS
330
1A
102
}
100
AcDbPlotSettings
  1

  2
none_device
  4
ISO_A4_(297.00_x_210.00_MM)
  6

 40
0.0
 41
0.0
 42
0.0
 43
0.0
 44
297.0
 45
210.0
 46
0.0
 47
0.0
 48
0.0
 49
0.0
140
0.0
141
0.0
142
1.0
143
1.0
 70
0
 72
1
 73
0
 74
0
  7

 75
0
147
1.0
148
0.0
149
0.0
100
AcDbLayout
  1
Layout1
 70
0
 71
1
 10
0.0
 20
0.0
 11
297.0
 21
210.0
 12
0.0
 22
0.0
 32
0.0
 14
0.0
 24
0.0
 34
0.0
 15
0.0
 25
0.0
 35
0.0
146
0.0
 13
0.0
 23
0.0
 33
0.0
 16
1.0
 26
0.0
 36
0.0
 17
0.0
 27
1.0
 37
0.0
 76
0
330
21E
345
0
346
0
  0
ENDSEC
  0
EOF
