  0
SECTION
  2
HEADER
  9
$ACADVER
  1
AC1024
  9
$DWGCODEPAGE
  3
ANSI_1252
  9
$EXTMAX
 10
297.0
 20
210.0
 30
0.0
  9
$EXTMIN
 10
0.0
 20
0.0
 30
0.0
  9
$LIMMIN
 10
0.0
 20
0.0
  9
$LIMMAX
 10
297.0
 20
210.0
  9
$VIEWCTR
 10
148.5
 20
105.0
  9
$VIEWSIZE
 40
210.0
  9
$CLAYER
  8
0
  9
$LTSCALE
 40
16.335
  9
$CELTYPE
  6
BYLAYER
  9
$DIMSCALE
 40
1.0
  9
$DIMASZ
 40
3.0
  9
$DIMEXO
 40
0.5
  9
$DIMDLI
 40
11.286
  9
$DIMEXE
 40
1.5
  9
$DIMCEN
 40
2.673
  9
$DIMLFAC
 40
1.0
  9
$DIMBLK
  1
_FILLED
  9
$DIMALT
 70
0
  9
$DIMALTF
 40
0.0393700787
  9
$DIMTXT
 40
3.0
  9
$DIMTOL
 70
1
  9
$DIMLIM
 70
0
  9
$DIMTFAC
 40
1.0
  9
$DIMTP
 40
0.01
  9
$DIMTM
 40
0.01
  9
$DIMGAP
 40
0.625
  9
$DIMDSEP
 70
44
  9
$AUNITS
 70
0
  9
$PDMODE
 70
3
  9
$PDSIZE
 40
3.0
  9
$HANDSEED
  5
4A1
  9
$TILEMODE
 70
1
  9
$MEASUREMENT
 70
1
  9
$INSUNITS
 70
4
  0
ENDSEC
  0
SECTION
  2
CLASSES
  0
CLASS
  1
ACDBDICTIONARYWDFLT
  2
AcDbDictionaryWithDefault
  3
AutoCAD 2000
 90
0
 91
1
280
0
281
0
  0
CLASS
  1
ACDBPLACEHOLDER
  2
AcDbPlaceHolder
  3
AutoCAD 2000
 90
0
 91
1
280
0
281
0
  0
CLASS
  1
LAYOUT
  2
AcDbLayout
  3
AutoCAD 2000
 90
0
 91
0
280
0
281
0
  0
ENDSEC
  0
SECTION
  2
TABLES
  0
TABLE
  2
VPORT
  5
8
100
AcDbSymbolTable
 70
2
  0
VPORT
  5
1F4
100
AcDbSymbolTableRecord
100
AcDbViewportTableRecord
  2
*ACTIVE
 70
0
 10
0.0
 20
0.0
 11
1.0
 21
1.0
 12
148.5
 22
105.0
 13
0.0
 23
0.0
 14
1.0
 24
1.0
 15
0.0
 25
0.0
 16
0.0
 26
0.0
 36
1.0
 17
0.0
 27
0.0
 37
0.0
 40
210.0
 41
1.4142857143
 42
50.0
 43
0.0
 44
0.0
 50
0.0
 51
0.0
 71
0
 72
100
 73
1
 74
1
 75
0
 76
0
 77
0
 78
0
  0
ENDTAB
  0
TABLE
  2
LTYPE
  5
5
100
AcDbSymbolTable
 70
6
  0
LTYPE
  5
14
100
AcDbSymbolTableRecord
100
AcDbLinetypeTableRecord
  2
BYBLOCK
 70
0
  3

 72
65
 73
0
 40
0.0
  0
LTYPE
  5
15
100
AcDbSymbolTableRecord
100
AcDbLinetypeTableRecord
  2
BYLAYER
 70
0
  3

 72
65
 73
0
 40
0.0
  0
LTYPE
  5
16
100
AcDbSymbolTableRecord
100
AcDbLinetypeTableRecord
  2
CONTINUOUS
 70
64
  3
Solid line
 72
65
 73
0
 40
0.0
  0
LTYPE
  5
1F5
100
AcDbSymbolTableRecord
100
AcDbLinetypeTableRecord
  2
CENTER
 70
64
  3
____ _ ____ _ ____ _ ____ _ ____ _ ____ _ ____
 72
65
 73
4
 40
0.6
 49
0.375
 74
0
 49
-0.075
 74
0
 49
0.075
 74
0
 49
-0.075
 74
0
  0
LTYPE
  5
1F6
100
AcDbSymbolTableRecord
100
AcDbLinetypeTableRecord
  2
HIDDEN
 70
64
  3
- - - - - - - - - - - - - - - - - - - -
 72
65
 73
2
 40
0.2
 49
0.1
 74
0
 49
-0.1
 74
0
  0
LTYPE
  5
1F7
100
AcDbSymbolTableRecord
100
AcDbLinetypeTableRecord
  2
PHANTOM
 70
64
  3
_____ _ _ _____ _ _ _____ _ _ _____
 72
65
 73
6
 40
0.8
 49
0.45
 74
0
 49
-0.05
 74
0
 49
0.1
 74
0
 49
-0.05
 74
0
 49
0.1
 74
0
 49
-0.05
 74
0
  0
LTYPE
  5
1F8
100
AcDbSymbolTableRecord
100
AcDbLinetypeTableRecord
  2
DOT
 70
64
  3
. . . . . . . . . . . . . . . . . . . .
 72
65
 73
2
 40
0.2
 49
0.1
 74
0
 49
-0.1
 74
0
  0
LTYPE
  5
1F9
100
AcDbSymbolTableRecord
100
AcDbLinetypeTableRecord
  2
DASHED
 70
64
  3
- - - - - - - - - - - - - - - - - - - -
 72
65
 73
2
 40
0.2
 49
0.1
 74
0
 49
-0.1
 74
0
  0
ENDTAB
  0
TABLE
  2
LAYER
  5
2
100
AcDbSymbolTable
 70
36
  0
LAYER
  5
10
100
AcDbSymbolTableRecord
100
AcDbLayerTableRecord
  2
0
 70
0
 62
7
  6
CONTINUOUS
370
-3
390
F
  0
LAYER
  5
1FA
100
AcDbSymbolTableRecord
100
AcDbLayerTableRecord
  2
DEFAULT_1
 70
0
 62
7
  6
CENTER
370
-3
390
F
  0
LAYER
  5
1FB
100
AcDbSymbolTableRecord
100
AcDbLayerTableRecord
  2
DEFAULT_2
 70
0
 62
7
  6
HIDDEN
370
-3
390
F
  0
LAYER
  5
1FC
100
AcDbSymbolTableRecord
100
AcDbLayerTableRecord
  2
DEFAULT_3
 70
0
 62
7
  6
PHANTOM
370
-3
390
F
  0
LAYER
  5
1FD
100
AcDbSymbolTableRecord
100
AcDbLayerTableRecord
  2
ASSI
 70
0
 62
7
  6
CONTINUOUS
370
-3
390
F
  0
LAYER
  5
1FE
100
AcDbSymbolTableRecord
100
AcDbLayerTableRecord
  2
COORDINATE
 70
0
 62
7
  6
CONTINUOUS
370
-3
390
F
  0
LAYER
  5
1FF
100
AcDbSymbolTableRecord
100
AcDbLayerTableRecord
  2
COORD_ORIGINE
 70
0
 62
7
  6
CONTINUOUS
370
-3
390
F
  0
LAYER
  5
200
100
AcDbSymbolTableRecord
100
AcDbLayerTableRecord
  2
CURVE
 70
0
 62
7
  6
CONTINUOUS
370
-3
390
F
  0
LAYER
  5
201
100
AcDbSymbolTableRecord
100
AcDbLayerTableRecord
  2
DRAFT
 70
0
 62
7
  6
CONTINUOUS
370
-3
390
F
  0
LAYER
  5
202
100
AcDbSymbolTableRecord
100
AcDbLayerTableRecord
  2
IGES-SCRITTE
 70
0
 62
7
  6
CONTINUOUS
370
-3
390
F
  0
LAYER
  5
203
100
AcDbSymbolTableRecord
100
AcDbLayerTableRecord
  2
INTF_1
 70
0
 62
7
  6
CONTINUOUS
370
-3
390
F
  0
LAYER
  5
204
100
AcDbSymbolTableRecord
100
AcDbLayerTableRecord
  2
INTF_7
 70
0
 62
7
  6
CONTINUOUS
370
-3
390
F
  0
LAYER
  5
205
100
AcDbSymbolTableRecord
100
AcDbLayerTableRecord
  2
PIANI
 70
0
 62
7
  6
CONTINUOUS
370
-3
390
F
  0
LAYER
  5
206
100
AcDbSymbolTableRecord
100
AcDbLayerTableRecord
  2
PIANI_ORIGINE
 70
0
 62
7
  6
CONTINUOUS
370
-3
390
F
  0
LAYER
  5
207
100
AcDbSymbolTableRecord
100
AcDbLayerTableRecord
  2
PPP
 70
0
 62
7
  6
CONTINUOUS
370
-3
390
F
  0
LAYER
  5
208
100
AcDbSymbolTableRecord
100
AcDbLayerTableRecord
  2
PUNTI
 70
0
 62
7
  6
CONTINUOUS
370
-3
390
F
  0
LAYER
  5
209
100
AcDbSymbolTableRecord
100
AcDbLayerTableRecord
  2
RACCORDO
 70
0
 62
7
  6
CONTINUOUS
370
-3
390
F
  0
LAYER
  5
20A
100
AcDbSymbolTableRecord
100
AcDbLayerTableRecord
  2
RGB__255__255__255__
 70
0
 62
7
  6
CONTINUOUS
370
-3
390
F
  0
LAYER
  5
20B
100
AcDbSymbolTableRecord
100
AcDbLayerTableRecord
  2
RGB____0____0____0__
 70
0
 62
7
  6
CONTINUOUS
370
-3
390
F
  0
LAYER
  5
20C
100
AcDbSymbolTableRecord
100
AcDbLayerTableRecord
  2
SNAPLINE
 70
0
 62
7
  6
CONTINUOUS
370
-3
390
F
  0
LAYER
  5
20D
100
AcDbSymbolTableRecord
100
AcDbLayerTableRecord
  2
SOLIDO
 70
0
 62
7
  6
CONTINUOUS
370
-3
390
F
  0
LAYER
  5
20E
100
AcDbSymbolTableRecord
100
AcDbLayerTableRecord
  2
SUPERFICI
 70
0
 62
7
  6
CONTINUOUS
370
-3
390
F
  0
LAYER
  5
20F
100
AcDbSymbolTableRecord
100
AcDbLayerTableRecord
  2
TRASH
 70
0
 62
7
  6
CONTINUOUS
370
-3
390
F
  0
ENDTAB
  0
TABLE
  2
STYLE
  5
3
100
AcDbSymbolTable
 70
1
  0
STYLE
  5
11
100
AcDbSymbolTableRecord
100
AcDbTextStyleTableRecord
  2
STANDARD
 70
0
 40
0.0
 41
0.8
 50
0.0
 71
0
 42
0.2
  3
txt
  4

  0
STYLE
  5
210
100
AcDbSymbolTableRecord
100
AcDbTextStyleTableRecord
  2
TEXTSTYLE_1
 70
0
 40
0.0
 41
0.8
 50
0.0
 71
0
 42
0.2
  3
gdt
  4

  0
ENDTAB
  0
TABLE
  2
VIEW
  5
6
100
AcDbSymbolTable
 70
0
  0
ENDTAB
  0
TABLE
  2
UCS
  5
7
100
AcDbSymbolTable
 70
0
  0
ENDTAB
  0
TABLE
  2
APPID
  5
9
100
AcDbSymbolTable
 70
1
  0
APPID
  5
211
100
AcDbSymbolTableRecord
100
AcDbRegAppTableRecord
  2
ACAD
 70
0
  0
ENDTAB
  0
TABLE
  2
BLOCK_RECORD
  5
1
100
AcDbSymbolTable
 70
0
  0
BLOCK_RECORD
  5
212
100
AcDbSymbolTableRecord
100
AcDbBlockTableRecord
  2
*Model_Space
  0
BLOCK_RECORD
  5
213
100
AcDbSymbolTableRecord
100
AcDbBlockTableRecord
  2
*Paper_Space
  0
BLOCK_RECORD
  5
214
100
AcDbSymbolTableRecord
100
AcDbBlockTableRecord
  2
_FILLED
  0
ENDTAB
  0
TABLE
  2
DIMSTYLE
  5
A
100
AcDbSymbolTable
 70
1
100
AcDbDimStyleTable
 71
0
  0
DIMSTYLE
105
215
100
AcDbSymbolTableRecord
100
AcDbDimStyleTableRecord
  2
STANDARD
 70
0
  3

  4

 40
1.0
 41
3.0
 42
0.5
 43
0.38
 44
1.5
 45
0.0
 46
0.0
 47
0.01
 48
0.01
140
3.0
141
0.09
142
0.0
143
25.4
144
1.0
145
0.0
146
1.0
147
0.625
 71
1
 72
0
 73
0
 74
0
 75
0
 76
0
 77
1
 78
8
 79
2
170
0
171
1
172
0
173
0
174
0
175
0
176
0
177
0
178
0
270
2
179
2
271
2
272
2
273
2
274
2
275
0
280
0
281
0
282
0
283
1
284
8
285
0
286
0
287
3
288
0
340
11
278
44
341
214
342
214
343
214
344
214
  0
ENDTAB
  0
ENDSEC
  0
SECTION
  2
BLOCKS
  0
BLOCK
  5
20
100
AcDbEntity
  8
0
100
AcDbBlockBegin
  2
*Model_Space
 70
0
 10
0.0
 20
0.0
 30
0.0
  3
*Model_Space
  1

  0
ENDBLK
  5
21
100
AcDbEntity
  8
0
100
AcDbBlockEnd
  0
BLOCK
  5
1C
100
AcDbEntity
  8
0
100
AcDbBlockBegin
  2
*Paper_Space
 70
0
 10
0.0
 20
0.0
 30
0.0
  3
*Paper_Space
  1

  0
ENDBLK
  5
1D
100
AcDbEntity
  8
0
100
AcDbBlockEnd
  0
BLOCK
  5
216
100
AcDbEntity
  8
0
100
AcDbBlockBegin
  2
_FILLED
 70
64
 10
0.0
 20
0.0
  3
_FILLED
  1

  0
SOLID
  5
217
100
AcDbEntity
  8
0
  6
BYBLOCK
 62
0
100
AcDbTrace
 10
0.0
 20
0.0
 11
-1.0
 21
0.3166666667
 12
-1.0
 22
-0.3166666667
 13
-1.0
 23
-0.3166666667
  0
ENDBLK
  5
218
100
AcDbEntity
  8
0
  6
BYBLOCK
 62
0
100
AcDbBlockEnd
  0
ENDSEC
  0
SECTION
  2
ENTITIES
  0
LWPOLYLINE
  5
219
100
AcDbEntity
  8
RACCORDO
100
AcDbPolyline
 62
7
  6
CONTINUOUS
 90
10
 70
0
 10
-92.9167191731
 20
56.5881636041
 10
-92.9367988372
 20
56.5583202005
 10
-93.0100017646
 20
56.4375342504
 10
-93.0746859946
 20
56.3100011302
 10
-93.130203082
 20
56.1764577391
 10
-93.1761456149
 20
56.0374661892
 10
-93.2121738276
 20
55.893601361
 10
-93.2379726202
 20
55.7456016773
 10
-93.2533568099
 20
55.5940573316
 10
-93.258213554
 20
55.4317258431
  0
LINE
  5
21A
100
AcDbEntity
  8
SUPERFICI
100
AcDbLine
 62
7
  6
CONTINUOUS
 10
-91.1232794484
 20
59.2007313377
 11
-92.9171230477
 21
56.5876073885
  0
LINE
  5
21B
100
AcDbEntity
  8
RACCORDO
100
AcDbLine
 62
7
  6
CONTINUOUS
 10
-92.9167800436
 20
56.5881068093
 11
-92.9171198714
 21
56.5876120155
  0
LWPOLYLINE
  5
21C
100
AcDbEntity
  8
RACCORDO
100
AcDbPolyline
 62
250
  6
CONTINUOUS
 90
25
 70
0
 10
-91.3694713895
 20
-2.5049135726
 10
-91.3595058253
 20
-2.5963949182
 10
-91.342975563
 20
-2.6898812878
 10
-91.319911891
 20
-2.7849029271
 10
-91.2904015649
 20
-2.8810398113
 10
-91.2545544648
 20
-2.9778690661
 10
-91.2124940139
 20
-3.0749509824
 10
-91.1643789163
 20
-3.1718759571
 10
-91.1104016628
 20
-3.2682227047
 10
-91.0507803359
 20
-3.3635351587
 10
-90.985763367
 20
-3.4573910638
 10
-90.9156140575
 20
-3.5494260298
 10
-90.8405923362
 20
-3.6392765849
 10
-90.7609884071
 20
-3.7265694271
 10
-90.6771385575
 20
-3.8109522533
 10
-90.5893693261
 20
-3.8920913671
 10
-90.4979990083
 20
-3.9696690195
 10
-90.4034407972
 20
-4.0433543906
 10
-90.3061699012
 20
-4.1128017046
 10
-90.2066163598
 20
-4.1777155803
 10
-90.1051753946
 20
-4.2378726619
 10
-90.002278116
 20
-4.2930550722
 10
-89.8983519226
 20
-4.3430491722
 10
-89.7938627426
 20
-4.387665932
 10
-89.6893299802
 20
-4.4267432318
  0
LINE
  5
21D
100
AcDbEntity
  8
RACCORDO
100
AcDbLine
 62
250
  6
CONTINUOUS
 10
-91.423556809
 20
-1.8120591637
 11
-91.4127159766
 21
-1.9392456337
  0
LINE
  5
21E
100
AcDbEntity
  8
RACCORDO
100
AcDbLine
 62
250
  6
CONTINUOUS
 10
-91.4127159766
 20
-1.9392456337
 11
-91.3938621385
 21
-2.1791806435
  0
LWPOLYLINE
  5
21F
100
AcDbEntity
  8
RACCORDO
100
AcDbPolyline
 62
7
  6
CONTINUOUS
 90
24
 70
0
 10
-91.8299085109
 20
-1.9832559279
 10
-91.8198898417
 20
-2.1167092834
 10
-91.7987944787
 20
-2.268860474
 10
-91.7668649468
 20
-2.4238599526
 10
-91.72392629
 20
-2.5806973386
 10
-91.6703568646
 20
-2.7373381378
 10
-91.6062061022
 20
-2.8933806988
 10
-91.5315480481
 20
-3.0483915736
 10
-91.4473816415
 20
-3.2003615728
 10
-91.3541934343
 20
-3.3486583863
 10
-91.2521865423
 20
-3.4931579984
 10
-91.1423558532
 20
-3.6326802234
 10
-91.0253421334
 20
-3.7666581004
 10
-90.9014080146
 20
-3.8950095692
 10
-90.7711222379
 20
-4.0172822733
 10
-90.6349152868
 20
-4.1331221306
 10
-90.4932307929
 20
-4.2422094801
 10
-90.3466535125
 20
-4.3441109692
 10
-90.1956105553
 20
-4.43847652
 10
-90.040529267
 20
-4.524987681
 10
-89.8819350411
 20
-4.6032502288
 10
-89.7202641648
 20
-4.6728974877
 10
-89.5560151127
 20
-4.7335873159
 10
-89.5264909561
 20
-4.7434406084
  0
LINE
  5
220
100
AcDbEntity
  8
RACCORDO
100
AcDbLine
 62
250
  6
CONTINUOUS
 10
-91.3938621385
 20
-2.1791806435
 11
-91.3694724322
 21
-2.5049146694
  0
LINE
  5
221
100
AcDbEntity
  8
RACCORDO
100
AcDbLine
 62
250
  6
CONTINUOUS
 10
-91.8288345306
 20
-1.9999091882
 11
-91.8298958671
 21
-1.9835346792
  0
LINE
  5
222
100
AcDbEntity
  8
RACCORDO
100
AcDbLine
 62
7
  6
CONTINUOUS
 10
-91.8298958671
 20
-1.9835346792
 11
-91.8299085109
 21
-1.9832559279
  0
LINE
  5
223
100
AcDbEntity
  8
RACCORDO
100
AcDbLine
 62
7
  6
CONTINUOUS
 10
-91.8730081815
 20
-0.7166506811
 11
-91.8299172442
 21
-1.9835356413
  0
LWPOLYLINE
  5
224
100
AcDbEntity
  8
RACCORDO
100
AcDbPolyline
 62
250
  6
CONTINUOUS
 90
7
 70
0
 10
-91.4299340961
 20
-1.6850567747
 10
-91.4291938167
 20
-1.7067397395
 10
-91.4283587923
 20
-1.7281036305
 10
-91.4274197402
 20
-1.7491957372
 10
-91.4263790172
 20
-1.7700662769
 10
-91.4251249109
 20
-1.7910132034
 10
-91.423556809
 20
-1.8120591637
  0
LINE
  5
225
100
AcDbEntity
  8
RACCORDO
100
AcDbLine
 62
250
  6
CONTINUOUS
 10
-91.8123298447
 20
9.115220505
 11
-91.4299340961
 21
-1.6850567747
  0
LINE
  5
226
100
AcDbEntity
  8
RACCORDO
100
AcDbLine
 62
7
  6
CONTINUOUS
 10
-92.0812210968
 20
6.5996166737
 11
-91.8730081815
 21
-0.7166506811
  0
LINE
  5
227
100
AcDbEntity
  8
RACCORDO
100
AcDbLine
 62
250
  6
CONTINUOUS
 10
-91.9896399747
 20
15.4515176146
 11
-91.8123298447
 21
9.115220505
  0
LINE
  5
228
100
AcDbEntity
  8
RACCORDO
100
AcDbLine
 62
7
  6
CONTINUOUS
 10
-92.3326844915
 20
16.2325680765
 11
-92.0812210968
 21
6.5996166737
  0
LINE
  5
229
100
AcDbEntity
  8
RACCORDO
100
AcDbLine
 62
250
  6
CONTINUOUS
 10
-92.2180138043
 20
24.7247661942
 11
-91.9896399747
 21
15.4515176146
  0
LINE
  5
22A
100
AcDbEntity
  8
RACCORDO
100
AcDbLine
 62
7
  6
CONTINUOUS
 10
-93.0801408874
 20
46.7555446794
 11
-92.3326844915
 21
16.2325680765
  0
LINE
  5
22B
100
AcDbEntity
  8
RACCORDO
100
AcDbLine
 62
250
  6
CONTINUOUS
 10
-92.6133897943
 20
40.8798642107
 11
-92.2180138043
 21
24.7247661942
  0
LINE
  5
22C
100
AcDbEntity
  8
RACCORDO
100
AcDbLine
 62
250
  6
CONTINUOUS
 10
-92.720566961
 20
46.4851225433
 11
-92.6133897943
 21
40.8798642107
  0
LWPOLYLINE
  5
22D
100
AcDbEntity
  8
RACCORDO
100
AcDbPolyline
 62
7
  6
CONTINUOUS
 90
3
 70
0
 10
-93.2582353745
 20
55.4317294792
 10
-93.2377121349
 20
54.1437553349
 10
-93.0801408874
 20
46.7555446794
  0
LINE
  5
22E
100
AcDbEntity
  8
RACCORDO
100
AcDbLine
 62
250
  6
CONTINUOUS
 10
-92.8180631015
 20
54.1225184988
 11
-92.8162064123
 21
53.981320813
  0
LINE
  5
22F
100
AcDbEntity
  8
RACCORDO
100
AcDbLine
 62
250
  6
CONTINUOUS
 10
-92.8162064123
 20
53.981320813
 11
-92.720566961
 21
46.4851225433
  0
LWPOLYLINE
  5
230
100
AcDbEntity
  8
RACCORDO
100
AcDbPolyline
 62
250
  6
CONTINUOUS
 90
6
 70
0
 10
-92.8177768056
 20
54.2271458766
 10
-92.8182832335
 20
54.2066263619
 10
-92.8184675333
 20
54.1859451269
 10
-92.8184342298
 20
54.1651305114
 10
-92.8182985286
 20
54.1440009982
 10
-92.8180631015
 20
54.1225184988
  0
LINE
  5
231
100
AcDbEntity
  8
RACCORDO
100
AcDbLine
 62
250
  6
CONTINUOUS
 10
-92.798143117
 20
54.9253983997
 11
-92.8069775736
 21
54.5625581501
  0
LINE
  5
232
100
AcDbEntity
  8
RACCORDO
100
AcDbLine
 62
250
  6
CONTINUOUS
 10
-92.8069775736
 20
54.5625581501
 11
-92.8125107899
 21
54.3722140494
  0
LINE
  5
233
100
AcDbEntity
  8
RACCORDO
100
AcDbLine
 62
250
  6
CONTINUOUS
 10
-92.8125107899
 20
54.3722140494
 11
-92.813916115
 21
54.3299285559
  0
LINE
  5
234
100
AcDbEntity
  8
RACCORDO
100
AcDbLine
 62
250
  6
CONTINUOUS
 10
-92.813916115
 20
54.3299285559
 11
-92.8177768056
 21
54.2271458766
  0
LWPOLYLINE
  5
235
100
AcDbEntity
  8
RACCORDO
100
AcDbPolyline
 62
250
  6
CONTINUOUS
 90
16
 70
0
 10
-91.1887429708
 20
55.8472995407
 10
-91.1839304298
 20
55.9276047055
 10
-91.1748652659
 20
56.0115376887
 10
-91.1616288949
 20
56.0983446637
 10
-91.144340196
 20
56.1872459915
 10
-91.123154443
 20
56.2774432235
 10
-91.098261911
 20
56.3681262721
 10
-91.0698861665
 20
56.4584806863
 10
-91.0382820599
 20
56.5476949669
 10
-91.0037334367
 20
56.6349678546
 10
-90.9665505877
 20
56.7195155263
 10
-90.9270674628
 20
56.8005786348
 10
-90.8856386716
 20
56.877429129
 10
-90.842636298
 20
56.9493767923
 10
-90.7984465588
 20
57.015775442
 10
-88.7758578747
 20
59.7370917764
  0
LWPOLYLINE
  5
236
100
AcDbEntity
  8
RACCORDO
100
AcDbPolyline
 62
250
  6
CONTINUOUS
 90
9
 70
0
 10
-89.6893306733
 20
-4.4267441569
 10
-89.6809004841
 20
-4.4918827011
 10
-89.6682834256
 20
-4.5507468957
 10
-89.651592817
 20
-4.6028080559
 10
-89.6309785637
 20
-4.6475985976
 10
-89.6066258113
 20
-4.6847162375
 10
-89.5787532821
 20
-4.7138276057
 10
-89.5476113114
 20
-4.7346712404
 10
-89.5268786866
 20
-4.7433253645
  0
LINE
  5
237
100
AcDbEntity
  8
RACCORDO
100
AcDbLine
 62
250
  6
CONTINUOUS
 10
-75.316473452
 20
1.9352503832
 11
-75.3483036085
 21
2.9123682822
  0
LINE
  5
238
100
AcDbEntity
  8
RACCORDO
100
AcDbLine
 62
250
  6
CONTINUOUS
 10
-75.3483036085
 20
2.9123682822
 11
-75.4628920643
 21
7.0531188912
  0
LINE
  5
239
100
AcDbEntity
  8
RACCORDO
100
AcDbLine
 62
250
  6
CONTINUOUS
 10
-75.4628920643
 20
7.0531188912
 11
-75.6387181405
 21
13.8102439524
  0
LINE
  5
23A
100
AcDbEntity
  8
RACCORDO
100
AcDbLine
 62
250
  6
CONTINUOUS
 10
-75.6387181405
 20
13.8102439524
 11
-75.8950787208
 21
24.1081180507
  0
LINE
  5
23B
100
AcDbEntity
  8
RACCORDO
100
AcDbLine
 62
250
  6
CONTINUOUS
 10
-75.8950787208
 20
24.1081180507
 11
-76.0426958598
 21
30.2940873018
  0
LINE
  5
23C
100
AcDbEntity
  8
RACCORDO
100
AcDbLine
 62
250
  6
CONTINUOUS
 10
-74.0964986098
 20
1.1090069147
 11
-74.9528308767
 21
35.5322184413
  0
LINE
  5
23D
100
AcDbEntity
  8
RACCORDO
100
AcDbLine
 62
250
  6
CONTINUOUS
 10
-76.0426958598
 20
30.2940873018
 11
-76.1626320892
 21
35.7489152526
  0
LINE
  5
23E
100
AcDbEntity
  8
RACCORDO
100
AcDbLine
 62
250
  6
CONTINUOUS
 10
-76.1626320892
 20
35.7489152526
 11
-76.1720729369
 21
36.3290111635
  0
LWPOLYLINE
  5
23F
100
AcDbEntity
  8
RACCORDO
100
AcDbPolyline
 62
250
  6
CONTINUOUS
 90
76
 70
0
 10
-74.9528320347
 20
35.5322174414
 10
-74.9532697152
 20
35.582324743
 10
-74.9517935923
 20
35.6303270296
 10
-74.9485702225
 20
35.6762253608
 10
-74.9437514965
 20
35.7201010305
 10
-74.9375032148
 20
35.761896248
 10
-74.9300315379
 20
35.8014257423
 10
-74.9215533602
 20
35.8385427483
 10
-74.9122041039
 20
35.8734864258
 10
-74.9020476997
 20
35.9066533475
 10
-74.8912706215
 20
35.9378774639
 10
-74.8799340437
 20
35.9674088282
 10
-74.867788679
 20
35.9962097972
 10
-74.8547765378
 20
36.02448061
 10
-74.8409955717
 20
36.0520082557
 10
-74.8263189493
 20
36.0790728115
 10
-74.8106793232
 20
36.1057706299
 10
-74.7941365811
 20
36.1319622575
 10
-74.7767351314
 20
36.1575614009
 10
-74.7584736278
 20
36.1825652063
 10
-74.7393688922
 20
36.2069475153
 10
-74.7195099347
 20
36.2305999042
 10
-74.6988899141
 20
36.2535452111
 10
-74.6775518956
 20
36.2757487792
 10
-74.6556884188
 20
36.2970405283
 10
-74.6332784885
 20
36.3174850874
 10
-74.6104128294
 20
36.337040164
 10
-74.5875024896
 20
36.3554242023
 10
-74.5646518186
 20
36.3726568097
 10
-74.5418878775
 20
36.3888131014
 10
-74.5195556154
 20
36.4037482048
 10
-74.4978815585
 20
36.4174361501
 10
-74.4767917471
 20
36.4300409898
 10
-74.4561846314
 20
36.4417113244
 10
-74.4361433109
 20
36.452481542
 10
-74.416687904
 20
36.4624188645
 10
-74.3975961468
 20
36.4716938248
 10
-74.3788791683
 20
36.4803491238
 10
-74.3605882102
 20
36.4884061179
 10
-74.3425387275
 20
36.4959773311
 10
-74.3247524526
 20
36.5030864061
 10
-74.3072470495
 20
36.5097509151
 10
-74.2898159251
 20
36.516053644
 10
-74.2724955808
 20
36.5219944638
 10
-74.2552722109
 20
36.5275946297
 10
-74.2378480413
 20
36.5329463788
 10
-74.2202090268
 20
36.5380507566
 10
-74.2023734007
 20
36.5429013306
 10
-74.1840766668
 20
36.5475555625
 10
-74.1653347814
 20
36.5519879428
 10
-74.1461240188
 20
36.5561972683
 10
-74.1261050838
 20
36.5602520834
 10
-74.105151183
 20
36.564143073
 10
-74.0833628138
 20
36.5678169002
 10
-74.0607328084
 20
36.5712606945
 10
-74.0373139208
 20
36.5744392538
 10
-74.0130314079
 20
36.5773250414
 10
-73.9876823216
 20
36.5799060965
 10
-73.9612564667
 20
36.582136213
 10
-73.9337351915
 20
36.5839707957
 10
-73.9048939201
 20
36.5853774337
 10
-73.8747024277
 20
36.5862943644
 10
-73.8431574446
 20
36.5866581519
 10
-73.8100671389
 20
36.5864090534
 10
-73.7753216418
 20
36.5854751587
 10
-73.7389977898
 20
36.5837638569
 10
-73.7011860419
 20
36.5811763441
 10
-73.6620038687
 20
36.5776644911
 10
-73.6213268504
 20
36.5731199163
 10
-73.5788899002
 20
36.567338519
 10
-73.5346669935
 20
36.5601938312
 10
-73.4887013126
 20
36.551599606
 10
-73.4408387054
 20
36.5413775344
 10
-73.3910468442
 20
36.5293795944
 10
-73.3394166388
 20
36.5155029378
 10
-73.285991078
 20
36.4996221246
  0
LWPOLYLINE
  5
240
100
AcDbEntity
  8
RACCORDO
100
AcDbPolyline
 62
250
  6
CONTINUOUS
 90
74
 70
0
 10
-76.1720724676
 20
36.3290116847
 10
-76.1716329259
 20
36.4260621247
 10
-76.1674429539
 20
36.5189315087
 10
-76.1598277998
 20
36.6076288018
 10
-76.1490852848
 20
36.6923546761
 10
-76.1355298688
 20
36.7730045577
 10
-76.1195520279
 20
36.8491786386
 10
-76.1014206839
 20
36.9205480065
 10
-76.0815882456
 20
36.9875390006
 10
-76.0607120237
 20
37.0508984503
 10
-76.0394295521
 20
37.1103006629
 10
-76.017804613
 20
37.1659779346
 10
-75.9954629581
 20
37.2193703281
 10
-75.9725560133
 20
37.2709506818
 10
-75.9489005127
 20
37.3209084282
 10
-75.9233262457
 20
37.3702055081
 10
-75.895321926
 20
37.4191435951
 10
-75.8653410285
 20
37.4672952498
 10
-75.8336579605
 20
37.5143219212
 10
-75.8003534129
 20
37.5601401495
 10
-75.7654037346
 20
37.6047401822
 10
-75.7289467884
 20
37.6479652439
 10
-75.6909513128
 20
37.6898657212
 10
-75.6515173524
 20
37.730357234
 10
-75.6110370481
 20
37.7691138578
 10
-75.5694807797
 20
37.8062328246
 10
-75.5270210473
 20
37.8416403918
 10
-75.4844425016
 20
37.8748457249
 10
-75.4419366535
 20
37.9058748979
 10
-75.3995619462
 20
37.9348622799
 10
-75.3579897127
 20
37.9615756305
 10
-75.3176383904
 20
37.9859669527
 10
-75.2783596668
 20
38.0083323464
 10
-75.2399786158
 20
38.028972362
 10
-75.2026557993
 20
38.0479495861
 10
-75.1664471083
 20
38.0653670274
 10
-75.130971192
 20
38.081539072
 10
-75.0962758614
 20
38.0965208881
 10
-75.0623302159
 20
38.1104179009
 10
-75.0285930841
 20
38.1235643153
 10
-74.9949878698
 20
38.1360126835
 10
-74.9615432908
 20
38.1477874674
 10
-74.9278317449
 20
38.1591375505
 10
-74.8938594486
 20
38.1700695073
 10
-74.8596839961
 20
38.1805493302
 10
-74.824901824
 20
38.1907327084
 10
-74.7895309719
 20
38.2006086469
 10
-74.7536130065
 20
38.2101188209
 10
-74.7167462327
 20
38.2193111519
 10
-74.6789368966
 20
38.2282544613
 10
-74.640448797
 20
38.236763056
 10
-74.601306325
 20
38.2444728555
 10
-74.5618649075
 20
38.2511328087
 10
-74.5219738053
 20
38.256951596
 10
-74.4808810348
 20
38.2622290207
 10
-74.4381382894
 20
38.2670744884
 10
-74.3936378464
 20
38.2713761635
 10
-74.3471131943
 20
38.2750598788
 10
-74.298680558
 20
38.278024992
 10
-74.2483591197
 20
38.280186211
 10
-74.1957235141
 20
38.2814549128
 10
-74.1406919745
 20
38.2817181423
 10
-74.0832881262
 20
38.2808952682
 10
-74.0232568122
 20
38.2789085385
 10
-73.9606691147
 20
38.2754028934
 10
-73.8952849259
 20
38.2704629012
 10
-73.826145055
 20
38.2645808471
 10
-73.752362995
 20
38.2577950566
 10
-73.6738153024
 20
38.249456068
 10
-73.5909040979
 20
38.2389677051
 10
-73.5043910882
 20
38.2260393463
 10
-73.4146222701
 20
38.2104518781
 10
-73.3213220974
 20
38.1917076966
 10
-73.2243170555
 20
38.1694550951
  0
LWPOLYLINE
  5
241
100
AcDbEntity
  8
RACCORDO
100
AcDbPolyline
 62
250
  6
CONTINUOUS
 90
10
 70
0
 10
-73.285989743
 20
36.499623463
 10
-73.2349819348
 20
36.6880903771
 10
-73.1889419652
 20
36.8761228705
 10
-73.1480671674
 20
37.0629149975
 10
-73.1125327359
 20
37.2476661286
 10
-73.082490975
 20
37.4295843827
 10
-73.0580706466
 20
37.607890021
 10
-73.0393764178
 20
37.7818187888
 10
-73.0264884126
 20
37.9506251917
 10
-73.0194618682
 20
38.1135856909
  0
LWPOLYLINE
  5
242
100
AcDbEntity
  8
RACCORDO
100
AcDbPolyline
 62
250
  6
CONTINUOUS
 90
19
 70
0
 10
-73.285991078
 20
36.4996221246
 10
-73.3082038687
 20
36.4205723382
 10
-73.327338333
 20
36.3417294965
 10
-73.3432986872
 20
36.26364507
 10
-73.3557628638
 20
36.1867845948
 10
-73.364955727
 20
36.1117759006
 10
-73.3715287509
 20
36.0393662801
 10
-73.3760770796
 20
35.9702507309
 10
-73.3777125453
 20
35.9046324235
 10
-73.3750508901
 20
35.8425416296
 10
-73.3674786007
 20
35.784213711
 10
-73.3561813246
 20
35.7303888514
 10
-73.3424961019
 20
35.6818160291
 10
-73.3268419064
 20
35.6389288923
 10
-73.3087457699
 20
35.6018455972
 10
-73.2880345443
 20
35.5707297734
 10
-73.2647795324
 20
35.5457728437
 10
-73.2391996042
 20
35.5271636566
 10
-73.2112384434
 20
35.5149583741
  0
LINE
  5
243
100
AcDbEntity
  8
RACCORDO
100
AcDbLine
 62
250
  6
CONTINUOUS
 10
-73.2000121017
 20
35.4990113811
 11
-73.1913501073
 21
35.5088526421
  0
LINE
  5
244
100
AcDbEntity
  8
0
100
AcDbLine
 62
250
  6
CONTINUOUS
 10
-72.3032012685
 20
1.1193841361
 11
-73.1584427641
 21
35.4987470523
  0
LINE
  5
245
100
AcDbEntity
  8
SUPERFICI
100
AcDbLine
 62
7
  6
CONTINUOUS
 10
-71.8161879607
 20
35.0865523038
 11
-71.0114687255
 21
2.7381053381
  0
LWPOLYLINE
  5
246
100
AcDbEntity
  8
RACCORDO
100
AcDbPolyline
 62
250
  6
CONTINUOUS
 90
13
 70
0
 10
-62.7292348282
 20
47.1863358584
 10
-62.7140637871
 20
47.2779208423
 10
-62.694857953
 20
47.3712954006
 10
-62.6718023084
 20
47.46556084
 10
-62.6451190889
 20
47.5598099543
 10
-62.6150651054
 20
47.6531355888
 10
-62.5819292706
 20
47.7446393709
 10
-62.546030754
 20
47.8334406471
 10
-62.50771525
 20
47.9186847564
 10
-62.4673511094
 20
47.9995510888
 10
-62.4253268481
 20
48.0752613079
 10
-62.3820474061
 20
48.145086841
 10
-62.3379295911
 20
48.2083556905
  0
LWPOLYLINE
  5
247
100
AcDbEntity
  8
RACCORDO
100
AcDbPolyline
 62
250
  6
CONTINUOUS
 90
17
 70
0
 10
-63.9798029458
 20
33.6413423428
 10
-64.0027813825
 20
33.551854191
 10
-64.0223588052
 20
33.4628919221
 10
-64.0383657133
 20
33.3752257768
 10
-64.0506635166
 20
33.2896147773
 10
-64.0591457455
 20
33.2068001436
 10
-64.0637389708
 20
33.1274988778
 10
-64.064403427
 20
33.0523975717
 10
-64.0611333578
 20
32.9821464603
 10
-64.0539570759
 20
32.9173537819
 10
-64.0429367138
 20
32.8585805151
 10
-64.0281676866
 20
32.8063355225
 10
-64.0097778652
 20
32.7610711441
 10
-63.9879264762
 20
32.7231792835
 10
-63.9628027039
 20
32.6929880087
 10
-63.9346240525
 20
32.6707587118
 10
-63.9035283584
 20
32.6566512131
  0
LWPOLYLINE
  5
248
100
AcDbEntity
  8
RACCORDO
100
AcDbPolyline
 62
250
  6
CONTINUOUS
 90
10
 70
0
 10
-63.9798030197
 20
33.6413423655
 10
-63.9297570182
 20
33.8323184586
 10
-63.8847900255
 20
34.0228358418
 10
-63.8450990042
 20
34.2120600193
 10
-63.8108578069
 20
34.39916216
 10
-63.7822164154
 20
34.5833227274
 10
-63.7593002836
 20
34.7637350696
 10
-63.7422097876
 20
34.9396089526
 10
-63.7310197864
 20
35.1101740215
 10
-63.7257792941
 20
35.2746831749
  0
LWPOLYLINE
  5
249
100
AcDbEntity
  8
SUPERFICI
100
AcDbPolyline
 62
7
  6
CONTINUOUS
 90
10
 70
0
 10
-71.0114687255
 20
2.7381053381
 10
-71.0053751744
 20
2.6943269882
 10
-70.9924782028
 20
2.651895306
 10
-70.9727778106
 20
2.6108102913
 10
-70.9452822276
 20
2.5699287866
 10
-70.910983224
 20
2.5303939495
 10
-70.8728561111
 20
2.4956352524
 10
-70.8318926596
 20
2.4667958527
 10
-70.7871010987
 20
2.442732593
 10
-70.7384814287
 20
2.4234454732
  0
LWPOLYLINE
  5
24A
100
AcDbEntity
  8
RACCORDO
100
AcDbPolyline
 62
250
  6
CONTINUOUS
 90
13
 70
0
 10
-62.7320431336
 20
-4.6719453855
 10
-62.6840836821
 20
-5.3211347505
 10
-62.6258886927
 20
-5.9937911827
 10
-62.5535083007
 20
-6.7133401292
 10
-62.4655666827
 20
-7.4702026123
 10
-62.3625245484
 20
-8.241320857
 10
-62.2452348886
 20
-9.0106574167
 10
-62.1158007848
 20
-9.7621825384
 10
-61.9735548712
 20
-10.4980768036
 10
-61.8147035305
 20
-11.2336334629
 10
-61.6366721883
 20
-11.9730236661
 10
-61.4390885561
 20
-12.7099994907
 10
-61.2210263229
 20
-13.4412728632
  0
LWPOLYLINE
  5
24B
100
AcDbEntity
  8
RACCORDO
100
AcDbPolyline
 62
250
  6
CONTINUOUS
 90
13
 70
0
 10
-63.7257792941
 20
35.2746831749
 10
-63.7120424192
 20
36.0011861367
 10
-63.6898211619
 20
36.7746145471
 10
-63.6565347455
 20
37.6265776853
 10
-63.6104283678
 20
38.5514196762
 10
-63.5508223727
 20
39.5263572128
 10
-63.4777443637
 20
40.534249657
 10
-63.39239686
 20
41.5549246508
 10
-63.2942580326
 20
42.5920532775
 10
-63.180501358
 20
43.6692259857
 10
-63.0489090624
 20
44.7966198157
 10
-62.8988298922
 20
45.9692690376
 10
-62.7292348282
 20
47.1863358584
  0
LINE
  5
24C
100
AcDbEntity
  8
DRAFT
100
AcDbLine
 62
7
  6
CONTINUOUS
 10
-62.3871762772
 20
-0.1411594317
 11
-62.36833718
 21
-0.0891267339
  0
LINE
  5
24D
100
AcDbEntity
  8
DRAFT
100
AcDbLine
 62
7
  6
CONTINUOUS
 10
-62.1901220134
 20
-0.0112163334
 11
-62.1178772435
 21
0.1883203132
  0
LINE
  5
24E
100
AcDbEntity
  8
DRAFT
100
AcDbLine
 62
7
  6
CONTINUOUS
 10
-61.9396620769
 20
0.2662307137
 11
-61.867417307
 21
0.4657673603
  0
LWPOLYLINE
  5
24F
100
AcDbEntity
  8
RACCORDO
100
AcDbPolyline
 62
250
  6
CONTINUOUS
 90
6
 70
0
 10
-61.2210263203
 20
-13.4412728715
 10
-61.2023433411
 20
-13.4904166185
 10
-61.1797813996
 20
-13.5314298969
 10
-61.1535576549
 20
-13.563917953
 10
-61.1239245109
 20
-13.5875680888
 10
-61.092895179
 20
-13.6016349252
  0
LINE
  5
250
100
AcDbEntity
  8
RACCORDO
100
AcDbLine
 62
250
  6
CONTINUOUS
 10
-56.1764901885
 20
-1.5086194703
 11
-56.1957703322
 21
-0.7335880313
  0
LINE
  5
251
100
AcDbEntity
  8
RACCORDO
100
AcDbLine
 62
7
  6
CONTINUOUS
 10
-56.1505496119
 20
-1.4281537877
 11
-56.1691641003
 21
-0.6798806447
  0
LINE
  5
252
100
AcDbEntity
  8
RACCORDO
100
AcDbLine
 62
250
  6
CONTINUOUS
 10
-56.1505382757
 20
-1.4336038994
 11
-56.1505496119
 21
-1.4281537877
  0
LWPOLYLINE
  5
253
100
AcDbEntity
  8
RACCORDO
100
AcDbPolyline
 62
250
  6
CONTINUOUS
 90
6
 70
0
 10
-56.1764901885
 20
-1.5086194703
 10
-56.1773936564
 20
-1.5326065218
 10
-56.181307707
 20
-1.5555248993
 10
-56.18818944
 20
-1.5771218197
 10
-56.1979647505
 20
-1.5971616488
 10
-56.2044974412
 20
-1.607381684
  0
LINE
  5
254
100
AcDbEntity
  8
DRAFT
100
AcDbLine
 62
7
  6
CONTINUOUS
 10
-56.9306015237
 20
-1.8168206754
 11
-56.9154140611
 21
-1.763666596
  0
LINE
  5
255
100
AcDbEntity
  8
DRAFT
100
AcDbLine
 62
7
  6
CONTINUOUS
 10
-56.7698735049
 20
-1.6757221392
 11
-56.7116321395
 21
-1.4718851828
  0
LINE
  5
256
100
AcDbEntity
  8
DRAFT
100
AcDbLine
 62
7
  6
CONTINUOUS
 10
-56.5660915832
 20
-1.3839407259
 11
-56.5078502178
 21
-1.1801037695
  0
LINE
  5
257
100
AcDbEntity
  8
DRAFT
100
AcDbLine
 62
7
  6
CONTINUOUS
 10
-56.3623096616
 20
-1.0921593127
 11
-56.3040682962
 21
-0.8883223563
  0
LINE
  5
258
100
AcDbEntity
  8
DRAFT
100
AcDbLine
 62
7
  6
CONTINUOUS
 10
-61.6892021404
 20
0.5436777608
 11
-61.6169573705
 21
0.7432144074
  0
LINE
  5
259
100
AcDbEntity
  8
0
100
AcDbLine
 62
250
  6
CONTINUOUS
 10
-72.3032012685
 20
1.1193841361
 11
-71.0114687255
 21
2.7381053381
  0
LINE
  5
25A
100
AcDbEntity
  8
0
100
AcDbLine
 62
250
  6
CONTINUOUS
 10
-70.7384814287
 20
2.4234454732
 11
-72.0302131452
 21
0.804725307
  0
LWPOLYLINE
  5
25B
100
AcDbEntity
  8
0
100
AcDbPolyline
 62
250
  6
CONTINUOUS
 90
7
 70
0
 10
67.8647001832
 20
-42.1156017446
 10
67.8486683071
 20
-42.1198007936
 10
67.8240232276
 20
-42.1232014927
 10
67.7981295069
 20
-42.1239083887
 10
67.7712708418
 20
-42.1219137367
 10
67.7437415015
 20
-42.1172393905
 10
67.7158431033
 20
-42.1099365632
  0
LWPOLYLINE
  5
25C
100
AcDbEntity
  8
RACCORDO
100
AcDbPolyline
 62
250
  6
CONTINUOUS
 90
28
 70
0
 10
-72.2985753863
 20
-0.9544721068
 10
-72.3805221472
 20
-0.8718335051
 10
-72.4024130286
 20
-0.8406218153
 10
-72.4212538259
 20
-0.8035669178
 10
-72.4366566825
 20
-0.7609974204
 10
-72.448876915
 20
-0.7130929088
 10
-72.4586701847
 20
-0.6599300982
 10
-72.4667531821
 20
-0.6016346901
 10
-72.4720114921
 20
-0.5389280743
 10
-72.4726889205
 20
-0.4727755549
 10
-72.4679873102
 20
-0.4038815602
 10
-72.4593557575
 20
-0.3322716838
 10
-72.4484287757
 20
-0.2579421759
 10
-72.4356932189
 20
-0.1812758866
 10
-72.4204993205
 20
-0.1030278716
 10
-72.4025595767
 20
-0.0238561477
 10
-72.3819046165
 20
0.0556682755
 10
-72.3587624102
 20
0.135028415
 10
-72.3332628971
 20
0.2136726175
 10
-72.3055726793
 20
0.2910602573
 10
-72.2758827868
 20
0.366662005
 10
-72.2443899401
 20
0.439958392
 10
-72.2113070932
 20
0.5104469731
 10
-72.1768599711
 20
0.5776450242
 10
-72.1412822837
 20
0.6410918581
 10
-72.1048161708
 20
0.7003527696
 10
-72.0677103522
 20
0.7550219357
 10
-72.0302178469
 20
0.8047249023
  0
LWPOLYLINE
  5
25D
100
AcDbEntity
  8
RACCORDO
100
AcDbPolyline
 62
250
  6
CONTINUOUS
 90
28
 70
0
 10
-74.0964996805
 20
1.1090059855
 10
-74.058010145
 20
1.0627089492
 10
-74.0136594467
 20
1.0189015266
 10
-73.9637484419
 20
0.9778584283
 10
-73.9086171851
 20
0.9398969523
 10
-73.8486377108
 20
0.9051822502
 10
-73.7842122984
 20
0.8737566117
 10
-73.7157775704
 20
0.8458039505
 10
-73.6437991415
 20
0.8215525676
 10
-73.5687643892
 20
0.8011142704
 10
-73.4911805386
 20
0.7845423617
 10
-73.4115774044
 20
0.7720733271
 10
-73.3305012045
 20
0.7640114947
 10
-73.2485047343
 20
0.7604972057
 10
-73.1661397993
 20
0.7613732862
 10
-73.0839607603
 20
0.7664507845
 10
-73.002524595
 20
0.7756552949
 10
-72.9223861952
 20
0.7889997711
 10
-72.8440904158
 20
0.8064213575
 10
-72.7681690487
 20
0.8278094855
 10
-72.6951374791
 20
0.8530174981
 10
-72.625491672
 20
0.8818806058
 10
-72.55970458
 20
0.914207897
 10
-72.4982228094
 20
0.949777707
 10
-72.4414636896
 20
0.9883442448
 10
-72.3898125816
 20
1.0296460616
 10
-72.3436202214
 20
1.073406022
 10
-72.3032002146
 20
1.1193272323
  0
LWPOLYLINE
  5
25E
100
AcDbEntity
  8
RACCORDO
100
AcDbPolyline
 62
250
  6
CONTINUOUS
 90
10
 70
0
 10
-74.0964986098
 20
1.1090069147
 10
-74.1896412635
 20
1.2227130132
 10
-74.2946735506
 20
1.3320183048
 10
-74.4111178627
 20
1.4364257542
 10
-74.5384446978
 20
1.5354605977
 10
-74.6760750681
 20
1.6286725025
 10
-74.8233831334
 20
1.715637614
 10
-74.9796990461
 20
1.7959604837
 10
-75.1443119981
 20
1.8692758666
 10
-75.316473452
 20
1.9352503832
  0
LWPOLYLINE
  5
25F
100
AcDbEntity
  8
RACCORDO
100
AcDbPolyline
 62
250
  6
CONTINUOUS
 90
9
 70
0
 10
-72.2985753863
 20
-0.9544721068
 10
-72.2461418284
 20
-1.023602951
 10
-72.1986206541
 20
-1.1041002557
 10
-72.1562154908
 20
-1.1956190081
 10
-72.1191080412
 20
-1.2977669539
 10
-72.0874573043
 20
-1.4101062785
 10
-72.0613988942
 20
-1.5321554832
 10
-72.0410444588
 20
-1.6633914494
 10
-72.0264812014
 20
-1.8032516805
  0
LWPOLYLINE
  5
260
100
AcDbEntity
  8
RACCORDO
100
AcDbPolyline
 62
7
  6
CONTINUOUS
 90
5
 70
0
 10
-56.1691676917
 20
-0.6797365492
 10
-56.1699513377
 20
-0.6750225156
 10
-56.1730498767
 20
-0.6699810625
 10
-56.1782750527
 20
-0.6666971266
 10
-56.179373947
 20
-0.666342236
  0
LWPOLYLINE
  5
261
100
AcDbEntity
  8
RACCORDO
100
AcDbPolyline
 62
250
  6
CONTINUOUS
 90
5
 70
0
 10
-56.1764901885
 20
-1.5086194703
 10
-56.1655251394
 20
-1.4905231858
 10
-56.1574944743
 20
-1.4718601788
 10
-56.1524814686
 20
-1.4528226147
 10
-56.150667493
 20
-1.4348818944
  0
LINE
  5
262
100
AcDbEntity
  8
RACCORDO
100
AcDbLine
 62
7
  6
CONTINUOUS
 10
-56.2021773354
 20
-0.7424316497
 11
-56.3040682962
 21
-0.8883223563
  0
LINE
  5
263
100
AcDbEntity
  8
DRAFT
100
AcDbLine
 62
7
  6
CONTINUOUS
 10
-56.4263374492
 20
-1.0633912042
 11
-56.5078502178
 21
-1.1801037695
  0
LINE
  5
264
100
AcDbEntity
  8
DRAFT
100
AcDbLine
 62
7
  6
CONTINUOUS
 10
-56.6301193708
 20
-1.3551726175
 11
-56.7116321395
 21
-1.4718851828
  0
LINE
  5
265
100
AcDbEntity
  8
DRAFT
100
AcDbLine
 62
7
  6
CONTINUOUS
 10
-56.8339012924
 20
-1.6469540307
 11
-56.9154140611
 21
-1.763666596
  0
LINE
  5
266
100
AcDbEntity
  8
RACCORDO
100
AcDbLine
 62
250
  6
CONTINUOUS
 10
-56.4869017479
 20
-1.953076578
 11
-56.1764901885
 21
-1.5086194703
  0
LINE
  5
267
100
AcDbEntity
  8
RACCORDO
100
AcDbLine
 62
7
  6
CONTINUOUS
 10
-56.4531678931
 20
-1.963435918
 11
-56.204503221
 21
-1.6073899603
  0
LWPOLYLINE
  5
268
100
AcDbEntity
  8
RACCORDO
100
AcDbPolyline
 62
7
  6
CONTINUOUS
 90
6
 70
0
 10
-56.1957703322
 20
-0.7335880313
 10
-56.1840717784
 20
-0.7174648075
 10
-56.1759377312
 20
-0.703239825
 10
-56.17109007
 20
-0.6911793252
 10
-56.1692121367
 20
-0.6818197614
 10
-56.1691676917
 20
-0.6797365492
  0
LINE
  5
269
100
AcDbEntity
  8
RACCORDO
100
AcDbLine
 62
7
  6
CONTINUOUS
 10
-61.4917274022
 20
0.8819379309
 11
-61.6169573705
 21
0.7432144074
  0
LINE
  5
26A
100
AcDbEntity
  8
DRAFT
100
AcDbLine
 62
7
  6
CONTINUOUS
 10
-61.7672333324
 20
0.5767461791
 11
-61.867417307
 21
0.4657673603
  0
LINE
  5
26B
100
AcDbEntity
  8
DRAFT
100
AcDbLine
 62
7
  6
CONTINUOUS
 10
-62.0176932689
 20
0.299299132
 11
-62.1178772435
 21
0.1883203132
  0
LINE
  5
26C
100
AcDbEntity
  8
DRAFT
100
AcDbLine
 62
7
  6
CONTINUOUS
 10
-62.2681532054
 20
0.0218520849
 11
-62.36833718
 21
-0.0891267339
  0
LWPOLYLINE
  5
26D
100
AcDbEntity
  8
RACCORDO
100
AcDbPolyline
 62
250
  6
CONTINUOUS
 90
22
 70
0
 10
69.2497352949
 20
-42.8261403133
 10
68.9682432536
 20
-42.859323798
 10
68.8860234413
 20
-42.8643005155
 10
68.8036746437
 20
-42.8647564785
 10
68.7217552243
 20
-42.8606466497
 10
68.6408238048
 20
-42.8520970667
 10
68.5614346941
 20
-42.8393715021
 10
68.484127736
 20
-42.8226044879
 10
68.4094266626
 20
-42.8018483775
 10
68.3378396509
 20
-42.7772536815
 10
68.2698546328
 20
-42.7490471846
 10
68.2059305023
 20
-42.7173417298
 10
68.1464964956
 20
-42.6821913667
 10
68.0919542175
 20
-42.6437656851
 10
68.0426780243
 20
-42.6024740144
 10
67.9990068139
 20
-42.558757339
 10
67.9612381078
 20
-42.5129475001
 10
67.9296264394
 20
-42.4652866117
 10
67.9043856514
 20
-42.4160706718
 10
67.88568691
 20
-42.3656261376
 10
67.873657228
 20
-42.314296977
 10
67.8682349832
 20
-42.2577130032
  0
LWPOLYLINE
  5
26E
100
AcDbEntity
  8
RACCORDO
100
AcDbPolyline
 62
250
  6
CONTINUOUS
 90
9
 70
0
 10
69.2497352949
 20
-42.8261403133
 10
69.4512673687
 20
-42.8109787346
 10
69.6534547642
 20
-42.8044207216
 10
69.8553780825
 20
-42.8064960928
 10
70.0561191259
 20
-42.8171954089
 10
70.2547650726
 20
-42.836470015
 10
70.4504126278
 20
-42.8642322627
 10
70.6421721313
 20
-42.9003559079
 10
70.8291716027
 20
-42.9446766855
  0
LWPOLYLINE
  5
26F
100
AcDbEntity
  8
RACCORDO
100
AcDbPolyline
 62
250
  6
CONTINUOUS
 90
10
 70
0
 10
-63.0495151127
 20
-3.7547676151
 10
-62.993298061
 20
-3.8125540457
 10
-62.9418706872
 20
-3.8822554422
 10
-62.8954583117
 20
-3.9635664913
 10
-62.8542642589
 20
-4.0561310597
 10
-62.818469001
 20
-4.1595436798
 10
-62.7882293532
 20
-4.2733512965
 10
-62.7636777463
 20
-4.3970553663
 10
-62.7449216622
 20
-4.5301140704
 10
-62.7320431873
 20
-4.6719445931
  0
LWPOLYLINE
  5
270
100
AcDbEntity
  8
RACCORDO
100
AcDbPolyline
 62
250
  6
CONTINUOUS
 90
25
 70
0
 10
-63.0495151127
 20
-3.7547676151
 10
-63.0754219027
 20
-3.7265394153
 10
-63.0981079459
 20
-3.6905391224
 10
-63.1173768272
 20
-3.6470784339
 10
-63.1330617164
 20
-3.5965336436
 10
-63.1450268165
 20
-3.5393423729
 10
-63.1531685368
 20
-3.4759997773
 10
-63.1574163857
 20
-3.4070542756
 10
-63.1577335846
 20
-3.3331028063
 10
-63.1541173871
 20
-3.2547856453
 10
-63.1465991024
 20
-3.1727808672
 10
-63.1352438242
 20
-3.0877984742
 10
-63.1201498674
 20
-3.0005742487
 10
-63.1014479161
 20
-2.9118633831
 10
-63.079299893
 20
-2.8224339412
 10
-63.0538975569
 20
-2.7330602084
 10
-63.0254608428
 20
-2.6445159876
 10
-62.9942359573
 20
-2.5575678997
 10
-62.9604932473
 20
-2.4729687465
 10
-62.9245248593
 20
-2.3914509922
 10
-62.8866422094
 20
-2.3137204223
 10
-62.8471732881
 20
-2.2404500325
 10
-62.8064598193
 20
-2.1722742023
 10
-62.7648543028
 20
-2.1097832018
 10
-62.7227169615
 20
-2.0535180817
  0
LWPOLYLINE
  5
271
100
AcDbEntity
  8
RACCORDO
100
AcDbPolyline
 62
250
  6
CONTINUOUS
 90
25
 70
0
 10
-74.5199999184
 20
18.3145780917
 10
-74.4756635914
 20
18.2641753628
 10
-74.4240642279
 20
18.2166781651
 10
-74.3656408022
 20
18.1724906609
 10
-74.3008902911
 20
18.131988821
 10
-74.2303636389
 20
18.0955173428
 10
-74.1546611263
 20
18.0633866749
 10
-74.074426971
 20
18.0358702324
 10
-73.9903437916
 20
18.0132021138
 10
-73.9031270308
 20
17.9955751963
 10
-73.8135187941
 20
17.9831394628
 10
-73.7222815354
 20
17.976000726
 10
-73.6301915698
 20
17.9742197276
 10
-73.5380324673
 20
17.9778116128
 10
-73.4465883868
 20
17.9867458279
 10
-73.3566374037
 20
18.0009463802
 10
-73.2689448906
 20
18.0202925285
 10
-73.1842569987
 20
18.0446195748
 10
-73.1032943103
 20
18.0737202913
 10
-73.0267457616
 20
18.10734886
 10
-72.9552626401
 20
18.1452173637
 10
-72.8894530367
 20
18.1869979855
 10
-72.8298768614
 20
18.2323333149
 10
-72.7770410779
 20
18.2808393729
 10
-72.7313952495
 20
18.3321032804
  0
LWPOLYLINE
  5
272
100
AcDbEntity
  8
RACCORDO
100
AcDbPolyline
 62
250
  6
CONTINUOUS
 90
10
 70
0
 10
-74.5199999169
 20
18.3145780309
 10
-74.6162509739
 20
18.4272191506
 10
-74.7246014846
 20
18.5352683613
 10
-74.8445467647
 20
18.6382229455
 10
-74.9755281215
 20
18.7356039166
 10
-75.1169354558
 20
18.8269582502
 10
-75.2681101042
 20
18.9118609939
 10
-75.4283479068
 20
18.9899172469
 10
-75.5969024875
 20
19.0607639996
 10
-75.7729887304
 20
19.1240718243
  0
LWPOLYLINE
  5
273
100
AcDbEntity
  8
RACCORDO
100
AcDbPolyline
 62
7
  6
CONTINUOUS
 90
12
 70
0
 10
-36.1249508312
 20
-7.0007206668
 10
-36.1262330808
 20
-6.9869932851
 10
-36.1303493171
 20
-6.9679085493
 10
-36.1374951913
 20
-6.9495469976
 10
-36.1476147568
 20
-6.9317324234
 10
-36.1604825944
 20
-6.9147911899
 10
-36.1762594075
 20
-6.8986355446
 10
-36.1947844927
 20
-6.88335324
 10
-36.2153503203
 20
-6.8695338967
 10
-36.2377210473
 20
-6.8573740551
 10
-36.2621325166
 20
-6.8466771748
 10
-36.2885847285
 20
-6.8374432558
  0
LINE
  5
274
100
AcDbEntity
  8
RACCORDO
100
AcDbLine
 62
250
  6
CONTINUOUS
 10
-36.1508906462
 20
-7.0812168059
 11
-36.1364245908
 21
-7.662729468
  0
LINE
  5
275
100
AcDbEntity
  8
RACCORDO
100
AcDbLine
 62
7
  6
CONTINUOUS
 10
-36.1249500696
 20
-7.0007511234
 11
-36.1104840143
 21
-7.5822637855
  0
LINE
  5
276
100
AcDbEntity
  8
RACCORDO
100
AcDbLine
 62
250
  6
CONTINUOUS
 10
-36.1104840143
 20
-7.5822637855
 11
-36.1104778777
 21
-7.587953503
  0
LWPOLYLINE
  5
277
100
AcDbEntity
  8
RACCORDO
100
AcDbPolyline
 62
7
  6
CONTINUOUS
 90
5
 70
0
 10
-61.483854636
 20
0.8903314277
 10
-61.4659830803
 20
0.9045589824
 10
-61.4460344244
 20
0.915155813
 10
-61.4245185924
 20
0.922097679
 10
-61.4020068719
 20
0.9251208067
  0
LWPOLYLINE
  5
278
100
AcDbEntity
  8
RACCORDO
100
AcDbPolyline
 62
250
  6
CONTINUOUS
 90
16
 70
0
 10
90.0963987157
 20
-58.2313256656
 10
90.1860196029
 20
-58.248612965
 10
90.278094809
 20
-58.2601906671
 10
90.3717996438
 20
-58.2659550739
 10
90.4662948211
 20
-58.2658545552
 10
90.5607339759
 20
-58.2598900114
 10
90.6542712448
 20
-58.2481148652
 10
90.7460688425
 20
-58.230634583
 10
90.8353045653
 20
-58.2076057306
 10
90.9211791554
 20
-58.1792345704
 10
91.0029234599
 20
-58.1457752145
 10
91.0798053195
 20
-58.1075273483
 10
91.1511361261
 20
-58.0648335468
 10
91.2162769913
 20
-58.0180762055
 10
91.2746444676
 20
-57.9676741161
 10
91.3257157749
 20
-57.9140787149
  0
LWPOLYLINE
  5
279
100
AcDbEntity
  8
RACCORDO
100
AcDbPolyline
 62
250
  6
CONTINUOUS
 90
25
 70
0
 10
88.4935740389
 20
-59.1449868279
 10
88.6004338741
 20
-59.1708261451
 10
88.7066343119
 20
-59.190910122
 10
88.811682326
 20
-59.2050899731
 10
88.9151359731
 20
-59.2132759306
 10
89.0165897152
 20
-59.215425846
 10
89.1156342663
 20
-59.2114995186
 10
89.2118939854
 20
-59.2014835793
 10
89.3049555278
 20
-59.1854144143
 10
89.3943617183
 20
-59.163351474
 10
89.4797167965
 20
-59.1353771561
 10
89.5607159234
 20
-59.1016178514
 10
89.6370454504
 20
-59.0622106606
 10
89.7083820207
 20
-59.0173053164
 10
89.7744454133
 20
-58.9670999492
 10
89.8349834933
 20
-58.9118007816
 10
89.8897402715
 20
-58.8516127354
 10
89.9384741143
 20
-58.7868075707
 10
89.9809731675
 20
-58.717709322
 10
90.0170493717
 20
-58.6446224091
 10
90.0465435941
 20
-58.5678588326
 10
90.0693276488
 20
-58.4877810434
 10
90.0852855756
 20
-58.4047425717
 10
90.0943229108
 20
-58.3191077916
 10
90.0963994201
 20
-58.2313244644
  0
LWPOLYLINE
  5
27A
100
AcDbEntity
  8
RACCORDO
100
AcDbPolyline
 62
250
  6
CONTINUOUS
 90
11
 70
0
 10
-91.3694713895
 20
-2.5049135726
 10
-91.4466476969
 20
-2.4709779867
 10
-91.5183092238
 20
-2.4322728187
 10
-91.5838141342
 20
-2.3891447301
 10
-91.6425757336
 20
-2.3419799965
 10
-91.694067724
 20
-2.2912010479
 10
-91.7378289176
 20
-2.2372626849
 10
-91.7734673674
 20
-2.1806480058
 10
-91.8006638778
 20
-2.1218640793
 10
-91.8191748634
 20
-2.0614374031
 10
-91.8284968258
 20
-2.0020602331
  0
LWPOLYLINE
  5
27B
100
AcDbEntity
  8
RACCORDO
100
AcDbPolyline
 62
250
  6
CONTINUOUS
 90
6
 70
0
 10
-36.1364245908
 20
-7.662729468
 10
-36.1372859444
 20
-7.6863017347
 10
-36.1410751525
 20
-7.7089398822
 10
-36.147788485
 20
-7.730386305
 10
-36.1574052092
 20
-7.7504182317
 10
-36.1644203279
 20
-7.7614751886
  0
LWPOLYLINE
  5
27C
100
AcDbEntity
  8
RACCORDO
100
AcDbPolyline
 62
250
  6
CONTINUOUS
 90
5
 70
0
 10
-36.1104778777
 20
-7.587953503
 10
-36.1124478588
 20
-7.6071078033
 10
-36.1174683577
 20
-7.6260841227
 10
-36.1254879715
 20
-7.6446881706
 10
-36.1364245908
 20
-7.662729468
  0
LWPOLYLINE
  5
27D
100
AcDbEntity
  8
RACCORDO
100
AcDbPolyline
 62
250
  6
CONTINUOUS
 90
10
 70
0
 10
68.6110505028
 20
-25.6395809055
 10
68.8138132326
 20
-25.6187480302
 10
69.0180255176
 20
-25.6066690553
 10
69.2227361479
 20
-25.6034008225
 10
69.4269915924
 20
-25.6089591327
 10
69.6298404402
 20
-25.6233186727
 10
69.8303378323
 20
-25.646413133
 10
70.0275498631
 20
-25.6781355166
 10
70.2205579298
 20
-25.7183386375
 10
70.4084630123
 20
-25.7668358063
  0
LWPOLYLINE
  5
27E
100
AcDbEntity
  8
RACCORDO
100
AcDbPolyline
 62
250
  6
CONTINUOUS
 90
20
 70
0
 10
68.6110505043
 20
-25.6395809662
 10
68.519557735
 20
-25.6482718421
 10
68.427385488
 20
-25.6516181309
 10
68.3353180171
 20
-25.6495913119
 10
68.2441386052
 20
-25.6422085741
 10
68.1546231763
 20
-25.6295326841
 10
68.0675336728
 20
-25.6116715055
 10
67.9836112013
 20
-25.5887770381
 10
67.9035697483
 20
-25.5610440721
 10
67.8280903663
 20
-25.5287085804
 10
67.7578152906
 20
-25.4920456974
 10
67.6933424739
 20
-25.4513673786
 10
67.6352204994
 20
-25.4070197454
 10
67.5839439121
 20
-25.359380132
 10
67.5399490118
 20
-25.3088539006
 10
67.5036101407
 20
-25.2558709924
 10
67.4752364993
 20
-25.2008823135
 10
67.4550695097
 20
-25.1443556622
 10
67.4432807619
 20
-25.0867717746
 10
67.4400414423
 20
-25.0449972213
  0
LWPOLYLINE
  5
27F
100
AcDbEntity
  8
RACCORDO
100
AcDbPolyline
 62
7
  6
CONTINUOUS
 90
4
 70
0
 10
58.838386714
 20
-35.9995391798
 10
58.861549838
 20
-36.0000821064
 10
58.8853167707
 20
-36.0032907794
 10
58.9094283761
 20
-36.0090158849
  0
LWPOLYLINE
  5
280
100
AcDbEntity
  8
0
100
AcDbPolyline
 62
7
  6
CONTINUOUS
 90
3
 70
0
 10
69.3929648675
 20
-46.1882600952
 10
69.359891051
 20
-46.1828889892
 10
69.3266340949
 20
-46.1747571961
  0
LWPOLYLINE
  5
281
100
AcDbEntity
  8
RACCORDO
100
AcDbPolyline
 62
7
  6
CONTINUOUS
 90
17
 70
0
 10
88.6436645887
 20
-59.4577747634
 10
88.67501772
 20
-59.4665838698
 10
88.8579307544
 20
-59.5111372371
 10
89.0413294668
 20
-59.544007567
 10
89.2252253796
 20
-59.5648405792
 10
89.4083906093
 20
-59.5731610926
 10
89.5882664744
 20
-59.5686995501
 10
89.7639507836
 20
-59.5515235753
 10
89.9350926568
 20
-59.5217237278
 10
90.0999266462
 20
-59.4796966331
 10
90.2573478382
 20
-59.426004164
 10
90.4071786803
 20
-59.3610558165
 10
90.5489360847
 20
-59.2853160322
 10
90.681937827
 20
-59.1993915721
 10
90.8055812601
 20
-59.1040147379
 10
90.9193944254
 20
-58.999922334
 10
90.9738171708
 20
-58.9433936412
  0
LWPOLYLINE
  5
282
100
AcDbEntity
  8
RACCORDO
100
AcDbPolyline
 62
250
  6
CONTINUOUS
 90
5
 70
0
 10
87.7712501684
 20
-58.9474322753
 10
87.8482156768
 20
-58.969675187
 10
87.9288954504
 20
-58.992315357
 10
88.0133833243
 20
-59.0154545829
 10
88.4935738432
 20
-59.1449871261
  0
LINE
  5
283
100
AcDbEntity
  8
RACCORDO
100
AcDbLine
 62
250
  6
CONTINUOUS
 10
78.2057044322
 20
-56.1548423485
 11
80.0111684731
 21
-56.6752450891
  0
LINE
  5
284
100
AcDbEntity
  8
RACCORDO
100
AcDbLine
 62
250
  6
CONTINUOUS
 10
80.0111684731
 20
-56.6752450891
 11
83.9988500058
 21
-57.8337732168
  0
LINE
  5
285
100
AcDbEntity
  8
RACCORDO
100
AcDbLine
 62
250
  6
CONTINUOUS
 10
75.0642433562
 20
-55.2319772453
 11
78.2057044322
 21
-56.1548423485
  0
LINE
  5
286
100
AcDbEntity
  8
RACCORDO
100
AcDbLine
 62
250
  6
CONTINUOUS
 10
83.9988500058
 20
-57.8337732168
 11
85.9989673032
 21
-58.4217633136
  0
LINE
  5
287
100
AcDbEntity
  8
RACCORDO
100
AcDbLine
 62
250
  6
CONTINUOUS
 10
85.9989673032
 20
-58.4217633136
 11
86.3184202002
 21
-58.5162571834
  0
LINE
  5
288
100
AcDbEntity
  8
RACCORDO
100
AcDbLine
 62
250
  6
CONTINUOUS
 10
86.3184202002
 20
-58.5162571834
 11
86.6118954256
 21
-58.6031805553
  0
LINE
  5
289
100
AcDbEntity
  8
RACCORDO
100
AcDbLine
 62
250
  6
CONTINUOUS
 10
86.6118954256
 20
-58.6031805553
 11
86.7926074393
 21
-58.6567575405
  0
LINE
  5
28A
100
AcDbEntity
  8
RACCORDO
100
AcDbLine
 62
250
  6
CONTINUOUS
 10
86.7926074393
 20
-58.6567575405
 11
87.7712501684
 21
-58.9474322753
  0
LINE
  5
28B
100
AcDbEntity
  8
RACCORDO
100
AcDbLine
 62
250
  6
CONTINUOUS
 10
70.2038641119
 20
-53.7907412988
 11
75.0642433562
 21
-55.2319772453
  0
LINE
  5
28C
100
AcDbEntity
  8
RACCORDO
100
AcDbLine
 62
7
  6
CONTINUOUS
 10
73.3301504323
 20
-54.8638975184
 11
85.3040205079
 21
-58.4546802223
  0
LWPOLYLINE
  5
28D
100
AcDbEntity
  8
RACCORDO
100
AcDbPolyline
 62
7
  6
CONTINUOUS
 90
3
 70
0
 10
85.3040205079
 20
-58.4546802223
 10
87.6488800634
 20
-59.1622594663
 10
88.6444022715
 20
-59.4579956542
  0
LINE
  5
28E
100
AcDbEntity
  8
RACCORDO
100
AcDbLine
 62
7
  6
CONTINUOUS
 10
68.9588683889
 20
-53.5397941049
 11
73.3301504323
 21
-54.8638975184
  0
LINE
  5
28F
100
AcDbEntity
  8
RACCORDO
100
AcDbLine
 62
250
  6
CONTINUOUS
 10
67.1027988553
 20
-52.8541130216
 11
70.2038641119
 21
-53.7907412988
  0
LWPOLYLINE
  5
290
100
AcDbEntity
  8
RACCORDO
100
AcDbPolyline
 62
7
  6
CONTINUOUS
 90
4
 70
0
 10
-61.092895179
 20
-13.6016349252
 10
62.9536141099
 20
-51.697304767
 10
64.4690751328
 20
-52.16402227
 10
68.9588683889
 20
-53.5397941049
  0
LWPOLYLINE
  5
291
100
AcDbEntity
  8
RACCORDO
100
AcDbPolyline
 62
7
  6
CONTINUOUS
 90
3
 70
0
 10
-69.4305950659
 20
-11.0430408553
 10
-67.3686870865
 20
-11.678438977
 10
-61.0928745597
 20
-13.6016412541
  0
LWPOLYLINE
  5
292
100
AcDbEntity
  8
RACCORDO
100
AcDbPolyline
 62
250
  6
CONTINUOUS
 90
3
 70
0
 10
-61.2210263203
 20
-13.4412728715
 10
61.9846842998
 20
-51.2792656543
 10
67.1027988553
 20
-52.8541130216
  0
LINE
  5
293
100
AcDbEntity
  8
RACCORDO
100
AcDbLine
 62
250
  6
CONTINUOUS
 10
-68.5178795312
 20
-11.206063079
 11
-61.2210263269
 21
-13.4412728708
  0
LINE
  5
294
100
AcDbEntity
  8
RACCORDO
100
AcDbLine
 62
7
  6
CONTINUOUS
 10
-73.4398735532
 20
-9.7971498887
 11
-69.4305950659
 21
-11.0430408553
  0
LINE
  5
295
100
AcDbEntity
  8
RACCORDO
100
AcDbLine
 62
7
  6
CONTINUOUS
 10
-88.0121154772
 20
-5.2211136189
 11
-84.5905233563
 21
-6.2930035614
  0
LINE
  5
296
100
AcDbEntity
  8
RACCORDO
100
AcDbLine
 62
250
  6
CONTINUOUS
 10
-71.5147162933
 20
-10.2703283526
 11
-68.5178795312
 21
-11.206063079
  0
LINE
  5
297
100
AcDbEntity
  8
RACCORDO
100
AcDbLine
 62
7
  6
CONTINUOUS
 10
-89.5268786866
 20
-4.7433253645
 11
-88.0121154772
 21
-5.2211136189
  0
LWPOLYLINE
  5
298
100
AcDbEntity
  8
RACCORDO
100
AcDbPolyline
 62
7
  6
CONTINUOUS
 90
3
 70
0
 10
-84.5905233563
 20
-6.2930035614
 10
-79.1791110391
 20
-7.9998117624
 10
-73.4398735532
 20
-9.7971498887
  0
LINE
  5
299
100
AcDbEntity
  8
RACCORDO
100
AcDbLine
 62
250
  6
CONTINUOUS
 10
-76.5905873919
 20
-8.657249298
 11
-71.5147162933
 21
-10.2703283526
  0
LINE
  5
29A
100
AcDbEntity
  8
RACCORDO
100
AcDbLine
 62
250
  6
CONTINUOUS
 10
-89.0347895563
 20
-4.65137322
 11
-83.7525426822
 21
-6.3428573123
  0
LINE
  5
29B
100
AcDbEntity
  8
RACCORDO
100
AcDbLine
 62
250
  6
CONTINUOUS
 10
-79.9377938264
 20
-7.5824699167
 11
-76.5905873919
 21
-8.657249298
  0
LINE
  5
29C
100
AcDbEntity
  8
RACCORDO
100
AcDbLine
 62
250
  6
CONTINUOUS
 10
-83.7525426822
 20
-6.3428573123
 11
-80.9877737633
 21
-7.2393020368
  0
LINE
  5
29D
100
AcDbEntity
  8
RACCORDO
100
AcDbLine
 62
250
  6
CONTINUOUS
 10
-80.9877737633
 20
-7.2393020368
 11
-79.9377938264
 21
-7.5824699167
  0
LWPOLYLINE
  5
29E
100
AcDbEntity
  8
RACCORDO
100
AcDbPolyline
 62
250
  6
CONTINUOUS
 90
3
 70
0
 10
-89.0948315529
 20
-4.6314415725
 10
-89.0648680286
 20
-4.6415120228
 10
-89.0347895563
 20
-4.65137322
  0
LINE
  5
29F
100
AcDbEntity
  8
RACCORDO
100
AcDbLine
 62
250
  6
CONTINUOUS
 10
-89.6893306733
 20
-4.4267441569
 11
-89.0948315529
 21
-4.6314415725
  0
LWPOLYLINE
  5
2A0
100
AcDbEntity
  8
RACCORDO
100
AcDbPolyline
 62
250
  6
CONTINUOUS
 90
27
 70
0
 10
-74.9528320347
 20
35.5322174414
 10
-74.9143873971
 20
35.4877195392
 10
-74.8700689966
 20
35.4452071495
 10
-74.8201786512
 20
35.4049927943
 10
-74.7650543581
 20
35.3673069517
 10
-74.7050728015
 20
35.3325047226
 10
-74.6406459428
 20
35.3010305776
 10
-74.5722117348
 20
35.2731491882
 10
-74.5002337217
 20
35.2489850804
 10
-74.4252023071
 20
35.2287057261
 10
-74.347629852
 20
35.212504672
 10
-74.2680399575
 20
35.2004191343
 10
-74.1869666285
 20
35.1923781695
 10
-74.10495703
 20
35.1883702805
 10
-74.0225727815
 20
35.1885669478
 10
-73.9403789886
 20
35.1931241177
 10
-73.8589354711
 20
35.2020447285
 10
-73.7787926731
 20
35.2152002838
 10
-73.7004934761
 20
35.2324740688
 10
-73.6245691123
 20
35.2537412321
 10
-73.5515352745
 20
35.278858789
 10
-73.4818876591
 20
35.3076499279
 10
-73.4160990532
 20
35.3399168033
 10
-73.3546161004
 20
35.375439514
 10
-73.2978561904
 20
35.4139745267
 10
-73.2462046448
 20
35.4552588153
 10
-73.2000121017
 20
35.4990113811
  0
LWPOLYLINE
  5
2A1
100
AcDbEntity
  8
RACCORDO
100
AcDbPolyline
 62
250
  6
CONTINUOUS
 90
10
 70
0
 10
-74.9528321922
 20
35.5322173783
 10
-75.0458890303
 20
35.6424861789
 10
-75.1508356585
 20
35.7483596475
 10
-75.2671948573
 20
35.8493563475
 10
-75.394437511
 20
35.9450170183
 10
-75.5319850141
 20
36.0349066636
 10
-75.6792119024
 20
36.1186165298
 10
-75.835448697
 20
36.1957659644
 10
-75.9999849484
 20
36.266004147
 10
-76.1720724676
 20
36.3290116847
  0
LWPOLYLINE
  5
2A2
100
AcDbEntity
  8
RACCORDO
100
AcDbPolyline
 62
7
  6
CONTINUOUS
 90
6
 70
0
 10
-36.1508906462
 20
-7.0812168059
 10
-36.1398889138
 20
-7.0631021119
 10
-36.1319184524
 20
-7.0446794118
 10
-36.126979262
 20
-7.0259487055
 10
-36.1250905359
 20
-7.0066249984
 10
-36.1249508312
 20
-7.0007206668
  0
LINE
  5
2A3
100
AcDbEntity
  8
0
100
AcDbLine
 62
7
  6
CONTINUOUS
 10
-36.1508906462
 20
-7.0812168059
 11
-36.7931573872
 21
-8.0008346791
  0
LINE
  5
2A4
100
AcDbEntity
  8
RACCORDO
100
AcDbLine
 62
250
  6
CONTINUOUS
 10
-36.4468361503
 20
-8.1071865758
 11
-36.1364245908
 21
-7.662729468
  0
LINE
  5
2A5
100
AcDbEntity
  8
RACCORDO
100
AcDbLine
 62
250
  6
CONTINUOUS
 10
-36.1644203279
 20
-7.7614751886
 11
-36.1644376233
 21
-7.761499958
  0
LINE
  5
2A6
100
AcDbEntity
  8
RACCORDO
100
AcDbLine
 62
7
  6
CONTINUOUS
 10
-36.4131022955
 20
-8.1175459158
 11
-36.1644376233
 21
-7.761499958
  0
LINE
  5
2A7
100
AcDbEntity
  8
0
100
AcDbLine
 62
7
  6
CONTINUOUS
 10
-41.4389749499
 20
-5.4572973469
 11
-42.2283584531
 21
-6.3317370877
  0
LWPOLYLINE
  5
2A8
100
AcDbEntity
  8
0
100
AcDbPolyline
 62
7
  6
CONTINUOUS
 90
11
 70
0
 10
69.3129050898
 20
-46.1919615561
 10
69.3462138825
 20
-46.2001027999
 10
69.3793738981
 20
-46.2054807169
 10
69.4119783771
 20
-46.2078773304
 10
69.4436924365
 20
-46.207098067
 10
69.4739500819
 20
-46.2029808577
 10
69.5020205463
 20
-46.1955155577
 10
69.5274339475
 20
-46.1847940724
 10
69.5498783501
 20
-46.1708794909
 10
69.56897636
 20
-46.1539280059
 10
69.5763717259
 20
-46.1454032722
  0
LINE
  5
2A9
100
AcDbEntity
  8
0
100
AcDbLine
 62
7
  6
CONTINUOUS
 10
70.3957661718
 20
-47.6101359329
 11
69.9967385843
 21
-47.5028603709
  0
LINE
  5
2AA
100
AcDbEntity
  8
0
100
AcDbLine
 62
7
  6
CONTINUOUS
 10
69.9967385843
 20
-47.5028603709
 11
69.7997867288
 21
-47.4491221188
  0
LINE
  5
2AB
100
AcDbEntity
  8
0
100
AcDbLine
 62
7
  6
CONTINUOUS
 10
69.1803623837
 20
-46.5210653446
 11
68.7236032907
 21
-46.3899590882
  0
LINE
  5
2AC
100
AcDbEntity
  8
0
100
AcDbLine
 62
7
  6
CONTINUOUS
 10
68.8138999369
 20
-47.1732613872
 11
68.2906295459
 21
-47.022955328
  0
LINE
  5
2AD
100
AcDbEntity
  8
0
100
AcDbLine
 62
7
  6
CONTINUOUS
 10
69.0602782601
 20
-45.253902436
 11
69.302549651
 21
-45.3236062815
  0
LINE
  5
2AE
100
AcDbEntity
  8
0
100
AcDbLine
 62
7
  6
CONTINUOUS
 10
68.8216267253
 20
-46.0504110335
 11
69.3129051595
 21
-46.1919598697
  0
LWPOLYLINE
  5
2AF
100
AcDbEntity
  8
0
100
AcDbPolyline
 62
7
  6
CONTINUOUS
 90
3
 70
0
 10
69.3266339479
 20
-46.1747557813
 10
68.7993902949
 20
-46.0227705965
 10
68.6906453664
 20
-45.9910960817
  0
LINE
  5
2B0
100
AcDbEntity
  8
0
100
AcDbLine
 62
7
  6
CONTINUOUS
 10
69.3162277942
 20
-45.3064656586
 11
69.0205799553
 21
-45.2212423191
  0
LINE
  5
2B1
100
AcDbEntity
  8
0
100
AcDbLine
 62
7
  6
CONTINUOUS
 10
68.6769268487
 20
-46.0082872995
 11
68.8216267253
 21
-46.0504110335
  0
LINE
  5
2B2
100
AcDbEntity
  8
0
100
AcDbLine
 62
7
  6
CONTINUOUS
 10
69.263124523
 20
-45.6900960963
 11
68.7750889516
 21
-45.5473704877
  0
LINE
  5
2B3
100
AcDbEntity
  8
0
100
AcDbLine
 62
7
  6
CONTINUOUS
 10
68.8110221039
 20
-45.1808882218
 11
69.0602782601
 21
-45.253902436
  0
LINE
  5
2B4
100
AcDbEntity
  8
0
100
AcDbLine
 62
7
  6
CONTINUOUS
 10
67.9425769956
 20
-46.9217733366
 11
67.4214817642
 21
-46.7687351027
  0
LINE
  5
2B5
100
AcDbEntity
  8
0
100
AcDbLine
 62
7
  6
CONTINUOUS
 10
68.7750889516
 20
-45.5473704877
 11
68.6289084398
 21
-45.5042040917
  0
LINE
  5
2B6
100
AcDbEntity
  8
0
100
AcDbLine
 62
7
  6
CONTINUOUS
 10
69.0205799553
 20
-45.2212423191
 11
68.7092446197
 21
-45.1294640243
  0
LINE
  5
2B7
100
AcDbEntity
  8
RACCORDO
100
AcDbLine
 62
250
  6
CONTINUOUS
 10
67.6922987696
 20
-44.7095290831
 11
67.583648456
 21
-44.6772777198
  0
LINE
  5
2B8
100
AcDbEntity
  8
0
100
AcDbLine
 62
7
  6
CONTINUOUS
 10
67.2116844853
 20
-46.3211981157
 11
66.3918121089
 21
-46.0756313428
  0
LINE
  5
2B9
100
AcDbEntity
  8
0
100
AcDbLine
 62
7
  6
CONTINUOUS
 10
66.5093979259
 20
-45.7335858505
 11
67.0121455117
 21
-45.8848254538
  0
LINE
  5
2BA
100
AcDbEntity
  8
0
100
AcDbLine
 62
7
  6
CONTINUOUS
 10
67.0010403573
 20
-45.8601856872
 11
66.5231142985
 21
-45.7163973208
  0
LWPOLYLINE
  5
2BB
100
AcDbEntity
  8
0
100
AcDbPolyline
 62
7
  6
CONTINUOUS
 90
3
 70
0
 10
68.0842444824
 20
-44.9628701769
 10
68.1605253547
 20
-44.9858883684
 10
68.8110221039
 20
-45.1808882218
  0
LINE
  5
2BC
100
AcDbEntity
  8
0
100
AcDbLine
 62
7
  6
CONTINUOUS
 10
68.7092446197
 20
-45.1294640243
 11
68.0979174421
 21
-44.9457360496
  0
LINE
  5
2BD
100
AcDbEntity
  8
RACCORDO
100
AcDbLine
 62
250
  6
CONTINUOUS
 10
67.583648456
 20
-44.6772777198
 11
66.5492437331
 21
-44.3673891205
  0
LINE
  5
2BE
100
AcDbEntity
  8
0
100
AcDbLine
 62
7
  6
CONTINUOUS
 10
66.2728183114
 20
-46.4262734619
 11
65.754359137
 21
-46.2699544005
  0
LINE
  5
2BF
100
AcDbEntity
  8
0
100
AcDbLine
 62
7
  6
CONTINUOUS
 10
65.4090139038
 20
-46.1653719771
 11
64.8913400407
 21
-46.0080624147
  0
LINE
  5
2C0
100
AcDbEntity
  8
0
100
AcDbLine
 62
7
  6
CONTINUOUS
 10
66.3905035582
 20
-44.4479930184
 11
66.9077661881
 21
-44.6058568235
  0
LINE
  5
2C1
100
AcDbEntity
  8
0
100
AcDbLine
 62
7
  6
CONTINUOUS
 10
66.9214317307
 20
-44.5887319908
 11
66.404167349
 21
-44.430870381
  0
LINE
  5
2C2
100
AcDbEntity
  8
0
100
AcDbLine
 62
7
  6
CONTINUOUS
 10
64.4021961131
 20
-45.8589629688
 11
63.8850631414
 21
-45.7010014453
  0
LINE
  5
2C3
100
AcDbEntity
  8
RACCORDO
100
AcDbLine
 62
250
  6
CONTINUOUS
 10
66.5492437331
 20
-44.3673891205
 11
64.6139321365
 21
-43.7783190736
  0
LINE
  5
2C4
100
AcDbEntity
  8
0
100
AcDbLine
 62
7
  6
CONTINUOUS
 10
63.3962770833
 20
-45.5514696628
 11
62.8793713639
 21
-45.3931975092
  0
LINE
  5
2C5
100
AcDbEntity
  8
0
100
AcDbLine
 62
7
  6
CONTINUOUS
 10
62.362544631
 20
-45.2348472191
 11
61.8457693327
 21
-45.0764172263
  0
LINE
  5
2C6
100
AcDbEntity
  8
0
100
AcDbLine
 62
7
  6
CONTINUOUS
 10
60.6718579293
 20
-44.7161913312
 11
60.1552098601
 21
-44.5575727199
  0
LINE
  5
2C7
100
AcDbEntity
  8
0
100
AcDbLine
 62
7
  6
CONTINUOUS
 10
64.4351432318
 20
-43.8485566907
 11
65.2161380469
 21
-44.0883571047
  0
LINE
  5
2C8
100
AcDbEntity
  8
0
100
AcDbLine
 62
7
  6
CONTINUOUS
 10
65.2297997123
 20
-44.0712371306
 11
64.4488043549
 21
-43.8314373963
  0
LINE
  5
2C9
100
AcDbEntity
  8
RACCORDO
100
AcDbLine
 62
250
  6
CONTINUOUS
 10
64.6139321365
 20
-43.7783190736
 11
-63.3005529733
 21
-4.4974611909
  0
LINE
  5
2CA
100
AcDbEntity
  8
RACCORDO
100
AcDbLine
 62
250
  6
CONTINUOUS
 10
-63.0495152145
 20
-3.7547675251
 11
-72.3556943309
 21
-0.8969994598
  0
LINE
  5
2CB
100
AcDbEntity
  8
0
100
AcDbLine
 62
7
  6
CONTINUOUS
 10
62.6899018062
 20
-43.3119140683
 11
63.4706330803
 21
-43.5520447359
  0
LINE
  5
2CC
100
AcDbEntity
  8
0
100
AcDbLine
 62
7
  6
CONTINUOUS
 10
61.6570320532
 20
-42.9942202695
 11
62.1734765027
 21
-43.1530704587
  0
LINE
  5
2CD
100
AcDbEntity
  8
0
100
AcDbLine
 62
7
  6
CONTINUOUS
 10
60.7962963976
 20
-42.7294584759
 11
61.3127406452
 21
-42.8883186457
  0
LINE
  5
2CE
100
AcDbEntity
  8
0
100
AcDbLine
 62
7
  6
CONTINUOUS
 10
59.1381876812
 20
-42.219375689
 11
59.6546185607
 21
-42.3782526108
  0
LINE
  5
2CF
100
AcDbEntity
  8
0
100
AcDbLine
 62
7
  6
CONTINUOUS
 10
62.1871373288
 20
-43.1359515365
 11
61.6706928618
 21
-42.9771013693
  0
LINE
  5
2D0
100
AcDbEntity
  8
0
100
AcDbLine
 62
7
  6
CONTINUOUS
 10
63.4842939808
 20
-43.5349257205
 11
62.7035626583
 21
-43.2947951135
  0
LINE
  5
2D1
100
AcDbEntity
  8
0
100
AcDbLine
 62
7
  6
CONTINUOUS
 10
61.3264014494
 20
-42.8711997509
 11
60.8099572053
 21
-42.7123395767
  0
LINE
  5
2D2
100
AcDbEntity
  8
0
100
AcDbLine
 62
7
  6
CONTINUOUS
 10
59.6682794095
 20
-42.3611336602
 11
59.1518485624
 21
-42.2022566977
  0
LINE
  5
2D3
100
AcDbEntity
  8
RACCORDO
100
AcDbLine
 62
250
  6
CONTINUOUS
 10
67.387973159
 20
-43.8109259732
 11
-63.0495151127
 21
-3.7547676151
  0
LWPOLYLINE
  5
2D4
100
AcDbEntity
  8
0
100
AcDbPolyline
 62
7
  6
CONTINUOUS
 90
27
 70
0
 10
69.3025496847
 20
-45.3236047305
 10
69.3544571
 20
-45.339714272
 10
69.4073303986
 20
-45.3587658936
 10
69.4609320942
 20
-45.3808235867
 10
69.5148113139
 20
-45.4058449695
 10
69.5688830953
 20
-45.4339189038
 10
69.6233936837
 20
-45.4653588594
 10
69.6781271548
 20
-45.5003227966
 10
69.7325071458
 20
-45.5387333703
 10
69.7861453943
 20
-45.5805885549
 10
69.8384888057
 20
-45.6257549451
 10
69.8890817526
 20
-45.6741690519
 10
69.9375780501
 20
-45.7258934676
 10
69.9836441894
 20
-45.7810719664
 10
70.0262369884
 20
-45.8390670667
 10
70.0640872145
 20
-45.8986274297
 10
70.096760006
 20
-45.95923795
 10
70.1238251685
 20
-46.0204107168
 10
70.1445612013
 20
-46.0808294046
 10
70.1588597086
 20
-46.1396749332
 10
70.1668149218
 20
-46.1967453915
 10
70.1683587772
 20
-46.2516907057
 10
70.1636117057
 20
-46.3039196438
 10
70.152725174
 20
-46.3531723858
 10
70.1356092886
 20
-46.3995688752
 10
70.1122843871
 20
-46.4427852032
 10
70.0912187175
 20
-46.4722781011
  0
LINE
  5
2D5
100
AcDbEntity
  8
RACCORDO
100
AcDbLine
 62
250
  6
CONTINUOUS
 10
-63.3005529733
 20
-4.4974611909
 11
-70.8963103584
 21
-2.159135917
  0
LWPOLYLINE
  5
2D6
100
AcDbEntity
  8
RACCORDO
100
AcDbPolyline
 62
250
  6
CONTINUOUS
 90
3
 70
0
 10
-70.8963103584
 20
-2.159135917
 10
-71.9191546688
 20
-1.8373081965
 10
-72.0264773359
 20
-1.8032463827
  0
LWPOLYLINE
  5
2D7
100
AcDbEntity
  8
RACCORDO
100
AcDbPolyline
 62
250
  6
CONTINUOUS
 90
73
 70
0
 10
-72.3556957059
 20
-0.8970014333
 10
-72.4104681822
 20
-0.8794814972
 10
-72.4634063538
 20
-0.8610889639
 10
-72.5144569632
 20
-0.841990995
 10
-72.5634797557
 20
-0.8223858902
 10
-72.6105395394
 20
-0.8023919797
 10
-72.6559043015
 20
-0.7820237576
 10
-72.6995354709
 20
-0.7614061217
 10
-72.7414412329
 20
-0.7406437683
 10
-72.7819667679
 20
-0.7196672389
 10
-72.8212735522
 20
-0.6984665808
 10
-72.8591944328
 20
-0.6771985328
 10
-72.8955893488
 20
-0.6560216153
 10
-72.9303825861
 20
-0.6350636047
 10
-72.9636728268
 20
-0.6143438746
 10
-72.9955864718
 20
-0.5938542541
 10
-73.0261246943
 20
-0.5736605751
 10
-73.05531513
 20
-0.5538095177
 10
-73.0833198662
 20
-0.5342485324
 10
-73.1101486138
 20
-0.5150238295
 10
-73.1358209964
 20
-0.4961728511
 10
-73.1605078321
 20
-0.4776151459
 10
-73.1842278508
 20
-0.4593780531
 10
-73.2069883284
 20
-0.4414946673
 10
-73.2289356499
 20
-0.423881707
 10
-73.2499591236
 20
-0.4066612217
 10
-73.2701918913
 20
-0.389758581
 10
-73.2901302371
 20
-0.3727766468
 10
-73.3098029335
 20
-0.3556957584
 10
-73.3291782904
 20
-0.3385492667
 10
-73.3486395908
 20
-0.3209955109
 10
-73.3681709134
 20
-0.3030349931
 10
-73.3877648483
 20
-0.2846612318
 10
-73.4077951581
 20
-0.2655013955
 10
-73.4283089688
 20
-0.2454714375
 10
-73.4492057901
 20
-0.2246281991
 10
-73.4706186238
 20
-0.2027951304
 10
-73.4925127745
 20
-0.1799544294
 10
-73.5148486491
 20
-0.1560907273
 10
-73.537736018
 20
-0.1310223859
 10
-73.5611567007
 20
-0.1046928257
 10
-73.5850229143
 20
-0.0771199258
 10
-73.6093255576
 20
-0.0482288477
 10
-73.6341235254
 20
-0.017848998
 10
-73.6592197776
 20
0.013884948
 10
-73.6842356523
 20
0.0465787629
 10
-73.70915169
 20
0.0802784116
 10
-73.7338797822
 20
0.1149401439
 10
-73.7579922338
 20
0.1500100828
 10
-73.7813831231
 20
0.1853438772
 10
-73.8041199777
 20
0.221053971
 10
-73.8260802033
 20
0.2569558229
 10
-73.8472279849
 20
0.2929866088
 10
-73.8675804097
 20
0.3291711063
 10
-73.8871082849
 20
0.3654528391
 10
-73.9057967926
 20
0.4017968071
 10
-73.9236485613
 20
0.4381997298
 10
-73.9406633051
 20
0.4746527064
 10
-73.9567748491
 20
0.5109955389
 10
-73.9720448397
 20
0.5473512311
 10
-73.9866344575
 20
0.5841370831
 10
-74.0004333974
 20
0.6211138613
 10
-74.0134916497
 20
0.6584836184
 10
-74.0260967745
 20
0.6973194868
 10
-74.0382080577
 20
0.7378957208
 10
-74.0495940092
 20
0.7798670032
 10
-74.0601484271
 20
0.8233595929
 10
-74.0697495618
 20
0.8685179534
 10
-74.0781800694
 20
0.9150730357
 10
-74.0852066442
 20
0.9625212454
 10
-74.0906804042
 20
1.0106448061
 10
-74.0944906046
 20
1.0595035973
 10
-74.0964996805
 20
1.1090059855
  0
LWPOLYLINE
  5
2D8
100
AcDbEntity
  8
RACCORDO
100
AcDbPolyline
 62
250
  6
CONTINUOUS
 90
73
 70
0
 10
-72.0264812014
 20
-1.8032516805
 10
-72.1333430269
 20
-1.7678685861
 10
-72.2365940048
 20
-1.7309196611
 10
-72.3360939084
 20
-1.6927479385
 10
-72.4317519578
 20
-1.6536013832
 10
-72.5237784296
 20
-1.6137598343
 10
-72.6125754148
 20
-1.5735428326
 10
-72.6976308906
 20
-1.533406561
 10
-72.7781847393
 20
-1.4938942063
 10
-72.8540665624
 20
-1.4555007427
 10
-72.9256422313
 20
-1.4185432231
 10
-72.9937271102
 20
-1.3825372543
 10
-73.0592260887
 20
-1.3465094664
 10
-73.1223233057
 20
-1.3102677772
 10
-73.1828905684
 20
-1.2742238738
 10
-73.241049068
 20
-1.2384250262
 10
-73.2967638276
 20
-1.2030056664
 10
-73.3500954528
 20
-1.1680496117
 10
-73.4013414582
 20
-1.1334771866
 10
-73.4504629815
 20
-1.0994260618
 10
-73.4974859827
 20
-1.0659436003
 10
-73.5427865121
 20
-1.0327877938
 10
-73.5864874308
 20
-0.9999249807
 10
-73.6290150932
 20
-0.9671217317
 10
-73.6712268946
 20
-0.9337554807
 10
-73.7131150733
 20
-0.8997611085
 10
-73.7542334148
 20
-0.8656017291
 10
-73.7947066125
 20
-0.8314627341
 10
-73.8342624478
 20
-0.7976997438
 10
-73.8729998387
 20
-0.7641576353
 10
-73.9116435663
 20
-0.7301824267
 10
-73.9501934089
 20
-0.6957649159
 10
-73.9884883764
 20
-0.6610245829
 10
-74.0269313347
 20
-0.6255123694
 10
-74.0654220735
 20
-0.5893010469
 10
-74.1040881527
 20
-0.5522116983
 10
-74.1436209109
 20
-0.5133905701
 10
-74.1842184152
 20
-0.4724933375
 10
-74.2257326451
 20
-0.4295907259
 10
-74.2683071944
 20
-0.3844034439
 10
-74.3118638016
 20
-0.3368875303
 10
-74.3562380242
 20
-0.2870709905
 10
-74.4014102414
 20
-0.2347844572
 10
-74.4475066924
 20
-0.1796931573
 10
-74.4941613018
 20
-0.1220416994
 10
-74.5406388972
 20
-0.0625530271
 10
-74.5868897975
 20
-0.0011543522
 10
-74.6327529603
 20
0.0620717526
 10
-74.6774193437
 20
0.1261144482
 10
-74.7206877026
 20
0.1907087724
 10
-74.7626688225
 20
0.2560358387
 10
-74.8031024166
 20
0.3217183556
 10
-74.8419032112
 20
0.38761207
 10
-74.8791277563
 20
0.4537909107
 10
-74.9147540773
 20
0.520201368
 10
-74.9488087407
 20
0.586841633
 10
-74.9811911947
 20
0.6535597092
 10
-75.0116970616
 20
0.720052259
 10
-75.0398628081
 20
0.7856523611
 10
-75.0662297058
 20
0.8510210306
 10
-75.0920432999
 20
0.9179610693
 10
-75.1174671922
 20
0.9867746359
 10
-75.142315363
 20
1.057698999
 10
-75.1670576122
 20
1.1324442347
 10
-75.1916937479
 20
1.2113286628
 10
-75.2154963838
 20
1.2934323518
 10
-75.237687275
 20
1.3785846515
 10
-75.2578172488
 20
1.4668322444
 10
-75.2756169379
 20
1.5576922178
 10
-75.2906406917
 20
1.6501798594
 10
-75.3026092809
 20
1.7438970077
 10
-75.3113101918
 20
1.8389832989
 10
-75.3164733499
 20
1.9352504985
  0
LWPOLYLINE
  5
2D9
100
AcDbEntity
  8
0
100
AcDbPolyline
 62
250
  6
CONTINUOUS
 90
16
 70
0
 10
-72.03021433
 20
0.8047238223
 10
-72.0581761254
 20
0.8145751193
 10
-72.0858949628
 20
0.8268669532
 10
-72.1130671488
 20
0.8414646522
 10
-72.1393949792
 20
0.8582082806
 10
-72.1645900009
 20
0.8769143919
 10
-72.1883761718
 20
0.897378038
 10
-72.2104928857
 20
0.9193750149
 10
-72.2306978273
 20
0.9426643191
 10
-72.248769627
 20
0.9669907881
 10
-72.2645102864
 20
0.992087896
 10
-72.2777473475
 20
1.0176806737
 10
-72.2883357823
 20
1.0434887213
 10
-72.2961595818
 20
1.0692292805
 10
-72.3011330266
 20
1.0946203324
 10
-72.3032016268
 20
1.1193836871
  0
LINE
  5
2DA
100
AcDbEntity
  8
DRAFT
100
AcDbLine
 62
7
  6
CONTINUOUS
 10
-56.8339012924
 20
-1.6469540307
 11
-56.7698735049
 21
-1.6757221392
  0
LINE
  5
2DB
100
AcDbEntity
  8
DRAFT
100
AcDbLine
 62
7
  6
CONTINUOUS
 10
-56.6301193708
 20
-1.3551726175
 11
-56.5660915832
 21
-1.3839407259
  0
LINE
  5
2DC
100
AcDbEntity
  8
DRAFT
100
AcDbLine
 62
7
  6
CONTINUOUS
 10
-56.4263374492
 20
-1.0633912042
 11
-56.3623096616
 21
-1.0921593127
  0
LWPOLYLINE
  5
2DD
100
AcDbEntity
  8
RACCORDO
100
AcDbPolyline
 62
250
  6
CONTINUOUS
 90
11
 70
0
 10
-92.2546780752
 20
26.2001292655
 10
-92.3153256294
 20
26.2361762595
 10
-92.3708300421
 20
26.2753950836
 10
-92.4207969732
 20
26.3175071012
 10
-92.4648714246
 20
26.3622131209
 10
-92.5027402622
 20
26.4091955214
 10
-92.5341344408
 20
26.4581205086
 10
-92.5588309153
 20
26.5086404872
 10
-92.5766542256
 20
26.5603965296
 10
-92.5874777431
 20
26.6130209269
 10
-92.5911029043
 20
26.6576459664
  0
LWPOLYLINE
  5
2DE
100
AcDbEntity
  8
RACCORDO
100
AcDbPolyline
 62
7
  6
CONTINUOUS
 90
12
 70
0
 10
-16.0848852335
 20
-13.1548306645
 10
-16.0861674832
 20
-13.1411032829
 10
-16.0902837195
 20
-13.122018547
 10
-16.0974295936
 20
-13.1036569954
 10
-16.1075491591
 20
-13.0858424212
 10
-16.1204169967
 20
-13.0689011876
 10
-16.1361938098
 20
-13.0527455423
 10
-16.154718895
 20
-13.0374632377
 10
-16.1752847227
 20
-13.0236438945
 10
-16.1976554496
 20
-13.0114840528
 10
-16.222066919
 20
-13.0007871725
 10
-16.2485191308
 20
-12.9915532535
  0
LINE
  5
2DF
100
AcDbEntity
  8
RACCORDO
100
AcDbLine
 62
250
  6
CONTINUOUS
 10
-16.1108250485
 20
-13.2353268036
 11
-16.0963589932
 21
-13.8168394658
  0
LINE
  5
2E0
100
AcDbEntity
  8
RACCORDO
100
AcDbLine
 62
7
  6
CONTINUOUS
 10
-16.084884472
 20
-13.1548611211
 11
-16.0704184166
 21
-13.7363737832
  0
LINE
  5
2E1
100
AcDbEntity
  8
RACCORDO
100
AcDbLine
 62
250
  6
CONTINUOUS
 10
-16.0704184166
 20
-13.7363737832
 11
-16.0704122801
 21
-13.7420635008
  0
LWPOLYLINE
  5
2E2
100
AcDbEntity
  8
RACCORDO
100
AcDbPolyline
 62
250
  6
CONTINUOUS
 90
6
 70
0
 10
-16.0963589932
 20
-13.8168394658
 10
-16.0972203468
 20
-13.8404117325
 10
-16.1010095549
 20
-13.86304988
 10
-16.1077228873
 20
-13.8844963027
 10
-16.1173396115
 20
-13.9045282295
 10
-16.1243547303
 20
-13.9155851864
  0
LWPOLYLINE
  5
2E3
100
AcDbEntity
  8
RACCORDO
100
AcDbPolyline
 62
250
  6
CONTINUOUS
 90
5
 70
0
 10
-16.0704122801
 20
-13.7420635008
 10
-16.0723822612
 20
-13.761217801
 10
-16.0774027601
 20
-13.7801941204
 10
-16.0854223739
 20
-13.7987981683
 10
-16.0963589932
 20
-13.8168394658
  0
LWPOLYLINE
  5
2E4
100
AcDbEntity
  8
RACCORDO
100
AcDbPolyline
 62
250
  6
CONTINUOUS
 90
10
 70
0
 10
68.1934430946
 20
-8.4266239114
 10
68.3934889411
 20
-8.4063653858
 10
68.595106369
 20
-8.3946360129
 10
68.7973785725
 20
-8.3914891329
 10
68.9993857682
 20
-8.3969390595
 10
69.2002093776
 20
-8.4109610141
 10
69.3989362046
 20
-8.4334912394
 10
69.5946625874
 20
-8.4644272886
 10
69.7864985082
 20
-8.5036284915
 10
69.97357164
 20
-8.5509165943
  0
LWPOLYLINE
  5
2E5
100
AcDbEntity
  8
RACCORDO
100
AcDbPolyline
 62
250
  6
CONTINUOUS
 90
22
 70
0
 10
68.1934425654
 20
-8.4266249876
 10
68.1118660818
 20
-8.4343210406
 10
68.0296140647
 20
-8.4380086042
 10
67.9472446992
 20
-8.437639907
 10
67.8653184156
 20
-8.4332561483
 10
67.7843891769
 20
-8.4247943932
 10
67.7050015028
 20
-8.4121184502
 10
67.6276935946
 20
-8.3952846786
 10
67.5529913262
 20
-8.3744461903
 10
67.4814005819
 20
-8.3496921705
 10
67.4134051887
 20
-8.3211055734
 10
67.3494698363
 20
-8.2890039105
 10
67.2900343803
 20
-8.2538240439
 10
67.2355047291
 20
-8.2158901668
 10
67.1862462218
 20
-8.1752791794
 10
67.1425884433
 20
-8.1320840827
 10
67.1048268437
 20
-8.0865582656
 10
67.0732198
 20
-8.0390861779
 10
67.0479826434
 20
-7.990017903
 10
67.0292869134
 20
-7.939694319
 10
67.0172594879
 20
-7.8884556225
 10
67.0118517994
 20
-7.8324522139
  0
LWPOLYLINE
  5
2E6
100
AcDbEntity
  8
RACCORDO
100
AcDbPolyline
 62
250
  6
CONTINUOUS
 90
16
 70
0
 10
89.4727080459
 20
-29.6065904451
 10
89.5556836825
 20
-29.6146572349
 10
89.6396053686
 20
-29.6182652484
 10
89.723876869
 20
-29.6173888518
 10
89.8078994634
 20
-29.6120342716
 10
89.8910761995
 20
-29.6022395503
 10
89.9728161348
 20
-29.5880742761
 10
90.0525385347
 20
-29.5696390884
 10
90.1296769985
 20
-29.5470649632
 10
90.2036834837
 20
-29.5205122817
 10
90.274032199
 20
-29.490169692
 10
90.3402233407
 20
-29.4562527678
 10
90.4017866432
 20
-29.4190024773
 10
90.45828472
 20
-29.3786834714
 10
90.5093161714
 20
-29.3355822028
 10
90.5545184362
 20
-29.2900048916
  0
LWPOLYLINE
  5
2E7
100
AcDbEntity
  8
RACCORDO
100
AcDbPolyline
 62
250
  6
CONTINUOUS
 90
10
 70
0
 10
89.4727080451
 20
-29.6065904476
 10
87.1147214664
 20
-29.2911112823
 10
84.8382715918
 20
-28.9459424637
 10
82.6444948988
 20
-28.5748748431
 10
80.555427197
 20
-28.1857210311
 10
78.5532006428
 20
-27.7789978713
 10
76.5715061891
 20
-27.3432736503
 10
74.5815582611
 20
-26.8716318933
 10
72.4956739726
 20
-26.3393835636
 10
70.4084628779
 20
-25.7668357681
  0
LWPOLYLINE
  5
2E8
100
AcDbEntity
  8
RACCORDO
100
AcDbPolyline
 62
7
  6
CONTINUOUS
 90
16
 70
0
 10
39.1172627287
 20
-29.9938484813
 10
39.089386751
 20
-29.9863987396
 10
39.0608728676
 20
-29.9808427568
 10
39.0317210783
 20
-29.9771805329
 10
39.0015364416
 20
-29.9754149002
 10
38.9707138991
 20
-29.9755430264
 10
38.9404382755
 20
-29.9775564145
 10
38.9109195006
 20
-29.98148113
 10
38.8819476447
 20
-29.9872911074
 10
38.8540777441
 20
-29.9948996539
 10
38.8271178495
 20
-30.004441211
 10
38.8012599102
 20
-30.0157813371
 10
38.7776348112
 20
-30.0284300146
 10
38.756619514
 20
-30.0422239043
 10
38.7378370572
 20
-30.0573263454
 10
38.7212874407
 20
-30.0737373379
  0
LWPOLYLINE
  5
2E9
100
AcDbEntity
  8
RACCORDO
100
AcDbPolyline
 62
7
  6
CONTINUOUS
 90
16
 70
0
 10
19.077197131
 20
-23.8397384835
 10
19.0493211534
 20
-23.8322887418
 10
19.02080727
 20
-23.826732759
 10
18.9916554807
 20
-23.8230705351
 10
18.961470844
 20
-23.8213049024
 10
18.9306483014
 20
-23.8214330286
 10
18.9003726779
 20
-23.8234464168
 10
18.8708539029
 20
-23.8273711322
 10
18.841882047
 20
-23.8331811097
 10
18.8140121465
 20
-23.8407896561
 10
18.7870522518
 20
-23.8503312132
 10
18.7611943125
 20
-23.8616713394
 10
18.7375692135
 20
-23.8743200169
 10
18.7165539164
 20
-23.8881139066
 10
18.6977714596
 20
-23.9032163477
 10
18.681221843
 20
-23.9196273402
  0
LWPOLYLINE
  5
2EA
100
AcDbEntity
  8
RACCORDO
100
AcDbPolyline
 62
7
  6
CONTINUOUS
 90
16
 70
0
 10
-0.9628684667
 20
-17.6856284858
 10
-0.9907444443
 20
-17.6781787441
 10
-1.0192583277
 20
-17.6726227613
 10
-1.048410117
 20
-17.6689605374
 10
-1.0785947537
 20
-17.6671949047
 10
-1.1094172963
 20
-17.6673230309
 10
-1.1396929198
 20
-17.669336419
 10
-1.1692116947
 20
-17.6732611345
 10
-1.1981835506
 20
-17.6790711119
 10
-1.2260534512
 20
-17.6866796584
 10
-1.2530133458
 20
-17.6962212155
 10
-1.2788712851
 20
-17.7075613416
 10
-1.3024963842
 20
-17.7202100192
 10
-1.3235116813
 20
-17.7340039089
 10
-1.3422941381
 20
-17.7491063499
 10
-1.3588437546
 20
-17.7655173424
  0
LWPOLYLINE
  5
2EB
100
AcDbEntity
  8
RACCORDO
100
AcDbPolyline
 62
7
  6
CONTINUOUS
 90
16
 70
0
 10
-21.0029340643
 20
-11.531518488
 10
-21.0308100419
 20
-11.5240687463
 10
-21.0593239254
 20
-11.5185127635
 10
-21.0884757146
 20
-11.5148505396
 10
-21.1186603514
 20
-11.5130849069
 10
-21.1494828939
 20
-11.5132130331
 10
-21.1797585174
 20
-11.5152264213
 10
-21.2092772924
 20
-11.5191511368
 10
-21.2382491483
 20
-11.5249611142
 10
-21.2661190488
 20
-11.5325696607
 10
-21.2930789435
 20
-11.5421112177
 10
-21.3189368828
 20
-11.5534513439
 10
-21.3425619818
 20
-11.5661000214
 10
-21.3635772789
 20
-11.5798939111
 10
-21.3823597357
 20
-11.5949963522
 10
-21.3989093523
 20
-11.6114073447
  0
LWPOLYLINE
  5
2EC
100
AcDbEntity
  8
RACCORDO
100
AcDbPolyline
 62
7
  6
CONTINUOUS
 90
16
 70
0
 10
-41.042999662
 20
-5.3774084903
 10
-41.0708756396
 20
-5.3699587486
 10
-41.099389523
 20
-5.3644027658
 10
-41.1285413123
 20
-5.3607405419
 10
-41.158725949
 20
-5.3589749092
 10
-41.1895484916
 20
-5.3591030354
 10
-41.2198241151
 20
-5.3611164236
 10
-41.24934289
 20
-5.365041139
 10
-41.2783147459
 20
-5.3708511164
 10
-41.3061846465
 20
-5.3784596629
 10
-41.3331445412
 20
-5.38800122
 10
-41.3590024805
 20
-5.3993413461
 10
-41.3826275795
 20
-5.4119900237
 10
-41.4036428766
 20
-5.4257839134
 10
-41.4224253334
 20
-5.4408863545
 10
-41.4389749499
 20
-5.4572973469
  0
LINE
  5
2ED
100
AcDbEntity
  8
0
100
AcDbLine
 62
250
  6
CONTINUOUS
 10
67.7158442727
 20
-42.1099350979
 11
-72.0302131452
 21
0.804725307
  0
LINE
  5
2EE
100
AcDbEntity
  8
SUPERFICI
100
AcDbLine
 62
7
  6
CONTINUOUS
 10
-70.7384814287
 20
2.4234454732
 11
67.8151816472
 21
-40.1250421554
  0
LINE
  5
2EF
100
AcDbEntity
  8
DRAFT
100
AcDbLine
 62
7
  6
CONTINUOUS
 10
-62.36833718
 20
-0.0891267339
 11
-56.9154140611
 21
-1.763666596
  0
LINE
  5
2F0
100
AcDbEntity
  8
DRAFT
100
AcDbLine
 62
7
  6
CONTINUOUS
 10
63.3249795249
 20
-38.6883265825
 11
57.8720564059
 21
-37.0137867204
  0
LINE
  5
2F1
100
AcDbEntity
  8
DRAFT
100
AcDbLine
 62
7
  6
CONTINUOUS
 10
-62.2681532054
 20
0.0218520849
 11
-56.8339012924
 21
-1.6469540307
  0
LINE
  5
2F2
100
AcDbEntity
  8
DRAFT
100
AcDbLine
 62
7
  6
CONTINUOUS
 10
63.4064922935
 20
-38.5716140172
 11
57.9722403805
 21
-36.9028079015
  0
LINE
  5
2F3
100
AcDbEntity
  8
DRAFT
100
AcDbLine
 62
7
  6
CONTINUOUS
 10
-62.1178772435
 20
0.1883203132
 11
-56.7116321395
 21
-1.4718851828
  0
LINE
  5
2F4
100
AcDbEntity
  8
DRAFT
100
AcDbLine
 62
7
  6
CONTINUOUS
 10
63.5287614465
 20
-38.3965451692
 11
58.1225163424
 21
-36.7363396733
  0
LINE
  5
2F5
100
AcDbEntity
  8
DRAFT
100
AcDbLine
 62
7
  6
CONTINUOUS
 10
-62.0176932689
 20
0.299299132
 11
-56.6301193708
 21
-1.3551726175
  0
LINE
  5
2F6
100
AcDbEntity
  8
DRAFT
100
AcDbLine
 62
7
  6
CONTINUOUS
 10
63.6102742151
 20
-38.2798326039
 11
58.222700317
 21
-36.6253608544
  0
LINE
  5
2F7
100
AcDbEntity
  8
DRAFT
100
AcDbLine
 62
7
  6
CONTINUOUS
 10
-61.867417307
 20
0.4657673603
 11
-56.5078502178
 21
-1.1801037695
  0
LINE
  5
2F8
100
AcDbEntity
  8
DRAFT
100
AcDbLine
 62
7
  6
CONTINUOUS
 10
63.7325433681
 20
-38.104763756
 11
58.372976279
 21
-36.4588926262
  0
LINE
  5
2F9
100
AcDbEntity
  8
DRAFT
100
AcDbLine
 62
7
  6
CONTINUOUS
 10
-61.7672333324
 20
0.5767461791
 11
-56.4263374492
 21
-1.0633912042
  0
LINE
  5
2FA
100
AcDbEntity
  8
DRAFT
100
AcDbLine
 62
7
  6
CONTINUOUS
 10
63.8140561368
 20
-37.9880511907
 11
58.4731602536
 21
-36.3479138073
  0
LINE
  5
2FB
100
AcDbEntity
  8
DRAFT
100
AcDbLine
 62
7
  6
CONTINUOUS
 10
-61.6169573705
 20
0.7432144074
 11
-56.3040682962
 21
-0.8883223563
  0
LINE
  5
2FC
100
AcDbEntity
  8
DRAFT
100
AcDbLine
 62
7
  6
CONTINUOUS
 10
63.9363252898
 20
-37.8129823427
 11
58.6234362155
 21
-36.1814455791
  0
LINE
  5
2FD
100
AcDbEntity
  8
RACCORDO
100
AcDbLine
 62
250
  6
CONTINUOUS
 10
-61.4917274022
 20
0.8819379309
 11
-56.2021773354
 21
-0.7424316497
  0
LINE
  5
2FE
100
AcDbEntity
  8
RACCORDO
100
AcDbLine
 62
250
  6
CONTINUOUS
 10
58.7486661837
 20
-36.0427220555
 11
64.0382162506
 21
-37.6670916361
  0
LINE
  5
2FF
100
AcDbEntity
  8
RACCORDO
100
AcDbLine
 62
7
  6
CONTINUOUS
 10
43.8716776621
 20
-31.4538832468
 11
39.1172627287
 21
-29.9938484813
  0
LINE
  5
300
100
AcDbEntity
  8
RACCORDO
100
AcDbLine
 62
7
  6
CONTINUOUS
 10
23.8316120645
 20
-25.299773249
 11
19.077197131
 21
-23.8397384835
  0
LINE
  5
301
100
AcDbEntity
  8
RACCORDO
100
AcDbLine
 62
7
  6
CONTINUOUS
 10
3.7915464668
 20
-19.1456632513
 11
-0.9628684667
 21
-17.6856284858
  0
LINE
  5
302
100
AcDbEntity
  8
RACCORDO
100
AcDbLine
 62
7
  6
CONTINUOUS
 10
-16.2485191308
 20
-12.9915532535
 11
-21.0029340643
 21
-11.531518488
  0
LINE
  5
303
100
AcDbEntity
  8
RACCORDO
100
AcDbLine
 62
7
  6
CONTINUOUS
 10
-36.2885847285
 20
-6.8374432558
 11
-41.042999662
 21
-5.3774084903
  0
LINE
  5
304
100
AcDbEntity
  8
RACCORDO
100
AcDbLine
 62
7
  6
CONTINUOUS
 10
-61.3309652098
 20
0.9156441016
 11
-56.1793571099
 21
-0.6664406059
  0
LINE
  5
305
100
AcDbEntity
  8
RACCORDO
100
AcDbLine
 62
7
  6
CONTINUOUS
 10
58.9094283761
 20
-36.0090158849
 11
64.061036476
 21
-37.5911005923
  0
LWPOLYLINE
  5
306
100
AcDbEntity
  8
RACCORDO
100
AcDbPolyline
 62
250
  6
CONTINUOUS
 90
10
 70
0
 10
-92.2546780778
 20
26.2001292636
 10
-90.4205061827
 20
25.2282371749
 10
-88.5977162217
 20
24.3145691532
 10
-86.7918566504
 20
23.4573872255
 10
-85.0263036243
 20
22.6628243547
 10
-83.2908854582
 20
21.9217530306
 10
-81.5307416263
 20
21.2083949658
 10
-79.7195519616
 20
20.5127441952
 10
-77.7725017824
 20
19.8065174225
 10
-75.7729887304
 20
19.1240718242
  0
LWPOLYLINE
  5
307
100
AcDbEntity
  8
RACCORDO
100
AcDbPolyline
 62
7
  6
CONTINUOUS
 90
6
 70
0
 10
-16.1108250485
 20
-13.2353268036
 10
-16.0998233161
 20
-13.2172121097
 10
-16.0918528547
 20
-13.1987894095
 10
-16.0869136643
 20
-13.1800587032
 10
-16.0850249382
 20
-13.1607349961
 10
-16.0848852335
 20
-13.1548306645
  0
LINE
  5
308
100
AcDbEntity
  8
0
100
AcDbLine
 62
7
  6
CONTINUOUS
 10
-21.3989093523
 20
-11.6114073447
 11
-22.1882928554
 21
-12.4858470855
  0
LINE
  5
309
100
AcDbEntity
  8
DRAFT
100
AcDbLine
 62
7
  6
CONTINUOUS
 10
63.4064922935
 20
-38.5716140172
 11
63.4705200811
 21
-38.6003821256
  0
LINE
  5
30A
100
AcDbEntity
  8
DRAFT
100
AcDbLine
 62
7
  6
CONTINUOUS
 10
63.6102742151
 20
-38.2798326039
 11
63.6743020027
 21
-38.3086007124
  0
LINE
  5
30B
100
AcDbEntity
  8
DRAFT
100
AcDbLine
 62
7
  6
CONTINUOUS
 10
63.8140561368
 20
-37.9880511907
 11
63.8780839243
 21
-38.0168192991
  0
LINE
  5
30C
100
AcDbEntity
  8
0
100
AcDbLine
 62
7
  6
CONTINUOUS
 10
-16.1108250485
 20
-13.2353268036
 11
-16.7530917895
 21
-14.1549446768
  0
LINE
  5
30D
100
AcDbEntity
  8
RACCORDO
100
AcDbLine
 62
250
  6
CONTINUOUS
 10
-16.4067705526
 20
-14.2612965735
 11
-16.0963589932
 21
-13.8168394658
  0
LINE
  5
30E
100
AcDbEntity
  8
RACCORDO
100
AcDbLine
 62
250
  6
CONTINUOUS
 10
-16.1243547303
 20
-13.9155851864
 11
-16.1243720256
 21
-13.9156099557
  0
LINE
  5
30F
100
AcDbEntity
  8
RACCORDO
100
AcDbLine
 62
7
  6
CONTINUOUS
 10
-16.3730366978
 20
-14.2716559135
 11
-16.1243720256
 21
-13.9156099557
  0
LWPOLYLINE
  5
310
100
AcDbEntity
  8
RACCORDO
100
AcDbPolyline
 62
7
  6
CONTINUOUS
 90
4
 70
0
 10
-61.4020068719
 20
0.9251208067
 10
-61.3788437479
 20
0.92457788
 10
-61.3550768152
 20
0.921369207
 10
-61.3309652098
 20
0.9156441016
  0
LINE
  5
311
100
AcDbEntity
  8
0
100
AcDbLine
 62
7
  6
CONTINUOUS
 10
92.872473482
 20
-29.6500593156
 11
91.8351011214
 21
-29.3314923137
  0
LWPOLYLINE
  5
312
100
AcDbEntity
  8
RACCORDO
100
AcDbPolyline
 62
7
  6
CONTINUOUS
 90
12
 70
0
 10
3.9551803642
 20
-19.3089406622
 10
3.9538981145
 20
-19.2952132806
 10
3.9497818782
 20
-19.2761285448
 10
3.942636004
 20
-19.2577669931
 10
3.9325164385
 20
-19.2399524189
 10
3.9196486009
 20
-19.2230111854
 10
3.9038717878
 20
-19.2068555401
 10
3.8853467026
 20
-19.1915732355
 10
3.864780875
 20
-19.1777538922
 10
3.8424101481
 20
-19.1655940506
 10
3.8179986787
 20
-19.1548971702
 10
3.7915464668
 20
-19.1456632513
  0
LINE
  5
313
100
AcDbEntity
  8
RACCORDO
100
AcDbLine
 62
250
  6
CONTINUOUS
 10
3.9292405491
 20
-19.3894368014
 11
3.9437066045
 21
-19.9709494635
  0
LINE
  5
314
100
AcDbEntity
  8
RACCORDO
100
AcDbLine
 62
7
  6
CONTINUOUS
 10
3.9551811257
 20
-19.3089711188
 11
3.9696471811
 21
-19.890483781
  0
LINE
  5
315
100
AcDbEntity
  8
RACCORDO
100
AcDbLine
 62
250
  6
CONTINUOUS
 10
3.9696471811
 20
-19.890483781
 11
3.9696533176
 21
-19.8961734985
  0
LWPOLYLINE
  5
316
100
AcDbEntity
  8
RACCORDO
100
AcDbPolyline
 62
250
  6
CONTINUOUS
 90
6
 70
0
 10
3.9437066045
 20
-19.9709494635
 10
3.9428452509
 20
-19.9945217302
 10
3.9390560428
 20
-20.0171598777
 10
3.9323427104
 20
-20.0386063005
 10
3.9227259862
 20
-20.0586382272
 10
3.9157108674
 20
-20.0696951841
  0
LWPOLYLINE
  5
317
100
AcDbEntity
  8
RACCORDO
100
AcDbPolyline
 62
250
  6
CONTINUOUS
 90
5
 70
0
 10
3.9696533176
 20
-19.8961734985
 10
3.9676833365
 20
-19.9153277988
 10
3.9626628376
 20
-19.9343041181
 10
3.9546432238
 20
-19.9529081661
 10
3.9437066045
 20
-19.9709494635
  0
LWPOLYLINE
  5
318
100
AcDbEntity
  8
RACCORDO
100
AcDbPolyline
 62
7
  6
CONTINUOUS
 90
6
 70
0
 10
3.9292405491
 20
-19.3894368014
 10
3.9402422815
 20
-19.3713221074
 10
3.9482127429
 20
-19.3528994073
 10
3.9531519333
 20
-19.334168701
 10
3.9550406594
 20
-19.3148449939
 10
3.9551803642
 20
-19.3089406622
  0
LINE
  5
319
100
AcDbEntity
  8
0
100
AcDbLine
 62
7
  6
CONTINUOUS
 10
3.9292405491
 20
-19.3894368014
 11
3.2869738081
 21
-20.3090546746
  0
LINE
  5
31A
100
AcDbEntity
  8
RACCORDO
100
AcDbLine
 62
250
  6
CONTINUOUS
 10
3.633295045
 20
-20.4154065713
 11
3.9437066045
 21
-19.9709494635
  0
LINE
  5
31B
100
AcDbEntity
  8
RACCORDO
100
AcDbLine
 62
250
  6
CONTINUOUS
 10
3.9157108674
 20
-20.0696951841
 11
3.915693572
 21
-20.0697199535
  0
LINE
  5
31C
100
AcDbEntity
  8
RACCORDO
100
AcDbLine
 62
7
  6
CONTINUOUS
 10
3.6670288999
 20
-20.4257659113
 11
3.915693572
 21
-20.0697199535
  0
LINE
  5
31D
100
AcDbEntity
  8
0
100
AcDbLine
 62
7
  6
CONTINUOUS
 10
-1.3588437546
 20
-17.7655173424
 11
-2.1482272577
 21
-18.6399570832
  0
LINE
  5
31E
100
AcDbEntity
  8
RACCORDO
100
AcDbLine
 62
250
  6
CONTINUOUS
 10
-73.0194618682
 20
38.1135856909
 11
-70.3332492703
 21
37.2964754497
  0
LINE
  5
31F
100
AcDbEntity
  8
RACCORDO
100
AcDbLine
 62
250
  6
CONTINUOUS
 10
-70.3332492703
 20
37.2964754497
 11
-63.7257792832
 21
35.2746839567
  0
LINE
  5
320
100
AcDbEntity
  8
RACCORDO
100
AcDbLine
 62
7
  6
CONTINUOUS
 10
-73.2112384434
 20
35.5149583741
 11
-73.2111588693
 21
35.5149339976
  0
LINE
  5
321
100
AcDbEntity
  8
0
100
AcDbLine
 62
7
  6
CONTINUOUS
 10
-73.2111584096
 20
35.5149356181
 11
66.5351716331
 21
-7.3998084375
  0
LINE
  5
322
100
AcDbEntity
  8
RACCORDO
100
AcDbLine
 62
250
  6
CONTINUOUS
 10
57.151260057
 20
-3.5568339531
 11
66.4576778534
 21
-6.4143029189
  0
LINE
  5
323
100
AcDbEntity
  8
RACCORDO
100
AcDbLine
 62
7
  6
CONTINUOUS
 10
66.5351711256
 20
-7.3998100781
 11
66.5352402507
 21
-7.399831357
  0
LINE
  5
324
100
AcDbEntity
  8
RACCORDO
100
AcDbLine
 62
250
  6
CONTINUOUS
 10
-63.7257792941
 20
35.2746831749
 11
60.6259318168
 21
-2.9158376532
  0
LINE
  5
325
100
AcDbEntity
  8
RACCORDO
100
AcDbLine
 62
250
  6
CONTINUOUS
 10
-73.285989743
 20
36.499623463
 11
57.1512601483
 21
-3.5568336209
  0
LINE
  5
326
100
AcDbEntity
  8
RACCORDO
100
AcDbLine
 62
250
  6
CONTINUOUS
 10
60.6259318168
 20
-2.9158376532
 11
66.1646648106
 21
-4.6260809287
  0
LINE
  5
327
100
AcDbEntity
  8
RACCORDO
100
AcDbLine
 62
250
  6
CONTINUOUS
 10
66.1646648106
 20
-4.6260809287
 11
66.6993142728
 21
-4.7926969756
  0
LWPOLYLINE
  5
328
100
AcDbEntity
  8
RACCORDO
100
AcDbPolyline
 62
250
  6
CONTINUOUS
 90
73
 70
0
 10
66.4576765218
 20
-6.4143043368
 10
66.5125394093
 20
-6.4317109776
 10
66.5655132935
 20
-6.4500587604
 10
66.6165449037
 20
-6.4691805404
 10
66.6654875727
 20
-6.4888860528
 10
66.7124125596
 20
-6.5090488839
 10
66.7576071461
 20
-6.5296303622
 10
66.8010240812
 20
-6.5505164671
 10
66.8426803314
 20
-6.5715914981
 10
66.8829664832
 20
-6.5928680146
 10
66.922055167
 20
-6.6143419923
 10
66.9597680323
 20
-6.6358707234
 10
66.9959768063
 20
-6.6572809146
 10
67.0306117541
 20
-6.6784372968
 10
67.0637655216
 20
-6.6993280598
 10
67.0955582693
 20
-6.719969194
 10
67.1259905011
 20
-6.7402957055
 10
67.1550904977
 20
-6.7602601062
 10
67.1830160881
 20
-6.7799202807
 10
67.2097771088
 20
-6.7992298607
 10
67.2353930463
 20
-6.8181515763
 10
67.2600300715
 20
-6.8367717022
 10
67.2837109502
 20
-6.8550578407
 10
67.3064389175
 20
-6.8729819615
 10
67.3283436027
 20
-6.8906483452
 10
67.3493101554
 20
-6.9079401539
 10
67.3694758842
 20
-6.9249267961
 10
67.3893328136
 20
-6.9420107488
 10
67.4089074809
 20
-6.9592144736
 10
67.42817045
 20
-6.9765017949
 10
67.4475074813
 20
-6.9942112698
 10
67.4669008991
 20
-7.0123445953
 10
67.4863450708
 20
-7.0309060251
 10
67.506221525
 20
-7.0502586592
 10
67.5265779447
 20
-7.0704858465
 10
67.5473132912
 20
-7.0915314325
 10
67.5685666596
 20
-7.1135643317
 10
67.5903048002
 20
-7.1366005346
 10
67.6124866689
 20
-7.1606572282
 10
67.6352237753
 20
-7.1859138705
 10
67.6584976568
 20
-7.2124273942
 10
67.6822208052
 20
-7.2401795763
 10
67.7063866892
 20
-7.2692420339
 10
67.7310535791
 20
-7.2997861427
 10
67.7560250481
 20
-7.3316764592
 10
67.7809268543
 20
-7.3645132167
 10
67.8057400451
 20
-7.3983417447
 10
67.8303759887
 20
-7.433118949
 10
67.8544098604
 20
-7.4682873557
 10
67.8777363537
 20
-7.5037018433
 10
67.9004223672
 20
-7.5394756434
 10
67.9223463117
 20
-7.5754229562
 10
67.9434724385
 20
-7.6114808744
 10
67.9638177626
 20
-7.6476742661
 10
67.9833538902
 20
-7.6839456538
 10
68.0020655455
 20
-7.7202606111
 10
68.0199558182
 20
-7.7566152797
 10
68.0370266037
 20
-7.7929980253
 10
68.0532131798
 20
-7.8292468292
 10
68.0685757569
 20
-7.865486495
 10
68.0832733659
 20
-7.9021370172
 10
68.0972056948
 20
-7.9389466392
 10
68.1104127727
 20
-7.9761298967
 10
68.1231500461
 20
-8.014800165
 10
68.1353709834
 20
-8.0552389889
 10
68.1468498799
 20
-8.0970938005
 10
68.1574657861
 20
-8.1405093385
 10
68.1670939943
 20
-8.1856337734
 10
68.1755200984
 20
-8.2321943746
 10
68.1825048903
 20
-8.2796949428
 10
68.1878975321
 20
-8.327920153
 10
68.1915892683
 20
-8.3769273921
 10
68.1934425654
 20
-8.4266249876
  0
LWPOLYLINE
  5
329
100
AcDbEntity
  8
0
100
AcDbPolyline
 62
7
  6
CONTINUOUS
 90
20
 70
0
 10
66.5352396782
 20
-7.3998311809
 10
66.5621452964
 20
-7.4088573282
 10
66.5919394066
 20
-7.4205210345
 10
66.6236928808
 20
-7.4347855866
 10
66.6570360511
 20
-7.4517535152
 10
66.691366249
 20
-7.4713593901
 10
66.7258674403
 20
-7.4933097577
 10
66.7600176987
 20
-7.5173786183
 10
66.7933612584
 20
-7.5433132274
 10
66.8252431027
 20
-7.5706107305
 10
66.8552806928
 20
-7.5988815337
 10
66.8831420775
 20
-7.6277036234
 10
66.9083861154
 20
-7.6564324352
 10
66.9308025736
 20
-7.6845480163
 10
66.9503372537
 20
-7.7116379396
 10
66.966924087
 20
-7.7371940882
 10
66.9805823171
 20
-7.7607297766
 10
66.991459095
 20
-7.7818831563
 10
66.9997432446
 20
-7.8003000071
 10
67.0039368339
 20
-7.8108799655
  0
LWPOLYLINE
  5
32A
100
AcDbEntity
  8
RACCORDO
100
AcDbPolyline
 62
250
  6
CONTINUOUS
 90
12
 70
0
 10
-92.798143117
 20
54.9253983997
 10
-92.8752964038
 20
54.9583093279
 10
-92.9469230078
 20
54.9955119708
 10
-93.0123813907
 20
55.0366731153
 10
-93.0710852615
 20
55.0814240933
 10
-93.122508827
 20
55.1293640833
 10
-93.1661915018
 20
55.1800637011
 10
-93.2017420331
 20
55.2330688451
 10
-93.2288420055
 20
55.2879047638
 10
-93.2472486926
 20
55.3440803082
 10
-93.2567972312
 20
55.4010923305
 10
-93.2582353551
 20
55.4317257245
  0
LWPOLYLINE
  5
32B
100
AcDbEntity
  8
RACCORDO
100
AcDbPolyline
 62
250
  6
CONTINUOUS
 90
10
 70
0
 10
58.0815480554
 20
-40.9529436015
 10
58.1377825549
 20
-41.0107353901
 10
58.1892230045
 20
-41.0804407897
 10
58.235644087
 20
-41.1617544798
 10
58.2768424709
 20
-41.2543202939
 10
58.3126377009
 20
-41.3577327793
 10
58.3428729883
 20
-41.4715389733
 10
58.3674158978
 20
-41.5952403872
 10
58.3861589278
 20
-41.7282951895
 10
58.3990199808
 20
-41.8701205795
  0
LWPOLYLINE
  5
32C
100
AcDbEntity
  8
RACCORDO
100
AcDbPolyline
 62
250
  6
CONTINUOUS
 90
25
 70
0
 10
58.0815479815
 20
-40.9529435788
 10
58.0556412283
 20
-40.9247153943
 10
58.0329552117
 20
-40.8887151149
 10
58.0136863472
 20
-40.8452544372
 10
57.9980014624
 20
-40.7947096521
 10
57.9860363579
 20
-40.7375183817
 10
57.9778946334
 20
-40.6741757858
 10
57.9736467831
 20
-40.6052302854
 10
57.9733295829
 20
-40.531278817
 10
57.9769457793
 20
-40.4529616566
 10
57.9844640628
 20
-40.3709568789
 10
57.9958193399
 20
-40.285974486
 10
58.0109132958
 20
-40.1987502603
 10
58.0296152526
 20
-40.1100393963
 10
58.0517632813
 20
-40.0206099557
 10
58.0771656041
 20
-39.9312362182
 10
58.1056022166
 20
-39.8426919654
 10
58.1368269816
 20
-39.7557438395
 10
58.1705697419
 20
-39.6711447005
 10
58.2065364551
 20
-39.5896264309
 10
58.2444176008
 20
-39.511895398
 10
58.2838910672
 20
-39.4386264011
 10
58.3246170893
 20
-39.3704544208
 10
58.3662412084
 20
-39.307969127
 10
58.4084032014
 20
-39.2517115706
  0
LWPOLYLINE
  5
32D
100
AcDbEntity
  8
RACCORDO
100
AcDbPolyline
 62
7
  6
CONTINUOUS
 90
12
 70
0
 10
23.9952459618
 20
-25.46305066
 10
23.9939637121
 20
-25.4493232784
 10
23.9898474758
 20
-25.4302385425
 10
23.9827016017
 20
-25.4118769909
 10
23.9725820362
 20
-25.3940624166
 10
23.9597141986
 20
-25.3771211831
 10
23.9439373855
 20
-25.3609655378
 10
23.9254123003
 20
-25.3456832332
 10
23.9048464726
 20
-25.33186389
 10
23.8824757457
 20
-25.3197040483
 10
23.8580642763
 20
-25.309007168
 10
23.8316120645
 20
-25.299773249
  0
LWPOLYLINE
  5
32E
100
AcDbEntity
  8
RACCORDO
100
AcDbPolyline
 62
250
  6
CONTINUOUS
 90
16
 70
0
 10
88.6677287458
 20
-0.8010114931
 10
88.7573739612
 20
-0.8193217967
 10
88.8494851877
 20
-0.8324006364
 10
88.9432374314
 20
-0.840130873
 10
89.0377910008
 20
-0.8424432716
 10
89.1322990272
 20
-0.839317122
 10
89.2259150498
 20
-0.8307804245
 10
89.3178005971
 20
-0.8169096384
 10
89.4071326964
 20
-0.7978289979
 10
89.4931112452
 20
-0.7737093991
 10
89.5749661769
 20
-0.7447668691
 10
89.6519643581
 20
-0.7112606319
 10
89.7234161549
 20
-0.6734907859
 10
89.7886816096
 20
-0.6317956163
 10
89.8471761723
 20
-0.5865485659
 10
89.8983759368
 20
-0.5381548894
  0
LWPOLYLINE
  5
32F
100
AcDbEntity
  8
RACCORDO
100
AcDbPolyline
 62
250
  6
CONTINUOUS
 90
3
 70
0
 10
-73.2243170555
 20
38.1694550951
 10
-73.1236535929
 20
38.1435040358
 10
-73.0194646047
 20
38.1135826505
  0
LWPOLYLINE
  5
330
100
AcDbEntity
  8
RACCORDO
100
AcDbPolyline
 62
250
  6
CONTINUOUS
 90
73
 70
0
 10
66.699310447
 20
-4.792701316
 10
66.8064361825
 20
-4.8277536989
 10
66.9097254898
 20
-4.8646545959
 10
67.0090604675
 20
-4.9030329972
 10
67.1043376834
 20
-4.942656794
 10
67.1957666477
 20
-4.983247109
 10
67.2837807296
 20
-5.0244452063
 10
67.367965249
 20
-5.0656729158
 10
67.447661472
 20
-5.1062600018
 10
67.5227638384
 20
-5.1456302409
 10
67.5936736802
 20
-5.1834221483
 10
67.6611953862
 20
-5.2201338699
 10
67.7262056988
 20
-5.2567740459
 10
67.7888817235
 20
-5.2935435707
 10
67.8490974801
 20
-5.3300279844
 10
67.9069536804
 20
-5.3662056778
 10
67.9624029011
 20
-5.401957816
 10
68.0155015354
 20
-5.4372058602
 10
68.0665438073
 20
-5.4720336071
 10
68.1154954566
 20
-5.5062976181
 10
68.1623875534
 20
-5.5399441282
 10
68.2075955872
 20
-5.573215849
 10
68.2512217947
 20
-5.6061722874
 10
68.2936544425
 20
-5.6390946017
 10
68.3357243808
 20
-5.6726386228
 10
68.3774099302
 20
-5.706886908
 10
68.4182716073
 20
-5.741367909
 10
68.4584402395
 20
-5.7758885505
 10
68.4976426584
 20
-5.8100944039
 10
68.5359786317
 20
-5.8441395274
 10
68.5741735523
 20
-5.8786771383
 10
68.6122406925
 20
-5.9136995284
 10
68.6500381603
 20
-5.9490632849
 10
68.687974266
 20
-5.9852106444
 10
68.7259598787
 20
-6.0220549518
 10
68.7641227636
 20
-6.0597748672
 10
68.8031482066
 20
-6.0992317289
 10
68.8432456318
 20
-6.1407556298
 10
68.8842744805
 20
-6.1842664932
 10
68.9263737651
 20
-6.23004935
 10
68.9694629115
 20
-6.2781510595
 10
69.0133806837
 20
-6.3285395981
 10
69.0581099736
 20
-6.381381183
 10
69.1037809633
 20
-6.4370056458
 10
69.1500352366
 20
-6.4951587805
 10
69.1961446631
 20
-6.5551088178
 10
69.2420606822
 20
-6.6169271415
 10
69.287625499
 20
-6.6805271098
 10
69.3320354994
 20
-6.7448910826
 10
69.3750906359
 20
-6.8097525965
 10
69.4169042617
 20
-6.8752895477
 10
69.4572193831
 20
-6.9411205192
 10
69.4959511362
 20
-7.0071007447
 10
69.5331527201
 20
-7.0733083519
 10
69.5687989849
 20
-7.1396938099
 10
69.6029179266
 20
-7.2062535187
 10
69.6354195055
 20
-7.2728223088
 10
69.6661058813
 20
-7.3390886503
 10
69.6945001712
 20
-7.4044023505
 10
69.7211419961
 20
-7.4694264931
 10
69.7473110675
 20
-7.535921066
 10
69.7731951837
 20
-7.6041579062
 10
69.7985837612
 20
-7.6744050642
 10
69.8239031336
 20
-7.7484270854
 10
69.8490759869
 20
-7.8266389352
 10
69.8733129617
 20
-7.9081983414
 10
69.8958150504
 20
-7.9929606705
 10
69.9161282786
 20
-8.0809786223
 10
69.9339835735
 20
-8.1717689154
 10
69.9489224637
 20
-8.2643629008
 10
69.9606557826
 20
-8.3583748693
 10
69.968963673
 20
-8.4539536611
 10
69.9735717247
 20
-8.5509164755
  0
LWPOLYLINE
  5
331
100
AcDbEntity
  8
RACCORDO
100
AcDbPolyline
 62
250
  6
CONTINUOUS
 90
10
 70
0
 10
67.387973159
 20
-43.8109259732
 10
67.4422086802
 20
-43.8675083029
 10
67.4917582359
 20
-43.935753776
 10
67.5364094436
 20
-44.0153698776
 10
67.5759709163
 20
-44.1060153563
 10
67.6102730822
 20
-44.2073016865
 10
67.6391689124
 20
-44.3187947339
 10
67.6625345503
 20
-44.440016616
 10
67.6802698428
 20
-44.5704477507
 10
67.6922987696
 20
-44.7095290831
  0
LWPOLYLINE
  5
332
100
AcDbEntity
  8
RACCORDO
100
AcDbPolyline
 62
250
  6
CONTINUOUS
 90
28
 70
0
 10
67.3879718758
 20
-43.8109279127
 10
67.3663851303
 20
-43.7867545712
 10
67.3469113882
 20
-43.7562848614
 10
67.3297210437
 20
-43.7197365955
 10
67.3147255045
 20
-43.6772920979
 10
67.302335536
 20
-43.6293356773
 10
67.2933386962
 20
-43.5764182276
 10
67.2884173838
 20
-43.5190963882
 10
67.2867718277
 20
-43.4575039679
 10
67.2870842816
 20
-43.3916580813
 10
67.2887418581
 20
-43.3218260879
 10
67.2928298484
 20
-43.2488163569
 10
67.3005388255
 20
-43.1734963288
 10
67.3121305112
 20
-43.0964783453
 10
67.326966133
 20
-43.0181204328
 10
67.3446592293
 20
-42.9388731037
 10
67.3650207588
 20
-42.8592585592
 10
67.3879676788
 20
-42.7798384584
 10
67.4133144244
 20
-42.7011473532
 10
67.4408795912
 20
-42.6237213173
 10
67.4704759546
 20
-42.548090855
 10
67.5018943974
 20
-42.4747716277
 10
67.5349145791
 20
-42.4042638134
 10
67.5693128491
 20
-42.3370507712
 10
67.6048584038
 20
-42.273594078
 10
67.6413075447
 20
-42.21432796
 10
67.6784073195
 20
-42.1596569416
 10
67.715903615
 20
-42.1099551398
  0
LINE
  5
333
100
AcDbEntity
  8
RACCORDO
100
AcDbLine
 62
250
  6
CONTINUOUS
 10
23.9693061468
 20
-25.5435467991
 11
23.9837722021
 21
-26.1250594613
  0
LINE
  5
334
100
AcDbEntity
  8
RACCORDO
100
AcDbLine
 62
7
  6
CONTINUOUS
 10
23.9952467234
 20
-25.4630811166
 11
24.0097127787
 21
-26.0445937787
  0
LWPOLYLINE
  5
335
100
AcDbEntity
  8
RACCORDO
100
AcDbPolyline
 62
250
  6
CONTINUOUS
 90
6
 70
0
 10
23.9837722021
 20
-26.1250594613
 10
23.9829108485
 20
-26.1486317279
 10
23.9791216404
 20
-26.1712698755
 10
23.972408308
 20
-26.1927162982
 10
23.9627915838
 20
-26.212748225
 10
23.955776465
 20
-26.2238051818
  0
LINE
  5
336
100
AcDbEntity
  8
0
100
AcDbLine
 62
7
  6
CONTINUOUS
 10
18.681221843
 20
-23.9196273402
 11
17.8918383399
 21
-24.794067081
  0
LWPOLYLINE
  5
337
100
AcDbEntity
  8
RACCORDO
100
AcDbPolyline
 62
250
  6
CONTINUOUS
 90
25
 70
0
 10
-91.1887429708
 20
55.8472995407
 10
-91.2930267263
 20
55.8763670453
 10
-91.3969758239
 20
55.8992722658
 10
-91.500071948
 20
55.9158981075
 10
-91.601852281
 20
55.9261809613
 10
-91.7018942299
 20
55.9301000505
 10
-91.7997716391
 20
55.927636315
 10
-91.8950949493
 20
55.9187938268
 10
-91.9874426275
 20
55.9036192333
 10
-92.0763497843
 20
55.8821816518
 10
-92.1614137205
 20
55.8545721755
 10
-92.2423272625
 20
55.8209201207
 10
-92.3187756197
 20
55.7813640191
 10
-92.3904350075
 20
55.7360541394
 10
-92.4570293094
 20
55.6851834687
 10
-92.5183125755
 20
55.6289504789
 10
-92.5740354598
 20
55.567551767
 10
-92.6239664792
 20
55.5012463728
 10
-92.6679065592
 20
55.4303423163
 10
-92.7056808506
 20
55.3551274631
 10
-92.7371480447
 20
55.2758914776
 10
-92.7622039255
 20
55.1929667732
 10
-92.7807571584
 20
55.1066760207
 10
-92.7927396779
 20
55.0173505134
 10
-92.7981420635
 20
54.925399399
  0
LINE
  5
338
100
AcDbEntity
  8
RACCORDO
100
AcDbLine
 62
250
  6
CONTINUOUS
 10
-90.6001117817
 20
55.6738494119
 11
-90.6594595687
 21
55.6904127572
  0
LINE
  5
339
100
AcDbEntity
  8
RACCORDO
100
AcDbLine
 62
250
  6
CONTINUOUS
 10
-90.6594595687
 20
55.6904127572
 11
-90.7495241378
 21
55.7160719681
  0
LINE
  5
33A
100
AcDbEntity
  8
RACCORDO
100
AcDbLine
 62
250
  6
CONTINUOUS
 10
87.3804493316
 20
2.3728418117
 11
87.0881723137
 21
2.4568571392
  0
LWPOLYLINE
  5
33B
100
AcDbEntity
  8
RACCORDO
100
AcDbPolyline
 62
250
  6
CONTINUOUS
 90
3
 70
0
 10
-90.5405144067
 20
55.6567258234
 10
-90.570367317
 20
55.6654222573
 10
-90.6001117817
 20
55.6738494119
  0
LINE
  5
33C
100
AcDbEntity
  8
RACCORDO
100
AcDbLine
 62
250
  6
CONTINUOUS
 10
-90.7495241378
 20
55.7160719681
 11
-90.8439539869
 21
55.7435018194
  0
LWPOLYLINE
  5
33D
100
AcDbEntity
  8
RACCORDO
100
AcDbPolyline
 62
250
  6
CONTINUOUS
 90
18
 70
0
 10
-90.7534670921
 20
57.0760417916
 10
-90.9132983568
 20
57.1228011323
 10
-91.0724170043
 20
57.1599954269
 10
-91.230133375
 20
57.1874633484
 10
-91.3857669162
 20
57.2050733457
 10
-91.5386392029
 20
57.2127582272
 10
-91.6880764486
 20
57.2105128057
 10
-91.8334624529
 20
57.1983405368
 10
-91.9741286037
 20
57.1762804764
 10
-92.1093586295
 20
57.144461503
 10
-92.2385327361
 20
57.1030509562
 10
-92.361148038
 20
57.0522245018
 10
-92.4767105317
 20
56.9921973619
 10
-92.5847207289
 20
56.9232365818
 10
-92.6847247098
 20
56.8456340855
 10
-92.7763332923
 20
56.7596840542
 10
-92.8591630943
 20
56.6657322372
 10
-92.9167800436
 20
56.5881068093
  0
LINE
  5
33E
100
AcDbEntity
  8
RACCORDO
100
AcDbLine
 62
250
  6
CONTINUOUS
 10
87.0881723137
 20
2.4568571392
 11
86.9141167834
 21
2.5080652989
  0
LINE
  5
33F
100
AcDbEntity
  8
RACCORDO
100
AcDbLine
 62
250
  6
CONTINUOUS
 10
-90.8439539869
 20
55.7435018194
 11
-90.9467186675
 21
55.773887896
  0
LINE
  5
340
100
AcDbEntity
  8
RACCORDO
100
AcDbLine
 62
250
  6
CONTINUOUS
 10
83.2679708842
 20
3.6050418964
 11
77.177243961
 21
5.4198857904
  0
LINE
  5
341
100
AcDbEntity
  8
RACCORDO
100
AcDbLine
 62
250
  6
CONTINUOUS
 10
-90.4804943528
 20
55.6388040319
 11
-90.5405144067
 21
55.6567258234
  0
LINE
  5
342
100
AcDbEntity
  8
RACCORDO
100
AcDbLine
 62
250
  6
CONTINUOUS
 10
77.177243961
 20
5.4198857904
 11
72.1350091676
 21
6.9332371225
  0
LINE
  5
343
100
AcDbEntity
  8
RACCORDO
100
AcDbLine
 62
250
  6
CONTINUOUS
 10
-90.9467186675
 20
55.773887896
 11
-91.0612570481
 21
55.808332263
  0
LINE
  5
344
100
AcDbEntity
  8
RACCORDO
100
AcDbLine
 62
250
  6
CONTINUOUS
 10
86.9141167834
 20
2.5080652989
 11
83.2679708842
 21
3.6050418964
  0
LINE
  5
345
100
AcDbEntity
  8
RACCORDO
100
AcDbLine
 62
250
  6
CONTINUOUS
 10
72.1350091676
 20
6.9332371225
 11
69.0179613871
 21
7.8741447492
  0
LWPOLYLINE
  5
346
100
AcDbEntity
  8
RACCORDO
100
AcDbPolyline
 62
250
  6
CONTINUOUS
 90
3
 70
0
 10
-74.5036993682
 20
50.7888933964
 10
-80.461480589
 20
52.5936906813
 10
-82.614748917
 20
53.2418418252
  0
LINE
  5
347
100
AcDbEntity
  8
RACCORDO
100
AcDbLine
 62
250
  6
CONTINUOUS
 10
69.0179613871
 20
7.8741447492
 11
66.4925571032
 21
8.6425209711
  0
LINE
  5
348
100
AcDbEntity
  8
RACCORDO
100
AcDbLine
 62
250
  6
CONTINUOUS
 10
-82.614748917
 20
53.2418418252
 11
-90.3550259711
 21
55.6002886672
  0
LINE
  5
349
100
AcDbEntity
  8
RACCORDO
100
AcDbLine
 62
250
  6
CONTINUOUS
 10
-91.0612570481
 20
55.808332263
 11
-91.1887436694
 21
55.8472988334
  0
LINE
  5
34A
100
AcDbEntity
  8
RACCORDO
100
AcDbLine
 62
250
  6
CONTINUOUS
 10
-62.3378895764
 20
48.2083434318
 11
-69.0225780308
 21
50.2568077387
  0
LWPOLYLINE
  5
34B
100
AcDbEntity
  8
RACCORDO
100
AcDbPolyline
 62
250
  6
CONTINUOUS
 90
3
 70
0
 10
-62.7292348323
 20
47.1863358429
 10
-65.4457932185
 20
48.0220873217
 10
-74.5036993682
 20
50.7888933964
  0
LINE
  5
34C
100
AcDbEntity
  8
RACCORDO
100
AcDbLine
 62
250
  6
CONTINUOUS
 10
66.4925571032
 20
8.6425209711
 11
63.0045823953
 21
9.7131346264
  0
LINE
  5
34D
100
AcDbEntity
  8
RACCORDO
100
AcDbLine
 62
250
  6
CONTINUOUS
 10
63.0045823953
 20
9.7131346264
 11
-62.3378895764
 21
48.2083434318
  0
LINE
  5
34E
100
AcDbEntity
  8
RACCORDO
100
AcDbLine
 62
250
  6
CONTINUOUS
 10
-90.3550259711
 20
55.6002886672
 11
-90.4804943528
 21
55.6388040319
  0
LINE
  5
34F
100
AcDbEntity
  8
RACCORDO
100
AcDbLine
 62
250
  6
CONTINUOUS
 10
86.2730233055
 20
1.3592527244
 11
81.2738290845
 21
2.9040687142
  0
LINE
  5
350
100
AcDbEntity
  8
RACCORDO
100
AcDbLine
 62
250
  6
CONTINUOUS
 10
-69.0225780308
 20
50.2568077387
 11
-71.7910235873
 21
51.1123730839
  0
LWPOLYLINE
  5
351
100
AcDbEntity
  8
RACCORDO
100
AcDbPolyline
 62
250
  6
CONTINUOUS
 90
4
 70
0
 10
86.9941606418
 20
1.1290554718
 10
86.790232977
 20
1.1922168503
 10
86.6942525072
 20
1.2225608308
 10
86.6025231701
 20
1.2520434915
  0
LINE
  5
352
100
AcDbEntity
  8
RACCORDO
100
AcDbLine
 62
250
  6
CONTINUOUS
 10
-71.7910235873
 20
51.1123730839
 11
-74.7888975301
 21
52.0469296959
  0
LINE
  5
353
100
AcDbEntity
  8
RACCORDO
100
AcDbLine
 62
250
  6
CONTINUOUS
 10
81.2738290845
 20
2.9040687142
 11
77.39307611
 21
4.1105673522
  0
LINE
  5
354
100
AcDbEntity
  8
RACCORDO
100
AcDbLine
 62
250
  6
CONTINUOUS
 10
77.39307611
 20
4.1105673522
 11
-62.7292348282
 21
47.1863358584
  0
LINE
  5
355
100
AcDbEntity
  8
RACCORDO
100
AcDbLine
 62
250
  6
CONTINUOUS
 10
-84.8627485833
 20
55.2207890529
 11
-90.2685754773
 21
56.9187941787
  0
LWPOLYLINE
  5
356
100
AcDbEntity
  8
RACCORDO
100
AcDbPolyline
 62
250
  6
CONTINUOUS
 90
3
 70
0
 10
-74.7888975301
 20
52.0469296959
 10
-82.0473917325
 20
54.3297312105
 10
-84.8627485833
 20
55.2207890529
  0
LINE
  5
357
100
AcDbEntity
  8
RACCORDO
100
AcDbLine
 62
250
  6
CONTINUOUS
 10
86.3498455699
 20
1.3348109113
 11
86.2730233055
 21
1.3592527244
  0
LINE
  5
358
100
AcDbEntity
  8
RACCORDO
100
AcDbLine
 62
250
  6
CONTINUOUS
 10
-90.2685754773
 20
56.9187941787
 11
-90.4180908644
 21
56.9665556938
  0
LINE
  5
359
100
AcDbEntity
  8
RACCORDO
100
AcDbLine
 62
250
  6
CONTINUOUS
 10
-90.4180908644
 20
56.9665556938
 11
-90.5906905413
 21
57.0225256613
  0
LINE
  5
35A
100
AcDbEntity
  8
RACCORDO
100
AcDbLine
 62
250
  6
CONTINUOUS
 10
86.6025231701
 20
1.2520434915
 11
86.3498455699
 21
1.3348109113
  0
LINE
  5
35B
100
AcDbEntity
  8
RACCORDO
100
AcDbLine
 62
250
  6
CONTINUOUS
 10
-90.5906905413
 20
57.0225256613
 11
-90.7534670921
 21
57.0760417916
  0
LWPOLYLINE
  5
35C
100
AcDbEntity
  8
RACCORDO
100
AcDbPolyline
 62
250
  6
CONTINUOUS
 90
6
 70
0
 10
23.9837722021
 20
-26.1250594613
 10
23.9947088214
 20
-26.1070181638
 10
24.0027284353
 20
-26.0884141159
 10
24.0077489341
 20
-26.0694377965
 10
24.0097189152
 20
-26.0502834963
 10
24.0097127787
 20
-26.0445937787
  0
LWPOLYLINE
  5
35D
100
AcDbEntity
  8
RACCORDO
100
AcDbPolyline
 62
7
  6
CONTINUOUS
 90
6
 70
0
 10
23.9693061468
 20
-25.5435467991
 10
23.9803078792
 20
-25.5254321052
 10
23.9882783406
 20
-25.507009405
 10
23.993217531
 20
-25.4882786987
 10
23.9951062571
 20
-25.4689549916
 10
23.9952459618
 20
-25.46305066
  0
LINE
  5
35E
100
AcDbEntity
  8
0
100
AcDbLine
 62
7
  6
CONTINUOUS
 10
23.9693061468
 20
-25.5435467991
 11
23.3270394058
 21
-26.4631646723
  0
LINE
  5
35F
100
AcDbEntity
  8
RACCORDO
100
AcDbLine
 62
250
  6
CONTINUOUS
 10
23.6733606427
 20
-26.569516569
 11
23.9837722021
 21
-26.1250594613
  0
LINE
  5
360
100
AcDbEntity
  8
RACCORDO
100
AcDbLine
 62
250
  6
CONTINUOUS
 10
23.955776465
 20
-26.2238051818
 11
23.9557591697
 21
-26.2238299512
  0
LINE
  5
361
100
AcDbEntity
  8
RACCORDO
100
AcDbLine
 62
7
  6
CONTINUOUS
 10
23.7070944975
 20
-26.579875909
 11
23.9557591697
 21
-26.2238299512
  0
LWPOLYLINE
  5
362
100
AcDbEntity
  8
0
100
AcDbPolyline
 62
7
  6
CONTINUOUS
 90
20
 70
0
 10
-88.7758578747
 20
59.7370917764
 10
-88.9319868341
 20
59.781022634
 10
-89.0863569548
 20
59.8167388769
 10
-89.2389682366
 20
59.8442405052
 10
-89.3903240279
 20
59.8635648999
 10
-89.5399209804
 20
59.87467468
 10
-89.6862490495
 20
59.8774577023
 10
-89.8292751275
 20
59.8718296321
 10
-89.9690323221
 20
59.8578748042
 10
-90.1041099121
 20
59.8357340798
 10
-90.2344605018
 20
59.8053245508
 10
-90.3601314869
 20
59.7667291253
 10
-90.4798543336
 20
59.7203373889
 10
-90.5935687983
 20
59.6660703793
 10
-90.7013351246
 20
59.6040070587
 10
-90.8020655099
 20
59.5347738997
 10
-90.8956886931
 20
59.458298285
 10
-90.9822759353
 20
59.3746528319
 10
-91.0609532174
 20
59.2846818649
 10
-91.1233684865
 20
59.2006016188
  0
LINE
  5
363
100
AcDbEntity
  8
0
100
AcDbLine
 62
7
  6
CONTINUOUS
 10
89.358058549
 20
5.0338917964
 11
-88.7758578747
 21
59.7370917764
  0
LWPOLYLINE
  5
364
100
AcDbEntity
  8
0
100
AcDbPolyline
 62
7
  6
CONTINUOUS
 90
28
 70
0
 10
89.358058549
 20
5.0338917964
 10
89.5143887969
 20
4.9818694585
 10
89.6693449759
 20
4.9225945916
 10
89.822927086
 20
4.8560671956
 10
89.975644351
 20
4.7820137006
 10
90.1269875471
 20
4.7007076765
 10
90.2754290029
 20
4.6129698334
 10
90.4209393292
 20
4.5187350288
 10
90.5635479154
 20
4.4180684052
 10
90.7018152579
 20
4.3119861002
 10
90.8356973879
 20
4.2004332628
 10
90.9652382743
 20
4.0834647441
 10
91.0891303203
 20
3.9622612342
 10
91.2073163133
 20
3.8367798407
 10
91.3198534657
 20
3.7070634561
 10
91.4256058179
 20
3.5744214488
 10
91.5245046523
 20
3.4388241877
 10
91.6166186864
 20
3.3003013039
 10
91.7010181132
 20
3.1602510594
 10
91.7776247979
 20
3.0186579849
 10
91.8465168752
 20
2.8755375496
 10
91.9069989427
 20
2.7323344238
 10
91.9589858224
 20
2.5890477697
 10
92.0025626922
 20
2.445678425
 10
92.0372896834
 20
2.3036735723
 10
92.0630201731
 20
2.1635156058
 10
92.0799007842
 20
2.0247221313
 10
92.0879315167
 20
1.8872931488
  0
LINE
  5
365
100
AcDbEntity
  8
0
100
AcDbLine
 62
7
  6
CONTINUOUS
 10
70.4095705322
 20
-47.5928371422
 11
70.2540384495
 21
-47.3665949357
  0
LINE
  5
366
100
AcDbEntity
  8
0
100
AcDbLine
 62
7
  6
CONTINUOUS
 10
70.2411923278
 20
-47.3852642083
 11
70.3957661718
 21
-47.6101359329
  0
LINE
  5
367
100
AcDbEntity
  8
0
100
AcDbLine
 62
7
  6
CONTINUOUS
 10
70.0908823622
 20
-47.1643023767
 11
70.2411923278
 21
-47.3852642083
  0
LINE
  5
368
100
AcDbEntity
  8
0
100
AcDbLine
 62
7
  6
CONTINUOUS
 10
70.2540384495
 20
-47.3665949357
 11
70.1033212067
 21
-47.1450556828
  0
LINE
  5
369
100
AcDbEntity
  8
0
100
AcDbLine
 62
7
  6
CONTINUOUS
 10
69.7997867288
 20
-47.4491221188
 11
69.6555189505
 21
-47.236732354
  0
LINE
  5
36A
100
AcDbEntity
  8
0
100
AcDbLine
 62
7
  6
CONTINUOUS
 10
69.9448340312
 20
-46.947290548
 11
70.0908823622
 21
-47.1643023767
  0
LINE
  5
36B
100
AcDbEntity
  8
0
100
AcDbLine
 62
7
  6
CONTINUOUS
 10
70.1033212067
 20
-47.1450556828
 11
69.9574096388
 21
-46.9282585579
  0
LINE
  5
36C
100
AcDbEntity
  8
0
100
AcDbLine
 62
7
  6
CONTINUOUS
 10
69.6555189505
 20
-47.236732354
 11
69.515043332
 21
-47.0278064014
  0
LWPOLYLINE
  5
36D
100
AcDbEntity
  8
0
100
AcDbPolyline
 62
7
  6
CONTINUOUS
 90
3
 70
0
 10
69.9574096388
 20
-46.9282585579
 10
69.8162670854
 20
-46.7163602579
 10
69.7574255805
 20
-46.6272844442
  0
LINE
  5
36E
100
AcDbEntity
  8
0
100
AcDbLine
 62
7
  6
CONTINUOUS
 10
69.515043332
 20
-47.0278064014
 11
69.3783527677
 21
-46.8223803597
  0
LWPOLYLINE
  5
36F
100
AcDbEntity
  8
0
100
AcDbPolyline
 62
7
  6
CONTINUOUS
 90
3
 70
0
 10
69.7337358303
 20
-46.6294698578
 10
69.8030383586
 20
-46.7343891622
 10
69.9448340312
 20
-46.947290548
  0
LWPOLYLINE
  5
370
100
AcDbEntity
  8
0
100
AcDbPolyline
 62
7
  6
CONTINUOUS
 90
3
 70
0
 10
69.3783527677
 20
-46.8223803597
 10
69.245418836
 20
-46.6205986231
 10
69.1803623837
 20
-46.5210653446
  0
LWPOLYLINE
  5
371
100
AcDbEntity
  8
0
100
AcDbPolyline
 62
7
  6
CONTINUOUS
 90
10
 70
0
 10
60.1552098601
 20
-44.5575727199
 10
60.0318840472
 20
-44.2881515875
 10
59.9111817217
 20
-44.0211397565
 10
59.7931028836
 20
-43.7565372267
 10
59.6777044
 20
-43.4943492459
 10
59.5649294038
 20
-43.2345705663
 10
59.4546072939
 20
-42.9771854452
 10
59.3466812033
 20
-42.7221886347
 10
59.2412079991
 20
-42.4695853827
 10
59.1381876812
 20
-42.219375689
  0
LINE
  5
372
100
AcDbEntity
  8
0
100
AcDbLine
 62
7
  6
CONTINUOUS
 10
60.1872849104
 20
-43.6370532383
 11
60.3466786235
 21
-43.9985134086
  0
LWPOLYLINE
  5
373
100
AcDbEntity
  8
0
100
AcDbPolyline
 62
7
  6
CONTINUOUS
 90
3
 70
0
 10
60.3560486282
 20
-43.9715275274
 10
60.1989780701
 20
-43.6152735026
 10
60.1199132579
 20
-43.4335254194
  0
LINE
  5
374
100
AcDbEntity
  8
0
100
AcDbLine
 62
7
  6
CONTINUOUS
 10
60.0311039207
 20
-43.2763882961
 11
60.1872849104
 21
-43.6370532383
  0
LWPOLYLINE
  5
375
100
AcDbEntity
  8
RACCORDO
100
AcDbPolyline
 62
250
  6
CONTINUOUS
 90
6
 70
0
 10
59.9100368478
 20
-50.6394488579
 10
59.9287309959
 20
-50.6885960322
 10
59.9513060298
 20
-50.7296133301
 10
59.9775447908
 20
-50.762105998
 10
60.0071950553
 20
-50.7857613927
 10
60.0380766371
 20
-50.799782739
  0
LWPOLYLINE
  5
376
100
AcDbEntity
  8
RACCORDO
100
AcDbPolyline
 62
7
  6
CONTINUOUS
 90
12
 70
0
 10
44.0353115595
 20
-31.6171606577
 10
44.0340293098
 20
-31.6034332761
 10
44.0299130735
 20
-31.5843485403
 10
44.0227671993
 20
-31.5659869886
 10
44.0126476338
 20
-31.5481724144
 10
43.9997797963
 20
-31.5312311809
 10
43.9840029831
 20
-31.5150755356
 10
43.9654778979
 20
-31.499793231
 10
43.9449120703
 20
-31.4859738877
 10
43.9225413434
 20
-31.473814046
 10
43.898129874
 20
-31.4631171657
 10
43.8716776621
 20
-31.4538832468
  0
LINE
  5
377
100
AcDbEntity
  8
RACCORDO
100
AcDbLine
 62
250
  6
CONTINUOUS
 10
44.0093717444
 20
-31.6976567969
 11
44.0238377998
 21
-32.279169459
  0
LINE
  5
378
100
AcDbEntity
  8
RACCORDO
100
AcDbLine
 62
7
  6
CONTINUOUS
 10
44.035312321
 20
-31.6171911143
 11
44.0497783764
 21
-32.1987037765
  0
LINE
  5
379
100
AcDbEntity
  8
RACCORDO
100
AcDbLine
 62
250
  6
CONTINUOUS
 10
44.0497783764
 20
-32.1987037765
 11
44.0497897126
 21
-32.2041538882
  0
LWPOLYLINE
  5
37A
100
AcDbEntity
  8
RACCORDO
100
AcDbPolyline
 62
250
  6
CONTINUOUS
 90
6
 70
0
 10
44.0238377998
 20
-32.279169459
 10
44.0229343319
 20
-32.3031565105
 10
44.0190202813
 20
-32.326074888
 10
44.0121385482
 20
-32.3476718084
 10
44.0023632378
 20
-32.3677116375
 10
43.9958305471
 20
-32.3779316728
  0
LINE
  5
37B
100
AcDbEntity
  8
0
100
AcDbLine
 62
7
  6
CONTINUOUS
 10
67.840960557
 20
-46.7078846979
 11
67.9425769956
 21
-46.9217733366
  0
LINE
  5
37C
100
AcDbEntity
  8
0
100
AcDbLine
 62
7
  6
CONTINUOUS
 10
67.9563429025
 20
-46.9045227336
 11
67.8216222756
 21
-46.6204261323
  0
LINE
  5
37D
100
AcDbEntity
  8
0
100
AcDbLine
 62
7
  6
CONTINUOUS
 10
67.4214817642
 20
-46.7687351027
 11
67.3150406874
 21
-46.5430974499
  0
LINE
  5
37E
100
AcDbEntity
  8
0
100
AcDbLine
 62
7
  6
CONTINUOUS
 10
67.7398050813
 20
-46.4923047438
 11
67.840960557
 21
-46.7078846979
  0
LINE
  5
37F
100
AcDbEntity
  8
0
100
AcDbLine
 62
7
  6
CONTINUOUS
 10
67.8216222756
 20
-46.6204261323
 11
67.6884736339
 21
-46.3349939012
  0
LINE
  5
380
100
AcDbEntity
  8
0
100
AcDbLine
 62
7
  6
CONTINUOUS
 10
67.3150406874
 20
-46.5430974499
 11
67.2116844853
 21
-46.3211981157
  0
LINE
  5
381
100
AcDbEntity
  8
0
100
AcDbLine
 62
7
  6
CONTINUOUS
 10
67.6390937726
 20
-46.2749887028
 11
67.7398050813
 21
-46.4923047438
  0
LINE
  5
382
100
AcDbEntity
  8
0
100
AcDbLine
 62
7
  6
CONTINUOUS
 10
67.6884736339
 20
-46.3349939012
 11
67.556855472
 21
-46.0481771447
  0
LINE
  5
383
100
AcDbEntity
  8
0
100
AcDbLine
 62
7
  6
CONTINUOUS
 10
67.5387648179
 20
-46.0557851628
 11
67.6390937726
 21
-46.2749887028
  0
LINE
  5
384
100
AcDbEntity
  8
0
100
AcDbLine
 62
7
  6
CONTINUOUS
 10
67.4387858895
 20
-45.8345460115
 11
67.5387648179
 21
-46.0557851628
  0
LINE
  5
385
100
AcDbEntity
  8
0
100
AcDbLine
 62
7
  6
CONTINUOUS
 10
67.556855472
 20
-46.0481771447
 11
67.4267731653
 21
-45.7599816537
  0
LINE
  5
386
100
AcDbEntity
  8
0
100
AcDbLine
 62
7
  6
CONTINUOUS
 10
67.0121455117
 20
-45.8848254538
 11
66.9082322961
 21
-45.6532242923
  0
LINE
  5
387
100
AcDbEntity
  8
0
100
AcDbLine
 62
7
  6
CONTINUOUS
 10
67.3391828535
 20
-45.6112654635
 11
67.4387858895
 21
-45.8345460115
  0
LINE
  5
388
100
AcDbEntity
  8
0
100
AcDbLine
 62
7
  6
CONTINUOUS
 10
67.4267731653
 20
-45.7599816537
 11
67.2981561151
 21
-45.4701352124
  0
LINE
  5
389
100
AcDbEntity
  8
0
100
AcDbLine
 62
7
  6
CONTINUOUS
 10
66.9082322961
 20
-45.6532242923
 11
66.8047137549
 21
-45.4193734432
  0
LINE
  5
38A
100
AcDbEntity
  8
0
100
AcDbLine
 62
7
  6
CONTINUOUS
 10
67.2399053808
 20
-45.3857037234
 11
67.3391828535
 21
-45.6112654635
  0
LINE
  5
38B
100
AcDbEntity
  8
0
100
AcDbLine
 62
7
  6
CONTINUOUS
 10
67.2981561151
 20
-45.4701352124
 11
67.2132704019
 21
-45.2760194075
  0
LINE
  5
38C
100
AcDbEntity
  8
0
100
AcDbLine
 62
7
  6
CONTINUOUS
 10
66.8047137549
 20
-45.4193734432
 11
66.7016444628
 21
-45.183277542
  0
LINE
  5
38D
100
AcDbEntity
  8
0
100
AcDbLine
 62
7
  6
CONTINUOUS
 10
67.1419530772
 20
-45.1599642407
 11
67.2399053808
 21
-45.3857037234
  0
LINE
  5
38E
100
AcDbEntity
  8
0
100
AcDbLine
 62
7
  6
CONTINUOUS
 10
67.2132704019
 20
-45.2760194075
 11
67.1290553239
 21
-45.0809945005
  0
LINE
  5
38F
100
AcDbEntity
  8
0
100
AcDbLine
 62
7
  6
CONTINUOUS
 10
60.1199132579
 20
-43.4335254194
 11
59.9650830002
 21
-43.07257754
  0
LINE
  5
390
100
AcDbEntity
  8
0
100
AcDbLine
 62
7
  6
CONTINUOUS
 10
67.045938866
 20
-44.9353978188
 11
67.1419530772
 21
-45.1599642407
  0
LINE
  5
391
100
AcDbEntity
  8
0
100
AcDbLine
 62
7
  6
CONTINUOUS
 10
67.1290553239
 20
-45.0809945005
 11
67.0455062479
 21
-44.8849604713
  0
LINE
  5
392
100
AcDbEntity
  8
0
100
AcDbLine
 62
7
  6
CONTINUOUS
 10
63.8850631414
 20
-45.7010014453
 11
63.7385502502
 21
-45.356591508
  0
LINE
  5
393
100
AcDbEntity
  8
0
100
AcDbLine
 62
7
  6
CONTINUOUS
 10
59.8781280373
 20
-42.9165226719
 11
60.0311039207
 21
-43.2763882961
  0
LINE
  5
394
100
AcDbEntity
  8
0
100
AcDbLine
 62
7
  6
CONTINUOUS
 10
59.9650830002
 20
-43.07257754
 11
59.81454669
 21
-42.7151073098
  0
LWPOLYLINE
  5
395
100
AcDbEntity
  8
0
100
AcDbPolyline
 62
7
  6
CONTINUOUS
 90
3
 70
0
 10
67.0455062479
 20
-44.8849604713
 10
66.9626233136
 20
-44.6877592531
 10
66.9214317307
 20
-44.5887319908
  0
LINE
  5
396
100
AcDbEntity
  8
0
100
AcDbLine
 62
7
  6
CONTINUOUS
 10
63.7385502502
 20
-45.356591508
 11
63.5975298333
 21
-45.0192140763
  0
LWPOLYLINE
  5
397
100
AcDbEntity
  8
0
100
AcDbPolyline
 62
7
  6
CONTINUOUS
 90
3
 70
0
 10
66.9077661881
 20
-44.6058568235
 10
66.9530879127
 20
-44.7148301352
 10
67.045938866
 20
-44.9353978188
  0
LWPOLYLINE
  5
398
100
AcDbEntity
  8
0
100
AcDbPolyline
 62
7
  6
CONTINUOUS
 90
3
 70
0
 10
59.6546185607
 20
-42.3782526108
 10
59.7283267907
 20
-42.5574727265
 10
59.8781280373
 20
-42.9165226719
  0
LINE
  5
399
100
AcDbEntity
  8
0
100
AcDbLine
 62
7
  6
CONTINUOUS
 10
59.81454669
 20
-42.7151073098
 11
59.6682794095
 21
-42.3611336602
  0
LINE
  5
39A
100
AcDbEntity
  8
0
100
AcDbLine
 62
7
  6
CONTINUOUS
 10
63.5975298333
 20
-45.0192140763
 11
63.4614057283
 21
-44.6874983875
  0
LINE
  5
39B
100
AcDbEntity
  8
0
100
AcDbLine
 62
7
  6
CONTINUOUS
 10
64.076850148
 20
-45.0363253883
 11
63.9487384702
 21
-44.7227744086
  0
LINE
  5
39C
100
AcDbEntity
  8
0
100
AcDbLine
 62
7
  6
CONTINUOUS
 10
63.9340043845
 20
-44.7373754409
 11
64.0681980116
 21
-45.0658315355
  0
LWPOLYLINE
  5
39D
100
AcDbEntity
  8
0
100
AcDbPolyline
 62
7
  6
CONTINUOUS
 90
3
 70
0
 10
63.4614057283
 20
-44.6874983875
 10
63.3277932862
 20
-44.3559613902
 10
63.2620779793
 20
-44.1906025916
  0
LINE
  5
39E
100
AcDbEntity
  8
0
100
AcDbLine
 62
7
  6
CONTINUOUS
 10
63.9487384702
 20
-44.7227744086
 11
63.8157082965
 21
-44.3910437816
  0
LINE
  5
39F
100
AcDbEntity
  8
0
100
AcDbLine
 62
7
  6
CONTINUOUS
 10
63.8005513946
 20
-44.4045022603
 11
63.9340043845
 21
-44.7373754409
  0
LINE
  5
3A0
100
AcDbEntity
  8
0
100
AcDbLine
 62
7
  6
CONTINUOUS
 10
63.8157082965
 20
-44.3910437816
 11
63.6828663574
 21
-44.0533558014
  0
LINE
  5
3A1
100
AcDbEntity
  8
0
100
AcDbLine
 62
7
  6
CONTINUOUS
 10
63.667879805
 20
-44.0671302885
 11
63.8005513946
 21
-44.4045022603
  0
LWPOLYLINE
  5
3A2
100
AcDbEntity
  8
0
100
AcDbPolyline
 62
7
  6
CONTINUOUS
 90
3
 70
0
 10
63.6828663574
 20
-44.0533558014
 10
63.5503989106
 20
-43.7093087723
 10
63.4842939808
 20
-43.5349257205
  0
LWPOLYLINE
  5
3A3
100
AcDbEntity
  8
0
100
AcDbPolyline
 62
7
  6
CONTINUOUS
 90
3
 70
0
 10
63.4706330803
 20
-43.5520447359
 10
63.536152669
 20
-43.7249327054
 10
63.667879805
 20
-44.0671302885
  0
LWPOLYLINE
  5
3A4
100
AcDbEntity
  8
RACCORDO
100
AcDbPolyline
 62
250
  6
CONTINUOUS
 90
5
 70
0
 10
44.0497897126
 20
-32.2041538882
 10
44.0478465197
 20
-32.2233726034
 10
44.042833514
 20
-32.2424101675
 10
44.0348028489
 20
-32.2610731745
 10
44.0238377998
 20
-32.279169459
  0
LINE
  5
3A5
100
AcDbEntity
  8
0
100
AcDbLine
 62
7
  6
CONTINUOUS
 10
38.7212874407
 20
-30.0737373379
 11
37.9319039376
 21
-30.9481770787
  0
LWPOLYLINE
  5
3A6
100
AcDbEntity
  8
0
100
AcDbPolyline
 62
7
  6
CONTINUOUS
 90
9
 70
0
 10
-73.3002425612
 20
35.5323491754
 10
-73.3047426204
 20
35.5316530493
 10
-73.3043479224
 20
35.5316521711
 10
-73.2989408338
 20
35.5316873136
 10
-73.288788369
 20
35.5311410969
 10
-73.2744885935
 20
35.5295270744
 10
-73.2564944725
 20
35.5264701512
 10
-73.2350923214
 20
35.5216413938
 10
-73.2112389973
 20
35.5149585439
  0
LWPOLYLINE
  5
3A7
100
AcDbEntity
  8
0
100
AcDbPolyline
 62
7
  6
CONTINUOUS
 90
3
 70
0
 10
65.3656044315
 20
-45.7717828644
 10
65.3799041322
 20
-45.9048040549
 10
65.4090139038
 20
-46.1653719771
  0
LINE
  5
3A8
100
AcDbEntity
  8
0
100
AcDbLine
 62
7
  6
CONTINUOUS
 10
65.3993610051
 20
-45.9396525862
 11
65.3766924517
 21
-45.7296770948
  0
LINE
  5
3A9
100
AcDbEntity
  8
0
100
AcDbLine
 62
7
  6
CONTINUOUS
 10
64.8735172206
 20
-45.8485210424
 11
64.8400221188
 21
-45.5364077333
  0
LINE
  5
3AA
100
AcDbEntity
  8
0
100
AcDbLine
 62
7
  6
CONTINUOUS
 10
62.3668277911
 20
-45.1322197849
 11
62.3392774938
 21
-44.8755584997
  0
LINE
  5
3AB
100
AcDbEntity
  8
0
100
AcDbLine
 62
7
  6
CONTINUOUS
 10
62.8649842787
 20
-45.2631763105
 11
62.8367310274
 21
-44.9978444217
  0
LINE
  5
3AC
100
AcDbEntity
  8
0
100
AcDbLine
 62
7
  6
CONTINUOUS
 10
62.3198671779
 20
-44.8382045578
 11
62.348130591
 21
-45.1042789805
  0
LINE
  5
3AD
100
AcDbEntity
  8
0
100
AcDbLine
 62
7
  6
CONTINUOUS
 10
61.831370309
 20
-44.9457864806
 11
61.8031456592
 21
-44.6796158204
  0
LINE
  5
3AE
100
AcDbEntity
  8
0
100
AcDbLine
 62
7
  6
CONTINUOUS
 10
63.3459120684
 20
-45.0827000029
 11
63.3788534176
 21
-45.3935806141
  0
LINE
  5
3AF
100
AcDbEntity
  8
0
100
AcDbLine
 62
7
  6
CONTINUOUS
 10
63.3925929009
 20
-45.3764029584
 11
63.3596456902
 21
-45.0656217587
  0
LINE
  5
3B0
100
AcDbEntity
  8
0
100
AcDbLine
 62
7
  6
CONTINUOUS
 10
62.3392774938
 20
-44.8755584997
 11
62.3129592626
 21
-44.6181690962
  0
LINE
  5
3B1
100
AcDbEntity
  8
0
100
AcDbLine
 62
7
  6
CONTINUOUS
 10
62.8367310274
 20
-44.9978444217
 11
62.8091067427
 21
-44.7250415691
  0
LINE
  5
3B2
100
AcDbEntity
  8
0
100
AcDbLine
 62
7
  6
CONTINUOUS
 10
62.2922965449
 20
-44.5651634379
 11
62.3198671779
 21
-44.8382045578
  0
LINE
  5
3B3
100
AcDbEntity
  8
0
100
AcDbLine
 62
7
  6
CONTINUOUS
 10
61.8031456592
 20
-44.6796158204
 11
61.7756264466
 21
-44.4065212348
  0
LWPOLYLINE
  5
3B4
100
AcDbEntity
  8
0
100
AcDbPolyline
 62
7
  6
CONTINUOUS
 90
3
 70
0
 10
64.8400221188
 20
-45.5364077333
 10
64.80947669
 20
-45.2340866006
 10
64.7951558118
 20
-45.0856613586
  0
LINE
  5
3B5
100
AcDbEntity
  8
0
100
AcDbLine
 62
7
  6
CONTINUOUS
 10
63.3155311327
 20
-44.7782482965
 11
63.3459120684
 21
-45.0827000029
  0
LINE
  5
3B6
100
AcDbEntity
  8
0
100
AcDbLine
 62
7
  6
CONTINUOUS
 10
63.3596456902
 20
-45.0656217587
 11
63.3292635177
 21
-44.7613177725
  0
LINE
  5
3B7
100
AcDbEntity
  8
0
100
AcDbLine
 62
7
  6
CONTINUOUS
 10
62.3129592626
 20
-44.6181690962
 11
62.2878627085
 21
-44.359858164
  0
LINE
  5
3B8
100
AcDbEntity
  8
0
100
AcDbLine
 62
7
  6
CONTINUOUS
 10
62.8091067427
 20
-44.7250415691
 11
62.7824792706
 21
-44.4470971972
  0
LINE
  5
3B9
100
AcDbEntity
  8
0
100
AcDbLine
 62
7
  6
CONTINUOUS
 10
62.2657562957
 20
-44.2872872771
 11
62.2922965449
 21
-44.5651634379
  0
LINE
  5
3BA
100
AcDbEntity
  8
0
100
AcDbLine
 62
7
  6
CONTINUOUS
 10
61.7756264466
 20
-44.4065212348
 11
61.7491452204
 21
-44.1286090106
  0
LINE
  5
3BB
100
AcDbEntity
  8
0
100
AcDbLine
 62
7
  6
CONTINUOUS
 10
63.2875959882
 20
-44.4808319544
 11
63.3155311327
 21
-44.7782482965
  0
LINE
  5
3BC
100
AcDbEntity
  8
0
100
AcDbLine
 62
7
  6
CONTINUOUS
 10
63.3292635177
 20
-44.7613177725
 11
63.301313954
 21
-44.4638943204
  0
LINE
  5
3BD
100
AcDbEntity
  8
0
100
AcDbLine
 62
7
  6
CONTINUOUS
 10
62.2878627085
 20
-44.359858164
 11
62.2639853284
 21
-44.1004166984
  0
LINE
  5
3BE
100
AcDbEntity
  8
0
100
AcDbLine
 62
7
  6
CONTINUOUS
 10
62.7824792706
 20
-44.4470971972
 11
62.757024119
 21
-44.1651799874
  0
LINE
  5
3BF
100
AcDbEntity
  8
0
100
AcDbLine
 62
7
  6
CONTINUOUS
 10
62.2404057447
 20
-44.0056451156
 11
62.2657562957
 21
-44.2872872771
  0
LINE
  5
3C0
100
AcDbEntity
  8
0
100
AcDbLine
 62
7
  6
CONTINUOUS
 10
61.7491452204
 20
-44.1286090106
 11
61.7238566447
 21
-43.8469384473
  0
LINE
  5
3C1
100
AcDbEntity
  8
0
100
AcDbLine
 62
7
  6
CONTINUOUS
 10
63.301313954
 20
-44.4638943204
 11
63.2814602987
 21
-44.2393741366
  0
LINE
  5
3C2
100
AcDbEntity
  8
0
100
AcDbLine
 62
7
  6
CONTINUOUS
 10
63.2620779793
 20
-44.1906025916
 11
63.2875959882
 21
-44.4808319544
  0
LINE
  5
3C3
100
AcDbEntity
  8
0
100
AcDbLine
 62
7
  6
CONTINUOUS
 10
62.2639853284
 20
-44.1004166984
 11
62.2413231523
 21
-43.8395954765
  0
LINE
  5
3C4
100
AcDbEntity
  8
0
100
AcDbLine
 62
7
  6
CONTINUOUS
 10
62.757024119
 20
-44.1651799874
 11
62.7329644269
 21
-43.8808255957
  0
LINE
  5
3C5
100
AcDbEntity
  8
0
100
AcDbLine
 62
7
  6
CONTINUOUS
 10
62.2164437953
 20
-43.7216392849
 11
62.2404057447
 21
-44.0056451156
  0
LINE
  5
3C6
100
AcDbEntity
  8
0
100
AcDbLine
 62
7
  6
CONTINUOUS
 10
61.7238566447
 20
-43.8469384473
 11
61.6999500899
 21
-43.5629051212
  0
LINE
  5
3C7
100
AcDbEntity
  8
0
100
AcDbLine
 62
7
  6
CONTINUOUS
 10
62.2413231523
 20
-43.8395954765
 11
62.2199201286
 21
-43.5773134077
  0
LINE
  5
3C8
100
AcDbEntity
  8
0
100
AcDbLine
 62
7
  6
CONTINUOUS
 10
62.7329644269
 20
-43.8808255957
 11
62.7105640502
 21
-43.5961935909
  0
LINE
  5
3C9
100
AcDbEntity
  8
0
100
AcDbLine
 62
7
  6
CONTINUOUS
 10
61.6999500899
 20
-43.5629051212
 11
61.6776526348
 21
-43.278474611
  0
LINE
  5
3CA
100
AcDbEntity
  8
0
100
AcDbLine
 62
7
  6
CONTINUOUS
 10
62.1941102248
 20
-43.4372548194
 11
62.2164437953
 21
-43.7216392849
  0
LINE
  5
3CB
100
AcDbEntity
  8
0
100
AcDbLine
 62
7
  6
CONTINUOUS
 10
62.2199201286
 20
-43.5773134077
 11
62.199814194
 21
-43.3131746093
  0
LWPOLYLINE
  5
3CC
100
AcDbEntity
  8
RACCORDO
100
AcDbPolyline
 62
250
  6
CONTINUOUS
 90
13
 70
0
 10
58.3990200288
 20
-41.8701212876
 10
58.4469793748
 20
-42.5193093478
 10
58.5051742033
 20
-43.1919642477
 10
58.5775543612
 20
-43.9115114326
 10
58.6654956637
 20
-44.6683720038
 10
58.7685374009
 20
-45.4394883122
 10
58.8858266259
 20
-46.2088232099
 10
59.015260203
 20
-46.9603465822
 10
59.1575055675
 20
-47.6962394325
 10
59.3163567049
 20
-48.4317965838
 10
59.4943884187
 20
-49.1711895708
 10
59.6919729911
 20
-49.9081697424
 10
59.9100368451
 20
-50.6394488495
  0
LINE
  5
3CD
100
AcDbEntity
  8
0
100
AcDbLine
 62
7
  6
CONTINUOUS
 10
62.1734765027
 20
-43.1530704587
 11
62.1941102248
 21
-43.4372548194
  0
LINE
  5
3CE
100
AcDbEntity
  8
0
100
AcDbLine
 62
7
  6
CONTINUOUS
 10
62.7105640502
 20
-43.5961935909
 11
62.6899018062
 21
-43.3119140683
  0
LINE
  5
3CF
100
AcDbEntity
  8
0
100
AcDbLine
 62
7
  6
CONTINUOUS
 10
61.6776526348
 20
-43.278474611
 11
61.6570320532
 21
-42.9942202695
  0
LINE
  5
3D0
100
AcDbEntity
  8
0
100
AcDbLine
 62
7
  6
CONTINUOUS
 10
62.199814194
 20
-43.3131746093
 11
62.1871373288
 21
-43.1359515365
  0
LWPOLYLINE
  5
3D1
100
AcDbEntity
  8
RACCORDO
100
AcDbPolyline
 62
250
  6
CONTINUOUS
 90
13
 70
0
 10
57.4052838862
 20
-1.9234919364
 10
57.4190207765
 20
-1.1969886873
 10
57.4412420638
 20
-0.4235597275
 10
57.4745285335
 20
0.4284042014
 10
57.5206349978
 20
1.3532472566
 10
57.5802411184
 20
2.328186062
 10
57.6533192753
 20
3.3360797008
 10
57.7386669603
 20
4.3567559827
 10
57.836805985
 20
5.3938857799
 10
57.9505627538
 20
6.4710584955
 10
58.0821549538
 20
7.5984507644
 10
58.2322338255
 20
8.7710971654
 10
58.4018283378
 20
9.9881598579
  0
LWPOLYLINE
  5
3D2
100
AcDbEntity
  8
RACCORDO
100
AcDbPolyline
 62
250
  6
CONTINUOUS
 90
13
 70
0
 10
58.4018283399
 20
9.9881598721
 10
58.4170105525
 20
10.0797414319
 10
58.436229482
 20
10.1731119743
 10
58.4593001459
 20
10.267372806
 10
58.4860004886
 20
10.3616166646
 10
58.5160735188
 20
10.4549364513
 10
58.5492297829
 20
10.5464339612
 10
58.5851501514
 20
10.635228529
 10
58.6234888899
 20
10.7204655054
 10
58.6638769873
 20
10.8013244826
 10
58.7059257075
 20
10.8770271916
 10
58.7492303306
 20
10.9468449923
 10
58.7933740489
 20
11.010105887
  0
LWPOLYLINE
  5
3D3
100
AcDbEntity
  8
RACCORDO
100
AcDbPolyline
 62
250
  6
CONTINUOUS
 90
17
 70
0
 10
57.1512601483
 20
-3.5568336209
 10
57.128281741
 20
-3.6463217972
 10
57.1087043414
 20
-3.7352840842
 10
57.0926974496
 20
-3.8229502407
 10
57.080399653
 20
-3.9085612427
 10
57.071917423
 20
-3.9913758726
 10
57.0673241963
 20
-4.0706771344
 10
57.0666597415
 20
-4.1457784385
 10
57.0699298119
 20
-4.2160295476
 10
57.077106095
 20
-4.2808222237
 10
57.0881264581
 20
-4.3395954881
 10
57.1028954864
 20
-4.3918404783
 10
57.1212853086
 20
-4.4371048542
 10
57.1431367047
 20
-4.4749967143
 10
57.168260484
 20
-4.5051879886
 10
57.1964391234
 20
-4.5274172794
 10
57.2275347081
 20
-4.5415247421
  0
LWPOLYLINE
  5
3D4
100
AcDbEntity
  8
RACCORDO
100
AcDbPolyline
 62
250
  6
CONTINUOUS
 90
10
 70
0
 10
57.1512601483
 20
-3.5568336209
 10
57.2013235977
 20
-3.3658628858
 10
57.2463036849
 20
-3.1753494823
 10
57.2860034443
 20
-2.986127907
 10
57.320249028
 20
-2.7990269425
 10
57.3488904391
 20
-2.6148661809
 10
57.3718022035
 20
-2.4344524247
 10
57.3888839518
 20
-2.2585759488
 10
57.4000608429
 20
-2.0880070482
 10
57.405283874
 20
-1.9234928115
  0
LWPOLYLINE
  5
3D5
100
AcDbEntity
  8
RACCORDO
100
AcDbPolyline
 62
7
  6
CONTINUOUS
 90
6
 70
0
 10
44.0093717444
 20
-31.6976567969
 10
44.0203734769
 20
-31.6795421029
 10
44.0283439383
 20
-31.6611194028
 10
44.0332831286
 20
-31.6423886964
 10
44.0351718547
 20
-31.6230649894
 10
44.0353115595
 20
-31.6171606577
  0
LINE
  5
3D6
100
AcDbEntity
  8
0
100
AcDbLine
 62
7
  6
CONTINUOUS
 10
44.0093717444
 20
-31.6976567969
 11
43.3671050034
 21
-32.61727467
  0
LINE
  5
3D7
100
AcDbEntity
  8
RACCORDO
100
AcDbLine
 62
250
  6
CONTINUOUS
 10
43.7134262403
 20
-32.7236265667
 11
44.0238377998
 21
-32.279169459
  0
LINE
  5
3D8
100
AcDbEntity
  8
RACCORDO
100
AcDbLine
 62
7
  6
CONTINUOUS
 10
43.7471600952
 20
-32.7339859068
 11
43.9958247673
 21
-32.377939949
  0
LWPOLYLINE
  5
3D9
100
AcDbEntity
  8
RACCORDO
100
AcDbPolyline
 62
7
  6
CONTINUOUS
 90
5
 70
0
 10
64.0712258942
 20
-37.6043965356
 10
64.0704422483
 20
-37.5996825021
 10
64.0673437092
 20
-37.594641049
 10
64.0621185333
 20
-37.5913571131
 10
64.0610196389
 20
-37.5910022224
  0
LINE
  5
3DA
100
AcDbEntity
  8
0
100
AcDbLine
 62
7
  6
CONTINUOUS
 10
64.8913400407
 20
-46.0080624147
 11
64.8735172206
 21
-45.8485210424
  0
LINE
  5
3DB
100
AcDbEntity
  8
0
100
AcDbLine
 62
7
  6
CONTINUOUS
 10
62.3762863294
 20
-45.2176269527
 11
62.3668277911
 21
-45.1322197849
  0
LINE
  5
3DC
100
AcDbEntity
  8
0
100
AcDbLine
 62
7
  6
CONTINUOUS
 10
65.4227624379
 20
-46.1481431445
 11
65.3993610051
 21
-45.9396525862
  0
LINE
  5
3DD
100
AcDbEntity
  8
0
100
AcDbLine
 62
7
  6
CONTINUOUS
 10
62.8793713639
 20
-45.3931975092
 11
62.8649842787
 21
-45.2631763105
  0
LINE
  5
3DE
100
AcDbEntity
  8
0
100
AcDbLine
 62
7
  6
CONTINUOUS
 10
62.348130591
 20
-45.1042789805
 11
62.362544631
 21
-45.2348472191
  0
LINE
  5
3DF
100
AcDbEntity
  8
0
100
AcDbLine
 62
7
  6
CONTINUOUS
 10
63.3788534176
 20
-45.3935806141
 11
63.3962770833
 21
-45.5514696628
  0
LINE
  5
3E0
100
AcDbEntity
  8
0
100
AcDbLine
 62
7
  6
CONTINUOUS
 10
63.4100201187
 20
-45.5342477209
 11
63.3925929009
 21
-45.3764029584
  0
LINE
  5
3E1
100
AcDbEntity
  8
0
100
AcDbLine
 62
7
  6
CONTINUOUS
 10
61.8457693327
 20
-45.0764172263
 11
61.831370309
 21
-44.9457864806
  0
LINE
  5
3E2
100
AcDbEntity
  8
0
100
AcDbLine
 62
7
  6
CONTINUOUS
 10
68.7236032907
 20
-46.3899590882
 11
68.7418881807
 21
-46.5576865829
  0
LINE
  5
3E3
100
AcDbEntity
  8
0
100
AcDbLine
 62
7
  6
CONTINUOUS
 10
68.7555693699
 20
-46.5399038355
 11
68.7397036349
 21
-46.3946097297
  0
LINE
  5
3E4
100
AcDbEntity
  8
0
100
AcDbLine
 62
7
  6
CONTINUOUS
 10
68.2262706885
 20
-46.4668227197
 11
68.1906132364
 21
-46.1321156549
  0
LINE
  5
3E5
100
AcDbEntity
  8
0
100
AcDbLine
 62
7
  6
CONTINUOUS
 10
65.3374458206
 20
-45.4998382024
 11
65.3656044315
 21
-45.7717828644
  0
LINE
  5
3E6
100
AcDbEntity
  8
0
100
AcDbLine
 62
7
  6
CONTINUOUS
 10
65.3766924517
 20
-45.7296770948
 11
65.347706129
 21
-45.4482176968
  0
LINE
  5
3E7
100
AcDbEntity
  8
0
100
AcDbLine
 62
7
  6
CONTINUOUS
 10
68.1906132364
 20
-46.1321156549
 11
68.1672472472
 21
-45.9004756265
  0
LINE
  5
3E8
100
AcDbEntity
  8
0
100
AcDbLine
 62
7
  6
CONTINUOUS
 10
65.3102861401
 20
-45.2225508061
 11
65.3374458206
 21
-45.4998382024
  0
LINE
  5
3E9
100
AcDbEntity
  8
0
100
AcDbLine
 62
7
  6
CONTINUOUS
 10
68.6906453664
 20
-45.9910960817
 11
68.6664441301
 21
-45.743791508
  0
LINE
  5
3EA
100
AcDbEntity
  8
0
100
AcDbLine
 62
7
  6
CONTINUOUS
 10
68.6500968489
 20
-45.7332389463
 11
68.6769268487
 21
-46.0082872995
  0
LINE
  5
3EB
100
AcDbEntity
  8
0
100
AcDbLine
 62
7
  6
CONTINUOUS
 10
65.347706129
 20
-45.4482176968
 11
65.3201918341
 21
-45.1653758812
  0
LINE
  5
3EC
100
AcDbEntity
  8
0
100
AcDbLine
 62
7
  6
CONTINUOUS
 10
68.1672472472
 20
-45.9004756265
 11
68.1444939737
 21
-45.6639996584
  0
LWPOLYLINE
  5
3ED
100
AcDbEntity
  8
0
100
AcDbPolyline
 62
7
  6
CONTINUOUS
 90
3
 70
0
 10
67.0122394495
 20
-7.8387878494
 10
67.0121438737
 20
-7.8377666059
 10
67.0118469212
 20
-7.8322608023
  0
LINE
  5
3EE
100
AcDbEntity
  8
0
100
AcDbLine
 62
7
  6
CONTINUOUS
 10
68.6664441301
 20
-45.743791508
 11
68.6445945558
 21
-45.5088401667
  0
LINE
  5
3EF
100
AcDbEntity
  8
0
100
AcDbLine
 62
7
  6
CONTINUOUS
 10
68.6289084398
 20
-45.5042040917
 11
68.6500968489
 21
-45.7332389463
  0
LINE
  5
3F0
100
AcDbEntity
  8
0
100
AcDbLine
 62
7
  6
CONTINUOUS
 10
65.2843181449
 20
-44.9411101064
 11
65.3102861401
 21
-45.2225508061
  0
LINE
  5
3F1
100
AcDbEntity
  8
0
100
AcDbLine
 62
7
  6
CONTINUOUS
 10
65.3201918341
 20
-45.1653758812
 11
65.3000877012
 21
-44.9471823768
  0
LWPOLYLINE
  5
3F2
100
AcDbEntity
  8
0
100
AcDbPolyline
 62
7
  6
CONTINUOUS
 90
3
 70
0
 10
64.7951558118
 20
-45.0856613586
 10
64.7682120066
 20
-44.7930325345
 10
64.7556302238
 20
-44.6490787501
  0
LINE
  5
3F3
100
AcDbEntity
  8
0
100
AcDbLine
 62
7
  6
CONTINUOUS
 10
68.1444939737
 20
-45.6639996584
 11
68.1226877752
 21
-45.4250201308
  0
LINE
  5
3F4
100
AcDbEntity
  8
0
100
AcDbLine
 62
7
  6
CONTINUOUS
 10
65.3000877012
 20
-44.9471823768
 11
65.2798177288
 21
-44.715389107
  0
LINE
  5
3F5
100
AcDbEntity
  8
0
100
AcDbLine
 62
7
  6
CONTINUOUS
 10
65.2597985114
 20
-44.6570690564
 11
65.2843181449
 21
-44.9411101064
  0
LINE
  5
3F6
100
AcDbEntity
  8
0
100
AcDbLine
 62
7
  6
CONTINUOUS
 10
68.1226877752
 20
-45.4250201308
 11
68.1025386913
 21
-45.1906646935
  0
LINE
  5
3F7
100
AcDbEntity
  8
0
100
AcDbLine
 62
7
  6
CONTINUOUS
 10
65.2798177288
 20
-44.715389107
 11
65.2589530452
 21
-44.4613444961
  0
LINE
  5
3F8
100
AcDbEntity
  8
0
100
AcDbLine
 62
7
  6
CONTINUOUS
 10
68.1025386913
 20
-45.1906646935
 11
68.0842444824
 21
-44.9628701769
  0
LINE
  5
3F9
100
AcDbEntity
  8
0
100
AcDbLine
 62
7
  6
CONTINUOUS
 10
65.2370407738
 20
-44.3726060919
 11
65.2597985114
 21
-44.6570690564
  0
LWPOLYLINE
  5
3FA
100
AcDbEntity
  8
0
100
AcDbPolyline
 62
7
  6
CONTINUOUS
 90
3
 70
0
 10
65.2589530452
 20
-44.4613444961
 10
65.23723868
 20
-44.1747152131
 10
65.2297997123
 20
-44.0712371306
  0
LINE
  5
3FB
100
AcDbEntity
  8
0
100
AcDbLine
 62
7
  6
CONTINUOUS
 10
65.2161380469
 20
-44.0883571047
 11
65.2370407738
 21
-44.3726060919
  0
LINE
  5
3FC
100
AcDbEntity
  8
RACCORDO
100
AcDbLine
 62
7
  6
CONTINUOUS
 10
67.0118517994
 20
-7.8324522139
 11
67.0118469157
 21
-7.8322605858
  0
LINE
  5
3FD
100
AcDbEntity
  8
RACCORDO
100
AcDbLine
 62
250
  6
CONTINUOUS
 10
64.0639033974
 20
-38.4332794567
 11
64.0446232537
 21
-37.6582480177
  0
LINE
  5
3FE
100
AcDbEntity
  8
RACCORDO
100
AcDbLine
 62
7
  6
CONTINUOUS
 10
64.089843974
 20
-38.3528137742
 11
64.0712294856
 21
-37.6045406312
  0
LINE
  5
3FF
100
AcDbEntity
  8
0
100
AcDbLine
 62
7
  6
CONTINUOUS
 10
67.0119773865
 20
-7.8374865704
 11
67.8682315875
 21
-42.2575577604
  0
LINE
  5
400
100
AcDbEntity
  8
RACCORDO
100
AcDbLine
 62
7
  6
CONTINUOUS
 10
67.8682349832
 20
-42.2577130032
 11
67.8682312142
 21
-42.257557691
  0
LINE
  5
401
100
AcDbEntity
  8
RACCORDO
100
AcDbLine
 62
250
  6
CONTINUOUS
 10
64.0898553103
 20
-38.3582638859
 11
64.089843974
 21
-38.3528137742
  0
LWPOLYLINE
  5
402
100
AcDbEntity
  8
RACCORDO
100
AcDbPolyline
 62
250
  6
CONTINUOUS
 90
6
 70
0
 10
64.0639033974
 20
-38.4332794567
 10
64.0629999296
 20
-38.4572665082
 10
64.059085879
 20
-38.4801848857
 10
64.0522041459
 20
-38.5017818062
 10
64.0424288354
 20
-38.5218216352
 10
64.0358961447
 20
-38.5320416705
  0
LWPOLYLINE
  5
403
100
AcDbEntity
  8
RACCORDO
100
AcDbPolyline
 62
250
  6
CONTINUOUS
 90
19
 70
0
 10
66.4576765218
 20
-6.4143043368
 10
66.4387112082
 20
-6.4943503968
 10
66.4219998789
 20
-6.5739368069
 10
66.4076943374
 20
-6.6525292775
 10
66.3956329356
 20
-6.7295136303
 10
66.386265259
 20
-6.804469166
 10
66.3805033988
 20
-6.8771288769
 10
66.3791740734
 20
-6.9472355559
 10
66.3812190568
 20
-7.0139883072
 10
66.3848934832
 20
-7.076392089
 10
66.3893736734
 20
-7.1337672509
 10
66.3960533374
 20
-7.1861701563
 10
66.406471539
 20
-7.2337380689
 10
66.420972402
 20
-7.2762708285
 10
66.4387153369
 20
-7.3132457425
 10
66.4591842392
 20
-7.3442872144
 10
66.4821458097
 20
-7.3691540357
 10
66.5075304517
 20
-7.38770326
 10
66.5351711256
 20
-7.3998100781
  0
LWPOLYLINE
  5
404
100
AcDbEntity
  8
RACCORDO
100
AcDbPolyline
 62
250
  6
CONTINUOUS
 90
10
 70
0
 10
66.4576754734
 20
-6.4143042496
 10
66.5057975888
 20
-6.2249515143
 10
66.5489535134
 20
-6.036033704
 10
66.5869582072
 20
-5.8483605473
 10
66.6196487128
 20
-5.6627364384
 10
66.6468848543
 20
-5.4799569904
 10
66.6685498385
 20
-5.3008056243
 10
66.6845507553
 20
-5.1260502115
 10
66.6948189758
 20
-4.9564397824
 10
66.699310447
 20
-4.792701316
  0
LINE
  5
405
100
AcDbEntity
  8
DRAFT
100
AcDbLine
 62
7
  6
CONTINUOUS
 10
57.8532173087
 20
-37.0658194182
 11
57.8720564059
 21
-37.0137867204
  0
LINE
  5
406
100
AcDbEntity
  8
DRAFT
100
AcDbLine
 62
7
  6
CONTINUOUS
 10
58.0502715726
 20
-36.9358763198
 11
58.1225163424
 21
-36.7363396733
  0
LINE
  5
407
100
AcDbEntity
  8
DRAFT
100
AcDbLine
 62
7
  6
CONTINUOUS
 10
58.3007315091
 20
-36.6584292727
 11
58.372976279
 21
-36.4588926262
  0
LINE
  5
408
100
AcDbEntity
  8
DRAFT
100
AcDbLine
 62
7
  6
CONTINUOUS
 10
58.5511914456
 20
-36.3809822256
 11
58.6234362155
 21
-36.1814455791
  0
LINE
  5
409
100
AcDbEntity
  8
RACCORDO
100
AcDbLine
 62
250
  6
CONTINUOUS
 10
92.0879315167
 20
1.8872931482
 11
89.8983983123
 21
-0.5381627172
  0
LWPOLYLINE
  5
40A
100
AcDbEntity
  8
RACCORDO
100
AcDbPolyline
 62
7
  6
CONTINUOUS
 90
5
 70
0
 10
58.75653895
 20
-36.0343285588
 10
58.7744105057
 20
-36.0201010041
 10
58.7943591615
 20
-36.0095041734
 10
58.8158749936
 20
-36.0025623075
 10
58.838386714
 20
-35.9995391798
  0
LWPOLYLINE
  5
40B
100
AcDbEntity
  8
0
100
AcDbPolyline
 62
7
  6
CONTINUOUS
 90
5
 70
0
 10
67.0039368339
 20
-7.8108799655
 10
67.0056642514
 20
-7.8156215789
 10
67.0094896043
 20
-7.8274481215
 10
67.0115359625
 20
-7.8352946715
 10
67.0119773865
 20
-7.8374865704
  0
LINE
  5
40C
100
AcDbEntity
  8
0
100
AcDbLine
 62
7
  6
CONTINUOUS
 10
68.7814598458
 20
-46.9041316601
 11
68.8138999369
 21
-47.1732613872
  0
LINE
  5
40D
100
AcDbEntity
  8
0
100
AcDbLine
 62
7
  6
CONTINUOUS
 10
68.8276765686
 20
-47.1559973445
 11
68.7951326863
 21
-46.8861328936
  0
LINE
  5
40E
100
AcDbEntity
  8
0
100
AcDbLine
 62
7
  6
CONTINUOUS
 10
68.2906295459
 20
-47.022955328
 11
68.2505622549
 21
-46.6832796617
  0
LWPOLYLINE
  5
40F
100
AcDbEntity
  8
0
100
AcDbPolyline
 62
7
  6
CONTINUOUS
 90
3
 70
0
 10
68.7951326863
 20
-46.8861328936
 10
68.7650723869
 20
-46.6249718324
 10
68.7555693699
 20
-46.5399038355
  0
LWPOLYLINE
  5
410
100
AcDbEntity
  8
0
100
AcDbPolyline
 62
7
  6
CONTINUOUS
 90
3
 70
0
 10
68.7418881807
 20
-46.5576865829
 10
68.7514058614
 20
-46.6429240913
 10
68.7814598458
 20
-46.9041316601
  0
LINE
  5
411
100
AcDbEntity
  8
0
100
AcDbLine
 62
7
  6
CONTINUOUS
 10
68.2505622549
 20
-46.6832796617
 11
68.2262706885
 21
-46.4668227197
  0
LINE
  5
412
100
AcDbEntity
  8
RACCORDO
100
AcDbLine
 62
250
  6
CONTINUOUS
 10
68.6571093973
 20
-27.4716047146
 11
69.0497755298
 21
-42.849835225
  0
LINE
  5
413
100
AcDbEntity
  8
RACCORDO
100
AcDbLine
 62
250
  6
CONTINUOUS
 10
69.97357164
 20
-8.5509165943
 11
70.2525271306
 21
-19.4504773249
  0
LINE
  5
414
100
AcDbEntity
  8
RACCORDO
100
AcDbLine
 62
250
  6
CONTINUOUS
 10
70.2525271306
 20
-19.4504773249
 11
70.6372031907
 21
-34.9239707702
  0
LINE
  5
415
100
AcDbEntity
  8
RACCORDO
100
AcDbLine
 62
250
  6
CONTINUOUS
 10
70.6372031907
 20
-34.9239707702
 11
70.8261667117
 21
-42.8054523937
  0
LINE
  5
416
100
AcDbEntity
  8
RACCORDO
100
AcDbLine
 62
250
  6
CONTINUOUS
 10
70.8261667117
 20
-42.8054523937
 11
70.8291712137
 21
-42.9446772399
  0
LINE
  5
417
100
AcDbEntity
  8
RACCORDO
100
AcDbLine
 62
250
  6
CONTINUOUS
 10
68.1934430946
 20
-8.4266239114
 11
68.6571093973
 21
-27.4716047146
  0
LWPOLYLINE
  5
418
100
AcDbEntity
  8
RACCORDO
100
AcDbPolyline
 62
250
  6
CONTINUOUS
 90
76
 70
0
 10
69.0497749299
 20
-42.8498364216
 10
69.0503696936
 20
-42.8997467997
 10
69.0490127548
 20
-42.9475996649
 10
69.0458706377
 20
-42.993396117
 10
69.0410928998
 20
-43.0372203723
 10
69.0348476412
 20
-43.0790117599
 10
69.0273479549
 20
-43.118576325
 10
69.0188082002
 20
-43.1557704791
 10
69.0093663528
 20
-43.1908301796
 10
68.9991009094
 20
-43.2241337441
 10
68.9881928208
 20
-43.2555220428
 10
68.9767088144
 20
-43.2852381697
 10
68.9644307457
 20
-43.3142054555
 10
68.9513099149
 20
-43.3426124959
 10
68.9374349525
 20
-43.3702579611
 10
68.9226822214
 20
-43.3974179271
 10
68.9069861548
 20
-43.424186514
 10
68.8904048406
 20
-43.4504265215
 10
68.8729805122
 20
-43.4760543806
 10
68.8547114855
 20
-43.5010676587
 10
68.8356149151
 20
-43.5254397792
 10
68.8157786435
 20
-43.5490637792
 10
68.7951960449
 20
-43.5719622253
 10
68.7739099739
 20
-43.5941007231
 10
68.7521111656
 20
-43.6153114519
 10
68.7297792444
 20
-43.6356582629
 10
68.7070043276
 20
-43.6550996238
 10
68.6841938187
 20
-43.6733585468
 10
68.6614524544
 20
-43.6904541543
 10
68.6388069225
 20
-43.7064620294
 10
68.6165973826
 20
-43.7212433043
 10
68.5950494956
 20
-43.7347730954
 10
68.574090175
 20
-43.747214361
 10
68.5536156836
 20
-43.7587184435
 10
68.5337085593
 20
-43.7693204354
 10
68.5143894862
 20
-43.7790868503
 10
68.4954357004
 20
-43.7881888466
 10
68.4768587069
 20
-43.7966686536
 10
68.458709375
 20
-43.8045480955
 10
68.4408015346
 20
-43.8119417321
 10
68.4231588045
 20
-43.8188708438
 10
68.4057969637
 20
-43.825355364
 10
68.388502129
 20
-43.8314872112
 10
68.3713095615
 20
-43.8372678086
 10
68.3542066814
 20
-43.8427168768
 10
68.3368921126
 20
-43.847931168
 10
68.3193513244
 20
-43.8529123367
 10
68.3016030197
 20
-43.8576533613
 10
68.2833805301
 20
-43.8622144255
 10
68.2646956703
 20
-43.8665752049
 10
68.2455288431
 20
-43.8707293275
 10
68.2255509891
 20
-43.8747325235
 10
68.2046352088
 20
-43.8785756146
 10
68.1828821047
 20
-43.88220513
 10
68.1602950687
 20
-43.8855949703
 10
68.1369294673
 20
-43.8887066622
 10
68.1127079514
 20
-43.8915159346
 10
68.0874303083
 20
-43.8940073977
 10
68.0610856988
 20
-43.8961356539
 10
68.033656127
 20
-43.8978552875
 10
68.004921708
 20
-43.8991280088
 10
67.9748518281
 20
-43.8998925439
 10
67.9434436313
 20
-43.9000849403
 10
67.9105111912
 20
-43.899638056
 10
67.8759509566
 20
-43.8984720656
 10
67.8398335022
 20
-43.8965022068
 10
67.8022363153
 20
-43.8936459325
 10
67.7632870657
 20
-43.8898423359
 10
67.7228511702
 20
-43.8849957712
 10
67.6806199391
 20
-43.8789567743
 10
67.6365583278
 20
-43.8716101777
 10
67.5907184415
 20
-43.8628585578
 10
67.5429293678
 20
-43.8525446138
 10
67.4931531757
 20
-43.8405273482
 10
67.4414863445
 20
-43.8266969329
 10
67.3879718758
 20
-43.8109279127
  0
LWPOLYLINE
  5
419
100
AcDbEntity
  8
RACCORDO
100
AcDbPolyline
 62
250
  6
CONTINUOUS
 90
76
 70
0
 10
70.8291716027
 20
-42.9446766855
 10
70.8292956431
 20
-43.0410207254
 10
70.8254989936
 20
-43.1333970888
 10
70.8181133634
 20
-43.2218066452
 10
70.8074494911
 20
-43.3064338755
 10
70.7938364672
 20
-43.3871558729
 10
70.7776782413
 20
-43.4635559493
 10
70.7592374632
 20
-43.5353130572
 10
70.7389680851
 20
-43.6028515973
 10
70.7175493373
 20
-43.6668909186
 10
70.6956950866
 20
-43.7270096543
 10
70.6735414775
 20
-43.7833494232
 10
70.6507481773
 20
-43.837307807
 10
70.6274803027
 20
-43.8893404991
 10
70.6035383842
 20
-43.9396572289
 10
70.5777294892
 20
-43.989248404
 10
70.5495455871
 20
-44.0384116123
 10
70.5194492351
 20
-44.0867080335
 10
70.4877039245
 20
-44.1338127922
 10
70.4543802267
 20
-44.179655107
 10
70.4194551475
 20
-44.2242243984
 10
70.3830707695
 20
-44.2673585995
 10
70.345198186
 20
-44.3091051425
 10
70.3059354698
 20
-44.3493821153
 10
70.2656697284
 20
-44.3878698975
 10
70.2243679004
 20
-44.4246700306
 10
70.1822010875
 20
-44.4597105226
 10
70.1399481935
 20
-44.4925077426
 10
70.0977964983
 20
-44.5230930667
 10
70.0558016725
 20
-44.5516043394
 10
70.0146273963
 20
-44.5778189154
 10
69.9746838948
 20
-44.6016990926
 10
69.9358207243
 20
-44.6235436415
 10
69.8978638618
 20
-44.643651982
 10
69.8609704177
 20
-44.6620910283
 10
69.8251938407
 20
-44.678966851
 10
69.790156408
 20
-44.6945892877
 10
69.7559021247
 20
-44.7090182749
 10
69.7223990713
 20
-44.7223605133
 10
69.6891173295
 20
-44.7349361027
 10
69.6559793616
 20
-44.7467987735
 10
69.6229989704
 20
-44.7579916802
 10
69.5897442315
 20
-44.7687691227
 10
69.5562099901
 20
-44.7791519251
 10
69.5224479347
 20
-44.789113481
 10
69.4880573818
 20
-44.798805872
 10
69.4530494746
 20
-44.8082267452
 10
69.4174533906
 20
-44.817333306
 10
69.3808571415
 20
-44.8261863857
 10
69.3432655445
 20
-44.8348566061
 10
69.304953932
 20
-44.8431438228
 10
69.2659482683
 20
-44.8506819845
 10
69.2266059961
 20
-44.8572174988
 10
69.1867913009
 20
-44.8629403363
 10
69.1457764269
 20
-44.8681199554
 10
69.103142094
 20
-44.8728293981
 10
69.0587874608
 20
-44.8769482095
 10
69.0124444537
 20
-44.8804041816
 10
68.9642231872
 20
-44.8831043328
 10
68.9141405182
 20
-44.8849662855
 10
68.8617743772
 20
-44.8858972868
 10
68.8070476195
 20
-44.8857785921
 10
68.7499978673
 20
-44.8845120348
 10
68.6903909157
 20
-44.8819936091
 10
68.6282921057
 20
-44.8778754462
 10
68.5634630326
 20
-44.8722399728
 10
68.4949813005
 20
-44.8655333669
 10
68.4219815369
 20
-44.8577674789
 10
68.3442948296
 20
-44.8483498389
 10
68.2622390795
 20
-44.8367898062
 10
68.1764657289
 20
-44.8229349448
 10
68.0872510481
 20
-44.8066535278
 10
67.9943010763
 20
-44.7874710328
 10
67.8974474655
 20
-44.7650292726
 10
67.7967427255
 20
-44.739130609
 10
67.6922960943
 20
-44.7095328244
  0
LINE
  5
41A
100
AcDbEntity
  8
DRAFT
100
AcDbLine
 62
7
  6
CONTINUOUS
 10
63.3097920622
 20
-38.7414806619
 11
63.3249795249
 21
-38.6883265825
  0
LINE
  5
41B
100
AcDbEntity
  8
DRAFT
100
AcDbLine
 62
7
  6
CONTINUOUS
 10
63.4705200811
 20
-38.6003821256
 11
63.5287614465
 21
-38.3965451692
  0
LINE
  5
41C
100
AcDbEntity
  8
DRAFT
100
AcDbLine
 62
7
  6
CONTINUOUS
 10
63.6743020027
 20
-38.3086007124
 11
63.7325433681
 21
-38.104763756
  0
LINE
  5
41D
100
AcDbEntity
  8
DRAFT
100
AcDbLine
 62
7
  6
CONTINUOUS
 10
63.8780839243
 20
-38.0168192991
 11
63.9363252898
 21
-37.8129823427
  0
LINE
  5
41E
100
AcDbEntity
  8
0
100
AcDbLine
 62
7
  6
CONTINUOUS
 10
64.5231096202
 20
-45.4371694952
 11
64.4021961131
 21
-45.8589629688
  0
LINE
  5
41F
100
AcDbEntity
  8
0
100
AcDbLine
 62
7
  6
CONTINUOUS
 10
64.6410151282
 20
-45.0338753024
 11
64.5231096202
 21
-45.4371694952
  0
LINE
  5
420
100
AcDbEntity
  8
0
100
AcDbLine
 62
7
  6
CONTINUOUS
 10
64.0681980116
 20
-45.0658315355
 11
64.1871537538
 21
-44.663305848
  0
LINE
  5
421
100
AcDbEntity
  8
0
100
AcDbLine
 62
7
  6
CONTINUOUS
 10
64.7556302238
 20
-44.6490787501
 11
64.6410151282
 21
-45.0338753024
  0
LINE
  5
422
100
AcDbEntity
  8
0
100
AcDbLine
 62
7
  6
CONTINUOUS
 10
64.1871537538
 20
-44.663305848
 11
64.2859885179
 21
-44.3346088976
  0
LINE
  5
423
100
AcDbEntity
  8
0
100
AcDbLine
 62
7
  6
CONTINUOUS
 10
64.2859885179
 20
-44.3346088976
 11
64.385673837
 21
-44.0084327813
  0
LINE
  5
424
100
AcDbEntity
  8
0
100
AcDbLine
 62
7
  6
CONTINUOUS
 10
64.385673837
 20
-44.0084327813
 11
64.4351432318
 21
-43.8485566907
  0
LINE
  5
425
100
AcDbEntity
  8
0
100
AcDbLine
 62
7
  6
CONTINUOUS
 10
60.8304937243
 20
-44.2520352012
 11
60.6718579293
 21
-44.7161913312
  0
LINE
  5
426
100
AcDbEntity
  8
0
100
AcDbLine
 62
7
  6
CONTINUOUS
 10
60.9991891287
 20
-43.7672721401
 11
60.8304937243
 21
-44.2520352012
  0
LINE
  5
427
100
AcDbEntity
  8
0
100
AcDbLine
 62
7
  6
CONTINUOUS
 10
60.3466786235
 20
-43.9985134086
 11
60.4989920887
 21
-43.5620462945
  0
LINE
  5
428
100
AcDbEntity
  8
0
100
AcDbLine
 62
7
  6
CONTINUOUS
 10
60.4989920887
 20
-43.5620462945
 11
60.6489035512
 21
-43.1390970726
  0
LINE
  5
429
100
AcDbEntity
  8
0
100
AcDbLine
 62
7
  6
CONTINUOUS
 10
61.1790425644
 20
-43.2596627564
 11
60.9991891287
 21
-43.7672721401
  0
LINE
  5
42A
100
AcDbEntity
  8
0
100
AcDbLine
 62
7
  6
CONTINUOUS
 10
60.6489035512
 20
-43.1390970726
 11
60.7962963976
 21
-42.7294584759
  0
LINE
  5
42B
100
AcDbEntity
  8
0
100
AcDbLine
 62
7
  6
CONTINUOUS
 10
61.3127406452
 20
-42.8883186457
 11
61.1790425644
 21
-43.2596627564
  0
LWPOLYLINE
  5
42C
100
AcDbEntity
  8
RACCORDO
100
AcDbPolyline
 62
250
  6
CONTINUOUS
 90
5
 70
0
 10
64.0639033974
 20
-38.4332794567
 10
64.0748684465
 20
-38.4151831722
 10
64.0828991117
 20
-38.3965201653
 10
64.0879121173
 20
-38.3774826011
 10
64.089726093
 20
-38.3595418809
  0
LINE
  5
42D
100
AcDbEntity
  8
RACCORDO
100
AcDbLine
 62
7
  6
CONTINUOUS
 10
64.0382162506
 20
-37.6670916361
 11
63.9363252898
 21
-37.8129823427
  0
LINE
  5
42E
100
AcDbEntity
  8
DRAFT
100
AcDbLine
 62
7
  6
CONTINUOUS
 10
63.8140561368
 20
-37.9880511907
 11
63.7325433681
 21
-38.104763756
  0
LINE
  5
42F
100
AcDbEntity
  8
DRAFT
100
AcDbLine
 62
7
  6
CONTINUOUS
 10
63.6102742151
 20
-38.2798326039
 11
63.5287614465
 21
-38.3965451692
  0
LINE
  5
430
100
AcDbEntity
  8
DRAFT
100
AcDbLine
 62
7
  6
CONTINUOUS
 10
63.4064922935
 20
-38.5716140172
 11
63.3249795249
 21
-38.6883265825
  0
LINE
  5
431
100
AcDbEntity
  8
RACCORDO
100
AcDbLine
 62
250
  6
CONTINUOUS
 10
63.753491838
 20
-38.8777365645
 11
64.0639033974
 21
-38.4332794567
  0
LINE
  5
432
100
AcDbEntity
  8
RACCORDO
100
AcDbLine
 62
7
  6
CONTINUOUS
 10
63.7872256928
 20
-38.8880959045
 11
64.035890365
 21
-38.5320499467
  0
LWPOLYLINE
  5
433
100
AcDbEntity
  8
RACCORDO
100
AcDbPolyline
 62
7
  6
CONTINUOUS
 90
6
 70
0
 10
64.0446232537
 20
-37.6582480177
 10
64.0563218075
 20
-37.642124794
 10
64.0644558548
 20
-37.6278998115
 10
64.0693035159
 20
-37.6158393117
 10
64.0711814492
 20
-37.6064797479
 10
64.0712258942
 20
-37.6043965356
  0
LINE
  5
434
100
AcDbEntity
  8
RACCORDO
100
AcDbLine
 62
250
  6
CONTINUOUS
 10
87.3804493316
 20
2.3728418117
 11
89.358058549
 21
5.0338917964
  0
LINE
  5
435
100
AcDbEntity
  8
0
100
AcDbLine
 62
7
  6
CONTINUOUS
 10
59.1381876812
 20
-42.219375689
 11
59.1518485624
 21
-42.2022566977
  0
LINE
  5
436
100
AcDbEntity
  8
0
100
AcDbLine
 62
7
  6
CONTINUOUS
 10
59.6546185607
 20
-42.3782526108
 11
59.6682794095
 21
-42.3611336602
  0
LINE
  5
437
100
AcDbEntity
  8
0
100
AcDbLine
 62
7
  6
CONTINUOUS
 10
60.7962963976
 20
-42.7294584759
 11
60.8099572053
 21
-42.7123395767
  0
LINE
  5
438
100
AcDbEntity
  8
0
100
AcDbLine
 62
7
  6
CONTINUOUS
 10
61.3127406452
 20
-42.8883186457
 11
61.3264014494
 21
-42.8711997509
  0
LINE
  5
439
100
AcDbEntity
  8
0
100
AcDbLine
 62
7
  6
CONTINUOUS
 10
61.6570320532
 20
-42.9942202695
 11
61.6706928618
 21
-42.9771013693
  0
LINE
  5
43A
100
AcDbEntity
  8
RACCORDO
100
AcDbLine
 62
7
  6
CONTINUOUS
 10
58.7486661837
 20
-36.0427220555
 11
58.6234362155
 21
-36.1814455791
  0
LINE
  5
43B
100
AcDbEntity
  8
DRAFT
100
AcDbLine
 62
7
  6
CONTINUOUS
 10
58.4731602536
 20
-36.3479138073
 11
58.372976279
 21
-36.4588926262
  0
LINE
  5
43C
100
AcDbEntity
  8
DRAFT
100
AcDbLine
 62
7
  6
CONTINUOUS
 10
58.222700317
 20
-36.6253608544
 11
58.1225163424
 21
-36.7363396733
  0
LINE
  5
43D
100
AcDbEntity
  8
DRAFT
100
AcDbLine
 62
7
  6
CONTINUOUS
 10
57.9722403805
 20
-36.9028079015
 11
57.8720564059
 21
-37.0137867204
  0
LINE
  5
43E
100
AcDbEntity
  8
0
100
AcDbLine
 62
7
  6
CONTINUOUS
 10
66.3918121089
 20
-46.0756313428
 11
66.2728183114
 21
-46.4262734619
  0
LINE
  5
43F
100
AcDbEntity
  8
0
100
AcDbLine
 62
7
  6
CONTINUOUS
 10
65.754359137
 20
-46.2699544005
 11
65.9663096573
 21
-45.6490367828
  0
LINE
  5
440
100
AcDbEntity
  8
0
100
AcDbLine
 62
7
  6
CONTINUOUS
 10
65.9663096573
 20
-45.6490367828
 11
66.1014943343
 21
-45.2601481985
  0
LINE
  5
441
100
AcDbEntity
  8
0
100
AcDbLine
 62
7
  6
CONTINUOUS
 10
66.659128211
 20
-45.3040344422
 11
66.5093979259
 21
-45.7335858505
  0
LINE
  5
442
100
AcDbEntity
  8
0
100
AcDbLine
 62
7
  6
CONTINUOUS
 10
66.7016444628
 20
-45.183277542
 11
66.659128211
 21
-45.3040344422
  0
LINE
  5
443
100
AcDbEntity
  8
0
100
AcDbLine
 62
7
  6
CONTINUOUS
 10
66.1014943343
 20
-45.2601481985
 11
66.2420108865
 21
-44.8623006367
  0
LINE
  5
444
100
AcDbEntity
  8
0
100
AcDbLine
 62
7
  6
CONTINUOUS
 10
66.2420108865
 20
-44.8623006367
 11
66.3905035582
 21
-44.4479930184
  0
LWPOLYLINE
  5
445
100
AcDbEntity
  8
0
100
AcDbPolyline
 62
7
  6
CONTINUOUS
 90
25
 70
0
 10
70.1477435519
 20
-46.3858650415
 10
70.1653219523
 20
-46.3397819139
 10
70.1767107516
 20
-46.2906981662
 10
70.1819489864
 20
-46.2386178855
 10
70.1808942875
 20
-46.1839020065
 10
70.173442646
 20
-46.127049793
 10
70.1596212083
 20
-46.0682548788
 10
70.1392365801
 20
-46.0075699472
 10
70.1123744139
 20
-45.9459517304
 10
70.079867686
 20
-45.8849927839
 10
70.042247069
 20
-45.8252733759
 10
69.9999400628
 20
-45.76722248
 10
69.9542479571
 20
-45.7120958688
 10
69.9063517779
 20
-45.660635931
 10
69.856514551
 20
-45.6125566648
 10
69.8047272098
 20
-45.5674664958
 10
69.7512404047
 20
-45.5253425936
 10
69.6967201529
 20
-45.4864859681
 10
69.6416323756
 20
-45.4509896468
 10
69.5865166684
 20
-45.4189426486
 10
69.5316182473
 20
-45.3902408481
 10
69.4768964113
 20
-45.3646839131
 10
69.4225176565
 20
-45.3422075746
 10
69.3688786924
 20
-45.3228230082
 10
69.3162276876
 20
-45.3064642835
  0
LINE
  5
446
100
AcDbEntity
  8
0
100
AcDbLine
 62
7
  6
CONTINUOUS
 10
60.6718579293
 20
-44.7161913312
 11
60.6855988421
 21
-44.6989720492
  0
LINE
  5
447
100
AcDbEntity
  8
0
100
AcDbLine
 62
7
  6
CONTINUOUS
 10
62.1734765027
 20
-43.1530704587
 11
62.1871373288
 21
-43.1359515365
  0
LINE
  5
448
100
AcDbEntity
  8
0
100
AcDbLine
 62
7
  6
CONTINUOUS
 10
62.6899018062
 20
-43.3119140683
 11
62.7035626583
 21
-43.2947951135
  0
LINE
  5
449
100
AcDbEntity
  8
0
100
AcDbLine
 62
7
  6
CONTINUOUS
 10
63.4706330803
 20
-43.5520447359
 11
63.4842939808
 21
-43.5349257205
  0
LINE
  5
44A
100
AcDbEntity
  8
0
100
AcDbLine
 62
7
  6
CONTINUOUS
 10
62.362544631
 20
-45.2348472191
 11
62.3762863294
 21
-45.2176269527
  0
LINE
  5
44B
100
AcDbEntity
  8
0
100
AcDbLine
 62
7
  6
CONTINUOUS
 10
64.4351432318
 20
-43.8485566907
 11
64.4488043549
 21
-43.8314373963
  0
LINE
  5
44C
100
AcDbEntity
  8
0
100
AcDbLine
 62
7
  6
CONTINUOUS
 10
63.3962770833
 20
-45.5514696628
 11
63.4100201187
 21
-45.5342477209
  0
LINE
  5
44D
100
AcDbEntity
  8
0
100
AcDbLine
 62
7
  6
CONTINUOUS
 10
65.2161380469
 20
-44.0883571047
 11
65.2297997123
 21
-44.0712371306
  0
LINE
  5
44E
100
AcDbEntity
  8
0
100
AcDbLine
 62
7
  6
CONTINUOUS
 10
64.4021961131
 20
-45.8589629688
 11
64.4159413096
 21
-45.8417383188
  0
LINE
  5
44F
100
AcDbEntity
  8
0
100
AcDbLine
 62
250
  6
CONTINUOUS
 10
67.7158442727
 20
-42.1099350979
 11
67.8600633249
 21
-41.9292084925
  0
LINE
  5
450
100
AcDbEntity
  8
0
100
AcDbLine
 62
7
  6
CONTINUOUS
 10
66.3905035582
 20
-44.4479930184
 11
66.404167349
 21
-44.430870381
  0
LINE
  5
451
100
AcDbEntity
  8
0
100
AcDbLine
 62
7
  6
CONTINUOUS
 10
65.4090139038
 20
-46.1653719771
 11
65.4227624379
 21
-46.1481431445
  0
LINE
  5
452
100
AcDbEntity
  8
0
100
AcDbLine
 62
7
  6
CONTINUOUS
 10
66.9077661881
 20
-44.6058568235
 11
66.9214317307
 21
-44.5887319908
  0
LINE
  5
453
100
AcDbEntity
  8
0
100
AcDbLine
 62
7
  6
CONTINUOUS
 10
66.5093979259
 20
-45.7335858505
 11
66.5231142985
 21
-45.7163973208
  0
LINE
  5
454
100
AcDbEntity
  8
0
100
AcDbLine
 62
7
  6
CONTINUOUS
 10
66.2728183114
 20
-46.4262734619
 11
66.286570995
 21
-46.4090394296
  0
LINE
  5
455
100
AcDbEntity
  8
0
100
AcDbLine
 62
7
  6
CONTINUOUS
 10
68.0842444824
 20
-44.9628701769
 11
68.0979174421
 21
-44.9457360496
  0
LINE
  5
456
100
AcDbEntity
  8
0
100
AcDbLine
 62
7
  6
CONTINUOUS
 10
67.9425769956
 20
-46.9217733366
 11
67.9563429025
 21
-46.9045227336
  0
LINE
  5
457
100
AcDbEntity
  8
0
100
AcDbLine
 62
7
  6
CONTINUOUS
 10
68.6769268487
 20
-46.0082872995
 11
68.6906453664
 21
-45.9910960817
  0
LWPOLYLINE
  5
458
100
AcDbEntity
  8
0
100
AcDbPolyline
 62
7
  6
CONTINUOUS
 90
8
 70
0
 10
69.5823583223
 20
-46.1370639476
 10
69.5633119988
 20
-46.1538950984
 10
69.5406470354
 20
-46.1678555191
 10
69.5150730729
 20
-46.178538123
 10
69.4870552468
 20
-46.1858946315
 10
69.4569847766
 20
-46.1899233568
 10
69.4254541949
 20
-46.1906647668
 10
69.3929648675
 20
-46.1882600952
  0
LWPOLYLINE
  5
459
100
AcDbEntity
  8
RACCORDO
100
AcDbPolyline
 62
250
  6
CONTINUOUS
 90
9
 70
0
 10
88.4935740389
 20
-59.1449868279
 10
88.5010898877
 20
-59.2098427992
 10
88.5123607757
 20
-59.2682918704
 10
88.5272854749
 20
-59.3198090932
 10
88.5457299415
 20
-59.3639317762
 10
88.5675285196
 20
-59.4002636408
 10
88.5924854295
 20
-59.4284783796
 10
88.6203765253
 20
-59.448322588
 10
88.6436645887
 20
-59.4577747634
  0
LINE
  5
45A
100
AcDbEntity
  8
RACCORDO
100
AcDbLine
 62
250
  6
CONTINUOUS
 10
88.7057699764
 20
-1.5142320231
 11
88.6973715426
 21
-1.4077930231
  0
LWPOLYLINE
  5
45B
100
AcDbEntity
  8
RACCORDO
100
AcDbPolyline
 62
250
  6
CONTINUOUS
 90
25
 70
0
 10
88.6677287458
 20
-0.8010114931
 10
88.6610890585
 20
-0.7053623595
 10
88.6475039815
 20
-0.6081852616
 10
88.6270356159
 20
-0.509911341
 10
88.5997971157
 20
-0.4109275419
 10
88.5659229868
 20
-0.3116258787
 10
88.5255606228
 20
-0.2124160225
 10
88.478886552
 20
-0.1136852401
 10
88.426106475
 20
-0.0158382632
 10
88.3674512541
 20
0.0806848565
 10
88.3031794713
 20
0.1754745837
 10
88.2335610709
 20
0.268174853
 10
88.158862167
 20
0.3584299434
 10
88.079377068
 20
0.4458716963
 10
87.9954416334
 20
0.5301472725
 10
87.90738126
 20
0.6109215448
 10
87.8155119084
 20
0.6878738382
 10
87.7202398331
 20
0.7606646378
 10
87.622032528
 20
0.8289385005
 10
87.5213118444
 20
0.892389784
 10
87.4184590858
 20
0.9507776915
 10
87.313888493
 20
1.0038632054
 10
87.2080104101
 20
1.0514113154
 10
87.1012698905
 20
1.0932068324
 10
86.9941610485
 20
1.1290559448
  0
LINE
  5
45C
100
AcDbEntity
  8
RACCORDO
100
AcDbLine
 62
250
  6
CONTINUOUS
 10
88.6973715426
 20
-1.4077930231
 11
88.6943609255
 21
-1.3641412614
  0
LINE
  5
45D
100
AcDbEntity
  8
RACCORDO
100
AcDbLine
 62
250
  6
CONTINUOUS
 10
88.6943609255
 20
-1.3641412614
 11
88.6900286747
 21
-1.2956332913
  0
LINE
  5
45E
100
AcDbEntity
  8
RACCORDO
100
AcDbLine
 62
250
  6
CONTINUOUS
 10
88.6900286747
 20
-1.2956332913
 11
88.6857812827
 21
-1.221799103
  0
LINE
  5
45F
100
AcDbEntity
  8
RACCORDO
100
AcDbLine
 62
250
  6
CONTINUOUS
 10
88.6857812827
 20
-1.221799103
 11
88.6815438573
 21
-1.1406478518
  0
LWPOLYLINE
  5
460
100
AcDbEntity
  8
RACCORDO
100
AcDbPolyline
 62
250
  6
CONTINUOUS
 90
25
 70
0
 10
89.8983983124
 20
-0.5381627173
 10
89.891547798
 20
-0.3939987967
 10
89.8739872421
 20
-0.2473630647
 10
89.8457914773
 20
-0.0988757388
 10
89.807067515
 20
0.050823954
 10
89.7579928074
 20
0.2011086615
 10
89.698817086
 20
0.3513662053
 10
89.6297935911
 20
0.5009729219
 10
89.5512183877
 20
0.6492712679
 10
89.4634793537
 20
0.7956031222
 10
89.3669867501
 20
0.9393172054
 10
89.2621400772
 20
1.0798273528
 10
89.1493671361
 20
1.2165884957
 10
89.0291508505
 20
1.3490210145
 10
88.9020044085
 20
1.4765468808
 10
88.7684359496
 20
1.598643124
 10
88.6289718638
 20
1.714817998
 10
88.484242923
 20
1.8245201262
 10
88.334957764
 20
1.9271830547
 10
88.1818055519
 20
2.0223507669
 10
88.025403847
 20
2.1096409317
 10
87.8663865245
 20
2.1886571662
 10
87.7054224111
 20
2.2590529339
 10
87.5432126169
 20
2.320535491
 10
87.3804493316
 20
2.3728418117
  0
LINE
  5
461
100
AcDbEntity
  8
RACCORDO
100
AcDbLine
 62
250
  6
CONTINUOUS
 10
88.6815438573
 20
-1.1406478518
 11
88.6773116818
 21
-1.0505126299
  0
LINE
  5
462
100
AcDbEntity
  8
RACCORDO
100
AcDbLine
 62
250
  6
CONTINUOUS
 10
91.3257157749
 20
-57.9140787149
 11
91.314931879
 21
-57.6829658578
  0
LINE
  5
463
100
AcDbEntity
  8
RACCORDO
100
AcDbLine
 62
250
  6
CONTINUOUS
 10
88.6773116818
 20
-1.0505126299
 11
88.6731307826
 21
-0.9504949088
  0
LINE
  5
464
100
AcDbEntity
  8
RACCORDO
100
AcDbLine
 62
250
  6
CONTINUOUS
 10
91.314931879
 20
-57.6829658578
 11
91.3072613239
 21
-57.499722333
  0
LWPOLYLINE
  5
465
100
AcDbEntity
  8
RACCORDO
100
AcDbPolyline
 62
250
  6
CONTINUOUS
 90
3
 70
0
 10
88.6731307826
 20
-0.9504949088
 10
88.6690552793
 20
-0.8401284828
 10
88.6677280333
 20
-0.8010125976
  0
LINE
  5
466
100
AcDbEntity
  8
RACCORDO
100
AcDbLine
 62
250
  6
CONTINUOUS
 10
91.3072613239
 20
-57.499722333
 11
91.3016723857
 21
-57.3495533154
  0
LINE
  5
467
100
AcDbEntity
  8
RACCORDO
100
AcDbLine
 62
250
  6
CONTINUOUS
 10
91.3016723857
 20
-57.3495533154
 11
91.2971595493
 21
-57.209677782
  0
LINE
  5
468
100
AcDbEntity
  8
RACCORDO
100
AcDbLine
 62
250
  6
CONTINUOUS
 10
91.2971595493
 20
-57.209677782
 11
91.1160533801
 21
-51.100545479
  0
LINE
  5
469
100
AcDbEntity
  8
RACCORDO
100
AcDbLine
 62
250
  6
CONTINUOUS
 10
91.1160533801
 20
-51.100545479
 11
90.9902792249
 21
-46.5484017125
  0
LWPOLYLINE
  5
46A
100
AcDbEntity
  8
RACCORDO
100
AcDbPolyline
 62
250
  6
CONTINUOUS
 90
8
 70
0
 10
89.0995624367
 20
-14.784465256
 10
88.7113477941
 20
-1.6419180035
 10
88.7107873343
 20
-1.6200918276
 10
88.7101115634
 20
-1.5985905067
 10
88.7093138763
 20
-1.5773559908
 10
88.7084014229
 20
-1.5563477932
 10
88.7072559164
 20
-1.5353162318
 10
88.7057699764
 20
-1.5142320231
  0
LINE
  5
46B
100
AcDbEntity
  8
RACCORDO
100
AcDbLine
 62
250
  6
CONTINUOUS
 10
90.9902792249
 20
-46.5484017125
 11
90.8615665952
 21
-41.6410629695
  0
LINE
  5
46C
100
AcDbEntity
  8
RACCORDO
100
AcDbLine
 62
250
  6
CONTINUOUS
 10
90.8615665952
 20
-41.6410629695
 11
90.2860053553
 21
-18.5372733009
  0
LINE
  5
46D
100
AcDbEntity
  8
RACCORDO
100
AcDbLine
 62
250
  6
CONTINUOUS
 10
89.4016014853
 20
-26.7334153157
 11
89.0995624367
 21
-14.784465256
  0
LINE
  5
46E
100
AcDbEntity
  8
RACCORDO
100
AcDbLine
 62
250
  6
CONTINUOUS
 10
90.2860053553
 20
-18.5372733009
 11
90.1641204902
 21
-13.4436566152
  0
LINE
  5
46F
100
AcDbEntity
  8
RACCORDO
100
AcDbLine
 62
250
  6
CONTINUOUS
 10
89.9462946252
 20
-49.4294872188
 11
89.4016014853
 21
-26.7334153157
  0
LINE
  5
470
100
AcDbEntity
  8
RACCORDO
100
AcDbLine
 62
250
  6
CONTINUOUS
 10
90.0996594755
 20
-57.450472808
 11
90.097152511
 21
-57.3356788794
  0
LINE
  5
471
100
AcDbEntity
  8
RACCORDO
100
AcDbLine
 62
250
  6
CONTINUOUS
 10
90.0551768012
 20
-55.0744931885
 11
89.9462946252
 21
-49.4294872188
  0
LINE
  5
472
100
AcDbEntity
  8
RACCORDO
100
AcDbLine
 62
250
  6
CONTINUOUS
 10
90.097152511
 20
-57.3356788794
 11
90.0551768012
 21
-55.0744931885
  0
LINE
  5
473
100
AcDbEntity
  8
RACCORDO
100
AcDbLine
 62
250
  6
CONTINUOUS
 10
90.0963987157
 20
-58.2313256656
 11
90.0949421115
 21
-58.1247629528
  0
LWPOLYLINE
  5
474
100
AcDbEntity
  8
RACCORDO
100
AcDbPolyline
 62
250
  6
CONTINUOUS
 90
3
 70
0
 10
90.0949421115
 20
-58.1247629528
 10
90.0940984331
 20
-58.0273340366
 10
90.0939430147
 20
-57.9968774491
  0
LWPOLYLINE
  5
475
100
AcDbEntity
  8
RACCORDO
100
AcDbPolyline
 62
250
  6
CONTINUOUS
 90
16
 70
0
 10
86.9941606418
 20
1.1290554718
 10
86.998057525
 20
1.2096421249
 10
87.0057754192
 20
1.2939893151
 10
87.017245002
 20
1.3813394848
 10
87.0323632554
 20
1.4709081054
 10
87.0509943913
 20
1.5618907235
 10
87.0729710705
 20
1.6534701858
 10
87.0980959063
 20
1.7448239787
 10
87.126143237
 20
1.8351316151
 10
87.1568611526
 20
1.9235820044
 10
87.1899737572
 20
2.0093807362
 10
87.2251836476
 20
2.0917572162
 10
87.2621745838
 20
2.1699715867
 10
87.3006143292
 20
2.2433213715
 10
87.340157635
 20
2.3111477859
 10
87.3804493408
 20
2.3728416524
  0
LWPOLYLINE
  5
476
100
AcDbEntity
  8
0
100
AcDbPolyline
 62
7
  6
CONTINUOUS
 90
22
 70
0
 10
69.5763717259
 20
-46.1454032722
 10
69.5844195659
 20
-46.1341926369
 10
69.5959883744
 20
-46.1119156063
 10
69.6035491216
 20
-46.0873450114
 10
69.6069669189
 20
-46.0607739737
 10
69.6061440953
 20
-46.0326287319
 10
69.6011952676
 20
-46.0034450744
 10
69.5922131369
 20
-45.9735518316
 10
69.5793787044
 20
-45.9434873144
 10
69.5633217004
 20
-45.9141374078
 10
69.5446136463
 20
-45.8860108402
 10
69.5236079806
 20
-45.8592669789
 10
69.5008471189
 20
-45.8341796456
 10
69.4769080939
 20
-45.8110277681
 10
69.4520826599
 20
-45.7898035301
 10
69.4264062907
 20
-45.770310702
 10
69.4002505506
 20
-45.7526787614
 10
69.3738217394
 20
-45.7368914655
 10
69.3467562993
 20
-45.7226507195
 10
69.3190448812
 20
-45.7099803616
 10
69.291097164
 20
-45.699100359
 10
69.2631244666
 20
-45.6900977661
  0
LINE
  5
477
100
AcDbEntity
  8
0
100
AcDbLine
 62
7
  6
CONTINUOUS
 10
69.302549651
 20
-45.3236062815
 11
69.3162277942
 21
-45.3064656586
  0
LINE
  5
478
100
AcDbEntity
  8
0
100
AcDbLine
 62
7
  6
CONTINUOUS
 10
69.3129051595
 20
-46.1919598697
 11
69.3266339479
 21
-46.1747557813
  0
LINE
  5
479
100
AcDbEntity
  8
0
100
AcDbLine
 62
7
  6
CONTINUOUS
 10
68.8138999369
 20
-47.1732613872
 11
68.8276765686
 21
-47.1559973445
  0
LINE
  5
47A
100
AcDbEntity
  8
0
100
AcDbLine
 62
7
  6
CONTINUOUS
 10
70.1049633451
 20
-46.455054164
 11
70.0912166896
 21
-46.4722806424
  0
LINE
  5
47B
100
AcDbEntity
  8
0
100
AcDbLine
 62
7
  6
CONTINUOUS
 10
70.3957661718
 20
-47.6101359329
 11
70.4095705322
 21
-47.5928371422
  0
LINE
  5
47C
100
AcDbEntity
  8
0
100
AcDbLine
 62
7
  6
CONTINUOUS
 10
92.7307070141
 20
-23.9512703856
 11
91.7322422436
 21
-25.1967272824
  0
LWPOLYLINE
  5
47D
100
AcDbEntity
  8
0
100
AcDbPolyline
 62
7
  6
CONTINUOUS
 90
9
 70
0
 10
70.0912187175
 20
-46.4722781011
 10
70.0829372987
 20
-46.482262394
 10
70.0476671756
 20
-46.5177306307
 10
70.0065797301
 20
-46.5489353175
 10
69.9600967827
 20
-46.5754069961
 10
69.9090040817
 20
-46.5967584685
 10
69.8539644306
 20
-46.6128824939
 10
69.7953653129
 20
-46.6237844492
 10
69.7337358303
 20
-46.6294698578
  0
LINE
  5
47E
100
AcDbEntity
  8
0
100
AcDbLine
 62
7
  6
CONTINUOUS
 10
91.8672587604
 20
-30.6241787957
 11
92.872473482
 21
-29.6500593156
  0
LINE
  5
47F
100
AcDbEntity
  8
0
100
AcDbLine
 62
7
  6
CONTINUOUS
 10
91.7322422436
 20
-25.1967272824
 11
91.8672587604
 21
-30.6241787957
  0
LINE
  5
480
100
AcDbEntity
  8
0
100
AcDbLine
 62
7
  6
CONTINUOUS
 10
93.5152489794
 20
-55.4886228501
 11
92.872473482
 21
-29.6500593156
  0
LINE
  5
481
100
AcDbEntity
  8
0
100
AcDbLine
 62
7
  6
CONTINUOUS
 10
92.7307070141
 20
-23.9512703856
 11
92.0879315167
 21
1.8872931488
  0
LINE
  5
482
100
AcDbEntity
  8
RACCORDO
100
AcDbLine
 62
250
  6
CONTINUOUS
 10
90.1641204902
 20
-13.4436566152
 11
90.0527251843
 21
-8.4994882588
  0
LINE
  5
483
100
AcDbEntity
  8
RACCORDO
100
AcDbLine
 62
250
  6
CONTINUOUS
 10
90.0527251843
 20
-8.4994882588
 11
89.968364831
 21
-4.453388903
  0
LINE
  5
484
100
AcDbEntity
  8
RACCORDO
100
AcDbLine
 62
250
  6
CONTINUOUS
 10
89.968364831
 20
-4.453388903
 11
89.9032788362
 21
-1.1436871754
  0
LINE
  5
485
100
AcDbEntity
  8
RACCORDO
100
AcDbLine
 62
250
  6
CONTINUOUS
 10
89.9032788362
 20
-1.1436871754
 11
89.9012515018
 21
-0.9931867174
  0
LINE
  5
486
100
AcDbEntity
  8
RACCORDO
100
AcDbLine
 62
250
  6
CONTINUOUS
 10
89.9012515018
 20
-0.9931867174
 11
89.8993831607
 21
-0.7801540194
  0
LINE
  5
487
100
AcDbEntity
  8
RACCORDO
100
AcDbLine
 62
250
  6
CONTINUOUS
 10
89.8993831607
 20
-0.7801540194
 11
89.8983983123
 21
-0.5381627172
  0
LINE
  5
488
100
AcDbEntity
  8
RACCORDO
100
AcDbLine
 62
250
  6
CONTINUOUS
 10
90.0939430147
 20
-57.9968774491
 11
90.0938148666
 21
-57.9114634335
  0
LINE
  5
489
100
AcDbEntity
  8
RACCORDO
100
AcDbLine
 62
250
  6
CONTINUOUS
 10
90.0938148666
 20
-57.9114634335
 11
90.094123692
 21
-57.8343843012
  0
LINE
  5
48A
100
AcDbEntity
  8
RACCORDO
100
AcDbLine
 62
250
  6
CONTINUOUS
 10
90.094123692
 20
-57.8343843012
 11
90.0947942467
 21
-57.7640381889
  0
LINE
  5
48B
100
AcDbEntity
  8
RACCORDO
100
AcDbLine
 62
250
  6
CONTINUOUS
 10
90.0947942467
 20
-57.7640381889
 11
90.0958069438
 21
-57.6985940531
  0
LWPOLYLINE
  5
48C
100
AcDbEntity
  8
RACCORDO
100
AcDbPolyline
 62
250
  6
CONTINUOUS
 90
6
 70
0
 10
90.0999294244
 20
-57.5545282577
 10
90.1003719878
 20
-57.5340381007
 10
90.100464167
 20
-57.5134379602
 10
90.1003180735
 20
-57.49276858
 10
90.1000515678
 20
-57.4717983569
 10
90.0996594755
 20
-57.450472808
  0
LINE
  5
48D
100
AcDbEntity
  8
RACCORDO
100
AcDbLine
 62
250
  6
CONTINUOUS
 10
90.0958069438
 20
-57.6985940531
 11
90.0967045257
 21
-57.6567955698
  0
LINE
  5
48E
100
AcDbEntity
  8
RACCORDO
100
AcDbLine
 62
250
  6
CONTINUOUS
 10
90.0967045257
 20
-57.6567955698
 11
90.0999294244
 21
-57.5545282577
  0
LWPOLYLINE
  5
48F
100
AcDbEntity
  8
RACCORDO
100
AcDbPolyline
 62
250
  6
CONTINUOUS
 90
10
 70
0
 10
90.9737936705
 20
-58.9434191511
 10
91.0319968064
 20
-58.8756910385
 10
91.1043965137
 20
-58.7757441514
 10
91.1670426629
 20
-58.6689916078
 10
91.2196672459
 20
-58.5559037038
 10
91.262044743
 20
-58.4369711061
 10
91.2939548023
 20
-58.3127626244
 10
91.3152495361
 20
-58.183839365
 10
91.3258514902
 20
-58.0507502446
 10
91.325715775
 20
-57.9140787149
  0
LWPOLYLINE
  5
490
100
AcDbEntity
  8
0
100
AcDbPolyline
 62
7
  6
CONTINUOUS
 90
11
 70
0
 10
93.1219310521
 20
-56.6163873051
 10
93.1861997972
 20
-56.5417155868
 10
93.2568870059
 20
-56.4453550399
 10
93.3196642545
 20
-56.3426689791
 10
93.373897864
 20
-56.2346939263
 10
93.419501303
 20
-56.1213763137
 10
93.4565611031
 20
-56.0027697091
 10
93.4847031792
 20
-55.8800713379
 10
93.5038028365
 20
-55.7536802752
 10
93.5139847699
 20
-55.6231974459
 10
93.5152489794
 20
-55.4886228501
  0
LINE
  5
491
100
AcDbEntity
  8
RACCORDO
100
AcDbLine
 62
250
  6
CONTINUOUS
 10
91.3257157749
 20
-57.9140787149
 11
93.5152489793
 21
-55.4886228495
  0
LINE
  5
492
100
AcDbEntity
  8
RACCORDO
100
AcDbLine
 62
7
  6
CONTINUOUS
 10
90.9730682453
 20
-58.9442056429
 11
90.9737936705
 21
-58.9434191511
  0
LINE
  5
493
100
AcDbEntity
  8
SUPERFICI
100
AcDbLine
 62
7
  6
CONTINUOUS
 10
93.1220424274
 20
-56.6162666685
 11
90.9730697071
 21
-58.9442040594
  0
ARC
  5
494
100
AcDbEntity
  8
RACCORDO
100
AcDbCircle
 62
7
  6
CONTINUOUS
 10
63.7899367577
 20
-38.3602744448
 40
0.3
100
AcDbArc
 50
325.0712443742
 51
1.4297354844
  0
ARC
  5
495
100
AcDbEntity
  8
RACCORDO
100
AcDbCircle
 62
7
  6
CONTINUOUS
 10
43.7498711601
 20
-32.206164447
 40
0.3
100
AcDbArc
 50
325.0712443742
 51
1.4297354844
  0
ARC
  5
496
100
AcDbEntity
  8
RACCORDO
100
AcDbCircle
 62
7
  6
CONTINUOUS
 10
23.7098055624
 20
-26.0520544493
 40
0.3
100
AcDbArc
 50
325.0750861565
 51
1.4250300306
  0
ARC
  5
497
100
AcDbEntity
  8
RACCORDO
100
AcDbCircle
 62
7
  6
CONTINUOUS
 10
3.6697399648
 20
-19.8979444515
 40
0.3
100
AcDbArc
 50
325.0750861564
 51
1.4250300306
  0
ARC
  5
498
100
AcDbEntity
  8
RACCORDO
100
AcDbCircle
 62
7
  6
CONTINUOUS
 10
-16.3703256329
 20
-13.7438344538
 40
0.3
100
AcDbArc
 50
325.0750861565
 51
1.4250300306
  0
ARC
  5
499
100
AcDbEntity
  8
RACCORDO
100
AcDbCircle
 62
7
  6
CONTINUOUS
 10
-36.4103912306
 20
-7.589724456
 40
0.3
100
AcDbArc
 50
325.0750861564
 51
1.4250300306
  0
ARC
  5
49A
100
AcDbEntity
  8
RACCORDO
100
AcDbCircle
 62
7
  6
CONTINUOUS
 10
-56.4504568282
 20
-1.4356144583
 40
0.3
100
AcDbArc
 50
325.0712443742
 51
1.4297354844
  0
ELLIPSE
  5
49B
100
AcDbEntity
  8
RACCORDO
100
AcDbEllipse
 62
7
  6
CONTINUOUS
 10
58.7544526059
 20
-36.2753271204
 30
0.0
 11
0.0993376304
 21
0.2832828308
 31
0.0
 40
0.3985724632
 41
0.7076711624
 42
0.76003104
  0
ELLIPSE
  5
49C
100
AcDbEntity
  8
RACCORDO
100
AcDbEllipse
 62
7
  6
CONTINUOUS
 10
-61.4859409801
 20
0.6493328661
 30
0.0
 11
0.0993376304
 21
0.2832828308
 31
0.0
 40
0.3985724632
 41
0.7076711624
 42
0.76003104
  0
ELLIPSE
  5
49D
100
AcDbEntity
  8
RACCORDO
100
AcDbEllipse
 62
7
  6
CONTINUOUS
 10
64.0440026727
 20
-37.899696701
 30
0.0
 11
0.0774387118
 21
0.2900233438
 31
0.0
 40
0.3268599536
 41
0.6798851829
 42
0.7322450604
  0
ELLIPSE
  5
49E
100
AcDbEntity
  8
RACCORDO
100
AcDbEllipse
 62
7
  6
CONTINUOUS
 10
-56.1963909132
 20
-0.9750367145
 30
0.0
 11
0.0774387118
 21
0.2900233438
 31
0.0
 40
0.3268599536
 41
0.6798851829
 42
0.7322450604
  0
ENDSEC
  0
SECTION
  2
OBJECTS
  0
DICTIONARY
  5
C
100
AcDbDictionary
280
0
281
1
  3
ACAD_GROUP
350
D
  3
ACAD_MLINESTYLE
350
17
  3
ACAD_LAYOUT
350
1A
  3
ACAD_PLOTSETTINGS
350
19
  3
ACAD_PLOTSTYLENAME
350
E
  0
DICTIONARY
  5
D
102
{ACAD_REACTORS
330
C
102
}
100
AcDbDictionary
280
0
281
1
  0
ACDBDICTIONARYWDFLT
  5
E
102
{ACAD_REACTORS
330
C
102
}
100
AcDbDictionary
281
1
  3
Normal
350
F
100
AcDbDictionaryWithDefault
340
F
  0
DICTIONARY
  5
17
102
{ACAD_REACTORS
330
C
102
}
100
AcDbDictionary
280
0
281
1
  3
Standard
350
18
  0
DICTIONARY
  5
19
102
{ACAD_REACTORS
330
C
102
}
100
AcDbDictionary
281
1
  0
DICTIONARY
  5
1A
102
{ACAD_REACTORS
330
C
102
}
100
AcDbDictionary
281
1
  3
Model
350
49F
  3
Layout1
350
4A0
  0
ACDBPLACEHOLDER
  5
F
102
{ACAD_REACTORS
330
E
102
}
  0
MLINESTYLE
  5
18
102
{ACAD_REACTORS
330
17
102
}
100
AcDbMlineStyle
  2
STANDARD
 70
0
  3

 62
256
 51
90.0
 52
90.0
 71
2
 49
0.5
 62
256
  6
BYLAYER
 49
-0.5
 62
256
  6
BYLAYER
  0
LAYOUT
  5
49F
102
{ACAD_REACTORS
330
1A
102
}
100
AcDbPlotSettings
  1

  2
none_device
  4
ISO_A4_(297.00_x_210.00_MM)
  6

 40
0.0
 41
0.0
 42
0.0
 43
0.0
 44
297.0
 45
210.0
 46
0.0
 47
0.0
 48
0.0
 49
0.0
140
0.0
141
0.0
142
1.0
143
1.0
 70
1024
 72
1
 73
0
 74
0
  7

 75
0
147
1.0
148
0.0
149
0.0
100
AcDbLayout
  1
Model
 70
0
 71
0
 10
0.0
 20
0.0
 11
297.0
 21
210.0
 12
0.0
 22
0.0
 32
0.0
 14
0.0
 24
0.0
 34
0.0
 15
0.0
 25
0.0
 35
0.0
146
0.0
 13
0.0
 23
0.0
 33
0.0
 16
1.0
 26
0.0
 36
0.0
 17
0.0
 27
1.0
 37
0.0
 76
0
330
212
345
0
346
0
  0
LAYOUT
  5
4A0
102
{ACAD_REACTORS
330
1A
102
}
100
AcDbPlotSettings
  1

  2
none_device
  4
ISO_A4_(297.00_x_210.00_MM)
  6

 40
0.0
 41
0.0
 42
0.0
 43
0.0
 44
297.0
 45
210.0
 46
0.0
 47
0.0
 48
0.0
 49
0.0
140
0.0
141
0.0
142
1.0
143
1.0
 70
0
 72
1
 73
0
 74
0
  7

 75
0
147
1.0
148
0.0
149
0.0
100
AcDbLayout
  1
Layout1
 70
0
 71
1
 10
0.0
 20
0.0
 11
297.0
 21
210.0
 12
0.0
 22
0.0
 32
0.0
 14
0.0
 24
0.0
 34
0.0
 15
0.0
 25
0.0
 35
0.0
146
0.0
 13
0.0
 23
0.0
 33
0.0
 16
1.0
 26
0.0
 36
0.0
 17
0.0
 27
1.0
 37
0.0
 76
0
330
213
345
0
346
0
  0
ENDSEC
  0
EOF
