  0
SECTION
  2
HEADER
  9
$ACADVER
  1
AC1024
  9
$DWGCODEPAGE
  3
ANSI_1252
  9
$EXTMAX
 10
297.0
 20
210.0
 30
0.0
  9
$EXTMIN
 10
0.0
 20
0.0
 30
0.0
  9
$LIMMIN
 10
0.0
 20
0.0
  9
$LIMMAX
 10
297.0
 20
210.0
  9
$VIEWCTR
 10
148.5
 20
105.0
  9
$VIEWSIZE
 40
210.0
  9
$CLAYER
  8
0
  9
$LTSCALE
 40
16.335
  9
$CELTYPE
  6
BYLAYER
  9
$DIMSCALE
 40
1.0
  9
$DIMASZ
 40
3.0
  9
$DIMEXO
 40
0.5
  9
$DIMDLI
 40
11.286
  9
$DIMEXE
 40
1.5
  9
$DIMCEN
 40
2.673
  9
$DIMLFAC
 40
1.0
  9
$DIMBLK
  1
_FILLED
  9
$DIMALT
 70
0
  9
$DIMALTF
 40
0.0393700787
  9
$DIMTXT
 40
3.0
  9
$DIMTOL
 70
1
  9
$DIMLIM
 70
0
  9
$DIMTFAC
 40
1.0
  9
$DIMTP
 40
0.01
  9
$DIMTM
 40
0.01
  9
$DIMGAP
 40
0.625
  9
$DIMDSEP
 70
44
  9
$AUNITS
 70
0
  9
$PDMODE
 70
3
  9
$PDSIZE
 40
3.0
  9
$HANDSEED
  5
430
  9
$TILEMODE
 70
1
  9
$MEASUREMENT
 70
1
  9
$INSUNITS
 70
4
  0
ENDSEC
  0
SECTION
  2
CLASSES
  0
CLASS
  1
ACDBDICTIONARYWDFLT
  2
AcDbDictionaryWithDefault
  3
AutoCAD 2000
 90
0
 91
1
280
0
281
0
  0
CLASS
  1
ACDBPLACEHOLDER
  2
AcDbPlaceHolder
  3
AutoCAD 2000
 90
0
 91
1
280
0
281
0
  0
CLASS
  1
LAYOUT
  2
AcDbLayout
  3
AutoCAD 2000
 90
0
 91
0
280
0
281
0
  0
ENDSEC
  0
SECTION
  2
TABLES
  0
TABLE
  2
VPORT
  5
8
100
AcDbSymbolTable
 70
2
  0
VPORT
  5
1F4
100
AcDbSymbolTableRecord
100
AcDbViewportTableRecord
  2
*ACTIVE
 70
0
 10
0.0
 20
0.0
 11
1.0
 21
1.0
 12
148.5
 22
105.0
 13
0.0
 23
0.0
 14
1.0
 24
1.0
 15
0.0
 25
0.0
 16
0.0
 26
0.0
 36
1.0
 17
0.0
 27
0.0
 37
0.0
 40
210.0
 41
1.4142857143
 42
50.0
 43
0.0
 44
0.0
 50
0.0
 51
0.0
 71
0
 72
100
 73
1
 74
1
 75
0
 76
0
 77
0
 78
0
  0
ENDTAB
  0
TABLE
  2
LTYPE
  5
5
100
AcDbSymbolTable
 70
6
  0
LTYPE
  5
14
100
AcDbSymbolTableRecord
100
AcDbLinetypeTableRecord
  2
BYBLOCK
 70
0
  3

 72
65
 73
0
 40
0.0
  0
LTYPE
  5
15
100
AcDbSymbolTableRecord
100
AcDbLinetypeTableRecord
  2
BYLAYER
 70
0
  3

 72
65
 73
0
 40
0.0
  0
LTYPE
  5
16
100
AcDbSymbolTableRecord
100
AcDbLinetypeTableRecord
  2
CONTINUOUS
 70
64
  3
Solid line
 72
65
 73
0
 40
0.0
  0
LTYPE
  5
1F5
100
AcDbSymbolTableRecord
100
AcDbLinetypeTableRecord
  2
CENTER
 70
64
  3
____ _ ____ _ ____ _ ____ _ ____ _ ____ _ ____
 72
65
 73
4
 40
0.6
 49
0.375
 74
0
 49
-0.075
 74
0
 49
0.075
 74
0
 49
-0.075
 74
0
  0
LTYPE
  5
1F6
100
AcDbSymbolTableRecord
100
AcDbLinetypeTableRecord
  2
HIDDEN
 70
64
  3
- - - - - - - - - - - - - - - - - - - -
 72
65
 73
2
 40
0.2
 49
0.1
 74
0
 49
-0.1
 74
0
  0
LTYPE
  5
1F7
100
AcDbSymbolTableRecord
100
AcDbLinetypeTableRecord
  2
PHANTOM
 70
64
  3
_____ _ _ _____ _ _ _____ _ _ _____
 72
65
 73
6
 40
0.8
 49
0.45
 74
0
 49
-0.05
 74
0
 49
0.1
 74
0
 49
-0.05
 74
0
 49
0.1
 74
0
 49
-0.05
 74
0
  0
LTYPE
  5
1F8
100
AcDbSymbolTableRecord
100
AcDbLinetypeTableRecord
  2
DOT
 70
64
  3
. . . . . . . . . . . . . . . . . . . .
 72
65
 73
2
 40
0.2
 49
0.1
 74
0
 49
-0.1
 74
0
  0
LTYPE
  5
1F9
100
AcDbSymbolTableRecord
100
AcDbLinetypeTableRecord
  2
DASHED
 70
64
  3
- - - - - - - - - - - - - - - - - - - -
 72
65
 73
2
 40
0.2
 49
0.1
 74
0
 49
-0.1
 74
0
  0
ENDTAB
  0
TABLE
  2
LAYER
  5
2
100
AcDbSymbolTable
 70
36
  0
LAYER
  5
10
100
AcDbSymbolTableRecord
100
AcDbLayerTableRecord
  2
0
 70
0
 62
7
  6
CONTINUOUS
370
-3
390
F
  0
LAYER
  5
1FA
100
AcDbSymbolTableRecord
100
AcDbLayerTableRecord
  2
DEFAULT_1
 70
0
 62
7
  6
CENTER
370
-3
390
F
  0
LAYER
  5
1FB
100
AcDbSymbolTableRecord
100
AcDbLayerTableRecord
  2
DEFAULT_2
 70
0
 62
7
  6
HIDDEN
370
-3
390
F
  0
LAYER
  5
1FC
100
AcDbSymbolTableRecord
100
AcDbLayerTableRecord
  2
DEFAULT_3
 70
0
 62
7
  6
PHANTOM
370
-3
390
F
  0
LAYER
  5
1FD
100
AcDbSymbolTableRecord
100
AcDbLayerTableRecord
  2
ASSI
 70
0
 62
7
  6
CONTINUOUS
370
-3
390
F
  0
LAYER
  5
1FE
100
AcDbSymbolTableRecord
100
AcDbLayerTableRecord
  2
COORDINATE
 70
0
 62
7
  6
CONTINUOUS
370
-3
390
F
  0
LAYER
  5
1FF
100
AcDbSymbolTableRecord
100
AcDbLayerTableRecord
  2
COPY_PUBLISH
 70
0
 62
7
  6
CONTINUOUS
370
-3
390
F
  0
LAYER
  5
200
100
AcDbSymbolTableRecord
100
AcDbLayerTableRecord
  2
COSMETICI
 70
0
 62
7
  6
CONTINUOUS
370
-3
390
F
  0
LAYER
  5
201
100
AcDbSymbolTableRecord
100
AcDbLayerTableRecord
  2
CURVE
 70
0
 62
7
  6
CONTINUOUS
370
-3
390
F
  0
LAYER
  5
202
100
AcDbSymbolTableRecord
100
AcDbLayerTableRecord
  2
DRAFT
 70
0
 62
7
  6
CONTINUOUS
370
-3
390
F
  0
LAYER
  5
203
100
AcDbSymbolTableRecord
100
AcDbLayerTableRecord
  2
IMPORT_IGES
 70
0
 62
7
  6
CONTINUOUS
370
-3
390
F
  0
LAYER
  5
204
100
AcDbSymbolTableRecord
100
AcDbLayerTableRecord
  2
INTFCLR
 70
0
 62
7
  6
CONTINUOUS
370
-3
390
F
  0
LAYER
  5
205
100
AcDbSymbolTableRecord
100
AcDbLayerTableRecord
  2
INTFCLR_17
 70
0
 62
7
  6
CONTINUOUS
370
-3
390
F
  0
LAYER
  5
206
100
AcDbSymbolTableRecord
100
AcDbLayerTableRecord
  2
INTF_1
 70
0
 62
7
  6
CONTINUOUS
370
-3
390
F
  0
LAYER
  5
207
100
AcDbSymbolTableRecord
100
AcDbLayerTableRecord
  2
INTF_11
 70
0
 62
7
  6
CONTINUOUS
370
-3
390
F
  0
LAYER
  5
208
100
AcDbSymbolTableRecord
100
AcDbLayerTableRecord
  2
INTF_2
 70
0
 62
7
  6
CONTINUOUS
370
-3
390
F
  0
LAYER
  5
209
100
AcDbSymbolTableRecord
100
AcDbLayerTableRecord
  2
INTF_5
 70
0
 62
7
  6
CONTINUOUS
370
-3
390
F
  0
LAYER
  5
20A
100
AcDbSymbolTableRecord
100
AcDbLayerTableRecord
  2
INTF_YELLOW
 70
0
 62
7
  6
CONTINUOUS
370
-3
390
F
  0
LAYER
  5
20B
100
AcDbSymbolTableRecord
100
AcDbLayerTableRecord
  2
NONE
 70
0
 62
7
  6
CONTINUOUS
370
-3
390
F
  0
LAYER
  5
20C
100
AcDbSymbolTableRecord
100
AcDbLayerTableRecord
  2
NOTE
 70
0
 62
7
  6
CONTINUOUS
370
-3
390
F
  0
LAYER
  5
20D
100
AcDbSymbolTableRecord
100
AcDbLayerTableRecord
  2
PIANI
 70
0
 62
7
  6
CONTINUOUS
370
-3
390
F
  0
LAYER
  5
20E
100
AcDbSymbolTableRecord
100
AcDbLayerTableRecord
  2
POSIZIONE_SCRITTE
 70
0
 62
7
  6
CONTINUOUS
370
-3
390
F
  0
LAYER
  5
20F
100
AcDbSymbolTableRecord
100
AcDbLayerTableRecord
  2
PUNTI
 70
0
 62
7
  6
CONTINUOUS
370
-3
390
F
  0
LAYER
  5
210
100
AcDbSymbolTableRecord
100
AcDbLayerTableRecord
  2
RACCORDO
 70
0
 62
7
  6
CONTINUOUS
370
-3
390
F
  0
LAYER
  5
211
100
AcDbSymbolTableRecord
100
AcDbLayerTableRecord
  2
RGB____0____0____0__
 70
0
 62
7
  6
CONTINUOUS
370
-3
390
F
  0
LAYER
  5
212
100
AcDbSymbolTableRecord
100
AcDbLayerTableRecord
  2
SIMBOLI
 70
0
 62
7
  6
CONTINUOUS
370
-3
390
F
  0
LAYER
  5
213
100
AcDbSymbolTableRecord
100
AcDbLayerTableRecord
  2
SMUSSO
 70
0
 62
7
  6
CONTINUOUS
370
-3
390
F
  0
LAYER
  5
214
100
AcDbSymbolTableRecord
100
AcDbLayerTableRecord
  2
SUPERFICI
 70
0
 62
7
  6
CONTINUOUS
370
-3
390
F
  0
LAYER
  5
215
100
AcDbSymbolTableRecord
100
AcDbLayerTableRecord
  2
TRASH
 70
0
 62
7
  6
CONTINUOUS
370
-3
390
F
  0
ENDTAB
  0
TABLE
  2
STYLE
  5
3
100
AcDbSymbolTable
 70
1
  0
STYLE
  5
11
100
AcDbSymbolTableRecord
100
AcDbTextStyleTableRecord
  2
STANDARD
 70
0
 40
0.0
 41
0.8
 50
0.0
 71
0
 42
0.2
  3
txt
  4

  0
STYLE
  5
216
100
AcDbSymbolTableRecord
100
AcDbTextStyleTableRecord
  2
TEXTSTYLE_1
 70
0
 40
0.0
 41
0.8
 50
0.0
 71
0
 42
0.2
  3
gdt
  4

  0
ENDTAB
  0
TABLE
  2
VIEW
  5
6
100
AcDbSymbolTable
 70
0
  0
ENDTAB
  0
TABLE
  2
UCS
  5
7
100
AcDbSymbolTable
 70
0
  0
ENDTAB
  0
TABLE
  2
APPID
  5
9
100
AcDbSymbolTable
 70
1
  0
APPID
  5
217
100
AcDbSymbolTableRecord
100
AcDbRegAppTableRecord
  2
ACAD
 70
0
  0
ENDTAB
  0
TABLE
  2
BLOCK_RECORD
  5
1
100
AcDbSymbolTable
 70
0
  0
BLOCK_RECORD
  5
218
100
AcDbSymbolTableRecord
100
AcDbBlockTableRecord
  2
*Model_Space
  0
BLOCK_RECORD
  5
219
100
AcDbSymbolTableRecord
100
AcDbBlockTableRecord
  2
*Paper_Space
  0
BLOCK_RECORD
  5
21A
100
AcDbSymbolTableRecord
100
AcDbBlockTableRecord
  2
_FILLED
  0
ENDTAB
  0
TABLE
  2
DIMSTYLE
  5
A
100
AcDbSymbolTable
 70
1
100
AcDbDimStyleTable
 71
0
  0
DIMSTYLE
105
21B
100
AcDbSymbolTableRecord
100
AcDbDimStyleTableRecord
  2
STANDARD
 70
0
  3

  4

 40
1.0
 41
3.0
 42
0.5
 43
0.38
 44
1.5
 45
0.0
 46
0.0
 47
0.01
 48
0.01
140
3.0
141
0.0
142
0.0
143
25.4
144
1.0
145
0.0
146
1.0
147
0.625
 71
1
 72
0
 73
0
 74
0
 75
0
 76
0
 77
1
 78
8
 79
2
170
0
171
1
172
0
173
0
174
0
175
0
176
0
177
0
178
0
270
2
179
2
271
2
272
2
273
2
274
2
275
0
280
0
281
0
282
0
283
1
284
8
285
0
286
0
287
3
288
0
340
11
278
44
341
21A
342
21A
343
21A
344
21A
  0
ENDTAB
  0
ENDSEC
  0
SECTION
  2
BLOCKS
  0
BLOCK
  5
20
100
AcDbEntity
  8
0
100
AcDbBlockBegin
  2
*Model_Space
 70
0
 10
0.0
 20
0.0
 30
0.0
  3
*Model_Space
  1

  0
ENDBLK
  5
21
100
AcDbEntity
  8
0
100
AcDbBlockEnd
  0
BLOCK
  5
1C
100
AcDbEntity
  8
0
100
AcDbBlockBegin
  2
*Paper_Space
 70
0
 10
0.0
 20
0.0
 30
0.0
  3
*Paper_Space
  1

  0
ENDBLK
  5
1D
100
AcDbEntity
  8
0
100
AcDbBlockEnd
  0
BLOCK
  5
21C
100
AcDbEntity
  8
0
100
AcDbBlockBegin
  2
_FILLED
 70
64
 10
0.0
 20
0.0
 30
0.0
  3
_FILLED
  1

  0
SOLID
  5
21D
100
AcDbEntity
  8
0
  6
BYBLOCK
 62
0
100
AcDbTrace
 10
0.0
 20
0.0
 30
0.0
 11
-1.0
 21
0.3166666667
 31
0.0
 12
-1.0
 22
-0.3166666667
 32
0.0
 13
-1.0
 23
-0.3166666667
 33
0.0
  0
ENDBLK
  5
21E
100
AcDbEntity
  8
0
  6
BYBLOCK
 62
0
100
AcDbBlockEnd
  0
ENDSEC
  0
SECTION
  2
ENTITIES
  0
LWPOLYLINE
  5
21F
100
AcDbEntity
  8
RACCORDO
100
AcDbPolyline
 62
7
  6
CONTINUOUS
 90
17
 70
0
 10
75.4078287682
 20
181.581312857
 10
75.3462789195
 20
181.5271409003
 10
75.27251976
 20
181.4539215754
 10
75.2022238234
 20
181.3744565648
 10
75.1356369122
 20
181.2889723034
 10
75.0729162826
 20
181.1976950176
 10
75.0140996109
 20
181.1007334283
 10
74.9592444878
 20
180.9981561845
 10
74.9084745472
 20
180.8900177062
 10
74.861932813
 20
180.7764624689
 10
74.8197244195
 20
180.6576720651
 10
74.7819227277
 20
180.5338534095
 10
74.7485844012
 20
180.4051305529
 10
74.7198050674
 20
180.2715660765
 10
74.6957110651
 20
180.1333332425
 10
74.6763947546
 20
179.9906696514
 10
74.6682794145
 20
179.9149629485
  0
LINE
  5
220
100
AcDbEntity
  8
SUPERFICI
100
AcDbLine
 62
7
  6
CONTINUOUS
 10
75.4073693168
 20
181.5809275985
 30
0.0
 11
77.3487068162
 21
183.1992769805
 31
0.0
  0
LINE
  5
221
100
AcDbEntity
  8
RACCORDO
100
AcDbLine
 62
7
  6
CONTINUOUS
 10
75.4073685085
 20
181.5809269246
 30
0.0
 11
75.4078061547
 21
181.5812915944
 31
0.0
  0
LWPOLYLINE
  5
222
100
AcDbEntity
  8
RACCORDO
100
AcDbPolyline
 62
7
  6
CONTINUOUS
 90
9
 70
0
 10
74.4907978246
 20
178.0899086892
 10
74.3488628094
 20
176.5332171016
 10
74.216233228
 20
174.9807161488
 10
74.0929159765
 20
173.4324854334
 10
73.9789175971
 20
171.8886062249
 10
73.8742441886
 20
170.3491590918
 10
73.7789014176
 20
168.8142248318
 10
73.6928944755
 20
167.2838846577
 10
73.6194301278
 20
165.8257804968
  0
LINE
  5
223
100
AcDbEntity
  8
RACCORDO
100
AcDbLine
 62
7
  6
CONTINUOUS
 10
74.668291194
 20
179.91508141
 30
0.0
 11
74.4907978246
 21
178.0899086892
 31
0.0
  0
LWPOLYLINE
  5
224
100
AcDbEntity
  8
RACCORDO
100
AcDbPolyline
 62
7
  6
CONTINUOUS
 90
9
 70
0
 10
73.6932513562
 20
127.7034035414
 10
73.7793159639
 20
126.2716775806
 10
73.8747211865
 20
124.8460703352
 10
73.9794623307
 20
123.426655259
 10
74.0935341481
 20
122.0135068397
 10
74.2169309913
 20
120.6066984199
 10
74.3496466597
 20
119.2063043689
 10
74.4916746493
 20
117.8123967042
 10
74.6360986851
 20
116.4864411499
  0
LINE
  5
225
100
AcDbEntity
  8
RACCORDO
100
AcDbLine
 62
7
  6
CONTINUOUS
 10
73.6128900702
 20
129.2142188705
 30
0.0
 11
73.6932513562
 21
127.7034035414
 31
0.0
  0
LINE
  5
226
100
AcDbEntity
  8
RACCORDO
100
AcDbLine
 62
250
  6
CONTINUOUS
 10
73.6782863831
 20
128.9811464401
 30
0.0
 11
73.6662480088
 21
129.2169555103
 31
0.0
  0
LWPOLYLINE
  5
227
100
AcDbEntity
  8
RACCORDO
100
AcDbPolyline
 62
7
  6
CONTINUOUS
 90
10
 70
0
 10
73.227764065
 20
147.2291907264
 10
73.2330107689
 20
144.9971859039
 10
73.2488159516
 20
142.7745469837
 10
73.2744243872
 20
140.6212680307
 10
73.3090568262
 20
138.5369603998
 10
73.3521403625
 20
136.5212965163
 10
73.4039399855
 20
134.5744492627
 10
73.4650424314
 20
132.6968421674
 10
73.5357331859
 20
130.8887464879
 10
73.6128900559
 20
129.2142191565
  0
LWPOLYLINE
  5
228
100
AcDbEntity
  8
RACCORDO
100
AcDbPolyline
 62
7
  6
CONTINUOUS
 90
9
 70
0
 10
73.5354807343
 20
163.9179401649
 10
73.4648329155
 20
162.0286917226
 10
73.4037730472
 20
160.0809115328
 10
73.3520027507
 20
158.0745404073
 10
73.3089550847
 20
156.0093572684
 10
73.274343621
 20
153.885227143
 10
73.2487638961
 20
151.7025223449
 10
73.2329849709
 20
149.4617397662
 10
73.227764065
 20
147.2291896815
  0
LINE
  5
229
100
AcDbEntity
  8
RACCORDO
100
AcDbLine
 62
250
  6
CONTINUOUS
 10
73.6717168798
 20
165.5831027732
 30
0.0
 11
73.6782863837
 21
165.722308776
 31
0.0
  0
LINE
  5
22A
100
AcDbEntity
  8
RACCORDO
100
AcDbLine
 62
7
  6
CONTINUOUS
 10
73.6194301283
 20
165.8257805083
 30
0.0
 11
73.5354807343
 21
163.9179401649
 31
0.0
  0
LWPOLYLINE
  5
22B
100
AcDbEntity
  8
RACCORDO
100
AcDbPolyline
 62
7
  6
CONTINUOUS
 90
37
 70
0
 10
74.6686872757
 20
116.1966453572
 10
74.6768104591
 20
116.1289806985
 10
74.6952315842
 20
116.0018484323
 10
74.7179269073
 20
115.8727724716
 10
74.744775545
 20
115.742053078
 10
74.7756455402
 20
115.6099042757
 10
74.8104397204
 20
115.4764151609
 10
74.8490638311
 20
115.341808168
 10
74.8914251408
 20
115.2063346663
 10
74.937450363
 20
115.0701363422
 10
74.9869993021
 20
114.9334836962
 10
75.0399226015
 20
114.7966305024
 10
75.0961521167
 20
114.6596903444
 10
75.1555863489
 20
114.5229136517
 10
75.2181144287
 20
114.3865600816
 10
75.2836483002
 20
114.2507736564
 10
75.3520447439
 20
114.1158035517
 10
75.4231628802
 20
113.98189195
 10
75.4969377792
 20
113.8491781662
 10
75.5732374935
 20
113.7179144848
 10
75.6519089643
 20
113.5883479236
 10
75.732874811
 20
113.4606078596
 10
75.8159991323
 20
113.3349355065
 10
75.9011449656
 20
113.2115873208
 10
75.9882335953
 20
113.0907075593
 10
76.077101145
 20
112.9725333628
 10
76.1675904128
 20
112.8572717104
 10
76.2596382744
 20
112.7450469286
 10
76.3531091267
 20
112.6361169213
 10
76.4478427656
 20
112.5307406187
 10
76.5437585891
 20
112.4290520298
 10
76.6406919813
 20
112.3312604459
 10
76.7385027595
 20
112.2375633418
 10
76.8371679374
 20
112.1480934343
 10
76.9365741439
 20
112.063074319
 10
77.0365265079
 20
111.9827669739
 10
77.0866013327
 20
111.9444918847
  0
LINE
  5
22C
100
AcDbEntity
  8
RACCORDO
100
AcDbLine
 62
7
  6
CONTINUOUS
 10
74.636098679
 20
116.4864412045
 30
0.0
 11
74.6687102465
 21
116.1964408051
 31
0.0
  0
LINE
  5
22D
100
AcDbEntity
  8
RACCORDO
100
AcDbLine
 62
250
  6
CONTINUOUS
 10
74.7056076769
 20
116.2920718108
 30
0.0
 11
74.6832108355
 21
116.4915611009
 31
0.0
  0
LINE
  5
22E
100
AcDbEntity
  8
RACCORDO
100
AcDbLine
 62
7
  6
CONTINUOUS
 10
91.7799216647
 20
153.4460959346
 30
0.0
 11
91.7799216647
 21
119.7594212304
 31
0.0
  0
LINE
  5
22F
100
AcDbEntity
  8
RACCORDO
100
AcDbLine
 62
7
  6
CONTINUOUS
 10
197.4077543064
 20
60.7882349258
 30
0.0
 11
196.5863880745
 21
60.6103611969
 31
0.0
  0
LINE
  5
230
100
AcDbEntity
  8
0
100
AcDbLine
 62
7
  6
CONTINUOUS
 10
99.5557529679
 20
114.8615807278
 30
0.0
 11
99.600415174
 21
114.933801545
 31
0.0
  0
LINE
  5
231
100
AcDbEntity
  8
DRAFT
100
AcDbLine
 62
7
  6
CONTINUOUS
 10
99.8608728111
 20
114.9467382435
 30
0.0
 11
99.9724975127
 21
115.1272404593
 31
0.0
  0
LINE
  5
232
100
AcDbEntity
  8
DRAFT
100
AcDbLine
 62
7
  6
CONTINUOUS
 10
100.2329551497
 20
115.1401771577
 30
0.0
 11
100.3445798513
 21
115.3206793735
 31
0.0
  0
LINE
  5
233
100
AcDbEntity
  8
DRAFT
100
AcDbLine
 62
7
  6
CONTINUOUS
 10
100.6050374884
 20
115.333616072
 30
0.0
 11
100.71666219
 21
115.5141182878
 31
0.0
  0
LINE
  5
234
100
AcDbEntity
  8
DRAFT
100
AcDbLine
 62
7
  6
CONTINUOUS
 10
100.977119827
 20
115.5270549863
 30
0.0
 11
101.0887445286
 21
115.7075572021
 31
0.0
  0
LINE
  5
235
100
AcDbEntity
  8
RACCORDO
100
AcDbLine
 62
7
  6
CONTINUOUS
 10
105.3376629993
 20
112.71751842
 30
0.0
 11
105.3376629993
 21
113.2962314402
 31
0.0
  0
LINE
  5
236
100
AcDbEntity
  8
RACCORDO
100
AcDbLine
 62
7
  6
CONTINUOUS
 10
105.7228782708
 20
113.3171305158
 30
0.0
 11
105.7228782708
 21
113.7259490494
 31
0.0
  0
LWPOLYLINE
  5
237
100
AcDbEntity
  8
RACCORDO
100
AcDbPolyline
 62
7
  6
CONTINUOUS
 90
4
 70
0
 10
105.6580149133
 20
113.1570153786
 10
105.6640419048
 20
113.1717758042
 10
105.6689511252
 20
113.1868613262
 10
105.6721751058
 20
113.2001822652
  0
LINE
  5
238
100
AcDbEntity
  8
0
100
AcDbLine
 62
7
  6
CONTINUOUS
 10
103.9229304752
 20
112.3400271687
 30
0.0
 11
103.9631445062
 21
112.4148163064
 31
0.0
  0
LINE
  5
239
100
AcDbEntity
  8
DRAFT
100
AcDbLine
 62
7
  6
CONTINUOUS
 10
104.197661616
 20
112.4427307402
 30
0.0
 11
104.2981689487
 21
112.6296519855
 31
0.0
  0
LINE
  5
23A
100
AcDbEntity
  8
DRAFT
100
AcDbLine
 62
7
  6
CONTINUOUS
 10
104.5326860585
 20
112.6575664193
 30
0.0
 11
104.6331933913
 21
112.8444876645
 31
0.0
  0
LINE
  5
23B
100
AcDbEntity
  8
DRAFT
100
AcDbLine
 62
7
  6
CONTINUOUS
 10
104.867710501
 20
112.8724020983
 30
0.0
 11
104.9682178338
 21
113.0593233436
 31
0.0
  0
LINE
  5
23C
100
AcDbEntity
  8
DRAFT
100
AcDbLine
 62
7
  6
CONTINUOUS
 10
105.2027349436
 20
113.0872377774
 30
0.0
 11
105.3032422763
 21
113.2741590226
 31
0.0
  0
LINE
  5
23D
100
AcDbEntity
  8
RACCORDO
100
AcDbLine
 62
250
  6
CONTINUOUS
 10
105.7228782708
 20
113.3171305158
 30
0.0
 11
105.3376629993
 21
112.717003388
 31
0.0
  0
LINE
  5
23E
100
AcDbEntity
  8
RACCORDO
100
AcDbLine
 62
7
  6
CONTINUOUS
 10
105.7069526135
 20
113.2543621677
 30
0.0
 11
105.320096203
 21
112.6516783082
 31
0.0
  0
LINE
  5
23F
100
AcDbEntity
  8
RACCORDO
100
AcDbLine
 62
7
  6
CONTINUOUS
 10
105.3376629993
 20
113.2962314402
 30
0.0
 11
105.6457294867
 21
113.7704780084
 31
0.0
  0
LINE
  5
240
100
AcDbEntity
  8
RACCORDO
100
AcDbLine
 62
7
  6
CONTINUOUS
 10
181.6079329495
 20
69.7067361898
 30
0.0
 11
180.6764854978
 21
69.5924219776
 31
0.0
  0
LWPOLYLINE
  5
241
100
AcDbEntity
  8
RACCORDO
100
AcDbPolyline
 62
7
  6
CONTINUOUS
 90
17
 70
0
 10
218.8926217802
 20
30.0668735733
 10
218.9678793766
 20
30.0343164628
 10
219.1019304177
 20
29.9808501389
 10
219.2345979578
 20
29.9337415728
 10
219.365629353
 20
29.893025347
 10
219.4948053584
 20
29.8586755011
 10
219.6220142716
 20
29.8306408262
 10
219.7471185158
 20
29.8089294391
 10
219.8698929511
 20
29.7935795841
 10
219.9901133727
 20
29.7845885557
 10
220.1075766467
 20
29.7818933146
 10
220.2221549175
 20
29.7854154016
 10
220.3337796439
 20
29.7951265368
 10
220.4423141717
 20
29.8110376138
 10
220.547487356
 20
29.8331274624
 10
220.6489876664
 20
29.8612796693
 10
220.7224484322
 20
29.886245042
  0
LWPOLYLINE
  5
242
100
AcDbEntity
  8
RACCORDO
100
AcDbPolyline
 62
7
  6
CONTINUOUS
 90
13
 70
0
 10
77.3377810607
 20
111.7552859363
 10
78.7485915915
 20
110.7050324829
 10
80.2652514873
 20
109.6017521102
 10
81.844382628
 20
108.4803582578
 10
83.4876436378
 20
107.3419122367
 10
85.196691439
 20
106.1875089121
 10
86.9732251017
 20
105.0182902627
 10
88.8190118669
 20
103.835514126
 10
90.7358221685
 20
102.6405138636
 10
92.7234201354
 20
101.4336568439
 10
94.7768625986
 20
100.2128649863
 10
96.8899203509
 20
98.9747293881
 10
98.9987319071
 20
97.7482528276
  0
LINE
  5
243
100
AcDbEntity
  8
RACCORDO
100
AcDbLine
 62
250
  6
CONTINUOUS
 10
77.3669277829
 20
111.7941649487
 30
0.0
 11
77.2823595539
 21
111.8575638501
 31
0.0
  0
LINE
  5
244
100
AcDbEntity
  8
RACCORDO
100
AcDbLine
 62
7
  6
CONTINUOUS
 10
77.0864173032
 20
111.9446305096
 30
0.0
 11
77.3377809367
 21
111.7552860297
 31
0.0
  0
LWPOLYLINE
  5
245
100
AcDbEntity
  8
RACCORDO
100
AcDbPolyline
 62
7
  6
CONTINUOUS
 90
7
 70
0
 10
105.6097621685
 20
113.085794125
 10
105.6115119204
 20
113.0876498026
 10
105.6227558824
 20
113.1005028113
 10
105.6329988721
 20
113.1138437098
 10
105.6423046525
 20
113.1277080586
 10
105.6507629063
 20
113.1422902276
 10
105.6580149133
 20
113.1570153786
  0
LINE
  5
246
100
AcDbEntity
  8
RACCORDO
100
AcDbLine
 62
250
  6
CONTINUOUS
 10
104.5396433073
 20
111.9839449087
 30
0.0
 11
104.9130962224
 21
112.3761643293
 31
0.0
  0
LINE
  5
247
100
AcDbEntity
  8
RACCORDO
100
AcDbLine
 62
7
  6
CONTINUOUS
 10
104.5531872217
 20
111.9761248223
 30
0.0
 11
104.9684341093
 21
112.4122384138
 31
0.0
  0
LINE
  5
248
100
AcDbEntity
  8
RACCORDO
100
AcDbLine
 62
7
  6
CONTINUOUS
 10
105.5759690497
 20
113.0503027864
 30
0.0
 11
105.609766359
 21
113.0857984551
 31
0.0
  0
LINE
  5
249
100
AcDbEntity
  8
RACCORDO
100
AcDbLine
 62
250
  6
CONTINUOUS
 10
104.3660822089
 20
112.0841569117
 30
0.0
 11
105.3376629993
 21
112.71751842
 31
0.0
  0
LINE
  5
24A
100
AcDbEntity
  8
RACCORDO
100
AcDbLine
 62
7
  6
CONTINUOUS
 10
105.2913908929
 20
112.6227699492
 30
0.0
 11
104.4186206978
 21
112.0538218466
 31
0.0
  0
LINE
  5
24B
100
AcDbEntity
  8
SMUSSO
100
AcDbLine
 62
7
  6
CONTINUOUS
 10
105.3376629993
 20
113.2962314402
 30
0.0
 11
105.3032422763
 21
113.2741590226
 31
0.0
  0
LINE
  5
24C
100
AcDbEntity
  8
DRAFT
100
AcDbLine
 62
7
  6
CONTINUOUS
 10
105.1022276108
 20
113.1452576152
 30
0.0
 11
104.9682178338
 21
113.0593233436
 31
0.0
  0
LINE
  5
24D
100
AcDbEntity
  8
DRAFT
100
AcDbLine
 62
7
  6
CONTINUOUS
 10
104.7672031683
 20
112.9304219362
 30
0.0
 11
104.6331933913
 21
112.8444876645
 31
0.0
  0
LINE
  5
24E
100
AcDbEntity
  8
DRAFT
100
AcDbLine
 62
7
  6
CONTINUOUS
 10
104.4321787257
 20
112.7155862571
 30
0.0
 11
104.2981689487
 21
112.6296519855
 31
0.0
  0
LINE
  5
24F
100
AcDbEntity
  8
DRAFT
100
AcDbLine
 62
7
  6
CONTINUOUS
 10
104.0971542832
 20
112.5007505781
 30
0.0
 11
103.9631445062
 21
112.4148163064
 31
0.0
  0
LINE
  5
250
100
AcDbEntity
  8
SMUSSO
100
AcDbLine
 62
7
  6
CONTINUOUS
 10
101.1269726143
 20
115.7274312961
 30
0.0
 11
101.0887445286
 21
115.7075572021
 31
0.0
  0
LINE
  5
251
100
AcDbEntity
  8
DRAFT
100
AcDbLine
 62
7
  6
CONTINUOUS
 10
100.8654951254
 20
115.5914938535
 30
0.0
 11
100.71666219
 21
115.5141182878
 31
0.0
  0
LINE
  5
252
100
AcDbEntity
  8
DRAFT
100
AcDbLine
 62
7
  6
CONTINUOUS
 10
100.4934127868
 20
115.3980549392
 30
0.0
 11
100.3445798513
 21
115.3206793735
 31
0.0
  0
LINE
  5
253
100
AcDbEntity
  8
DRAFT
100
AcDbLine
 62
7
  6
CONTINUOUS
 10
100.1213304481
 20
115.204616025
 30
0.0
 11
99.9724975127
 21
115.1272404593
 31
0.0
  0
LINE
  5
254
100
AcDbEntity
  8
DRAFT
100
AcDbLine
 62
7
  6
CONTINUOUS
 10
99.7492481095
 20
115.0111771107
 30
0.0
 11
99.600415174
 21
114.933801545
 31
0.0
  0
LINE
  5
255
100
AcDbEntity
  8
RACCORDO
100
AcDbLine
 62
7
  6
CONTINUOUS
 10
165.6980303728
 20
78.8929145397
 30
0.0
 11
164.7665829211
 21
78.7786003274
 31
0.0
  0
LWPOLYLINE
  5
256
100
AcDbEntity
  8
RACCORDO
100
AcDbPolyline
 62
7
  6
CONTINUOUS
 90
12
 70
0
 10
196.4456158394
 20
41.4925445293
 10
198.5898620426
 20
40.2725939757
 10
200.7039465494
 20
39.0871499536
 10
202.7935781705
 20
37.9399139853
 10
204.8626720784
 20
36.8335566411
 10
206.9103653878
 20
35.7683260671
 10
208.93432936
 20
34.7432083294
 10
210.9324628943
 20
33.7571381581
 10
212.9027981945
 20
32.8091287724
 10
214.8434598714
 20
31.898211
 10
216.7526293645
 20
31.0234153863
 10
218.8927357152
 20
30.0668231648
  0
LINE
  5
257
100
AcDbEntity
  8
RACCORDO
100
AcDbLine
 62
7
  6
CONTINUOUS
 10
194.3106292576
 20
42.7163366826
 30
0.0
 11
196.4456158394
 21
41.4925445293
 31
0.0
  0
LINE
  5
258
100
AcDbEntity
  8
RACCORDO
100
AcDbLine
 62
250
  6
CONTINUOUS
 10
194.3473536734
 20
42.7659839518
 30
0.0
 11
194.2504187486
 21
42.8216188614
 31
0.0
  0
LWPOLYLINE
  5
259
100
AcDbEntity
  8
RACCORDO
100
AcDbPolyline
 62
7
  6
CONTINUOUS
 90
10
 70
0
 10
146.5870664012
 20
70.1896885969
 10
151.8425634377
 20
67.1562230965
 10
157.1520871994
 20
64.0935880821
 10
162.463363285
 20
61.0319662359
 10
167.7763910376
 20
57.9713579365
 10
173.0911699091
 20
54.9117634995
 10
178.4076993941
 20
51.853183216
 10
183.7259789444
 20
48.7956174012
 10
189.046007902
 20
45.7390664335
 10
194.3106292575
 20
42.7163366827
  0
LINE
  5
25A
100
AcDbEntity
  8
RACCORDO
100
AcDbLine
 62
250
  6
CONTINUOUS
 10
146.6176022093
 20
70.2425921984
 30
0.0
 11
146.5268984964
 21
70.2949461231
 31
0.0
  0
LWPOLYLINE
  5
25B
100
AcDbEntity
  8
RACCORDO
100
AcDbPolyline
 62
7
  6
CONTINUOUS
 90
9
 70
0
 10
104.2447715693
 20
94.7022231179
 10
109.5385346465
 20
91.6305053838
 10
114.8340552463
 20
88.5597978114
 10
120.1313327138
 20
85.4901007806
 10
125.4303665026
 20
82.4214146077
 10
130.7311561088
 20
79.3537395847
 10
136.0337009857
 20
76.2870760279
 10
141.3380004774
 20
73.2214243167
 10
146.5870664012
 20
70.1896885969
  0
LINE
  5
25C
100
AcDbEntity
  8
RACCORDO
100
AcDbLine
 62
7
  6
CONTINUOUS
 10
98.9987344042
 20
97.7482513772
 30
0.0
 11
104.2447715693
 21
94.7022231179
 31
0.0
  0
LINE
  5
25D
100
AcDbEntity
  8
RACCORDO
100
AcDbLine
 62
250
  6
CONTINUOUS
 10
99.0354215968
 20
97.7972707042
 30
0.0
 11
98.9386119256
 21
97.8534827215
 31
0.0
  0
LINE
  5
25E
100
AcDbEntity
  8
RACCORDO
100
AcDbLine
 62
7
  6
CONTINUOUS
 10
121.247565576
 20
103.9059355211
 30
0.0
 11
121.247565576
 21
103.3272225009
 31
0.0
  0
LINE
  5
25F
100
AcDbEntity
  8
RACCORDO
100
AcDbLine
 62
7
  6
CONTINUOUS
 10
121.4951320973
 20
104.4151297935
 30
0.0
 11
121.4951320973
 21
104.0054758274
 31
0.0
  0
LINE
  5
260
100
AcDbEntity
  8
RACCORDO
100
AcDbLine
 62
250
  6
CONTINUOUS
 10
121.4951320973
 20
104.0061247376
 30
0.0
 11
121.247565576
 21
103.3265209466
 31
0.0
  0
LINE
  5
261
100
AcDbEntity
  8
RACCORDO
100
AcDbLine
 62
7
  6
CONTINUOUS
 10
121.4864923924
 20
103.9591254728
 30
0.0
 11
121.2403153074
 21
103.2833358736
 31
0.0
  0
LINE
  5
262
100
AcDbEntity
  8
RACCORDO
100
AcDbLine
 62
7
  6
CONTINUOUS
 10
121.247565576
 20
103.9059355211
 30
0.0
 11
121.4455508437
 21
104.4437416059
 31
0.0
  0
LINE
  5
263
100
AcDbEntity
  8
0
100
AcDbLine
 62
7
  6
CONTINUOUS
 10
148.7781478806
 20
79.188680363
 30
0.0
 11
148.4231772465
 21
79.3935541509
 31
0.0
  0
LINE
  5
264
100
AcDbEntity
  8
0
100
AcDbLine
 62
7
  6
CONTINUOUS
 10
147.8580642688
 20
79.7197317459
 30
0.0
 11
147.4905334207
 21
79.9318792158
 31
0.0
  0
LINE
  5
265
100
AcDbEntity
  8
0
100
AcDbLine
 62
7
  6
CONTINUOUS
 10
147.3821742814
 20
79.9944283538
 30
0.0
 11
146.9932589021
 21
80.2189330801
 31
0.0
  0
LINE
  5
266
100
AcDbEntity
  8
0
100
AcDbLine
 62
7
  6
CONTINUOUS
 10
146.2933455437
 20
80.6229914364
 30
0.0
 11
145.928369532
 21
80.8337052098
 31
0.0
  0
LINE
  5
267
100
AcDbEntity
  8
0
100
AcDbLine
 62
7
  6
CONTINUOUS
 10
145.8704302088
 20
80.8671565449
 30
0.0
 11
145.5094794943
 21
81.0755572915
 31
0.0
  0
LINE
  5
268
100
AcDbEntity
  8
0
100
AcDbLine
 62
7
  6
CONTINUOUS
 10
146.8700066119
 20
80.6655914002
 30
0.0
 11
146.3675008989
 21
80.9556866687
 31
0.0
  0
LINE
  5
269
100
AcDbEntity
  8
0
100
AcDbLine
 62
7
  6
CONTINUOUS
 10
146.4220616382
 20
81.2153166086
 30
0.0
 11
146.7753456011
 21
81.0113666984
 31
0.0
  0
LINE
  5
26A
100
AcDbEntity
  8
0
100
AcDbLine
 62
7
  6
CONTINUOUS
 10
148.0023680621
 20
80.3733215584
 30
0.0
 11
147.8045072041
 21
80.4875274903
 31
0.0
  0
LINE
  5
26B
100
AcDbEntity
  8
0
100
AcDbLine
 62
7
  6
CONTINUOUS
 10
147.7706678276
 20
80.8163767811
 30
0.0
 11
147.9815602504
 21
80.6946489008
 31
0.0
  0
LINE
  5
26C
100
AcDbEntity
  8
0
100
AcDbLine
 62
7
  6
CONTINUOUS
 10
148.0382747438
 20
80.7273951385
 30
0.0
 11
147.8273823209
 21
80.8491230187
 31
0.0
  0
LINE
  5
26D
100
AcDbEntity
  8
0
100
AcDbLine
 62
7
  6
CONTINUOUS
 10
146.3513910301
 20
82.4786760448
 30
0.0
 11
146.7083468893
 21
82.2726067182
 31
0.0
  0
LINE
  5
26E
100
AcDbEntity
  8
0
100
AcDbLine
 62
7
  6
CONTINUOUS
 10
145.2086498814
 20
83.1384379765
 30
0.0
 11
145.5737058655
 21
82.9276625937
 31
0.0
  0
LINE
  5
26F
100
AcDbEntity
  8
0
100
AcDbLine
 62
7
  6
CONTINUOUS
 10
146.7650463348
 20
82.3053442674
 30
0.0
 11
146.4080904755
 21
82.511413594
 31
0.0
  0
LINE
  5
270
100
AcDbEntity
  8
0
100
AcDbLine
 62
7
  6
CONTINUOUS
 10
145.6304053108
 20
82.9604001429
 30
0.0
 11
145.2653493268
 21
83.1711755256
 31
0.0
  0
LINE
  5
271
100
AcDbEntity
  8
0
100
AcDbLine
 62
7
  6
CONTINUOUS
 10
144.9949825454
 20
81.3726266379
 30
0.0
 11
144.943236427
 21
81.4025057802
 31
0.0
  0
LINE
  5
272
100
AcDbEntity
  8
0
100
AcDbLine
 62
7
  6
CONTINUOUS
 10
144.4307982049
 20
81.6984072486
 30
0.0
 11
144.0778454539
 21
81.902226676
 31
0.0
  0
LINE
  5
273
100
AcDbEntity
  8
0
100
AcDbLine
 62
7
  6
CONTINUOUS
 10
143.8792387897
 20
82.0169198941
 30
0.0
 11
143.5103144657
 21
82.2299772629
 31
0.0
  0
LINE
  5
274
100
AcDbEntity
  8
0
100
AcDbLine
 62
7
  6
CONTINUOUS
 10
142.8053183011
 20
82.6371466008
 30
0.0
 11
142.4802250982
 21
82.8249156723
 31
0.0
  0
LINE
  5
275
100
AcDbEntity
  8
0
100
AcDbLine
 62
7
  6
CONTINUOUS
 10
144.1060036874
 20
83.7751400809
 30
0.0
 11
144.4746392616
 21
83.5622687409
 31
0.0
  0
LINE
  5
276
100
AcDbEntity
  8
0
100
AcDbLine
 62
7
  6
CONTINUOUS
 10
143.3788751505
 20
84.195168464
 30
0.0
 11
143.7477994746
 21
83.9821110952
 31
0.0
  0
LINE
  5
277
100
AcDbEntity
  8
0
100
AcDbLine
 62
7
  6
CONTINUOUS
 10
142.8733153958
 20
84.4870360369
 30
0.0
 11
143.2419756989
 21
84.2741177338
 31
0.0
  0
LINE
  5
278
100
AcDbEntity
  8
0
100
AcDbLine
 62
7
  6
CONTINUOUS
 10
141.7885472141
 20
85.1135963258
 30
0.0
 11
142.189273426
 21
84.8821276759
 31
0.0
  0
LINE
  5
279
100
AcDbEntity
  8
0
100
AcDbLine
 62
7
  6
CONTINUOUS
 10
144.531338707
 20
83.5950062901
 30
0.0
 11
144.1627031329
 21
83.8078776301
 31
0.0
  0
LINE
  5
27A
100
AcDbEntity
  8
0
100
AcDbLine
 62
7
  6
CONTINUOUS
 10
143.8044989182
 20
84.0148486434
 30
0.0
 11
143.4355745942
 21
84.2279060122
 31
0.0
  0
LINE
  5
27B
100
AcDbEntity
  8
0
100
AcDbLine
 62
7
  6
CONTINUOUS
 10
143.2986751446
 20
84.3068552831
 30
0.0
 11
142.9300148417
 21
84.5197735863
 31
0.0
  0
LINE
  5
27C
100
AcDbEntity
  8
0
100
AcDbLine
 62
7
  6
CONTINUOUS
 10
142.2459728722
 20
84.9148652255
 30
0.0
 11
141.8452466606
 21
85.1463338756
 31
0.0
  0
LINE
  5
27D
100
AcDbEntity
  8
RACCORDO
100
AcDbLine
 62
7
  6
CONTINUOUS
 10
117.036875191
 20
106.3371353771
 30
0.0
 11
115.6070208452
 21
105.5937798251
 31
0.0
  0
LINE
  5
27E
100
AcDbEntity
  8
RACCORDO
100
AcDbLine
 62
7
  6
CONTINUOUS
 10
149.7881277961
 20
88.0790928896
 30
0.0
 11
148.8566803444
 21
87.9647786773
 31
0.0
  0
LINE
  5
27F
100
AcDbEntity
  8
RACCORDO
100
AcDbLine
 62
250
  6
CONTINUOUS
 10
192.9132597498
 20
58.0692976548
 30
0.0
 11
185.2185735657
 21
62.4875367566
 31
0.0
  0
LINE
  5
280
100
AcDbEntity
  8
RACCORDO
100
AcDbLine
 62
250
  6
CONTINUOUS
 10
185.2187887968
 20
62.4876660023
 30
0.0
 11
178.5539202723
 21
66.3180211883
 31
0.0
  0
LINE
  5
281
100
AcDbEntity
  8
RACCORDO
100
AcDbLine
 62
250
  6
CONTINUOUS
 10
176.5414818497
 20
67.4750983929
 30
0.0
 11
162.8853588412
 21
75.3354699245
 31
0.0
  0
LINE
  5
282
100
AcDbEntity
  8
RACCORDO
100
AcDbLine
 62
250
  6
CONTINUOUS
 10
166.3793813329
 20
73.3230223746
 30
0.0
 11
162.6192164666
 21
75.4890071113
 31
0.0
  0
LINE
  5
283
100
AcDbEntity
  8
RACCORDO
100
AcDbLine
 62
250
  6
CONTINUOUS
 10
160.6082536522
 20
76.6475724652
 30
0.0
 11
150.4799487583
 21
82.4877852761
 31
0.0
  0
LINE
  5
284
100
AcDbEntity
  8
RACCORDO
100
AcDbLine
 62
250
  6
CONTINUOUS
 10
160.6081832959
 20
76.6475303432
 30
0.0
 11
144.6916661763
 21
85.8288512579
 31
0.0
  0
LINE
  5
285
100
AcDbEntity
  8
RACCORDO
100
AcDbLine
 62
7
  6
CONTINUOUS
 10
92.1334212074
 20
119.1471420627
 30
0.0
 11
201.110382537
 21
56.2252103931
 31
0.0
  0
LINE
  5
286
100
AcDbEntity
  8
DRAFT
100
AcDbLine
 62
7
  6
CONTINUOUS
 10
99.600415174
 20
114.933801545
 30
0.0
 11
103.9631445062
 21
112.4148163064
 31
0.0
  0
LINE
  5
287
100
AcDbEntity
  8
DRAFT
100
AcDbLine
 62
7
  6
CONTINUOUS
 10
195.0598306342
 20
59.8167314457
 30
0.0
 11
199.4225599664
 21
57.2977462072
 31
0.0
  0
LINE
  5
288
100
AcDbEntity
  8
DRAFT
100
AcDbLine
 62
7
  6
CONTINUOUS
 10
199.5565697434
 20
57.3836804788
 30
0.0
 11
199.6570770761
 21
57.325660641
 31
0.0
  0
LINE
  5
289
100
AcDbEntity
  8
DRAFT
100
AcDbLine
 62
7
  6
CONTINUOUS
 10
195.2086635697
 20
59.8941070115
 30
0.0
 11
199.5565697434
 21
57.3836804788
 31
0.0
  0
LINE
  5
28A
100
AcDbEntity
  8
DRAFT
100
AcDbLine
 62
7
  6
CONTINUOUS
 10
99.7492481095
 20
115.0111771107
 30
0.0
 11
104.197661616
 21
112.4427307402
 31
0.0
  0
LINE
  5
28B
100
AcDbEntity
  8
DRAFT
100
AcDbLine
 62
7
  6
CONTINUOUS
 10
99.9724975127
 20
115.1272404593
 30
0.0
 11
104.2981689487
 21
112.6296519855
 31
0.0
  0
LINE
  5
28C
100
AcDbEntity
  8
DRAFT
100
AcDbLine
 62
7
  6
CONTINUOUS
 10
195.4319129728
 20
60.01017036
 30
0.0
 11
199.7575844089
 21
57.5125818862
 31
0.0
  0
LINE
  5
28D
100
AcDbEntity
  8
DRAFT
100
AcDbLine
 62
7
  6
CONTINUOUS
 10
199.8915941859
 20
57.5985161579
 30
0.0
 11
199.9921015187
 21
57.5404963201
 31
0.0
  0
LINE
  5
28E
100
AcDbEntity
  8
DRAFT
100
AcDbLine
 62
7
  6
CONTINUOUS
 10
195.5807459083
 20
60.0875459257
 30
0.0
 11
199.8915941859
 21
57.5985161579
 31
0.0
  0
LINE
  5
28F
100
AcDbEntity
  8
DRAFT
100
AcDbLine
 62
7
  6
CONTINUOUS
 10
100.1213304481
 20
115.204616025
 30
0.0
 11
104.5326860585
 21
112.6575664193
 31
0.0
  0
LINE
  5
290
100
AcDbEntity
  8
DRAFT
100
AcDbLine
 62
7
  6
CONTINUOUS
 10
100.3445798513
 20
115.3206793735
 30
0.0
 11
104.6331933913
 21
112.8444876645
 31
0.0
  0
LINE
  5
291
100
AcDbEntity
  8
DRAFT
100
AcDbLine
 62
7
  6
CONTINUOUS
 10
195.8039953115
 20
60.2036092743
 30
0.0
 11
200.0926088514
 21
57.7274175653
 31
0.0
  0
LINE
  5
292
100
AcDbEntity
  8
DRAFT
100
AcDbLine
 62
7
  6
CONTINUOUS
 10
200.2266186284
 20
57.8133518369
 30
0.0
 11
200.3271259612
 21
57.7553319991
 31
0.0
  0
LINE
  5
293
100
AcDbEntity
  8
DRAFT
100
AcDbLine
 62
7
  6
CONTINUOUS
 10
195.952828247
 20
60.28098484
 30
0.0
 11
200.2266186284
 21
57.8133518369
 31
0.0
  0
LINE
  5
294
100
AcDbEntity
  8
DRAFT
100
AcDbLine
 62
7
  6
CONTINUOUS
 10
100.4934127868
 20
115.3980549392
 30
0.0
 11
104.867710501
 21
112.8724020983
 31
0.0
  0
LINE
  5
295
100
AcDbEntity
  8
DRAFT
100
AcDbLine
 62
7
  6
CONTINUOUS
 10
100.71666219
 20
115.5141182878
 30
0.0
 11
104.9682178338
 21
113.0593233436
 31
0.0
  0
LINE
  5
296
100
AcDbEntity
  8
DRAFT
100
AcDbLine
 62
7
  6
CONTINUOUS
 10
196.1760776502
 20
60.3970481886
 30
0.0
 11
200.427633294
 21
57.9422532443
 31
0.0
  0
LINE
  5
297
100
AcDbEntity
  8
DRAFT
100
AcDbLine
 62
7
  6
CONTINUOUS
 10
200.561643071
 20
58.028187516
 30
0.0
 11
200.6621504037
 21
57.9701676782
 31
0.0
  0
LINE
  5
298
100
AcDbEntity
  8
DRAFT
100
AcDbLine
 62
7
  6
CONTINUOUS
 10
196.3249105856
 20
60.4744237543
 30
0.0
 11
200.561643071
 21
58.028187516
 31
0.0
  0
LINE
  5
299
100
AcDbEntity
  8
DRAFT
100
AcDbLine
 62
7
  6
CONTINUOUS
 10
100.8654951254
 20
115.5914938535
 30
0.0
 11
105.2027349436
 21
113.0872377774
 31
0.0
  0
LINE
  5
29A
100
AcDbEntity
  8
DRAFT
100
AcDbLine
 62
7
  6
CONTINUOUS
 10
101.0887445286
 20
115.7075572021
 30
0.0
 11
105.3032422763
 21
113.2741590226
 31
0.0
  0
LINE
  5
29B
100
AcDbEntity
  8
DRAFT
100
AcDbLine
 62
7
  6
CONTINUOUS
 10
196.5481599888
 20
60.5904871028
 30
0.0
 11
200.7626577365
 21
58.1570889234
 31
0.0
  0
LINE
  5
29C
100
AcDbEntity
  8
RACCORDO
100
AcDbLine
 62
250
  6
CONTINUOUS
 10
117.9683226427
 20
106.4514495893
 30
0.0
 11
121.4455508437
 21
104.4437416059
 31
0.0
  0
LINE
  5
29D
100
AcDbEntity
  8
RACCORDO
100
AcDbLine
 62
250
  6
CONTINUOUS
 10
133.8782252194
 20
97.2652712394
 30
0.0
 11
137.3554534204
 21
95.2575632561
 31
0.0
  0
LINE
  5
29E
100
AcDbEntity
  8
RACCORDO
100
AcDbLine
 62
250
  6
CONTINUOUS
 10
149.7881277961
 20
88.0790928896
 30
0.0
 11
153.2653559971
 21
86.0713849062
 31
0.0
  0
LINE
  5
29F
100
AcDbEntity
  8
RACCORDO
100
AcDbLine
 62
250
  6
CONTINUOUS
 10
165.6980303728
 20
78.8929145397
 30
0.0
 11
169.1752585738
 21
76.8852065563
 31
0.0
  0
LINE
  5
2A0
100
AcDbEntity
  8
RACCORDO
100
AcDbLine
 62
250
  6
CONTINUOUS
 10
181.6079329495
 20
69.7067361898
 30
0.0
 11
185.0851611505
 21
67.6990282064
 31
0.0
  0
LINE
  5
2A1
100
AcDbEntity
  8
RACCORDO
100
AcDbLine
 62
7
  6
CONTINUOUS
 10
118.133271372
 20
106.4238600325
 30
0.0
 11
121.4806117784
 21
104.4911476338
 31
0.0
  0
LINE
  5
2A2
100
AcDbEntity
  8
RACCORDO
100
AcDbLine
 62
7
  6
CONTINUOUS
 10
134.0431739487
 20
97.2376816826
 30
0.0
 11
137.3905143551
 21
95.304969284
 31
0.0
  0
LINE
  5
2A3
100
AcDbEntity
  8
RACCORDO
100
AcDbLine
 62
7
  6
CONTINUOUS
 10
149.9530765254
 20
88.0515033327
 30
0.0
 11
153.3004169318
 21
86.1187909341
 31
0.0
  0
LINE
  5
2A4
100
AcDbEntity
  8
RACCORDO
100
AcDbLine
 62
7
  6
CONTINUOUS
 10
165.8629791021
 20
78.8653249829
 30
0.0
 11
169.2103195085
 21
76.9326125842
 31
0.0
  0
LINE
  5
2A5
100
AcDbEntity
  8
RACCORDO
100
AcDbLine
 62
7
  6
CONTINUOUS
 10
181.7728816788
 20
69.679146633
 30
0.0
 11
185.1202220852
 21
67.7464342343
 31
0.0
  0
LINE
  5
2A6
100
AcDbEntity
  8
RACCORDO
100
AcDbLine
 62
250
  6
CONTINUOUS
 10
101.9483388462
 20
115.905305025
 30
0.0
 11
105.6457294867
 21
113.7704780084
 31
0.0
  0
LINE
  5
2A7
100
AcDbEntity
  8
RACCORDO
100
AcDbLine
 62
250
  6
CONTINUOUS
 10
197.4077543064
 20
60.7882349258
 30
0.0
 11
201.0256477205
 21
58.6993086113
 31
0.0
  0
LINE
  5
2A8
100
AcDbEntity
  8
RACCORDO
100
AcDbLine
 62
7
  6
CONTINUOUS
 10
102.093793446
 20
115.8889711343
 30
0.0
 11
105.6814617465
 21
113.8174964216
 31
0.0
  0
LINE
  5
2A9
100
AcDbEntity
  8
RACCORDO
100
AcDbLine
 62
7
  6
CONTINUOUS
 10
197.5532089061
 20
60.7719010351
 30
0.0
 11
201.023509639
 21
58.768192885
 31
0.0
  0
LINE
  5
2AA
100
AcDbEntity
  8
RACCORDO
100
AcDbLine
 62
250
  6
CONTINUOUS
 10
150.4799487583
 20
82.4877852761
 30
0.0
 11
144.6917396724
 21
85.8288951741
 31
0.0
  0
LINE
  5
2AB
100
AcDbEntity
  8
RACCORDO
100
AcDbLine
 62
250
  6
CONTINUOUS
 10
144.6917396724
 20
85.8288951741
 30
0.0
 11
131.0634478019
 21
93.7048968578
 31
0.0
  0
LINE
  5
2AC
100
AcDbEntity
  8
RACCORDO
100
AcDbLine
 62
250
  6
CONTINUOUS
 10
134.5962067561
 20
91.6619328775
 30
0.0
 11
130.7981189174
 21
93.8583711731
 31
0.0
  0
LINE
  5
2AD
100
AcDbEntity
  8
RACCORDO
100
AcDbLine
 62
250
  6
CONTINUOUS
 10
128.7919376502
 20
95.0190644248
 30
0.0
 11
115.1759123517
 21
102.9038342771
 31
0.0
  0
LINE
  5
2AE
100
AcDbEntity
  8
RACCORDO
100
AcDbLine
 62
250
  6
CONTINUOUS
 10
118.7281791877
 20
100.84545139
 30
0.0
 11
114.9119024443
 21
103.0568534594
 31
0.0
  0
LINE
  5
2AF
100
AcDbEntity
  8
RACCORDO
100
AcDbLine
 62
250
  6
CONTINUOUS
 10
112.9087660479
 20
104.2180309402
 30
0.0
 11
102.5271713987
 21
110.2407596465
 31
0.0
  0
LINE
  5
2B0
100
AcDbEntity
  8
RACCORDO
100
AcDbLine
 62
250
  6
CONTINUOUS
 10
102.8758724813
 20
110.0383370892
 30
0.0
 11
96.6461013095
 21
113.656232682
 31
0.0
  0
LINE
  5
2B1
100
AcDbEntity
  8
RACCORDO
100
AcDbLine
 62
7
  6
CONTINUOUS
 10
137.1574681527
 20
94.7197571713
 30
0.0
 11
137.1574681527
 21
94.1410441511
 31
0.0
  0
LINE
  5
2B2
100
AcDbEntity
  8
RACCORDO
100
AcDbLine
 62
7
  6
CONTINUOUS
 10
137.405034674
 20
95.2289514436
 30
0.0
 11
137.405034674
 21
94.8192974775
 31
0.0
  0
LINE
  5
2B3
100
AcDbEntity
  8
RACCORDO
100
AcDbLine
 62
250
  6
CONTINUOUS
 10
120.4420318877
 20
102.8021050461
 30
0.0
 11
121.247565576
 21
103.3272225009
 31
0.0
  0
LINE
  5
2B4
100
AcDbEntity
  8
RACCORDO
100
AcDbLine
 62
7
  6
CONTINUOUS
 10
121.1984431242
 20
103.2306159253
 30
0.0
 11
120.4945703766
 21
102.7717699811
 31
0.0
  0
LINE
  5
2B5
100
AcDbEntity
  8
RACCORDO
100
AcDbLine
 62
7
  6
CONTINUOUS
 10
121.247565576
 20
103.9059355211
 30
0.0
 11
119.9601189403
 21
103.0803555422
 31
0.0
  0
LINE
  5
2B6
100
AcDbEntity
  8
RACCORDO
100
AcDbLine
 62
7
  6
CONTINUOUS
 10
133.8782252194
 20
97.2652712394
 30
0.0
 11
132.9467777677
 21
97.1509570272
 31
0.0
  0
LINE
  5
2B7
100
AcDbEntity
  8
0
100
AcDbLine
 62
7
  6
CONTINUOUS
 10
147.4905334179
 20
79.9318792174
 30
0.0
 11
147.4835064127
 21
80.0303407784
 31
0.0
  0
LINE
  5
2B8
100
AcDbEntity
  8
0
100
AcDbLine
 62
7
  6
CONTINUOUS
 10
148.3749235469
 20
80.3118732965
 30
0.0
 11
148.3757033712
 21
80.3002632643
 31
0.0
  0
LINE
  5
2B9
100
AcDbEntity
  8
0
100
AcDbLine
 62
7
  6
CONTINUOUS
 10
147.7355282372
 20
81.3563708776
 30
0.0
 11
147.7706678268
 21
80.8163767816
 31
0.0
  0
LINE
  5
2BA
100
AcDbEntity
  8
RACCORDO
100
AcDbLine
 62
250
  6
CONTINUOUS
 10
137.405034674
 20
94.8199463877
 30
0.0
 11
137.1574681527
 21
94.1403425967
 31
0.0
  0
LINE
  5
2BB
100
AcDbEntity
  8
RACCORDO
100
AcDbLine
 62
7
  6
CONTINUOUS
 10
137.3963949691
 20
94.7729471229
 30
0.0
 11
137.1502178841
 21
94.0971575237
 31
0.0
  0
LINE
  5
2BC
100
AcDbEntity
  8
RACCORDO
100
AcDbLine
 62
7
  6
CONTINUOUS
 10
137.1574681527
 20
94.7197571713
 30
0.0
 11
137.3554534204
 21
95.2575632561
 31
0.0
  0
LINE
  5
2BD
100
AcDbEntity
  8
RACCORDO
100
AcDbLine
 62
7
  6
CONTINUOUS
 10
153.0673707294
 20
85.5335788214
 30
0.0
 11
153.0673707294
 21
84.9548658012
 31
0.0
  0
LINE
  5
2BE
100
AcDbEntity
  8
RACCORDO
100
AcDbLine
 62
7
  6
CONTINUOUS
 10
153.3149372507
 20
86.0427730937
 30
0.0
 11
153.3149372507
 21
85.6331191276
 31
0.0
  0
LINE
  5
2BF
100
AcDbEntity
  8
0
100
AcDbLine
 62
7
  6
CONTINUOUS
 10
146.3994318926
 20
80.8774917066
 30
0.0
 11
146.4112539688
 21
80.9304268069
 31
0.0
  0
LINE
  5
2C0
100
AcDbEntity
  8
0
100
AcDbLine
 62
7
  6
CONTINUOUS
 10
145.928369532
 20
80.8337052098
 30
0.0
 11
145.944017634
 21
80.8956278557
 31
0.0
  0
LINE
  5
2C1
100
AcDbEntity
  8
RACCORDO
100
AcDbLine
 62
250
  6
CONTINUOUS
 10
136.3519344644
 20
93.6159266962
 30
0.0
 11
137.1574681527
 21
94.1410441511
 31
0.0
  0
LINE
  5
2C2
100
AcDbEntity
  8
RACCORDO
100
AcDbLine
 62
7
  6
CONTINUOUS
 10
137.1083457009
 20
94.0444375754
 30
0.0
 11
136.4044729533
 21
93.5855916312
 31
0.0
  0
LINE
  5
2C3
100
AcDbEntity
  8
RACCORDO
100
AcDbLine
 62
7
  6
CONTINUOUS
 10
137.1574681527
 20
94.7197571713
 30
0.0
 11
135.870021517
 21
93.8941771923
 31
0.0
  0
LINE
  5
2C4
100
AcDbEntity
  8
RACCORDO
100
AcDbLine
 62
7
  6
CONTINUOUS
 10
132.9467777677
 20
97.1509570272
 30
0.0
 11
131.5169234219
 21
96.4076014752
 31
0.0
  0
LINE
  5
2C5
100
AcDbEntity
  8
RACCORDO
100
AcDbLine
 62
7
  6
CONTINUOUS
 10
117.9683226427
 20
106.4514495893
 30
0.0
 11
117.036875191
 21
106.3371353771
 31
0.0
  0
LINE
  5
2C6
100
AcDbEntity
  8
RACCORDO
100
AcDbLine
 62
250
  6
CONTINUOUS
 10
153.3149372507
 20
85.6337680378
 30
0.0
 11
153.0673707294
 21
84.9541642468
 31
0.0
  0
LINE
  5
2C7
100
AcDbEntity
  8
RACCORDO
100
AcDbLine
 62
7
  6
CONTINUOUS
 10
153.3062975458
 20
85.586768773
 30
0.0
 11
153.0601204608
 21
84.9109791739
 31
0.0
  0
LINE
  5
2C8
100
AcDbEntity
  8
RACCORDO
100
AcDbLine
 62
7
  6
CONTINUOUS
 10
153.0673707294
 20
85.5335788214
 30
0.0
 11
153.2653559971
 21
86.0713849062
 31
0.0
  0
LWPOLYLINE
  5
2C9
100
AcDbEntity
  8
RACCORDO
100
AcDbPolyline
 62
7
  6
CONTINUOUS
 90
15
 70
0
 10
200.8052610866
 20
90.5414410867
 10
200.8100165521
 20
90.5387995245
 10
200.8282851428
 20
90.527937257
 10
200.8474187528
 20
90.5153697831
 10
200.8671699208
 20
90.501136066
 10
200.8874011611
 20
90.4852279902
 10
200.9079855434
 20
90.4676445889
 10
200.9287032838
 20
90.4484853816
 10
200.9494200714
 20
90.4278003878
 10
200.9700167356
 20
90.4056387794
 10
200.9903158116
 20
90.3821312631
 10
201.0101940365
 20
90.3573724011
 10
201.0295403053
 20
90.3314587665
 10
201.0482165939
 20
90.3045430595
 10
201.0603751594
 20
90.2858991598
  0
LWPOLYLINE
  5
2CA
100
AcDbEntity
  8
RACCORDO
100
AcDbPolyline
 62
7
  6
CONTINUOUS
 90
7
 70
0
 10
195.7917805134
 20
93.3510688819
 10
196.6982238258
 20
92.8352726307
 10
197.579624035
 20
92.3363463424
 10
198.4362554695
 20
91.8544607477
 10
199.2683029508
 20
91.3897381764
 10
200.075868633
 20
90.9422569922
 10
200.8052542154
 20
90.5414448463
  0
LINE
  5
2CB
100
AcDbEntity
  8
RACCORDO
100
AcDbLine
 62
7
  6
CONTINUOUS
 10
193.9021663471
 20
94.4323244467
 30
0.0
 11
195.7917805134
 21
93.3510688819
 31
0.0
  0
LINE
  5
2CC
100
AcDbEntity
  8
RACCORDO
100
AcDbLine
 62
250
  6
CONTINUOUS
 10
192.9132597498
 20
95.1158592126
 30
0.0
 11
193.0251563511
 21
95.0516369775
 31
0.0
  0
LWPOLYLINE
  5
2CD
100
AcDbEntity
  8
RACCORDO
100
AcDbPolyline
 62
7
  6
CONTINUOUS
 90
10
 70
0
 10
145.2454023415
 20
122.4427224153
 10
150.4968676294
 20
119.4115649912
 10
155.8070717942
 20
116.3484804578
 10
161.1190268793
 20
113.286373061
 10
166.4327322284
 20
110.225243179
 10
171.7481872942
 20
107.1650911272
 10
177.0653915719
 20
104.1059171959
 10
182.384344514
 20
101.0477217003
 10
187.7050454633
 20
97.990505018
 10
193.9021663471
 20
94.4323244467
  0
LINE
  5
2CE
100
AcDbEntity
  8
RACCORDO
100
AcDbLine
 62
250
  6
CONTINUOUS
 10
145.1836225056
 20
122.5942055296
 30
0.0
 11
145.2955309569
 21
122.5295914342
 31
0.0
  0
LWPOLYLINE
  5
2CF
100
AcDbEntity
  8
RACCORDO
100
AcDbPolyline
 62
7
  6
CONTINUOUS
 90
9
 70
0
 10
102.8928964754
 20
146.9599910091
 10
108.1873508536
 20
143.8881482773
 10
113.4835615742
 20
140.8172795466
 10
118.7815279828
 20
137.7473851965
 10
124.0812495338
 20
134.678465543
 10
129.3827257241
 20
131.6105208777
 10
134.6859560077
 20
128.5435515163
 10
139.9909397295
 20
125.4775578379
 10
145.2454023415
 20
122.4427224153
  0
LINE
  5
2D0
100
AcDbEntity
  8
RACCORDO
100
AcDbLine
 62
250
  6
CONTINUOUS
 10
97.5952656459
 20
150.1512743932
 30
0.0
 11
97.7072183117
 21
150.0862777057
 31
0.0
  0
LINE
  5
2D1
100
AcDbEntity
  8
RACCORDO
100
AcDbLine
 62
250
  6
CONTINUOUS
 10
89.9381562899
 20
154.6705207852
 30
0.0
 11
90.0501174906
 21
154.6026223534
 31
0.0
  0
LWPOLYLINE
  5
2D2
100
AcDbEntity
  8
RACCORDO
100
AcDbPolyline
 62
7
  6
CONTINUOUS
 90
9
 70
0
 10
89.9995661329
 20
154.5192656315
 10
90.6885727473
 20
154.1012380254
 10
91.4630367662
 20
153.6352511739
 10
92.2674498079
 20
153.1550801651
 10
93.101668839
 20
152.6606710299
 10
93.9654786226
 20
152.1519189476
 10
94.8585776454
 20
151.628669018
 10
95.7805694335
 20
151.0907124816
 10
102.8928964754
 20
146.9599910091
  0
LINE
  5
2D3
100
AcDbEntity
  8
RACCORDO
100
AcDbLine
 62
7
  6
CONTINUOUS
 10
168.9772733061
 20
76.3474004715
 30
0.0
 11
168.9772733061
 21
75.7686874513
 31
0.0
  0
LINE
  5
2D4
100
AcDbEntity
  8
RACCORDO
100
AcDbLine
 62
7
  6
CONTINUOUS
 10
169.2248398274
 20
76.8565947438
 30
0.0
 11
169.2248398274
 21
76.4469407778
 31
0.0
  0
LINE
  5
2D5
100
AcDbEntity
  8
RACCORDO
100
AcDbLine
 62
250
  6
CONTINUOUS
 10
152.2618370411
 20
84.4297483463
 30
0.0
 11
153.0673707294
 21
84.9548658012
 31
0.0
  0
LINE
  5
2D6
100
AcDbEntity
  8
RACCORDO
100
AcDbLine
 62
7
  6
CONTINUOUS
 10
153.0182482776
 20
84.8582592255
 30
0.0
 11
152.31437553
 21
84.3994132813
 31
0.0
  0
LINE
  5
2D7
100
AcDbEntity
  8
RACCORDO
100
AcDbLine
 62
7
  6
CONTINUOUS
 10
153.0673707294
 20
85.5335788214
 30
0.0
 11
151.7799240937
 21
84.7079988424
 31
0.0
  0
LINE
  5
2D8
100
AcDbEntity
  8
0
100
AcDbLine
 62
7
  6
CONTINUOUS
 10
141.7885472141
 20
85.1135963258
 30
0.0
 11
141.8452466606
 21
85.1463338756
 31
0.0
  0
LINE
  5
2D9
100
AcDbEntity
  8
0
100
AcDbLine
 62
7
  6
CONTINUOUS
 10
142.189273426
 20
84.8821276759
 30
0.0
 11
142.2459728722
 21
84.9148652255
 31
0.0
  0
LINE
  5
2DA
100
AcDbEntity
  8
0
100
AcDbLine
 62
7
  6
CONTINUOUS
 10
142.8733153958
 20
84.4870360369
 30
0.0
 11
142.9300148417
 21
84.5197735863
 31
0.0
  0
LINE
  5
2DB
100
AcDbEntity
  8
0
100
AcDbLine
 62
7
  6
CONTINUOUS
 10
143.2419756989
 20
84.2741177338
 30
0.0
 11
143.2986751446
 21
84.3068552831
 31
0.0
  0
LINE
  5
2DC
100
AcDbEntity
  8
0
100
AcDbLine
 62
7
  6
CONTINUOUS
 10
143.3788751505
 20
84.195168464
 30
0.0
 11
143.4355745942
 21
84.2279060122
 31
0.0
  0
LINE
  5
2DD
100
AcDbEntity
  8
0
100
AcDbLine
 62
7
  6
CONTINUOUS
 10
143.7477994746
 20
83.9821110952
 30
0.0
 11
143.8044989182
 21
84.0148486434
 31
0.0
  0
LINE
  5
2DE
100
AcDbEntity
  8
0
100
AcDbLine
 62
7
  6
CONTINUOUS
 10
144.1060036874
 20
83.7751400809
 30
0.0
 11
144.1627031329
 21
83.8078776301
 31
0.0
  0
LINE
  5
2DF
100
AcDbEntity
  8
0
100
AcDbLine
 62
7
  6
CONTINUOUS
 10
142.8053183011
 20
82.6371466008
 30
0.0
 11
142.8620532005
 21
82.6699046206
 31
0.0
  0
LINE
  5
2E0
100
AcDbEntity
  8
0
100
AcDbLine
 62
7
  6
CONTINUOUS
 10
144.4746392616
 20
83.5622687409
 30
0.0
 11
144.531338707
 21
83.5950062901
 31
0.0
  0
LINE
  5
2E1
100
AcDbEntity
  8
0
100
AcDbLine
 62
7
  6
CONTINUOUS
 10
145.2086498814
 20
83.1384379765
 30
0.0
 11
145.2653493268
 21
83.1711755256
 31
0.0
  0
LINE
  5
2E2
100
AcDbEntity
  8
0
100
AcDbLine
 62
7
  6
CONTINUOUS
 10
143.8792387897
 20
82.0169198941
 30
0.0
 11
143.9359736887
 21
82.0496779137
 31
0.0
  0
LINE
  5
2E3
100
AcDbEntity
  8
0
100
AcDbLine
 62
7
  6
CONTINUOUS
 10
145.5737058655
 20
82.9276625937
 30
0.0
 11
145.6304053108
 21
82.9604001429
 31
0.0
  0
LINE
  5
2E4
100
AcDbEntity
  8
0
100
AcDbLine
 62
7
  6
CONTINUOUS
 10
144.4307982049
 20
81.6984072486
 30
0.0
 11
144.4875331037
 21
81.7311652681
 31
0.0
  0
LINE
  5
2E5
100
AcDbEntity
  8
0
100
AcDbLine
 62
7
  6
CONTINUOUS
 10
146.3513910301
 20
82.4786760448
 30
0.0
 11
146.4080904755
 21
82.511413594
 31
0.0
  0
LINE
  5
2E6
100
AcDbEntity
  8
0
100
AcDbLine
 62
7
  6
CONTINUOUS
 10
144.9949825454
 20
81.3726266379
 30
0.0
 11
145.0517174443
 21
81.4053846574
 31
0.0
  0
LINE
  5
2E7
100
AcDbEntity
  8
0
100
AcDbLine
 62
7
  6
CONTINUOUS
 10
146.7083468893
 20
82.2726067182
 30
0.0
 11
146.7650463348
 21
82.3053442674
 31
0.0
  0
LINE
  5
2E8
100
AcDbEntity
  8
0
100
AcDbLine
 62
7
  6
CONTINUOUS
 10
147.3605342214
 20
81.8739339217
 30
0.0
 11
147.417234051
 21
81.9066716927
 31
0.0
  0
LINE
  5
2E9
100
AcDbEntity
  8
0
100
AcDbLine
 62
7
  6
CONTINUOUS
 10
146.4220616382
 20
81.2153166086
 30
0.0
 11
146.4787832806
 21
81.2480669741
 31
0.0
  0
LINE
  5
2EA
100
AcDbEntity
  8
0
100
AcDbLine
 62
7
  6
CONTINUOUS
 10
145.8704302088
 20
80.8671565449
 30
0.0
 11
145.9271651076
 21
80.8999145644
 31
0.0
  0
LINE
  5
2EB
100
AcDbEntity
  8
0
100
AcDbLine
 62
7
  6
CONTINUOUS
 10
146.2933455437
 20
80.6229914364
 30
0.0
 11
146.3500804426
 21
80.655749456
 31
0.0
  0
LINE
  5
2EC
100
AcDbEntity
  8
0
100
AcDbLine
 62
250
  6
CONTINUOUS
 10
148.272517017
 20
81.3275387314
 30
0.0
 11
148.3292171934
 21
81.3602767027
 31
0.0
  0
LINE
  5
2ED
100
AcDbEntity
  8
0
100
AcDbLine
 62
7
  6
CONTINUOUS
 10
147.7706678276
 20
80.8163767811
 30
0.0
 11
147.8273823209
 21
80.8491230187
 31
0.0
  0
LINE
  5
2EE
100
AcDbEntity
  8
0
100
AcDbLine
 62
250
  6
CONTINUOUS
 10
147.9815602504
 20
80.6946489008
 30
0.0
 11
148.0382747438
 21
80.7273951385
 31
0.0
  0
LINE
  5
2EF
100
AcDbEntity
  8
RACCORDO
100
AcDbLine
 62
7
  6
CONTINUOUS
 10
148.8566803444
 20
87.9647786773
 30
0.0
 11
147.4268259986
 21
87.2214231254
 31
0.0
  0
LINE
  5
2F0
100
AcDbEntity
  8
RACCORDO
100
AcDbLine
 62
7
  6
CONTINUOUS
 10
101.9483388462
 20
115.905305025
 30
0.0
 11
101.1269726143
 21
115.7274312961
 31
0.0
  0
LINE
  5
2F1
100
AcDbEntity
  8
0
100
AcDbLine
 62
7
  6
CONTINUOUS
 10
147.3821742814
 20
79.9944283538
 30
0.0
 11
147.4389091805
 21
80.0271863735
 31
0.0
  0
LINE
  5
2F2
100
AcDbEntity
  8
0
100
AcDbLine
 62
7
  6
CONTINUOUS
 10
148.3757033712
 20
80.3002632643
 30
0.0
 11
148.3887421539
 21
80.307791694
 31
0.0
  0
LINE
  5
2F3
100
AcDbEntity
  8
0
100
AcDbLine
 62
7
  6
CONTINUOUS
 10
147.8580642688
 20
79.7197317459
 30
0.0
 11
147.9147991681
 21
79.7524897657
 31
0.0
  0
LINE
  5
2F4
100
AcDbEntity
  8
0
100
AcDbLine
 62
250
  6
CONTINUOUS
 10
148.6146697595
 20
79.792291678
 30
0.0
 11
148.6713944479
 21
79.8250438022
 31
0.0
  0
LINE
  5
2F5
100
AcDbEntity
  8
0
100
AcDbLine
 62
7
  6
CONTINUOUS
 10
148.7781478806
 20
79.188680363
 30
0.0
 11
148.8348827805
 21
79.2214383831
 31
0.0
  0
LINE
  5
2F6
100
AcDbEntity
  8
RACCORDO
100
AcDbLine
 62
250
  6
CONTINUOUS
 10
194.2504187486
 20
111.9219032599
 30
0.0
 11
194.2566060296
 21
111.9183519382
 31
0.0
  0
LINE
  5
2F7
100
AcDbEntity
  8
RACCORDO
100
AcDbLine
 62
250
  6
CONTINUOUS
 10
194.4305339457
 20
112.2358824974
 30
0.0
 11
194.4367211681
 21
112.2323312093
 31
0.0
  0
LINE
  5
2F8
100
AcDbEntity
  8
RACCORDO
100
AcDbLine
 62
250
  6
CONTINUOUS
 10
98.9386119256
 20
166.9537671188
 30
0.0
 11
98.9447625979
 21
166.9501946609
 31
0.0
  0
LINE
  5
2F9
100
AcDbEntity
  8
RACCORDO
100
AcDbLine
 62
250
  6
CONTINUOUS
 10
99.1197991356
 20
167.2671273892
 30
0.0
 11
99.1259497497
 21
167.2635549652
 31
0.0
  0
LINE
  5
2FA
100
AcDbEntity
  8
RACCORDO
100
AcDbLine
 62
7
  6
CONTINUOUS
 10
184.8871758828
 20
67.1612221216
 30
0.0
 11
184.8871758828
 21
66.5825091014
 31
0.0
  0
LINE
  5
2FB
100
AcDbEntity
  8
RACCORDO
100
AcDbLine
 62
250
  6
CONTINUOUS
 10
169.2248398274
 20
76.4475896879
 30
0.0
 11
168.9772733061
 21
75.767985897
 31
0.0
  0
LINE
  5
2FC
100
AcDbEntity
  8
RACCORDO
100
AcDbLine
 62
7
  6
CONTINUOUS
 10
169.2162001225
 20
76.4005904231
 30
0.0
 11
168.9700230375
 21
75.724800824
 31
0.0
  0
LINE
  5
2FD
100
AcDbEntity
  8
RACCORDO
100
AcDbLine
 62
7
  6
CONTINUOUS
 10
168.9772733061
 20
76.3474004715
 30
0.0
 11
169.1752585738
 21
76.8852065563
 31
0.0
  0
LINE
  5
2FE
100
AcDbEntity
  8
RACCORDO
100
AcDbLine
 62
7
  6
CONTINUOUS
 10
168.9772733061
 20
76.3474004715
 30
0.0
 11
167.6898266704
 21
75.5218204925
 31
0.0
  0
LINE
  5
2FF
100
AcDbEntity
  8
RACCORDO
100
AcDbLine
 62
7
  6
CONTINUOUS
 10
164.7665829211
 20
78.7786003274
 30
0.0
 11
163.3367285753
 21
78.0352447755
 31
0.0
  0
LWPOLYLINE
  5
300
100
AcDbEntity
  8
RACCORDO
100
AcDbPolyline
 62
7
  6
CONTINUOUS
 90
10
 70
0
 10
80.9618235942
 20
182.8693036429
 10
80.9258329959
 20
182.8898269153
 10
80.8362934669
 20
182.9375271178
 10
80.7471664422
 20
182.9802047063
 10
80.6586340885
 20
183.0178176006
 10
80.5708367639
 20
183.0503689031
 10
80.4838839934
 20
183.0778715914
 10
80.397906531
 20
183.100321075
 10
80.3130469778
 20
183.1177080566
 10
80.3017084347
 20
183.1196628884
  0
LINE
  5
301
100
AcDbEntity
  8
RACCORDO
100
AcDbLine
 62
250
  6
CONTINUOUS
 10
222.4603005768
 20
101.1624292176
 30
0.0
 11
222.7146784708
 21
101.0170509242
 31
0.0
  0
LINE
  5
302
100
AcDbEntity
  8
RACCORDO
100
AcDbLine
 62
7
  6
CONTINUOUS
 10
222.7366397214
 20
101.0103016598
 30
0.0
 11
220.29060152
 21
102.4173414166
 31
0.0
  0
LINE
  5
303
100
AcDbEntity
  8
RACCORDO
100
AcDbLine
 62
7
  6
CONTINUOUS
 10
220.29060152
 20
102.4173414166
 30
0.0
 11
207.8653260796
 21
109.5794655684
 31
0.0
  0
LINE
  5
304
100
AcDbEntity
  8
RACCORDO
100
AcDbLine
 62
250
  6
CONTINUOUS
 10
199.4645696388
 20
114.4081906993
 30
0.0
 11
199.4994542277
 21
114.3880507989
 31
0.0
  0
LINE
  5
305
100
AcDbEntity
  8
RACCORDO
100
AcDbLine
 62
250
  6
CONTINUOUS
 10
151.8046429536
 20
141.9249252968
 30
0.0
 11
151.8399669085
 21
141.9045296887
 31
0.0
  0
LINE
  5
306
100
AcDbEntity
  8
RACCORDO
100
AcDbLine
 62
7
  6
CONTINUOUS
 10
207.8653260796
 20
109.5794655684
 30
0.0
 11
179.6274931349
 21
125.881322388
 31
0.0
  0
LINE
  5
307
100
AcDbEntity
  8
RACCORDO
100
AcDbLine
 62
250
  6
CONTINUOUS
 10
104.1475911912
 20
169.4435578961
 30
0.0
 11
104.1824719092
 21
169.423415054
 31
0.0
  0
LINE
  5
308
100
AcDbEntity
  8
RACCORDO
100
AcDbLine
 62
7
  6
CONTINUOUS
 10
179.6274931349
 20
125.881322388
 30
0.0
 11
101.3579956462
 21
171.0737124941
 31
0.0
  0
LINE
  5
309
100
AcDbEntity
  8
RACCORDO
100
AcDbLine
 62
7
  6
CONTINUOUS
 10
101.3579956462
 20
171.0737124941
 30
0.0
 11
95.8284261853
 21
174.2681703523
 31
0.0
  0
LWPOLYLINE
  5
30A
100
AcDbEntity
  8
RACCORDO
100
AcDbPolyline
 62
7
  6
CONTINUOUS
 90
3
 70
0
 10
95.8284261853
 20
174.2681703523
 10
85.7283673061
 20
180.1094875395
 10
83.403150158
 20
181.4544463363
  0
LINE
  5
30B
100
AcDbEntity
  8
RACCORDO
100
AcDbLine
 62
7
  6
CONTINUOUS
 10
83.403150158
 20
181.4544463363
 30
0.0
 11
80.961821477
 21
182.8693048729
 31
0.0
  0
LINE
  5
30C
100
AcDbEntity
  8
RACCORDO
100
AcDbLine
 62
250
  6
CONTINUOUS
 10
80.9395514613
 20
182.8761426873
 30
0.0
 11
81.2120274552
 21
182.7173995873
 31
0.0
  0
LWPOLYLINE
  5
30D
100
AcDbEntity
  8
RACCORDO
100
AcDbPolyline
 62
7
  6
CONTINUOUS
 90
18
 70
0
 10
201.0603755719
 20
90.2858985109
 10
201.0692123865
 20
90.2717333044
 10
201.0863409749
 20
90.2426304228
 10
201.1025251164
 20
90.2128299884
 10
201.1176500583
 20
90.182531443
 10
201.131643415
 20
90.1518847549
 10
201.1444445851
 20
90.1210387098
 10
201.1559818941
 20
90.0902023238
 10
201.1662239403
 20
90.0595185729
 10
201.1751418131
 20
90.0291542231
 10
201.1826988436
 20
89.9993631658
 10
201.1889054651
 20
89.970294363
 10
201.1937841003
 20
89.9420938253
 10
201.1973572871
 20
89.915010354
 10
201.1996863492
 20
89.8891621142
 10
201.2008440109
 20
89.8646748242
 10
201.2009192619
 20
89.8417927957
 10
201.2005411294
 20
89.8299350023
  0
LINE
  5
30E
100
AcDbEntity
  8
RACCORDO
100
AcDbLine
 62
7
  6
CONTINUOUS
 10
185.1347424041
 20
67.670416394
 30
0.0
 11
185.1347424041
 21
67.2607624279
 31
0.0
  0
LINE
  5
30F
100
AcDbEntity
  8
RACCORDO
100
AcDbLine
 62
250
  6
CONTINUOUS
 10
168.1717396178
 20
75.2435699965
 30
0.0
 11
168.9772733061
 21
75.7686874513
 31
0.0
  0
LINE
  5
310
100
AcDbEntity
  8
RACCORDO
100
AcDbLine
 62
7
  6
CONTINUOUS
 10
168.9281508543
 20
75.6720808756
 30
0.0
 11
168.2242781067
 21
75.2132349314
 31
0.0
  0
LINE
  5
311
100
AcDbEntity
  8
RACCORDO
100
AcDbLine
 62
250
  6
CONTINUOUS
 10
185.1347424041
 20
67.2614113381
 30
0.0
 11
184.8871758828
 21
66.5818075471
 31
0.0
  0
LINE
  5
312
100
AcDbEntity
  8
RACCORDO
100
AcDbLine
 62
7
  6
CONTINUOUS
 10
185.1261026992
 20
67.2144120733
 30
0.0
 11
184.8799256142
 21
66.5386224741
 31
0.0
  0
LINE
  5
313
100
AcDbEntity
  8
RACCORDO
100
AcDbLine
 62
7
  6
CONTINUOUS
 10
184.8871758828
 20
67.1612221216
 30
0.0
 11
185.0851611505
 21
67.6990282064
 31
0.0
  0
LINE
  5
314
100
AcDbEntity
  8
RACCORDO
100
AcDbLine
 62
7
  6
CONTINUOUS
 10
180.6764854978
 20
69.5924219776
 30
0.0
 11
179.246631152
 21
68.8490664256
 31
0.0
  0
LWPOLYLINE
  5
315
100
AcDbEntity
  8
RACCORDO
100
AcDbPolyline
 62
7
  6
CONTINUOUS
 90
9
 70
0
 10
201.2005770226
 20
54.0927396464
 10
201.2010039559
 20
54.0771663305
 10
201.2006959067
 20
54.0600454496
 10
201.1996100375
 20
54.0447795824
 10
201.1978814224
 20
54.0314066772
 10
201.1957000308
 20
54.020162464
 10
201.1933818639
 20
54.0114509004
 10
201.1912745946
 20
54.0053615193
 10
201.1903888825
 20
54.003225943
  0
LWPOLYLINE
  5
316
100
AcDbEntity
  8
RACCORDO
100
AcDbPolyline
 62
7
  6
CONTINUOUS
 90
10
 70
0
 10
200.8399046336
 20
71.7462814228
 10
200.8448182167
 20
69.5656300293
 10
200.8596792212
 20
67.3874858744
 10
200.8837708059
 20
65.2772894615
 10
200.9163773382
 20
63.2346647128
 10
200.9568623584
 20
61.2592516046
 10
201.0054148217
 20
59.3511680032
 10
201.0625375288
 20
57.5108003216
 10
201.1284994786
 20
55.7384102327
 10
201.2005750975
 20
54.0927802716
  0
LINE
  5
317
100
AcDbEntity
  8
RACCORDO
100
AcDbLine
 62
7
  6
CONTINUOUS
 10
200.7970784595
 20
57.6004483208
 30
0.0
 11
200.7970784595
 21
58.179161341
 31
0.0
  0
LWPOLYLINE
  5
318
100
AcDbEntity
  8
RACCORDO
100
AcDbPolyline
 62
7
  6
CONTINUOUS
 90
10
 70
0
 10
201.2005404297
 20
89.8299193701
 10
201.1286907632
 20
88.1039238795
 10
201.0627034883
 20
86.2528570021
 10
201.0055552907
 20
84.3443412342
 10
200.9569817407
 20
82.3783209206
 10
200.9164667462
 20
80.3545812906
 10
200.8838429223
 20
78.2730418981
 10
200.8597281671
 20
76.1340967658
 10
200.8448426036
 20
73.9382245313
 10
200.8399046336
 20
71.746280542
  0
LINE
  5
319
100
AcDbEntity
  8
RACCORDO
100
AcDbLine
 62
250
  6
CONTINUOUS
 10
184.0816421945
 20
66.0573916466
 30
0.0
 11
184.8871758828
 21
66.5825091014
 31
0.0
  0
LINE
  5
31A
100
AcDbEntity
  8
RACCORDO
100
AcDbLine
 62
7
  6
CONTINUOUS
 10
184.838053431
 20
66.4859025258
 30
0.0
 11
184.1341806834
 21
66.0270565816
 31
0.0
  0
LINE
  5
31B
100
AcDbEntity
  8
RACCORDO
100
AcDbLine
 62
7
  6
CONTINUOUS
 10
184.8871758828
 20
67.1612221216
 30
0.0
 11
183.5997292471
 21
66.3356421427
 31
0.0
  0
LWPOLYLINE
  5
31C
100
AcDbEntity
  8
RACCORDO
100
AcDbPolyline
 62
7
  6
CONTINUOUS
 90
13
 70
0
 10
89.9029708021
 20
154.5544139277
 10
89.9039802713
 20
154.5545271106
 10
89.9064809229
 20
154.5546068023
 10
89.9106678366
 20
154.5544194802
 10
89.9166300015
 20
154.55371086
 10
89.924207374
 20
154.5522722228
 10
89.9331935838
 20
154.549962125
 10
89.9434752937
 20
154.5466586145
 10
89.9549355965
 20
154.5422635692
 10
89.967406941
 20
154.5367261401
 10
89.9807705808
 20
154.5300013752
 10
89.9949155828
 20
154.5220557734
 10
89.9995126343
 20
154.5192982474
  0
LINE
  5
31D
100
AcDbEntity
  8
0
100
AcDbLine
 62
7
  6
CONTINUOUS
 10
195.0151684281
 20
59.7445106286
 30
0.0
 11
195.0598306342
 21
59.8167314457
 31
0.0
  0
LINE
  5
31E
100
AcDbEntity
  8
DRAFT
100
AcDbLine
 62
7
  6
CONTINUOUS
 10
195.3202882713
 20
59.8296681442
 30
0.0
 11
195.4319129728
 21
60.01017036
 31
0.0
  0
LINE
  5
31F
100
AcDbEntity
  8
DRAFT
100
AcDbLine
 62
7
  6
CONTINUOUS
 10
195.6923706099
 20
60.0231070585
 30
0.0
 11
195.8039953115
 21
60.2036092743
 31
0.0
  0
LINE
  5
320
100
AcDbEntity
  8
DRAFT
100
AcDbLine
 62
7
  6
CONTINUOUS
 10
196.0644529486
 20
60.2165459728
 30
0.0
 11
196.1760776502
 21
60.3970481886
 31
0.0
  0
LINE
  5
321
100
AcDbEntity
  8
DRAFT
100
AcDbLine
 62
7
  6
CONTINUOUS
 10
196.4365352872
 20
60.409984887
 30
0.0
 11
196.5481599888
 21
60.5904871028
 31
0.0
  0
LINE
  5
322
100
AcDbEntity
  8
SMUSSO
100
AcDbLine
 62
7
  6
CONTINUOUS
 10
196.5863880745
 20
60.6103611969
 30
0.0
 11
196.5481599888
 21
60.5904871028
 31
0.0
  0
LINE
  5
323
100
AcDbEntity
  8
DRAFT
100
AcDbLine
 62
7
  6
CONTINUOUS
 10
196.3249105856
 20
60.4744237543
 30
0.0
 11
196.1760776502
 21
60.3970481886
 31
0.0
  0
LINE
  5
324
100
AcDbEntity
  8
DRAFT
100
AcDbLine
 62
7
  6
CONTINUOUS
 10
195.952828247
 20
60.28098484
 30
0.0
 11
195.8039953115
 21
60.2036092743
 31
0.0
  0
LINE
  5
325
100
AcDbEntity
  8
DRAFT
100
AcDbLine
 62
7
  6
CONTINUOUS
 10
195.5807459083
 20
60.0875459257
 30
0.0
 11
195.4319129728
 21
60.01017036
 31
0.0
  0
LINE
  5
326
100
AcDbEntity
  8
DRAFT
100
AcDbLine
 62
7
  6
CONTINUOUS
 10
195.2086635697
 20
59.8941070115
 30
0.0
 11
195.0598306342
 21
59.8167314457
 31
0.0
  0
LWPOLYLINE
  5
327
100
AcDbEntity
  8
SUPERFICI
100
AcDbPolyline
 62
7
  6
CONTINUOUS
 90
3
 70
0
 10
78.8190414061
 20
183.3735146726
 10
78.8842385689
 20
183.3622195829
 10
80.3014932937
 20
183.1196991895
  0
LINE
  5
328
100
AcDbEntity
  8
RACCORDO
100
AcDbLine
 62
250
  6
CONTINUOUS
 10
220.1392418525
 20
44.5442528942
 30
0.0
 11
220.1458113563
 21
44.4126331897
 31
0.0
  0
LINE
  5
329
100
AcDbEntity
  8
0
100
AcDbLine
 62
7
  6
CONTINUOUS
 10
199.3823459354
 20
57.2229570695
 30
0.0
 11
199.4225599664
 21
57.2977462072
 31
0.0
  0
LINE
  5
32A
100
AcDbEntity
  8
DRAFT
100
AcDbLine
 62
7
  6
CONTINUOUS
 10
199.6570770761
 20
57.325660641
 30
0.0
 11
199.7575844089
 21
57.5125818862
 31
0.0
  0
LINE
  5
32B
100
AcDbEntity
  8
DRAFT
100
AcDbLine
 62
7
  6
CONTINUOUS
 10
199.9921015187
 20
57.5404963201
 30
0.0
 11
200.0926088514
 21
57.7274175653
 31
0.0
  0
LINE
  5
32C
100
AcDbEntity
  8
DRAFT
100
AcDbLine
 62
7
  6
CONTINUOUS
 10
200.3271259612
 20
57.7553319991
 30
0.0
 11
200.427633294
 21
57.9422532443
 31
0.0
  0
LINE
  5
32D
100
AcDbEntity
  8
DRAFT
100
AcDbLine
 62
7
  6
CONTINUOUS
 10
200.6621504037
 20
57.9701676782
 30
0.0
 11
200.7626577365
 21
58.1570889234
 31
0.0
  0
LINE
  5
32E
100
AcDbEntity
  8
RACCORDO
100
AcDbLine
 62
250
  6
CONTINUOUS
 10
201.0476542876
 20
57.9903055383
 30
0.0
 11
200.7970784595
 21
57.5999332888
 31
0.0
  0
LINE
  5
32F
100
AcDbEntity
  8
RACCORDO
100
AcDbLine
 62
7
  6
CONTINUOUS
 10
201.0487781063
 20
57.9540985799
 30
0.0
 11
200.7795116632
 21
57.534608209
 31
0.0
  0
LINE
  5
330
100
AcDbEntity
  8
RACCORDO
100
AcDbLine
 62
7
  6
CONTINUOUS
 10
200.7970784595
 20
58.179161341
 30
0.0
 11
201.0306327589
 21
58.5387016658
 31
0.0
  0
LINE
  5
331
100
AcDbEntity
  8
RACCORDO
100
AcDbLine
 62
250
  6
CONTINUOUS
 10
199.9990587675
 20
56.8668748095
 30
0.0
 11
200.3725116826
 21
57.2590942301
 31
0.0
  0
LINE
  5
332
100
AcDbEntity
  8
RACCORDO
100
AcDbLine
 62
7
  6
CONTINUOUS
 10
200.0126026819
 20
56.859054723
 30
0.0
 11
200.4278495695
 21
57.2951683146
 31
0.0
  0
LINE
  5
333
100
AcDbEntity
  8
RACCORDO
100
AcDbLine
 62
7
  6
CONTINUOUS
 10
201.0353845099
 20
57.9332326872
 30
0.0
 11
201.0489824841
 21
57.9475139775
 31
0.0
  0
LINE
  5
334
100
AcDbEntity
  8
RACCORDO
100
AcDbLine
 62
250
  6
CONTINUOUS
 10
199.8254976691
 20
56.9670868124
 30
0.0
 11
200.7970784595
 21
57.6004483208
 31
0.0
  0
LINE
  5
335
100
AcDbEntity
  8
RACCORDO
100
AcDbLine
 62
7
  6
CONTINUOUS
 10
200.7508063531
 20
57.50569985
 30
0.0
 11
199.878036158
 21
56.9367517474
 31
0.0
  0
LINE
  5
336
100
AcDbEntity
  8
SMUSSO
100
AcDbLine
 62
7
  6
CONTINUOUS
 10
200.7970784595
 20
58.179161341
 30
0.0
 11
200.7626577365
 21
58.1570889234
 31
0.0
  0
LINE
  5
337
100
AcDbEntity
  8
DRAFT
100
AcDbLine
 62
7
  6
CONTINUOUS
 10
200.561643071
 20
58.028187516
 30
0.0
 11
200.427633294
 21
57.9422532443
 31
0.0
  0
LINE
  5
338
100
AcDbEntity
  8
DRAFT
100
AcDbLine
 62
7
  6
CONTINUOUS
 10
200.2266186284
 20
57.8133518369
 30
0.0
 11
200.0926088514
 21
57.7274175653
 31
0.0
  0
LINE
  5
339
100
AcDbEntity
  8
DRAFT
100
AcDbLine
 62
7
  6
CONTINUOUS
 10
199.8915941859
 20
57.5985161579
 30
0.0
 11
199.7575844089
 21
57.5125818862
 31
0.0
  0
LINE
  5
33A
100
AcDbEntity
  8
DRAFT
100
AcDbLine
 62
7
  6
CONTINUOUS
 10
199.5565697434
 20
57.3836804788
 30
0.0
 11
199.4225599664
 21
57.2977462072
 31
0.0
  0
LINE
  5
33B
100
AcDbEntity
  8
RACCORDO
100
AcDbLine
 62
7
  6
CONTINUOUS
 10
201.2002051569
 20
54.010243513
 30
0.0
 11
201.1997570751
 21
54.0099674804
 31
0.0
  0
LWPOLYLINE
  5
33C
100
AcDbEntity
  8
RACCORDO
100
AcDbPolyline
 62
7
  6
CONTINUOUS
 90
34
 70
0
 10
224.6246853688
 20
97.7407891868
 10
224.6243532627
 20
97.7892867071
 10
224.6202021721
 20
97.9016148468
 10
224.6113516591
 20
98.0157282889
 10
224.5978759621
 20
98.1313099018
 10
224.5798715769
 20
98.2481234184
 10
224.5574146115
 20
98.3659872867
 10
224.5305863663
 20
98.4846416333
 10
224.4994702258
 20
98.6038210222
 10
224.4641386065
 20
98.7233247656
 10
224.4246823135
 20
98.8428916174
 10
224.3812084711
 20
98.9622449429
 10
224.3338117446
 20
99.0811554558
 10
224.2826127973
 20
99.1993523858
 10
224.2277335482
 20
99.3165697958
 10
224.1692887157
 20
99.4325843433
 10
224.107414897
 20
99.547129501
 10
224.0422537828
 20
99.6599450733
 10
223.9739302751
 20
99.7708164839
 10
223.902592835
 20
99.8794852358
 10
223.8284018959
 20
99.9856978866
 10
223.7514937432
 20
100.0892426312
 10
223.6720328344
 20
100.1898713361
 10
223.5901953048
 20
100.2873448102
 10
223.5061279785
 20
100.3814597275
 10
223.4200165795
 20
100.4719837043
 10
223.3320421622
 20
100.5586984808
 10
223.2423438287
 20
100.6414371331
 10
223.1511104456
 20
100.7199869348
 10
223.0585255594
 20
100.7941420931
 10
222.9647136767
 20
100.8637342029
 10
222.8698431602
 20
100.9285502619
 10
222.7741455711
 20
100.9883614593
 10
222.7366394129
 20
101.0103018369
  0
LINE
  5
33D
100
AcDbEntity
  8
RACCORDO
100
AcDbLine
 62
250
  6
CONTINUOUS
 10
224.6187281113
 20
34.3239847617
 30
0.0
 11
224.6198451099
 21
34.0343104888
 31
0.0
  0
LINE
  5
33E
100
AcDbEntity
  8
RACCORDO
100
AcDbLine
 62
7
  6
CONTINUOUS
 10
224.6246853919
 20
34.0562028404
 30
0.0
 11
224.6199784615
 21
36.9058161985
 31
0.0
  0
LINE
  5
33F
100
AcDbEntity
  8
RACCORDO
100
AcDbLine
 62
7
  6
CONTINUOUS
 10
224.6199784615
 20
36.9058161985
 30
0.0
 11
224.6150719523
 21
41.2152793334
 31
0.0
  0
LINE
  5
340
100
AcDbEntity
  8
RACCORDO
100
AcDbLine
 62
250
  6
CONTINUOUS
 10
224.5952001777
 20
47.5402702817
 30
0.0
 11
224.5952314799
 21
47.5026096598
 31
0.0
  0
LINE
  5
341
100
AcDbEntity
  8
RACCORDO
100
AcDbLine
 62
7
  6
CONTINUOUS
 10
224.6150719523
 20
41.2152793334
 30
0.0
 11
224.610163098
 21
47.5402826101
 31
0.0
  0
LINE
  5
342
100
AcDbEntity
  8
RACCORDO
100
AcDbLine
 62
250
  6
CONTINUOUS
 10
224.5892159139
 20
65.9087734883
 30
0.0
 11
224.5892158895
 21
65.8679842459
 31
0.0
  0
LINE
  5
343
100
AcDbEntity
  8
RACCORDO
100
AcDbLine
 62
7
  6
CONTINUOUS
 10
224.6101630968
 20
47.540285585
 30
0.0
 11
224.607251588
 21
59.2338885458
 31
0.0
  0
LINE
  5
344
100
AcDbEntity
  8
RACCORDO
100
AcDbLine
 62
7
  6
CONTINUOUS
 10
224.607251588
 20
59.2338885458
 30
0.0
 11
224.607252179
 21
72.5886873959
 31
0.0
  0
LINE
  5
345
100
AcDbEntity
  8
RACCORDO
100
AcDbLine
 62
7
  6
CONTINUOUS
 10
224.607252179
 20
72.5886873959
 30
0.0
 11
224.6101630953
 21
84.2734826511
 31
0.0
  0
LINE
  5
346
100
AcDbEntity
  8
RACCORDO
100
AcDbLine
 62
250
  6
CONTINUOUS
 10
224.5952629662
 20
84.2734953155
 30
0.0
 11
224.5952314799
 21
84.2358219632
 31
0.0
  0
LINE
  5
347
100
AcDbEntity
  8
RACCORDO
100
AcDbLine
 62
7
  6
CONTINUOUS
 10
224.6101630939
 20
84.273479978
 30
0.0
 11
224.6150779131
 21
90.5984352196
 31
0.0
  0
LINE
  5
348
100
AcDbEntity
  8
RACCORDO
100
AcDbLine
 62
7
  6
CONTINUOUS
 10
224.6150779131
 20
90.5984352196
 30
0.0
 11
224.6240453473
 21
97.4736409791
 31
0.0
  0
LINE
  5
349
100
AcDbEntity
  8
RACCORDO
100
AcDbLine
 62
7
  6
CONTINUOUS
 10
224.6240454855
 20
97.4736904277
 30
0.0
 11
224.6246853888
 21
97.7407969719
 31
0.0
  0
LINE
  5
34A
100
AcDbEntity
  8
RACCORDO
100
AcDbLine
 62
250
  6
CONTINUOUS
 10
224.6197949509
 20
97.7189324123
 30
0.0
 11
224.6188074477
 21
97.4510660396
 31
0.0
  0
LINE
  5
34B
100
AcDbEntity
  8
RACCORDO
100
AcDbLine
 62
250
  6
CONTINUOUS
 10
220.1458042843
 20
81.1537986095
 30
0.0
 11
220.139248785
 21
81.014586502
 31
0.0
  0
LWPOLYLINE
  5
34C
100
AcDbEntity
  8
RACCORDO
100
AcDbPolyline
 62
7
  6
CONTINUOUS
 90
9
 70
0
 10
224.5153494501
 20
33.3705712932
 10
224.5435020634
 20
33.4552702388
 10
224.5670030161
 20
33.5412823242
 10
224.586591896
 20
33.630691143
 10
224.6022056978
 20
33.7233783866
 10
224.6137767365
 20
33.8192524111
 10
224.6212334808
 20
33.9181869118
 10
224.6245210624
 20
34.0200029299
 10
224.6246853906
 20
34.0562033969
  0
LINE
  5
34D
100
AcDbEntity
  8
SUPERFICI
100
AcDbLine
 62
7
  6
CONTINUOUS
 10
224.5153645197
 20
33.3706110202
 30
0.0
 11
224.0175335713
 21
31.9952096104
 31
0.0
  0
LINE
  5
34E
100
AcDbEntity
  8
RACCORDO
100
AcDbLine
 62
7
  6
CONTINUOUS
 10
224.5153643134
 20
33.3706104539
 30
0.0
 11
224.5153524137
 21
33.3705777846
 31
0.0
  0
LINE
  5
34F
100
AcDbEntity
  8
SUPERFICI
100
AcDbLine
 62
7
  6
CONTINUOUS
 10
223.0941632179
 20
30.7582925718
 30
0.0
 11
220.7223912871
 21
29.8862244379
 31
0.0
  0
LINE
  5
350
100
AcDbEntity
  8
RACCORDO
100
AcDbLine
 62
7
  6
CONTINUOUS
 10
220.7224736807
 20
29.8862547359
 30
0.0
 11
220.7223908913
 21
29.8862242924
 31
0.0
  0
ARC
  5
351
100
AcDbEntity
  8
SUPERFICI
100
AcDbCircle
 62
7
  6
CONTINUOUS
 10
205.3055241416
 20
66.1348060975
 30
0.0
 40
38.4762337326
100
AcDbArc
 50
65.655872221
 51
66.2068374649
  0
ARC
  5
352
100
AcDbEntity
  8
SUPERFICI
100
AcDbCircle
 62
7
  6
CONTINUOUS
 10
188.5750626031
 20
99.5327183069
 30
0.0
 40
35.5962679655
100
AcDbArc
 50
354.2566784587
 51
354.8033708509
  0
ARC
  5
353
100
AcDbEntity
  8
SUPERFICI
100
AcDbCircle
 62
7
  6
CONTINUOUS
 10
199.0940241224
 20
30.0918163328
 30
0.0
 40
25.0592542258
100
AcDbArc
 50
5.7993770407
 51
6.4909006955
  0
ARC
  5
354
100
AcDbEntity
  8
0
100
AcDbCircle
 62
7
  6
CONTINUOUS
 10
163.263265535
 20
83.2216830941
 30
0.0
 40
14.9726479508
100
AcDbArc
 50
195.2406410196
 51
195.4959438817
  0
ARC
  5
355
100
AcDbEntity
  8
RACCORDO
100
AcDbCircle
 62
250
  6
CONTINUOUS
 10
220.3129062514
 20
33.493727382
 30
0.0
 40
3.6363359595
100
AcDbArc
 50
246.0033257478
 51
248.577972874
  0
ARC
  5
356
100
AcDbEntity
  8
RACCORDO
100
AcDbCircle
 62
250
  6
CONTINUOUS
 10
221.3861452269
 20
98.6972365712
 30
0.0
 40
2.6732362772
100
AcDbArc
 50
57.3730425391
 51
59.2799968547
  0
ARC
  5
357
100
AcDbEntity
  8
RACCORDO
100
AcDbCircle
 62
250
  6
CONTINUOUS
 10
222.0149967391
 20
97.7286823567
 30
0.0
 40
2.6048164591
100
AcDbArc
 50
359.7855388369
 51
1.2841385333
  0
ARC
  5
358
100
AcDbEntity
  8
RACCORDO
100
AcDbCircle
 62
250
  6
CONTINUOUS
 10
221.4276093015
 20
98.7668581775
 30
0.0
 40
2.5922027597
100
AcDbArc
 50
59.281762236
 51
60.2348753492
  0
ARC
  5
359
100
AcDbEntity
  8
RACCORDO
100
AcDbCircle
 62
250
  6
CONTINUOUS
 10
222.1108837624
 20
34.0244176709
 30
0.0
 40
2.508930256
100
AcDbArc
 50
359.1768872144
 51
0.2233781092
  0
ARC
  5
35A
100
AcDbEntity
  8
RACCORDO
100
AcDbCircle
 62
250
  6
CONTINUOUS
 10
222.9895921858
 20
33.9183586136
 30
0.0
 40
1.6212981269
100
AcDbArc
 50
343.7079377929
 51
345.6610685392
  0
ARC
  5
35B
100
AcDbEntity
  8
RACCORDO
100
AcDbCircle
 62
250
  6
CONTINUOUS
 10
223.0452909315
 20
33.9022787976
 30
0.0
 40
1.5633250917
100
AcDbArc
 50
342.8643589766
 51
343.700928141
  0
ARC
  5
35C
100
AcDbEntity
  8
RACCORDO
100
AcDbCircle
 62
250
  6
CONTINUOUS
 10
223.1035455058
 20
33.884128638
 30
0.0
 40
1.5023087844
100
AcDbArc
 50
340.01227188
 51
342.8712485584
  0
ARC
  5
35D
100
AcDbEntity
  8
RACCORDO
100
AcDbCircle
 62
250
  6
CONTINUOUS
 10
200.0235028167
 20
89.6453763965
 30
0.0
 40
1.2851663015
100
AcDbArc
 50
28.2947030732
 51
31.689806889
  0
ARC
  5
35E
100
AcDbEntity
  8
RACCORDO
100
AcDbCircle
 62
250
  6
CONTINUOUS
 10
200.0359110776
 20
89.6529607516
 30
0.0
 40
1.2706238417
100
AcDbArc
 50
31.6927265749
 51
32.4525936327
  0
ARC
  5
35F
100
AcDbEntity
  8
RACCORDO
100
AcDbCircle
 62
250
  6
CONTINUOUS
 10
200.0436679999
 20
89.6578832456
 30
0.0
 40
1.2614368554
100
AcDbArc
 50
32.452984284
 51
34.8008336001
  0
ARC
  5
360
100
AcDbEntity
  8
0
100
AcDbCircle
 62
7
  6
CONTINUOUS
 10
147.9995199524
 20
79.9255779266
 30
0.0
 40
0.5310190322
100
AcDbArc
 50
39.4128579114
 51
42.1452551421
  0
ARC
  5
361
100
AcDbEntity
  8
0
100
AcDbCircle
 62
7
  6
CONTINUOUS
 10
148.0843717572
 20
79.9835456775
 30
0.0
 40
0.4932361316
100
AcDbArc
 50
42.0956083921
 51
43.1210361479
  0
ARC
  5
362
100
AcDbEntity
  8
0
100
AcDbCircle
 62
7
  6
CONTINUOUS
 10
148.0445338902
 20
79.9664387313
 30
0.0
 40
0.4702255246
100
AcDbArc
 50
42.1341462988
 51
45.2287576386
  0
ARC
  5
363
100
AcDbEntity
  8
RACCORDO
100
AcDbCircle
 62
250
  6
CONTINUOUS
 10
201.1112730469
 20
54.1642113677
 30
0.0
 40
0.1783728723
100
AcDbArc
 50
280.4598720948
 51
285.4204210777
  0
ARC
  5
364
100
AcDbEntity
  8
RACCORDO
100
AcDbCircle
 62
250
  6
CONTINUOUS
 10
201.1142782143
 20
54.1532520549
 30
0.0
 40
0.1670090149
100
AcDbArc
 50
285.4262857894
 51
290.5171687078
  0
ARC
  5
365
100
AcDbEntity
  8
RACCORDO
100
AcDbCircle
 62
250
  6
CONTINUOUS
 10
201.1171361063
 20
54.145504238
 30
0.0
 40
0.1587510115
100
AcDbArc
 50
290.5312116605
 51
296.4379669163
  0
ARC
  5
366
100
AcDbEntity
  8
RACCORDO
100
AcDbCircle
 62
250
  6
CONTINUOUS
 10
201.1193151622
 20
54.1411037499
 30
0.0
 40
0.1538399053
100
AcDbArc
 50
296.4577201657
 51
301.5270675729
  0
ARC
  5
367
100
AcDbEntity
  8
RACCORDO
100
AcDbCircle
 62
250
  6
CONTINUOUS
 10
126.0641394968
 20
245.8189523316
 30
0.0
 40
81.1632959325
100
AcDbArc
 50
232.8333462548
 51
233.0561180129
  0
ARC
  5
368
100
AcDbEntity
  8
RACCORDO
100
AcDbCircle
 62
250
  6
CONTINUOUS
 10
125.4821289997
 20
245.0523730879
 30
0.0
 40
79.8399483014
100
AcDbArc
 50
232.8207757335
 51
233.0462668463
  0
ARC
  5
369
100
AcDbEntity
  8
SUPERFICI
100
AcDbCircle
 62
7
  6
CONTINUOUS
 10
63.7160355434
 20
161.7745632285
 30
0.0
 40
26.4255848541
100
AcDbArc
 50
52.9100015117
 51
53.6170663897
  0
ARC
  5
36A
100
AcDbEntity
  8
0
100
AcDbCircle
 62
7
  6
CONTINUOUS
 10
370.5324333069
 20
114.2713538459
 30
0.0
 40
227.1318032187
100
AcDbArc
 50
187.9320046175
 51
188.4571471022
  0
ARC
  5
36B
100
AcDbEntity
  8
0
100
AcDbCircle
 62
7
  6
CONTINUOUS
 10
370.0171168915
 20
114.2259047428
 30
0.0
 40
226.5544705184
100
AcDbArc
 50
187.9323835466
 51
188.4588604243
  0
ARC
  5
36C
100
AcDbEntity
  8
0
100
AcDbCircle
 62
7
  6
CONTINUOUS
 10
364.5031653324
 20
108.8289525077
 30
0.0
 40
220.745295268
100
AcDbArc
 50
186.8773453555
 51
187.2226760197
  0
ARC
  5
36D
100
AcDbEntity
  8
0
100
AcDbCircle
 62
7
  6
CONTINUOUS
 10
357.9896144075
 20
94.8001349497
 30
0.0
 40
210.62477188
100
AcDbArc
 50
183.6664015862
 51
183.7978426437
  0
ARC
  5
36E
100
AcDbEntity
  8
0
100
AcDbCircle
 62
7
  6
CONTINUOUS
 10
353.7194911129
 20
97.0388099815
 30
0.0
 40
210.3772532286
100
AcDbArc
 50
183.5582498615
 51
184.0946630869
  0
ARC
  5
36F
100
AcDbEntity
  8
0
100
AcDbCircle
 62
7
  6
CONTINUOUS
 10
356.8586888616
 20
94.9220773187
 30
0.0
 40
209.9040991565
100
AcDbArc
 50
183.5639411834
 51
184.0682913759
  0
ARC
  5
370
100
AcDbEntity
  8
0
100
AcDbCircle
 62
7
  6
CONTINUOUS
 10
352.7972698158
 20
97.2148608834
 30
0.0
 40
209.8227261662
100
AcDbArc
 50
183.5575410571
 51
184.0953719452
  0
ARC
  5
371
100
AcDbEntity
  8
0
100
AcDbCircle
 62
7
  6
CONTINUOUS
 10
353.1431738981
 20
97.0331391485
 30
0.0
 40
209.7430731396
100
AcDbArc
 50
183.5585101234
 51
184.0965403281
  0
ARC
  5
372
100
AcDbEntity
  8
0
100
AcDbCircle
 62
7
  6
CONTINUOUS
 10
356.5210142225
 20
94.6606375835
 30
0.0
 40
209.1971733824
100
AcDbArc
 50
183.8847652602
 51
184.0955633972
  0
ARC
  5
373
100
AcDbEntity
  8
0
100
AcDbCircle
 62
7
  6
CONTINUOUS
 10
356.3217380335
 20
94.6796186555
 30
0.0
 40
208.940832161
100
AcDbArc
 50
183.9044915738
 51
184.0968090696
  0
ARC
  5
374
100
AcDbEntity
  8
0
100
AcDbCircle
 62
7
  6
CONTINUOUS
 10
339.766465632
 20
16.6662302987
 30
0.0
 40
205.5998493755
100
AcDbArc
 50
161.1368640993
 51
161.395596751
  0
ARC
  5
375
100
AcDbEntity
  8
0
100
AcDbCircle
 62
7
  6
CONTINUOUS
 10
338.7074675326
 20
15.4637336926
 30
0.0
 40
204.6179586673
100
AcDbArc
 50
160.9338999601
 51
161.2095999551
  0
ARC
  5
376
100
AcDbEntity
  8
0
100
AcDbCircle
 62
7
  6
CONTINUOUS
 10
338.0461246183
 20
15.7462353476
 30
0.0
 40
203.8577079449
100
AcDbArc
 50
160.9456314666
 51
161.2110432322
  0
ARC
  5
377
100
AcDbEntity
  8
0
100
AcDbCircle
 62
7
  6
CONTINUOUS
 10
344.9057550044
 20
83.6501693495
 30
0.0
 40
200.4844574501
100
AcDbArc
 50
180.2045515779
 51
180.5577963444
  0
ARC
  5
378
100
AcDbEntity
  8
0
100
AcDbCircle
 62
7
  6
CONTINUOUS
 10
344.3177426309
 20
83.6821719906
 30
0.0
 40
199.8397334538
100
AcDbArc
 50
180.2633217824
 51
180.5593793832
  0
ARC
  5
379
100
AcDbEntity
  8
0
100
AcDbCircle
 62
7
  6
CONTINUOUS
 10
342.430779088
 20
79.8567666669
 30
0.0
 40
198.3634799753
100
AcDbArc
 50
178.868134083
 51
179.4091739935
  0
ARC
  5
37A
100
AcDbEntity
  8
0
100
AcDbCircle
 62
7
  6
CONTINUOUS
 10
333.700141845
 20
32.5932190313
 30
0.0
 40
197.3454543242
100
AcDbArc
 50
164.8183346221
 51
165.3102199021
  0
ARC
  5
37B
100
AcDbEntity
  8
0
100
AcDbCircle
 62
7
  6
CONTINUOUS
 10
332.8007180009
 20
32.8844908901
 30
0.0
 40
196.3549943507
100
AcDbArc
 50
164.8180783193
 51
165.3124363599
  0
ARC
  5
37C
100
AcDbEntity
  8
0
100
AcDbCircle
 62
7
  6
CONTINUOUS
 10
335.7867661133
 20
32.8864210827
 30
0.0
 40
195.8191846709
100
AcDbArc
 50
165.3297693529
 51
165.8080540082
  0
ARC
  5
37D
100
AcDbEntity
  8
0
100
AcDbCircle
 62
7
  6
CONTINUOUS
 10
332.4406563353
 20
41.3700532015
 30
0.0
 40
194.4089785984
100
AcDbArc
 50
167.1861074793
 51
167.5344203613
  0
ARC
  5
37E
100
AcDbEntity
  8
0
100
AcDbCircle
 62
7
  6
CONTINUOUS
 10
336.0571011616
 20
40.4073323658
 30
0.0
 40
193.9761320189
100
AcDbArc
 50
167.6671896443
 51
167.8555937121
  0
ARC
  5
37F
100
AcDbEntity
  8
0
100
AcDbCircle
 62
7
  6
CONTINUOUS
 10
335.688512651
 20
40.5356466045
 30
0.0
 40
193.5402357671
100
AcDbArc
 50
167.7091235434
 51
167.8567630775
  0
ARC
  5
380
100
AcDbEntity
  8
RACCORDO
100
AcDbCircle
 62
250
  6
CONTINUOUS
 10
327.4577786147
 20
84.3839330131
 30
0.0
 40
106.8200415695
100
AcDbArc
 50
174.1633770323
 51
174.340501657
  0
ARC
  5
381
100
AcDbEntity
  8
RACCORDO
100
AcDbCircle
 62
250
  6
CONTINUOUS
 10
326.4345602276
 20
84.4800270694
 30
0.0
 40
105.433933291
100
AcDbArc
 50
174.1533364869
 51
174.3320578083
  0
ARC
  5
382
100
AcDbEntity
  8
RACCORDO
100
AcDbCircle
 62
250
  6
CONTINUOUS
 10
305.0246868017
 20
41.2124140322
 30
0.0
 40
84.390325559
100
AcDbArc
 50
186.3886588881
 51
186.5873898559
  0
ARC
  5
383
100
AcDbEntity
  8
RACCORDO
100
AcDbCircle
 62
250
  6
CONTINUOUS
 10
304.1965752111
 20
41.1195497545
 30
0.0
 40
83.198796403
100
AcDbArc
 50
186.3988543772
 51
186.5995780153
  0
ARC
  5
384
100
AcDbEntity
  8
0
100
AcDbCircle
 62
7
  6
CONTINUOUS
 10
432.6286712057
 20
179.213201613
 30
0.0
 40
303.6146358213
100
AcDbArc
 50
198.3632639672
 51
198.6225600468
  0
ARC
  5
385
100
AcDbEntity
  8
0
100
AcDbCircle
 62
7
  6
CONTINUOUS
 10
432.1299261475
 20
179.8647703494
 30
0.0
 40
303.5967923031
100
AcDbArc
 50
198.6189826501
 51
198.9243331924
  0
ARC
  5
386
100
AcDbEntity
  8
0
100
AcDbCircle
 62
7
  6
CONTINUOUS
 10
432.5379270224
 20
179.201592417
 30
0.0
 40
303.4607292945
100
AcDbArc
 50
198.3640875846
 51
198.6100037526
  0
ARC
  5
387
100
AcDbEntity
  8
0
100
AcDbCircle
 62
7
  6
CONTINUOUS
 10
414.860668496
 20
166.3917370872
 30
0.0
 40
284.9114241076
100
AcDbArc
 50
196.5752945408
 51
197.0561098529
  0
ARC
  5
388
100
AcDbEntity
  8
0
100
AcDbCircle
 62
7
  6
CONTINUOUS
 10
417.5550191598
 20
161.1434447698
 30
0.0
 40
282.0966660118
100
AcDbArc
 50
196.2356158334
 51
196.7181464247
  0
ARC
  5
389
100
AcDbEntity
  8
0
100
AcDbCircle
 62
7
  6
CONTINUOUS
 10
417.1475594639
 20
161.0438210643
 30
0.0
 40
281.6140108984
100
AcDbArc
 50
196.2361632536
 51
196.7195189058
  0
ARC
  5
38A
100
AcDbEntity
  8
0
100
AcDbCircle
 62
7
  6
CONTINUOUS
 10
406.0200055607
 20
156.5428021852
 30
0.0
 40
273.3896623684
100
AcDbArc
 50
195.1958441066
 51
195.5323568331
  0
ARC
  5
38B
100
AcDbEntity
  8
0
100
AcDbCircle
 62
7
  6
CONTINUOUS
 10
405.7891588033
 20
156.5011793542
 30
0.0
 40
273.092678813
100
AcDbArc
 50
195.1966017
 51
195.5118952243
  0
ARC
  5
38C
100
AcDbEntity
  8
0
100
AcDbCircle
 62
7
  6
CONTINUOUS
 10
405.4260338434
 20
149.6325362688
 30
0.0
 40
267.5986611354
100
AcDbArc
 50
194.6753386913
 51
194.8585230591
  0
ARC
  5
38D
100
AcDbEntity
  8
RACCORDO
100
AcDbCircle
 62
250
  6
CONTINUOUS
 10
261.4962791672
 20
196.3720579542
 30
0.0
 40
106.0645383512
100
AcDbArc
 50
246.0881747902
 51
246.2824236302
  0
ARC
  5
38E
100
AcDbEntity
  8
RACCORDO
100
AcDbCircle
 62
250
  6
CONTINUOUS
 10
260.9875004349
 20
195.2368981186
 30
0.0
 40
104.459158635
100
AcDbArc
 50
246.0962493258
 51
246.2926481623
  0
ARC
  5
38F
100
AcDbEntity
  8
RACCORDO
100
AcDbCircle
 62
250
  6
CONTINUOUS
 10
11074.8832771595
 20
19052.1908472219
 30
0.0
 40
21858.3614107007
100
AcDbArc
 50
239.9987679876
 51
240.1427916604
  0
ARC
  5
390
100
AcDbEntity
  8
RACCORDO
100
AcDbCircle
 62
250
  6
CONTINUOUS
 10
11025.5195799334
 20
18966.736741039
 30
0.0
 40
21759.6741346255
100
AcDbArc
 50
239.8540253566
 51
239.9984831319
  0
ARC
  5
391
100
AcDbEntity
  8
RACCORDO
100
AcDbCircle
 62
250
  6
CONTINUOUS
 10
10881.9098497449
 20
18663.3872564489
 30
0.0
 40
21469.7817589436
100
AcDbArc
 50
239.9987631251
 51
240.1454380297
  0
ARC
  5
392
100
AcDbEntity
  8
0
100
AcDbCircle
 62
7
  6
CONTINUOUS
 10
10882.8817554843
 20
18732.0390376306
 30
0.0
 40
21467.0663793856
100
AcDbArc
 50
239.998483266
 51
240.145454618
  0
ARC
  5
393
100
AcDbEntity
  8
RACCORDO
100
AcDbCircle
 62
250
  6
CONTINUOUS
 10
10874.3802749768
 20
18719.40566058
 30
0.0
 40
21454.6877284389
100
AcDbArc
 50
239.998428813
 51
240.1454865727
  0
ARC
  5
394
100
AcDbEntity
  8
RACCORDO
100
AcDbCircle
 62
250
  6
CONTINUOUS
 10
10874.4405418572
 20
18719.5108306077
 30
0.0
 40
21454.4469694201
100
AcDbArc
 50
239.9984288129
 51
240.1454865685
  0
ARC
  5
395
100
AcDbEntity
  8
RACCORDO
100
AcDbCircle
 62
250
  6
CONTINUOUS
 10
10834.2740648317
 20
18580.843775233
 30
0.0
 40
21374.4791152058
100
AcDbArc
 50
239.8513189909
 51
239.998428809
  0
ARC
  5
396
100
AcDbEntity
  8
RACCORDO
100
AcDbCircle
 62
250
  6
CONTINUOUS
 10
10826.7168436285
 20
18636.8963032496
 30
0.0
 40
21359.4008126798
100
AcDbArc
 50
239.85098882
 51
239.9984836713
  0
ARC
  5
397
100
AcDbEntity
  8
RACCORDO
100
AcDbCircle
 62
250
  6
CONTINUOUS
 10
10826.7777911356
 20
18637.0026515028
 30
0.0
 40
21359.1614143477
100
AcDbArc
 50
239.8509888252
 51
239.998483671
  0
ARC
  5
398
100
AcDbEntity
  8
0
100
AcDbCircle
 62
7
  6
CONTINUOUS
 10
10827.2910616101
 20
18635.7593378627
 30
0.0
 40
21355.8903665375
100
AcDbArc
 50
239.8509662393
 51
239.9984836958
  0
ARC
  5
399
100
AcDbEntity
  8
RACCORDO
100
AcDbCircle
 62
250
  6
CONTINUOUS
 10
10706.6442734969
 20
18377.43144708
 30
0.0
 40
21121.5365818018
100
AcDbArc
 50
239.9984830822
 51
240.1478757363
  0
ARC
  5
39A
100
AcDbEntity
  8
RACCORDO
100
AcDbCircle
 62
250
  6
CONTINUOUS
 10
10660.636176086
 20
18297.7081540585
 30
0.0
 40
21029.4901365705
100
AcDbArc
 50
239.8486006453
 51
239.9984288574
  0
SPLINE
  5
39B
100
AcDbEntity
  8
SUPERFICI
100
AcDbSpline
 62
7
  6
CONTINUOUS
 70
0
 71
3
 72
9
 73
5
 74
0
 42
0.0000001
 43
0.0000001
 44
0.0000000001
 40
0.0
 40
0.0
 40
0.0
 40
0.0
 40
0.2705627679
 40
1.0
 40
1.0
 40
1.0
 40
1.0
 10
224.0250202617
 20
32.6239407082
 30
0.0
 10
224.0339242477
 20
32.5360455917
 30
0.0
 10
224.0533451818
 20
32.2103882984
 30
0.0
 10
224.0138798929
 20
31.8780694264
 30
0.0
 10
223.9388621948
 20
31.6520138675
 30
0.0
  0
SPLINE
  5
39C
100
AcDbEntity
  8
SUPERFICI
100
AcDbSpline
 62
7
  6
CONTINUOUS
 70
0
 71
3
 72
11
 73
7
 74
0
 42
0.0000001
 43
0.0000001
 44
0.0000000001
 40
0.0
 40
0.0
 40
0.0
 40
0.0
 40
0.2599060959
 40
0.5072383277
 40
0.7508046096
 40
1.0
 40
1.0
 40
1.0
 40
1.0
 10
223.9388621948
 20
31.6520138675
 30
0.0
 10
223.9041604836
 20
31.5474450134
 30
0.0
 10
223.8166249043
 20
31.3490561951
 30
0.0
 10
223.6257134688
 20
31.0909313088
 30
0.0
 10
223.3825297342
 20
30.8880978638
 30
0.0
 10
223.1933079793
 20
30.7947467351
 30
0.0
 10
223.0941614537
 20
30.7582919231
 30
0.0
  0
SPLINE
  5
39D
100
AcDbEntity
  8
SUPERFICI
100
AcDbSpline
 62
7
  6
CONTINUOUS
 70
0
 71
3
 72
9
 73
5
 74
0
 42
0.0000001
 43
0.0000001
 44
0.0000000001
 40
0.0
 40
0.0
 40
0.0
 40
0.0
 40
0.5041925865
 40
1.0
 40
1.0
 40
1.0
 40
1.0
 10
222.5723098536
 20
63.6275047202
 30
0.0
 10
222.5723098536
 20
60.6014740285
 30
0.0
 10
222.6297238317
 20
54.5997615677
 30
0.0
 10
222.8107653834
 20
48.5996852554
 30
0.0
 10
222.9599792706
 20
45.6277236049
 30
0.0
  0
SPLINE
  5
39E
100
AcDbEntity
  8
SUPERFICI
100
AcDbSpline
 62
7
  6
CONTINUOUS
 70
0
 71
3
 72
9
 73
5
 74
0
 42
0.0000001
 43
0.0000001
 44
0.0000000001
 40
0.0
 40
0.0
 40
0.0
 40
0.0
 40
0.253367319
 40
1.0
 40
1.0
 40
1.0
 40
1.0
 10
222.9599792706
 20
45.6277236049
 30
0.0
 10
223.0139586446
 20
44.5525915745
 30
0.0
 10
223.2591184159
 20
40.3109134215
 30
0.0
 10
223.6343424286
 20
36.0765819434
 30
0.0
 10
223.9926440497
 20
32.9246502614
 30
0.0
  0
SPLINE
  5
39F
100
AcDbEntity
  8
0
100
AcDbSpline
 62
7
  6
CONTINUOUS
 70
0
 71
3
 72
12
 73
8
 74
0
 42
0.0000001
 43
0.0000001
 44
0.0000000001
 40
0.0
 40
0.0
 40
0.0
 40
0.0
 40
0.2359389662
 40
0.474088457
 40
0.7161968616
 40
0.8477033913
 40
1.0
 40
1.0
 40
1.0
 40
1.0
 10
148.4802121028
 20
80.3375943356
 30
0.0
 10
148.4725937773
 20
80.3331964676
 30
0.0
 10
148.4567495269
 20
80.3252315478
 30
0.0
 10
148.4319463705
 20
80.3155123161
 30
0.0
 10
148.4103508686
 20
80.3074807665
 30
0.0
 10
148.3905093608
 20
80.3066486991
 30
0.0
 10
148.3801246817
 20
80.3095952824
 30
0.0
 10
148.3749235469
 20
80.3118732965
 30
0.0
  0
SPLINE
  5
3A0
100
AcDbEntity
  8
0
100
AcDbSpline
 62
7
  6
CONTINUOUS
 70
0
 71
3
 72
11
 73
7
 74
0
 42
0.0000001
 43
0.0000001
 44
0.0000000001
 40
0.0
 40
0.0
 40
0.0
 40
0.0
 40
0.2106466053
 40
0.443625977
 40
0.7063288446
 40
1.0
 40
1.0
 40
1.0
 40
1.0
 10
148.1886057302
 20
80.6513387769
 30
0.0
 10
148.2008654555
 20
80.6583712175
 30
0.0
 10
148.2224050738
 20
80.680716387
 30
0.0
 10
148.2409205187
 20
80.7249210937
 30
0.0
 10
148.2498863706
 20
80.7774528173
 30
0.0
 10
148.249704006
 20
80.8149681794
 30
0.0
 10
148.2481770283
 20
80.834613034
 30
0.0
  0
SPLINE
  5
3A1
100
AcDbEntity
  8
SUPERFICI
100
AcDbSpline
 62
7
  6
CONTINUOUS
 70
0
 71
3
 72
14
 73
10
 74
0
 42
0.0000001
 43
0.0000001
 44
0.0000000001
 40
0.0
 40
0.0
 40
0.0
 40
0.0
 40
0.2518906925
 40
0.3750189934
 40
0.4969348054
 40
0.6172351765
 40
0.739257844
 40
0.8670449956
 40
1.0
 40
1.0
 40
1.0
 40
1.0
 10
220.8282260369
 20
101.3408608057
 30
0.0
 10
218.7319966485
 20
102.2659595923
 30
0.0
 10
215.630670479
 20
103.6884190893
 30
0.0
 10
211.5664234261
 20
105.6673183496
 30
0.0
 10
208.6012015691
 20
107.1682438806
 30
0.0
 10
205.6697950371
 20
108.7127227848
 30
0.0
 10
202.7169943556
 20
110.3301811661
 30
0.0
 10
199.6855309359
 20
112.0428659297
 30
0.0
 10
197.6283376146
 20
113.2232906474
 30
0.0
 10
196.5794310332
 20
113.8253325681
 30
0.0
  0
SPLINE
  5
3A2
100
AcDbEntity
  8
SUPERFICI
100
AcDbSpline
 62
7
  6
CONTINUOUS
 70
0
 71
3
 72
13
 73
9
 74
0
 42
0.0000001
 43
0.0000001
 44
0.0000000001
 40
0.0
 40
0.0
 40
0.0
 40
0.0
 40
0.2400603073
 40
0.3683080062
 40
0.4989500601
 40
0.629744056
 40
0.7584354631
 40
1.0
 40
1.0
 40
1.0
 40
1.0
 10
224.0250202617
 20
96.308622298
 30
0.0
 10
224.0681820938
 20
96.7845337075
 30
0.0
 10
223.9908484586
 20
97.5315028142
 30
0.0
 10
223.677120193
 20
98.4753261546
 30
0.0
 10
223.3310586615
 20
99.172683929
 30
0.0
 10
222.8918773994
 20
99.8165295418
 30
0.0
 10
222.2199062853
 20
100.5554877212
 30
0.0
 10
221.6041329556
 20
100.9917022622
 30
0.0
 10
221.1660500985
 20
101.1899666109
 30
0.0
  0
SPLINE
  5
3A3
100
AcDbEntity
  8
SUPERFICI
100
AcDbSpline
 62
7
  6
CONTINUOUS
 70
0
 71
3
 72
9
 73
5
 74
0
 42
0.0000001
 43
0.0000001
 44
0.0000000001
 40
0.0
 40
0.0
 40
0.0
 40
0.0
 40
0.4975554147
 40
1.0
 40
1.0
 40
1.0
 40
1.0
 10
222.5723098536
 20
63.6275047202
 30
0.0
 10
222.5723098536
 20
66.6879163391
 30
0.0
 10
222.631546682
 20
72.8388156922
 30
0.0
 10
222.8134826941
 20
78.9879464637
 30
0.0
 10
222.9599792706
 20
82.0749567609
 30
0.0
  0
SPLINE
  5
3A4
100
AcDbEntity
  8
SUPERFICI
100
AcDbSpline
 62
7
  6
CONTINUOUS
 70
0
 71
3
 72
9
 73
5
 74
0
 42
0.0000001
 43
0.0000001
 44
0.0000000001
 40
0.0
 40
0.0
 40
0.0
 40
0.0
 40
0.2471908839
 40
1.0
 40
1.0
 40
1.0
 40
1.0
 10
222.9599792706
 20
82.0749567609
 30
0.0
 10
223.0144060857
 20
83.2218514033
 30
0.0
 10
223.266228207
 20
87.8600216576
 30
0.0
 10
223.6430306652
 20
92.4912983131
 30
0.0
 10
223.9926440497
 20
95.9705255067
 30
0.0
  0
SPLINE
  5
3A5
100
AcDbEntity
  8
SUPERFICI
100
AcDbSpline
 62
7
  6
CONTINUOUS
 70
0
 71
3
 72
14
 73
10
 74
0
 42
0.0000001
 43
0.0000001
 44
0.0000000001
 40
0.0
 40
0.0
 40
0.0
 40
0.0
 40
0.2381370062
 40
0.357920326
 40
0.4788251093
 40
0.6004897818
 40
0.726226196
 40
0.8598641967
 40
1.0
 40
1.0
 40
1.0
 40
1.0
 10
79.6524800449
 20
182.8539671939
 30
0.0
 10
81.2851862152
 20
181.6205970435
 30
0.0
 10
83.7749751704
 20
179.8136222369
 30
0.0
 10
87.1703206559
 20
177.4897451676
 30
0.0
 10
89.7710099752
 20
175.7775437308
 30
0.0
 10
92.4457487742
 20
174.0857895938
 30
0.0
 10
95.2429421078
 20
172.3839428366
 30
0.0
 10
98.1995611398
 20
170.6395399927
 30
0.0
 10
100.2335968039
 20
169.457788295
 30
0.0
 10
101.2748263455
 20
168.8530168675
 30
0.0
  0
SPLINE
  5
3A6
100
AcDbEntity
  8
RACCORDO
100
AcDbSpline
 62
7
  6
CONTINUOUS
 70
0
 71
3
 72
8
 73
4
 74
0
 42
0.0000001
 43
0.0000001
 44
0.0000000001
 40
0.0
 40
0.0
 40
0.0
 40
0.0
 40
1.0
 40
1.0
 40
1.0
 40
1.0
 10
200.7795150718
 20
57.5346138099
 30
0.0
 10
200.7721792376
 20
57.5231831705
 30
0.0
 10
200.7621828126
 20
57.5131180307
 30
0.0
 10
200.750805629
 20
57.5056995624
 30
0.0
  0
SPLINE
  5
3A7
100
AcDbEntity
  8
RACCORDO
100
AcDbSpline
 62
7
  6
CONTINUOUS
 70
0
 71
3
 72
8
 73
4
 74
0
 42
0.0000001
 43
0.0000001
 44
0.0000000001
 40
0.0
 40
0.0
 40
0.0
 40
0.0
 40
1.0
 40
1.0
 40
1.0
 40
1.0
 10
105.3200996116
 20
112.6516839092
 30
0.0
 10
105.3127637775
 20
112.6402532698
 30
0.0
 10
105.3027673525
 20
112.6301881299
 30
0.0
 10
105.2913901688
 20
112.6227696616
 30
0.0
  0
SPLINE
  5
3A8
100
AcDbEntity
  8
RACCORDO
100
AcDbSpline
 62
7
  6
CONTINUOUS
 70
0
 71
3
 72
9
 73
5
 74
0
 42
0.0000001
 43
0.0000001
 44
0.0000000001
 40
0.0
 40
0.0
 40
0.0
 40
0.0
 40
0.5017496933
 40
1.0
 40
1.0
 40
1.0
 40
1.0
 10
184.8799288334
 20
66.5386298502
 30
0.0
 10
184.8760224667
 20
66.5279063934
 30
0.0
 10
184.8648185184
 20
66.5075814055
 30
0.0
 10
184.8475465916
 20
66.4920919227
 30
0.0
 10
184.8380529331
 20
66.4859022411
 30
0.0
  0
SPLINE
  5
3A9
100
AcDbEntity
  8
RACCORDO
100
AcDbSpline
 62
7
  6
CONTINUOUS
 70
0
 71
3
 72
9
 73
5
 74
0
 42
0.0000001
 43
0.0000001
 44
0.0000000001
 40
0.0
 40
0.0
 40
0.0
 40
0.0
 40
0.2577649392
 40
1.0
 40
1.0
 40
1.0
 40
1.0
 10
185.1261044515
 20
67.2144156294
 30
0.0
 10
185.1275140448
 20
67.2182839331
 30
0.0
 10
185.1323896768
 20
67.2334951478
 30
0.0
 10
185.1347424041
 20
67.249556059
 30
0.0
 10
185.1347424041
 20
67.2614113381
 30
0.0
  0
SPLINE
  5
3AA
100
AcDbEntity
  8
RACCORDO
100
AcDbSpline
 62
7
  6
CONTINUOUS
 70
0
 71
3
 72
9
 73
5
 74
0
 42
0.0000001
 43
0.0000001
 44
0.0000000001
 40
0.0
 40
0.0
 40
0.0
 40
0.0
 40
0.5017496933
 40
1.0
 40
1.0
 40
1.0
 40
1.0
 10
168.9700262567
 20
75.7248082
 30
0.0
 10
168.96611989
 20
75.7140847432
 30
0.0
 10
168.9549159417
 20
75.6937597554
 30
0.0
 10
168.9376440149
 20
75.6782702725
 30
0.0
 10
168.9281503564
 20
75.6720805909
 30
0.0
  0
SPLINE
  5
3AB
100
AcDbEntity
  8
RACCORDO
100
AcDbSpline
 62
7
  6
CONTINUOUS
 70
0
 71
3
 72
9
 73
5
 74
0
 42
0.0000001
 43
0.0000001
 44
0.0000000001
 40
0.0
 40
0.0
 40
0.0
 40
0.0
 40
0.2577649392
 40
1.0
 40
1.0
 40
1.0
 40
1.0
 10
169.2162018748
 20
76.4005939793
 30
0.0
 10
169.2176114681
 20
76.404462283
 30
0.0
 10
169.2224871001
 20
76.4196734977
 30
0.0
 10
169.2248398274
 20
76.4357344089
 30
0.0
 10
169.2248398274
 20
76.4475896879
 30
0.0
  0
SPLINE
  5
3AC
100
AcDbEntity
  8
RACCORDO
100
AcDbSpline
 62
7
  6
CONTINUOUS
 70
0
 71
3
 72
9
 73
5
 74
0
 42
0.0000001
 43
0.0000001
 44
0.0000000001
 40
0.0
 40
0.0
 40
0.0
 40
0.0
 40
0.5017496933
 40
1.0
 40
1.0
 40
1.0
 40
1.0
 10
121.2403185266
 20
103.2833432497
 30
0.0
 10
121.2364121599
 20
103.2726197929
 30
0.0
 10
121.2252082116
 20
103.252294805
 30
0.0
 10
121.2079362848
 20
103.2368053222
 30
0.0
 10
121.1984426263
 20
103.2306156406
 30
0.0
  0
SPLINE
  5
3AD
100
AcDbEntity
  8
RACCORDO
100
AcDbSpline
 62
7
  6
CONTINUOUS
 70
0
 71
3
 72
9
 73
5
 74
0
 42
0.0000001
 43
0.0000001
 44
0.0000000001
 40
0.0
 40
0.0
 40
0.0
 40
0.0
 40
0.2577649392
 40
1.0
 40
1.0
 40
1.0
 40
1.0
 10
121.4864941447
 20
103.9591290289
 30
0.0
 10
121.487903738
 20
103.9629973326
 30
0.0
 10
121.49277937
 20
103.9782085473
 30
0.0
 10
121.4951320973
 20
103.9942694585
 30
0.0
 10
121.4951320973
 20
104.0061247376
 30
0.0
  0
SPLINE
  5
3AE
100
AcDbEntity
  8
RACCORDO
100
AcDbSpline
 62
7
  6
CONTINUOUS
 70
0
 71
3
 72
9
 73
5
 74
0
 42
0.0000001
 43
0.0000001
 44
0.0000000001
 40
0.0
 40
0.0
 40
0.0
 40
0.0
 40
0.5017496933
 40
1.0
 40
1.0
 40
1.0
 40
1.0
 10
153.06012368
 20
84.9109865499
 30
0.0
 10
153.0562173133
 20
84.9002630931
 30
0.0
 10
153.045013365
 20
84.8799381053
 30
0.0
 10
153.0277414382
 20
84.8644486224
 30
0.0
 10
153.0182477797
 20
84.8582589408
 30
0.0
  0
SPLINE
  5
3AF
100
AcDbEntity
  8
RACCORDO
100
AcDbSpline
 62
7
  6
CONTINUOUS
 70
0
 71
3
 72
9
 73
5
 74
0
 42
0.0000001
 43
0.0000001
 44
0.0000000001
 40
0.0
 40
0.0
 40
0.0
 40
0.0
 40
0.2577649392
 40
1.0
 40
1.0
 40
1.0
 40
1.0
 10
153.3062992981
 20
85.5867723292
 30
0.0
 10
153.3077088914
 20
85.5906406329
 30
0.0
 10
153.3125845234
 20
85.6058518476
 30
0.0
 10
153.3149372507
 20
85.6219127588
 30
0.0
 10
153.3149372507
 20
85.6337680378
 30
0.0
  0
SPLINE
  5
3B0
100
AcDbEntity
  8
RACCORDO
100
AcDbSpline
 62
7
  6
CONTINUOUS
 70
0
 71
3
 72
9
 73
5
 74
0
 42
0.0000001
 43
0.0000001
 44
0.0000000001
 40
0.0
 40
0.0
 40
0.0
 40
0.0
 40
0.5017496933
 40
1.0
 40
1.0
 40
1.0
 40
1.0
 10
137.1502211033
 20
94.0971648998
 30
0.0
 10
137.1463147366
 20
94.086441443
 30
0.0
 10
137.1351107883
 20
94.0661164551
 30
0.0
 10
137.1178388615
 20
94.0506269723
 30
0.0
 10
137.108345203
 20
94.0444372907
 30
0.0
  0
SPLINE
  5
3B1
100
AcDbEntity
  8
RACCORDO
100
AcDbSpline
 62
7
  6
CONTINUOUS
 70
0
 71
3
 72
9
 73
5
 74
0
 42
0.0000001
 43
0.0000001
 44
0.0000000001
 40
0.0
 40
0.0
 40
0.0
 40
0.0
 40
0.2577649392
 40
1.0
 40
1.0
 40
1.0
 40
1.0
 10
137.3963967214
 20
94.772950679
 30
0.0
 10
137.3978063147
 20
94.7768189827
 30
0.0
 10
137.4026819467
 20
94.7920301974
 30
0.0
 10
137.405034674
 20
94.8080911086
 30
0.0
 10
137.405034674
 20
94.8199463877
 30
0.0
  0
SPLINE
  5
3B2
100
AcDbEntity
  8
SUPERFICI
100
AcDbSpline
 62
7
  6
CONTINUOUS
 70
0
 71
3
 72
11
 73
7
 74
0
 42
0.0000001
 43
0.0000001
 44
0.0000000001
 40
0.0
 40
0.0
 40
0.0
 40
0.0
 40
0.248439735
 40
0.4914406745
 40
0.7389119461
 40
1.0
 40
1.0
 40
1.0
 40
1.0
 10
77.3487057165
 20
183.1992760638
 30
0.0
 10
77.4276953688
 20
183.2651238914
 30
0.0
 10
77.5988159818
 20
183.3790041215
 30
0.0
 10
77.889342823
 20
183.4837200783
 30
0.0
 10
78.2015508298
 20
183.5160960464
 30
0.0
 10
78.4123311718
 20
183.4907102281
 30
0.0
 10
78.517918397
 20
183.4676700768
 30
0.0
  0
SPLINE
  5
3B3
100
AcDbEntity
  8
SUPERFICI
100
AcDbSpline
 62
7
  6
CONTINUOUS
 70
0
 71
3
 72
9
 73
5
 74
0
 42
0.0000001
 43
0.0000001
 44
0.0000000001
 40
0.0
 40
0.0
 40
0.0
 40
0.0
 40
0.2302120682
 40
1.0
 40
1.0
 40
1.0
 40
1.0
 10
78.517918397
 20
183.4676700768
 30
0.0
 10
78.5908339871
 20
183.4517591915
 30
0.0
 10
78.9030168471
 20
183.3616773427
 30
0.0
 10
79.1902148007
 20
183.1970294047
 30
0.0
 10
79.3911404706
 20
183.0490225731
 30
0.0
  0
LINE
  5
3B4
100
AcDbEntity
  8
0
100
AcDbLine
 62
7
  6
CONTINUOUS
 10
146.9932589021
 20
80.2189330801
 30
0.0
 11
146.8700066119
 21
80.6655914002
 31
0.0
  0
SPLINE
  5
3B5
100
AcDbEntity
  8
0
100
AcDbSpline
 62
7
  6
CONTINUOUS
 70
0
 71
3
 72
11
 73
7
 74
0
 42
0.0000001
 43
0.0000001
 44
0.0000000001
 40
0.0
 40
0.0
 40
0.0
 40
0.0
 40
0.2514780384
 40
0.5129094939
 40
0.7691054818
 40
1.0
 40
1.0
 40
1.0
 40
1.0
 10
148.220022072
 20
80.0816271975
 30
0.0
 10
148.2099959994
 20
80.1110619499
 30
0.0
 10
148.1849764747
 20
80.1695869489
 30
0.0
 10
148.1362336835
 20
80.2516354377
 30
0.0
 10
148.075617187
 20
80.3223390744
 30
0.0
 10
148.0270949789
 20
80.3590492773
 30
0.0
 10
148.0023680621
 20
80.3733215584
 30
0.0
  0
SPLINE
  5
3B6
100
AcDbEntity
  8
0
100
AcDbSpline
 62
7
  6
CONTINUOUS
 70
0
 71
3
 72
9
 73
5
 74
0
 42
0.0000001
 43
0.0000001
 44
0.0000000001
 40
0.0
 40
0.0
 40
0.0
 40
0.0
 40
0.498108677
 40
1.0
 40
1.0
 40
1.0
 40
1.0
 10
148.4231772465
 20
79.3935541509
 30
0.0
 10
148.3902251355
 20
79.5080283049
 30
0.0
 10
148.3228845475
 20
79.7374470982
 30
0.0
 10
148.2587222771
 20
79.9680102766
 30
0.0
 10
148.2200220526
 20
80.0816272003
 30
0.0
  0
SPLINE
  5
3B7
100
AcDbEntity
  8
0
100
AcDbSpline
 62
7
  6
CONTINUOUS
 70
0
 71
3
 72
10
 73
6
 74
0
 42
0.0000001
 43
0.0000001
 44
0.0000000001
 40
0.0
 40
0.0
 40
0.0
 40
0.0
 40
0.520676862
 40
0.7651887629
 40
1.0
 40
1.0
 40
1.0
 40
1.0
 10
148.0238761668
 20
81.2010987206
 30
0.0
 10
147.9772233384
 20
81.2337862293
 30
0.0
 10
147.9060365195
 20
81.2783485393
 30
0.0
 10
147.8079269894
 20
81.3269212644
 30
0.0
 10
147.75944602
 20
81.3469959752
 30
0.0
 10
147.7355282363
 20
81.356370878
 30
0.0
  0
SPLINE
  5
3B8
100
AcDbEntity
  8
0
100
AcDbSpline
 62
7
  6
CONTINUOUS
 70
0
 71
3
 72
11
 73
7
 74
0
 42
0.0000001
 43
0.0000001
 44
0.0000000001
 40
0.0
 40
0.0
 40
0.0
 40
0.0
 40
0.2315654943
 40
0.4910828513
 40
0.7549424209
 40
1.0
 40
1.0
 40
1.0
 40
1.0
 10
148.2481770436
 20
80.8346130254
 30
0.0
 10
148.2455372941
 20
80.8685738983
 30
0.0
 10
148.2277412117
 20
80.9395615657
 30
0.0
 10
148.1794167538
 20
81.0402851498
 30
0.0
 10
148.1097149716
 20
81.1302247443
 30
0.0
 10
148.0533987588
 20
81.1804135873
 30
0.0
 10
148.0238761668
 20
81.2010987208
 30
0.0
  0
SPLINE
  5
3B9
100
AcDbEntity
  8
0
100
AcDbSpline
 62
7
  6
CONTINUOUS
 70
0
 71
3
 72
11
 73
7
 74
0
 42
0.0000001
 43
0.0000001
 44
0.0000000001
 40
0.0
 40
0.0
 40
0.0
 40
0.0
 40
0.2365855186
 40
0.4817493239
 40
0.7382705596
 40
1.0
 40
1.0
 40
1.0
 40
1.0
 10
148.6713944291
 20
79.8250438707
 30
0.0
 10
148.6600584328
 20
79.8661971601
 30
0.0
 10
148.6375608607
 20
79.9501761092
 30
0.0
 10
148.5935347796
 20
80.0760996247
 30
0.0
 10
148.5351499971
 20
80.2011063753
 30
0.0
 10
148.4820253267
 20
80.2791578493
 30
0.0
 10
148.4503663955
 20
80.3141962578
 30
0.0
  0
SPLINE
  5
3BA
100
AcDbEntity
  8
0
100
AcDbSpline
 62
7
  6
CONTINUOUS
 70
0
 71
3
 72
11
 73
7
 74
0
 42
0.0000001
 43
0.0000001
 44
0.0000000001
 40
0.0
 40
0.0
 40
0.0
 40
0.0
 40
0.2738080412
 40
0.528087196
 40
0.7687299086
 40
1.0
 40
1.0
 40
1.0
 40
1.0
 10
148.3292171958
 20
81.3602767007
 30
0.0
 10
148.2587183936
 20
81.4276541876
 30
0.0
 10
148.1103829997
 20
81.5447223921
 30
0.0
 10
147.8776764435
 20
81.689477807
 30
0.0
 10
147.6473373691
 20
81.8076662557
 30
0.0
 10
147.4932422065
 20
81.8749342306
 30
0.0
 10
147.417234051
 20
81.9066716927
 30
0.0
  0
SPLINE
  5
3BB
100
AcDbEntity
  8
RACCORDO
100
AcDbSpline
 62
250
  6
CONTINUOUS
 70
0
 71
3
 72
9
 73
5
 74
0
 42
0.0000001
 43
0.0000001
 44
0.0000000001
 40
0.0
 40
0.0
 40
0.0
 40
0.0
 40
0.2532969782
 40
1.0
 40
1.0
 40
1.0
 40
1.0
 10
220.5044910386
 20
44.4250222964
 30
0.0
 10
220.5578063147
 20
43.3608529662
 30
0.0
 10
220.7993256039
 20
39.1612138682
 30
0.0
 10
221.1665113293
 20
34.9686444159
 30
0.0
 10
221.5160950153
 20
31.8471219438
 30
0.0
  0
LINE
  5
3BC
100
AcDbEntity
  8
RACCORDO
100
AcDbLine
 62
250
  6
CONTINUOUS
 10
130.7981189174
 20
93.8583711731
 30
0.0
 11
128.7918611689
 21
95.0190188137
 31
0.0
  0
LINE
  5
3BD
100
AcDbEntity
  8
RACCORDO
100
AcDbLine
 62
250
  6
CONTINUOUS
 10
114.9119024443
 20
103.0568534594
 30
0.0
 11
112.9087660479
 21
104.2180309402
 31
0.0
  0
SPLINE
  5
3BE
100
AcDbEntity
  8
RACCORDO
100
AcDbSpline
 62
250
  6
CONTINUOUS
 70
0
 71
3
 72
9
 73
5
 74
0
 42
0.0000001
 43
0.0000001
 44
0.0000000001
 40
0.0
 40
0.0
 40
0.0
 40
0.0
 40
0.2509751067
 40
1.0
 40
1.0
 40
1.0
 40
1.0
 10
96.6461013095
 20
113.656232682
 30
0.0
 10
96.0823089854
 20
113.9840093385
 30
0.0
 10
93.8367379263
 20
115.2914094062
 30
0.0
 10
91.5994379577
 20
116.6134144472
 30
0.0
 10
89.9381562899
 20
117.627456923
 30
0.0
  0
SPLINE
  5
3BF
100
AcDbEntity
  8
RACCORDO
100
AcDbSpline
 62
250
  6
CONTINUOUS
 70
0
 71
3
 72
14
 73
10
 74
0
 42
0.0000001
 43
0.0000001
 44
0.0000000001
 40
0.0
 40
0.0
 40
0.0
 40
0.0
 40
0.1283944909
 40
0.2563553302
 40
0.3834612436
 40
0.5093441857
 40
0.6339356003
 40
0.757240393
 40
1.0
 40
1.0
 40
1.0
 40
1.0
 10
98.9386119256
 20
97.8534827215
 30
0.0
 10
97.9874314244
 20
98.4059515833
 30
0.0
 10
96.0883689815
 20
99.5091767653
 30
0.0
 10
93.2573628588
 20
101.1759601447
 30
0.0
 10
90.4643777274
 20
102.8646532491
 30
0.0
 10
87.7260672557
 20
104.5871081276
 30
0.0
 10
85.0467377381
 20
106.3411979833
 30
0.0
 10
81.5722312573
 20
108.7074140126
 30
0.0
 10
79.0290921046
 20
110.544259096
 30
0.0
 10
77.3667396118
 20
111.7940807719
 30
0.0
  0
LINE
  5
3C0
100
AcDbEntity
  8
RACCORDO
100
AcDbLine
 62
250
  6
CONTINUOUS
 10
77.2823595539
 20
111.8575638501
 30
0.0
 11
77.1698580496
 21
111.942285776
 31
0.0
  0
LINE
  5
3C1
100
AcDbEntity
  8
RACCORDO
100
AcDbLine
 62
250
  6
CONTINUOUS
 10
77.1698580496
 20
111.942285776
 30
0.0
 11
77.030505351
 21
112.0472852083
 31
0.0
  0
SPLINE
  5
3C2
100
AcDbEntity
  8
RACCORDO
100
AcDbSpline
 62
250
  6
CONTINUOUS
 70
0
 71
3
 72
15
 73
11
 74
0
 42
0.0000001
 43
0.0000001
 44
0.0000000001
 40
0.0
 40
0.0
 40
0.0
 40
0.0
 40
0.1103155468
 40
0.2326358665
 40
0.3636129197
 40
0.4991737237
 40
0.6348698371
 40
0.7662225123
 40
0.8890832364
 40
1.0
 40
1.0
 40
1.0
 40
1.0
 10
77.030505351
 20
112.0472852083
 30
0.0
 10
76.8905122722
 20
112.152463422
 30
0.0
 10
76.6118204981
 20
112.3965213921
 30
0.0
 10
76.2218548317
 20
112.8231927281
 30
0.0
 10
75.8500532822
 20
113.3169621058
 30
0.0
 10
75.511210125
 20
113.8589744367
 30
0.0
 10
75.2185685252
 20
114.4279321857
 30
0.0
 10
74.9836732958
 20
115.001450448
 30
0.0
 10
74.8152283513
 20
115.5568994183
 30
0.0
 10
74.7469073869
 20
115.9228150667
 30
0.0
 10
74.7274619169
 20
116.09779364
 30
0.0
  0
LINE
  5
3C3
100
AcDbEntity
  8
RACCORDO
100
AcDbLine
 62
250
  6
CONTINUOUS
 10
74.7274619169
 20
116.09779364
 30
0.0
 11
74.7056076769
 21
116.2920718108
 31
0.0
  0
SPLINE
  5
3C4
100
AcDbEntity
  8
RACCORDO
100
AcDbSpline
 62
250
  6
CONTINUOUS
 70
0
 71
3
 72
9
 73
5
 74
0
 42
0.0000001
 43
0.0000001
 44
0.0000000001
 40
0.0
 40
0.0
 40
0.0
 40
0.0
 40
0.2467690014
 40
1.0
 40
1.0
 40
1.0
 40
1.0
 10
74.6832108355
 20
116.4915611009
 30
0.0
 10
74.5686311334
 20
117.5159312692
 30
0.0
 10
74.1373104643
 20
121.6707045819
 30
0.0
 10
73.8363011956
 20
125.8388537761
 30
0.0
 10
73.6782916207
 20
128.9811422967
 30
0.0
  0
SPLINE
  5
3C5
100
AcDbEntity
  8
RACCORDO
100
AcDbSpline
 62
250
  6
CONTINUOUS
 70
0
 71
3
 72
9
 73
5
 74
0
 42
0.0000001
 43
0.0000001
 44
0.0000000001
 40
0.0
 40
0.0
 40
0.0
 40
0.0
 40
0.4731511367
 40
1.0
 40
1.0
 40
1.0
 40
1.0
 10
89.9381562899
 20
117.627456923
 30
0.0
 10
89.8691865722
 20
117.6695593674
 30
0.0
 10
89.7365179555
 20
117.7801084095
 30
0.0
 10
89.6290993617
 20
117.9141496981
 30
0.0
 10
89.57919259
 20
117.9890155562
 30
0.0
  0
SPLINE
  5
3C6
100
AcDbEntity
  8
RACCORDO
100
AcDbSpline
 62
250
  6
CONTINUOUS
 70
0
 71
3
 72
10
 73
6
 74
0
 42
0.0000001
 43
0.0000001
 44
0.0000000001
 40
0.0
 40
0.0
 40
0.0
 40
0.0
 40
0.5277709775
 40
0.7747316922
 40
1.0
 40
1.0
 40
1.0
 40
1.0
 10
89.57919259
 20
117.9890155562
 30
0.0
 10
89.5151706685
 20
118.0850637702
 30
0.0
 10
89.4363995253
 20
118.2375178974
 30
0.0
 10
89.3739357121
 20
118.4475621679
 30
0.0
 10
89.3590297147
 20
118.5503462774
 30
0.0
 10
89.3566250667
 20
118.5995564737
 30
0.0
  0
SPLINE
  5
3C7
100
AcDbEntity
  8
RACCORDO
100
AcDbSpline
 62
250
  6
CONTINUOUS
 70
0
 71
3
 72
9
 73
5
 74
0
 42
0.0000001
 43
0.0000001
 44
0.0000000001
 40
0.0
 40
0.0
 40
0.0
 40
0.0
 40
0.4966396664
 40
1.0
 40
1.0
 40
1.0
 40
1.0
 10
73.6662480088
 20
129.2169555103
 30
0.0
 10
73.5206379023
 20
132.1790374721
 30
0.0
 10
73.3432141743
 20
138.1488631422
 30
0.0
 10
73.2866983183
 20
144.1202950373
 30
0.0
 10
73.2866983183
 20
147.1260859181
 30
0.0
  0
SPLINE
  5
3C8
100
AcDbEntity
  8
RACCORDO
100
AcDbSpline
 62
250
  6
CONTINUOUS
 70
0
 71
3
 72
10
 73
6
 74
0
 42
0.0000001
 43
0.0000001
 44
0.0000000001
 40
0.0
 40
0.0
 40
0.0
 40
0.0
 40
0.2474012022
 40
0.4968037799
 40
1.0
 40
1.0
 40
1.0
 40
1.0
 10
89.3566250667
 20
118.5995564737
 30
0.0
 10
89.2855651046
 20
120.0546132382
 30
0.0
 10
89.1709856077
 20
122.9779097484
 30
0.0
 10
89.0251307549
 20
128.8645643667
 30
0.0
 10
88.9831590213
 20
133.2963257106
 30
0.0
 10
88.9831591054
 20
136.2593334262
 30
0.0
  0
SPLINE
  5
3C9
100
AcDbEntity
  8
RACCORDO
100
AcDbSpline
 62
250
  6
CONTINUOUS
 70
0
 71
3
 72
9
 73
5
 74
0
 42
0.0000001
 43
0.0000001
 44
0.0000000001
 40
0.0
 40
0.0
 40
0.0
 40
0.0
 40
0.5000200554
 40
1.0
 40
1.0
 40
1.0
 40
1.0
 10
224.5892158895
 20
65.8679842459
 30
0.0
 10
224.5892158856
 20
62.8132425118
 30
0.0
 10
224.5900290823
 20
56.7040041408
 30
0.0
 10
224.5926665694
 20
50.5947659185
 30
0.0
 10
224.5952001777
 20
47.5402702817
 30
0.0
  0
SPLINE
  5
3CA
100
AcDbEntity
  8
RACCORDO
100
AcDbSpline
 62
250
  6
CONTINUOUS
 70
0
 71
3
 72
14
 73
10
 74
0
 42
0.0000001
 43
0.0000001
 44
0.0000000001
 40
0.0
 40
0.0
 40
0.0
 40
0.0
 40
0.2426852174
 40
0.3659718444
 40
0.4905577806
 40
0.6164510699
 40
0.743574373
 40
0.8715681969
 40
1.0
 40
1.0
 40
1.0
 40
1.0
 10
77.4847535224
 20
181.2505761534
 30
0.0
 10
79.1513563953
 20
179.9971830006
 30
0.0
 10
81.7011986635
 20
178.1550472432
 30
0.0
 10
85.1850914504
 20
175.7819069283
 30
0.0
 10
87.8721843936
 20
174.022506332
 30
0.0
 10
90.6184754796
 20
172.2943148002
 30
0.0
 10
93.4202988628
 20
170.6004743686
 30
0.0
 10
96.2602671745
 20
168.9281810436
 30
0.0
 10
98.1655135998
 20
167.8213994619
 30
0.0
 10
99.1197991356
 20
167.2671273892
 30
0.0
  0
SPLINE
  5
3CB
100
AcDbEntity
  8
RACCORDO
100
AcDbSpline
 62
250
  6
CONTINUOUS
 70
0
 71
3
 72
11
 73
7
 74
0
 42
0.0000001
 43
0.0000001
 44
0.0000000001
 40
0.0
 40
0.0
 40
0.0
 40
0.0
 40
0.2150501667
 40
0.4501503657
 40
0.7112553905
 40
1.0
 40
1.0
 40
1.0
 40
1.0
 10
201.1081088584
 20
53.5936170884
 30
0.0
 10
201.0826455744
 20
53.5840051183
 30
0.0
 10
201.0260040692
 20
53.5721491991
 30
0.0
 10
200.9353533528
 20
53.5770714369
 30
0.0
 10
200.8388755077
 20
53.6030812218
 30
0.0
 10
200.7754221162
 20
53.6324130315
 30
0.0
 10
200.7433487243
 20
53.6499275266
 30
0.0
  0
SPLINE
  5
3CC
100
AcDbEntity
  8
RACCORDO
100
AcDbSpline
 62
250
  6
CONTINUOUS
 70
0
 71
3
 72
9
 73
5
 74
0
 42
0.0000001
 43
0.0000001
 44
0.0000000001
 40
0.0
 40
0.0
 40
0.0
 40
0.0
 40
0.2532981031
 40
1.0
 40
1.0
 40
1.0
 40
1.0
 10
220.1458042843
 20
44.4126361538
 30
0.0
 10
220.1991731996
 20
43.3473942381
 30
0.0
 10
220.4409346775
 20
39.1435409757
 30
0.0
 10
220.8084900779
 20
34.9467644497
 30
0.0
 10
221.1584282174
 20
31.8221148353
 30
0.0
  0
SPLINE
  5
3CD
100
AcDbEntity
  8
RACCORDO
100
AcDbSpline
 62
250
  6
CONTINUOUS
 70
0
 71
3
 72
16
 73
12
 74
0
 42
0.0000001
 43
0.0000001
 44
0.0000000001
 40
0.0
 40
0.0
 40
0.0
 40
0.0
 40
0.1360576038
 40
0.2580080171
 40
0.3695168612
 40
0.4235224824
 40
0.4775567553
 40
0.5892843252
 40
0.7116659886
 40
0.848311548
 40
1.0
 40
1.0
 40
1.0
 40
1.0
 10
221.1915029745
 20
31.5312809711
 30
0.0
 10
221.2091527628
 20
31.3809910119
 30
0.0
 10
221.2179553743
 20
31.0918446943
 30
0.0
 10
221.1358463772
 20
30.6847259854
 30
0.0
 10
220.9822768975
 20
30.397568704
 30
0.0
 10
220.8156426182
 20
30.2176000032
 30
0.0
 10
220.6210111689
 20
30.0679604071
 30
0.0
 10
220.3204729499
 20
29.9407200374
 30
0.0
 10
219.9060702589
 20
29.8956757061
 30
0.0
 10
219.4495487757
 20
29.9509161118
 30
0.0
 10
219.1418520696
 20
30.0470126365
 30
0.0
 10
218.9847901857
 20
30.1086059771
 30
0.0
  0
LINE
  5
3CE
100
AcDbEntity
  8
RACCORDO
100
AcDbLine
 62
250
  6
CONTINUOUS
 10
218.8340679965
 20
30.1716833386
 30
0.0
 11
218.6500925351
 21
30.2531315729
 31
0.0
  0
LINE
  5
3CF
100
AcDbEntity
  8
RACCORDO
100
AcDbLine
 62
250
  6
CONTINUOUS
 10
218.6500925351
 20
30.2531315729
 30
0.0
 11
218.5051112038
 21
30.3173169844
 31
0.0
  0
SPLINE
  5
3D0
100
AcDbEntity
  8
RACCORDO
100
AcDbSpline
 62
250
  6
CONTINUOUS
 70
0
 71
3
 72
14
 73
10
 74
0
 42
0.0000001
 43
0.0000001
 44
0.0000000001
 40
0.0
 40
0.0
 40
0.0
 40
0.0
 40
0.2563907704
 40
0.3829422102
 40
0.5083611082
 40
0.6326213346
 40
0.7557577822
 40
0.8780883077
 40
1.0
 40
1.0
 40
1.0
 40
1.0
 10
218.5051112038
 20
30.3173169844
 30
0.0
 10
216.3802028623
 20
31.2581116153
 30
0.0
 10
213.2265443724
 20
32.7094366059
 30
0.0
 10
209.0866015204
 20
34.7324543757
 30
0.0
 10
206.0466363719
 20
36.2778222578
 30
0.0
 10
203.0596357581
 20
37.858098484
 30
0.0
 10
200.1239665584
 20
39.4744603154
 30
0.0
 10
197.2258648073
 20
41.1142785833
 30
0.0
 10
195.3056934191
 20
42.2159328675
 30
0.0
 10
194.3473517217
 20
42.765982599
 30
0.0
  0
SPLINE
  5
3D1
100
AcDbEntity
  8
RACCORDO
100
AcDbSpline
 62
250
  6
CONTINUOUS
 70
0
 71
3
 72
9
 73
5
 74
0
 42
0.0000001
 43
0.0000001
 44
0.0000000001
 40
0.0
 40
0.0
 40
0.0
 40
0.0
 40
0.251290138
 40
1.0
 40
1.0
 40
1.0
 40
1.0
 10
200.7433487243
 20
53.6499275266
 30
0.0
 10
200.0823578703
 20
54.0109166517
 30
0.0
 10
197.4593489011
 20
55.4610080918
 30
0.0
 10
194.8594729104
 20
56.9523372906
 30
0.0
 10
192.9132597498
 20
58.0692976548
 30
0.0
  0
SPLINE
  5
3D2
100
AcDbEntity
  8
RACCORDO
100
AcDbSpline
 62
250
  6
CONTINUOUS
 70
0
 71
3
 72
11
 73
7
 74
0
 42
0.0000001
 43
0.0000001
 44
0.0000000001
 40
0.0
 40
0.0
 40
0.0
 40
0.0
 40
0.2931161198
 40
0.5498696888
 40
0.7793856389
 40
1.0
 40
1.0
 40
1.0
 40
1.0
 10
201.2950846329
 20
53.9676928386
 30
0.0
 10
201.297140388
 20
53.924120379
 30
0.0
 10
201.2936578805
 20
53.8416315219
 30
0.0
 10
201.2599808748
 20
53.7290211654
 30
0.0
 10
201.1976472891
 20
53.6414180522
 30
0.0
 10
201.1388236942
 20
53.6052143978
 30
0.0
 10
201.1081088584
 20
53.5936170884
 30
0.0
  0
SPLINE
  5
3D3
100
AcDbEntity
  8
RACCORDO
100
AcDbSpline
 62
250
  6
CONTINUOUS
 70
0
 71
3
 72
10
 73
6
 74
0
 42
0.0000001
 43
0.0000001
 44
0.0000000001
 40
0.0
 40
0.0
 40
0.0
 40
0.0
 40
0.5033187091
 40
0.7526996288
 40
1.0
 40
1.0
 40
1.0
 40
1.0
 10
200.9344588166
 20
71.6200560523
 30
0.0
 10
200.9344588332
 20
68.6576309582
 30
0.0
 10
200.9749816211
 20
64.2272377138
 30
0.0
 10
201.115804997
 20
58.3430576527
 30
0.0
 10
201.2264545875
 20
55.4216304855
 30
0.0
 10
201.2950846329
 20
53.9676928386
 30
0.0
  0
SPLINE
  5
3D4
100
AcDbEntity
  8
RACCORDO
100
AcDbSpline
 62
250
  6
CONTINUOUS
 70
0
 71
3
 72
9
 73
5
 74
0
 42
0.0000001
 43
0.0000001
 44
0.0000000001
 40
0.0
 40
0.0
 40
0.0
 40
0.0
 40
0.5033912939
 40
1.0
 40
1.0
 40
1.0
 40
1.0
 10
219.7550350347
 20
62.557107188
 30
0.0
 10
219.7550350347
 20
59.5336741798
 30
0.0
 10
219.8121462642
 20
53.5275648663
 30
0.0
 10
219.9919005142
 20
47.5230844685
 30
0.0
 10
220.1397173178
 20
44.5440535698
 30
0.0
  0
SPLINE
  5
3D5
100
AcDbEntity
  8
RACCORDO
100
AcDbSpline
 62
250
  6
CONTINUOUS
 70
0
 71
3
 72
12
 73
8
 74
0
 42
0.0000001
 43
0.0000001
 44
0.0000000001
 40
0.0
 40
0.0
 40
0.0
 40
0.0
 40
0.1249398765
 40
0.2499286075
 40
0.4999108995
 40
0.7499363806
 40
1.0
 40
1.0
 40
1.0
 40
1.0
 10
81.2120230737
 20
182.7173963867
 30
0.0
 10
82.165721199
 20
182.1620596346
 30
0.0
 10
84.0757940953
 20
181.0551294167
 30
0.0
 10
87.8975070968
 20
178.843041651
 30
0.0
 10
92.6740015405
 20
176.0749095348
 30
0.0
 10
98.4086050694
 20
172.756671751
 30
0.0
 10
102.2340861008
 20
170.5479539016
 30
0.0
 10
104.1469142732
 20
169.4434102966
 30
0.0
  0
SPLINE
  5
3D6
100
AcDbEntity
  8
RACCORDO
100
AcDbSpline
 62
250
  6
CONTINUOUS
 70
0
 71
3
 72
9
 73
5
 74
0
 42
0.0000001
 43
0.0000001
 44
0.0000000001
 40
0.0
 40
0.0
 40
0.0
 40
0.0
 40
0.2449111341
 40
1.0
 40
1.0
 40
1.0
 40
1.0
 10
104.1824719092
 20
169.423415054
 30
0.0
 10
108.0701257935
 20
167.1783811905
 30
0.0
 10
123.9439502229
 20
158.0118115295
 30
0.0
 10
139.8181023338
 20
148.8458093219
 30
0.0
 10
151.8046501704
 20
141.9249269314
 30
0.0
  0
SPLINE
  5
3D7
100
AcDbEntity
  8
RACCORDO
100
AcDbSpline
 62
250
  6
CONTINUOUS
 70
0
 71
3
 72
11
 73
7
 74
0
 42
0.0000001
 43
0.0000001
 44
0.0000000001
 40
0.0
 40
0.0
 40
0.0
 40
0.0
 40
0.2217569297
 40
0.4579472471
 40
0.7161872622
 40
1.0
 40
1.0
 40
1.0
 40
1.0
 10
89.57919259
 20
154.7301780119
 30
0.0
 10
89.605140646
 20
154.7401474296
 30
0.0
 10
89.6620995184
 20
154.7527074831
 30
0.0
 10
89.752628921
 20
154.7476676964
 30
0.0
 10
89.8469350426
 20
154.72013462
 30
0.0
 10
89.9077742593
 20
154.689029883
 30
0.0
 10
89.9381562899
 20
154.6705207852
 30
0.0
  0
SPLINE
  5
3D8
100
AcDbEntity
  8
RACCORDO
100
AcDbSpline
 62
250
  6
CONTINUOUS
 70
0
 71
3
 72
9
 73
5
 74
0
 42
0.0000001
 43
0.0000001
 44
0.0000000001
 40
0.0
 40
0.0
 40
0.0
 40
0.0
 40
0.2472544419
 40
1.0
 40
1.0
 40
1.0
 40
1.0
 10
73.6782916207
 20
165.7223047524
 30
0.0
 10
73.7322974206
 20
166.8584305277
 30
0.0
 10
73.9814181629
 20
171.4518983503
 30
0.0
 10
74.3518388947
 20
176.0386872069
 30
0.0
 10
74.6947787538
 20
179.4844093698
 30
0.0
  0
LINE
  5
3D9
100
AcDbEntity
  8
RACCORDO
100
AcDbLine
 62
250
  6
CONTINUOUS
 10
74.6947787538
 20
179.4844093698
 30
0.0
 11
74.7274632409
 21
179.8132117974
 31
0.0
  0
SPLINE
  5
3DA
100
AcDbEntity
  8
RACCORDO
100
AcDbSpline
 62
250
  6
CONTINUOUS
 70
0
 71
3
 72
17
 73
13
 74
0
 42
0.0000001
 43
0.0000001
 44
0.0000000001
 40
0.0
 40
0.0
 40
0.0
 40
0.0
 40
0.1554247074
 40
0.2947786235
 40
0.3584832373
 40
0.4185070934
 40
0.5295017451
 40
0.5826205665
 40
0.6354867515
 40
0.744566445
 40
0.8647030396
 40
1.0
 40
1.0
 40
1.0
 40
1.0
 10
74.7274632409
 20
179.8132117974
 30
0.0
 10
74.7448601113
 20
179.9910688927
 30
0.0
 10
74.8012795822
 20
180.3268097594
 30
0.0
 10
74.9411249651
 20
180.7178580616
 30
0.0
 10
75.091912091
 20
180.9810319729
 30
0.0
 10
75.2552909036
 20
181.1964380985
 30
0.0
 10
75.4559069906
 20
181.3666836131
 30
0.0
 10
75.6832418155
 20
181.4723355436
 30
0.0
 10
75.9236491544
 20
181.5354070379
 30
0.0
 10
76.2547445411
 20
181.5297036666
 30
0.0
 10
76.6563437942
 20
181.3938261563
 30
0.0
 10
76.906747607
 20
181.2356498708
 30
0.0
 10
77.030516765
 20
181.14141026
 30
0.0
  0
SPLINE
  5
3DB
100
AcDbEntity
  8
RACCORDO
100
AcDbSpline
 62
250
  6
CONTINUOUS
 70
0
 71
3
 72
14
 73
10
 74
0
 42
0.0000001
 43
0.0000001
 44
0.0000000001
 40
0.0
 40
0.0
 40
0.0
 40
0.0
 40
0.2426832515
 40
0.3659692185
 40
0.4905546862
 40
0.6164476821
 40
0.743571257
 40
0.8715663061
 40
1.0
 40
1.0
 40
1.0
 40
1.0
 10
77.2823595535
 20
180.9512519547
 30
0.0
 10
78.9505880992
 20
179.6966237534
 30
0.0
 10
81.5029160575
 20
177.8526652357
 30
0.0
 10
84.9901981112
 20
175.4771565742
 30
0.0
 10
87.6799073945
 20
173.7159864302
 30
0.0
 10
90.4288724795
 20
171.9860382553
 30
0.0
 10
93.2334380032
 20
170.2904664752
 30
0.0
 10
96.0762204696
 20
168.6164829356
 30
0.0
 10
97.9833703173
 20
167.5085944996
 30
0.0
 10
98.9386119256
 20
166.9537671188
 30
0.0
  0
SPLINE
  5
3DC
100
AcDbEntity
  8
RACCORDO
100
AcDbSpline
 62
250
  6
CONTINUOUS
 70
0
 71
3
 72
9
 73
5
 74
0
 42
0.0000001
 43
0.0000001
 44
0.0000000001
 40
0.0
 40
0.0
 40
0.0
 40
0.0
 40
0.2486723165
 40
1.0
 40
1.0
 40
1.0
 40
1.0
 10
90.0498796432
 20
154.6024997733
 30
0.0
 10
90.6702547114
 20
154.2250570513
 30
0.0
 10
93.1727931174
 20
152.7200015304
 30
0.0
 10
95.6979885248
 20
151.2531387177
 30
0.0
 10
97.5952656459
 20
150.1512743932
 30
0.0
  0
SPLINE
  5
3DD
100
AcDbEntity
  8
RACCORDO
100
AcDbSpline
 62
250
  6
CONTINUOUS
 70
0
 71
3
 72
9
 73
5
 74
0
 42
0.0000001
 43
0.0000001
 44
0.0000000001
 40
0.0
 40
0.0
 40
0.0
 40
0.0
 40
0.4969483246
 40
1.0
 40
1.0
 40
1.0
 40
1.0
 10
88.9831591054
 20
136.2593334262
 30
0.0
 10
88.9831591233
 20
139.2544681747
 30
0.0
 10
89.0408664429
 20
145.2815304639
 30
0.0
 10
89.2163537705
 20
151.3068786065
 30
0.0
 10
89.3566250667
 20
154.335552032
 30
0.0
  0
SPLINE
  5
3DE
100
AcDbEntity
  8
RACCORDO
100
AcDbSpline
 62
250
  6
CONTINUOUS
 70
0
 71
3
 72
9
 73
5
 74
0
 42
0.0000001
 43
0.0000001
 44
0.0000000001
 40
0.0
 40
0.0
 40
0.0
 40
0.0
 40
0.4968242964
 40
1.0
 40
1.0
 40
1.0
 40
1.0
 10
73.286682508
 20
147.1260982573
 30
0.0
 10
73.286682508
 20
150.1836250327
 30
0.0
 10
73.3455957852
 20
156.3377713865
 30
0.0
 10
73.5262002966
 20
162.4901635183
 30
0.0
 10
73.671364791
 20
165.5833733336
 30
0.0
  0
SPLINE
  5
3DF
100
AcDbEntity
  8
RACCORDO
100
AcDbSpline
 62
250
  6
CONTINUOUS
 70
0
 71
3
 72
9
 73
5
 74
0
 42
0.0000001
 43
0.0000001
 44
0.0000000001
 40
0.0
 40
0.0
 40
0.0
 40
0.0
 40
0.2324666493
 40
1.0
 40
1.0
 40
1.0
 40
1.0
 10
80.3017005039
 20
183.1196642268
 30
0.0
 10
80.3540361471
 20
183.1108443595
 30
0.0
 10
80.5770511732
 20
183.0603221324
 30
0.0
 10
80.7881649444
 20
182.9643960106
 30
0.0
 10
80.9395514613
 20
182.8761426873
 30
0.0
  0
SPLINE
  5
3E0
100
AcDbEntity
  8
RACCORDO
100
AcDbSpline
 62
250
  6
CONTINUOUS
 70
0
 71
3
 72
11
 73
7
 74
0
 42
0.0000001
 43
0.0000001
 44
0.0000000001
 40
0.0
 40
0.0
 40
0.0
 40
0.0
 40
0.2914428155
 40
0.5504405539
 40
0.7822384818
 40
1.0
 40
1.0
 40
1.0
 40
1.0
 10
89.3566250667
 20
154.335552032
 30
0.0
 10
89.3587744496
 20
154.3819377613
 30
0.0
 10
89.3703998779
 20
154.4695589068
 30
0.0
 10
89.4147130918
 20
154.5874887993
 30
0.0
 10
89.4843152554
 20
154.6788576523
 30
0.0
 10
89.5468059648
 20
154.7177317014
 30
0.0
 10
89.57919259
 20
154.7301780119
 30
0.0
  0
SPLINE
  5
3E1
100
AcDbEntity
  8
RACCORDO
100
AcDbSpline
 62
250
  6
CONTINUOUS
 70
0
 71
3
 72
14
 73
10
 74
0
 42
0.0000001
 43
0.0000001
 44
0.0000000001
 40
0.0
 40
0.0
 40
0.0
 40
0.0
 40
0.1219064267
 40
0.2442229421
 40
0.3673463006
 40
0.4915926167
 40
0.6170101914
 40
0.7435693347
 40
1.0
 40
1.0
 40
1.0
 40
1.0
 10
194.4367211681
 20
112.2323312093
 30
0.0
 10
195.3978291333
 20
111.6806829915
 30
0.0
 10
197.3233593686
 20
110.5756659964
 30
0.0
 10
200.2293568334
 20
108.9305626695
 30
0.0
 10
203.172451018
 20
107.3080713894
 30
0.0
 10
206.1673681487
 20
105.7221008606
 30
0.0
 10
209.2154148927
 20
104.1707015628
 30
0.0
 10
213.3669140414
 20
102.1395742272
 30
0.0
 10
216.529497402
 20
100.6822414866
 30
0.0
 10
218.6604995144
 20
99.7374697653
 30
0.0
  0
SPLINE
  5
3E2
100
AcDbEntity
  8
RACCORDO
100
AcDbSpline
 62
250
  6
CONTINUOUS
 70
0
 71
3
 72
13
 73
9
 74
0
 42
0.0000001
 43
0.0000001
 44
0.0000000001
 40
0.0
 40
0.0
 40
0.0
 40
0.0
 40
0.2404920626
 40
0.3692743161
 40
0.5005804277
 40
0.6318061007
 40
0.7603515343
 40
1.0
 40
1.0
 40
1.0
 40
1.0
 10
218.9881603392
 20
99.5929857975
 30
0.0
 10
219.379884681
 20
99.4173642175
 30
0.0
 10
219.9324310826
 20
99.0300406152
 30
0.0
 10
220.5373100416
 20
98.3704864527
 30
0.0
 10
220.9334141934
 20
97.7920117132
 30
0.0
 10
221.2446651276
 20
97.164239221
 30
0.0
 10
221.523615339
 20
96.3160924651
 30
0.0
 10
221.5896644237
 20
95.6461022994
 30
0.0
 10
221.5491429773
 20
95.2202405026
 30
0.0
  0
SPLINE
  5
3E3
100
AcDbEntity
  8
RACCORDO
100
AcDbSpline
 62
250
  6
CONTINUOUS
 70
0
 71
3
 72
11
 73
7
 74
0
 42
0.0000001
 43
0.0000001
 44
0.0000000001
 40
0.0
 40
0.0
 40
0.0
 40
0.0
 40
0.2500672376
 40
0.5000921416
 40
0.7500807224
 40
1.0
 40
1.0
 40
1.0
 40
1.0
 10
224.5952314799
 20
47.5026096598
 30
0.0
 10
224.596146537
 20
46.4040940702
 30
0.0
 10
224.5985896775
 20
44.207249314
 30
0.0
 10
224.6043123655
 20
40.9122375956
 30
0.0
 10
224.6109178875
 20
37.6178783425
 30
0.0
 10
224.6149040277
 20
35.4218441016
 30
0.0
 10
224.6187281113
 20
34.3239847617
 30
0.0
  0
SPLINE
  5
3E4
100
AcDbEntity
  8
RACCORDO
100
AcDbSpline
 62
250
  6
CONTINUOUS
 70
0
 71
3
 72
9
 73
5
 74
0
 42
0.0000001
 43
0.0000001
 44
0.0000000001
 40
0.0
 40
0.0
 40
0.0
 40
0.0
 40
0.5032013547
 40
1.0
 40
1.0
 40
1.0
 40
1.0
 10
220.4979418967
 20
81.0037423604
 30
0.0
 10
220.3531682252
 20
77.9122908431
 30
0.0
 10
220.172930205
 20
71.7637355526
 30
0.0
 10
220.1141267916
 20
65.6134289896
 30
0.0
 10
220.1141284346
 20
62.5579680173
 30
0.0
  0
SPLINE
  5
3E5
100
AcDbEntity
  8
RACCORDO
100
AcDbSpline
 62
250
  6
CONTINUOUS
 70
0
 71
3
 72
9
 73
5
 74
0
 42
0.0000001
 43
0.0000001
 44
0.0000000001
 40
0.0
 40
0.0
 40
0.0
 40
0.0
 40
0.2527495074
 40
1.0
 40
1.0
 40
1.0
 40
1.0
 10
221.5160950153
 20
94.8929971891
 30
0.0
 10
221.4015059604
 20
93.7370098939
 30
0.0
 10
220.9766323101
 20
89.1605947713
 30
0.0
 10
220.6669328839
 20
84.5733850434
 30
0.0
 10
220.5044910386
 20
81.1428179856
 30
0.0
  0
LINE
  5
3E6
100
AcDbEntity
  8
RACCORDO
100
AcDbLine
 62
250
  6
CONTINUOUS
 10
220.5044910386
 20
81.1428179856
 30
0.0
 11
220.4979418967
 21
81.0037423604
 31
0.0
  0
SPLINE
  5
3E7
100
AcDbEntity
  8
RACCORDO
100
AcDbSpline
 62
250
  6
CONTINUOUS
 70
0
 71
3
 72
9
 73
5
 74
0
 42
0.0000001
 43
0.0000001
 44
0.0000000001
 40
0.0
 40
0.0
 40
0.0
 40
0.0
 40
0.5000201359
 40
1.0
 40
1.0
 40
1.0
 40
1.0
 10
224.5952314799
 20
84.2358219632
 30
0.0
 10
224.5926883293
 20
81.1811917132
 30
0.0
 10
224.5900390824
 20
75.0721753195
 30
0.0
 10
224.5892195661
 20
68.9631587754
 30
0.0
 10
224.5892159139
 20
65.9087734883
 30
0.0
  0
SPLINE
  5
3E8
100
AcDbEntity
  8
RACCORDO
100
AcDbSpline
 62
250
  6
CONTINUOUS
 70
0
 71
3
 72
11
 73
7
 74
0
 42
0.0000001
 43
0.0000001
 44
0.0000000001
 40
0.0
 40
0.0
 40
0.0
 40
0.0
 40
0.2500813003
 40
0.5000924081
 40
0.7500673809
 40
1.0
 40
1.0
 40
1.0
 40
1.0
 10
224.6188074477
 20
97.4510660396
 30
0.0
 10
224.614960813
 20
96.352582897
 30
0.0
 10
224.6109673068
 20
94.1559136464
 30
0.0
 10
224.6043736017
 20
90.8612265642
 30
0.0
 10
224.5986403231
 20
87.5671901054
 30
0.0
 10
224.5961838965
 20
85.3713317198
 30
0.0
 10
224.5952629662
 20
84.2734953155
 30
0.0
  0
SPLINE
  5
3E9
100
AcDbEntity
  8
RACCORDO
100
AcDbSpline
 62
250
  6
CONTINUOUS
 70
0
 71
3
 72
15
 73
11
 74
0
 42
0.0000001
 43
0.0000001
 44
0.0000000001
 40
0.0
 40
0.0
 40
0.0
 40
0.0
 40
0.1160552935
 40
0.2399968045
 40
0.3694768542
 40
0.5017097617
 40
0.633700249
 40
0.7624791649
 40
0.8853307098
 40
1.0
 40
1.0
 40
1.0
 40
1.0
 10
222.827466268
 20
100.9486329935
 30
0.0
 10
222.9499637794
 20
100.8702431956
 30
0.0
 10
223.1907107516
 20
100.6880301262
 30
0.0
 10
223.5217805576
 20
100.362871455
 30
0.0
 10
223.8256738265
 20
99.985762308
 30
0.0
 10
224.0920704708
 20
99.5693808962
 30
0.0
 10
224.3120741371
 20
99.1277059394
 30
0.0
 10
224.4782702953
 20
98.6754954254
 30
0.0
 10
224.5851967969
 20
98.2280043607
 30
0.0
 10
224.6159514972
 20
97.930717591
 30
0.0
 10
224.6191590029
 20
97.7870577761
 30
0.0
  0
SPLINE
  5
3EA
100
AcDbEntity
  8
RACCORDO
100
AcDbSpline
 62
250
  6
CONTINUOUS
 70
0
 71
3
 72
9
 73
5
 74
0
 42
0.0000001
 43
0.0000001
 44
0.0000000001
 40
0.0
 40
0.0
 40
0.0
 40
0.0
 40
0.2624622704
 40
1.0
 40
1.0
 40
1.0
 40
1.0
 10
224.6195551229
 20
33.9883755478
 30
0.0
 10
224.6189547826
 20
33.9467498175
 30
0.0
 10
224.6126498293
 20
33.7882773916
 30
0.0
 10
224.5893713902
 20
33.6301670832
 30
0.0
 10
224.5603831087
 20
33.5168321599
 30
0.0
  0
SPLINE
  5
3EB
100
AcDbEntity
  8
RACCORDO
100
AcDbSpline
 62
250
  6
CONTINUOUS
 70
0
 71
3
 72
12
 73
8
 74
0
 42
0.0000001
 43
0.0000001
 44
0.0000000001
 40
0.0
 40
0.0
 40
0.0
 40
0.0
 40
0.2499361301
 40
0.4999105818
 40
0.7499280641
 40
0.8749392317
 40
1.0
 40
1.0
 40
1.0
 40
1.0
 10
199.4994540326
 20
114.3880507264
 30
0.0
 10
201.4112816755
 20
113.2842864298
 30
0.0
 10
205.2351186073
 20
111.0763947711
 30
0.0
 10
210.974500758
 20
107.7697455188
 30
0.0
 10
215.7596277235
 20
105.0170980561
 30
0.0
 10
219.5872212027
 20
102.8125616242
 30
0.0
 10
221.501824949
 20
101.7112068196
 30
0.0
 10
222.4604618321
 20
101.162418417
 30
0.0
  0
SPLINE
  5
3EC
100
AcDbEntity
  8
RACCORDO
100
AcDbSpline
 62
250
  6
CONTINUOUS
 70
0
 71
3
 72
9
 73
5
 74
0
 42
0.0000001
 43
0.0000001
 44
0.0000000001
 40
0.0
 40
0.0
 40
0.0
 40
0.0
 40
0.2519123535
 40
1.0
 40
1.0
 40
1.0
 40
1.0
 10
151.8399669085
 20
141.9045296887
 30
0.0
 10
155.8390242271
 20
139.5955243319
 30
0.0
 10
171.7138950936
 20
130.4297457226
 30
0.0
 10
187.5890356567
 20
121.2644342131
 30
0.0
 10
199.4652394032
 20
114.4083368224
 30
0.0
  0
SPLINE
  5
3ED
100
AcDbEntity
  8
RACCORDO
100
AcDbSpline
 62
250
  6
CONTINUOUS
 70
0
 71
3
 72
9
 73
5
 74
0
 42
0.0000001
 43
0.0000001
 44
0.0000000001
 40
0.0
 40
0.0
 40
0.0
 40
0.0
 40
0.2490368529
 40
1.0
 40
1.0
 40
1.0
 40
1.0
 10
193.0251486155
 20
95.051631846
 30
0.0
 10
193.663302079
 20
94.6853186268
 30
0.0
 10
196.2259247795
 20
93.2146989925
 30
0.0
 10
198.7968849255
 20
91.7581158631
 30
0.0
 10
200.7433487243
 20
90.6929913888
 30
0.0
  0
SPLINE
  5
3EE
100
AcDbEntity
  8
RACCORDO
100
AcDbSpline
 62
250
  6
CONTINUOUS
 70
0
 71
3
 72
10
 73
6
 74
0
 42
0.0000001
 43
0.0000001
 44
0.0000000001
 40
0.0
 40
0.0
 40
0.0
 40
0.0
 40
0.4976326567
 40
0.7479421495
 40
1.0
 40
1.0
 40
1.0
 40
1.0
 10
194.2566060296
 20
111.9183519382
 30
0.0
 10
195.8899551998
 20
110.9808566921
 30
0.0
 10
198.3452134611
 20
109.5722609091
 30
0.0
 10
201.6507470875
 20
107.7294007169
 30
0.0
 10
203.3226265414
 20
106.8240659059
 30
0.0
 10
204.1647909004
 20
106.3760766567
 30
0.0
  0
SPLINE
  5
3EF
100
AcDbEntity
  8
RACCORDO
100
AcDbSpline
 62
250
  6
CONTINUOUS
 70
0
 71
3
 72
9
 73
5
 74
0
 42
0.0000001
 43
0.0000001
 44
0.0000000001
 40
0.0
 40
0.0
 40
0.0
 40
0.0
 40
0.2461544132
 40
1.0
 40
1.0
 40
1.0
 40
1.0
 10
204.1647909004
 20
106.3760766567
 30
0.0
 10
205.3197908493
 20
105.7616745458
 30
0.0
 10
210.0357557978
 20
103.3105407992
 30
0.0
 10
214.8424350406
 20
101.0348407983
 30
0.0
 10
218.5051112032
 20
99.4110050888
 30
0.0
  0
SPLINE
  5
3F0
100
AcDbEntity
  8
RACCORDO
100
AcDbSpline
 62
250
  6
CONTINUOUS
 70
0
 71
3
 72
10
 73
6
 74
0
 42
0.0000001
 43
0.0000001
 44
0.0000000001
 40
0.0
 40
0.0
 40
0.0
 40
0.0
 40
0.2474011198
 40
0.4968038605
 40
1.0
 40
1.0
 40
1.0
 40
1.0
 10
89.7833101315
 20
118.6066065771
 30
0.0
 10
89.7123051882
 20
120.0605893164
 30
0.0
 10
89.5978250518
 20
122.9817298804
 30
0.0
 10
89.4521046695
 20
128.8640414274
 30
0.0
 10
89.4101703036
 20
133.2925330518
 30
0.0
 10
89.4101704684
 20
136.2533539305
 30
0.0
  0
SPLINE
  5
3F1
100
AcDbEntity
  8
RACCORDO
100
AcDbSpline
 62
250
  6
CONTINUOUS
 70
0
 71
3
 72
9
 73
5
 74
0
 42
0.0000001
 43
0.0000001
 44
0.0000000001
 40
0.0
 40
0.0
 40
0.0
 40
0.0
 40
0.4969484106
 40
1.0
 40
1.0
 40
1.0
 40
1.0
 10
89.4101704684
 20
136.2533539305
 30
0.0
 10
89.4101705043
 20
139.2462747485
 30
0.0
 10
89.4678277606
 20
145.2688807234
 30
0.0
 10
89.6431480279
 20
151.2897752548
 30
0.0
 10
89.7833101315
 20
154.3162091701
 30
0.0
  0
SPLINE
  5
3F2
100
AcDbEntity
  8
RACCORDO
100
AcDbSpline
 62
250
  6
CONTINUOUS
 70
0
 71
3
 72
9
 73
5
 74
0
 42
0.0000001
 43
0.0000001
 44
0.0000000001
 40
0.0
 40
0.0
 40
0.0
 40
0.0
 40
0.2512902336
 40
1.0
 40
1.0
 40
1.0
 40
1.0
 10
200.9455639695
 20
54.0322288957
 30
0.0
 10
200.2850147678
 20
54.3929782089
 30
0.0
 10
197.6637638788
 20
55.8421138215
 30
0.0
 10
195.0656287735
 20
57.3324559533
 30
0.0
 10
193.1207153273
 20
58.4486705117
 30
0.0
  0
SPLINE
  5
3F3
100
AcDbEntity
  8
RACCORDO
100
AcDbSpline
 62
250
  6
CONTINUOUS
 70
0
 71
3
 72
9
 73
5
 74
0
 42
0.0000001
 43
0.0000001
 44
0.0000000001
 40
0.0
 40
0.0
 40
0.0
 40
0.0
 40
0.2509513735
 40
1.0
 40
1.0
 40
1.0
 40
1.0
 10
97.8039781177
 20
113.4833599773
 30
0.0
 10
97.1611432564
 20
113.8567704068
 30
0.0
 10
94.5996794379
 20
115.344893435
 30
0.0
 10
92.0459748924
 20
116.8469689691
 30
0.0
 10
90.1519533054
 20
118.0030711232
 30
0.0
  0
SPLINE
  5
3F4
100
AcDbEntity
  8
RACCORDO
100
AcDbSpline
 62
250
  6
CONTINUOUS
 70
0
 71
3
 72
13
 73
9
 74
0
 42
0.0000001
 43
0.0000001
 44
0.0000000001
 40
0.0
 40
0.0
 40
0.0
 40
0.0
 40
0.2407384398
 40
0.3694425102
 40
0.5006130661
 40
0.6317000733
 40
0.7601569417
 40
1.0
 40
1.0
 40
1.0
 40
1.0
 10
218.8340829392
 20
99.2658104277
 30
0.0
 10
219.1968673615
 20
99.1073077412
 30
0.0
 10
219.7093966857
 20
98.7544225022
 30
0.0
 10
220.2695436136
 20
98.1492662528
 30
0.0
 10
220.6352983864
 20
97.6175150071
 30
0.0
 10
220.9214784251
 20
97.0394597449
 30
0.0
 10
221.1759742286
 20
96.257236555
 30
0.0
 10
221.2323513167
 20
95.6390025783
 30
0.0
 10
221.1915016174
 20
95.2466975805
 30
0.0
  0
SPLINE
  5
3F5
100
AcDbEntity
  8
RACCORDO
100
AcDbSpline
 62
250
  6
CONTINUOUS
 70
0
 71
3
 72
9
 73
5
 74
0
 42
0.0000001
 43
0.0000001
 44
0.0000000001
 40
0.0
 40
0.0
 40
0.0
 40
0.0
 40
0.2527501562
 40
1.0
 40
1.0
 40
1.0
 40
1.0
 10
221.1584282174
 20
94.9181337902
 30
0.0
 10
221.0437236143
 20
93.7609532898
 30
0.0
 10
220.6184224223
 20
89.1798263245
 30
0.0
 10
220.3084102398
 20
84.5878942316
 30
0.0
 10
220.1458042843
 20
81.1537986095
 30
0.0
  0
SPLINE
  5
3F6
100
AcDbEntity
  8
RACCORDO
100
AcDbSpline
 62
250
  6
CONTINUOUS
 70
0
 71
3
 72
9
 73
5
 74
0
 42
0.0000001
 43
0.0000001
 44
0.0000000001
 40
0.0
 40
0.0
 40
0.0
 40
0.0
 40
0.2399765088
 40
1.0
 40
1.0
 40
1.0
 40
1.0
 10
200.7433487243
 20
90.6929913888
 30
0.0
 10
200.7568406134
 20
90.6856079586
 30
0.0
 10
200.8120815693
 20
90.6530594852
 30
0.0
 10
200.8633412296
 20
90.6139330587
 30
0.0
 10
200.8998231609
 20
90.5816575008
 30
0.0
  0
SPLINE
  5
3F7
100
AcDbEntity
  8
RACCORDO
100
AcDbSpline
 62
250
  6
CONTINUOUS
 70
0
 71
3
 72
9
 73
5
 74
0
 42
0.0000001
 43
0.0000001
 44
0.0000000001
 40
0.0
 40
0.0
 40
0.0
 40
0.0
 40
0.2425716865
 40
1.0
 40
1.0
 40
1.0
 40
1.0
 10
200.8998231609
 20
90.5816575008
 30
0.0
 10
200.9163003185
 20
90.5670801624
 30
0.0
 10
200.9822365771
 20
90.5047535556
 30
0.0
 10
201.0402778455
 20
90.4342240458
 30
0.0
 10
201.0794854018
 20
90.377817444
 30
0.0
  0
SPLINE
  5
3F8
100
AcDbEntity
  8
RACCORDO
100
AcDbSpline
 62
250
  6
CONTINUOUS
 70
0
 71
3
 72
9
 73
5
 74
0
 42
0.0000001
 43
0.0000001
 44
0.0000000001
 40
0.0
 40
0.0
 40
0.0
 40
0.0
 40
0.5223653236
 40
1.0
 40
1.0
 40
1.0
 40
1.0
 10
201.1551189633
 20
90.2545539728
 30
0.0
 10
201.202439477
 20
90.1666603155
 30
0.0
 10
201.2740761824
 20
89.9874922488
 30
0.0
 10
201.299156589
 20
89.7948721
 30
0.0
 10
201.2950846329
 20
89.7036883969
 30
0.0
  0
SPLINE
  5
3F9
100
AcDbEntity
  8
RACCORDO
100
AcDbSpline
 62
250
  6
CONTINUOUS
 70
0
 71
3
 72
9
 73
5
 74
0
 42
0.0000001
 43
0.0000001
 44
0.0000000001
 40
0.0
 40
0.0
 40
0.0
 40
0.0
 40
0.5031757036
 40
1.0
 40
1.0
 40
1.0
 40
1.0
 10
220.1396959556
 20
81.0143915769
 30
0.0
 10
219.9945314577
 20
77.9211817306
 30
0.0
 10
219.8139269422
 20
71.7687895374
 30
0.0
 10
219.755013664
 20
65.6146431223
 30
0.0
 10
219.755013664
 20
62.5571163167
 30
0.0
  0
SPLINE
  5
3FA
100
AcDbEntity
  8
RACCORDO
100
AcDbSpline
 62
250
  6
CONTINUOUS
 70
0
 71
3
 72
9
 73
5
 74
0
 42
0.0000001
 43
0.0000001
 44
0.0000000001
 40
0.0
 40
0.0
 40
0.0
 40
0.0
 40
0.5031530762
 40
1.0
 40
1.0
 40
1.0
 40
1.0
 10
201.2950846329
 20
89.7036883969
 30
0.0
 10
201.1596711233
 20
86.6729940063
 30
0.0
 10
200.9901966851
 20
80.6451729324
 30
0.0
 10
200.9344587367
 20
74.6157517167
 30
0.0
 10
200.9344588166
 20
71.6200560523
 30
0.0
  0
SPLINE
  5
3FB
100
AcDbEntity
  8
RACCORDO
100
AcDbSpline
 62
250
  6
CONTINUOUS
 70
0
 71
3
 72
9
 73
5
 74
0
 42
0.0000001
 43
0.0000001
 44
0.0000000001
 40
0.0
 40
0.0
 40
0.0
 40
0.0
 40
0.218844058
 40
1.0
 40
1.0
 40
1.0
 40
1.0
 10
201.1436560791
 20
53.9888026427
 30
0.0
 10
201.1289429726
 20
53.9860789308
 30
0.0
 10
201.0601091057
 20
53.9819337546
 30
0.0
 10
200.9925683423
 20
54.0068667946
 30
0.0
 10
200.9455639106
 20
54.0322288593
 30
0.0
  0
SPLINE
  5
3FC
100
AcDbEntity
  8
RACCORDO
100
AcDbSpline
 62
250
  6
CONTINUOUS
 70
0
 71
3
 72
9
 73
5
 74
0
 42
0.0000001
 43
0.0000001
 44
0.0000000001
 40
0.0
 40
0.0
 40
0.0
 40
0.0
 40
0.4727955414
 40
1.0
 40
1.0
 40
1.0
 40
1.0
 10
90.1519533054
 20
118.0030711232
 30
0.0
 10
90.1090728253
 20
118.0295629803
 30
0.0
 10
90.0264304819
 20
118.0986779608
 30
0.0
 10
89.9589914259
 20
118.1819873496
 30
0.0
 10
89.9274621218
 20
118.2285151032
 30
0.0
  0
SPLINE
  5
3FD
100
AcDbEntity
  8
RACCORDO
100
AcDbSpline
 62
250
  6
CONTINUOUS
 70
0
 71
3
 72
9
 73
5
 74
0
 42
0.0000001
 43
0.0000001
 44
0.0000000001
 40
0.0
 40
0.0
 40
0.0
 40
0.0
 40
0.5298347066
 40
1.0
 40
1.0
 40
1.0
 40
1.0
 10
89.9274621218
 20
118.2285151032
 30
0.0
 10
89.8870550433
 20
118.288145776
 30
0.0
 10
89.8228512749
 20
118.4091573695
 30
0.0
 10
89.7877363259
 20
118.5428405454
 30
0.0
 10
89.7833101315
 20
118.6066065771
 30
0.0
  0
SPLINE
  5
3FE
100
AcDbEntity
  8
RACCORDO
100
AcDbSpline
 62
250
  6
CONTINUOUS
 70
0
 71
3
 72
11
 73
7
 74
0
 42
0.0000001
 43
0.0000001
 44
0.0000000001
 40
0.0
 40
0.0
 40
0.0
 40
0.0
 40
0.2876559159
 40
0.5474573056
 40
0.7821731045
 40
1.0
 40
1.0
 40
1.0
 40
1.0
 10
89.7833101315
 20
154.3162091701
 30
0.0
 10
89.7850154375
 20
154.3426768843
 30
0.0
 10
89.7921845244
 20
154.3929534473
 30
0.0
 10
89.8163410991
 20
154.461506233
 30
0.0
 10
89.8529043583
 20
154.5169946169
 30
0.0
 10
89.8858185433
 20
154.5439806552
 30
0.0
 10
89.903271576
 20
154.5539187675
 30
0.0
  0
SPLINE
  5
3FF
100
AcDbEntity
  8
RACCORDO
100
AcDbSpline
 62
250
  6
CONTINUOUS
 70
0
 71
3
 72
11
 73
7
 74
0
 42
0.0000001
 43
0.0000001
 44
0.0000000001
 40
0.0
 40
0.0
 40
0.0
 40
0.0
 40
0.2925125748
 40
0.553002372
 40
0.7850098764
 40
1.0
 40
1.0
 40
1.0
 40
1.0
 10
97.5952656459
 20
150.1512743932
 30
0.0
 10
97.5944614539
 20
150.1345804985
 30
0.0
 10
97.5954932329
 20
150.1027859303
 30
0.0
 10
97.6064097946
 20
150.0588493998
 30
0.0
 10
97.6266080195
 20
150.0231366642
 30
0.0
 10
97.6463929844
 20
150.0059769139
 30
0.0
 10
97.6570170967
 20
149.9998107534
 30
0.0
  0
SPLINE
  5
400
100
AcDbEntity
  8
RACCORDO
100
AcDbSpline
 62
250
  6
CONTINUOUS
 70
0
 71
3
 72
11
 73
7
 74
0
 42
0.0000001
 43
0.0000001
 44
0.0000000001
 40
0.0
 40
0.0
 40
0.0
 40
0.0
 40
0.292863154
 40
0.5534626947
 40
0.7853275705
 40
1.0
 40
1.0
 40
1.0
 40
1.0
 10
145.1836225056
 20
122.5942055296
 30
0.0
 10
145.1828186653
 20
122.577485735
 30
0.0
 10
145.1838499163
 20
122.5456540539
 30
0.0
 10
145.1947681559
 20
122.5016826441
 30
0.0
 10
145.2149726468
 20
122.4659767529
 30
0.0
 10
145.2347751737
 20
122.4488555776
 30
0.0
 10
145.2454028894
 20
122.4427233644
 30
0.0
  0
SPLINE
  5
401
100
AcDbEntity
  8
RACCORDO
100
AcDbSpline
 62
250
  6
CONTINUOUS
 70
0
 71
3
 72
11
 73
7
 74
0
 42
0.0000001
 43
0.0000001
 44
0.0000000001
 40
0.0
 40
0.0
 40
0.0
 40
0.0
 40
0.2932145909
 40
0.5539245015
 40
0.7856465605
 40
1.0
 40
1.0
 40
1.0
 40
1.0
 10
192.9132597498
 20
95.1158592126
 30
0.0
 10
192.9124564988
 20
95.0991141628
 30
0.0
 10
192.9134874704
 20
95.0672466563
 30
0.0
 10
192.9244069214
 20
95.0232422097
 30
0.0
 10
192.9446163257
 20
94.9875445262
 30
0.0
 10
192.9644351331
 20
94.9704623969
 30
0.0
 10
192.9750657246
 20
94.9643642512
 30
0.0
  0
SPLINE
  5
402
100
AcDbEntity
  8
RACCORDO
100
AcDbSpline
 62
250
  6
CONTINUOUS
 70
0
 71
3
 72
11
 73
7
 74
0
 42
0.0000001
 43
0.0000001
 44
0.0000000001
 40
0.0
 40
0.0
 40
0.0
 40
0.0
 40
0.291449294
 40
0.551484549
 40
0.7839135369
 40
1.0
 40
1.0
 40
1.0
 40
1.0
 10
200.9344588166
 20
71.6200560657
 30
0.0
 10
200.9203672878
 20
71.6277022558
 30
0.0
 10
200.8947749571
 20
71.6443663536
 30
0.0
 10
200.8640376672
 20
71.6751719579
 30
0.0
 10
200.8445014056
 20
71.7095474154
 30
0.0
 10
200.8399026302
 20
71.7343938497
 30
0.0
 10
200.8399051312
 20
71.7462805419
 30
0.0
  0
SPLINE
  5
403
100
AcDbEntity
  8
0
100
AcDbSpline
 62
7
  6
CONTINUOUS
 70
0
 71
3
 72
19
 73
15
 74
0
 42
0.0000001
 43
0.0000001
 44
0.0000000001
 40
0.0
 40
0.0
 40
0.0
 40
0.0
 40
0.0409280809
 40
0.0832672127
 40
0.1284124441
 40
0.1771291959
 40
0.2863304183
 40
0.4104342739
 40
0.477623877
 40
0.5481283905
 40
0.6966067875
 40
0.8497111181
 40
0.9258304226
 40
1.0
 40
1.0
 40
1.0
 40
1.0
 10
148.5369289603
 20
80.3703396983
 30
0.0
 10
148.5500815513
 20
80.3779432404
 30
0.0
 10
148.5752787462
 20
80.3965307349
 30
0.0
 10
148.6048577884
 20
80.4345138877
 30
0.0
 10
148.627164965
 20
80.4801920208
 30
0.0
 10
148.6483044217
 20
80.5528682922
 30
0.0
 10
148.6550421947
 20
80.6584146
 30
0.0
 10
148.6420985619
 20
80.7695984982
 30
0.0
 10
148.6202789296
 20
80.8643900435
 30
0.0
 10
148.5880257435
 20
80.9657115303
 30
0.0
 10
148.5310793458
 20
81.092112137
 30
0.0
 10
148.4561710338
 20
81.2111729708
 30
0.0
 10
148.3868661436
 20
81.3000059715
 30
0.0
 10
148.3491256963
 20
81.3412602989
 30
0.0
 10
148.3292171958
 20
81.3602767007
 30
0.0
  0
SPLINE
  5
404
100
AcDbEntity
  8
RACCORDO
100
AcDbSpline
 62
250
  6
CONTINUOUS
 70
0
 71
3
 72
14
 73
10
 74
0
 42
0.0000001
 43
0.0000001
 44
0.0000000001
 40
0.0
 40
0.0
 40
0.0
 40
0.0
 40
0.1159883971
 40
0.2292037755
 40
0.3426880956
 40
0.4594347414
 40
0.5819922131
 40
0.7123338959
 40
1.0
 40
1.0
 40
1.0
 40
1.0
 10
75.407805713
 20
181.5812929341
 30
0.0
 10
75.4667325456
 20
181.6303734333
 30
0.0
 10
75.5922585972
 20
181.7171996499
 30
0.0
 10
75.8017234887
 20
181.8073849296
 30
0.0
 10
76.0255880878
 20
181.8538146246
 30
0.0
 10
76.2601992283
 20
181.8556273826
 30
0.0
 10
76.5022592773
 20
181.8141126652
 30
0.0
 10
76.8414488182
 20
181.6978568256
 30
0.0
 10
77.0813979946
 20
181.553418571
 30
0.0
 10
77.2340886289
 20
181.4400102072
 30
0.0
  0
SPLINE
  5
405
100
AcDbEntity
  8
0
100
AcDbSpline
 62
7
  6
CONTINUOUS
 70
0
 71
3
 72
9
 73
5
 74
0
 42
0.0000001
 43
0.0000001
 44
0.0000000001
 40
0.0
 40
0.0
 40
0.0
 40
0.0
 40
0.2324096998
 40
1.0
 40
1.0
 40
1.0
 40
1.0
 10
148.21384255
 20
80.6737551156
 30
0.0
 10
148.2084787579
 20
80.6730523709
 30
0.0
 10
148.1851554787
 20
80.6718534956
 30
0.0
 10
148.1619044487
 20
80.676373842
 30
0.0
 10
148.1447049865
 20
80.6812107196
 30
0.0
  0
SPLINE
  5
406
100
AcDbEntity
  8
0
100
AcDbSpline
 62
7
  6
CONTINUOUS
 70
0
 71
3
 72
9
 73
5
 74
0
 42
0.0000001
 43
0.0000001
 44
0.0000000001
 40
0.0
 40
0.0
 40
0.0
 40
0.0
 40
0.2356225605
 40
1.0
 40
1.0
 40
1.0
 40
1.0
 10
148.1447049865
 20
80.6812107196
 30
0.0
 10
148.1359211382
 20
80.6836809363
 30
0.0
 10
148.0991247197
 20
80.6958847518
 30
0.0
 10
148.0641755789
 20
80.7130648776
 30
0.0
 10
148.0382747516
 20
80.727395134
 30
0.0
  0
LINE
  5
407
100
AcDbEntity
  8
RACCORDO
100
AcDbLine
 62
250
  6
CONTINUOUS
 10
178.5537392258
 20
66.3179125587
 30
0.0
 11
176.5414147951
 21
67.4750581694
 31
0.0
  0
LINE
  5
408
100
AcDbEntity
  8
RACCORDO
100
AcDbLine
 62
250
  6
CONTINUOUS
 10
162.6190368244
 20
75.4888995339
 30
0.0
 11
160.6081832959
 21
76.6475303432
 31
0.0
  0
LINE
  5
409
100
AcDbEntity
  8
0
100
AcDbLine
 62
7
  6
CONTINUOUS
 10
146.3500804426
 20
80.655749456
 30
0.0
 11
146.3994318926
 21
80.8774917066
 31
0.0
  0
SPLINE
  5
40A
100
AcDbEntity
  8
RACCORDO
100
AcDbSpline
 62
250
  6
CONTINUOUS
 70
0
 71
3
 72
14
 73
10
 74
0
 42
0.0000001
 43
0.0000001
 44
0.0000000001
 40
0.0
 40
0.0
 40
0.0
 40
0.0
 40
0.2853948348
 40
0.4152441195
 40
0.537754792
 40
0.6548701567
 40
0.7690478116
 40
0.8831367578
 40
1.0
 40
1.0
 40
1.0
 40
1.0
 10
221.5491429773
 20
31.557550288
 30
0.0
 10
221.5694422174
 20
31.3667411967
 30
0.0
 10
221.5713431087
 20
31.0837267535
 30
0.0
 10
221.4967959539
 20
30.7287370785
 30
0.0
 10
221.4070459048
 20
30.495802054
 30
0.0
 10
221.2831404761
 20
30.291145503
 30
0.0
 10
221.1257750802
 20
30.1183023384
 30
0.0
 10
220.9376749633
 20
29.9799593436
 30
0.0
 10
220.7962181907
 20
29.9133760921
 30
0.0
 10
220.7224741592
 20
29.8862546398
 30
0.0
  0
LINE
  5
40B
100
AcDbEntity
  8
0
100
AcDbLine
 62
7
  6
CONTINUOUS
 10
146.7548436731
 20
81.0886977191
 30
0.0
 11
146.4787832806
 21
81.2480669741
 31
0.0
  0
LINE
  5
40C
100
AcDbEntity
  8
0
100
AcDbLine
 62
7
  6
CONTINUOUS
 10
145.3461840726
 20
82.3959627402
 30
0.0
 11
145.3143691382
 21
82.3039798216
 31
0.0
  0
SPLINE
  5
40D
100
AcDbEntity
  8
RACCORDO
100
AcDbSpline
 62
250
  6
CONTINUOUS
 70
0
 71
3
 72
9
 73
5
 74
0
 42
0.0000001
 43
0.0000001
 44
0.0000000001
 40
0.0
 40
0.0
 40
0.0
 40
0.0
 40
0.5033733085
 40
1.0
 40
1.0
 40
1.0
 40
1.0
 10
220.1141284346
 20
62.5579680173
 30
0.0
 10
220.1141296403
 20
59.5365920747
 30
0.0
 10
220.1711146045
 20
53.5343537371
 30
0.0
 10
220.3505144632
 20
47.5337422773
 30
0.0
 10
220.4979418967
 20
44.5565092043
 30
0.0
  0
LINE
  5
40E
100
AcDbEntity
  8
0
100
AcDbLine
 62
7
  6
CONTINUOUS
 10
146.3675008989
 20
80.9556866687
 30
0.0
 11
146.2933455437
 21
80.6229914364
 31
0.0
  0
SPLINE
  5
40F
100
AcDbEntity
  8
RACCORDO
100
AcDbSpline
 62
7
  6
CONTINUOUS
 70
0
 71
3
 72
9
 73
5
 74
0
 42
0.0000001
 43
0.0000001
 44
0.0000000001
 40
0.0
 40
0.0
 40
0.0
 40
0.0
 40
0.2593289482
 40
1.0
 40
1.0
 40
1.0
 40
1.0
 10
137.1574681527
 20
94.1403425967
 30
0.0
 10
137.1574681527
 20
94.1365473829
 30
0.0
 10
137.1569063069
 20
94.1219236021
 30
0.0
 10
137.1539312498
 20
94.1073497078
 30
0.0
 10
137.1502211033
 20
94.0971648998
 30
0.0
  0
LINE
  5
410
100
AcDbEntity
  8
RACCORDO
100
AcDbLine
 62
250
  6
CONTINUOUS
 10
220.4979418967
 20
44.5565092043
 30
0.0
 11
220.5044910386
 21
44.4250222964
 31
0.0
  0
SPLINE
  5
411
100
AcDbEntity
  8
0
100
AcDbSpline
 62
7
  6
CONTINUOUS
 70
0
 71
3
 72
9
 73
5
 74
0
 42
0.0000001
 43
0.0000001
 44
0.0000000001
 40
0.0
 40
0.0
 40
0.0
 40
0.0
 40
0.5003755093
 40
1.0
 40
1.0
 40
1.0
 40
1.0
 10
148.6146697597
 20
79.792291678
 30
0.0
 10
148.6423677955
 20
79.6917320141
 30
0.0
 10
148.6967093383
 20
79.490486821
 30
0.0
 10
148.7503104347
 20
79.2890390707
 30
0.0
 10
148.7781478806
 20
79.188680363
 30
0.0
  0
SPLINE
  5
412
100
AcDbEntity
  8
0
100
AcDbSpline
 62
7
  6
CONTINUOUS
 70
0
 71
3
 72
12
 73
8
 74
0
 42
0.0000001
 43
0.0000001
 44
0.0000000001
 40
0.0
 40
0.0
 40
0.0
 40
0.0
 40
0.2626540004
 40
0.455515313
 40
0.6421268005
 40
0.8228927443
 40
1.0
 40
1.0
 40
1.0
 40
1.0
 10
148.4097805372
 20
80.2627239856
 30
0.0
 10
148.4385172699
 20
80.2277848685
 30
0.0
 10
148.4810615657
 20
80.1611342826
 30
0.0
 10
148.5283374783
 20
80.0610839157
 30
0.0
 10
148.5626731871
 20
79.9708042362
 30
0.0
 10
148.59061446
 20
79.8812439856
 30
0.0
 10
148.6065693198
 20
79.821700893
 30
0.0
 10
148.6146697595
 20
79.792291678
 30
0.0
  0
SPLINE
  5
413
100
AcDbEntity
  8
0
100
AcDbSpline
 62
7
  6
CONTINUOUS
 70
0
 71
3
 72
19
 73
15
 74
0
 42
0.0000001
 43
0.0000001
 44
0.0000000001
 40
0.0
 40
0.0
 40
0.0
 40
0.0
 40
0.0741713968
 40
0.1502822322
 40
0.3033864983
 40
0.451861726
 40
0.5223535537
 40
0.5895522493
 40
0.7136522874
 40
0.8228584626
 40
0.8715803549
 40
0.9167266835
 40
0.9590687178
 40
1.0
 40
1.0
 40
1.0
 40
1.0
 10
148.272517017
 20
81.3275387314
 30
0.0
 10
148.292426014
 20
81.3085216555
 30
0.0
 10
148.3301703507
 20
81.2672734492
 30
0.0
 10
148.3994553195
 20
81.1784273887
 30
0.0
 10
148.4743840614
 20
81.0593846489
 30
0.0
 10
148.5313156102
 20
80.9329815398
 30
0.0
 10
148.5635682037
 20
80.8316622646
 30
0.0
 10
148.585385622
 20
80.736872413
 30
0.0
 10
148.5983264628
 20
80.6256832651
 30
0.0
 10
148.5915883876
 20
80.5201361276
 30
0.0
 10
148.5704602358
 20
80.4474508858
 30
0.0
 10
148.5481416066
 20
80.4017740214
 30
0.0
 10
148.5185684112
 20
80.3637849412
 30
0.0
 10
148.4933705083
 20
80.3451903527
 30
0.0
 10
148.4802121028
 20
80.3375943356
 30
0.0
  0
SPLINE
  5
414
100
AcDbEntity
  8
0
100
AcDbSpline
 62
7
  6
CONTINUOUS
 70
0
 71
3
 72
11
 73
7
 74
0
 42
0.0000001
 43
0.0000001
 44
0.0000000001
 40
0.0
 40
0.0
 40
0.0
 40
0.0
 40
0.2312777306
 40
0.4719143136
 40
0.7261882943
 40
1.0
 40
1.0
 40
1.0
 40
1.0
 10
147.3605342214
 20
81.8739339217
 30
0.0
 10
147.4365450327
 20
81.8421955597
 30
0.0
 10
147.5906392919
 20
81.7749240877
 30
0.0
 10
147.8209825269
 20
81.6567463474
 30
0.0
 10
148.0536865375
 20
81.5119903738
 30
0.0
 10
148.2020175599
 20
81.3949175535
 30
0.0
 10
148.272517017
 20
81.3275387314
 30
0.0
  0
SPLINE
  5
415
100
AcDbEntity
  8
RACCORDO
100
AcDbSpline
 62
7
  6
CONTINUOUS
 70
0
 71
3
 72
9
 73
5
 74
0
 42
0.0000001
 43
0.0000001
 44
0.0000000001
 40
0.0
 40
0.0
 40
0.0
 40
0.0
 40
0.2593289482
 40
1.0
 40
1.0
 40
1.0
 40
1.0
 10
153.0673707294
 20
84.9541642468
 30
0.0
 10
153.0673707294
 20
84.9503690331
 30
0.0
 10
153.0668088836
 20
84.9357452523
 30
0.0
 10
153.0638338265
 20
84.9211713579
 30
0.0
 10
153.06012368
 20
84.9109865499
 30
0.0
  0
SPLINE
  5
416
100
AcDbEntity
  8
0
100
AcDbSpline
 62
7
  6
CONTINUOUS
 70
0
 71
3
 72
11
 73
7
 74
0
 42
0.0000001
 43
0.0000001
 44
0.0000000001
 40
0.0
 40
0.0
 40
0.0
 40
0.0
 40
0.289790993
 40
0.557423983
 40
0.7948446847
 40
1.0
 40
1.0
 40
1.0
 40
1.0
 10
147.9815602504
 20
80.6946489008
 30
0.0
 10
148.0000610526
 20
80.6844128957
 30
0.0
 10
148.0364064924
 20
80.6660025026
 30
0.0
 10
148.0909987509
 20
80.6459410539
 30
0.0
 10
148.1424910895
 20
80.6368537908
 30
0.0
 10
148.1756217055
 20
80.6438908627
 30
0.0
 10
148.1886057302
 20
80.6513387769
 30
0.0
  0
SPLINE
  5
417
100
AcDbEntity
  8
RACCORDO
100
AcDbSpline
 62
7
  6
CONTINUOUS
 70
0
 71
3
 72
9
 73
5
 74
0
 42
0.0000001
 43
0.0000001
 44
0.0000000001
 40
0.0
 40
0.0
 40
0.0
 40
0.0
 40
0.2593289482
 40
1.0
 40
1.0
 40
1.0
 40
1.0
 10
121.247565576
 20
103.3265209466
 30
0.0
 10
121.247565576
 20
103.3227257328
 30
0.0
 10
121.2470037302
 20
103.308101952
 30
0.0
 10
121.2440286731
 20
103.2935280576
 30
0.0
 10
121.2403185266
 20
103.2833432497
 30
0.0
  0
SPLINE
  5
418
100
AcDbEntity
  8
RACCORDO
100
AcDbSpline
 62
7
  6
CONTINUOUS
 70
0
 71
3
 72
9
 73
5
 74
0
 42
0.0000001
 43
0.0000001
 44
0.0000000001
 40
0.0
 40
0.0
 40
0.0
 40
0.0
 40
0.2593289482
 40
1.0
 40
1.0
 40
1.0
 40
1.0
 10
168.9772733061
 20
75.767985897
 30
0.0
 10
168.9772733061
 20
75.7641906832
 30
0.0
 10
168.9767114603
 20
75.7495669024
 30
0.0
 10
168.9737364032
 20
75.734993008
 30
0.0
 10
168.9700262567
 20
75.7248082
 30
0.0
  0
SPLINE
  5
419
100
AcDbEntity
  8
0
100
AcDbSpline
 62
7
  6
CONTINUOUS
 70
0
 71
3
 72
9
 73
5
 74
0
 42
0.0000001
 43
0.0000001
 44
0.0000000001
 40
0.0
 40
0.0
 40
0.0
 40
0.0
 40
0.249746284
 40
1.0
 40
1.0
 40
1.0
 40
1.0
 10
148.8172014832
 20
79.2857689601
 30
0.0
 10
148.8049699869
 20
79.3306376163
 30
0.0
 10
148.7566540102
 20
79.510473311
 30
0.0
 10
148.7084959494
 20
79.690353494
 30
0.0
 10
148.6713944291
 20
79.8250438707
 30
0.0
  0
SPLINE
  5
41A
100
AcDbEntity
  8
RACCORDO
100
AcDbSpline
 62
7
  6
CONTINUOUS
 70
0
 71
3
 72
9
 73
5
 74
0
 42
0.0000001
 43
0.0000001
 44
0.0000000001
 40
0.0
 40
0.0
 40
0.0
 40
0.0
 40
0.2593289482
 40
1.0
 40
1.0
 40
1.0
 40
1.0
 10
184.8871758828
 20
66.5818075471
 30
0.0
 10
184.8871758828
 20
66.5780123333
 30
0.0
 10
184.886614037
 20
66.5633885525
 30
0.0
 10
184.8836389799
 20
66.5488146581
 30
0.0
 10
184.8799288334
 20
66.5386298502
 30
0.0
  0
SPLINE
  5
41B
100
AcDbEntity
  8
RACCORDO
100
AcDbSpline
 62
250
  6
CONTINUOUS
 70
0
 71
3
 72
9
 73
5
 74
0
 42
0.0000001
 43
0.0000001
 44
0.0000000001
 40
0.0
 40
0.0
 40
0.0
 40
0.0
 40
0.2933409811
 40
1.0
 40
1.0
 40
1.0
 40
1.0
 10
105.6076367837
 20
113.0996142059
 30
0.0
 10
105.6080126745
 20
113.098845486
 30
0.0
 10
105.6092364951
 20
113.0962017634
 30
0.0
 10
105.6102632732
 20
113.0934355117
 30
0.0
 10
105.610650126
 20
113.0914107514
 30
0.0
  0
SPLINE
  5
41C
100
AcDbEntity
  8
RACCORDO
100
AcDbSpline
 62
250
  6
CONTINUOUS
 70
0
 71
3
 72
9
 73
5
 74
0
 42
0.0000001
 43
0.0000001
 44
0.0000000001
 40
0.0
 40
0.0
 40
0.0
 40
0.0
 40
0.3149440227
 40
1.0
 40
1.0
 40
1.0
 40
1.0
 10
105.610650126
 20
113.0914107514
 30
0.0
 10
105.6107640459
 20
113.0908144033
 30
0.0
 10
105.6110356995
 20
113.0889397906
 30
0.0
 10
105.6106754071
 20
113.0867563966
 30
0.0
 10
105.6097660153
 20
113.0857987823
 30
0.0
  0
SPLINE
  5
41D
100
AcDbEntity
  8
RACCORDO
100
AcDbSpline
 62
7
  6
CONTINUOUS
 70
0
 71
3
 72
9
 73
5
 74
0
 42
0.0000001
 43
0.0000001
 44
0.0000000001
 40
0.0
 40
0.0
 40
0.0
 40
0.0
 40
0.266661231
 40
1.0
 40
1.0
 40
1.0
 40
1.0
 10
105.3376629993
 20
112.717003388
 30
0.0
 10
105.3376629993
 20
112.7109462369
 30
0.0
 10
105.3364235818
 20
112.6882818638
 30
0.0
 10
105.3290965577
 20
112.6657028803
 30
0.0
 10
105.3200996116
 20
112.6516839092
 30
0.0
  0
SPLINE
  5
41E
100
AcDbEntity
  8
RACCORDO
100
AcDbSpline
 62
7
  6
CONTINUOUS
 70
0
 71
3
 72
9
 73
5
 74
0
 42
0.0000001
 43
0.0000001
 44
0.0000000001
 40
0.0
 40
0.0
 40
0.0
 40
0.0
 40
0.266661231
 40
1.0
 40
1.0
 40
1.0
 40
1.0
 10
200.7970784595
 20
57.5999332888
 30
0.0
 10
200.7970784595
 20
57.5938761377
 30
0.0
 10
200.795839042
 20
57.5712117645
 30
0.0
 10
200.7885120179
 20
57.5486327811
 30
0.0
 10
200.7795150718
 20
57.5346138099
 30
0.0
  0
ELLIPSE
  5
41F
100
AcDbEntity
  8
RACCORDO
100
AcDbEllipse
 62
7
  6
CONTINUOUS
 10
105.567536829
 20
113.4074123305
 30
0.0
 11
-0.1196770859
 21
0.1736648876
 31
0.0
 40
0.5702773845
 41
-2.907060698
 42
-2.4502852216
  0
ELLIPSE
  5
420
100
AcDbEntity
  8
RACCORDO
100
AcDbEllipse
 62
7
  6
CONTINUOUS
 10
101.9483388462
 20
115.7420109697
 30
0.0
 11
0.193576202
 21
0.0971400987
 31
0.0
 40
0.7160534512
 41
0.4403883389
 42
1.2258350725
  0
ELLIPSE
  5
421
100
AcDbEntity
  8
RACCORDO
100
AcDbEllipse
 62
7
  6
CONTINUOUS
 10
197.4077543064
 20
60.6249408704
 30
0.0
 11
0.193576202
 21
0.0971400987
 31
0.0
 40
0.7160534512
 41
0.4403883389
 42
1.2258350725
  0
ELLIPSE
  5
422
100
AcDbEntity
  8
RACCORDO
100
AcDbEllipse
 62
7
  6
CONTINUOUS
 10
117.9683226427
 20
106.2881555339
 30
0.0
 11
0.2303502681
 21
0.0539884731
 31
0.0
 40
0.6804739304
 41
0.6271949615
 42
1.4126418276
  0
ELLIPSE
  5
423
100
AcDbEntity
  8
RACCORDO
100
AcDbEllipse
 62
7
  6
CONTINUOUS
 10
133.8782252194
 20
97.1019771841
 30
0.0
 11
0.2303502681
 21
0.0539884731
 31
0.0
 40
0.6804739304
 41
0.6271949615
 42
1.4126418276
  0
ELLIPSE
  5
424
100
AcDbEntity
  8
RACCORDO
100
AcDbEllipse
 62
7
  6
CONTINUOUS
 10
149.7881277961
 20
87.9157988342
 30
0.0
 11
0.2303502681
 21
0.0539884731
 31
0.0
 40
0.6804739304
 41
0.6271949615
 42
1.4126418276
  0
ELLIPSE
  5
425
100
AcDbEntity
  8
RACCORDO
100
AcDbEllipse
 62
7
  6
CONTINUOUS
 10
165.6980303728
 20
78.7296204843
 30
0.0
 11
0.2303502681
 21
0.0539884731
 31
0.0
 40
0.6804739304
 41
0.6271949615
 42
1.4126418276
  0
ELLIPSE
  5
426
100
AcDbEntity
  8
RACCORDO
100
AcDbEllipse
 62
7
  6
CONTINUOUS
 10
181.6079329495
 20
69.5434421344
 30
0.0
 11
0.2303502681
 21
0.0539884731
 31
0.0
 40
0.6804739304
 41
0.6271949615
 42
1.4126418276
  0
ELLIPSE
  5
427
100
AcDbEntity
  8
RACCORDO
100
AcDbEllipse
 62
7
  6
CONTINUOUS
 10
92.1335289114
 20
119.5553771998
 30
0.0
 11
-0.2500120911
 21
0.4330057209
 31
0.0
 40
0.5775075436
 41
0.7855021057
 42
2.355993846
  0
ELLIPSE
  5
428
100
AcDbEntity
  8
RACCORDO
100
AcDbEllipse
 62
7
  6
CONTINUOUS
 10
137.3554534204
 20
95.0942692007
 30
0.0
 11
0.0325759527
 21
0.2115919185
 31
0.0
 40
0.1766509255
 41
5.4292500487
 42
7.0000463755
  0
ELLIPSE
  5
429
100
AcDbEntity
  8
RACCORDO
100
AcDbEllipse
 62
7
  6
CONTINUOUS
 10
153.2653559971
 20
85.9080908508
 30
0.0
 11
0.0325759527
 21
0.2115919185
 31
0.0
 40
0.1766509255
 41
5.4292500487
 42
7.0000463755
  0
ELLIPSE
  5
42A
100
AcDbEntity
  8
RACCORDO
100
AcDbEllipse
 62
7
  6
CONTINUOUS
 10
169.1752585738
 20
76.721912501
 30
0.0
 11
0.0325759527
 21
0.2115919185
 31
0.0
 40
0.1766509255
 41
5.4292500487
 42
7.0000463755
  0
ELLIPSE
  5
42B
100
AcDbEntity
  8
RACCORDO
100
AcDbEllipse
 62
7
  6
CONTINUOUS
 10
105.6457294867
 20
113.607183953
 30
0.0
 11
0.0497612036
 21
0.2013898992
 31
0.0
 40
0.2927433574
 41
5.4134162987
 42
6.9842126255
  0
ELLIPSE
  5
42C
100
AcDbEntity
  8
RACCORDO
100
AcDbEllipse
 62
7
  6
CONTINUOUS
 10
121.4455508437
 20
104.2804475506
 30
0.0
 11
0.0325759527
 21
0.2115919185
 31
0.0
 40
0.1766509255
 41
5.4292500487
 42
7.0000463755
  0
ELLIPSE
  5
42D
100
AcDbEntity
  8
RACCORDO
100
AcDbEllipse
 62
7
  6
CONTINUOUS
 10
185.0851611505
 20
67.5357341511
 30
0.0
 11
0.0325759527
 21
0.2115919185
 31
0.0
 40
0.1766509255
 41
5.4292500487
 42
7.0000463755
  0
ENDSEC
  0
SECTION
  2
OBJECTS
  0
DICTIONARY
  5
C
100
AcDbDictionary
280
0
281
1
  3
ACAD_GROUP
350
D
  3
ACAD_MLINESTYLE
350
17
  3
ACAD_LAYOUT
350
1A
  3
ACAD_PLOTSETTINGS
350
19
  3
ACAD_PLOTSTYLENAME
350
E
  0
DICTIONARY
  5
D
102
{ACAD_REACTORS
330
C
102
}
100
AcDbDictionary
280
0
281
1
  0
ACDBDICTIONARYWDFLT
  5
E
102
{ACAD_REACTORS
330
C
102
}
100
AcDbDictionary
281
1
  3
Normal
350
F
100
AcDbDictionaryWithDefault
340
F
  0
DICTIONARY
  5
17
102
{ACAD_REACTORS
330
C
102
}
100
AcDbDictionary
280
0
281
1
  3
Standard
350
18
  0
DICTIONARY
  5
19
102
{ACAD_REACTORS
330
C
102
}
100
AcDbDictionary
281
1
  0
DICTIONARY
  5
1A
102
{ACAD_REACTORS
330
C
102
}
100
AcDbDictionary
281
1
  3
Model
350
42E
  3
Layout1
350
42F
  0
ACDBPLACEHOLDER
  5
F
102
{ACAD_REACTORS
330
E
102
}
  0
MLINESTYLE
  5
18
102
{ACAD_REACTORS
330
17
102
}
100
AcDbMlineStyle
  2
STANDARD
 70
0
  3

 62
256
 51
90.0
 52
90.0
 71
2
 49
0.5
 62
256
  6
BYLAYER
 49
-0.5
 62
256
  6
BYLAYER
  0
LAYOUT
  5
42E
102
{ACAD_REACTORS
330
1A
102
}
100
AcDbPlotSettings
  1

  2
none_device
  4
ISO_A4_(297.00_x_210.00_MM)
  6

 40
0.0
 41
0.0
 42
0.0
 43
0.0
 44
297.0
 45
210.0
 46
0.0
 47
0.0
 48
0.0
 49
0.0
140
0.0
141
0.0
142
1.0
143
1.0
 70
1024
 72
1
 73
0
 74
0
  7

 75
0
147
1.0
148
0.0
149
0.0
100
AcDbLayout
  1
Model
 70
0
 71
0
 10
0.0
 20
0.0
 11
297.0
 21
210.0
 12
0.0
 22
0.0
 32
0.0
 14
0.0
 24
0.0
 34
0.0
 15
0.0
 25
0.0
 35
0.0
146
0.0
 13
0.0
 23
0.0
 33
0.0
 16
1.0
 26
0.0
 36
0.0
 17
0.0
 27
1.0
 37
0.0
 76
0
330
218
345
0
346
0
  0
LAYOUT
  5
42F
102
{ACAD_REACTORS
330
1A
102
}
100
AcDbPlotSettings
  1

  2
none_device
  4
ISO_A4_(297.00_x_210.00_MM)
  6

 40
0.0
 41
0.0
 42
0.0
 43
0.0
 44
297.0
 45
210.0
 46
0.0
 47
0.0
 48
0.0
 49
0.0
140
0.0
141
0.0
142
1.0
143
1.0
 70
0
 72
1
 73
0
 74
0
  7

 75
0
147
1.0
148
0.0
149
0.0
100
AcDbLayout
  1
Layout1
 70
0
 71
1
 10
0.0
 20
0.0
 11
297.0
 21
210.0
 12
0.0
 22
0.0
 32
0.0
 14
0.0
 24
0.0
 34
0.0
 15
0.0
 25
0.0
 35
0.0
146
0.0
 13
0.0
 23
0.0
 33
0.0
 16
1.0
 26
0.0
 36
0.0
 17
0.0
 27
1.0
 37
0.0
 76
0
330
219
345
0
346
0
  0
ENDSEC
  0
EOF
