  0
SECTION
  2
HEADER
  9
$ACADVER
  1
AC1015
  9
$DWGCODEPAGE
  3
ANSI_1252
  9
$EXTMAX
 10
558.8
 20
431.8
 30
0.0
  9
$EXTMIN
 10
0.0
 20
0.0
 30
0.0
  9
$LIMMIN
 10
0.0
 20
0.0
  9
$LIMMAX
 10
558.8
 20
431.8
  9
$VIEWCTR
 10
279.4
 20
215.9
  9
$VIEWSIZE
 40
431.8
  9
$CLAYER
  8
0
  9
$LTSCALE
 40
30.734
  9
$CELTYPE
  6
BYLAYER
  9
$DIMSCALE
 40
1.0
  9
$DIMASZ
 40
3.0
  9
$DIMEXO
 40
0.5
  9
$DIMDLI
 40
21.2344
  9
$DIMEXE
 40
1.5
  9
$DIMCEN
 40
5.0292
  9
$DIMLFAC
 40
1.0
  9
$DIMBLK
  1
_FILLED
  9
$DIMALT
 70
0
  9
$DIMALTF
 40
0.0393700787
  9
$DIMTXT
 40
3.0
  9
$DIMTOL
 70
1
  9
$DIMLIM
 70
0
  9
$DIMTFAC
 40
1.0
  9
$DIMTP
 40
0.01
  9
$DIMTM
 40
0.01
  9
$DIMGAP
 40
0.625
  9
$DIMDSEP
 70
44
  9
$AUNITS
 70
0
  9
$PDMODE
 70
3
  9
$PDSIZE
 40
3.0
  9
$HANDSEED
  5
55D
  9
$TILEMODE
 70
1
  9
$MEASUREMENT
 70
1
  9
$INSUNITS
 70
4
  0
ENDSEC
  0
SECTION
  2
CLASSES
  0
CLASS
  1
ACDBDICTIONARYWDFLT
  2
AcDbDictionaryWithDefault
  3
AutoCAD 2000
 90
0
280
0
281
0
  0
CLASS
  1
ACDBPLACEHOLDER
  2
AcDbPlaceHolder
  3
AutoCAD 2000
 90
0
280
0
281
0
  0
CLASS
  1
LAYOUT
  2
AcDbLayout
  3
AutoCAD 2000
 90
0
280
0
281
0
  0
ENDSEC
  0
SECTION
  2
TABLES
  0
TABLE
  2
VPORT
  5
8
100
AcDbSymbolTable
 70
2
  0
VPORT
  5
1F4
100
AcDbSymbolTableRecord
100
AcDbViewportTableRecord
  2
*ACTIVE
 70
0
 10
0.0
 20
0.0
 11
1.0
 21
1.0
 12
279.4
 22
215.9
 13
0.0
 23
0.0
 14
1.0
 24
1.0
 15
0.0
 25
0.0
 16
0.0
 26
0.0
 36
1.0
 17
0.0
 27
0.0
 37
0.0
 40
431.8
 41
1.2941176471
 42
50.0
 43
0.0
 44
0.0
 50
0.0
 51
0.0
 71
0
 72
100
 73
1
 74
1
 75
0
 76
0
 77
0
 78
0
  0
ENDTAB
  0
TABLE
  2
LTYPE
  5
5
100
AcDbSymbolTable
 70
6
  0
LTYPE
  5
14
100
AcDbSymbolTableRecord
100
AcDbLinetypeTableRecord
  2
BYBLOCK
 70
0
  3

 72
65
 73
0
 40
0.0
  0
LTYPE
  5
15
100
AcDbSymbolTableRecord
100
AcDbLinetypeTableRecord
  2
BYLAYER
 70
0
  3

 72
65
 73
0
 40
0.0
  0
LTYPE
  5
16
100
AcDbSymbolTableRecord
100
AcDbLinetypeTableRecord
  2
CONTINUOUS
 70
64
  3
Solid line
 72
65
 73
0
 40
0.0
  0
LTYPE
  5
1F5
100
AcDbSymbolTableRecord
100
AcDbLinetypeTableRecord
  2
CENTER
 70
64
  3
____ _ ____ _ ____ _ ____ _ ____ _ ____ _ ____
 72
65
 73
4
 40
0.6
 49
0.375
 74
0
 49
-0.075
 74
0
 49
0.075
 74
0
 49
-0.075
 74
0
  0
LTYPE
  5
1F6
100
AcDbSymbolTableRecord
100
AcDbLinetypeTableRecord
  2
HIDDEN
 70
64
  3
- - - - - - - - - - - - - - - - - - - -
 72
65
 73
2
 40
0.2
 49
0.1
 74
0
 49
-0.1
 74
0
  0
LTYPE
  5
1F7
100
AcDbSymbolTableRecord
100
AcDbLinetypeTableRecord
  2
PHANTOM
 70
64
  3
_____ _ _ _____ _ _ _____ _ _ _____
 72
65
 73
6
 40
0.8
 49
0.45
 74
0
 49
-0.05
 74
0
 49
0.1
 74
0
 49
-0.05
 74
0
 49
0.1
 74
0
 49
-0.05
 74
0
  0
LTYPE
  5
1F8
100
AcDbSymbolTableRecord
100
AcDbLinetypeTableRecord
  2
DOT
 70
64
  3
. . . . . . . . . . . . . . . . . . . .
 72
65
 73
2
 40
0.2
 49
0.1
 74
0
 49
-0.1
 74
0
  0
LTYPE
  5
1F9
100
AcDbSymbolTableRecord
100
AcDbLinetypeTableRecord
  2
DASHED
 70
64
  3
- - - - - - - - - - - - - - - - - - - -
 72
65
 73
2
 40
0.2
 49
0.1
 74
0
 49
-0.1
 74
0
  0
ENDTAB
  0
TABLE
  2
LAYER
  5
2
100
AcDbSymbolTable
 70
36
  0
LAYER
  5
10
100
AcDbSymbolTableRecord
100
AcDbLayerTableRecord
  2
0
 70
0
 62
7
  6
CONTINUOUS
370
-3
390
F
  0
LAYER
  5
1FA
100
AcDbSymbolTableRecord
100
AcDbLayerTableRecord
  2
DEFAULT_1
 70
0
 62
7
  6
CENTER
370
-3
390
F
  0
LAYER
  5
1FB
100
AcDbSymbolTableRecord
100
AcDbLayerTableRecord
  2
DEFAULT_2
 70
0
 62
7
  6
HIDDEN
370
-3
390
F
  0
LAYER
  5
1FC
100
AcDbSymbolTableRecord
100
AcDbLayerTableRecord
  2
DEFAULT_3
 70
0
 62
7
  6
PHANTOM
370
-3
390
F
  0
LAYER
  5
1FD
100
AcDbSymbolTableRecord
100
AcDbLayerTableRecord
  2
262606150
 70
0
 62
7
  6
CONTINUOUS
370
-3
390
F
  0
LAYER
  5
1FE
100
AcDbSymbolTableRecord
100
AcDbLayerTableRecord
  2
ASSI
 70
0
 62
7
  6
CONTINUOUS
370
-3
390
F
  0
LAYER
  5
1FF
100
AcDbSymbolTableRecord
100
AcDbLayerTableRecord
  2
COORDINATE
 70
0
 62
7
  6
CONTINUOUS
370
-3
390
F
  0
LAYER
  5
200
100
AcDbSymbolTableRecord
100
AcDbLayerTableRecord
  2
COORD_ORIGINE
 70
0
 62
7
  6
CONTINUOUS
370
-3
390
F
  0
LAYER
  5
201
100
AcDbSymbolTableRecord
100
AcDbLayerTableRecord
  2
CURVE
 70
0
 62
7
  6
CONTINUOUS
370
-3
390
F
  0
LAYER
  5
202
100
AcDbSymbolTableRecord
100
AcDbLayerTableRecord
  2
DRAFT
 70
0
 62
7
  6
CONTINUOUS
370
-3
390
F
  0
LAYER
  5
203
100
AcDbSymbolTableRecord
100
AcDbLayerTableRecord
  2
FEAT_IMPORT
 70
0
 62
7
  6
CONTINUOUS
370
-3
390
F
  0
LAYER
  5
204
100
AcDbSymbolTableRecord
100
AcDbLayerTableRecord
  2
IGES-SCRITTE
 70
0
 62
7
  6
CONTINUOUS
370
-3
390
F
  0
LAYER
  5
205
100
AcDbSymbolTableRecord
100
AcDbLayerTableRecord
  2
INTF_1
 70
0
 62
7
  6
CONTINUOUS
370
-3
390
F
  0
LAYER
  5
206
100
AcDbSymbolTableRecord
100
AcDbLayerTableRecord
  2
PARTI_PRO
 70
0
 62
7
  6
CONTINUOUS
370
-3
390
F
  0
LAYER
  5
207
100
AcDbSymbolTableRecord
100
AcDbLayerTableRecord
  2
PIANI
 70
0
 62
7
  6
CONTINUOUS
370
-3
390
F
  0
LAYER
  5
208
100
AcDbSymbolTableRecord
100
AcDbLayerTableRecord
  2
PIANI_ORIGINE
 70
0
 62
7
  6
CONTINUOUS
370
-3
390
F
  0
LAYER
  5
209
100
AcDbSymbolTableRecord
100
AcDbLayerTableRecord
  2
PIANI_RIFERIMENTO
 70
0
 62
7
  6
CONTINUOUS
370
-3
390
F
  0
LAYER
  5
20A
100
AcDbSymbolTableRecord
100
AcDbLayerTableRecord
  2
PPP
 70
0
 62
7
  6
CONTINUOUS
370
-3
390
F
  0
LAYER
  5
20B
100
AcDbSymbolTableRecord
100
AcDbLayerTableRecord
  2
PUNTI
 70
0
 62
7
  6
CONTINUOUS
370
-3
390
F
  0
LAYER
  5
20C
100
AcDbSymbolTableRecord
100
AcDbLayerTableRecord
  2
RACCORDO
 70
0
 62
7
  6
CONTINUOUS
370
-3
390
F
  0
LAYER
  5
20D
100
AcDbSymbolTableRecord
100
AcDbLayerTableRecord
  2
RGB____0____0____0__
 70
0
 62
7
  6
CONTINUOUS
370
-3
390
F
  0
LAYER
  5
20E
100
AcDbSymbolTableRecord
100
AcDbLayerTableRecord
  2
SMUSSO
 70
0
 62
7
  6
CONTINUOUS
370
-3
390
F
  0
LAYER
  5
20F
100
AcDbSymbolTableRecord
100
AcDbLayerTableRecord
  2
SNAPLINE
 70
0
 62
7
  6
CONTINUOUS
370
-3
390
F
  0
LAYER
  5
210
100
AcDbSymbolTableRecord
100
AcDbLayerTableRecord
  2
SPENTI
 70
0
 62
7
  6
CONTINUOUS
370
-3
390
F
  0
LAYER
  5
211
100
AcDbSymbolTableRecord
100
AcDbLayerTableRecord
  2
SUPERFICI
 70
0
 62
7
  6
CONTINUOUS
370
-3
390
F
  0
LAYER
  5
212
100
AcDbSymbolTableRecord
100
AcDbLayerTableRecord
  2
SUP_SKEL
 70
0
 62
7
  6
CONTINUOUS
370
-3
390
F
  0
LAYER
  5
213
100
AcDbSymbolTableRecord
100
AcDbLayerTableRecord
  2
TASSELLO
 70
0
 62
7
  6
CONTINUOUS
370
-3
390
F
  0
LAYER
  5
214
100
AcDbSymbolTableRecord
100
AcDbLayerTableRecord
  2
TRASH
 70
0
 62
7
  6
CONTINUOUS
370
-3
390
F
  0
ENDTAB
  0
TABLE
  2
STYLE
  5
3
100
AcDbSymbolTable
 70
1
  0
STYLE
  5
11
100
AcDbSymbolTableRecord
100
AcDbTextStyleTableRecord
  2
STANDARD
 70
0
 40
0.0
 41
0.8
 50
0.0
 71
0
 42
0.2
  3
txt
  4

  0
STYLE
  5
215
100
AcDbSymbolTableRecord
100
AcDbTextStyleTableRecord
  2
TEXTSTYLE_1
 70
0
 40
0.0
 41
0.8
 50
0.0
 71
0
 42
0.2
  3
gdt
  4

  0
ENDTAB
  0
TABLE
  2
VIEW
  5
6
100
AcDbSymbolTable
 70
0
  0
ENDTAB
  0
TABLE
  2
UCS
  5
7
100
AcDbSymbolTable
 70
0
  0
ENDTAB
  0
TABLE
  2
APPID
  5
9
100
AcDbSymbolTable
 70
1
  0
APPID
  5
216
100
AcDbSymbolTableRecord
100
AcDbRegAppTableRecord
  2
ACAD
 70
0
  0
ENDTAB
  0
TABLE
  2
BLOCK_RECORD
  5
1
100
AcDbSymbolTable
 70
0
  0
BLOCK_RECORD
  5
217
100
AcDbSymbolTableRecord
100
AcDbBlockTableRecord
  2
*Model_Space
  0
BLOCK_RECORD
  5
218
100
AcDbSymbolTableRecord
100
AcDbBlockTableRecord
  2
*Paper_Space
  0
ENDTAB
  0
TABLE
  2
DIMSTYLE
  5
A
100
AcDbSymbolTable
 70
1
100
AcDbDimStyleTable
 71
0
  0
DIMSTYLE
105
219
100
AcDbSymbolTableRecord
100
AcDbDimStyleTableRecord
  2
STANDARD
 70
0
  3

  4

 40
1.0
 41
3.0
 42
0.5
 43
0.38
 44
1.5
 45
0.0
 46
0.0
 47
0.01
 48
0.01
140
3.0
141
0.09
142
0.0
143
25.4
144
1.0
145
0.0
146
1.0
147
0.625
 71
1.0
 72
0.0
 73
0
 74
0
 75
0
 76
0
 77
1
 78
8
170
0
171
2
172
0
173
0
174
0
175
0
176
0
177
0
178
0
270
2
271
2
272
2
273
2
274
2
275
0
280
0
281
0
282
0
283
1
284
8
285
0
286
0
287
3
288
0
340
11
278
44
  0
ENDTAB
  0
ENDSEC
  0
SECTION
  2
BLOCKS
  0
BLOCK
  5
20
100
AcDbEntity
  8
0
100
AcDbBlockBegin
  2
*Model_Space
 70
0
 10
0.0
 20
0.0
 30
0.0
  3
*Model_Space
  1

  0
ENDBLK
  5
21
100
AcDbEntity
  8
0
100
AcDbBlockEnd
  0
BLOCK
  5
1C
100
AcDbEntity
  8
0
100
AcDbBlockBegin
  2
*Paper_Space
 70
0
 10
0.0
 20
0.0
 30
0.0
  3
*Paper_Space
  1

  0
ENDBLK
  5
1D
100
AcDbEntity
  8
0
100
AcDbBlockEnd
  0
ENDSEC
  0
SECTION
  2
ENTITIES
  0
LWPOLYLINE
  5
21A
100
AcDbEntity
  8
262606150
100
AcDbPolyline
 62
253
  6
CONTINUOUS
 90
15
 70
0
 10
-42.3528657929
 20
75.5935379933
 10
-42.4172884922
 20
75.5423445513
 10
-42.4804463316
 20
75.4849807004
 10
-42.5417854172
 20
75.4219495371
 10
-42.6007678057
 20
75.3538038612
 10
-42.6568762225
 20
75.2811413275
 10
-42.7096185978
 20
75.2045992042
 10
-42.758532383
 20
75.1248487845
 10
-42.8031886066
 20
75.0425894984
 10
-42.8431956364
 20
74.9585427795
 10
-42.8782026148
 20
74.8734457372
 10
-42.907902535
 20
74.7880446923
 10
-42.9320349341
 20
74.7030886321
 10
-42.9503881773
 20
74.619322641
 10
-42.962801314
 20
74.5374813662
  0
LWPOLYLINE
  5
21B
100
AcDbEntity
  8
262606150
100
AcDbPolyline
 62
7
  6
CONTINUOUS
 90
14
 70
0
 10
-43.8378123577
 20
75.6934172659
 10
-43.9030420593
 20
75.6446978462
 10
-44.0016147712
 20
75.5610360646
 10
-44.0951916902
 20
75.4684636781
 10
-44.1829696875
 20
75.3672453965
 10
-44.2641200172
 20
75.2578789342
 10
-44.3381097561
 20
75.1406620482
 10
-44.4044075289
 20
75.0160064693
 10
-44.4624527031
 20
74.8846201781
 10
-44.5119396447
 20
74.7469220326
 10
-44.5526303958
 20
74.6032660245
 10
-44.5842854557
 20
74.4541825466
 10
-44.6067558447
 20
74.3000365623
 10
-44.6204550615
 20
74.1305198227
  0
LINE
  5
21C
100
AcDbEntity
  8
262606150
100
AcDbLine
 62
7
  6
CONTINUOUS
 10
-41.0463698605
 20
77.6784037864
 11
-43.8388799061
 21
75.6926599862
  0
LWPOLYLINE
  5
21D
100
AcDbEntity
  8
262606150
100
AcDbPolyline
 62
253
  6
CONTINUOUS
 90
17
 70
0
 10
-43.8377774537
 20
75.6934428865
 10
-43.8314847545
 20
75.6978715382
 10
-43.7672518167
 20
75.7393713764
 10
-43.6978294434
 20
75.7773081823
 10
-43.6228678614
 20
75.8111535058
 10
-43.5422003054
 20
75.8402422996
 10
-43.4557224877
 20
75.8638724772
 10
-43.3631820045
 20
75.8813317292
 10
-43.2644451786
 20
75.8918506085
 10
-43.1595971077
 20
75.8946159754
 10
-43.0487764282
 20
75.8887867926
 10
-42.9315942055
 20
75.8734867244
 10
-42.8087785439
 20
75.8479386471
 10
-42.6823419109
 20
75.811851272
 10
-42.5533006918
 20
75.7650875991
 10
-42.4215853266
 20
75.7072507738
 10
-42.2877432207
 20
75.6381120454
  0
LINE
  5
21E
100
AcDbEntity
  8
262606150
100
AcDbLine
 62
253
  6
CONTINUOUS
 10
-39.3495313964
 20
77.6314745115
 11
-42.3528657929
 21
75.5935379933
  0
LWPOLYLINE
  5
21F
100
AcDbEntity
  8
262606150
100
AcDbPolyline
 62
7
  6
CONTINUOUS
 90
14
 70
0
 10
-41.0463246064
 20
77.678334301
 10
-40.9430804726
 20
77.7438715375
 10
-40.8340422068
 20
77.7976653442
 10
-40.7184605871
 20
77.8404494115
 10
-40.5978098974
 20
77.8716780136
 10
-40.4720252037
 20
77.8912031273
 10
-40.3411714399
 20
77.8991727758
 10
-40.2069176915
 20
77.8954853036
 10
-40.0692204051
 20
77.879991385
 10
-39.9281231341
 20
77.8528403457
 10
-39.7854256232
 20
77.8143785066
 10
-39.6417277874
 20
77.764721308
 10
-39.4964297118
 20
77.7037533096
 10
-39.3495313964
 20
77.6314745115
  0
LWPOLYLINE
  5
220
100
AcDbEntity
  8
262606150
100
AcDbPolyline
 62
253
  6
CONTINUOUS
 90
13
 70
0
 10
-17.1469212029
 20
62.1832138477
 10
-17.2124472377
 20
62.134864005
 10
-17.2772012156
 20
62.0792850299
 10
-17.3405598054
 20
62.0170119335
 10
-17.4019131084
 20
61.9486441657
 10
-17.4606705288
 20
61.8748398443
 10
-17.5162664594
 20
61.7963094202
 10
-17.5681657257
 20
61.7138088387
 10
-17.6158687379
 20
61.628132262
 10
-17.6589163001
 20
61.5401044253
 10
-17.6968940303
 20
61.4505726969
 10
-17.7294363493
 20
61.3603989223
 10
-17.7562300001
 20
61.2704511271
  0
LINE
  5
221
100
AcDbEntity
  8
262606150
100
AcDbLine
 62
7
  6
CONTINUOUS
 10
21.5727890316
 20
-60.4807632839
 11
21.5142666046
 21
-60.4797218014
  0
LINE
  5
222
100
AcDbEntity
  8
262606150
100
AcDbLine
 62
253
  6
CONTINUOUS
 10
-27.8610208264
 20
50.5221088786
 11
-27.8417872336
 21
50.5328681042
  0
LWPOLYLINE
  5
223
100
AcDbEntity
  8
262606150
100
AcDbPolyline
 62
253
  6
CONTINUOUS
 90
4
 70
0
 10
-28.0852865244
 20
50.4369615174
 10
-28.0058622347
 20
50.4613200214
 10
-27.93089842
 20
50.489782346
 10
-27.8610208264
 20
50.5221088786
  0
LWPOLYLINE
  5
224
100
AcDbEntity
  8
262606150
100
AcDbPolyline
 62
7
  6
CONTINUOUS
 90
4
 70
0
 10
21.4001566352
 20
-59.9039485932
 10
21.389930517
 20
-59.9033929517
 10
21.3597888856
 20
-59.8973792145
 10
21.3288408467
 20
-59.8871835225
  0
LWPOLYLINE
  5
225
100
AcDbEntity
  8
262606150
100
AcDbPolyline
 62
253
  6
CONTINUOUS
 90
10
 70
0
 10
21.0091748461
 20
-56.1982735148
 10
21.2070093328
 20
-56.2161775563
 10
21.4025085222
 20
-56.241503068
 10
21.5948045341
 20
-56.2741376303
 10
21.7830437078
 20
-56.3139363762
 10
21.9663903924
 20
-56.3607226341
 10
22.1440306563
 20
-56.4142887122
 10
22.3151759003
 20
-56.4743968206
 10
22.4790663586
 20
-56.540780127
 10
22.6349744717
 20
-56.6131439408
  0
LWPOLYLINE
  5
226
100
AcDbEntity
  8
262606150
100
AcDbPolyline
 62
253
  6
CONTINUOUS
 90
9
 70
0
 10
-47.1888982376
 20
-29.4921401561
 10
-47.1864996933
 20
-29.5322029374
 10
-47.1756267651
 20
-29.5871239059
 10
-47.1560749989
 20
-29.6412040055
 10
-47.1280163639
 20
-29.6939675846
 10
-47.091697652
 20
-29.7449505716
 10
-47.0474383073
 20
-29.7937045559
 10
-46.9956276162
 20
-29.8398007323
 10
-46.9367212838
 20
-29.8828336726
  0
LINE
  5
227
100
AcDbEntity
  8
262606150
100
AcDbLine
 62
7
  6
CONTINUOUS
 10
-44.6204304386
 20
74.1310154835
 11
-44.6204550615
 21
74.1305198227
  0
LINE
  5
228
100
AcDbEntity
  8
262606150
100
AcDbLine
 62
253
  6
CONTINUOUS
 10
-44.4107996811
 20
73.1005777192
 11
-44.4023971651
 21
73.2424879322
  0
LINE
  5
229
100
AcDbEntity
  8
262606150
100
AcDbLine
 62
253
  6
CONTINUOUS
 10
-44.4023971651
 20
73.2424879322
 11
-44.3925159043
 21
73.3952597061
  0
LINE
  5
22A
100
AcDbEntity
  8
262606150
100
AcDbLine
 62
253
  6
CONTINUOUS
 10
-44.3925159043
 20
73.3952597061
 11
-44.3681659635
 21
73.7427015731
  0
LWPOLYLINE
  5
22B
100
AcDbEntity
  8
262606150
100
AcDbPolyline
 62
253
  6
CONTINUOUS
 90
40
 70
0
 10
-44.3681680709
 20
73.7427006155
 10
-44.365482167
 20
73.775367254
 10
-44.3621321607
 20
73.8082852487
 10
-44.3580832159
 20
73.8414172868
 10
-44.3533121101
 20
73.8746433619
 10
-44.3477736807
 20
73.9080056104
 10
-44.3413853756
 20
73.9416963605
 10
-44.3340959886
 20
73.9756606515
 10
-44.3258542442
 20
74.0098342909
 10
-44.3165471268
 20
74.0443681472
 10
-44.3061066898
 20
74.0791810155
 10
-44.2944639974
 20
74.1141855198
 10
-44.2814725847
 20
74.1494893668
 10
-44.2670464396
 20
74.1849795346
 10
-44.2510987128
 20
74.2205338069
 10
-44.23344815
 20
74.2562037393
 10
-44.2139906793
 20
74.291834643
 10
-44.1926225251
 20
74.3272595622
 10
-44.1691286412
 20
74.3624594645
 10
-44.1433894979
 20
74.3972264732
 10
-44.1152879347
 20
74.4313386508
 10
-44.0845792343
 20
74.4646921424
 10
-44.0511378475
 20
74.497011459
 10
-44.0148475756
 20
74.5280046157
 10
-43.9754501336
 20
74.5574638017
 10
-43.9328197872
 20
74.5850375425
 10
-43.8868562454
 20
74.6103538317
 10
-43.8373188662
 20
74.6330848508
 10
-43.7841079032
 20
74.6527959796
 10
-43.7271648647
 20
74.6690404695
 10
-43.6663081353
 20
74.6813778778
 10
-43.6014590991
 20
74.6892998242
 10
-43.5326868703
 20
74.6922886172
 10
-43.4600653353
 20
74.6898312531
 10
-43.3833536027
 20
74.6813509846
 10
-43.3030365191
 20
74.6663341899
 10
-43.2203914806
 20
74.6446031484
 10
-43.1360622408
 20
74.6160452607
 10
-43.0500505459
 20
74.5803822046
 10
-42.9628027161
 20
74.5374807538
  0
LWPOLYLINE
  5
22C
100
AcDbEntity
  8
262606150
100
AcDbPolyline
 62
253
  6
CONTINUOUS
 90
18
 70
0
 10
21.0091737958
 20
-56.1982788934
 10
20.9187901096
 20
-56.1857430265
 10
20.8300925149
 20
-56.171114457
 10
20.7438288044
 20
-56.1542089475
 10
20.6607050914
 20
-56.1362603451
 10
20.5813999522
 20
-56.1155270574
 10
20.5066127005
 20
-56.0881243587
 10
20.4370237877
 20
-56.0530476386
 10
20.373162138
 20
-56.0128558626
 10
20.3154864266
 20
-55.969488841
 10
20.2644614645
 20
-55.9235146421
 10
20.2205557452
 20
-55.8751683524
 10
20.1841619149
 20
-55.8254525842
 10
20.1555858584
 20
-55.7749289057
 10
20.1350541705
 20
-55.723621476
 10
20.1227354027
 20
-55.671668508
 10
20.1187343863
 20
-55.6194334278
 10
20.1188410671
 20
-55.612117434
  0
LWPOLYLINE
  5
22D
100
AcDbEntity
  8
262606150
100
AcDbPolyline
 62
7
  6
CONTINUOUS
 90
13
 70
0
 10
39.3197924921
 20
-77.3996372843
 10
39.4306258931
 20
-77.4514323594
 10
39.6041840464
 20
-77.5207084116
 10
39.7772692287
 20
-77.5755102545
 10
39.9493932863
 20
-77.6158738859
 10
40.1199291082
 20
-77.6418443627
 10
40.2878686312
 20
-77.6534625365
 10
40.4524417088
 20
-77.650956595
 10
40.6128357956
 20
-77.6346285888
 10
40.7676884102
 20
-77.6049829998
 10
40.9159525055
 20
-77.5627635801
 10
41.0570128146
 20
-77.5087368977
 10
41.1713812296
 20
-77.4538402253
  0
LINE
  5
22E
100
AcDbEntity
  8
262606150
100
AcDbLine
 62
253
  6
CONTINUOUS
 10
39.1236251674
 20
-77.0193819752
 11
38.8073225729
 21
-76.8720840634
  0
LWPOLYLINE
  5
22F
100
AcDbEntity
  8
262606150
100
AcDbPolyline
 62
253
  6
CONTINUOUS
 90
8
 70
0
 10
38.8073225729
 20
-76.8720840634
 10
38.6207743375
 20
-76.784315942
 10
38.5326393277
 20
-76.7421191481
 10
38.4480244224
 20
-76.7010224056
 10
38.3664824429
 20
-76.6609354061
 10
38.2846260683
 20
-76.6199622326
 10
38.2019842562
 20
-76.5776517887
 10
37.8454495271
 20
-76.3937293553
  0
LINE
  5
230
100
AcDbEntity
  8
262606150
100
AcDbLine
 62
7
  6
CONTINUOUS
 10
39.320096742
 20
-77.39979901
 11
39.3197878428
 21
-77.3996467026
  0
LINE
  5
231
100
AcDbEntity
  8
262606150
100
AcDbLine
 62
7
  6
CONTINUOUS
 10
38.3688727087
 20
-76.9134637231
 11
39.320096742
 21
-77.39979901
  0
LINE
  5
232
100
AcDbEntity
  8
262606150
100
AcDbLine
 62
253
  6
CONTINUOUS
 10
37.8454495271
 20
-76.3937293553
 11
32.0471035171
 21
-73.4440314115
  0
LINE
  5
233
100
AcDbEntity
  8
262606150
100
AcDbLine
 62
253
  6
CONTINUOUS
 10
31.1738437615
 20
-72.9966673788
 11
29.7491227027
 21
-72.2684358285
  0
LINE
  5
234
100
AcDbEntity
  8
262606150
100
AcDbLine
 62
253
  6
CONTINUOUS
 10
32.0471035171
 20
-73.4440314115
 11
31.1738437615
 21
-72.9966673788
  0
LINE
  5
235
100
AcDbEntity
  8
262606150
100
AcDbLine
 62
7
  6
CONTINUOUS
 10
30.4815620439
 20
-72.8118869733
 11
36.2034804186
 21
-75.7854686157
  0
LINE
  5
236
100
AcDbEntity
  8
262606150
100
AcDbLine
 62
7
  6
CONTINUOUS
 10
36.2034804186
 20
-75.7854686157
 11
38.3688727087
 21
-76.9134637231
  0
LINE
  5
237
100
AcDbEntity
  8
262606150
100
AcDbLine
 62
253
  6
CONTINUOUS
 10
29.7491227027
 20
-72.2684358285
 11
24.88490821
 21
-69.7294033127
  0
LINE
  5
238
100
AcDbEntity
  8
262606150
100
AcDbLine
 62
7
  6
CONTINUOUS
 10
25.6321851073
 20
-70.2631163408
 11
30.4815620439
 21
-72.8118869733
  0
LINE
  5
239
100
AcDbEntity
  8
262606150
100
AcDbLine
 62
253
  6
CONTINUOUS
 10
24.88490821
 20
-69.7294033127
 11
22.1258814153
 21
-68.2793941094
  0
LINE
  5
23A
100
AcDbEntity
  8
262606150
100
AcDbLine
 62
253
  6
CONTINUOUS
 10
22.1258814153
 20
-68.2793941094
 11
18.9066749497
 21
-66.5796805578
  0
LINE
  5
23B
100
AcDbEntity
  8
262606150
100
AcDbLine
 62
7
  6
CONTINUOUS
 10
16.553640291
 20
-65.4633054437
 11
25.6321851073
 21
-70.2631163408
  0
LINE
  5
23C
100
AcDbEntity
  8
262606150
100
AcDbLine
 62
253
  6
CONTINUOUS
 10
18.9066749497
 20
-66.5796805578
 11
-26.9079291556
 21
-42.3084378751
  0
LINE
  5
23D
100
AcDbEntity
  8
262606150
100
AcDbLine
 62
7
  6
CONTINUOUS
 10
-32.3294962396
 20
-39.5573453245
 11
16.553640291
 21
-65.4633054437
  0
LINE
  5
23E
100
AcDbEntity
  8
262606150
100
AcDbLine
 62
253
  6
CONTINUOUS
 10
-26.9079291556
 20
-42.3084378751
 11
-29.9928760976
 21
-40.6657724728
  0
LINE
  5
23F
100
AcDbEntity
  8
262606150
100
AcDbLine
 62
7
  6
CONTINUOUS
 10
-36.5374170353
 20
-37.3109741469
 11
-32.3294962396
 21
-39.5573453245
  0
LINE
  5
240
100
AcDbEntity
  8
262606150
100
AcDbLine
 62
253
  6
CONTINUOUS
 10
-29.9928760976
 20
-40.6657724728
 11
-32.9939502586
 21
-39.0596821441
  0
LINE
  5
241
100
AcDbEntity
  8
262606150
100
AcDbLine
 62
7
  6
CONTINUOUS
 10
-44.303183945
 20
-33.1202128315
 11
-36.5374170353
 21
-37.3109741469
  0
LINE
  5
242
100
AcDbEntity
  8
262606150
100
AcDbLine
 62
253
  6
CONTINUOUS
 10
-32.9939502586
 20
-39.0596821441
 11
-36.2969073704
 21
-37.2823932022
  0
LINE
  5
243
100
AcDbEntity
  8
262606150
100
AcDbLine
 62
253
  6
CONTINUOUS
 10
-44.4425318407
 20
-32.8011660757
 11
-44.7041980299
 21
-32.6591248802
  0
LINE
  5
244
100
AcDbEntity
  8
262606150
100
AcDbLine
 62
7
  6
CONTINUOUS
 10
-45.4066938529
 20
-32.5166416204
 11
-44.303183945
 21
-33.1202128315
  0
LWPOLYLINE
  5
245
100
AcDbEntity
  8
262606150
100
AcDbPolyline
 62
253
  6
CONTINUOUS
 90
6
 70
0
 10
-44.7041980299
 20
-32.6591248802
 10
-44.7869225692
 20
-32.6138554262
 10
-44.8688267345
 20
-32.5681046684
 10
-44.9502037652
 20
-32.5219214374
 10
-45.0342910792
 20
-32.4736715026
 10
-45.1213718595
 20
-32.4230418548
  0
LINE
  5
246
100
AcDbEntity
  8
262606150
100
AcDbLine
 62
253
  6
CONTINUOUS
 10
-36.2969073704
 20
-37.2823932022
 11
-38.5954462168
 21
-36.0230326776
  0
LINE
  5
247
100
AcDbEntity
  8
262606150
100
AcDbLine
 62
253
  6
CONTINUOUS
 10
-38.5954462168
 20
-36.0230326776
 11
-44.4425318407
 21
-32.8011660757
  0
LINE
  5
248
100
AcDbEntity
  8
262606150
100
AcDbLine
 62
7
  6
CONTINUOUS
 10
-45.4060533238
 20
-32.5169945367
 11
-45.4066889825
 21
-32.5166330387
  0
LINE
  5
249
100
AcDbEntity
  8
262606150
100
AcDbLine
 62
253
  6
CONTINUOUS
 10
-45.1213718595
 20
-32.4230418548
 11
-45.4010497703
 21
-32.2575271492
  0
LINE
  5
24A
100
AcDbEntity
  8
262606150
100
AcDbLine
 62
253
  6
CONTINUOUS
 10
-45.4010497703
 20
-32.2575271492
 11
-45.60686376
 21
-32.1343072138
  0
LWPOLYLINE
  5
24B
100
AcDbEntity
  8
262606150
100
AcDbPolyline
 62
253
  6
CONTINUOUS
 90
9
 70
0
 10
-45.4066889825
 20
-32.5166330387
 10
-45.4263304349
 20
-32.5044744509
 10
-45.4681232416
 20
-32.4712059344
 10
-45.5050434092
 20
-32.4307114493
 10
-45.5367671484
 20
-32.3833461327
 10
-45.5630162435
 20
-32.3295253789
 10
-45.5835604923
 20
-32.2697211965
 10
-45.5982197248
 20
-32.2044580685
 10
-45.6068653837
 20
-32.1343083528
  0
LWPOLYLINE
  5
24C
100
AcDbEntity
  8
262606150
100
AcDbPolyline
 62
253
  6
CONTINUOUS
 90
40
 70
0
 10
-45.6068653837
 20
-32.1343083528
 10
-45.6938058776
 20
-32.0790096166
 10
-45.7792060095
 20
-32.0186946582
 10
-45.8626362489
 20
-31.9538812631
 10
-45.9441066745
 20
-31.8847614297
 10
-46.0229946642
 20
-31.8120823231
 10
-46.0980640124
 20
-31.7373352428
 10
-46.1688662352
 20
-31.661476798
 10
-46.2356626981
 20
-31.5847545497
 10
-46.2984054672
 20
-31.5077008359
 10
-46.3570515878
 20
-31.4308523238
 10
-46.4117016057
 20
-31.3545856264
 10
-46.4625531399
 20
-31.2791063771
 10
-46.509684317
 20
-31.2047602626
 10
-46.5532129299
 20
-31.1318407379
 10
-46.5933888473
 20
-31.0603921069
 10
-46.6303274535
 20
-30.9906512243
 10
-46.6641679827
 20
-30.9228112285
 10
-46.6951718523
 20
-30.8567906895
 10
-46.7234661967
 20
-30.792738833
 10
-46.7491864863
 20
-30.7307804367
 10
-46.7725760026
 20
-30.6707536933
 10
-46.793759501
 20
-30.6127430757
 10
-46.8128633529
 20
-30.556816719
 10
-46.8300978573
 20
-30.502764056
 10
-46.8455720702
 20
-30.4506311673
 10
-46.8593947352
 20
-30.4004518329
 10
-46.87173986
 20
-30.3519852456
 10
-46.8826978652
 20
-30.3052532643
 10
-46.8923579035
 20
-30.260269562
 10
-46.9008574223
 20
-30.2167780433
 10
-46.9082677245
 20
-30.1747868254
 10
-46.9146588434
 20
-30.1342989001
 10
-46.9201336044
 20
-30.0950540231
 10
-46.9247450055
 20
-30.0570574948
 10
-46.9285455305
 20
-30.020305849
 10
-46.9316063872
 20
-29.9845337073
 10
-46.9339695569
 20
-29.9496549026
 10
-46.9356633812
 20
-29.9157560609
 10
-46.9367235631
 20
-29.8828348653
  0
LWPOLYLINE
  5
24D
100
AcDbEntity
  8
262606150
100
AcDbPolyline
 62
253
  6
CONTINUOUS
 90
6
 70
0
 10
-20.2395801466
 20
-45.9712243791
 10
-20.2823341911
 20
-45.943599987
 10
-20.3222546033
 20
-45.9066418536
 10
-20.3568760139
 20
-45.8617975138
 10
-20.385864606
 20
-45.8094989344
 10
-20.4089411194
 20
-45.7502496606
  0
LWPOLYLINE
  5
24E
100
AcDbEntity
  8
262606150
100
AcDbPolyline
 62
7
  6
CONTINUOUS
 90
4
 70
0
 10
-45.8163408521
 20
-32.2357957099
 10
-45.6732743766
 20
-32.3452000571
 10
-45.5255192994
 20
-32.4452210001
 10
-45.4060533238
 20
-32.5169945367
  0
LWPOLYLINE
  5
24F
100
AcDbEntity
  8
262606150
100
AcDbPolyline
 62
7
  6
CONTINUOUS
 90
16
 70
0
 10
-47.1617570814
 20
-29.8789662665
 10
-47.1322678772
 20
-30.0555854159
 10
-47.0925833615
 20
-30.2321393817
 10
-47.0430899571
 20
-30.407938789
 10
-46.9841242059
 20
-30.5824615256
 10
-46.9159782997
 20
-30.7552266194
 10
-46.8390809303
 20
-30.9253920123
 10
-46.7537754466
 20
-31.0923836964
 10
-46.6603827146
 20
-31.2556406262
 10
-46.5594307703
 20
-31.4142878616
 10
-46.4512527689
 20
-31.5677917267
 10
-46.3361931982
 20
-31.715590272
 10
-46.2148179084
 20
-31.8568356929
 10
-46.0874771596
 20
-31.9910139751
 10
-45.95449432
 20
-32.1175589783
 10
-45.8163408521
 20
-32.2357957099
  0
LWPOLYLINE
  5
250
100
AcDbEntity
  8
262606150
100
AcDbPolyline
 62
253
  6
CONTINUOUS
 90
7
 70
0
 10
-46.5026526811
 20
0.9009816687
 10
-46.5011320962
 20
0.8606798456
 10
-46.4896103579
 20
0.800870091
 10
-46.4671349512
 20
0.7418979469
 10
-46.4339553943
 20
0.6844181124
 10
-46.3904400414
 20
0.6290687195
 10
-46.3370719929
 20
0.5764642483
  0
LWPOLYLINE
  5
251
100
AcDbEntity
  8
262606150
100
AcDbPolyline
 62
253
  6
CONTINUOUS
 90
7
 70
0
 10
-45.4431473662
 20
43.64555467
 10
-45.4416291023
 20
43.6051582547
 10
-45.430106641
 20
43.5453775298
 10
-45.4076305983
 20
43.4864309326
 10
-45.3744504997
 20
43.4289728458
 10
-45.3309346912
 20
43.373641718
 10
-45.2775662727
 20
43.3210520292
  0
LINE
  5
252
100
AcDbEntity
  8
262606150
100
AcDbLine
 62
253
  6
CONTINUOUS
 10
-46.9367212838
 20
-29.8828336726
 11
-46.9425436983
 21
-29.6029618994
  0
LINE
  5
253
100
AcDbEntity
  8
262606150
100
AcDbLine
 62
253
  6
CONTINUOUS
 10
-46.9425436983
 20
-29.6029618994
 11
-46.9453757915
 21
-29.4354046885
  0
LWPOLYLINE
  5
254
100
AcDbEntity
  8
262606150
100
AcDbPolyline
 62
253
  6
CONTINUOUS
 90
6
 70
0
 10
-46.9453757915
 20
-29.4354046885
 10
-46.9468797933
 20
-29.2786437427
 10
-46.9471811633
 20
-29.2045786654
 10
-46.9469117287
 20
-29.1308844644
 10
-46.9458422711
 20
-29.0572121423
 10
-46.9428194578
 20
-28.9073882155
  0
LWPOLYLINE
  5
255
100
AcDbEntity
  8
262606150
100
AcDbPolyline
 62
7
  6
CONTINUOUS
 90
4
 70
0
 10
-47.1889003999
 20
-29.4909291184
 10
-47.1886629922
 20
-29.5273107294
 10
-47.1806921489
 20
-29.7027339024
 10
-47.1617570814
 20
-29.8789662665
  0
LINE
  5
256
100
AcDbEntity
  8
262606150
100
AcDbLine
 62
7
  6
CONTINUOUS
 10
-47.1888987549
 20
-29.4909291208
 11
-47.1888982376
 21
-29.4921401561
  0
LINE
  5
257
100
AcDbEntity
  8
262606150
100
AcDbLine
 62
7
  6
CONTINUOUS
 10
-47.172451345
 20
-28.365040259
 11
-47.1888982376
 21
-29.4921401561
  0
LINE
  5
258
100
AcDbEntity
  8
262606150
100
AcDbLine
 62
253
  6
CONTINUOUS
 10
-46.9428194578
 20
-28.9073882155
 11
-46.890551839
 21
-25.633758684
  0
LINE
  5
259
100
AcDbEntity
  8
262606150
100
AcDbLine
 62
253
  6
CONTINUOUS
 10
-46.890551839
 20
-25.633758684
 11
-46.8105714796
 21
-21.2410930467
  0
LINE
  5
25A
100
AcDbEntity
  8
262606150
100
AcDbLine
 62
253
  6
CONTINUOUS
 10
-46.8105714796
 20
-21.2410930467
 11
-46.7031206716
 21
-15.74709258
  0
LINE
  5
25B
100
AcDbEntity
  8
262606150
100
AcDbLine
 62
253
  6
CONTINUOUS
 10
-46.7031206716
 20
-15.74709258
 11
-46.6033415401
 21
-10.9755816553
  0
LINE
  5
25C
100
AcDbEntity
  8
262606150
100
AcDbLine
 62
7
  6
CONTINUOUS
 10
-46.8379633484
 20
-13.1737744965
 11
-47.172451345
 21
-28.365040259
  0
LINE
  5
25D
100
AcDbEntity
  8
262606150
100
AcDbLine
 62
253
  6
CONTINUOUS
 10
-46.6033415401
 20
-10.9755816553
 11
-46.496116537
 21
-6.165253954
  0
LINE
  5
25E
100
AcDbEntity
  8
262606150
100
AcDbLine
 62
253
  6
CONTINUOUS
 10
-46.496116537
 20
-6.165253954
 11
-46.3370719726
 21
0.5764642335
  0
LINE
  5
25F
100
AcDbEntity
  8
262606150
100
AcDbLine
 62
7
  6
CONTINUOUS
 10
-46.5026526593
 20
0.900981537
 11
-46.8379633484
 21
-13.1737744965
  0
LINE
  5
260
100
AcDbEntity
  8
262606150
100
AcDbLine
 62
253
  6
CONTINUOUS
 10
-46.3370719929
 20
0.5764642483
 11
-45.2365205203
 21
44.9253751638
  0
LINE
  5
261
100
AcDbEntity
  8
262606150
100
AcDbLine
 62
253
  6
CONTINUOUS
 10
-45.2365205203
 20
44.9253751638
 11
-44.9766067579
 21
54.6774923468
  0
LINE
  5
262
100
AcDbEntity
  8
262606150
100
AcDbLine
 62
253
  6
CONTINUOUS
 10
-44.9766067579
 20
54.6774923468
 11
-44.8296484832
 21
59.8047736329
  0
LINE
  5
263
100
AcDbEntity
  8
262606150
100
AcDbLine
 62
253
  6
CONTINUOUS
 10
-44.8296484832
 20
59.8047736329
 11
-44.6379512518
 21
66.163142479
  0
LINE
  5
264
100
AcDbEntity
  8
262606150
100
AcDbLine
 62
253
  6
CONTINUOUS
 10
-44.6379512518
 20
66.163142479
 11
-44.5193029583
 21
69.9048884688
  0
LINE
  5
265
100
AcDbEntity
  8
262606150
100
AcDbLine
 62
253
  6
CONTINUOUS
 10
-44.4235731161
 20
72.7437156936
 11
-44.4167660203
 21
72.9608628601
  0
LINE
  5
266
100
AcDbEntity
  8
262606150
100
AcDbLine
 62
253
  6
CONTINUOUS
 10
-44.5193029583
 20
69.9048884688
 11
-44.4235731161
 21
72.7437156936
  0
LWPOLYLINE
  5
267
100
AcDbEntity
  8
262606150
100
AcDbPolyline
 62
7
  6
CONTINUOUS
 90
3
 70
0
 10
-44.6204290387
 20
74.1310154059
 10
-44.6605474705
 20
72.977298868
 10
-46.5026498364
 20
0.9010972704
  0
LWPOLYLINE
  5
268
100
AcDbEntity
  8
262606150
100
AcDbPolyline
 62
253
  6
CONTINUOUS
 90
3
 70
0
 10
-44.4167660203
 20
72.9608628601
 10
-44.4141972165
 20
73.0310267655
 10
-44.4107996811
 20
73.1005777192
  0
LWPOLYLINE
  5
269
100
AcDbEntity
  8
262606150
100
AcDbPolyline
 62
253
  6
CONTINUOUS
 90
17
 70
0
 10
-28.0689811321
 20
51.6699163264
 10
-28.1025732035
 20
51.584409867
 10
-28.1336143705
 20
51.4994699816
 10
-28.1615714931
 20
51.4156753829
 10
-28.1870924258
 20
51.3342135469
 10
-28.2083993254
 20
51.2548955935
 10
-28.2219516213
 20
51.1765704208
 10
-28.2267012184
 20
51.0994389782
 10
-28.2243405268
 20
51.0250720391
 10
-28.2159220839
 20
50.954611088
 10
-28.2015639927
 20
50.8886664936
 10
-28.181525357
 20
50.8279071733
 10
-28.1567451885
 20
50.7732935984
 10
-28.1276167764
 20
50.7253922156
 10
-28.093936655
 20
50.6843508157
 10
-28.0556953459
 20
50.650352172
 10
-28.0158549095
 20
50.6250611824
  0
LWPOLYLINE
  5
26A
100
AcDbEntity
  8
262606150
100
AcDbPolyline
 62
253
  6
CONTINUOUS
 90
10
 70
0
 10
-28.0689641502
 20
51.6699239498
 10
-27.9930194051
 20
51.8389462791
 10
-27.9234367875
 20
52.0091960824
 10
-27.860485387
 20
52.1800149632
 10
-27.804408649
 20
52.3507423246
 10
-27.7554234327
 20
52.5207179233
 10
-27.7137191731
 20
52.6892844235
 10
-27.6794571476
 20
52.8557899384
 10
-27.6527698529
 20
53.0195905516
 10
-27.6337604924
 20
53.1800528073
  0
LWPOLYLINE
  5
26B
100
AcDbEntity
  8
262606150
100
AcDbPolyline
 62
7
  6
CONTINUOUS
 90
5
 70
0
 10
14.8027297677
 20
-48.928920273
 10
14.8287454855
 20
-48.9319708624
 10
14.8545641869
 20
-48.9385583211
 10
14.8802574228
 20
-48.9477621488
 10
14.9056061524
 20
-48.9593908093
  0
LINE
  5
26C
100
AcDbEntity
  8
262606150
100
AcDbLine
 62
7
  6
CONTINUOUS
 10
21.3288408467
 20
-59.8871835225
 11
21.2975494133
 21
-59.8731242456
  0
LWPOLYLINE
  5
26D
100
AcDbEntity
  8
262606150
100
AcDbPolyline
 62
7
  6
CONTINUOUS
 90
9
 70
0
 10
21.1627237609
 20
-59.9560606787
 10
21.191157145
 20
-59.968994002
 10
21.2193167383
 20
-59.9787525459
 10
21.2468602102
 20
-59.9851037708
 10
21.2734947131
 20
-59.9878571325
 10
21.2987803229
 20
-59.9868313895
 10
21.3221741334
 20
-59.9819672204
 10
21.3432967479
 20
-59.9733358089
 10
21.3497949643
 20
-59.969631048
  0
LINE
  5
26E
100
AcDbEntity
  8
262606150
100
AcDbLine
 62
7
  6
CONTINUOUS
 10
22.0662516417
 20
-61.6293677582
 11
21.5687033992
 21
-61.3798789411
  0
LINE
  5
26F
100
AcDbEntity
  8
262606150
100
AcDbLine
 62
7
  6
CONTINUOUS
 10
21.0507506864
 20
-60.2964986168
 11
20.6681392225
 21
-60.1013647804
  0
LINE
  5
270
100
AcDbEntity
  8
262606150
100
AcDbLine
 62
7
  6
CONTINUOUS
 10
20.7442410363
 20
-60.9622090976
 11
20.3059845452
 21
-60.7385542025
  0
LINE
  5
271
100
AcDbEntity
  8
262606150
100
AcDbLine
 62
7
  6
CONTINUOUS
 10
21.2975492944
 20
-59.8731226998
 11
20.764516114
 21
-59.6009212731
  0
LINE
  5
272
100
AcDbEntity
  8
262606150
100
AcDbLine
 62
7
  6
CONTINUOUS
 10
20.6297329772
 20
-59.6838315531
 11
21.1627239612
 21
-59.9560589365
  0
LINE
  5
273
100
AcDbEntity
  8
262606150
100
AcDbLine
 62
7
  6
CONTINUOUS
 10
20.8250859982
 20
-58.8545899591
 11
21.1551021444
 21
-59.0236332574
  0
LINE
  5
274
100
AcDbEntity
  8
262606150
100
AcDbLine
 62
7
  6
CONTINUOUS
 10
21.2896457502
 20
-58.9408703221
 11
20.9597781365
 21
-58.7718855691
  0
LINE
  5
275
100
AcDbEntity
  8
262606150
100
AcDbLine
 62
7
  6
CONTINUOUS
 10
20.0142955295
 20
-60.5891677345
 11
19.5774167786
 21
-60.3646588627
  0
LINE
  5
276
100
AcDbEntity
  8
262606150
100
AcDbLine
 62
7
  6
CONTINUOUS
 10
21.1222833357
 20
-59.4096627552
 11
20.5905213522
 21
-59.1366725635
  0
LINE
  5
277
100
AcDbEntity
  8
262606150
100
AcDbLine
 62
253
  6
CONTINUOUS
 10
19.9266992776
 20
-58.0412379908
 11
19.0576614599
 21
-57.5936599852
  0
LINE
  5
278
100
AcDbEntity
  8
262606150
100
AcDbLine
 62
7
  6
CONTINUOUS
 10
19.4006258033
 20
-59.8560328077
 11
18.7131745245
 21
-59.4999269344
  0
LINE
  5
279
100
AcDbEntity
  8
262606150
100
AcDbLine
 62
7
  6
CONTINUOUS
 10
19.1721918671
 20
-59.1776057988
 11
18.9469255724
 21
-59.06054801
  0
LINE
  5
27A
100
AcDbEntity
  8
262606150
100
AcDbLine
 62
7
  6
CONTINUOUS
 10
18.8121517455
 20
-59.1434525632
 11
19.2335625701
 21
-59.3623034017
  0
LINE
  5
27B
100
AcDbEntity
  8
262606150
100
AcDbLine
 62
7
  6
CONTINUOUS
 10
18.6142063349
 20
-59.8667588448
 11
18.1795638966
 21
-59.6408932355
  0
LWPOLYLINE
  5
27C
100
AcDbEntity
  8
262606150
100
AcDbPolyline
 62
7
  6
CONTINUOUS
 90
3
 70
0
 10
20.9597781365
 20
-58.7718855691
 10
20.3878021908
 20
-58.4747826101
 10
20.2698699113
 20
-58.4131788712
  0
LWPOLYLINE
  5
27D
100
AcDbEntity
  8
262606150
100
AcDbPolyline
 62
7
  6
CONTINUOUS
 90
3
 70
0
 10
20.1354083098
 20
-58.4958913626
 10
20.2532630594
 20
-58.5574803099
 10
20.8250859982
 20
-58.8545899591
  0
LINE
  5
27E
100
AcDbEntity
  8
262606150
100
AcDbLine
 62
7
  6
CONTINUOUS
 10
17.8901337741
 20
-59.4901099095
 11
17.4564455777
 21
-59.2636508336
  0
LINE
  5
27F
100
AcDbEntity
  8
262606150
100
AcDbLine
 62
253
  6
CONTINUOUS
 10
19.0576614599
 20
-57.5936599852
 11
17.8642706085
 21
-56.9719654426
  0
LINE
  5
280
100
AcDbEntity
  8
262606150
100
AcDbLine
 62
7
  6
CONTINUOUS
 10
17.0468841926
 20
-59.0492498805
 11
16.6141572176
 21
-58.8222179016
  0
LINE
  5
281
100
AcDbEntity
  8
262606150
100
AcDbLine
 62
7
  6
CONTINUOUS
 10
18.7201360528
 20
-57.7525764736
 11
19.1521532421
 21
-57.9800872607
  0
LINE
  5
282
100
AcDbEntity
  8
262606150
100
AcDbLine
 62
7
  6
CONTINUOUS
 10
19.2864985365
 20
-57.8974463142
 11
18.8544459649
 21
-57.6699572923
  0
LINE
  5
283
100
AcDbEntity
  8
262606150
100
AcDbLine
 62
7
  6
CONTINUOUS
 10
16.2054189379
 20
-58.6073230532
 11
15.7734605226
 21
-58.3797999226
  0
LINE
  5
284
100
AcDbEntity
  8
262606150
100
AcDbLine
 62
253
  6
CONTINUOUS
 10
17.8642706085
 20
-56.9719654426
 11
16.114515558
 21
-56.0513158658
  0
LINE
  5
285
100
AcDbEntity
  8
262606150
100
AcDbLine
 62
7
  6
CONTINUOUS
 10
15.3418470146
 20
-58.152077382
 11
14.9105085452
 21
-57.9241785652
  0
LINE
  5
286
100
AcDbEntity
  8
262606150
100
AcDbLine
 62
7
  6
CONTINUOUS
 10
17.0882177844
 20
-56.8901656135
 11
17.7398210917
 21
-57.234981371
  0
LINE
  5
287
100
AcDbEntity
  8
262606150
100
AcDbLine
 62
7
  6
CONTINUOUS
 10
17.8740758789
 20
-57.152396099
 11
17.2224497621
 21
-56.8075943726
  0
LINE
  5
288
100
AcDbEntity
  8
262606150
100
AcDbLine
 62
7
  6
CONTINUOUS
 10
13.9312794507
 20
-57.405898219
 11
13.5004521913
 21
-57.1776670794
  0
LINE
  5
289
100
AcDbEntity
  8
262606150
100
AcDbLine
 62
253
  6
CONTINUOUS
 10
16.114515558
 20
-56.0513158658
 11
-21.985976798
 21
-35.8682305992
  0
LINE
  5
28A
100
AcDbEntity
  8
262606150
100
AcDbLine
 62
7
  6
CONTINUOUS
 10
15.6330292181
 20
-56.1185929694
 11
16.2838533395
 21
-56.463888034
  0
LINE
  5
28B
100
AcDbEntity
  8
262606150
100
AcDbLine
 62
7
  6
CONTINUOUS
 10
16.4180673123
 20
-56.3813278685
 11
15.7672344219
 21
-56.036038198
  0
LINE
  5
28C
100
AcDbEntity
  8
262606150
100
AcDbLine
 62
7
  6
CONTINUOUS
 10
14.7723506585
 20
-55.6615734317
 11
15.2026579902
 21
-55.8901122071
  0
LINE
  5
28D
100
AcDbEntity
  8
262606150
100
AcDbLine
 62
7
  6
CONTINUOUS
 10
15.3368594379
 20
-55.8075597464
 11
14.9065495453
 21
-55.5790225462
  0
LINE
  5
28E
100
AcDbEntity
  8
262606150
100
AcDbLine
 62
7
  6
CONTINUOUS
 10
14.0552968237
 20
-55.2805954306
 11
14.4855170195
 21
-55.5091937593
  0
LINE
  5
28F
100
AcDbEntity
  8
262606150
100
AcDbLine
 62
7
  6
CONTINUOUS
 10
12.6740864834
 20
-54.5465858615
 11
13.1042919048
 21
-54.7751932786
  0
LINE
  5
290
100
AcDbEntity
  8
262606150
100
AcDbLine
 62
7
  6
CONTINUOUS
 10
14.6197146968
 20
-55.4266436178
 11
14.1894931949
 21
-55.1980460925
  0
LINE
  5
291
100
AcDbEntity
  8
262606150
100
AcDbLine
 62
7
  6
CONTINUOUS
 10
13.2384860555
 20
-54.6926453064
 11
12.8082791238
 21
-54.4640388184
  0
LINE
  5
292
100
AcDbEntity
  8
262606150
100
AcDbLine
 62
253
  6
CONTINUOUS
 10
-21.9859766858
 20
-35.8682339161
 11
-27.3360243678
 21
-33.0295153555
  0
LINE
  5
293
100
AcDbEntity
  8
262606150
100
AcDbLine
 62
253
  6
CONTINUOUS
 10
-27.3360243678
 20
-33.0295153555
 11
-28.7144076618
 21
-32.2887197401
  0
LWPOLYLINE
  5
294
100
AcDbEntity
  8
262606150
100
AcDbPolyline
 62
7
  6
CONTINUOUS
 90
30
 70
0
 10
21.1551023082
 20
-59.0236316291
 10
21.2015126614
 20
-59.0488074565
 10
21.2479672357
 20
-59.0771834067
 10
21.2942501583
 20
-59.1086330294
 10
21.3398799346
 20
-59.1428030059
 10
21.3849222322
 20
-59.179712315
 10
21.4299297454
 20
-59.21991763
 10
21.474720979
 20
-59.2634812659
 10
21.5188906234
 20
-59.3102084055
 10
21.5625226558
 20
-59.3604347299
 10
21.6052696971
 20
-59.4141078056
 10
21.6466526413
 20
-59.4710036232
 10
21.6864194254
 20
-59.5312134341
 10
21.7243248916
 20
-59.5949146381
 10
21.7594768151
 20
-59.6612996049
 10
21.7907762219
 20
-59.7288503075
 10
21.817868244
 20
-59.796943728
 10
21.8404355367
 20
-59.8650902684
 10
21.8578699439
 20
-59.9319139954
 10
21.8700954459
 20
-59.9967118834
 10
21.8771224361
 20
-60.0590996942
 10
21.8788274714
 20
-60.1182900265
 10
21.8753870479
 20
-60.173685023
 10
21.8670060276
 20
-60.2251152063
 10
21.8537037761
 20
-60.272512494
 10
21.8358052501
 20
-60.3153218093
 10
21.8134684255
 20
-60.3535494117
 10
21.7861961606
 20
-60.3877003609
 10
21.754002938
 20
-60.4172857806
 10
21.728330759
 20
-60.4351470585
  0
LINE
  5
295
100
AcDbEntity
  8
262606150
100
AcDbLine
 62
253
  6
CONTINUOUS
 10
-28.7144076618
 20
-32.2887197401
 11
-29.7385204488
 21
-31.7316152502
  0
LWPOLYLINE
  5
296
100
AcDbEntity
  8
262606150
100
AcDbPolyline
 62
253
  6
CONTINUOUS
 90
46
 70
0
 10
-29.7385167615
 20
-31.7316126345
 10
-29.8400265765
 20
-31.6741544537
 10
-29.9383215859
 20
-31.614663504
 10
-30.0333919274
 20
-31.5535405008
 10
-30.124930661
 20
-31.4911361979
 10
-30.2125545388
 20
-31.4283085561
 10
-30.2963027688
 20
-31.3660829555
 10
-30.3761311147
 20
-31.30520881
 10
-30.4519634205
 20
-31.2457147164
 10
-30.5239137103
 20
-31.1874291281
 10
-30.5919538552
 20
-31.1307979739
 10
-30.6566659273
 20
-31.0755047541
 10
-30.7189129273
 20
-31.0202392541
 10
-30.7786735528
 20
-30.9648884257
 10
-30.8361392417
 20
-30.9097370605
 10
-30.8923134465
 20
-30.8540279237
 10
-30.9469681305
 20
-30.798262213
 10
-31.0003207846
 20
-30.7421197011
 10
-31.0541115369
 20
-30.6832548679
 10
-31.1086567755
 20
-30.620771412
 10
-31.1640278901
 20
-30.5548254666
 10
-31.221159494
 20
-30.4848801429
 10
-31.2798339201
 20
-30.4113217313
 10
-31.3388583553
 20
-30.3351622948
 10
-31.398015396
 20
-30.2562360779
 10
-31.4572111473
 20
-30.1744305851
 10
-31.5164766585
 20
-30.0892854998
 10
-31.5758123734
 20
-30.0000476344
 10
-31.6350286865
 20
-29.9065277407
 10
-31.6941630131
 20
-29.8083637383
 10
-31.7533174454
 20
-29.7047535648
 10
-31.8121493922
 20
-29.595665243
 10
-31.8701959873
 20
-29.4813049531
 10
-31.9272194073
 20
-29.361315661
 10
-31.9827210147
 20
-29.2359028841
 10
-32.0362149022
 20
-29.1052432537
 10
-32.0873945069
 20
-28.9688696209
 10
-32.1354999734
 20
-28.8270350214
 10
-32.180141495
 20
-28.6796829966
 10
-32.2214039061
 20
-28.5258412051
 10
-32.2587112472
 20
-28.365751711
 10
-32.2910831169
 20
-28.1998366048
 10
-32.3176650268
 20
-28.0276925172
 10
-32.3372990433
 20
-27.850051421
 10
-32.3487799306
 20
-27.6686148605
 10
-32.3509741755
 20
-27.4848379516
  0
LWPOLYLINE
  5
297
100
AcDbEntity
  8
262606150
100
AcDbPolyline
 62
253
  6
CONTINUOUS
 90
9
 70
0
 10
39.3197878428
 20
-77.3996467026
 10
39.2871107325
 20
-77.3805291313
 10
39.2489767068
 20
-77.3491973071
 10
39.2153497297
 20
-77.3104457093
 10
39.1865247272
 20
-77.2646142016
 10
39.1627545113
 20
-77.2121047397
 10
39.1442475627
 20
-77.1533778459
 10
39.1311662022
 20
-77.0889485708
 10
39.1236251674
 20
-77.0193819752
  0
LWPOLYLINE
  5
298
100
AcDbEntity
  8
262606150
100
AcDbPolyline
 62
253
  6
CONTINUOUS
 90
6
 70
0
 10
13.927693007
 20
-64.0709736503
 10
13.8850237795
 20
-64.0433942293
 10
13.8450746092
 20
-64.0064208679
 10
13.8104279758
 20
-63.9615631727
 10
13.781417393
 20
-63.9092529502
 10
13.7583221207
 20
-63.8499937461
  0
LWPOLYLINE
  5
299
100
AcDbEntity
  8
262606150
100
AcDbPolyline
 62
253
  6
CONTINUOUS
 90
10
 70
0
 10
-30.1105506684
 20
-30.6936577132
 10
-30.040833025
 20
-30.7758545749
 10
-29.977736753
 20
-30.867273744
 10
-29.9215058749
 20
-30.9675616743
 10
-29.8723578624
 20
-31.0763305226
 10
-29.8304827953
 20
-31.1931596483
 10
-29.7960426266
 20
-31.3175972407
 10
-29.7691705557
 20
-31.4491620657
 10
-29.7499705137
 20
-31.5873453271
 10
-29.7385167615
 20
-31.7316126345
  0
LWPOLYLINE
  5
29A
100
AcDbEntity
  8
262606150
100
AcDbPolyline
 62
253
  6
CONTINUOUS
 90
25
 70
0
 10
-30.1105513487
 20
-30.6936588052
 10
-30.14100642
 20
-30.6535889485
 10
-30.1687667482
 20
-30.6057033713
 10
-30.193323258
 20
-30.5505721728
 10
-30.2153971787
 20
-30.4881917569
 10
-30.2331809883
 20
-30.419927636
 10
-30.2430295601
 20
-30.3481885663
 10
-30.2438441091
 20
-30.2741430888
 10
-30.2374835363
 20
-30.1974266596
 10
-30.2252100705
 20
-30.1180091029
 10
-30.2072333562
 20
-30.036471059
 10
-30.1837344242
 20
-29.9535091094
 10
-30.1555919007
 20
-29.8695278204
 10
-30.1232063521
 20
-29.7851920149
 10
-30.0864371836
 20
-29.7014133824
 10
-30.0453138927
 20
-29.6190290137
 10
-30.000116991
 20
-29.5387663099
 10
-29.9512808991
 20
-29.4612892331
 10
-29.8991917002
 20
-29.387271981
 10
-29.8442825371
 20
-29.3173480775
 10
-29.7870189183
 20
-29.2521123288
 10
-29.7278799041
 20
-29.1921241514
 10
-29.6673639299
 20
-29.1378954421
 10
-29.6059831407
 20
-29.089887184
 10
-29.5442562124
 20
-29.0485083498
  0
LWPOLYLINE
  5
29B
100
AcDbEntity
  8
262606150
100
AcDbPolyline
 62
253
  6
CONTINUOUS
 90
9
 70
0
 10
-44.6204550615
 20
74.1305198227
 10
-44.6183447619
 20
74.0772390949
 10
-44.6073862226
 20
74.0257780515
 10
-44.5877574272
 20
73.9748107814
 10
-44.5596310227
 20
73.9247855726
 10
-44.5232543976
 20
73.8761424274
 10
-44.4789475063
 20
73.8293091918
 10
-44.4271000542
 20
73.7846977929
 10
-44.3681680709
 20
73.7427006155
  0
LWPOLYLINE
  5
29C
100
AcDbEntity
  8
262606150
100
AcDbPolyline
 62
253
  6
CONTINUOUS
 90
15
 70
0
 10
-20.3087125477
 20
47.5607530698
 10
-20.3497901224
 20
47.4646318233
 10
-20.3846000043
 20
47.3677572585
 10
-20.4127555128
 20
47.2712055291
 10
-20.4339438861
 20
47.1760492197
 10
-20.4479297702
 20
47.0833453672
 10
-20.4545578167
 20
46.9941237251
 10
-20.4537543959
 20
46.9093754097
 10
-20.4455284304
 20
46.8300418833
 10
-20.4299712999
 20
46.757004437
 10
-20.4072558235
 20
46.6910744207
 10
-20.3776343404
 20
46.63298423
 10
-20.3414359062
 20
46.5833791704
 10
-20.2990626378
 20
46.5428102889
 10
-20.2536931889
 20
46.5131447499
  0
LWPOLYLINE
  5
29D
100
AcDbEntity
  8
262606150
100
AcDbPolyline
 62
253
  6
CONTINUOUS
 90
10
 70
0
 10
-20.3087125477
 20
47.5607530698
 10
-20.2320506048
 20
47.7345998718
 10
-20.1620730295
 20
47.909737909
 10
-20.0990639885
 20
48.0854559764
 10
-20.0432793505
 20
48.2610405138
 10
-19.9949456471
 20
48.435778503
 10
-19.9542591532
 20
48.6089603637
 10
-19.9213850895
 20
48.7798828346
 10
-19.8964569517
 20
48.9478518295
 10
-19.8795759687
 20
49.1121852557
  0
LWPOLYLINE
  5
29E
100
AcDbEntity
  8
262606150
100
AcDbPolyline
 62
7
  6
CONTINUOUS
 90
6
 70
0
 10
-1.9146123274
 20
-40.2812874244
 10
-1.8887594623
 20
-40.2844294629
 10
-1.8627547476
 20
-40.2909124667
 10
-1.8370846723
 20
-40.3001293002
 10
-1.8118438165
 20
-40.3118185367
 10
-1.8076781561
 20
-40.313992389
  0
LINE
  5
29F
100
AcDbEntity
  8
262606150
100
AcDbLine
 62
253
  6
CONTINUOUS
 10
20.1250974264
 20
-55.3603005265
 11
-29.5442388074
 21
-29.0484976533
  0
LINE
  5
2A0
100
AcDbEntity
  8
262606150
100
AcDbLine
 62
7
  6
CONTINUOUS
 10
20.173826257
 20
-53.3940116541
 11
-27.8042260983
 21
-27.9781490587
  0
LINE
  5
2A1
100
AcDbEntity
  8
262606150
100
AcDbLine
 62
7
  6
CONTINUOUS
 10
18.0086479114
 20
-52.0337786708
 11
13.4769345956
 21
-49.6331517737
  0
LINE
  5
2A2
100
AcDbEntity
  8
262606150
100
AcDbLine
 62
7
  6
CONTINUOUS
 10
-19.9475620398
 20
-31.9268804246
 11
-15.415848724
 21
-34.3275073218
  0
LINE
  5
2A3
100
AcDbEntity
  8
262606150
100
AcDbLine
 62
7
  6
CONTINUOUS
 10
18.1347106317
 20
-51.9473193803
 11
13.618568015
 21
-49.5549408953
  0
LINE
  5
2A4
100
AcDbEntity
  8
262606150
100
AcDbLine
 62
7
  6
CONTINUOUS
 10
-19.8059286205
 20
-31.8486695462
 11
-15.2897860037
 21
-34.2410480312
  0
LINE
  5
2A5
100
AcDbEntity
  8
262606150
100
AcDbLine
 62
7
  6
CONTINUOUS
 10
18.3238047122
 20
-51.8176304445
 11
13.831018144
 21
-49.4376245776
  0
LINE
  5
2A6
100
AcDbEntity
  8
262606150
100
AcDbLine
 62
7
  6
CONTINUOUS
 10
-19.5934784914
 20
-31.7313532285
 11
-15.1006919233
 21
-34.1113590954
  0
LINE
  5
2A7
100
AcDbEntity
  8
262606150
100
AcDbLine
 62
7
  6
CONTINUOUS
 10
18.4498674325
 20
-51.731171154
 11
13.9726515633
 21
-49.3594136992
  0
LINE
  5
2A8
100
AcDbEntity
  8
262606150
100
AcDbLine
 62
7
  6
CONTINUOUS
 10
-19.4518450721
 20
-31.6531423501
 11
-14.974629203
 21
-34.0248998049
  0
LINE
  5
2A9
100
AcDbEntity
  8
262606150
100
AcDbLine
 62
7
  6
CONTINUOUS
 10
18.6389615129
 20
-51.6014822182
 11
14.1851016923
 21
-49.2420973815
  0
LINE
  5
2AA
100
AcDbEntity
  8
262606150
100
AcDbLine
 62
7
  6
CONTINUOUS
 10
-19.2393949431
 20
-31.5358260324
 11
-14.7855351225
 21
-33.8952108691
  0
LINE
  5
2AB
100
AcDbEntity
  8
262606150
100
AcDbLine
 62
7
  6
CONTINUOUS
 10
18.7650242332
 20
-51.5150229276
 11
14.3267351117
 21
-49.1638865031
  0
LINE
  5
2AC
100
AcDbEntity
  8
262606150
100
AcDbLine
 62
7
  6
CONTINUOUS
 10
-19.0977615237
 20
-31.457615154
 11
-14.6594724022
 21
-33.8087515785
  0
LINE
  5
2AD
100
AcDbEntity
  8
262606150
100
AcDbLine
 62
253
  6
CONTINUOUS
 10
-2.0011150803
 20
-40.3011737388
 11
2.3943546189
 21
-42.62962703
  0
LINE
  5
2AE
100
AcDbEntity
  8
262606150
100
AcDbLine
 62
7
  6
CONTINUOUS
 10
18.9541183137
 20
-51.3853339918
 11
14.5391852407
 21
-49.0465701854
  0
LINE
  5
2AF
100
AcDbEntity
  8
262606150
100
AcDbLine
 62
7
  6
CONTINUOUS
 10
-18.8853113947
 20
-31.3402988363
 11
-14.4703783218
 21
-33.6790626427
  0
LINE
  5
2B0
100
AcDbEntity
  8
262606150
100
AcDbLine
 62
7
  6
CONTINUOUS
 10
-1.8076434204
 20
-40.3140107838
 11
2.469526182
 21
-42.5797958578
  0
LINE
  5
2B1
100
AcDbEntity
  8
262606150
100
AcDbLine
 62
253
  6
CONTINUOUS
 10
-18.7082696206
 20
-31.2425352383
 11
-14.3127999214
 21
-33.5709885295
  0
LINE
  5
2B2
100
AcDbEntity
  8
262606150
100
AcDbLine
 62
253
  6
CONTINUOUS
 10
14.7162270149
 20
-48.9488065874
 11
19.111696714
 21
-51.2772598786
  0
LINE
  5
2B3
100
AcDbEntity
  8
262606150
100
AcDbLine
 62
7
  6
CONTINUOUS
 10
-18.518890483
 20
-31.2531194602
 11
-14.2376283583
 21
-33.5211573574
  0
LINE
  5
2B4
100
AcDbEntity
  8
262606150
100
AcDbLine
 62
7
  6
CONTINUOUS
 10
14.9056061524
 20
-48.9593908093
 11
19.1868682771
 21
-51.2274287065
  0
LINE
  5
2B5
100
AcDbEntity
  8
262606150
100
AcDbLine
 62
253
  6
CONTINUOUS
 10
-22.3503016776
 20
-34.8048861901
 11
-30.1105335261
 21
-30.6936447819
  0
LINE
  5
2B6
100
AcDbEntity
  8
262606150
100
AcDbLine
 62
253
  6
CONTINUOUS
 10
19.5759916267
 20
-57.0145533404
 11
-22.3503011913
 21
-34.8048867084
  0
LWPOLYLINE
  5
2B7
100
AcDbEntity
  8
262606150
100
AcDbPolyline
 62
253
  6
CONTINUOUS
 90
46
 70
0
 10
-30.1105513487
 20
-30.6936588052
 10
-30.1631158411
 20
-30.6648367736
 10
-30.2139065771
 20
-30.63485908
 10
-30.2628623684
 20
-30.6039709174
 10
-30.3097859012
 20
-30.5725043222
 10
-30.354791648
 20
-30.5405927102
 10
-30.3983001463
 20
-30.5081152276
 10
-30.4404744045
 20
-30.4750742016
 10
-30.4811125601
 20
-30.4417512116
 10
-30.5201018243
 20
-30.4083862869
 10
-30.5573621248
 20
-30.3751918357
 10
-30.5929916502
 20
-30.3422139002
 10
-30.6271561053
 20
-30.3094218465
 10
-30.659690045
 20
-30.277094803
 10
-30.6907944865
 20
-30.2451495839
 10
-30.7211608098
 20
-30.2129475874
 10
-30.7508287712
 20
-30.1804822982
 10
-30.7797529623
 20
-30.1478372838
 10
-30.8084516596
 20
-30.1144344371
 10
-30.836735193
 20
-30.0804857239
 10
-30.8647507647
 20
-30.0458049724
 10
-30.8934486495
 20
-30.0091355927
 10
-30.9230376536
 20
-29.9700483953
 10
-30.9531292874
 20
-29.9288890533
 10
-30.9837147803
 20
-29.8855075555
 10
-31.0147174761
 20
-29.8398275271
 10
-31.0459929012
 20
-29.7918645022
 10
-31.0774174565
 20
-29.7416046903
 10
-31.1088015732
 20
-29.6891392694
 10
-31.1400741271
 20
-29.6343587666
 10
-31.1712584415
 20
-29.5769488073
 10
-31.2021796174
 20
-29.5169112855
 10
-31.2326462542
 20
-29.4542712794
 10
-31.2625962012
 20
-29.3887527925
 10
-31.2917970593
 20
-29.3203886254
 10
-31.3199886919
 20
-29.2492640543
 10
-31.3469994352
 20
-29.1752023105
 10
-31.3725085066
 20
-29.0983690601
 10
-31.3962102729
 20
-29.0188633234
 10
-31.4178626676
 20
-28.9364573513
 10
-31.4370536198
 20
-28.8514395791
 10
-31.4533774043
 20
-28.7640279439
 10
-31.4664504406
 20
-28.6739965202
 10
-31.4757467085
 20
-28.5815898815
 10
-31.480690673
 20
-28.4874922653
 10
-31.4807238171
 20
-28.3922728783
  0
LWPOLYLINE
  5
2B8
100
AcDbEntity
  8
262606150
100
AcDbPolyline
 62
253
  6
CONTINUOUS
 90
13
 70
0
 10
-29.5442562037
 20
-29.0485083544
 10
-29.5732890586
 20
-29.0309910804
 10
-29.6017205662
 20
-29.0095540793
 10
-29.6290642554
 20
-28.9845641444
 10
-29.6548522683
 20
-28.9564488602
 10
-29.6786433647
 20
-28.925689287
 10
-29.7000304724
 20
-28.8928117298
 10
-29.718647652
 20
-28.8583787326
 10
-29.7341763585
 20
-28.8229794535
 10
-29.7463508913
 20
-28.7872195841
 10
-29.7549629409
 20
-28.7517109856
 10
-29.7598651526
 20
-28.71706122
 10
-29.7609736483
 20
-28.6838631543
  0
LWPOLYLINE
  5
2B9
100
AcDbEntity
  8
262606150
100
AcDbPolyline
 62
7
  6
CONTINUOUS
 90
13
 70
0
 10
-27.8042260983
 20
-27.9781490587
 10
-27.8340980326
 20
-27.9598595279
 10
-27.8624061444
 20
-27.9385060345
 10
-27.8891504337
 20
-27.9140885784
 10
-27.9147198134
 20
-27.8860969499
 10
-27.9387253707
 20
-27.8550413588
 10
-27.9600003671
 20
-27.8224524341
 10
-27.9784163175
 20
-27.7882580258
 10
-27.9941017072
 20
-27.752530284
 10
-28.0062752528
 20
-27.7170162884
 10
-28.0146765268
 20
-27.6822983989
 10
-28.0195659569
 20
-27.6477942557
 10
-28.020943543
 20
-27.6135038586
  0
LINE
  5
2BA
100
AcDbEntity
  8
262606150
100
AcDbLine
 62
7
  6
CONTINUOUS
 10
-15.2897860037
 20
-34.2410480312
 11
-15.1982952299
 21
-34.2995052589
  0
LINE
  5
2BB
100
AcDbEntity
  8
262606150
100
AcDbLine
 62
7
  6
CONTINUOUS
 10
-14.974629203
 20
-34.0248998049
 11
-14.8831384292
 21
-34.0833570325
  0
LINE
  5
2BC
100
AcDbEntity
  8
262606150
100
AcDbLine
 62
7
  6
CONTINUOUS
 10
-14.6594724022
 20
-33.8087515785
 11
-14.5679816284
 21
-33.8672088062
  0
LWPOLYLINE
  5
2BD
100
AcDbEntity
  8
262606150
100
AcDbPolyline
 62
253
  6
CONTINUOUS
 90
10
 70
0
 10
-22.3503011913
 20
-34.8048867084
 10
-22.2800425449
 20
-34.8883277238
 10
-22.2167338177
 20
-34.9814543817
 10
-22.1606321904
 20
-35.0838884911
 10
-22.1119655028
 20
-35.1952142023
 10
-22.0709314916
 20
-35.3149793383
 10
-22.0376969033
 20
-35.4426971409
 10
-22.0123966367
 20
-35.5778487752
 10
-21.99513328
 20
-35.7198855244
 10
-21.985976798
 20
-35.8682305992
  0
LWPOLYLINE
  5
2BE
100
AcDbEntity
  8
262606150
100
AcDbPolyline
 62
253
  6
CONTINUOUS
 90
22
 70
0
 10
-22.3503011913
 20
-34.8048867084
 10
-22.3878119364
 20
-34.7571081533
 10
-22.4188229745
 20
-34.7007225626
 10
-22.442989826
 20
-34.6363563248
 10
-22.4600440389
 20
-34.5647244978
 10
-22.4697961838
 20
-34.4866228179
 10
-22.4721379409
 20
-34.4029188463
 10
-22.4670432945
 20
-34.3145424034
 10
-22.4545688381
 20
-34.222475253
 10
-22.4348531464
 20
-34.1277401401
 10
-22.4081152348
 20
-34.0313894469
 10
-22.3746521262
 20
-33.9344935029
 10
-22.3348355519
 20
-33.8381286943
 10
-22.2891078215
 20
-33.7433655073
 10
-22.2379769098
 20
-33.6512566361
 10
-22.1820108139
 20
-33.5628252891
 10
-22.1218312436
 20
-33.479053822
 10
-22.0581067146
 20
-33.4008728255
 10
-21.9915451224
 20
-33.3291507876
 10
-21.9228858788
 20
-33.2646844456
 10
-21.8528916975
 20
-33.2081899358
 10
-21.7823401218
 20
-33.1602948378
  0
LWPOLYLINE
  5
2BF
100
AcDbEntity
  8
262606150
100
AcDbPolyline
 62
253
  6
CONTINUOUS
 90
25
 70
0
 10
-31.4807238171
 20
-28.3922728783
 10
-31.4571541626
 20
-28.4401325097
 10
-31.4256822682
 20
-28.4891486489
 10
-31.3865824036
 20
-28.5386008079
 10
-31.3402278907
 20
-28.5890952598
 10
-31.286942737
 20
-28.6384324495
 10
-31.227057241
 20
-28.6823530422
 10
-31.1610733819
 20
-28.7193354687
 10
-31.0895836202
 20
-28.7511720425
 10
-31.0131522989
 20
-28.7790261377
 10
-30.9323616783
 20
-28.8028281778
 10
-30.8479211975
 20
-28.8223337448
 10
-30.7606411874
 20
-28.8380336081
 10
-30.671305072
 20
-28.849944933
 10
-30.5806111854
 20
-28.8575527436
 10
-30.4892762428
 20
-28.8605065772
 10
-30.3980494812
 20
-28.8587122447
 10
-30.3077064199
 20
-28.8522339893
 10
-30.2190021572
 20
-28.8410949793
 10
-30.1326773452
 20
-28.8253714992
 10
-30.049453527
 20
-28.8052018629
 10
-29.9700273568
 20
-28.7807630666
 10
-29.8950625446
 20
-28.7522569558
 10
-29.825184598
 20
-28.7199133247
 10
-29.760977054
 20
-28.6840019954
  0
LWPOLYLINE
  5
2C0
100
AcDbEntity
  8
262606150
100
AcDbPolyline
 62
253
  6
CONTINUOUS
 90
10
 70
0
 10
-31.4807046224
 20
-28.3922639341
 10
-31.529530197
 20
-28.2795007639
 10
-31.591150879
 20
-28.1686178591
 10
-31.6652931171
 20
-28.0601074595
 10
-31.7516277732
 20
-27.9544512725
 10
-31.8497715837
 20
-27.8521183352
 10
-31.9592888609
 20
-27.7535629315
 10
-32.0796934272
 20
-27.6592225759
 10
-32.210450773
 20
-27.5695160712
 10
-32.3509804301
 20
-27.4848416491
  0
LINE
  5
2C1
100
AcDbEntity
  8
262606150
100
AcDbLine
 62
253
  6
CONTINUOUS
 10
-32.3509804301
 20
-27.4848416491
 11
-32.3128308638
 21
-25.5395985303
  0
LINE
  5
2C2
100
AcDbEntity
  8
262606150
100
AcDbLine
 62
253
  6
CONTINUOUS
 10
-32.3128308638
 20
-25.5395985303
 11
-32.1645220914
 21
-19.1284594798
  0
LINE
  5
2C3
100
AcDbEntity
  8
262606150
100
AcDbLine
 62
253
  6
CONTINUOUS
 10
-32.1645220914
 20
-19.1284594798
 11
-31.9288257229
 21
-9.2555848674
  0
LINE
  5
2C4
100
AcDbEntity
  8
262606150
100
AcDbLine
 62
253
  6
CONTINUOUS
 10
-31.928824837
 20
-9.2555853422
 11
-31.4764973299
 21
8.9930685335
  0
LINE
  5
2C5
100
AcDbEntity
  8
262606150
100
AcDbLine
 62
253
  6
CONTINUOUS
 10
-30.4189282167
 20
14.3438012583
 11
-29.5166650314
 21
50.8447154268
  0
LINE
  5
2C6
100
AcDbEntity
  8
262606150
100
AcDbLine
 62
253
  6
CONTINUOUS
 10
-31.3216465691
 20
15.2403515104
 11
-30.8570602688
 21
33.9654204094
  0
LINE
  5
2C7
100
AcDbEntity
  8
262606150
100
AcDbLine
 62
253
  6
CONTINUOUS
 10
-30.8570602688
 20
33.9654204094
 11
-30.5797853197
 21
44.7396947415
  0
LINE
  5
2C8
100
AcDbEntity
  8
262606150
100
AcDbLine
 62
253
  6
CONTINUOUS
 10
-31.4807046224
 20
-28.3922639341
 11
-30.5737789774
 21
8.0965182814
  0
LINE
  5
2C9
100
AcDbEntity
  8
262606150
100
AcDbLine
 62
253
  6
CONTINUOUS
 10
-30.5797853197
 20
44.7396947415
 11
-30.4587016517
 21
49.3153570957
  0
LINE
  5
2CA
100
AcDbEntity
  8
262606150
100
AcDbLine
 62
253
  6
CONTINUOUS
 10
-30.4587016517
 20
49.3153570957
 11
-30.3969418827
 21
51.435554994
  0
LINE
  5
2CB
100
AcDbEntity
  8
262606150
100
AcDbLine
 62
253
  6
CONTINUOUS
 10
-30.3969418827
 20
51.435554994
 11
-30.3876406217
 21
51.7239054523
  0
LWPOLYLINE
  5
2CC
100
AcDbEntity
  8
262606150
100
AcDbPolyline
 62
253
  6
CONTINUOUS
 90
52
 70
0
 10
-29.5166850639
 20
50.844706163
 10
-29.512525442
 20
50.9307822785
 10
-29.5043355318
 20
51.0112559242
 10
-29.492599828
 20
51.086167306
 10
-29.4778296916
 20
51.1554019315
 10
-29.4604616277
 20
51.219302809
 10
-29.4407653614
 20
51.2786024214
 10
-29.4190543653
 20
51.3335221457
 10
-29.3956833891
 20
51.3841210369
 10
-29.3708470874
 20
51.4308346322
 10
-29.344802121
 20
51.4738562488
 10
-29.3178110861
 20
51.5133108331
 10
-29.2900020847
 20
51.5494935702
 10
-29.2615804013
 20
51.5825617632
 10
-29.232747416
 20
51.6126751658
 10
-29.2035726885
 20
51.6400955998
 10
-29.1742280529
 20
51.6649607738
 10
-29.1448545135
 20
51.6874293192
 10
-29.1154291297
 20
51.7077514271
 10
-29.0860584448
 20
51.7260588622
 10
-29.0568635836
 20
51.7424679809
 10
-29.0278054484
 20
51.757162342
 10
-28.9988946126
 20
51.7702905459
 10
-28.9702857644
 20
51.7819066983
 10
-28.9421440062
 20
51.7920419681
 10
-28.9146281185
 20
51.8007806232
 10
-28.8877319653
 20
51.8082617288
 10
-28.8613656627
 20
51.8145883811
 10
-28.8358071685
 20
51.8197835119
 10
-28.8108926813
 20
51.8240087006
 10
-28.7858257549
 20
51.8274841411
 10
-28.7604436335
 20
51.8302387482
 10
-28.7349365455
 20
51.8322555984
 10
-28.7089943764
 20
51.8335884523
 10
-28.6826678234
 20
51.8342326441
 10
-28.6559171846
 20
51.8341661648
 10
-28.6282735405
 20
51.833351802
 10
-28.5997014184
 20
51.8317293609
 10
-28.5702259892
 20
51.829248258
 10
-28.5394485658
 20
51.8258118839
 10
-28.5071803611
 20
51.8213159997
 10
-28.4735892147
 20
51.8156675657
 10
-28.4388098011
 20
51.8087618018
 10
-28.4029228647
 20
51.8005474308
 10
-28.3658577551
 20
51.7909080885
 10
-28.3275335862
 20
51.7796420481
 10
-28.2880598877
 20
51.766672034
 10
-28.2473665574
 20
51.7518851775
 10
-28.2051112246
 20
51.7349775496
 10
-28.1612040763
 20
51.7157391181
 10
-28.1158102577
 20
51.6940973195
 10
-28.0689811321
 20
51.6699163264
  0
LWPOLYLINE
  5
2CD
100
AcDbEntity
  8
262606150
100
AcDbPolyline
 62
253
  6
CONTINUOUS
 90
37
 70
0
 10
-31.4765077304
 20
8.9930622178
 10
-31.4673635311
 20
9.168706665
 10
-31.4488184603
 20
9.3379297502
 10
-31.4210616403
 20
9.5002282455
 10
-31.3841692816
 20
9.6557300922
 10
-31.3384376195
 20
9.8033323116
 10
-31.2847515488
 20
9.9410464918
 10
-31.2237264458
 20
10.0687806749
 10
-31.1559273775
 20
10.1865228733
 10
-31.0827490493
 20
10.2930543325
 10
-31.0052303161
 20
10.3885202075
 10
-30.9239559445
 20
10.4736584101
 10
-30.8399184175
 20
10.5486032688
 10
-30.7540423171
 20
10.6138178673
 10
-30.666861719
 20
10.6700753271
 10
-30.5787482136
 20
10.7180509187
 10
-30.4902946696
 20
10.7583110699
 10
-30.4019916535
 20
10.7914543447
 10
-30.3139327766
 20
10.8180907402
 10
-30.2265188893
 20
10.8387218266
 10
-30.1401097277
 20
10.8538464749
 10
-30.0546347632
 20
10.8639297042
 10
-29.9703595588
 20
10.8693627565
 10
-29.8875518558
 20
10.8705668471
 10
-29.806066759
 20
10.8679262442
 10
-29.7260851692
 20
10.8617413768
 10
-29.6478269535
 20
10.8523592409
 10
-29.5711434931
 20
10.8401272208
 10
-29.4961955689
 20
10.8252805619
 10
-29.4231758873
 20
10.8081290183
 10
-29.3519618651
 20
10.7890649378
 10
-29.2827318046
 20
10.7684121854
 10
-29.2156540037
 20
10.7463698526
 10
-29.1504752399
 20
10.7230561814
 10
-29.0871170752
 20
10.6986274397
 10
-29.0257049843
 20
10.6733112541
 10
-28.9662594877
 20
10.6472878484
  0
LWPOLYLINE
  5
2CE
100
AcDbEntity
  8
262606150
100
AcDbPolyline
 62
253
  6
CONTINUOUS
 90
37
 70
0
 10
-30.5737789774
 20
8.0965182813
 10
-30.5689202817
 20
8.1882871101
 10
-30.5590290533
 20
8.2766987633
 10
-30.5441951507
 20
8.3614634261
 10
-30.5244402735
 20
8.4426039982
 10
-30.4999372619
 20
8.5195440276
 10
-30.4711886836
 20
8.5912631784
 10
-30.4385081926
 20
8.6576892894
 10
-30.4021992133
 20
8.7188104091
 10
-30.363049604
 20
8.7740339321
 10
-30.3216099021
 20
8.8234173298
 10
-30.2781860163
 20
8.8673308627
 10
-30.2333401583
 20
8.9058879198
 10
-30.1875642061
 20
8.9393318395
 10
-30.141139437
 20
8.96805615
 10
-30.0942903181
 20
8.9924404065
 10
-30.0473296353
 20
9.012791373
 10
-30.0005245905
 20
9.0294228592
 10
-29.9539661039
 20
9.0426748972
 10
-29.9078714913
 20
9.052831358
 10
-29.8624436437
 20
9.0601664758
 10
-29.817698841
 20
9.0649457881
 10
-29.7737954831
 20
9.0674135934
 10
-29.7308730077
 20
9.0678065748
 10
-29.6888802657
 20
9.0663204671
 10
-29.647939697
 20
9.0631566027
 10
-29.6081346179
 20
9.0585122401
 10
-29.5693255611
 20
9.0525174385
 10
-29.5316025822
 20
9.0453259011
 10
-29.4950123915
 20
9.0370955636
 10
-29.4593269373
 20
9.027900203
 10
-29.4245698715
 20
9.0178429847
 10
-29.3908037706
 20
9.0070456035
 10
-29.3578422081
 20
8.995556179
 10
-29.3256398052
 20
8.9834382975
 10
-29.2942961937
 20
8.9707924628
 10
-29.2638340791
 20
8.9576986911
  0
LWPOLYLINE
  5
2CF
100
AcDbEntity
  8
262606150
100
AcDbPolyline
 62
253
  6
CONTINUOUS
 90
52
 70
0
 10
-30.3876394676
 20
51.7239061215
 10
-30.3777441137
 20
51.888600349
 10
-30.3602072508
 20
52.0422256484
 10
-30.3360173902
 20
52.1847656437
 10
-30.3061684403
 20
52.315971627
 10
-30.2716262609
 20
52.4364156702
 10
-30.2331621877
 20
52.5474277019
 10
-30.1916914542
 20
52.6495705155
 10
-30.1477234767
 20
52.743059884
 10
-30.101087416
 20
52.8287348234
 10
-30.0520266186
 20
52.9070740364
 10
-30.0010883444
 20
52.9786238236
 10
-29.9484522532
 20
53.0440206782
 10
-29.8945309016
 20
53.1034735443
 10
-29.8398132363
 20
53.1571497756
 10
-29.7845075898
 20
53.2055293942
 10
-29.7289179945
 20
53.2488955374
 10
-29.6732802029
 20
53.2875863379
 10
-29.6176111792
 20
53.3221198618
 10
-29.5622261875
 20
53.3526849417
 10
-29.5073826127
 20
53.379501294
 10
-29.4528927184
 20
53.4030600567
 10
-29.3985412108
 20
53.4235996914
 10
-29.3444101393
 20
53.4414232786
 10
-29.2905646662
 20
53.4571024142
 10
-29.2371083283
 20
53.4708296414
 10
-29.184106587
 20
53.4825781944
 10
-29.1317157998
 20
53.4924872163
 10
-29.0808929896
 20
53.5007864488
 10
-29.0317564654
 20
53.5074200731
 10
-28.983423048
 20
53.5119979713
 10
-28.9357040729
 20
53.5143293675
 10
-28.8884870678
 20
53.5148930771
 10
-28.8406606792
 20
53.5141825391
 10
-28.7921232156
 20
53.5123369218
 10
-28.7429021243
 20
53.5091856218
 10
-28.6921372151
 20
53.5045741486
 10
-28.6397848335
 20
53.4983183076
 10
-28.5859366332
 20
53.4904318663
 10
-28.5298964081
 20
53.4809315159
 10
-28.4713658001
 20
53.4694363663
 10
-28.4103454169
 20
53.4559352904
 10
-28.3464570036
 20
53.4408854773
 10
-28.2794116121
 20
53.4242373826
 10
-28.2091819144
 20
53.4054241505
 10
-28.1357162492
 20
53.3840440225
 10
-28.0592513891
 20
53.3599613119
 10
-27.9798751076
 20
53.3327323383
 10
-27.8974397278
 20
53.3014469836
 10
-27.8121389649
 20
53.2656454452
 10
-27.7242344412
 20
53.2252843738
 10
-27.6337581045
 20
53.1800540267
  0
LINE
  5
2D0
100
AcDbEntity
  8
262606150
100
AcDbLine
 62
253
  6
CONTINUOUS
 10
-18.8348637801
 20
56.6322674153
 11
-18.6113788501
 21
57.7164888963
  0
LINE
  5
2D1
100
AcDbEntity
  8
262606150
100
AcDbLine
 62
253
  6
CONTINUOUS
 10
-18.6113788501
 20
57.7164888963
 11
-18.358331347
 21
58.8506579128
  0
LWPOLYLINE
  5
2D2
100
AcDbEntity
  8
262606150
100
AcDbPolyline
 62
253
  6
CONTINUOUS
 90
3
 70
0
 10
-18.358331347
 20
58.8506579128
 10
-18.0742299931
 20
60.0340949348
 10
-17.7562300153
 20
61.27045107
  0
LWPOLYLINE
  5
2D3
100
AcDbEntity
  8
262606150
100
AcDbPolyline
 62
253
  6
CONTINUOUS
 90
10
 70
0
 10
-29.2638346167
 20
8.957697275
 10
-29.1952607469
 20
9.1487326143
 10
-29.1349715807
 20
9.3410102508
 10
-29.0832934678
 20
9.5336620398
 10
-29.0405673315
 20
9.7258333964
 10
-29.0070101303
 20
9.9166538444
 10
-28.9826821944
 20
10.1052246691
 10
-28.9676807516
 20
10.2906730287
 10
-28.9621694645
 20
10.4721716546
 10
-28.9662194379
 20
10.6488982663
  0
LWPOLYLINE
  5
2D4
100
AcDbEntity
  8
262606150
100
AcDbPolyline
 62
253
  6
CONTINUOUS
 90
17
 70
0
 10
-29.1429606267
 20
8.8995426101
 10
-29.1771965612
 20
8.8163873956
 10
-29.2067181608
 20
8.7327989549
 10
-29.2312813039
 20
8.6494683978
 10
-29.2506828769
 20
8.567084642
 10
-29.2647624029
 20
8.4863289257
 10
-29.2734034147
 20
8.4078691591
 10
-29.2765344668
 20
8.3323541217
 10
-29.2741296807
 20
8.2604081155
 10
-29.2662089395
 20
8.1926260001
 10
-29.252837733
 20
8.1295682074
 10
-29.2341266163
 20
8.0717561082
 10
-29.2102302955
 20
8.019667701
 10
-29.1813463488
 20
7.97373366
 10
-29.1477135925
 20
7.9343337744
 10
-29.1096101071
 20
7.9017938078
 10
-29.0751103328
 20
7.8803469279
  0
LWPOLYLINE
  5
2D5
100
AcDbEntity
  8
262606150
100
AcDbPolyline
 62
253
  6
CONTINUOUS
 90
10
 70
0
 10
-29.1429606267
 20
8.8995426101
 10
-29.0648438568
 20
9.0859135621
 10
-28.99452676
 20
9.2733032326
 10
-28.9323346307
 20
9.4608447365
 10
-28.8785551767
 20
9.6476704865
 10
-28.8334371875
 20
9.8329162063
 10
-28.7971893838
 20
10.015724929
 10
-28.7699794519
 20
10.1952509615
 10
-28.7519332679
 20
10.3706637968
 10
-28.7431343155
 20
10.5411519562
  0
LWPOLYLINE
  5
2D6
100
AcDbEntity
  8
262606150
100
AcDbPolyline
 62
253
  6
CONTINUOUS
 90
10
 70
0
 10
21.4507177628
 20
-37.9511747182
 10
21.6504924706
 20
-37.9721809314
 10
21.8477217479
 20
-38.0007710108
 10
22.0415095009
 20
-38.0368150051
 10
22.2309753263
 20
-38.0801491303
 10
22.4152583415
 20
-38.1305764768
 10
22.5935211125
 20
-38.1878678827
 10
22.764953681
 20
-38.251763036
 10
22.9287772272
 20
-38.3219716783
 10
23.0842474504
 20
-38.3981748715
  0
LWPOLYLINE
  5
2D7
100
AcDbEntity
  8
262606150
100
AcDbPolyline
 62
253
  6
CONTINUOUS
 90
15
 70
0
 10
21.4507177628
 20
-37.9511747182
 10
21.3483425825
 20
-37.9393063172
 10
21.2483712609
 20
-37.9214829842
 10
21.1518838225
 20
-37.8978972416
 10
21.0599226171
 20
-37.8688038502
 10
20.9734812009
 20
-37.8345171003
 10
20.8934935717
 20
-37.7954074428
 10
20.820823896
 20
-37.7518974147
 10
20.7562572046
 20
-37.7044570497
 10
20.7004910311
 20
-37.6535988607
 10
20.6541278348
 20
-37.5998722841
 10
20.6176684913
 20
-37.5438577448
 10
20.5915068823
 20
-37.486160385
 10
20.5759256395
 20
-37.4274035271
 10
20.5711775813
 20
-37.3633094478
  0
LWPOLYLINE
  5
2D8
100
AcDbEntity
  8
262606150
100
AcDbPolyline
 62
7
  6
CONTINUOUS
 90
5
 70
0
 10
-18.6217668677
 20
-31.222648924
 10
-18.59575115
 20
-31.2256995133
 10
-18.5699324486
 20
-31.232286972
 10
-18.5442392126
 20
-31.2414907997
 10
-18.518890483
 20
-31.2531194602
  0
LINE
  5
2D9
100
AcDbEntity
  8
262606150
100
AcDbLine
 62
7
  6
CONTINUOUS
 10
18.1347106317
 20
-51.9473193803
 11
18.2262014055
 21
-52.005776608
  0
LINE
  5
2DA
100
AcDbEntity
  8
262606150
100
AcDbLine
 62
7
  6
CONTINUOUS
 10
18.4498674325
 20
-51.731171154
 11
18.5413582062
 21
-51.7896283816
  0
LINE
  5
2DB
100
AcDbEntity
  8
262606150
100
AcDbLine
 62
7
  6
CONTINUOUS
 10
18.7650242332
 20
-51.5150229276
 11
18.856515007
 21
-51.5734801553
  0
LINE
  5
2DC
100
AcDbEntity
  8
262606150
100
AcDbLine
 62
7
  6
CONTINUOUS
 10
-14.2375388644
 20
-33.5211798164
 11
-14.2376272548
 21
-33.5210562684
  0
LWPOLYLINE
  5
2DD
100
AcDbEntity
  8
262606150
100
AcDbPolyline
 62
253
  6
CONTINUOUS
 90
22
 70
0
 10
-31.0261064845
 20
-10.1521355944
 10
-30.9977370495
 20
-10.209527754
 10
-30.9591441866
 20
-10.26510732
 10
-30.9107447749
 20
-10.3182738448
 10
-30.8530616073
 20
-10.3684529706
 10
-30.7867178319
 20
-10.4151025538
 10
-30.7124302655
 20
-10.4577185424
 10
-30.6310015051
 20
-10.4958405235
 10
-30.5433112134
 20
-10.5290566772
 10
-30.4503067357
 20
-10.557008159
 10
-30.352992828
 20
-10.5793930006
 10
-30.2524208024
 20
-10.5959693715
 10
-30.1496771695
 20
-10.6065581923
 10
-30.0458719002
 20
-10.6110450685
 10
-29.9421264349
 20
-10.6093815271
 10
-29.8395615677
 20
-10.6015855399
 10
-29.7392853386
 20
-10.5877413292
 10
-29.6423810623
 20
-10.5679984583
 10
-29.5498956257
 20
-10.5425702156
 10
-29.4628281774
 20
-10.5117313102
 10
-29.3821193338
 20
-10.4758149043
 10
-29.3086410174
 20
-10.4352090138
  0
LWPOLYLINE
  5
2DE
100
AcDbEntity
  8
262606150
100
AcDbPolyline
 62
253
  6
CONTINUOUS
 90
10
 70
0
 10
-31.0261064845
 20
-10.1521355944
 10
-31.0777347893
 20
-10.0399815416
 10
-31.1424138852
 20
-9.9298418166
 10
-31.2198499088
 20
-9.8222168289
 10
-31.3096910368
 20
-9.7175955627
 10
-31.4115290844
 20
-9.6164533549
 10
-31.5249013599
 20
-9.5192497355
 10
-31.6492927672
 20
-9.4264263402
 10
-31.7841381453
 20
-9.3384049034
 10
-31.928824837
 20
-9.2555853422
  0
LWPOLYLINE
  5
2DF
100
AcDbEntity
  8
262606150
100
AcDbPolyline
 62
7
  6
CONTINUOUS
 90
16
 70
0
 10
-26.9614378407
 20
15.131083938
 10
-26.9608373385
 20
15.1044947761
 10
-26.957879978
 20
15.0773761618
 10
-26.9525657593
 20
15.0497280951
 10
-26.9447521988
 20
15.0211474119
 10
-26.93458178
 20
14.9920372762
 10
-26.9224819534
 20
14.9636071801
 10
-26.9084978008
 20
14.9360797617
 10
-26.8925842403
 20
14.9092323828
 10
-26.8750334765
 20
14.8836066213
 10
-26.8556174162
 20
14.8590182043
 10
-26.8345641526
 20
14.8356514047
 10
-26.8128501703
 20
14.8146006186
 10
-26.7908009643
 20
14.7962306448
 10
-26.7680910395
 20
14.7801766846
 10
-26.744720396
 20
14.7664387379
  0
LINE
  5
2E0
100
AcDbEntity
  8
262606150
100
AcDbLine
 62
253
  6
CONTINUOUS
 10
-28.966212513
 20
10.6491796065
 11
-28.9575194671
 21
10.9998909448
  0
LINE
  5
2E1
100
AcDbEntity
  8
262606150
100
AcDbLine
 62
253
  6
CONTINUOUS
 10
-29.7609564572
 20
-28.6838525794
 11
-28.8575124059
 21
7.7650767421
  0
LINE
  5
2E2
100
AcDbEntity
  8
262606150
100
AcDbLine
 62
253
  6
CONTINUOUS
 10
-28.7014627495
 20
14.0607278389
 11
-27.7979951457
 21
50.5096686384
  0
LINE
  5
2E3
100
AcDbEntity
  8
262606150
100
AcDbLine
 62
7
  6
CONTINUOUS
 10
-28.020943543
 20
-27.6135038586
 11
-27.1662259017
 21
6.8691357171
  0
LINE
  5
2E4
100
AcDbEntity
  8
262606150
100
AcDbLine
 62
7
  6
CONTINUOUS
 10
-26.9614378407
 20
15.131083938
 11
-26.106720196
 21
49.6137236499
  0
LWPOLYLINE
  5
2E5
100
AcDbEntity
  8
262606150
100
AcDbPolyline
 62
253
  6
CONTINUOUS
 90
8
 70
0
 10
-19.8795756873
 20
49.1121888149
 10
-19.8263369565
 20
49.7607831078
 10
-19.754090784
 20
50.5300248631
 10
-19.6564337439
 20
51.4295913466
 10
-19.5338831076
 20
52.4163118718
 10
-19.3871571181
 20
53.4578700725
 10
-19.2187378311
 20
54.5238901647
 10
-19.0347657115
 20
55.5797724257
  0
LINE
  5
2E6
100
AcDbEntity
  8
262606150
100
AcDbLine
 62
253
  6
CONTINUOUS
 10
-19.0347657115
 20
55.5797724257
 11
-18.8348637801
 21
56.6322674153
  0
LWPOLYLINE
  5
2E7
100
AcDbEntity
  8
262606150
100
AcDbPolyline
 62
253
  6
CONTINUOUS
 90
13
 70
0
 10
17.0203420244
 20
44.0834698019
 10
16.9549519226
 20
44.0350478994
 10
16.8902902356
 20
43.9794199924
 10
16.8269802945
 20
43.9171210966
 10
16.765616676
 20
43.8487587889
 10
16.7068052959
 20
43.7749830679
 10
16.6511577264
 20
43.696480015
 10
16.5992241614
 20
43.6139976115
 10
16.5514891717
 20
43.5283379823
 10
16.5084128621
 20
43.44032538
 10
16.4704099178
 20
43.3508070125
 10
16.4378456154
 20
43.2606448853
 10
16.4110332121
 20
43.1707070243
  0
LINE
  5
2E8
100
AcDbEntity
  8
262606150
100
AcDbLine
 62
253
  6
CONTINUOUS
 10
-26.9614378407
 20
15.131083938
 11
-28.7014627495
 21
14.0607278389
  0
LINE
  5
2E9
100
AcDbEntity
  8
262606150
100
AcDbLine
 62
253
  6
CONTINUOUS
 10
-26.744720396
 20
14.7664387379
 11
-28.4847453049
 21
13.6960826388
  0
LWPOLYLINE
  5
2EA
100
AcDbEntity
  8
262606150
100
AcDbPolyline
 62
253
  6
CONTINUOUS
 90
10
 70
0
 10
11.816962036
 20
-52.9046307542
 10
11.8872462764
 20
-52.9880853194
 10
11.9505741524
 20
-53.0812220575
 10
12.0066885006
 20
-53.1836627566
 10
12.0553614504
 20
-53.2949914229
 10
12.0963953495
 20
-53.4147559702
 10
12.1296235666
 20
-53.5424700555
 10
12.1549111675
 20
-53.6776150544
 10
12.1721554638
 20
-53.8196421666
 10
12.1812864294
 20
-53.9679746449
  0
LWPOLYLINE
  5
2EB
100
AcDbEntity
  8
262606150
100
AcDbPolyline
 62
253
  6
CONTINUOUS
 90
21
 70
0
 10
-30.5737789774
 20
8.0965182814
 10
-30.5454089834
 20
8.0391251786
 10
-30.5068154303
 20
7.9835449943
 10
-30.458415355
 20
7.9303781674
 10
-30.4007317947
 20
7.8801991053
 10
-30.3343879611
 20
7.8335498217
 10
-30.2601004185
 20
7.7909341201
 10
-30.1786716261
 20
7.7528123517
 10
-30.0909813531
 20
7.719596402
 10
-29.9979769407
 20
7.6916451117
 10
-29.9006631403
 20
7.6692604459
 10
-29.8000912586
 20
7.6526842321
 10
-29.6973478001
 20
7.6420955475
 10
-29.5935427297
 20
7.6376087846
 10
-29.489797481
 20
7.6392724149
 10
-29.3872328414
 20
7.647068466
 10
-29.2869568431
 20
7.660912742
 10
-29.1900527949
 20
7.6806556527
 10
-29.097567579
 20
7.7060838292
 10
-29.0105003382
 20
7.7369225364
 10
-28.9297916823
 20
7.7728386409
  0
LWPOLYLINE
  5
2EC
100
AcDbEntity
  8
262606150
100
AcDbPolyline
 62
253
  6
CONTINUOUS
 90
10
 70
0
 10
-30.5737789774
 20
8.0965182814
 10
-30.625407083
 20
8.2086720283
 10
-30.6900859493
 20
8.3188115317
 10
-30.7675217462
 20
8.4264363807
 10
-30.8573626762
 20
8.5310575801
 10
-30.9592005903
 20
8.6321997939
 10
-31.0725728501
 20
8.7294035028
 10
-31.1969644012
 20
8.8222270636
 10
-31.331810105
 20
8.910248719
 10
-31.4764973299
 20
8.9930685335
  0
LWPOLYLINE
  5
2ED
100
AcDbEntity
  8
262606150
100
AcDbPolyline
 62
253
  6
CONTINUOUS
 90
13
 70
0
 10
-21.985976687
 20
-35.868233917
 10
-21.9637404246
 20
-36.4704010499
 10
-21.927981664
 20
-37.1732052293
 10
-21.8725858596
 20
-37.9786233192
 10
-21.7959130468
 20
-38.8427938809
 10
-21.697076869
 20
-39.7332971913
 10
-21.5771070731
 20
-40.6219179024
 10
-21.4405924669
 20
-41.4806563586
 10
-21.287484236
 20
-42.3160011339
 10
-21.1116598742
 20
-43.1545920222
 10
-20.9078719111
 20
-44.0077438838
 10
-20.6745486808
 20
-44.872893057
 10
-20.4089411194
 20
-45.7502496606
  0
LWPOLYLINE
  5
2EE
100
AcDbEntity
  8
262606150
100
AcDbPolyline
 62
253
  6
CONTINUOUS
 90
8
 70
0
 10
-16.5074811626
 20
10.8210255325
 10
-16.4915038207
 20
10.8320278663
 10
-16.4782625324
 20
10.84339804
 10
-16.4679813296
 20
10.8549436493
 10
-16.4608341485
 20
10.8664693316
 10
-16.4569418995
 20
10.8777800513
 10
-16.4563704049
 20
10.8886844013
 10
-16.4568001745
 20
10.891598134
  0
LINE
  5
2EF
100
AcDbEntity
  8
262606150
100
AcDbLine
 62
253
  6
CONTINUOUS
 10
-16.5074811626
 20
10.8210255325
 11
-17.7891303995
 21
10.0223102533
  0
LINE
  5
2F0
100
AcDbEntity
  8
262606150
100
AcDbLine
 62
7
  6
CONTINUOUS
 10
-16.8177406704
 20
11.0759314715
 11
-18.2059356668
 21
10.2431084076
  0
LINE
  5
2F1
100
AcDbEntity
  8
262606150
100
AcDbLine
 62
7
  6
CONTINUOUS
 10
-16.5332390066
 20
10.5827293681
 11
-17.618692985
 21
9.932022847
  0
LINE
  5
2F2
100
AcDbEntity
  8
262606150
100
AcDbLine
 62
253
  6
CONTINUOUS
 10
-28.9297916823
 20
7.7728386409
 11
-28.9015872954
 21
7.7884249457
  0
LINE
  5
2F3
100
AcDbEntity
  8
262606150
100
AcDbLine
 62
7
  6
CONTINUOUS
 10
-18.6704786313
 20
10.4891950988
 11
-17.5762068841
 21
11.0715802495
  0
LINE
  5
2F4
100
AcDbEntity
  8
262606150
100
AcDbLine
 62
253
  6
CONTINUOUS
 10
-18.5798547802
 20
10.4411880782
 11
-17.4256459953
 21
11.0554724723
  0
LINE
  5
2F5
100
AcDbEntity
  8
262606150
100
AcDbLine
 62
253
  6
CONTINUOUS
 10
-17.5762068841
 20
11.0715802495
 11
-17.5695302744
 21
11.0748434514
  0
LINE
  5
2F6
100
AcDbEntity
  8
262606150
100
AcDbLine
 62
7
  6
CONTINUOUS
 10
-17.5513368537
 20
11.083385423
 11
-17.5762836871
 21
11.0715393341
  0
LWPOLYLINE
  5
2F7
100
AcDbEntity
  8
262606150
100
AcDbPolyline
 62
253
  6
CONTINUOUS
 90
22
 70
0
 10
23.0842474504
 20
-38.3981748715
 10
24.0494421479
 20
-38.897486664
 10
25.0517369296
 20
-39.4007407261
 10
26.0320792454
 20
-39.8784531594
 10
26.9366423421
 20
-40.3083350272
 10
27.752145606
 20
-40.686799978
 10
28.5257748266
 20
-41.0370765447
 10
29.295593915
 20
-41.37772238
 10
30.0801520245
 20
-41.7179917319
 10
30.884096623
 20
-42.059585398
 10
31.7083397688
 20
-42.4022309885
 10
32.5480847437
 20
-42.7432806951
 10
33.3987827905
 20
-43.0804990786
 10
34.2667267887
 20
-43.4161203824
 10
35.1541725133
 20
-43.7508005719
 10
36.0503542534
 20
-44.0805488676
 10
36.9549472475
 20
-44.4054068846
 10
37.8643276363
 20
-44.7240270279
 10
38.7599009508
 20
-45.0299930181
 10
39.6337348803
 20
-45.3209825802
 10
40.4914807364
 20
-45.599515281
 10
41.3347110174
 20
-45.8667296932
  0
LINE
  5
2F8
100
AcDbEntity
  8
262606150
100
AcDbLine
 62
7
  6
CONTINUOUS
 10
45.66589703
 20
-44.5847099367
 11
44.2870539171
 21
-43.8542824729
  0
LWPOLYLINE
  5
2F9
100
AcDbEntity
  8
262606150
100
AcDbPolyline
 62
253
  6
CONTINUOUS
 90
22
 70
0
 10
-31.928824837
 20
-9.2555853422
 10
-32.873074371
 20
-8.7433893758
 10
-33.8269780798
 20
-8.2103681077
 10
-34.7346253414
 20
-7.6879381566
 10
-35.5530642979
 20
-7.205078025
 10
-36.2750392799
 20
-6.7690802387
 10
-36.9446481721
 20
-6.3548167758
 10
-37.5971488229
 20
-5.9420038672
 10
-38.2500912077
 20
-5.520772632
 10
-38.906793134
 20
-5.0886043475
 10
-39.5668467938
 20
-4.6449595029
 10
-40.2252689021
 20
-4.1923711424
 10
-40.8778150427
 20
-3.7332619169
 10
-41.5288576413
 20
-3.264216238
 10
-42.1797108743
 20
-2.7839989271
 10
-42.8226001648
 20
-2.298440725
 10
-43.4575739862
 20
-1.8077296075
 10
-44.082007897
 20
-1.3138279501
 10
-44.6833062224
 20
-0.8268421206
 10
-45.2568204644
 20
-0.3511143933
 10
-45.8073736272
 20
0.1163843224
 10
-46.3370719929
 20
0.5764642483
  0
LWPOLYLINE
  5
2FA
100
AcDbEntity
  8
262606150
100
AcDbPolyline
 62
253
  6
CONTINUOUS
 90
10
 70
0
 10
19.5402425199
 20
-56.9717041237
 10
19.6432808282
 20
-57.0954669723
 10
19.7039415271
 20
-57.1855991132
 10
19.7577391323
 20
-57.2846012001
 10
19.8044655939
 20
-57.392090368
 10
19.8439402077
 20
-57.5076509305
 10
19.8760103138
 20
-57.6308359869
 10
19.9005518875
 20
-57.7611691513
 10
19.9174700184
 20
-57.8981463938
 10
19.9266992776
 20
-58.0412379908
  0
LWPOLYLINE
  5
2FB
100
AcDbEntity
  8
262606150
100
AcDbPolyline
 62
253
  6
CONTINUOUS
 90
22
 70
0
 10
11.816962036
 20
-52.9046307542
 10
11.779451291
 20
-52.8568521991
 10
11.7484402528
 20
-52.8004666083
 10
11.7242734014
 20
-52.7361003705
 10
11.7072191885
 20
-52.6644685436
 10
11.6974670436
 20
-52.5863668637
 10
11.6951252864
 20
-52.502662892
 10
11.7002199328
 20
-52.4142864491
 10
11.7126943893
 20
-52.3222192988
 10
11.732410081
 20
-52.2274841858
 10
11.7591479926
 20
-52.1311334927
 10
11.7926111011
 20
-52.0342375486
 10
11.8324276754
 20
-51.93787274
 10
11.8781554059
 20
-51.843109553
 10
11.9292863176
 20
-51.7510006819
 10
11.9852524134
 20
-51.6625693348
 10
12.0454319837
 20
-51.5787978677
 10
12.1091565128
 20
-51.5006168712
 10
12.1757181049
 20
-51.4288948333
 10
12.2443773485
 20
-51.3644284914
 10
12.3143715298
 20
-51.3079339816
 10
12.3849231055
 20
-51.2600388835
  0
LINE
  5
2FC
100
AcDbEntity
  8
262606150
100
AcDbLine
 62
7
  6
CONTINUOUS
 10
2.4696156759
 20
-42.5798183169
 11
2.4695272855
 21
-42.5796947689
  0
LWPOLYLINE
  5
2FD
100
AcDbEntity
  8
262606150
100
AcDbPolyline
 62
253
  6
CONTINUOUS
 90
22
 70
0
 10
-30.4189282167
 20
14.3438012583
 10
-30.3905583452
 20
14.2864077098
 10
-30.3519649242
 20
14.2308276439
 10
-30.3035649604
 20
14.1776615011
 10
-30.2458814288
 20
14.1274843056
 10
-30.1795375442
 20
14.0808374697
 10
-30.105249966
 20
14.0382229657
 10
-30.0238212137
 20
14.0000997856
 10
-29.9361310021
 20
13.9668811734
 10
-29.843126618
 20
13.9389282044
 10
-29.7458127834
 20
13.916544055
 10
-29.6452408362
 20
13.8999693426
 10
-29.5424973166
 20
13.8893817476
 10
-29.4386922059
 20
13.8848950533
 10
-29.3349469238
 20
13.8865583411
 10
-29.2323822484
 20
13.8943540689
 10
-29.1321062064
 20
13.9081983111
 10
-29.0352021147
 20
13.9279412074
 10
-28.9427168661
 20
13.9533690091
 10
-28.8556496079
 20
13.9842068544
 10
-28.7749409478
 20
14.0201217361
 10
-28.701462804
 20
14.06072564
  0
LWPOLYLINE
  5
2FE
100
AcDbEntity
  8
262606150
100
AcDbPolyline
 62
253
  6
CONTINUOUS
 90
10
 70
0
 10
-30.4189282167
 20
14.3438012583
 10
-30.4705565214
 20
14.4559553111
 10
-30.5352356173
 20
14.5660950361
 10
-30.6126716409
 20
14.6737200237
 10
-30.7025127689
 20
14.77834129
 10
-30.8043508165
 20
14.8794834978
 10
-30.9177230921
 20
14.9766871171
 10
-31.0421144993
 20
15.0695105124
 10
-31.1769598774
 20
15.1575319492
 10
-31.3216465691
 20
15.2403515104
  0
LWPOLYLINE
  5
2FF
100
AcDbEntity
  8
262606150
100
AcDbPolyline
 62
7
  6
CONTINUOUS
 90
12
 70
0
 10
-13.1953765369
 20
8.712156484
 10
-13.1962444523
 20
8.7435684123
 10
-13.2004469444
 20
8.7750047762
 10
-13.2080063709
 20
8.8060270793
 10
-13.2188402329
 20
8.8361175506
 10
-13.2328421191
 20
8.8649313427
 10
-13.2499747887
 20
8.8922841736
 10
-13.2701515962
 20
8.9178708821
 10
-13.2930578095
 20
8.9411853815
 10
-13.3183197273
 20
8.9618370392
 10
-13.3457266714
 20
8.979652693
 10
-13.3549055571
 20
8.9847199838
  0
LINE
  5
300
100
AcDbEntity
  8
262606150
100
AcDbLine
 62
253
  6
CONTINUOUS
 10
-13.2625229848
 20
8.6343921336
 11
-13.2622522239
 21
8.6081738612
  0
LINE
  5
301
100
AcDbEntity
  8
262606150
100
AcDbLine
 62
253
  6
CONTINUOUS
 10
-13.2622522239
 20
8.6081738612
 11
-13.2724770952
 21
8.1956627175
  0
LINE
  5
302
100
AcDbEntity
  8
262606150
100
AcDbLine
 62
253
  6
CONTINUOUS
 10
-14.3232786115
 20
-34.3862124389
 11
-14.3029118789
 21
-33.5645390965
  0
LINE
  5
303
100
AcDbEntity
  8
262606150
100
AcDbLine
 62
7
  6
CONTINUOUS
 10
-13.1953765369
 20
8.712156484
 11
-13.2056014082
 21
8.2996453404
  0
LINE
  5
304
100
AcDbEntity
  8
262606150
100
AcDbLine
 62
7
  6
CONTINUOUS
 10
-14.2564029245
 20
-34.282229816
 11
-14.2375419596
 21
-33.5213050093
  0
LWPOLYLINE
  5
305
100
AcDbEntity
  8
262606150
100
AcDbPolyline
 62
253
  6
CONTINUOUS
 90
7
 70
0
 10
-13.2056026891
 20
8.2995942077
 10
-13.2058822438
 20
8.2942883054
 10
-13.210032345
 20
8.2727863144
 10
-13.2189513828
 20
8.251842779
 10
-13.2324910552
 20
8.2317966661
 10
-13.250430345
 20
8.2129690965
 10
-13.2724770952
 20
8.1956627175
  0
LWPOLYLINE
  5
306
100
AcDbEntity
  8
262606150
100
AcDbPolyline
 62
253
  6
CONTINUOUS
 90
7
 70
0
 10
-13.1953765369
 20
8.712156484
 10
-13.1956969448
 20
8.7063203313
 10
-13.1999208766
 20
8.6849315596
 10
-13.2088677011
 20
8.6640969841
 10
-13.2223943578
 20
8.6441497519
 10
-13.2402845541
 20
8.6254088211
 10
-13.2622522239
 20
8.6081738612
  0
LINE
  5
307
100
AcDbEntity
  8
262606150
100
AcDbLine
 62
7
  6
CONTINUOUS
 10
-14.2574681955
 20
-34.3011205981
 11
-14.2563986488
 21
-34.2820506461
  0
LWPOLYLINE
  5
308
100
AcDbEntity
  8
262606150
100
AcDbPolyline
 62
253
  6
CONTINUOUS
 90
8
 70
0
 10
-13.2724770952
 20
8.1956627175
 10
-13.2740554038
 20
8.1706770581
 10
-13.278182025
 20
8.1471925087
 10
-13.2848117239
 20
8.1254677626
 10
-13.2938730247
 20
8.105739755
 10
-13.3052656161
 20
8.0882288685
 10
-13.3188585023
 20
8.0731335345
 10
-13.3321245994
 20
8.0622572557
  0
LINE
  5
309
100
AcDbEntity
  8
262606150
100
AcDbLine
 62
7
  6
CONTINUOUS
 10
-13.2077918674
 20
8.2701422203
 11
-13.2056026891
 21
8.2995942077
  0
LWPOLYLINE
  5
30A
100
AcDbEntity
  8
262606150
100
AcDbPolyline
 62
7
  6
CONTINUOUS
 90
8
 70
0
 10
-13.3321509575
 20
8.0622385939
 10
-13.3191024902
 20
8.072020614
 10
-13.2906189398
 20
8.0977417539
 10
-13.2655761031
 20
8.1269900795
 10
-13.2443900585
 20
8.1593741979
 10
-13.2274608952
 20
8.1944332698
 10
-13.2151657781
 20
8.2315765268
 10
-13.2077918674
 20
8.2701422203
  0
LINE
  5
30B
100
AcDbEntity
  8
262606150
100
AcDbLine
 62
253
  6
CONTINUOUS
 10
-13.7296869203
 20
7.8718632757
 11
-13.2724770952
 21
8.1956627175
  0
LINE
  5
30C
100
AcDbEntity
  8
262606150
100
AcDbLine
 62
7
  6
CONTINUOUS
 10
-13.6560467254
 20
7.8328531662
 11
-13.3321245994
 21
8.0622572557
  0
LWPOLYLINE
  5
30D
100
AcDbEntity
  8
262606150
100
AcDbPolyline
 62
253
  6
CONTINUOUS
 90
8
 70
0
 10
-13.9077980909
 20
9.4438710942
 10
-13.8918207491
 20
9.4548734281
 10
-13.8785794608
 20
9.4662436018
 10
-13.8682982579
 20
9.477789211
 10
-13.8611510769
 20
9.4893148933
 10
-13.8572588278
 20
9.5006256131
 10
-13.8566873333
 20
9.5115299631
 10
-13.8571171029
 20
9.5144436957
  0
LINE
  5
30E
100
AcDbEntity
  8
262606150
100
AcDbLine
 62
253
  6
CONTINUOUS
 10
-14.5129240804
 20
8.2867748251
 11
-13.4856688625
 21
8.9683115202
  0
LINE
  5
30F
100
AcDbEntity
  8
262606150
100
AcDbLine
 62
253
  6
CONTINUOUS
 10
-14.0868705019
 20
8.0610774765
 11
-13.2622522239
 21
8.6081738612
  0
LINE
  5
310
100
AcDbEntity
  8
262606150
100
AcDbLine
 62
253
  6
CONTINUOUS
 10
-13.9077980909
 20
9.4438710942
 11
-15.1894473278
 21
8.6451558151
  0
LINE
  5
311
100
AcDbEntity
  8
262606150
100
AcDbLine
 62
7
  6
CONTINUOUS
 10
-14.2180575988
 20
9.6987770332
 11
-15.6062525952
 21
8.8659539693
  0
LINE
  5
312
100
AcDbEntity
  8
262606150
100
AcDbLine
 62
7
  6
CONTINUOUS
 10
-13.933555935
 20
9.2055749299
 11
-15.0190099134
 21
8.5548684088
  0
LINE
  5
313
100
AcDbEntity
  8
262606150
100
AcDbLine
 62
7
  6
CONTINUOUS
 10
-17.5151776361
 20
11.0959110736
 11
-17.5513368537
 21
11.083385423
  0
LWPOLYLINE
  5
314
100
AcDbEntity
  8
262606150
100
AcDbPolyline
 62
253
  6
CONTINUOUS
 90
8
 70
0
 10
-17.5695302744
 20
11.0748434514
 10
-17.5515878133
 20
11.0810579321
 10
-17.5323366918
 20
11.084261577
 10
-17.5120151489
 20
11.0844070725
 10
-17.4909365454
 20
11.0815109501
 10
-17.4693707678
 20
11.0756525974
 10
-17.4475281644
 20
11.0669300894
 10
-17.4256459953
 20
11.0554724723
  0
LWPOLYLINE
  5
315
100
AcDbEntity
  8
262606150
100
AcDbPolyline
 62
253
  6
CONTINUOUS
 90
10
 70
0
 10
21.9030451972
 20
-19.7025237743
 10
22.1028194661
 20
-19.7235475591
 10
22.3000483707
 20
-19.7521508098
 10
22.49383582
 20
-19.7882035703
 10
22.6833013588
 20
-19.831542038
 10
22.8675841682
 20
-19.8819693089
 10
23.0458469765
 20
-19.9392562713
 10
23.2172798632
 20
-20.0031426472
 10
23.3811039391
 20
-20.0733381749
 10
23.5365748848
 20
-20.1495239275
  0
LWPOLYLINE
  5
316
100
AcDbEntity
  8
262606150
100
AcDbPolyline
 62
253
  6
CONTINUOUS
 90
15
 70
0
 10
21.9030451972
 20
-19.7025237743
 10
21.8006686869
 20
-19.6906545488
 10
21.7006964639
 20
-19.6728309396
 10
21.6042085501
 20
-19.649245541
 10
21.5122473634
 20
-19.6201538488
 10
21.4258062984
 20
-19.5858695626
 10
21.345819039
 20
-19.5467611527
 10
21.2731496915
 20
-19.5032497251
 10
21.20858335
 20
-19.4558067301
 10
21.1528174876
 20
-19.4049469152
 10
21.1064545286
 20
-19.3512209269
 10
21.0699953744
 20
-19.2952079758
 10
21.0438339376
 20
-19.2375118033
 10
21.0282528621
 20
-19.178755119
 10
21.0235048981
 20
-19.1146632515
  0
LWPOLYLINE
  5
317
100
AcDbEntity
  8
262606150
100
AcDbPolyline
 62
253
  6
CONTINUOUS
 90
10
 70
0
 10
-29.06450508
 20
12.064752454
 10
-28.9933514703
 20
11.970203551
 10
-28.9302903378
 20
11.864860065
 10
-28.8756134094
 20
11.749209326
 10
-28.829573626
 20
11.6237863463
 10
-28.7923839723
 20
11.4891713458
 10
-28.7642164912
 20
11.3459870677
 10
-28.7452014882
 20
11.1948958975
 10
-28.7354269282
 20
11.0365967984
 10
-28.7349380292
 20
10.8718220785
  0
LINE
  5
318
100
AcDbEntity
  8
262606150
100
AcDbLine
 62
7
  6
CONTINUOUS
 10
19.186957771
 20
-51.2274511655
 11
19.1868693806
 21
-51.2273276175
  0
LWPOLYLINE
  5
319
100
AcDbEntity
  8
262606150
100
AcDbPolyline
 62
253
  6
CONTINUOUS
 90
22
 70
0
 10
-29.06450508
 20
12.064752454
 10
-29.0996665437
 20
12.1143745349
 10
-29.1284087532
 20
12.1721989852
 10
-29.1504213815
 20
12.2376014801
 10
-29.1654667607
 20
12.3098758756
 10
-29.1733824473
 20
12.3882418323
 10
-29.1740829764
 20
12.4718532409
 10
-29.1675607845
 20
12.5598073576
 10
-29.1538862911
 20
12.6511545506
 10
-29.1332071381
 20
12.7449085535
 10
-29.1057465965
 20
12.8400571138
 10
-29.0718011548
 20
12.9355729223
 10
-29.0317373186
 20
13.0304247044
 10
-28.985987653
 20
13.123588355
 10
-28.9350461126
 20
13.2140579955
 10
-28.8794627079
 20
13.3008568346
 10
-28.8198375674
 20
13.3830477139
 10
-28.7568144577
 20
13.4597432267
 10
-28.6910738329
 20
13.5301152995
 10
-28.6233254879
 20
13.593404132
 10
-28.5543008947
 20
13.6489264012
 10
-28.4847453049
 20
13.6960826388
  0
LWPOLYLINE
  5
31A
100
AcDbEntity
  8
262606150
100
AcDbPolyline
 62
253
  6
CONTINUOUS
 90
10
 70
0
 10
-29.1850909662
 20
12.1345107663
 10
-29.1234611488
 20
12.0453995407
 10
-29.0704073313
 20
11.94577798
 10
-29.0262221601
 20
11.836137647
 10
-28.9912111053
 20
11.7170543147
 10
-28.96555564
 20
11.5890889667
 10
-28.9492809774
 20
11.452759766
 10
-28.9424475683
 20
11.3086780969
 10
-28.9451805791
 20
11.1575701902
 10
-28.9575127934
 20
11.0001601892
  0
LWPOLYLINE
  5
31B
100
AcDbEntity
  8
262606150
100
AcDbPolyline
 62
253
  6
CONTINUOUS
 90
23
 70
0
 10
19.5402425199
 20
-56.9717041237
 10
19.5117088236
 20
-56.9234110231
 10
19.4903308776
 20
-56.8699643184
 10
19.4771658834
 20
-56.8122996807
 10
19.4707358279
 20
-56.7500437929
 10
19.4677107878
 20
-56.6819159758
 10
19.4671858401
 20
-56.608029108
 10
19.4709022585
 20
-56.5299239054
 10
19.4798730862
 20
-56.4487661466
 10
19.4940984631
 20
-56.365238764
 10
19.5136059463
 20
-56.2801531083
 10
19.5389716602
 20
-56.1946928767
 10
19.5701312271
 20
-56.1097060443
 10
19.6063762982
 20
-56.025650975
 10
19.6471190786
 20
-55.9430661865
 10
19.6919504567
 20
-55.8626099236
 10
19.7405357686
 20
-55.7849999967
 10
19.7924319327
 20
-55.7108804952
 10
19.847182113
 20
-55.6408724283
 10
19.9043276421
 20
-55.5755741833
 10
19.9633896786
 20
-55.5155452694
 10
20.0238634614
 20
-55.4612942316
 10
20.0852274708
 20
-55.4132770949
  0
LWPOLYLINE
  5
31C
100
AcDbEntity
  8
262606150
100
AcDbPolyline
 62
253
  6
CONTINUOUS
 90
22
 70
0
 10
-29.9666007822
 20
32.5924522022
 10
-29.9382313404
 20
32.5350600312
 10
-29.8996384691
 20
32.4794804577
 10
-29.8512390495
 20
32.4263139292
 10
-29.7935558771
 20
32.3761348042
 10
-29.7272121009
 20
32.3294852247
 10
-29.6529245349
 20
32.2868692395
 10
-29.571495774
 20
32.248747261
 10
-29.4838054826
 20
32.2155311098
 10
-29.3908010057
 20
32.1875796303
 10
-29.2934870993
 20
32.1651947908
 10
-29.1929150755
 20
32.1486184218
 10
-29.0901714446
 20
32.1380296027
 10
-28.9863661777
 20
32.1335427278
 10
-28.882620715
 20
32.1352062703
 10
-28.7800558506
 20
32.1430022583
 10
-28.6797796243
 20
32.1568464695
 10
-28.5828753508
 20
32.1765893405
 10
-28.4903899169
 20
32.202017583
 10
-28.403322471
 20
32.232856488
 10
-28.3226136296
 20
32.2687728933
 10
-28.2491353151
 20
32.3093787828
  0
LWPOLYLINE
  5
31D
100
AcDbEntity
  8
262606150
100
AcDbPolyline
 62
253
  6
CONTINUOUS
 90
10
 70
0
 10
-29.9666007822
 20
32.5924522022
 10
-30.0182295235
 20
32.7045886849
 10
-30.082908963
 20
32.8147152564
 10
-30.1603452456
 20
32.9223315055
 10
-30.2501865839
 20
33.0269484761
 10
-30.3520247789
 20
33.1280907954
 10
-30.4653970391
 20
33.2252988449
 10
-30.589788206
 20
33.3181309696
 10
-30.7246331298
 20
33.4061654747
 10
-30.8693191347
 20
33.4890024544
  0
LWPOLYLINE
  5
31E
100
AcDbEntity
  8
262606150
100
AcDbPolyline
 62
7
  6
CONTINUOUS
 90
4
 70
0
 10
-16.4568001781
 20
10.8915981526
 10
-16.4656197432
 20
10.9252693994
 10
-16.4779253056
 20
10.9559353075
 10
-16.4932327126
 20
10.9840302811
  0
LWPOLYLINE
  5
31F
100
AcDbEntity
  8
262606150
100
AcDbPolyline
 62
253
  6
CONTINUOUS
 90
5
 70
0
 10
-16.5074811626
 20
10.8210255325
 10
-16.5141518252
 20
10.8488567603
 10
-16.523501052
 20
10.8770005781
 10
-16.5354135107
 20
10.9050261118
 10
-16.5497503136
 20
10.9325291886
  0
LINE
  5
320
100
AcDbEntity
  8
262606150
100
AcDbLine
 62
253
  6
CONTINUOUS
 10
-16.4661302597
 20
10.6063551456
 11
-16.5074811626
 21
10.8210255325
  0
LINE
  5
321
100
AcDbEntity
  8
262606150
100
AcDbLine
 62
7
  6
CONTINUOUS
 10
-16.4014555485
 20
10.6042802893
 11
-16.4568001745
 21
10.891598134
  0
LINE
  5
322
100
AcDbEntity
  8
262606150
100
AcDbLine
 62
253
  6
CONTINUOUS
 10
-13.8664471881
 20
9.2292007073
 11
-13.9077980909
 21
9.4438710942
  0
LINE
  5
323
100
AcDbEntity
  8
262606150
100
AcDbLine
 62
7
  6
CONTINUOUS
 10
-13.8017724769
 20
9.227125851
 11
-13.8571171029
 21
9.5144436957
  0
LWPOLYLINE
  5
324
100
AcDbEntity
  8
262606150
100
AcDbPolyline
 62
253
  6
CONTINUOUS
 90
6
 70
0
 10
-14.3232786115
 20
-34.3862124389
 10
-14.3260700799
 20
-34.4174474577
 10
-14.332801031
 20
-34.446241671
 10
-14.3433562964
 20
-34.4721024019
 10
-14.3575552725
 20
-34.4945871661
 10
-14.3751550109
 20
-34.5133112429
  0
LWPOLYLINE
  5
325
100
AcDbEntity
  8
262606150
100
AcDbPolyline
 62
253
  6
CONTINUOUS
 90
16
 70
0
 10
44.3927445984
 20
27.4171351997
 10
44.3234806722
 20
27.3848655894
 10
44.2486099334
 20
27.3565254275
 10
44.1687909144
 20
27.3323639998
 10
44.0847256711
 20
27.3125938374
 10
43.9971536071
 20
27.2973888477
 10
43.9068449705
 20
27.2868827845
 10
43.8145940792
 20
27.281168072
 10
43.7212123346
 20
27.2802949913
 10
43.6275210842
 20
27.2842712386
 10
43.534344398
 20
27.2930618574
 10
43.4425018201
 20
27.3065895457
 10
43.3528011604
 20
27.3247353365
 10
43.2660313892
 20
27.3473396435
 10
43.182955698
 20
27.3742036655
 10
43.1043047869
 20
27.4050911342
  0
LINE
  5
326
100
AcDbEntity
  8
262606150
100
AcDbLine
 62
7
  6
CONTINUOUS
 10
19.575019576
 20
-8.4755902604
 11
19.5580494473
 21
-8.4770706418
  0
LINE
  5
327
100
AcDbEntity
  8
262606150
100
AcDbLine
 62
7
  6
CONTINUOUS
 10
16.9753365043
 20
-7.0984358222
 11
16.9583663757
 21
-7.0999162035
  0
LWPOLYLINE
  5
328
100
AcDbEntity
  8
262606150
100
AcDbPolyline
 62
253
  6
CONTINUOUS
 90
10
 70
0
 10
22.057895958
 20
-13.4552407967
 10
22.2576695514
 20
-13.4762645686
 10
22.4548979573
 20
-13.5048677634
 10
22.6486850842
 20
-13.540920444
 10
22.8381504598
 20
-13.5842588236
 10
23.0224332694
 20
-13.6346860181
 10
23.2006962643
 20
-13.6919729455
 10
23.3721295141
 20
-13.7558593521
 10
23.5359540911
 20
-13.8260549905
 10
23.6914256456
 20
-13.90224095
  0
LWPOLYLINE
  5
329
100
AcDbEntity
  8
262606150
100
AcDbPolyline
 62
253
  6
CONTINUOUS
 90
15
 70
0
 10
22.057895958
 20
-13.4552407967
 10
21.9555191088
 20
-13.4433721508
 10
21.8555466691
 20
-13.4255484752
 10
21.7590586603
 20
-13.4019623816
 10
21.6670975359
 20
-13.3728687647
 10
21.5806566324
 20
-13.33858196
 10
21.5006695005
 20
-13.2994722947
 10
21.4280001896
 20
-13.255962233
 10
21.3634338515
 20
-13.2085218635
 10
21.3076680134
 20
-13.157663697
 10
21.2613051283
 20
-13.1039371678
 10
21.2248460667
 20
-13.0479226979
 10
21.1986847056
 20
-12.9902254262
 10
21.1831036731
 20
-12.9314686718
 10
21.1783557765
 20
-12.8673755259
  0
LWPOLYLINE
  5
32A
100
AcDbEntity
  8
262606150
100
AcDbPolyline
 62
253
  6
CONTINUOUS
 90
7
 70
0
 10
21.17922513
 20
-15.5595304429
 10
21.1421322736
 20
-15.5429383423
 10
21.10500468
 20
-15.5257812386
 10
21.067842349
 20
-15.5080591318
 10
21.0306452808
 20
-15.4897720219
 10
20.9934134753
 20
-15.4709199089
 10
20.9561469325
 20
-15.4515027927
  0
LINE
  5
32B
100
AcDbEntity
  8
262606150
100
AcDbLine
 62
7
  6
CONTINUOUS
 10
-29.0751097774
 20
7.8803466337
 11
20.6159752206
 21
-18.442976772
  0
LINE
  5
32C
100
AcDbEntity
  8
262606150
100
AcDbLine
 62
253
  6
CONTINUOUS
 10
-29.1429606267
 20
8.8995426101
 11
20.5481241761
 21
-17.4237812379
  0
LWPOLYLINE
  5
32D
100
AcDbEntity
  8
262606150
100
AcDbPolyline
 62
253
  6
CONTINUOUS
 90
7
 70
0
 10
20.5481241765
 20
-17.423781238
 10
20.5681980998
 20
-17.4345774903
 10
20.588287205
 20
-17.4457072451
 10
20.6083872459
 20
-17.4571694784
 10
20.6284939455
 20
-17.4689630824
 10
20.6486029964
 20
-17.4810868651
 10
20.6687100622
 20
-17.4935395501
  0
LWPOLYLINE
  5
32E
100
AcDbEntity
  8
262606150
100
AcDbPolyline
 62
7
  6
CONTINUOUS
 90
25
 70
0
 10
20.6159752206
 20
-18.442976772
 10
20.6293878023
 20
-18.4505586936
 10
20.6462428271
 20
-18.4612449839
 10
20.6661763348
 20
-18.4753018207
 10
20.6888451136
 20
-18.4929758362
 10
20.7137298325
 20
-18.5143333871
 10
20.7401549188
 20
-18.5392137475
 10
20.767611831
 20
-18.5675050489
 10
20.7956238748
 20
-18.5990543328
 10
20.8235820946
 20
-18.6334667259
 10
20.8510781046
 20
-18.6704854783
 10
20.877611649
 20
-18.709643596
 10
20.9025334905
 20
-18.7500795603
 10
20.9255300579
 20
-18.7912674222
 10
20.9463358003
 20
-18.8326441309
 10
20.9645663743
 20
-18.8732058565
 10
20.9801326727
 20
-18.912327558
 10
20.9930664945
 20
-18.949533872
 10
21.0033724005
 20
-18.9840845179
 10
21.0112043728
 20
-19.0154531302
 10
21.0168249539
 20
-19.0433592609
 10
21.0205177918
 20
-19.0674912668
 10
21.0226076422
 20
-19.0875572468
 10
21.0234660265
 20
-19.1033297533
 10
21.0235050403
 20
-19.114657512
  0
LWPOLYLINE
  5
32F
100
AcDbEntity
  8
262606150
100
AcDbPolyline
 62
253
  6
CONTINUOUS
 90
37
 70
0
 10
-28.9574729933
 20
11.0017702088
 10
-29.0183967321
 20
11.0406766256
 10
-29.081194266
 20
11.0823686202
 10
-29.1458358913
 20
11.1269828181
 10
-29.2121810501
 20
11.1745794209
 10
-29.2803017202
 20
11.2253727371
 10
-29.3504387189
 20
11.2797317289
 10
-29.4224107086
 20
11.3376635661
 10
-29.496004644
 20
11.3992700933
 10
-29.5712969114
 20
11.4650354648
 10
-29.6480754014
 20
11.5350688149
 10
-29.7261742284
 20
11.609462962
 10
-29.8057259841
 20
11.6887557488
 10
-29.886489094
 20
11.773084357
 10
-29.9682697533
 20
11.8625820578
 10
-30.0512073546
 20
11.9578320383
 10
-30.1350223342
 20
12.0590179409
 10
-30.2194052882
 20
12.1662439265
 10
-30.3043664157
 20
12.2800259321
 10
-30.3895353333
 20
12.4005204655
 10
-30.4744543717
 20
12.5277741402
 10
-30.5589044158
 20
12.6621603326
 10
-30.6423966556
 20
12.8037854658
 10
-30.7242831496
 20
12.9525083328
 10
-30.804014515
 20
13.1082880487
 10
-30.8810834107
 20
13.2713459289
 10
-30.9545617295
 20
13.4410451638
 10
-31.0233287847
 20
13.6159336195
 10
-31.0868760602
 20
13.796061314
 10
-31.1443089086
 20
13.9804299724
 10
-31.1943569747
 20
14.1659006735
 10
-31.2366634685
 20
14.3518399227
 10
-31.2708651133
 20
14.5375981452
 10
-31.2963902944
 20
14.7200887255
 10
-31.3132524907
 20
14.8979824279
 10
-31.3216419675
 20
15.0715722639
 10
-31.3216539055
 20
15.2403470539
  0
LWPOLYLINE
  5
330
100
AcDbEntity
  8
262606150
100
AcDbPolyline
 62
253
  6
CONTINUOUS
 90
37
 70
0
 10
-29.1850904532
 20
12.1345101116
 10
-29.2163070733
 20
12.1544440282
 10
-29.2483491198
 20
12.175754888
 10
-29.2811887539
 20
12.1984971917
 10
-29.3147156756
 20
12.2226653257
 10
-29.3489753894
 20
12.2483676506
 10
-29.3841637453
 20
12.2758451994
 10
-29.4202188465
 20
12.305154496
 10
-29.4571012203
 20
12.3363704641
 10
-29.4950204113
 20
12.3697977912
 10
-29.533917512
 20
12.4055335868
 10
-29.5736946749
 20
12.4436417101
 10
-29.6144761992
 20
12.4844133418
 10
-29.6561623924
 20
12.5279476752
 10
-29.6986221032
 20
12.5743168567
 10
-29.7418989093
 20
12.6237992978
 10
-29.7858449045
 20
12.6764882975
 10
-29.830278118
 20
12.7324444033
 10
-29.8751488052
 20
12.7919119003
 10
-29.9202477545
 20
12.8549585054
 10
-29.9653283904
 20
12.9216093944
 10
-30.0102341987
 20
12.9920414751
 10
-30.0547001198
 20
13.0662989877
 10
-30.0983839373
 20
13.1443098499
 10
-30.1409656128
 20
13.2260448646
 10
-30.1821788786
 20
13.3116138556
 10
-30.2215296957
 20
13.4006787159
 10
-30.2583848045
 20
13.4924652868
 10
-30.2924778805
 20
13.5869968464
 10
-30.3233369794
 20
13.6837465619
 10
-30.3502415338
 20
13.7810430955
 10
-30.3729965485
 20
13.8785462234
 10
-30.3914233342
 20
13.9759279216
 10
-30.4051926637
 20
14.0715558509
 10
-30.4142989425
 20
14.1647119938
 10
-30.4188580561
 20
14.2555485692
 10
-30.4189282167
 20
14.3438012583
  0
LINE
  5
331
100
AcDbEntity
  8
262606150
100
AcDbLine
 62
7
  6
CONTINUOUS
 10
-16.4932327126
 20
10.9840302811
 11
-16.5120255137
 21
11.0106685524
  0
LINE
  5
332
100
AcDbEntity
  8
262606150
100
AcDbLine
 62
7
  6
CONTINUOUS
 10
-13.893549641
 20
9.6068758428
 11
-13.9123424421
 21
9.6335141142
  0
LWPOLYLINE
  5
333
100
AcDbEntity
  8
262606150
100
AcDbPolyline
 62
253
  6
CONTINUOUS
 90
6
 70
0
 10
-16.5497503136
 20
10.9325291886
 10
-16.566299427
 20
10.9590382046
 10
-16.5847533116
 20
10.9840368185
 10
-16.6048008064
 20
11.0071106161
 10
-16.6261463121
 20
11.0279258639
 10
-16.6484446155
 20
11.046149147
  0
LWPOLYLINE
  5
334
100
AcDbEntity
  8
262606150
100
AcDbPolyline
 62
253
  6
CONTINUOUS
 90
6
 70
0
 10
-13.9500672419
 20
9.5553747504
 10
-13.9666163553
 20
9.5818837663
 10
-13.9850702399
 20
9.6068823802
 10
-14.0051177348
 20
9.6299561779
 10
-14.0264632405
 20
9.6507714257
 10
-14.0487615439
 20
9.6689947088
  0
LWPOLYLINE
  5
335
100
AcDbEntity
  8
262606150
100
AcDbPolyline
 62
253
  6
CONTINUOUS
 90
7
 70
0
 10
-13.3154091
 20
8.8025763967
 10
-13.3008590363
 20
8.7749388204
 10
-13.2884276355
 20
8.7466497368
 10
-13.2782753629
 20
8.7180615033
 10
-13.2705411791
 20
8.6896059745
 10
-13.2652856232
 20
8.661630371
 10
-13.2625229848
 20
8.6343921336
  0
LINE
  5
336
100
AcDbEntity
  8
262606150
100
AcDbLine
 62
7
  6
CONTINUOUS
 10
22.2014844869
 20
-61.5461808452
 11
21.9477715434
 21
-61.0229721829
  0
LINE
  5
337
100
AcDbEntity
  8
262606150
100
AcDbLine
 62
7
  6
CONTINUOUS
 10
21.5687033992
 20
-61.3798789411
 11
21.3894705702
 21
-61.0092153947
  0
LINE
  5
338
100
AcDbEntity
  8
262606150
100
AcDbLine
 62
7
  6
CONTINUOUS
 10
21.8126550831
 20
-61.1060372686
 11
22.0662516417
 21
-61.6293677582
  0
LINE
  5
339
100
AcDbEntity
  8
262606150
100
AcDbLine
 62
7
  6
CONTINUOUS
 10
21.9477715434
 20
-61.0229721829
 11
21.7661730764
 21
-60.6435043988
  0
LINE
  5
33A
100
AcDbEntity
  8
262606150
100
AcDbLine
 62
7
  6
CONTINUOUS
 10
21.6311578977
 20
-60.7265203776
 11
21.8126550831
 21
-61.1060372686
  0
LINE
  5
33B
100
AcDbEntity
  8
262606150
100
AcDbLine
 62
7
  6
CONTINUOUS
 10
21.3894705702
 20
-61.0092153947
 11
21.2168441284
 21
-60.6480679933
  0
LINE
  5
33C
100
AcDbEntity
  8
262606150
100
AcDbLine
 62
7
  6
CONTINUOUS
 10
21.7661730764
 20
-60.6435043988
 11
21.6787051011
 21
-60.4590789569
  0
LINE
  5
33D
100
AcDbEntity
  8
262606150
100
AcDbLine
 62
7
  6
CONTINUOUS
 10
21.5142666046
 20
-60.4797218014
 11
21.6311578977
 21
-60.7265203776
  0
LINE
  5
33E
100
AcDbEntity
  8
262606150
100
AcDbLine
 62
7
  6
CONTINUOUS
 10
21.2168441284
 20
-60.6480679933
 11
21.0507506864
 21
-60.2964986168
  0
LWPOLYLINE
  5
33F
100
AcDbEntity
  8
262606150
100
AcDbPolyline
 62
253
  6
CONTINUOUS
 90
10
 70
0
 10
-29.5166756777
 20
50.8447072042
 10
-29.5655801176
 20
50.9542238331
 10
-29.6272798758
 20
51.0618545099
 10
-29.7015010479
 20
51.1671214375
 10
-29.7879141437
 20
51.2695573118
 10
-29.8861355489
 20
51.3687073959
 10
-29.9957292289
 20
51.4641315393
 10
-30.1162086637
 20
51.5554061313
 10
-30.2470390085
 20
51.6421259822
 10
-30.3876394676
 20
51.7239061215
  0
LWPOLYLINE
  5
340
100
AcDbEntity
  8
262606150
100
AcDbPolyline
 62
253
  6
CONTINUOUS
 90
21
 70
0
 10
-29.5166850639
 20
50.844706163
 10
-29.4932569465
 20
50.7909833561
 10
-29.4618023529
 20
50.7411424198
 10
-29.4226127421
 20
50.6952798249
 10
-29.3760146831
 20
50.6548628909
 10
-29.3224234488
 20
50.6183119936
 10
-29.2623582966
 20
50.5818531665
 10
-29.1963705712
 20
50.5445612179
 10
-29.1249491105
 20
50.5090197717
 10
-29.0486005404
 20
50.4771391421
 10
-28.9679127019
 20
50.4494117169
 10
-28.8835896736
 20
50.425927665
 10
-28.7963937444
 20
50.4074622175
 10
-28.7070918489
 20
50.3942933331
 10
-28.6164091537
 20
50.3861384802
 10
-28.5250818028
 20
50.3827867238
 10
-28.4338642436
 20
50.3842018862
 10
-28.3435275944
 20
50.3904193273
 10
-28.2548282499
 20
50.4013573621
 10
-28.1685074163
 20
50.4169151538
 10
-28.0852865244
 20
50.4369615174
  0
LWPOLYLINE
  5
341
100
AcDbEntity
  8
262606150
100
AcDbPolyline
 62
7
  6
CONTINUOUS
 90
10
 70
0
 10
13.5004521913
 20
-57.1776670794
 10
13.3987451805
 20
-56.8756184379
 10
13.3002244083
 20
-56.5783083605
 10
13.2048898747
 20
-56.285736847
 10
13.113693698
 20
-56.000986555
 10
13.0256837599
 20
-55.7209748269
 10
12.9380037049
 20
-55.4364536907
 10
12.8497014146
 20
-55.1443404891
 10
12.7617290074
 20
-54.8477178793
 10
12.6740864834
 20
-54.5465858615
  0
LWPOLYLINE
  5
342
100
AcDbEntity
  8
262606150
100
AcDbPolyline
 62
7
  6
CONTINUOUS
 90
4
 70
0
 10
-13.8571171065
 20
9.5144437144
 10
-13.8659366715
 20
9.5481149612
 10
-13.8782422339
 20
9.5787808692
 10
-13.893549641
 20
9.6068758428
  0
LWPOLYLINE
  5
343
100
AcDbEntity
  8
262606150
100
AcDbPolyline
 62
253
  6
CONTINUOUS
 90
5
 70
0
 10
-13.9077980909
 20
9.4438710942
 10
-13.9144687535
 20
9.471702322
 10
-13.9238179804
 20
9.4998461398
 10
-13.9357304391
 20
9.5278716735
 10
-13.9500672419
 20
9.5553747504
  0
LWPOLYLINE
  5
344
100
AcDbEntity
  8
262606150
100
AcDbPolyline
 62
253
  6
CONTINUOUS
 90
10
 70
0
 10
13.8585506796
 20
29.4610090241
 10
13.9352382384
 20
29.6348422897
 10
14.0052350778
 20
29.8099703176
 10
14.0682570145
 20
29.9856819028
 10
14.1240482185
 20
30.161263672
 10
14.1723820668
 20
30.336002408
 10
14.2130621453
 20
30.5091879589
 10
14.2459232588
 20
30.6801168901
 10
14.2708320192
 20
30.848095327
 10
14.2876872587
 20
31.0124412099
  0
LINE
  5
345
100
AcDbEntity
  8
262606150
100
AcDbLine
 62
7
  6
CONTINUOUS
 10
-20.0447248642
 20
-32.0886622516
 11
-19.9475620398
 21
-31.9268804246
  0
LINE
  5
346
100
AcDbEntity
  8
262606150
100
AcDbLine
 62
7
  6
CONTINUOUS
 10
-19.7027598224
 20
-31.9133130829
 11
-19.5934784914
 21
-31.7313532285
  0
LINE
  5
347
100
AcDbEntity
  8
262606150
100
AcDbLine
 62
7
  6
CONTINUOUS
 10
-19.348676274
 20
-31.7177858868
 11
-19.2393949431
 21
-31.5358260324
  0
LINE
  5
348
100
AcDbEntity
  8
262606150
100
AcDbLine
 62
7
  6
CONTINUOUS
 10
-18.9945927257
 20
-31.5222586907
 11
-18.8853113947
 21
-31.3402988363
  0
LWPOLYLINE
  5
349
100
AcDbEntity
  8
262606150
100
AcDbPolyline
 62
253
  6
CONTINUOUS
 90
8
 70
0
 10
0.2047671552
 20
1.9678898579
 10
0.220744497
 20
1.9788921918
 10
0.2339857853
 20
1.9902623655
 10
0.2442669881
 20
2.0018079747
 10
0.2514141692
 20
2.0133336571
 10
0.2553064183
 20
2.0246443768
 10
0.2558779128
 20
2.0355487268
 10
0.2554481432
 20
2.0384624594
  0
LINE
  5
34A
100
AcDbEntity
  8
262606150
100
AcDbLine
 62
253
  6
CONTINUOUS
 10
45.3258600801
 20
32.7755870938
 11
42.3876482558
 21
30.7822246277
  0
LINE
  5
34B
100
AcDbEntity
  8
262606150
100
AcDbLine
 62
253
  6
CONTINUOUS
 10
0.2047671552
 20
1.9678898579
 11
-1.0768820818
 21
1.1691745788
  0
LINE
  5
34C
100
AcDbEntity
  8
262606150
100
AcDbLine
 62
7
  6
CONTINUOUS
 10
-0.1054923527
 20
2.222795797
 11
-1.4936873491
 21
1.389972733
  0
LINE
  5
34D
100
AcDbEntity
  8
262606150
100
AcDbLine
 62
7
  6
CONTINUOUS
 10
2.4941907189
 20
0.8456413587
 11
1.1059957225
 21
0.0128182947
  0
LINE
  5
34E
100
AcDbEntity
  8
262606150
100
AcDbLine
 62
7
  6
CONTINUOUS
 10
0.1790093111
 20
1.7295936936
 11
-0.9064446673
 21
1.0788871725
  0
LINE
  5
34F
100
AcDbEntity
  8
262606150
100
AcDbLine
 62
253
  6
CONTINUOUS
 10
47.4930345268
 20
29.1291350925
 11
44.3927445984
 21
27.4171351997
  0
LINE
  5
350
100
AcDbEntity
  8
262606150
100
AcDbLine
 62
7
  6
CONTINUOUS
 10
-1.9582303136
 20
1.6360594242
 11
-0.8639585664
 21
2.2184445749
  0
LINE
  5
351
100
AcDbEntity
  8
262606150
100
AcDbLine
 62
253
  6
CONTINUOUS
 10
-1.8676064625
 20
1.5880524036
 11
-0.7133976775
 21
2.2023367977
  0
LINE
  5
352
100
AcDbEntity
  8
262606150
100
AcDbLine
 62
253
  6
CONTINUOUS
 10
-0.8639585664
 20
2.2184445749
 11
-0.8572819567
 21
2.2217077769
  0
LINE
  5
353
100
AcDbEntity
  8
262606150
100
AcDbLine
 62
7
  6
CONTINUOUS
 10
-0.839088536
 20
2.2302497485
 11
-0.8640353694
 21
2.2184036596
  0
LINE
  5
354
100
AcDbEntity
  8
262606150
100
AcDbLine
 62
7
  6
CONTINUOUS
 10
-0.8029293184
 20
2.242775399
 11
-0.839088536
 21
2.2302497485
  0
LWPOLYLINE
  5
355
100
AcDbEntity
  8
262606150
100
AcDbPolyline
 62
253
  6
CONTINUOUS
 90
8
 70
0
 10
-0.8572819567
 20
2.2217077769
 10
-0.8393394955
 20
2.2279222576
 10
-0.8200883741
 20
2.2311259025
 10
-0.7997668312
 20
2.231271398
 10
-0.7786882277
 20
2.2283752755
 10
-0.7571224501
 20
2.2225169228
 10
-0.7352798467
 20
2.2137944148
 10
-0.7133976775
 20
2.2023367977
  0
LINE
  5
356
100
AcDbEntity
  8
262606150
100
AcDbLine
 62
7
  6
CONTINUOUS
 10
2.8627712582
 20
0.3775454141
 11
2.8458011296
 21
0.3760650328
  0
LWPOLYLINE
  5
357
100
AcDbEntity
  8
262606150
100
AcDbPolyline
 62
253
  6
CONTINUOUS
 90
7
 70
0
 10
20.069646359
 20
-8.7215806245
 10
20.0578611051
 20
-8.7163987028
 10
20.0368722288
 20
-8.7115737829
 10
20.014081911
 20
-8.7113521479
 10
19.9898714949
 20
-8.7157375064
 10
19.9646460859
 20
-8.7246564795
 10
19.9388277729
 20
-8.7379598289
  0
LWPOLYLINE
  5
358
100
AcDbEntity
  8
262606150
100
AcDbPolyline
 62
253
  6
CONTINUOUS
 90
7
 70
0
 10
16.1296692262
 20
-6.6344196724
 10
16.1178839724
 20
-6.6292377507
 10
16.0968950961
 20
-6.6244128308
 10
16.0741047783
 20
-6.6241911958
 10
16.0498943621
 20
-6.6285765543
 10
16.0246689531
 20
-6.6374955274
 10
15.9988506402
 20
-6.6507988768
  0
LWPOLYLINE
  5
359
100
AcDbEntity
  8
262606150
100
AcDbPolyline
 62
253
  6
CONTINUOUS
 90
7
 70
0
 10
20.7474535588
 20
-14.316726153
 10
20.727258482
 20
-14.3078292397
 10
20.7070774915
 20
-14.2986098211
 10
20.6869148756
 20
-14.2890711877
 10
20.6667748902
 20
-14.2792166814
 10
20.6466617578
 20
-14.2690496951
 10
20.6265796667
 20
-14.2585736709
  0
LWPOLYLINE
  5
35A
100
AcDbEntity
  8
262606150
100
AcDbPolyline
 62
253
  6
CONTINUOUS
 90
7
 70
0
 10
-29.2638346167
 20
8.957697275
 10
-29.2436394299
 20
8.9488004294
 10
-29.223458388
 20
8.9395810424
 10
-29.2032957794
 20
8.9300424044
 10
-29.1831558601
 20
8.9201878575
 10
-29.1630428524
 20
8.9100207945
 10
-29.1429609448
 20
8.8995446574
  0
LWPOLYLINE
  5
35B
100
AcDbEntity
  8
262606150
100
AcDbPolyline
 62
253
  6
CONTINUOUS
 90
7
 70
0
 10
-28.966212513
 20
10.6491796065
 10
-28.9291196566
 20
10.632587506
 10
-28.891992063
 20
10.6154304024
 10
-28.8548297321
 20
10.5977082955
 10
-28.8176326638
 20
10.5794211856
 10
-28.7804008583
 20
10.5605690724
 10
-28.7431343155
 20
10.5411519562
  0
LWPOLYLINE
  5
35C
100
AcDbEntity
  8
262606150
100
AcDbPolyline
 62
7
  6
CONTINUOUS
 90
7
 70
0
 10
16.1296692262
 20
-6.6344196724
 10
16.0958999238
 20
-6.6191236187
 10
16.0600893298
 20
-6.6080078436
 10
16.0228480208
 20
-6.6014091237
 10
15.984764404
 20
-6.5995534819
 10
15.9466350199
 20
-6.6025601486
 10
15.9093189993
 20
-6.6103602755
  0
LINE
  5
35D
100
AcDbEntity
  8
262606150
100
AcDbLine
 62
253
  6
CONTINUOUS
 10
-28.7431343155
 20
10.5411519562
 11
20.9479506462
 21
-15.7821729154
  0
LINE
  5
35E
100
AcDbEntity
  8
262606150
100
AcDbLine
 62
253
  6
CONTINUOUS
 10
20.9561469325
 20
-15.4515027927
 11
-28.7349380292
 21
10.8718220785
  0
LINE
  5
35F
100
AcDbEntity
  8
262606150
100
AcDbLine
 62
253
  6
CONTINUOUS
 10
20.626580097
 20
-14.2585711637
 11
-29.06450508
 21
12.064752454
  0
LINE
  5
360
100
AcDbEntity
  8
262606150
100
AcDbLine
 62
253
  6
CONTINUOUS
 10
21.1845935124
 20
-12.6157209591
 11
-28.4847453049
 21
13.6960826388
  0
LINE
  5
361
100
AcDbEntity
  8
262606150
100
AcDbLine
 62
7
  6
CONTINUOUS
 10
-26.744720396
 20
14.7664387379
 11
21.233331917
 21
-10.6494238351
  0
LWPOLYLINE
  5
362
100
AcDbEntity
  8
262606150
100
AcDbPolyline
 62
253
  6
CONTINUOUS
 90
7
 70
0
 10
-29.0645050804
 20
12.0647524542
 10
-29.0845790037
 20
12.0755487064
 10
-29.1046681089
 20
12.0866784613
 10
-29.1247681499
 20
12.0981406946
 10
-29.1448748494
 20
12.1099342986
 10
-29.1649839003
 20
12.1220580813
 10
-29.1850909662
 20
12.1345107663
  0
LWPOLYLINE
  5
363
100
AcDbEntity
  8
262606150
100
AcDbPolyline
 62
253
  6
CONTINUOUS
 90
7
 70
0
 10
-28.7349380292
 20
10.8718220785
 10
-28.7721900607
 20
10.8918798202
 10
-28.8093800422
 20
10.9124523896
 10
-28.8465079735
 20
10.9335397868
 10
-28.8835738548
 20
10.9551420118
 10
-28.920577686
 20
10.9772590644
 10
-28.9575194671
 20
10.9998909448
  0
LWPOLYLINE
  5
364
100
AcDbEntity
  8
262606150
100
AcDbPolyline
 62
253
  6
CONTINUOUS
 90
7
 70
0
 10
20.9479506462
 20
-15.7821729154
 10
20.9852026777
 20
-15.8022306571
 10
21.0223926592
 20
-15.8228032266
 10
21.0595205906
 20
-15.8438906237
 10
21.0965864718
 20
-15.8654928487
 10
21.133590303
 20
-15.8876099013
 10
21.1705320841
 20
-15.9102417817
  0
LWPOLYLINE
  5
365
100
AcDbEntity
  8
262606150
100
AcDbPolyline
 62
253
  6
CONTINUOUS
 90
13
 70
0
 10
-28.4847453049
 20
13.6960826388
 10
-28.5137779417
 20
13.713599765
 10
-28.542209244
 20
13.7350365615
 10
-28.5695527517
 20
13.7600262442
 10
-28.5953406169
 20
13.7881412393
 10
-28.6191316086
 20
13.8189004986
 10
-28.6405186627
 20
13.8517777307
 10
-28.6591357885
 20
13.8862102876
 10
-28.6746645251
 20
13.9216091391
 10
-28.6868392825
 20
13.9573689748
 10
-28.695451666
 20
13.992878055
 10
-28.700354155
 20
14.0275286574
 10
-28.7014627495
 20
14.0607278389
  0
LWPOLYLINE
  5
366
100
AcDbEntity
  8
262606150
100
AcDbPolyline
 62
253
  6
CONTINUOUS
 90
37
 70
0
 10
21.1704839277
 20
-15.9121220806
 10
21.2322628386
 20
-15.9505024533
 10
21.2958720946
 20
-15.9916951317
 10
21.3612622994
 20
-16.0358488552
 10
21.428267824
 20
-16.0830392475
 10
21.4969339894
 20
-16.1334970148
 10
21.5674822903
 20
-16.1876030053
 10
21.6397248422
 20
-16.2453684162
 10
21.7134348508
 20
-16.3069035493
 10
21.7886684369
 20
-16.372705025
 10
21.8652244261
 20
-16.4428752513
 10
21.9429665518
 20
-16.5174888264
 10
22.0220607533
 20
-16.59706308
 10
22.1022938019
 20
-16.6817177568
 10
22.1834948747
 20
-16.7715719912
 10
22.265831014
 20
-16.8671919621
 10
22.3490541191
 20
-16.968741958
 10
22.4328734695
 20
-17.0763146464
 10
22.5173164257
 20
-17.1904154077
 10
22.6020348566
 20
-17.3111870615
 10
22.686587453
 20
-17.4386661574
 10
22.7707635496
 20
-17.5732208732
 10
22.8540782329
 20
-17.7149552352
 10
22.9358889144
 20
-17.8637247434
 10
23.0156517282
 20
-18.0194851178
 10
23.0928521877
 20
-18.182462069
 10
23.1665480395
 20
-18.3520274894
 10
23.2356161534
 20
-18.5267307476
 10
23.2995307381
 20
-18.7066324885
 10
23.3573570212
 20
-18.8907591197
 10
23.4078093997
 20
-19.0759810992
 10
23.4505217494
 20
-19.2616706751
 10
23.4850888512
 20
-19.4472040728
 10
23.5109063603
 20
-19.6295148096
 10
23.5279939967
 20
-19.8072698112
 10
23.5365244208
 20
-19.9807729194
 10
23.5365676477
 20
-20.1495284357
  0
LWPOLYLINE
  5
367
100
AcDbEntity
  8
262606150
100
AcDbPolyline
 62
253
  6
CONTINUOUS
 90
37
 70
0
 10
20.6687107812
 20
-17.4935381376
 10
20.7001465166
 20
-17.5133372705
 10
20.7323869414
 20
-17.5345261029
 10
20.7654041939
 20
-17.5571591495
 10
20.7990928731
 20
-17.581227783
 10
20.8334935486
 20
-17.6068434
 10
20.8687872885
 20
-17.6342561263
 10
20.9049076707
 20
-17.6635252695
 10
20.941819713
 20
-17.6947229911
 10
20.9797317005
 20
-17.7281547532
 10
21.0185787203
 20
-17.7639213594
 10
21.0582689427
 20
-17.8020829671
 10
21.0989434455
 20
-17.8429204358
 10
21.1405014758
 20
-17.8865336113
 10
21.1828129693
 20
-17.9329939712
 10
21.2259414834
 20
-17.9825676368
 10
21.2697404182
 20
-18.0353471034
 10
21.3140264961
 20
-18.0913937227
 10
21.3587660038
 20
-18.1509419178
 10
21.4037521882
 20
-18.2140578936
 10
21.4487359927
 20
-18.2807683519
 10
21.4935695097
 20
-18.3512449059
 10
21.5379903788
 20
-18.4255301355
 10
21.5816536678
 20
-18.5035536288
 10
21.6242398244
 20
-18.585285889
 10
21.6654860805
 20
-18.6708345869
 10
21.704894903
 20
-18.7598637649
 10
21.7418230293
 20
-18.8516054174
 10
21.7760067386
 20
-18.946081221
 10
21.8069714977
 20
-19.0427659352
 10
21.833978936
 20
-19.139999174
 10
21.8568334366
 20
-19.237441096
 10
21.8753569287
 20
-19.3347632967
 10
21.8892042239
 20
-19.4303432552
 10
21.8983643992
 20
-19.5234662316
 10
21.902958654
 20
-19.6142811767
 10
21.9030451972
 20
-19.7025237743
  0
LWPOLYLINE
  5
368
100
AcDbEntity
  8
262606150
100
AcDbPolyline
 62
253
  6
CONTINUOUS
 90
9
 70
0
 10
-16.6484446155
 20
11.046149147
 10
-16.6713323783
 20
11.0614920863
 10
-16.6944651032
 20
11.0737320739
 10
-16.7175119085
 20
11.0826931766
 10
-16.7401301055
 20
11.0882312622
 10
-16.761946591
 20
11.0902438596
 10
-16.7825967136
 20
11.0886951799
 10
-16.8017766887
 20
11.0836060043
 10
-16.8177404887
 20
11.0759315805
  0
LWPOLYLINE
  5
369
100
AcDbEntity
  8
262606150
100
AcDbPolyline
 62
253
  6
CONTINUOUS
 90
9
 70
0
 10
-14.0487615439
 20
9.6689947088
 10
-14.0716493066
 20
9.684337648
 10
-14.0947820315
 20
9.6965776356
 10
-14.1178288369
 20
9.7055387383
 10
-14.1404470338
 20
9.711076824
 10
-14.1622635194
 20
9.7130894213
 10
-14.1829136419
 20
9.7115407416
 10
-14.2020936171
 20
9.7064515661
 10
-14.218057417
 20
9.6987771423
  0
LWPOLYLINE
  5
36A
100
AcDbEntity
  8
262606150
100
AcDbPolyline
 62
253
  6
CONTINUOUS
 90
5
 70
0
 10
-13.3915100795
 20
8.9011937108
 10
-13.3701935559
 20
8.8788845975
 10
-13.3502610335
 20
8.8548295798
 10
-13.3319346473
 20
8.8293014133
 10
-13.3154091
 20
8.8025763967
  0
LWPOLYLINE
  5
36B
100
AcDbEntity
  8
262606150
100
AcDbPolyline
 62
7
  6
CONTINUOUS
 90
13
 70
0
 10
-16.5120255137
 20
11.0106685524
 10
-16.5342951437
 20
11.0353851622
 10
-16.5583961542
 20
11.0563779788
 10
-16.5833610884
 20
11.0733599846
 10
-16.6097102575
 20
11.0870173713
 10
-16.6369658572
 20
11.0971904105
 10
-16.6643556577
 20
11.1037740358
 10
-16.6917719217
 20
11.1069399482
 10
-16.7193762448
 20
11.1067490516
 10
-16.7465695758
 20
11.1031923511
 10
-16.7730029672
 20
11.0963382566
 10
-16.7990490698
 20
11.0859479698
 10
-16.8178193509
 20
11.0758842171
  0
LWPOLYLINE
  5
36C
100
AcDbEntity
  8
262606150
100
AcDbPolyline
 62
7
  6
CONTINUOUS
 90
13
 70
0
 10
-13.9123424421
 20
9.6335141142
 10
-13.9346120721
 20
9.6582307239
 10
-13.9587130826
 20
9.6792235406
 10
-13.9836780167
 20
9.6962055463
 10
-14.0100271858
 20
9.7098629331
 10
-14.0372827856
 20
9.7200359722
 10
-14.0646725861
 20
9.7266195975
 10
-14.0920888501
 20
9.7297855099
 10
-14.1196931732
 20
9.7295946133
 10
-14.1468865041
 20
9.7260379129
 10
-14.1733198956
 20
9.7191838184
 10
-14.1993659981
 20
9.7087935315
 10
-14.2181362793
 20
9.6987297788
  0
LINE
  5
36D
100
AcDbEntity
  8
262606150
100
AcDbLine
 62
7
  6
CONTINUOUS
 10
19.856489921
 20
-60.1379170987
 11
20.0142955295
 21
-60.5891677345
  0
LINE
  5
36E
100
AcDbEntity
  8
262606150
100
AcDbLine
 62
7
  6
CONTINUOUS
 10
19.5774167786
 20
-60.3646588627
 11
19.4583636144
 21
-60.0236910949
  0
LWPOLYLINE
  5
36F
100
AcDbEntity
  8
262606150
100
AcDbPolyline
 62
7
  6
CONTINUOUS
 90
9
 70
0
 10
20.149446327
 20
-60.5060312922
 10
19.928131855
 20
-59.8701650493
 10
19.8242947697
 20
-59.5654515918
 10
19.7253842971
 20
-59.2704697556
 10
19.6310205917
 20
-58.9843010286
 10
19.5400641166
 20
-58.7041898747
 10
19.4521350262
 20
-58.4292177816
 10
19.3676131662
 20
-58.1603032614
 10
19.2864985365
 20
-57.8974463142
  0
LINE
  5
370
100
AcDbEntity
  8
262606150
100
AcDbLine
 62
7
  6
CONTINUOUS
 10
19.4583636144
 20
-60.0236910949
 11
19.4006258033
 21
-59.8560328077
  0
LINE
  5
371
100
AcDbEntity
  8
262606150
100
AcDbLine
 62
7
  6
CONTINUOUS
 10
19.7616368666
 20
-59.8615358434
 11
19.856489921
 21
-60.1379170987
  0
LINE
  5
372
100
AcDbEntity
  8
262606150
100
AcDbLine
 62
7
  6
CONTINUOUS
 10
19.6210632354
 20
-59.4444040638
 11
19.7616368666
 21
-59.8615358434
  0
LINE
  5
373
100
AcDbEntity
  8
262606150
100
AcDbLine
 62
7
  6
CONTINUOUS
 10
19.2335625701
 20
-59.3623034017
 11
19.1150394763
 21
-59.0040256661
  0
LINE
  5
374
100
AcDbEntity
  8
262606150
100
AcDbLine
 62
7
  6
CONTINUOUS
 10
19.4777934958
 20
-59.0100176101
 11
19.6210632354
 21
-59.4444040638
  0
LINE
  5
375
100
AcDbEntity
  8
262606150
100
AcDbLine
 62
7
  6
CONTINUOUS
 10
19.1150394763
 20
-59.0040256661
 11
19.0026393256
 21
-58.6578895567
  0
LINE
  5
376
100
AcDbEntity
  8
262606150
100
AcDbLine
 62
7
  6
CONTINUOUS
 10
19.0026393256
 20
-58.6578895567
 11
18.9754853496
 21
-58.5732820202
  0
LINE
  5
377
100
AcDbEntity
  8
262606150
100
AcDbLine
 62
7
  6
CONTINUOUS
 10
13.5684770077
 20
-56.3051285224
 11
13.6614544679
 21
-56.5941080319
  0
LINE
  5
378
100
AcDbEntity
  8
262606150
100
AcDbLine
 62
7
  6
CONTINUOUS
 10
13.7373579764
 20
-56.3293186876
 11
13.6565446449
 21
-56.0757877867
  0
LWPOLYLINE
  5
379
100
AcDbEntity
  8
262606150
100
AcDbPolyline
 62
7
  6
CONTINUOUS
 90
3
 70
0
 10
19.2875615224
 20
-58.4177348877
 10
19.3344224279
 20
-58.5656575977
 10
19.4777934958
 20
-59.0100176101
  0
LINE
  5
37A
100
AcDbEntity
  8
262606150
100
AcDbLine
 62
7
  6
CONTINUOUS
 10
16.6141572176
 20
-58.8222179016
 11
16.5354594483
 21
-58.5745399891
  0
LINE
  5
37B
100
AcDbEntity
  8
262606150
100
AcDbLine
 62
7
  6
CONTINUOUS
 10
13.4732949194
 20
-56.0035927705
 11
13.5684770077
 21
-56.3051285224
  0
LINE
  5
37C
100
AcDbEntity
  8
262606150
100
AcDbLine
 62
7
  6
CONTINUOUS
 10
13.6565446449
 20
-56.0757877867
 11
13.5603576824
 21
-55.7687349274
  0
LINE
  5
37D
100
AcDbEntity
  8
262606150
100
AcDbLine
 62
7
  6
CONTINUOUS
 10
16.5354594483
 20
-58.5745399891
 11
16.4590443677
 21
-58.3301392724
  0
LINE
  5
37E
100
AcDbEntity
  8
262606150
100
AcDbLine
 62
7
  6
CONTINUOUS
 10
13.3767585186
 20
-55.6919887214
 11
13.4732949194
 21
-56.0035927705
  0
LINE
  5
37F
100
AcDbEntity
  8
262606150
100
AcDbLine
 62
7
  6
CONTINUOUS
 10
13.5603576824
 20
-55.7687349274
 11
13.4644434006
 21
-55.4560788763
  0
LINE
  5
380
100
AcDbEntity
  8
262606150
100
AcDbLine
 62
7
  6
CONTINUOUS
 10
16.4590443677
 20
-58.3301392724
 11
16.3600641581
 21
-58.00773744
  0
LINE
  5
381
100
AcDbEntity
  8
262606150
100
AcDbLine
 62
7
  6
CONTINUOUS
 10
13.2817830282
 20
-55.3785132148
 11
13.3767585186
 21
-55.6919887214
  0
LINE
  5
382
100
AcDbEntity
  8
262606150
100
AcDbLine
 62
7
  6
CONTINUOUS
 10
13.4644434006
 20
-55.4560788763
 11
13.3704232698
 21
-55.1430306423
  0
LINE
  5
383
100
AcDbEntity
  8
262606150
100
AcDbLine
 62
7
  6
CONTINUOUS
 10
16.3600641581
 20
-58.00773744
 11
16.2637215333
 21
-57.6873862948
  0
LINE
  5
384
100
AcDbEntity
  8
262606150
100
AcDbLine
 62
7
  6
CONTINUOUS
 10
16.6564625038
 20
-57.7836756518
 11
16.7679286492
 21
-58.1554864704
  0
LINE
  5
385
100
AcDbEntity
  8
262606150
100
AcDbLine
 62
7
  6
CONTINUOUS
 10
13.1907178042
 20
-55.0720372637
 11
13.2817830282
 21
-55.3785132148
  0
LINE
  5
386
100
AcDbEntity
  8
262606150
100
AcDbLine
 62
7
  6
CONTINUOUS
 10
16.8390025992
 20
-57.8616139065
 11
16.7360220887
 21
-57.5140100734
  0
LWPOLYLINE
  5
387
100
AcDbEntity
  8
262606150
100
AcDbPolyline
 62
7
  6
CONTINUOUS
 90
3
 70
0
 10
13.3704232698
 20
-55.1430306423
 10
13.2813637112
 20
-54.8406079357
 10
13.2384860555
 20
-54.6926453064
  0
LINE
  5
388
100
AcDbEntity
  8
262606150
100
AcDbLine
 62
7
  6
CONTINUOUS
 10
16.2637215333
 20
-57.6873862948
 11
16.1692616066
 21
-57.366665193
  0
LINE
  5
389
100
AcDbEntity
  8
262606150
100
AcDbLine
 62
7
  6
CONTINUOUS
 10
16.5470365648
 20
-57.4094556297
 11
16.6564625038
 21
-57.7836756518
  0
LINE
  5
38A
100
AcDbEntity
  8
262606150
100
AcDbLine
 62
7
  6
CONTINUOUS
 10
13.1042919048
 20
-54.7751932786
 11
13.1907178042
 21
-55.0720372637
  0
LINE
  5
38B
100
AcDbEntity
  8
262606150
100
AcDbLine
 62
7
  6
CONTINUOUS
 10
16.1692616066
 20
-57.366665193
 11
16.0992927464
 21
-57.1245260192
  0
LINE
  5
38C
100
AcDbEntity
  8
262606150
100
AcDbLine
 62
7
  6
CONTINUOUS
 10
16.7360220887
 20
-57.5140100734
 11
16.6274801005
 21
-57.1386230037
  0
LINE
  5
38D
100
AcDbEntity
  8
262606150
100
AcDbLine
 62
7
  6
CONTINUOUS
 10
16.4397760553
 20
-57.0328713697
 11
16.5470365648
 21
-57.4094556297
  0
LINE
  5
38E
100
AcDbEntity
  8
262606150
100
AcDbLine
 62
7
  6
CONTINUOUS
 10
16.6274801005
 20
-57.1386230037
 11
16.521453276
 21
-56.7610455693
  0
LWPOLYLINE
  5
38F
100
AcDbEntity
  8
262606150
100
AcDbPolyline
 62
7
  6
CONTINUOUS
 90
4
 70
0
 10
0.2554481396
 20
2.0384624781
 10
0.2466285745
 20
2.0721337249
 10
0.2343230121
 20
2.1027996329
 10
0.2190156051
 20
2.1308946065
  0
LWPOLYLINE
  5
390
100
AcDbEntity
  8
262606150
100
AcDbPolyline
 62
253
  6
CONTINUOUS
 90
5
 70
0
 10
0.2047671552
 20
1.9678898579
 10
0.1980964926
 20
1.9957210857
 10
0.1887472657
 20
2.0238649035
 10
0.176834807
 20
2.0518904372
 10
0.1624980041
 20
2.0793935141
  0
LINE
  5
391
100
AcDbEntity
  8
262606150
100
AcDbLine
 62
253
  6
CONTINUOUS
 10
0.246118058
 20
1.7532194711
 11
0.2047671552
 21
1.9678898579
  0
LINE
  5
392
100
AcDbEntity
  8
262606150
100
AcDbLine
 62
7
  6
CONTINUOUS
 10
0.3107927692
 20
1.7511446148
 11
0.2554481432
 21
2.0384624594
  0
LINE
  5
393
100
AcDbEntity
  8
262606150
100
AcDbLine
 62
253
  6
CONTINUOUS
 10
3.4496985482
 20
-0.2182765037
 11
3.4499960938
 21
-0.2449618134
  0
LINE
  5
394
100
AcDbEntity
  8
262606150
100
AcDbLine
 62
253
  6
CONTINUOUS
 10
3.4499960938
 20
-0.2449618134
 11
3.4397712225
 21
-0.657472957
  0
LINE
  5
395
100
AcDbEntity
  8
262606150
100
AcDbLine
 62
253
  6
CONTINUOUS
 10
2.4042426614
 20
-42.6231775969
 11
2.3889697062
 21
-43.2393481134
  0
LINE
  5
396
100
AcDbEntity
  8
262606150
100
AcDbLine
 62
7
  6
CONTINUOUS
 10
3.5168717808
 20
-0.1409791905
 11
3.5066469095
 21
-0.5534903342
  0
LINE
  5
397
100
AcDbEntity
  8
262606150
100
AcDbLine
 62
7
  6
CONTINUOUS
 10
2.4696125807
 20
-42.5799435098
 11
2.4558453932
 21
-43.1353654906
  0
LWPOLYLINE
  5
398
100
AcDbEntity
  8
262606150
100
AcDbPolyline
 62
253
  6
CONTINUOUS
 90
7
 70
0
 10
3.5168717808
 20
-0.1409791905
 10
3.5165909452
 20
-0.1463362255
 10
3.5124408441
 20
-0.1678382165
 10
3.5035218062
 20
-0.1887817519
 10
3.4899821338
 20
-0.2088278648
 10
3.472042844
 20
-0.2276554344
 10
3.4499960938
 20
-0.2449618134
  0
LWPOLYLINE
  5
399
100
AcDbEntity
  8
262606150
100
AcDbPolyline
 62
253
  6
CONTINUOUS
 90
7
 70
0
 10
2.4558451349
 20
-43.1353758876
 10
2.4555651009
 20
-43.1407157405
 10
2.4514148603
 20
-43.162223205
 10
2.4424942466
 20
-43.1831701906
 10
2.4289532939
 20
-43.2032171929
 10
2.4110140366
 20
-43.222043921
 10
2.3889697062
 20
-43.2393481134
  0
LWPOLYLINE
  5
39A
100
AcDbEntity
  8
262606150
100
AcDbPolyline
 62
253
  6
CONTINUOUS
 90
7
 70
0
 10
3.5066456286
 20
-0.5535414668
 10
3.5063660739
 20
-0.5588473691
 10
3.5022159728
 20
-0.5803493601
 10
3.4932969349
 20
-0.6012928956
 10
3.4797572625
 20
-0.6213390084
 10
3.4618179727
 20
-0.6401665781
 10
3.4397712225
 20
-0.657472957
  0
LWPOLYLINE
  5
39B
100
AcDbEntity
  8
262606150
100
AcDbPolyline
 62
253
  6
CONTINUOUS
 90
8
 70
0
 10
3.4397712225
 20
-0.657472957
 10
3.4381929139
 20
-0.6824586164
 10
3.4340662927
 20
-0.7059431658
 10
3.4274365938
 20
-0.727667912
 10
3.418375293
 20
-0.7473959195
 10
3.4069827016
 20
-0.764906806
 10
3.3933898154
 20
-0.7800021401
 10
3.3801237183
 20
-0.7908784189
  0
LINE
  5
39C
100
AcDbEntity
  8
262606150
100
AcDbLine
 62
7
  6
CONTINUOUS
 10
3.5044564503
 20
-0.5829934542
 11
3.5066456286
 21
-0.5535414668
  0
LWPOLYLINE
  5
39D
100
AcDbEntity
  8
262606150
100
AcDbPolyline
 62
253
  6
CONTINUOUS
 90
8
 70
0
 10
2.3889697062
 20
-43.2393481134
 10
2.3870442342
 20
-43.2645912035
 10
2.3825707261
 20
-43.2883283163
 10
2.3755982896
 20
-43.3102976046
 10
2.3662021532
 20
-43.3302592489
 10
2.3544865323
 20
-43.3479897823
 10
2.3405865711
 20
-43.3632877027
 10
2.3256254966
 20
-43.3753301421
  0
LWPOLYLINE
  5
39E
100
AcDbEntity
  8
262606150
100
AcDbPolyline
 62
253
  6
CONTINUOUS
 90
3
 70
0
 10
15.8089319524
 20
40.750914178
 10
16.0930332743
 20
41.9343510506
 10
16.4110332121
 20
43.1707070243
  0
LWPOLYLINE
  5
39F
100
AcDbEntity
  8
262606150
100
AcDbPolyline
 62
253
  6
CONTINUOUS
 90
15
 70
0
 10
13.8585506796
 20
29.4610090241
 10
13.8174731049
 20
29.3648877775
 10
13.782663223
 20
29.2680132128
 10
13.7545077145
 20
29.1714614834
 10
13.7333193412
 20
29.076305174
 10
13.7193334571
 20
28.9836013215
 10
13.7127054106
 20
28.8943796794
 10
13.7135088314
 20
28.8096313639
 10
13.7217347969
 20
28.7302978376
 10
13.7372919274
 20
28.6572603913
 10
13.7600074038
 20
28.5913303749
 10
13.7896288869
 20
28.5332401842
 10
13.8258273211
 20
28.4836351247
 10
13.8682005895
 20
28.4430662431
 10
13.9135700376
 20
28.4134007046
  0
LINE
  5
3A0
100
AcDbEntity
  8
262606150
100
AcDbLine
 62
7
  6
CONTINUOUS
 10
-15.5026285323
 20
-34.494789441
 11
-15.415848724
 21
-34.3275073218
  0
LINE
  5
3A1
100
AcDbEntity
  8
262606150
100
AcDbLine
 62
7
  6
CONTINUOUS
 10
-15.1982952299
 20
-34.2995052589
 11
-15.1006919233
 21
-34.1113590954
  0
LINE
  5
3A2
100
AcDbEntity
  8
262606150
100
AcDbLine
 62
7
  6
CONTINUOUS
 10
-14.8831384292
 20
-34.0833570325
 11
-14.7855351225
 21
-33.8952108691
  0
LINE
  5
3A3
100
AcDbEntity
  8
262606150
100
AcDbLine
 62
7
  6
CONTINUOUS
 10
-14.5679816284
 20
-33.8672088062
 11
-14.4703783218
 21
-33.6790626427
  0
LWPOLYLINE
  5
3A4
100
AcDbEntity
  8
262606150
100
AcDbPolyline
 62
253
  6
CONTINUOUS
 90
16
 70
0
 10
42.3876485366
 20
30.7822092152
 10
42.3277514692
 20
30.7348680549
 10
42.2685084199
 20
30.6809318737
 10
42.2104389522
 20
30.6208736948
 10
42.1540523376
 20
30.5552202312
 10
42.0998430891
 20
30.4845472669
 10
42.0482866245
 20
30.409474607
 10
41.9998350966
 20
30.330660642
 10
41.9549134288
 20
30.2487965733
 10
41.9139155874
 20
30.1646003519
 10
41.8772011275
 20
30.0788103815
 10
41.8450920389
 20
29.9921790428
 10
41.8178699231
 20
29.9054660951
 10
41.7957735229
 20
29.8194320131
 10
41.7789966293
 20
29.7348313174
 10
41.7676863812
 20
29.6524059575
  0
LWPOLYLINE
  5
3A5
100
AcDbEntity
  8
262606150
100
AcDbPolyline
 62
7
  6
CONTINUOUS
 90
8
 70
0
 10
3.3800973602
 20
-0.7908970807
 10
3.3931458275
 20
-0.7811150605
 10
3.4216293779
 20
-0.7553939206
 10
3.4466722147
 20
-0.7261455951
 10
3.4678582592
 20
-0.6937614766
 10
3.4847874225
 20
-0.6587024047
 10
3.4970825396
 20
-0.6215591478
 10
3.5044564503
 20
-0.5829934542
  0
LINE
  5
3A6
100
AcDbEntity
  8
262606150
100
AcDbLine
 62
253
  6
CONTINUOUS
 10
2.9825613975
 20
-0.9812723989
 11
3.4397712225
 21
-0.657472957
  0
LINE
  5
3A7
100
AcDbEntity
  8
262606150
100
AcDbLine
 62
7
  6
CONTINUOUS
 10
3.0562015923
 20
-1.0202825083
 11
3.3801237183
 21
-0.7908784189
  0
LWPOLYLINE
  5
3A8
100
AcDbEntity
  8
262606150
100
AcDbPolyline
 62
253
  6
CONTINUOUS
 90
8
 70
0
 10
2.8044502268
 20
0.5907354197
 10
2.8204275686
 20
0.6017377535
 10
2.833668857
 20
0.6131079272
 10
2.8439500598
 20
0.6246535365
 10
2.8510972408
 20
0.6361792188
 10
2.8549894899
 20
0.6474899385
 10
2.8555609845
 20
0.6583942885
 10
2.8551312149
 20
0.6613080212
  0
LINE
  5
3A9
100
AcDbEntity
  8
262606150
100
AcDbLine
 62
253
  6
CONTINUOUS
 10
2.1993242373
 20
-0.5663608494
 11
3.2265794552
 21
0.1151758456
  0
LINE
  5
3AA
100
AcDbEntity
  8
262606150
100
AcDbLine
 62
253
  6
CONTINUOUS
 10
2.6253778158
 20
-0.7920581981
 11
3.4499960938
 21
-0.2449618134
  0
LINE
  5
3AB
100
AcDbEntity
  8
262606150
100
AcDbLine
 62
253
  6
CONTINUOUS
 10
2.8044502268
 20
0.5907354197
 11
1.5228009899
 21
-0.2079798595
  0
LINE
  5
3AC
100
AcDbEntity
  8
262606150
100
AcDbLine
 62
7
  6
CONTINUOUS
 10
2.7786923827
 20
0.3524392553
 11
1.6932384043
 21
-0.2982672658
  0
LINE
  5
3AD
100
AcDbEntity
  8
262606150
100
AcDbLine
 62
7
  6
CONTINUOUS
 10
0.2630881866
 20
1.7546998524
 11
0.246118058
 21
1.7532194711
  0
LWPOLYLINE
  5
3AE
100
AcDbEntity
  8
262606150
100
AcDbPolyline
 62
7
  6
CONTINUOUS
 90
6
 70
0
 10
-29.0672590103
 20
7.8828219544
 10
-29.0734755475
 20
7.8837919849
 10
-29.0849434618
 20
7.8861394804
 10
-29.0905741269
 20
7.8876852234
 10
-29.0852674174
 20
7.8853912656
 10
-29.0751102383
 20
7.8803498481
  0
LWPOLYLINE
  5
3AF
100
AcDbEntity
  8
262606150
100
AcDbPolyline
 62
253
  6
CONTINUOUS
 90
7
 70
0
 10
3.3573980412
 20
0.1315550501
 10
3.3456127873
 20
0.1367369718
 10
3.3246239111
 20
0.1415618917
 10
3.3018335932
 20
0.1417835267
 10
3.2776231771
 20
0.1373981682
 10
3.2523977681
 20
0.128479195
 10
3.2265794552
 20
0.1151758456
  0
LWPOLYLINE
  5
3B0
100
AcDbEntity
  8
262606150
100
AcDbPolyline
 62
253
  6
CONTINUOUS
 90
7
 70
0
 10
-0.5825790915
 20
2.2187160022
 10
-0.5943643454
 20
2.2238979239
 10
-0.6153532216
 20
2.2287228438
 10
-0.6381435395
 20
2.2289444788
 10
-0.6623539556
 20
2.2245591203
 10
-0.6875793646
 20
2.2156401471
 10
-0.7133976775
 20
2.2023367977
  0
LWPOLYLINE
  5
3B1
100
AcDbEntity
  8
262606150
100
AcDbPolyline
 62
253
  6
CONTINUOUS
 90
7
 70
0
 10
-17.2948274092
 20
11.0718516767
 10
-17.3066126631
 20
11.0770335984
 10
-17.3276015393
 20
11.0818585183
 10
-17.3503918572
 20
11.0820801533
 10
-17.3746022733
 20
11.0776947948
 10
-17.3998276823
 20
11.0687758217
 10
-17.4256459953
 20
11.0554724723
  0
LWPOLYLINE
  5
3B2
100
AcDbEntity
  8
262606150
100
AcDbPolyline
 62
253
  6
CONTINUOUS
 90
7
 70
0
 10
-13.3549055571
 20
8.9847199838
 10
-13.3661884187
 20
8.9897122038
 10
-13.3872363847
 20
8.994652084
 10
-13.4101067531
 20
8.9949461004
 10
-13.4344119264
 20
8.9905910657
 10
-13.4597418988
 20
8.9816621344
 10
-13.4856688625
 20
8.9683115202
  0
LWPOLYLINE
  5
3B3
100
AcDbEntity
  8
262606150
100
AcDbPolyline
 62
7
  6
CONTINUOUS
 90
7
 70
0
 10
-0.5825790915
 20
2.2187160022
 10
-0.6163483939
 20
2.2340120558
 10
-0.6521589879
 20
2.245127831
 10
-0.6894002969
 20
2.2517265508
 10
-0.7274839138
 20
2.2535821926
 10
-0.7656132978
 20
2.2505755259
 10
-0.8029293184
 20
2.242775399
  0
LWPOLYLINE
  5
3B4
100
AcDbEntity
  8
262606150
100
AcDbPolyline
 62
7
  6
CONTINUOUS
 90
7
 70
0
 10
-17.2948274092
 20
11.0718516767
 10
-17.3285967116
 20
11.0871477304
 10
-17.3644073056
 20
11.0982635055
 10
-17.4016486146
 20
11.1048622254
 10
-17.4397322315
 20
11.1067178672
 10
-17.4778616155
 20
11.1037112005
 10
-17.5151776361
 20
11.0959110736
  0
LWPOLYLINE
  5
3B5
100
AcDbEntity
  8
262606150
100
AcDbPolyline
 62
7
  6
CONTINUOUS
 90
5
 70
0
 10
19.6148588251
 20
-8.4807166693
 10
19.6127378736
 20
-8.4796835911
 10
19.6026076983
 20
-8.476698927
 10
19.5899605372
 20
-8.4754121997
 10
19.575019576
 20
-8.4755902604
  0
LWPOLYLINE
  5
3B6
100
AcDbEntity
  8
262606150
100
AcDbPolyline
 62
7
  6
CONTINUOUS
 90
5
 70
0
 10
17.0151757535
 20
-7.1035622311
 10
17.013054802
 20
-7.1025291529
 10
17.0029246266
 20
-7.0995444887
 10
16.9902774656
 20
-7.0982577614
 10
16.9753365043
 20
-7.0984358222
  0
LWPOLYLINE
  5
3B7
100
AcDbEntity
  8
262606150
100
AcDbPolyline
 62
7
  6
CONTINUOUS
 90
5
 70
0
 10
2.9026105074
 20
0.3724190052
 10
2.9004895559
 20
0.3734520834
 10
2.8903593805
 20
0.3764367476
 10
2.8777122195
 20
0.3777234749
 10
2.8627712582
 20
0.3775454141
  0
LWPOLYLINE
  5
3B8
100
AcDbEntity
  8
262606150
100
AcDbPolyline
 62
7
  6
CONTINUOUS
 90
5
 70
0
 10
0.3029274358
 20
1.7495734435
 10
0.3008064842
 20
1.7506065217
 10
0.2906763089
 20
1.7535911858
 10
0.2780291479
 20
1.7548779131
 10
0.2630881866
 20
1.7546998524
  0
LWPOLYLINE
  5
3B9
100
AcDbEntity
  8
262606150
100
AcDbPolyline
 62
7
  6
CONTINUOUS
 90
5
 70
0
 10
-13.8096378103
 20
9.2255546798
 10
-13.8117587618
 20
9.226587758
 10
-13.8218889372
 20
9.2295724221
 10
-13.8345360982
 20
9.2308591494
 10
-13.8494770595
 20
9.2306810887
  0
LWPOLYLINE
  5
3BA
100
AcDbEntity
  8
262606150
100
AcDbPolyline
 62
7
  6
CONTINUOUS
 90
5
 70
0
 10
-16.409320882
 20
10.602709118
 10
-16.4114418335
 20
10.6037421962
 10
-16.4215720088
 20
10.6067268604
 10
-16.4342191698
 20
10.6080135877
 10
-16.4491601311
 20
10.6078355269
  0
LINE
  5
3BB
100
AcDbEntity
  8
262606150
100
AcDbLine
 62
253
  6
CONTINUOUS
 10
-17.4256459953
 20
11.0554724723
 11
-17.1209175827
 21
10.894045839
  0
LINE
  5
3BC
100
AcDbEntity
  8
262606150
100
AcDbLine
 62
253
  6
CONTINUOUS
 10
-16.5332390066
 20
10.5827293681
 11
-14.521234511
 21
9.5168914007
  0
LINE
  5
3BD
100
AcDbEntity
  8
262606150
100
AcDbLine
 62
253
  6
CONTINUOUS
 10
-13.933555935
 20
9.2055749299
 11
-13.4856688625
 21
8.9683115202
  0
LINE
  5
3BE
100
AcDbEntity
  8
262606150
100
AcDbLine
 62
253
  6
CONTINUOUS
 10
-0.7133976775
 20
2.2023367977
 11
-0.4086692649
 21
2.0409101644
  0
LINE
  5
3BF
100
AcDbEntity
  8
262606150
100
AcDbLine
 62
253
  6
CONTINUOUS
 10
0.1790093111
 20
1.7295936936
 11
2.1910138067
 21
0.6637557262
  0
LINE
  5
3C0
100
AcDbEntity
  8
262606150
100
AcDbLine
 62
253
  6
CONTINUOUS
 10
2.7786923827
 20
0.3524392553
 11
3.2265794552
 21
0.1151758456
  0
LINE
  5
3C1
100
AcDbEntity
  8
262606150
100
AcDbLine
 62
253
  6
CONTINUOUS
 10
15.9988506402
 20
-6.6507988768
 11
16.3035790528
 21
-6.8122255101
  0
LINE
  5
3C2
100
AcDbEntity
  8
262606150
100
AcDbLine
 62
253
  6
CONTINUOUS
 10
16.8912576288
 20
-7.123541981
 11
18.9032621244
 21
-8.1893799484
  0
LINE
  5
3C3
100
AcDbEntity
  8
262606150
100
AcDbLine
 62
253
  6
CONTINUOUS
 10
19.4909407004
 20
-8.5006964192
 11
19.9388277729
 21
-8.7379598289
  0
LINE
  5
3C4
100
AcDbEntity
  8
262606150
100
AcDbLine
 62
7
  6
CONTINUOUS
 10
-17.2948274092
 20
11.0718516767
 11
-17.0450734602
 21
10.9395471804
  0
LINE
  5
3C5
100
AcDbEntity
  8
262606150
100
AcDbLine
 62
7
  6
CONTINUOUS
 10
-16.4093225573
 20
10.602764906
 11
-14.4453903885
 21
9.5623927421
  0
LINE
  5
3C6
100
AcDbEntity
  8
262606150
100
AcDbLine
 62
7
  6
CONTINUOUS
 10
-13.8096394856
 20
9.2256104678
 11
-13.3548502765
 21
8.9846907246
  0
LINE
  5
3C7
100
AcDbEntity
  8
262606150
100
AcDbLine
 62
7
  6
CONTINUOUS
 10
-0.5825790915
 20
2.2187160022
 11
-0.3328251424
 21
2.0864115059
  0
LINE
  5
3C8
100
AcDbEntity
  8
262606150
100
AcDbLine
 62
7
  6
CONTINUOUS
 10
0.3029257605
 20
1.7496292315
 11
2.2668579292
 21
0.7092570676
  0
LINE
  5
3C9
100
AcDbEntity
  8
262606150
100
AcDbLine
 62
7
  6
CONTINUOUS
 10
2.9026088321
 20
0.3724747932
 11
3.3573980412
 21
0.1315550501
  0
LINE
  5
3CA
100
AcDbEntity
  8
262606150
100
AcDbLine
 62
7
  6
CONTINUOUS
 10
16.1296692262
 20
-6.6344196724
 11
16.3794231753
 21
-6.7667241687
  0
LINE
  5
3CB
100
AcDbEntity
  8
262606150
100
AcDbLine
 62
7
  6
CONTINUOUS
 10
17.0151740782
 20
-7.1035064431
 11
18.9791062469
 21
-8.1438786069
  0
LINE
  5
3CC
100
AcDbEntity
  8
262606150
100
AcDbLine
 62
7
  6
CONTINUOUS
 10
19.6148571498
 20
-8.4806608813
 11
20.069646359
 21
-8.7215806245
  0
LWPOLYLINE
  5
3CD
100
AcDbEntity
  8
262606150
100
AcDbPolyline
 62
253
  6
CONTINUOUS
 90
5
 70
0
 10
3.2265794552
 20
0.1151758456
 10
3.2505214168
 20
0.1023586172
 10
3.2742046936
 20
0.0869642747
 10
3.2973693102
 20
0.0691271771
 10
3.3197860752
 20
0.048982091
  0
LWPOLYLINE
  5
3CE
100
AcDbEntity
  8
262606150
100
AcDbPolyline
 62
253
  6
CONTINUOUS
 90
5
 70
0
 10
19.9388277729
 20
-8.7379598289
 10
19.9627697345
 20
-8.7507770574
 10
19.9864530114
 20
-8.7661713999
 10
20.0096176279
 20
-8.7840084974
 10
20.0320343929
 20
-8.8041535835
  0
LWPOLYLINE
  5
3CF
100
AcDbEntity
  8
262606150
100
AcDbPolyline
 62
253
  6
CONTINUOUS
 90
5
 70
0
 10
-13.4856688625
 20
8.9683115202
 10
-13.461307463
 20
8.9552455093
 10
-13.4373194025
 20
8.9395850651
 10
-13.4139687851
 20
8.9215023695
 10
-13.3915100795
 20
8.9011937108
  0
LWPOLYLINE
  5
3D0
100
AcDbEntity
  8
262606150
100
AcDbPolyline
 62
7
  6
CONTINUOUS
 90
10
 70
0
 10
3.3573980412
 20
0.1315550501
 10
3.3899249239
 20
0.1115750246
 10
3.4200152047
 20
0.0872936043
 10
3.4469676533
 20
0.0590637125
 10
3.4701477127
 20
0.0273829541
 10
3.4890353029
 20
-0.0071447251
 10
3.5032618979
 20
-0.0439158637
 10
3.5125903647
 20
-0.0825067568
 10
3.5167413536
 20
-0.121992207
 10
3.5168729198
 20
-0.1409327917
  0
LWPOLYLINE
  5
3D1
100
AcDbEntity
  8
262606150
100
AcDbPolyline
 62
7
  6
CONTINUOUS
 90
10
 70
0
 10
20.069646359
 20
-8.7215806245
 10
20.1021732416
 20
-8.74156065
 10
20.1322635224
 20
-8.7658420703
 10
20.159215971
 20
-8.794071962
 10
20.1823960304
 20
-8.8257527204
 10
20.2012836206
 20
-8.8602803996
 10
20.2155102156
 20
-8.8970515382
 10
20.2248386824
 20
-8.9356424313
 10
20.2289896713
 20
-8.9751278815
 10
20.2291212375
 20
-8.9940684663
  0
LWPOLYLINE
  5
3D2
100
AcDbEntity
  8
262606150
100
AcDbPolyline
 62
253
  6
CONTINUOUS
 90
9
 70
0
 10
0.0638037022
 20
2.1930134725
 10
0.0409159395
 20
2.2083564118
 10
0.0177832145
 20
2.2205963993
 10
-0.0052635908
 20
2.2295575021
 10
-0.0278817877
 20
2.2350955877
 10
-0.0496982733
 20
2.237108185
 10
-0.0703483958
 20
2.2355595054
 10
-0.089528371
 20
2.2304703298
 10
-0.1054921709
 20
2.222795906
  0
LWPOLYLINE
  5
3D3
100
AcDbEntity
  8
262606150
100
AcDbPolyline
 62
253
  6
CONTINUOUS
 90
9
 70
0
 10
2.6634867738
 20
0.8158590342
 10
2.6405990111
 20
0.8312019735
 10
2.6174662862
 20
0.8434419611
 10
2.5944194808
 20
0.8524030638
 10
2.5718012839
 20
0.8579411494
 10
2.5499847983
 20
0.8599537468
 10
2.5293346758
 20
0.8584050671
 10
2.5101547006
 20
0.8533158915
 10
2.4941909007
 20
0.8456414677
  0
LWPOLYLINE
  5
3D4
100
AcDbEntity
  8
262606150
100
AcDbPolyline
 62
253
  6
CONTINUOUS
 90
9
 70
0
 10
16.7760520199
 20
-6.6601222021
 10
16.7531642572
 20
-6.6447792628
 10
16.7300315323
 20
-6.6325392752
 10
16.7069847269
 20
-6.6235781725
 10
16.68436653
 20
-6.6180400869
 10
16.6625500444
 20
-6.6160274895
 10
16.6418999219
 20
-6.6175761692
 10
16.6227199467
 20
-6.6226653448
 10
16.6067561468
 20
-6.6303397685
  0
LWPOLYLINE
  5
3D5
100
AcDbEntity
  8
262606150
100
AcDbPolyline
 62
253
  6
CONTINUOUS
 90
9
 70
0
 10
19.3757350915
 20
-8.0372766403
 10
19.3528473288
 20
-8.021933701
 10
19.3297146039
 20
-8.0096937135
 10
19.3066677986
 20
-8.0007326108
 10
19.2840496016
 20
-7.9951945251
 10
19.262233116
 20
-7.9931819278
 10
19.2415829935
 20
-7.9947306075
 10
19.2224030184
 20
-7.999819783
 10
19.2064392184
 20
-8.0074942068
  0
LWPOLYLINE
  5
3D6
100
AcDbEntity
  8
262606150
100
AcDbPolyline
 62
253
  6
CONTINUOUS
 90
5
 70
0
 10
3.3197860752
 20
0.048982091
 10
3.3411646113
 20
0.0267464225
 10
3.3611737689
 20
0.0027450626
 10
3.3795665367
 20
-0.0227176189
 10
3.3961724979
 20
-0.0493969334
  0
LWPOLYLINE
  5
3D7
100
AcDbEntity
  8
262606150
100
AcDbPolyline
 62
7
  6
CONTINUOUS
 90
13
 70
0
 10
0.200222804
 20
2.1575328779
 10
0.177953174
 20
2.1822494876
 10
0.1538521635
 20
2.2032423043
 10
0.1288872294
 20
2.2202243101
 10
0.1025380602
 20
2.2338816968
 10
0.0752824605
 20
2.2440547359
 10
0.04789266
 20
2.2506383612
 10
0.020476396
 20
2.2538042736
 10
-0.0071279271
 20
2.253613377
 10
-0.0343212581
 20
2.2500566766
 10
-0.0607546495
 20
2.2432025821
 10
-0.0868007521
 20
2.2328122952
 10
-0.1055710332
 20
2.2227485425
  0
LWPOLYLINE
  5
3D8
100
AcDbEntity
  8
262606150
100
AcDbPolyline
 62
7
  6
CONTINUOUS
 90
13
 70
0
 10
2.7999058757
 20
0.7803784396
 10
2.7776362456
 20
0.8050950494
 10
2.7535352351
 20
0.826087866
 10
2.728570301
 20
0.8430698718
 10
2.7022211319
 20
0.8567272585
 10
2.6749655321
 20
0.8669002977
 10
2.6475757317
 20
0.873483923
 10
2.6201594676
 20
0.8766498354
 10
2.5925551445
 20
0.8764589388
 10
2.5653618136
 20
0.8729022383
 10
2.5389284221
 20
0.8660481438
 10
2.5128823196
 20
0.8556578569
 10
2.4941120384
 20
0.8455941043
  0
LINE
  5
3D9
100
AcDbEntity
  8
262606150
100
AcDbLine
 62
7
  6
CONTINUOUS
 10
0.2190156051
 20
2.1308946065
 11
0.200222804
 21
2.1575328779
  0
LINE
  5
3DA
100
AcDbEntity
  8
262606150
100
AcDbLine
 62
7
  6
CONTINUOUS
 10
2.8186986768
 20
0.7537401682
 11
2.7999058757
 21
0.7803784396
  0
LWPOLYLINE
  5
3DB
100
AcDbEntity
  8
262606150
100
AcDbPolyline
 62
253
  6
CONTINUOUS
 90
6
 70
0
 10
0.1624980041
 20
2.0793935141
 10
0.1459488908
 20
2.10590253
 10
0.1274950061
 20
2.130901144
 10
0.1074475113
 20
2.1539749416
 10
0.0861020056
 20
2.1747901894
 10
0.0638037022
 20
2.1930134725
  0
LWPOLYLINE
  5
3DC
100
AcDbEntity
  8
262606150
100
AcDbPolyline
 62
253
  6
CONTINUOUS
 90
6
 70
0
 10
2.7621810758
 20
0.7022390758
 10
2.7456319624
 20
0.7287480918
 10
2.7271780778
 20
0.7537467057
 10
2.707130583
 20
0.7768205033
 10
2.6857850773
 20
0.7976357511
 10
2.6634867738
 20
0.8158590342
  0
LWPOLYLINE
  5
3DD
100
AcDbEntity
  8
262606150
100
AcDbPolyline
 62
253
  6
CONTINUOUS
 90
7
 70
0
 10
3.3961724979
 20
-0.0493969334
 10
3.4108147906
 20
-0.0770107524
 10
3.4233332052
 20
-0.105263788
 10
3.4335834784
 20
-0.1338384714
 10
3.4414476039
 20
-0.1624091774
 10
3.4468386226
 20
-0.1906576176
 10
3.4496985482
 20
-0.2182765037
  0
LWPOLYLINE
  5
3DE
100
AcDbEntity
  8
262606150
100
AcDbPolyline
 62
7
  6
CONTINUOUS
 90
3
 70
0
 10
19.1521532421
 20
-57.9800872607
 10
19.1965245955
 20
-58.1251791191
 10
19.2875615224
 20
-58.4177348877
  0
LINE
  5
3DF
100
AcDbEntity
  8
262606150
100
AcDbLine
 62
7
  6
CONTINUOUS
 10
16.521453276
 20
-56.7610455693
 11
16.4180673123
 21
-56.3813278685
  0
LWPOLYLINE
  5
3E0
100
AcDbEntity
  8
262606150
100
AcDbPolyline
 62
7
  6
CONTINUOUS
 90
3
 70
0
 10
16.2838533395
 20
-56.463888034
 10
16.3351818681
 20
-56.6541027341
 10
16.4397760553
 20
-57.0328713697
  0
LWPOLYLINE
  5
3E1
100
AcDbEntity
  8
262606150
100
AcDbPolyline
 62
7
  6
CONTINUOUS
 90
4
 70
0
 10
2.8551312113
 20
0.6613080398
 10
2.8463116462
 20
0.6949792866
 10
2.8340060838
 20
0.7256451947
 10
2.8186986768
 20
0.7537401682
  0
LWPOLYLINE
  5
3E2
100
AcDbEntity
  8
262606150
100
AcDbPolyline
 62
253
  6
CONTINUOUS
 90
5
 70
0
 10
2.8044502268
 20
0.5907354197
 10
2.7977795642
 20
0.6185666475
 10
2.7884303374
 20
0.6467104653
 10
2.7765178787
 20
0.674735999
 10
2.7621810758
 20
0.7022390758
  0
LINE
  5
3E3
100
AcDbEntity
  8
262606150
100
AcDbLine
 62
253
  6
CONTINUOUS
 10
2.8458011296
 20
0.3760650328
 11
2.8044502268
 21
0.5907354197
  0
LINE
  5
3E4
100
AcDbEntity
  8
262606150
100
AcDbLine
 62
7
  6
CONTINUOUS
 10
2.9104758409
 20
0.3739901765
 11
2.8551312149
 21
0.6613080212
  0
LWPOLYLINE
  5
3E5
100
AcDbEntity
  8
262606150
100
AcDbPolyline
 62
7
  6
CONTINUOUS
 90
3
 70
0
 10
18.0251916745
 20
-59.4070306118
 10
18.0035702436
 20
-59.1622706501
 10
17.9932428567
 20
-59.0398525872
  0
LINE
  5
3E6
100
AcDbEntity
  8
262606150
100
AcDbLine
 62
7
  6
CONTINUOUS
 10
17.4564455777
 20
-59.2636508336
 11
17.4374443731
 21
-59.0463795798
  0
LINE
  5
3E7
100
AcDbEntity
  8
262606150
100
AcDbLine
 62
7
  6
CONTINUOUS
 10
16.1869298804
 20
-58.3913130939
 11
16.2054189379
 21
-58.6073230532
  0
LINE
  5
3E8
100
AcDbEntity
  8
262606150
100
AcDbLine
 62
7
  6
CONTINUOUS
 10
15.4768359986
 20
-58.0690404774
 11
15.4603656087
 21
-57.8761710646
  0
LWPOLYLINE
  5
3E9
100
AcDbEntity
  8
262606150
100
AcDbPolyline
 62
7
  6
CONTINUOUS
 90
3
 70
0
 10
17.8582066999
 20
-59.1212495631
 10
17.8685290191
 20
-59.2442694798
 10
17.8901337741
 20
-59.4901099095
  0
LINE
  5
3EA
100
AcDbEntity
  8
262606150
100
AcDbLine
 62
7
  6
CONTINUOUS
 10
16.3404253916
 20
-58.5242754024
 11
16.3188605552
 21
-58.2724508927
  0
LINE
  5
3EB
100
AcDbEntity
  8
262606150
100
AcDbLine
 62
7
  6
CONTINUOUS
 10
15.7734605226
 20
-58.3797999226
 11
15.7529831564
 21
-58.1383052541
  0
LINE
  5
3EC
100
AcDbEntity
  8
262606150
100
AcDbLine
 62
7
  6
CONTINUOUS
 10
15.3214310218
 20
-57.9100446723
 11
15.3418470146
 21
-58.152077382
  0
LINE
  5
3ED
100
AcDbEntity
  8
262606150
100
AcDbLine
 62
7
  6
CONTINUOUS
 10
14.9105085452
 20
-57.9241785652
 11
14.8902249202
 21
-57.6827105846
  0
LINE
  5
3EE
100
AcDbEntity
  8
262606150
100
AcDbLine
 62
7
  6
CONTINUOUS
 10
17.4374443731
 20
-59.0463795798
 11
17.419779908
 21
-58.8326014766
  0
LINE
  5
3EF
100
AcDbEntity
  8
262606150
100
AcDbLine
 62
7
  6
CONTINUOUS
 10
15.4603656087
 20
-57.8761710646
 11
15.4447086504
 21
-57.682497573
  0
LINE
  5
3F0
100
AcDbEntity
  8
262606150
100
AcDbLine
 62
7
  6
CONTINUOUS
 10
16.1697285063
 20
-58.1780189282
 11
16.1869298804
 21
-58.3913130939
  0
LINE
  5
3F1
100
AcDbEntity
  8
262606150
100
AcDbLine
 62
7
  6
CONTINUOUS
 10
16.3188605552
 20
-58.2724508927
 11
16.2990253673
 21
-58.0241004794
  0
LINE
  5
3F2
100
AcDbEntity
  8
262606150
100
AcDbLine
 62
7
  6
CONTINUOUS
 10
15.7529831564
 20
-58.1383052541
 11
15.733581833
 21
-57.8932488537
  0
LINE
  5
3F3
100
AcDbEntity
  8
262606150
100
AcDbLine
 62
7
  6
CONTINUOUS
 10
15.3021196686
 20
-57.6646447266
 11
15.3214310218
 21
-57.9100446723
  0
LINE
  5
3F4
100
AcDbEntity
  8
262606150
100
AcDbLine
 62
7
  6
CONTINUOUS
 10
14.8902249202
 20
-57.6827105846
 11
14.8710286923
 21
-57.4376070088
  0
LWPOLYLINE
  5
3F5
100
AcDbEntity
  8
262606150
100
AcDbPolyline
 62
7
  6
CONTINUOUS
 90
3
 70
0
 10
17.419779908
 20
-58.8326014766
 10
17.4032924949
 20
-58.6213402274
 10
17.3980352742
 20
-58.5513343824
  0
LINE
  5
3F6
100
AcDbEntity
  8
262606150
100
AcDbLine
 62
7
  6
CONTINUOUS
 10
16.1536802608
 20
-57.9666419165
 11
16.1697285063
 21
-58.1780189282
  0
LINE
  5
3F7
100
AcDbEntity
  8
262606150
100
AcDbLine
 62
7
  6
CONTINUOUS
 10
15.4447086504
 20
-57.682497573
 11
15.4251371842
 21
-57.4239702707
  0
LWPOLYLINE
  5
3F8
100
AcDbEntity
  8
262606150
100
AcDbPolyline
 62
7
  6
CONTINUOUS
 90
3
 70
0
 10
16.2990253673
 20
-58.0241004794
 10
16.2807234164
 20
-57.7780667586
 10
16.2775916692
 20
-57.7338651781
  0
LINE
  5
3F9
100
AcDbEntity
  8
262606150
100
AcDbLine
 62
7
  6
CONTINUOUS
 10
15.733581833
 20
-57.8932488537
 11
15.7152795277
 21
-57.6448761201
  0
LINE
  5
3FA
100
AcDbEntity
  8
262606150
100
AcDbLine
 62
7
  6
CONTINUOUS
 10
15.2839342678
 20
-57.4161072205
 11
15.3021196686
 21
-57.6646447266
  0
LINE
  5
3FB
100
AcDbEntity
  8
262606150
100
AcDbLine
 62
7
  6
CONTINUOUS
 10
14.8710286923
 20
-57.4376070088
 11
14.8529445087
 21
-57.1891176233
  0
LINE
  5
3FC
100
AcDbEntity
  8
262606150
100
AcDbLine
 62
7
  6
CONTINUOUS
 10
16.1386842836
 20
-57.7564790688
 11
16.1536802608
 21
-57.9666419165
  0
LINE
  5
3FD
100
AcDbEntity
  8
262606150
100
AcDbLine
 62
7
  6
CONTINUOUS
 10
15.4251371842
 20
-57.4239702707
 11
15.4068781853
 21
-57.162991567
  0
LINE
  5
3FE
100
AcDbEntity
  8
262606150
100
AcDbLine
 62
7
  6
CONTINUOUS
 10
15.7152795277
 20
-57.6448761201
 11
15.6981527531
 21
-57.3940781884
  0
LINE
  5
3FF
100
AcDbEntity
  8
262606150
100
AcDbLine
 62
7
  6
CONTINUOUS
 10
15.2669449591
 20
-57.1652719312
 11
15.2839342678
 21
-57.4161072205
  0
LINE
  5
400
100
AcDbEntity
  8
262606150
100
AcDbLine
 62
7
  6
CONTINUOUS
 10
14.8529445087
 20
-57.1891176233
 11
14.8360536016
 21
-56.938148954
  0
LINE
  5
401
100
AcDbEntity
  8
262606150
100
AcDbLine
 62
7
  6
CONTINUOUS
 10
16.1246520123
 20
-57.5466239175
 11
16.1386842836
 21
-57.7564790688
  0
LINE
  5
402
100
AcDbEntity
  8
262606150
100
AcDbLine
 62
7
  6
CONTINUOUS
 10
15.4068781853
 20
-57.162991567
 11
15.393594741
 21
-56.9582493951
  0
LINE
  5
403
100
AcDbEntity
  8
262606150
100
AcDbLine
 62
7
  6
CONTINUOUS
 10
15.6981527531
 20
-57.3940781884
 11
15.6822638116
 21
-57.1411644541
  0
LINE
  5
404
100
AcDbEntity
  8
262606150
100
AcDbLine
 62
7
  6
CONTINUOUS
 10
15.2512139772
 20
-56.9123929995
 11
15.2669449591
 21
-57.1652719312
  0
LINE
  5
405
100
AcDbEntity
  8
262606150
100
AcDbLine
 62
7
  6
CONTINUOUS
 10
16.1115297367
 20
-57.3362583351
 11
16.1246520123
 21
-57.5466239175
  0
LINE
  5
406
100
AcDbEntity
  8
262606150
100
AcDbLine
 62
7
  6
CONTINUOUS
 10
14.8360536016
 20
-56.938148954
 11
14.8204291492
 21
-56.6850175863
  0
LINE
  5
407
100
AcDbEntity
  8
262606150
100
AcDbLine
 62
7
  6
CONTINUOUS
 10
15.393594741
 20
-56.9582493951
 11
15.3803517526
 21
-56.7383240744
  0
LINE
  5
408
100
AcDbEntity
  8
262606150
100
AcDbLine
 62
7
  6
CONTINUOUS
 10
16.0992927464
 20
-57.1245260192
 11
16.1115297367
 21
-57.3362583351
  0
LINE
  5
409
100
AcDbEntity
  8
262606150
100
AcDbLine
 62
7
  6
CONTINUOUS
 10
15.6822638116
 20
-57.1411644541
 11
15.6676799413
 21
-56.8864799072
  0
LINE
  5
40A
100
AcDbEntity
  8
262606150
100
AcDbLine
 62
7
  6
CONTINUOUS
 10
15.2368066643
 20
-56.6577876948
 11
15.2512139772
 21
-56.9123929995
  0
LINE
  5
40B
100
AcDbEntity
  8
262606150
100
AcDbLine
 62
7
  6
CONTINUOUS
 10
14.8204291492
 20
-56.6850175863
 11
14.8061407595
 21
-56.4300801996
  0
LINE
  5
40C
100
AcDbEntity
  8
262606150
100
AcDbLine
 62
7
  6
CONTINUOUS
 10
15.3803517526
 20
-56.7383240744
 11
15.3670522661
 21
-56.4964418789
  0
LINE
  5
40D
100
AcDbEntity
  8
262606150
100
AcDbLine
 62
7
  6
CONTINUOUS
 10
15.6676799413
 20
-56.8864799072
 11
15.6545444877
 21
-56.6306344148
  0
LINE
  5
40E
100
AcDbEntity
  8
262606150
100
AcDbLine
 62
7
  6
CONTINUOUS
 10
15.2238685549
 20
-56.4020372622
 11
15.2368066643
 21
-56.6577876948
  0
LINE
  5
40F
100
AcDbEntity
  8
262606150
100
AcDbLine
 62
7
  6
CONTINUOUS
 10
14.8061407595
 20
-56.4300801996
 11
14.793342784
 21
-56.1739667877
  0
LWPOLYLINE
  5
410
100
AcDbEntity
  8
262606150
100
AcDbPolyline
 62
7
  6
CONTINUOUS
 90
3
 70
0
 10
15.3670522661
 20
-56.4964418789
 10
15.3538226996
 20
-56.2257537817
 10
15.3494857154
 20
-56.1278041213
  0
LINE
  5
411
100
AcDbEntity
  8
262606150
100
AcDbLine
 62
7
  6
CONTINUOUS
 10
14.793342784
 20
-56.1739667877
 11
14.7820737829
 21
-55.9177005047
  0
LWPOLYLINE
  5
412
100
AcDbEntity
  8
262606150
100
AcDbPolyline
 62
253
  6
CONTINUOUS
 90
13
 70
0
 10
12.1812865403
 20
-53.9679779627
 10
12.203522786
 20
-54.570144701
 10
12.2392815169
 20
-55.2729484953
 10
12.2946772862
 20
-56.078366322
 10
12.3713500757
 20
-56.9425368723
 10
12.4701862508
 20
-57.8330403615
 10
12.5901560526
 20
-58.7216612575
 10
12.7266706625
 20
-59.5803998318
 10
12.879778901
 20
-60.4157447183
 10
13.0556032756
 20
-61.2543357216
 10
13.2593912577
 20
-62.1074876989
 10
13.4927145133
 20
-62.9726369863
 10
13.758322108
 20
-63.8499937063
  0
LINE
  5
413
100
AcDbEntity
  8
262606150
100
AcDbLine
 62
7
  6
CONTINUOUS
 10
14.7820737829
 20
-55.9177005047
 11
14.7723506585
 21
-55.6615734317
  0
LWPOLYLINE
  5
414
100
AcDbEntity
  8
262606150
100
AcDbPolyline
 62
253
  6
CONTINUOUS
 90
7
 70
0
 10
14.2876875401
 20
31.0124447691
 10
14.3409263079
 20
31.6610394897
 10
14.4131725305
 20
32.4302816792
 10
14.51082962
 20
33.3298484779
 10
14.6333802809
 20
34.3165690441
 10
14.7801062642
 20
35.3581270638
 10
14.9485255357
 20
36.4241469578
  0
LWPOLYLINE
  5
415
100
AcDbEntity
  8
262606150
100
AcDbPolyline
 62
253
  6
CONTINUOUS
 90
5
 70
0
 10
14.9485255357
 20
36.4241469578
 10
15.1324976456
 20
37.4800290926
 10
15.3323995637
 20
38.5325239581
 10
15.5558844746
 20
39.6167453045
 10
15.8089319524
 20
40.750914178
  0
LWPOLYLINE
  5
416
100
AcDbEntity
  8
262606150
100
AcDbPolyline
 62
253
  6
CONTINUOUS
 90
10
 70
0
 10
21.6175452958
 20
25.3490081158
 10
21.6910655796
 20
25.5193161235
 10
21.7582167721
 20
25.6908555065
 10
21.8187392001
 20
25.862962876
 10
21.8723988243
 20
26.0349726471
 10
21.9189881448
 20
26.2062196127
 10
21.958327003
 20
26.376041516
 10
21.9902632788
 20
26.543781612
 10
22.0146734784
 20
26.7087912068
 10
22.031463212
 20
26.8704321663
  0
LWPOLYLINE
  5
417
100
AcDbEntity
  8
262606150
100
AcDbPolyline
 62
253
  6
CONTINUOUS
 90
17
 70
0
 10
21.6175445764
 20
25.3490083468
 10
21.5786704552
 20
25.2662914432
 10
21.5468546183
 20
25.1817582803
 10
21.522077559
 20
25.0962801102
 10
21.5054697858
 20
25.0101050999
 10
21.4955199018
 20
24.9247809197
 10
21.4887905548
 20
24.8428441359
 10
21.4843287065
 20
24.765552944
 10
21.484046696
 20
24.6925756718
 10
21.4891664189
 20
24.6238573328
 10
21.4997743009
 20
24.5599027712
 10
21.5158184398
 20
24.501265282
 10
21.5378178419
 20
24.4481282157
 10
21.5657191389
 20
24.4008771627
 10
21.5988757975
 20
24.36011259
 10
21.6367373935
 20
24.3263148565
 10
21.6750868045
 20
24.3018154793
  0
LINE
  5
418
100
AcDbEntity
  8
262606150
100
AcDbLine
 62
253
  6
CONTINUOUS
 10
-28.020943543
 20
-27.6135038586
 11
-29.7609564572
 21
-28.6838525794
  0
LINE
  5
419
100
AcDbEntity
  8
262606150
100
AcDbLine
 62
253
  6
CONTINUOUS
 10
-27.8042260983
 20
-27.9781490587
 11
-29.5442388074
 21
-29.0484976533
  0
LINE
  5
41A
100
AcDbEntity
  8
262606150
100
AcDbLine
 62
253
  6
CONTINUOUS
 10
15.8482897514
 20
-6.6346910996
 11
15.854966361
 21
-6.6314278977
  0
LINE
  5
41B
100
AcDbEntity
  8
262606150
100
AcDbLine
 62
7
  6
CONTINUOUS
 10
15.8731597817
 20
-6.6228859261
 11
15.8482129483
 21
-6.634732015
  0
LINE
  5
41C
100
AcDbEntity
  8
262606150
100
AcDbLine
 62
7
  6
CONTINUOUS
 10
15.9093189993
 20
-6.6103602755
 11
15.8731597817
 21
-6.6228859261
  0
LWPOLYLINE
  5
41D
100
AcDbEntity
  8
262606150
100
AcDbPolyline
 62
253
  6
CONTINUOUS
 90
8
 70
0
 10
15.854966361
 20
-6.6314278977
 10
15.8729088222
 20
-6.625213417
 10
15.8921599436
 20
-6.6220097721
 10
15.9124814865
 20
-6.6218642765
 10
15.93356009
 20
-6.624760399
 10
15.9551258677
 20
-6.6306187517
 10
15.976968471
 20
-6.6393412597
 10
15.9988506402
 20
-6.6507988768
  0
LINE
  5
41E
100
AcDbEntity
  8
262606150
100
AcDbLine
 62
7
  6
CONTINUOUS
 10
-13.8494770595
 20
9.2306810887
 11
-13.8664471881
 21
9.2292007073
  0
LINE
  5
41F
100
AcDbEntity
  8
262606150
100
AcDbLine
 62
7
  6
CONTINUOUS
 10
-16.4491601311
 20
10.6078355269
 11
-16.4661302597
 21
10.6063551456
  0
LWPOLYLINE
  5
420
100
AcDbEntity
  8
262606150
100
AcDbPolyline
 62
253
  6
CONTINUOUS
 90
10
 70
0
 10
22.5102234651
 20
4.7934130784
 10
22.709997734
 20
4.7723892936
 10
22.9072266386
 20
4.7437860429
 10
23.1010140879
 20
4.7077332824
 10
23.2904796267
 20
4.6643948147
 10
23.4747624361
 20
4.6139675438
 10
23.6530252443
 20
4.5566805814
 10
23.8244581311
 20
4.4927942055
 10
23.9882822069
 20
4.4225986778
 10
24.1437531527
 20
4.3464129252
  0
LWPOLYLINE
  5
421
100
AcDbEntity
  8
262606150
100
AcDbPolyline
 62
253
  6
CONTINUOUS
 90
15
 70
0
 10
22.5102234651
 20
4.7934130784
 10
22.407848305
 20
4.8052814765
 10
22.3078769968
 20
4.8231048054
 10
22.2113895652
 20
4.8466905437
 10
22.1194283589
 20
4.8757839323
 10
22.0329869365
 20
4.9100706816
 10
21.9529993013
 20
4.949180339
 10
21.8803296213
 20
4.9926903667
 10
21.8157629256
 20
5.0401307316
 10
21.7599967481
 20
5.090988921
 10
21.7136335479
 20
5.1447154981
 10
21.6771742011
 20
5.2007300382
 10
21.651012589
 20
5.2584273991
 10
21.6354313438
 20
5.3171842583
 10
21.6306832836
 20
5.3812783488
  0
LWPOLYLINE
  5
422
100
AcDbEntity
  8
262606150
100
AcDbPolyline
 62
253
  6
CONTINUOUS
 90
5
 70
0
 10
20.0320343929
 20
-8.8041535835
 10
20.053412929
 20
-8.8263892521
 10
20.0734220866
 20
-8.8503906119
 10
20.0918148544
 20
-8.8758532934
 10
20.1084208156
 20
-8.9025326079
  0
LWPOLYLINE
  5
423
100
AcDbEntity
  8
262606150
100
AcDbPolyline
 62
7
  6
CONTINUOUS
 90
13
 70
0
 10
16.9124711217
 20
-6.6956027967
 10
16.8902014917
 20
-6.6708861869
 10
16.8661004812
 20
-6.6498933703
 10
16.8411355471
 20
-6.6329113645
 10
16.8147863779
 20
-6.6192539778
 10
16.7875307782
 20
-6.6090809386
 10
16.7601409777
 20
-6.6024973133
 10
16.7327247137
 20
-6.5993314009
 10
16.7051203906
 20
-6.5995222975
 10
16.6779270597
 20
-6.603078998
 10
16.6514936682
 20
-6.6099330925
 10
16.6254475656
 20
-6.6203233793
 10
16.6066772845
 20
-6.630387132
  0
LWPOLYLINE
  5
424
100
AcDbEntity
  8
262606150
100
AcDbPolyline
 62
7
  6
CONTINUOUS
 90
13
 70
0
 10
19.5121541934
 20
-8.0727572349
 10
19.4898845634
 20
-8.0480406252
 10
19.4657835529
 20
-8.0270478085
 10
19.4408186187
 20
-8.0100658027
 10
19.4144694496
 20
-7.996408416
 10
19.3872138498
 20
-7.9862353769
 10
19.3598240494
 20
-7.9796517516
 10
19.3324077854
 20
-7.9764858392
 10
19.3048034623
 20
-7.9766767358
 10
19.2776101313
 20
-7.9802334362
 10
19.2511767399
 20
-7.9870875307
 10
19.2251306373
 20
-7.9974778176
 10
19.2063603561
 20
-8.0075415703
  0
LWPOLYLINE
  5
425
100
AcDbEntity
  8
262606150
100
AcDbPolyline
 62
253
  6
CONTINUOUS
 90
10
 70
0
 10
20.7474535588
 20
-14.316726153
 10
20.8281516209
 20
-14.4159385983
 10
20.901237649
 20
-14.5261720342
 10
20.9664226578
 20
-14.646936832
 10
21.0235049472
 20
-14.7777121956
 10
21.0722468035
 20
-14.9179073349
 10
21.1123366228
 20
-15.0668523262
 10
21.1435703316
 20
-15.2238596698
 10
21.1658896996
 20
-15.3882385917
 10
21.1792320549
 20
-15.5592491027
  0
LWPOLYLINE
  5
426
100
AcDbEntity
  8
262606150
100
AcDbPolyline
 62
253
  6
CONTINUOUS
 90
10
 70
0
 10
20.626580097
 20
-14.2585711637
 10
20.697733733
 20
-14.3531201604
 10
20.7607948805
 20
-14.458463754
 10
20.8154718118
 20
-14.5741146137
 10
20.8615115853
 20
-14.699537726
 10
20.8987012162
 20
-14.8341528698
 10
20.9268686612
 20
-14.9773373009
 10
20.9458836145
 20
-15.1284286325
 10
20.9556581109
 20
-15.2867278997
 10
20.9561469325
 20
-15.4515027927
  0
LWPOLYLINE
  5
427
100
AcDbEntity
  8
262606150
100
AcDbPolyline
 62
253
  6
CONTINUOUS
 90
24
 70
0
 10
20.626580097
 20
-14.2585711637
 10
20.5954701287
 20
-14.2156127216
 10
20.5692422928
 20
-14.1663178981
 10
20.5481134794
 20
-14.111094217
 10
20.5322584106
 20
-14.0503981746
 10
20.5218082385
 20
-13.984731617
 10
20.5168494133
 20
-13.9146376321
 10
20.5174229325
 20
-13.8406958313
 10
20.5235240478
 20
-13.7635175187
 10
20.5351023143
 20
-13.6837408154
 10
20.5520620012
 20
-13.6020253262
 10
20.5742628835
 20
-13.5190466864
 10
20.6015214011
 20
-13.4354909749
 10
20.6336121769
 20
-13.352049042
 10
20.6702698797
 20
-13.2694107975
 10
20.7111914186
 20
-13.1882595057
 10
20.7560384486
 20
-13.1092661371
 10
20.8044401681
 20
-13.0330838198
 10
20.8559963849
 20
-12.9603424399
 10
20.9102807759
 20
-12.8916434074
 10
20.9668445589
 20
-12.8275547612
 10
21.0252202033
 20
-12.7686064729
 10
21.084925101
 20
-12.7152859618
 10
21.1454655568
 20
-12.6680340646
  0
LINE
  5
428
100
AcDbEntity
  8
262606150
100
AcDbLine
 62
7
  6
CONTINUOUS
 10
16.9312639228
 20
-6.722241068
 11
16.9124711217
 21
-6.6956027967
  0
LINE
  5
429
100
AcDbEntity
  8
262606150
100
AcDbLine
 62
7
  6
CONTINUOUS
 10
19.5309469945
 20
-8.0993955063
 11
19.5121541934
 21
-8.0727572349
  0
LWPOLYLINE
  5
42A
100
AcDbEntity
  8
262606150
100
AcDbPolyline
 62
253
  6
CONTINUOUS
 90
6
 70
0
 10
16.8747463218
 20
-6.7737421605
 10
16.8581972085
 20
-6.7472331445
 10
16.8397433239
 20
-6.7222345306
 10
16.819695829
 20
-6.699160733
 10
16.7983503233
 20
-6.6783454852
 10
16.7760520199
 20
-6.6601222021
  0
LWPOLYLINE
  5
42B
100
AcDbEntity
  8
262606150
100
AcDbPolyline
 62
253
  6
CONTINUOUS
 90
6
 70
0
 10
19.4744293935
 20
-8.1508965987
 10
19.4578802801
 20
-8.1243875828
 10
19.4394263955
 20
-8.0993889689
 10
19.4193789007
 20
-8.0763151712
 10
19.398033395
 20
-8.0554999234
 10
19.3757350915
 20
-8.0372766403
  0
LWPOLYLINE
  5
42C
100
AcDbEntity
  8
262606150
100
AcDbPolyline
 62
7
  6
CONTINUOUS
 90
16
 70
0
 10
21.4058316942
 20
-59.7907984914
 10
21.3988477019
 20
-59.7578736903
 10
21.3885353816
 20
-59.7239778992
 10
21.3754870756
 20
-59.6904393918
 10
21.3602578237
 20
-59.6580401406
 10
21.3430735932
 20
-59.6268219816
 10
21.3242847194
 20
-59.5969689897
 10
21.3042543403
 20
-59.568756995
 10
21.2832701846
 20
-59.5423599796
 10
21.2615017333
 20
-59.5177559743
 10
21.239334575
 20
-59.4951979411
 10
21.2168967925
 20
-59.4746337189
 10
21.1938579842
 20
-59.455672565
 10
21.1701986816
 20
-59.4383444715
 10
21.1462786838
 20
-59.4229633002
 10
21.1222831431
 20
-59.4096644927
  0
LINE
  5
42D
100
AcDbEntity
  8
262606150
100
AcDbLine
 62
7
  6
CONTINUOUS
 10
20.8794269328
 20
-60.8790510646
 11
20.8519495835
 21
-60.5859924989
  0
LINE
  5
42E
100
AcDbEntity
  8
262606150
100
AcDbLine
 62
7
  6
CONTINUOUS
 10
20.7168700922
 20
-60.6691162547
 11
20.7442410363
 21
-60.9622090976
  0
LINE
  5
42F
100
AcDbEntity
  8
262606150
100
AcDbLine
 62
7
  6
CONTINUOUS
 10
20.3059845452
 20
-60.7385542025
 11
20.2776117893
 21
-60.4315570477
  0
LINE
  5
430
100
AcDbEntity
  8
262606150
100
AcDbLine
 62
7
  6
CONTINUOUS
 10
20.8519495835
 20
-60.5859924989
 11
20.8265280311
 21
-60.2990438473
  0
LINE
  5
431
100
AcDbEntity
  8
262606150
100
AcDbLine
 62
7
  6
CONTINUOUS
 10
20.6915469842
 20
-60.3821196699
 11
20.7168700922
 21
-60.6691162547
  0
LINE
  5
432
100
AcDbEntity
  8
262606150
100
AcDbLine
 62
7
  6
CONTINUOUS
 10
20.2776117893
 20
-60.4315570477
 11
20.2508727144
 21
-60.1231966219
  0
LINE
  5
433
100
AcDbEntity
  8
262606150
100
AcDbLine
 62
7
  6
CONTINUOUS
 10
20.8265280311
 20
-60.2990438473
 11
20.8161549963
 21
-60.1769781643
  0
LINE
  5
434
100
AcDbEntity
  8
262606150
100
AcDbLine
 62
7
  6
CONTINUOUS
 10
20.6681392225
 20
-60.1013647804
 11
20.6915469842
 21
-60.3821196699
  0
LINE
  5
435
100
AcDbEntity
  8
262606150
100
AcDbLine
 62
7
  6
CONTINUOUS
 10
20.2508727144
 20
-60.1231966219
 11
20.2257282312
 21
-59.8138026836
  0
LINE
  5
436
100
AcDbEntity
  8
262606150
100
AcDbLine
 62
7
  6
CONTINUOUS
 10
17.9932428567
 20
-59.0398525872
 11
17.9735843696
 21
-58.7952136107
  0
LINE
  5
437
100
AcDbEntity
  8
262606150
100
AcDbLine
 62
7
  6
CONTINUOUS
 10
17.8385488454
 20
-58.875252459
 11
17.8582066999
 21
-59.1212495631
  0
LINE
  5
438
100
AcDbEntity
  8
262606150
100
AcDbLine
 62
7
  6
CONTINUOUS
 10
20.2257282312
 20
-59.8138026836
 11
20.2018537677
 21
-59.500509091
  0
LINE
  5
439
100
AcDbEntity
  8
262606150
100
AcDbLine
 62
7
  6
CONTINUOUS
 10
17.9735843696
 20
-58.7952136107
 11
17.9550776662
 21
-58.5492967869
  0
LINE
  5
43A
100
AcDbEntity
  8
262606150
100
AcDbLine
 62
7
  6
CONTINUOUS
 10
17.8200469077
 20
-58.6279395198
 11
17.8385488454
 21
-58.875252459
  0
LINE
  5
43B
100
AcDbEntity
  8
262606150
100
AcDbLine
 62
7
  6
CONTINUOUS
 10
20.5987180762
 20
-59.2549617591
 11
20.6297329772
 21
-59.6838315531
  0
LINE
  5
43C
100
AcDbEntity
  8
262606150
100
AcDbLine
 62
7
  6
CONTINUOUS
 10
20.764516114
 20
-59.6009212731
 11
20.7361882817
 21
-59.2117091713
  0
LINE
  5
43D
100
AcDbEntity
  8
262606150
100
AcDbLine
 62
7
  6
CONTINUOUS
 10
20.2018537677
 20
-59.500509091
 11
20.1781688282
 21
-59.1691121706
  0
LINE
  5
43E
100
AcDbEntity
  8
262606150
100
AcDbLine
 62
7
  6
CONTINUOUS
 10
17.3980352742
 20
-58.5513343824
 11
17.3781012097
 21
-58.2724705622
  0
LINE
  5
43F
100
AcDbEntity
  8
262606150
100
AcDbLine
 62
7
  6
CONTINUOUS
 10
17.9550776662
 20
-58.5492967869
 11
17.9376451395
 21
-58.3011213294
  0
LINE
  5
440
100
AcDbEntity
  8
262606150
100
AcDbLine
 62
7
  6
CONTINUOUS
 10
20.5905213522
 20
-59.1366725635
 11
20.5987180762
 21
-59.2549617591
  0
LINE
  5
441
100
AcDbEntity
  8
262606150
100
AcDbLine
 62
7
  6
CONTINUOUS
 10
17.8026335898
 20
-58.3784654371
 11
17.8200469077
 21
-58.6279395198
  0
LINE
  5
442
100
AcDbEntity
  8
262606150
100
AcDbLine
 62
7
  6
CONTINUOUS
 10
17.9376451395
 20
-58.3011213294
 11
17.9211446928
 21
-58.0485768636
  0
LINE
  5
443
100
AcDbEntity
  8
262606150
100
AcDbLine
 62
7
  6
CONTINUOUS
 10
20.1781688282
 20
-59.1691121706
 11
20.1537544986
 21
-58.8031530948
  0
LINE
  5
444
100
AcDbEntity
  8
262606150
100
AcDbLine
 62
7
  6
CONTINUOUS
 10
17.3781012097
 20
-58.2724705622
 11
17.3597477703
 21
-57.9935499114
  0
LINE
  5
445
100
AcDbEntity
  8
262606150
100
AcDbLine
 62
7
  6
CONTINUOUS
 10
17.7861805438
 20
-58.1249063499
 11
17.8026335898
 21
-58.3784654371
  0
LINE
  5
446
100
AcDbEntity
  8
262606150
100
AcDbLine
 62
7
  6
CONTINUOUS
 10
17.3597477703
 20
-57.9935499114
 11
17.3469393567
 21
-57.7829270328
  0
LINE
  5
447
100
AcDbEntity
  8
262606150
100
AcDbLine
 62
7
  6
CONTINUOUS
 10
17.9211446928
 20
-58.0485768636
 11
17.9056741477
 21
-57.7910469015
  0
LINE
  5
448
100
AcDbEntity
  8
262606150
100
AcDbLine
 62
7
  6
CONTINUOUS
 10
17.7708342032
 20
-57.8675044586
 11
17.7861805438
 21
-58.1249063499
  0
LINE
  5
449
100
AcDbEntity
  8
262606150
100
AcDbLine
 62
7
  6
CONTINUOUS
 10
20.1537544986
 20
-58.8031530948
 11
20.1354083098
 21
-58.4958913626
  0
LINE
  5
44A
100
AcDbEntity
  8
262606150
100
AcDbLine
 62
7
  6
CONTINUOUS
 10
17.9056741477
 20
-57.7910469015
 11
17.891479426
 21
-57.5308159704
  0
LINE
  5
44B
100
AcDbEntity
  8
262606150
100
AcDbLine
 62
7
  6
CONTINUOUS
 10
17.7568435826
 20
-57.60876901
 11
17.7708342032
 21
-57.8675044586
  0
LWPOLYLINE
  5
44C
100
AcDbEntity
  8
262606150
100
AcDbPolyline
 62
7
  6
CONTINUOUS
 90
3
 70
0
 10
17.891479426
 20
-57.5308159704
 10
17.8793865275
 20
-57.2772577033
 10
17.8740758789
 20
-57.152396099
  0
LINE
  5
44D
100
AcDbEntity
  8
262606150
100
AcDbLine
 62
7
  6
CONTINUOUS
 10
15.6545444877
 20
-56.6306344148
 11
15.6429814596
 21
-56.3745810515
  0
LWPOLYLINE
  5
44E
100
AcDbEntity
  8
262606150
100
AcDbPolyline
 62
7
  6
CONTINUOUS
 90
3
 70
0
 10
17.7398210917
 20
-57.234981371
 10
17.7449934989
 20
-57.3579797802
 10
17.7568435826
 20
-57.60876901
  0
LINE
  5
44F
100
AcDbEntity
  8
262606150
100
AcDbLine
 62
7
  6
CONTINUOUS
 10
15.3494857154
 20
-56.1278041213
 11
15.3368594379
 21
-55.8075597464
  0
LINE
  5
450
100
AcDbEntity
  8
262606150
100
AcDbLine
 62
7
  6
CONTINUOUS
 10
15.6429814596
 20
-56.3745810515
 11
15.6330292181
 21
-56.1185929694
  0
LWPOLYLINE
  5
451
100
AcDbEntity
  8
262606150
100
AcDbPolyline
 62
7
  6
CONTINUOUS
 90
4
 70
0
 10
15.2026579902
 20
-55.8901122071
 10
15.2073719215
 20
-56.0180918639
 10
15.2124768586
 20
-56.1460580239
 10
15.2238685549
 20
-56.4020372622
  0
LWPOLYLINE
  5
452
100
AcDbEntity
  8
262606150
100
AcDbPolyline
 62
253
  6
CONTINUOUS
 90
6
 70
0
 10
-14.3232786115
 20
-34.3862124389
 10
-14.3017292714
 20
-34.369353932
 10
-14.2839790602
 20
-34.3509199836
 10
-14.2703845602
 20
-34.3311707806
 10
-14.2612311664
 20
-34.3103507898
 10
-14.2567905425
 20
-34.2888212021
  0
LWPOLYLINE
  5
453
100
AcDbEntity
  8
262606150
100
AcDbPolyline
 62
7
  6
CONTINUOUS
 90
8
 70
0
 10
-14.3866305675
 20
-34.5221997808
 10
-14.3577843162
 20
-34.4997105676
 10
-14.3314867972
 20
-34.4734256237
 10
-14.3083727444
 20
-34.4436945689
 10
-14.288982854
 20
-34.4109420342
 10
-14.2738378736
 20
-34.3758357084
 10
-14.2632950475
 20
-34.3391525669
 10
-14.2574681955
 20
-34.3011205981
  0
LWPOLYLINE
  5
454
100
AcDbEntity
  8
262606150
100
AcDbPolyline
 62
253
  6
CONTINUOUS
 90
8
 70
0
 10
16.9170154729
 20
-6.8852458166
 10
16.9329928147
 20
-6.8742434828
 10
16.946234103
 20
-6.8628733091
 10
16.9565153059
 20
-6.8513276998
 10
16.9636624869
 20
-6.8398020175
 10
16.967554736
 20
-6.8284912978
 10
16.9681262305
 20
-6.8175869478
 10
16.9676964609
 20
-6.8146732151
  0
LWPOLYLINE
  5
455
100
AcDbEntity
  8
262606150
100
AcDbPolyline
 62
253
  6
CONTINUOUS
 90
8
 70
0
 10
19.5166985445
 20
-8.2624002549
 10
19.5326758863
 20
-8.251397921
 10
19.5459171747
 20
-8.2400277473
 10
19.5561983775
 20
-8.2284821381
 10
19.5633455586
 20
-8.2169564558
 10
19.5672378076
 20
-8.205645736
 10
19.5678093022
 20
-8.194741386
 10
19.5673795326
 20
-8.1918276534
  0
LINE
  5
456
100
AcDbEntity
  8
262606150
100
AcDbLine
 62
253
  6
CONTINUOUS
 10
18.911572555
 20
-9.419496524
 11
19.9388277729
 21
-8.7379598289
  0
LINE
  5
457
100
AcDbEntity
  8
262606150
100
AcDbLine
 62
253
  6
CONTINUOUS
 10
19.3376261335
 20
-9.6451938726
 11
20.1622444115
 21
-9.0980974879
  0
LINE
  5
458
100
AcDbEntity
  8
262606150
100
AcDbLine
 62
253
  6
CONTINUOUS
 10
16.9170154729
 20
-6.8852458166
 11
15.635366236
 21
-7.6839610958
  0
LINE
  5
459
100
AcDbEntity
  8
262606150
100
AcDbLine
 62
253
  6
CONTINUOUS
 10
19.5166985445
 20
-8.2624002549
 11
18.2350493076
 21
-9.061115534
  0
LINE
  5
45A
100
AcDbEntity
  8
262606150
100
AcDbLine
 62
7
  6
CONTINUOUS
 10
16.606755965
 20
-6.6303398776
 11
15.2185609686
 21
-7.4631629415
  0
LINE
  5
45B
100
AcDbEntity
  8
262606150
100
AcDbLine
 62
7
  6
CONTINUOUS
 10
19.2064390367
 20
-8.0074943159
 11
17.8182440403
 21
-8.8403173798
  0
LINE
  5
45C
100
AcDbEntity
  8
262606150
100
AcDbLine
 62
7
  6
CONTINUOUS
 10
16.8912576288
 20
-7.123541981
 11
15.8058036504
 21
-7.7742485021
  0
LINE
  5
45D
100
AcDbEntity
  8
262606150
100
AcDbLine
 62
7
  6
CONTINUOUS
 10
19.4909407004
 20
-8.5006964192
 11
18.405486722
 21
-9.1514029403
  0
LINE
  5
45E
100
AcDbEntity
  8
262606150
100
AcDbLine
 62
7
  6
CONTINUOUS
 10
-19.0977615237
 20
-31.457615154
 11
-19.2393949431
 21
-31.5358260324
  0
LINE
  5
45F
100
AcDbEntity
  8
262606150
100
AcDbLine
 62
7
  6
CONTINUOUS
 10
-18.7082696206
 20
-31.2425352383
 11
-18.8853113947
 21
-31.3402988363
  0
LINE
  5
460
100
AcDbEntity
  8
262606150
100
AcDbLine
 62
7
  6
CONTINUOUS
 10
-19.4518450721
 20
-31.6531423501
 11
-19.5934784914
 21
-31.7313532285
  0
LINE
  5
461
100
AcDbEntity
  8
262606150
100
AcDbLine
 62
7
  6
CONTINUOUS
 10
-19.8059286205
 20
-31.8486695462
 11
-19.9475620398
 21
-31.9268804246
  0
LINE
  5
462
100
AcDbEntity
  8
262606150
100
AcDbLine
 62
7
  6
CONTINUOUS
 10
14.7540180041
 20
-7.2170762503
 11
15.8482897514
 21
-6.6346910996
  0
LINE
  5
463
100
AcDbEntity
  8
262606150
100
AcDbLine
 62
253
  6
CONTINUOUS
 10
14.8446418552
 20
-7.2650832709
 11
15.9988506402
 21
-6.6507988768
  0
LWPOLYLINE
  5
464
100
AcDbEntity
  8
262606150
100
AcDbPolyline
 62
253
  6
CONTINUOUS
 90
22
 70
0
 10
24.1437531527
 20
4.3464129252
 10
25.1089478502
 20
3.8471011326
 10
26.1112426319
 20
3.3438470705
 10
27.0915849477
 20
2.8661346372
 10
27.9961480444
 20
2.4362527694
 10
28.8116513082
 20
2.0577878186
 10
29.5852805289
 20
1.7075112519
 10
30.3550996173
 20
1.3668654166
 10
31.1396577268
 20
1.0265960647
 10
31.9436023253
 20
0.6850023986
 10
32.7678454711
 20
0.3423568081
 10
33.6075904459
 20
0.0013071016
 10
34.4582884928
 20
-0.3359112819
 10
35.326232491
 20
-0.6715325858
 10
36.2136782156
 20
-1.0062127753
 10
37.1098599557
 20
-1.3359610709
 10
38.0144529498
 20
-1.660819088
 10
38.9238333386
 20
-1.9794392313
 10
39.8194066531
 20
-2.2854052215
 10
40.6932405826
 20
-2.5763947836
 10
41.5509864387
 20
-2.8549274843
 10
42.3942167197
 20
-3.1221418966
  0
LINE
  5
465
100
AcDbEntity
  8
262606150
100
AcDbLine
 62
7
  6
CONTINUOUS
 10
46.6031520744
 20
-6.7721899628
 11
45.2243089614
 21
-6.041762499
  0
LWPOLYLINE
  5
466
100
AcDbEntity
  8
262606150
100
AcDbPolyline
 62
253
  6
CONTINUOUS
 90
22
 70
0
 10
-30.8693191347
 20
33.4890024544
 10
-31.8135686687
 20
34.0011984209
 10
-32.7674723775
 20
34.534219689
 10
-33.6751196391
 20
35.05664964
 10
-34.4935585956
 20
35.5395097716
 10
-35.2155335776
 20
35.9755075579
 10
-35.8851424698
 20
36.3897710208
 10
-36.5376431206
 20
36.8025839294
 10
-37.1905855053
 20
37.2238151647
 10
-37.8472874317
 20
37.6559834492
 10
-38.5073410915
 20
38.0996282937
 10
-39.1657631997
 20
38.5522166542
 10
-39.8183093404
 20
39.0113258797
 10
-40.469351939
 20
39.4803715586
 10
-41.120205172
 20
39.9605888695
 10
-41.7630944625
 20
40.4461470716
 10
-42.3980682838
 20
40.9368581891
 10
-43.0225021947
 20
41.4307598465
 10
-43.6238005201
 20
41.917745676
 10
-44.1973147621
 20
42.3934734034
 10
-44.7478679249
 20
42.860972119
 10
-45.2775662906
 20
43.321052045
  0
LWPOLYLINE
  5
467
100
AcDbEntity
  8
262606150
100
AcDbPolyline
 62
253
  6
CONTINUOUS
 90
7
 70
0
 10
20.1084208156
 20
-8.9025326079
 10
20.1230631084
 20
-8.9301464269
 10
20.135581523
 20
-8.9583994626
 10
20.1458317961
 20
-8.9869741459
 10
20.1536959216
 20
-9.0155448519
 10
20.1590869403
 20
-9.0437932922
 10
20.161946866
 20
-9.0714121782
  0
LWPOLYLINE
  5
468
100
AcDbEntity
  8
262606150
100
AcDbPolyline
 62
7
  6
CONTINUOUS
 90
4
 70
0
 10
16.9676964573
 20
-6.8146731965
 10
16.9588768922
 20
-6.7810019497
 10
16.9465713299
 20
-6.7503360416
 10
16.9312639228
 20
-6.722241068
  0
LWPOLYLINE
  5
469
100
AcDbEntity
  8
262606150
100
AcDbPolyline
 62
7
  6
CONTINUOUS
 90
4
 70
0
 10
19.567379529
 20
-8.1918276347
 10
19.5585599639
 20
-8.1581563879
 10
19.5462544015
 20
-8.1274904799
 10
19.5309469945
 20
-8.0993955063
  0
LWPOLYLINE
  5
46A
100
AcDbEntity
  8
262606150
100
AcDbPolyline
 62
253
  6
CONTINUOUS
 90
5
 70
0
 10
16.9170154729
 20
-6.8852458166
 10
16.9103448103
 20
-6.8574145888
 10
16.9009955834
 20
-6.829270771
 10
16.8890831247
 20
-6.8012452373
 10
16.8747463218
 20
-6.7737421605
  0
LWPOLYLINE
  5
46B
100
AcDbEntity
  8
262606150
100
AcDbPolyline
 62
253
  6
CONTINUOUS
 90
5
 70
0
 10
19.5166985445
 20
-8.2624002549
 10
19.5100278819
 20
-8.2345690271
 10
19.5006786551
 20
-8.2064252093
 10
19.4887661964
 20
-8.1783996756
 10
19.4744293935
 20
-8.1508965987
  0
LINE
  5
46C
100
AcDbEntity
  8
262606150
100
AcDbLine
 62
253
  6
CONTINUOUS
 10
16.9583663757
 20
-7.0999162035
 11
16.9170154729
 21
-6.8852458166
  0
LINE
  5
46D
100
AcDbEntity
  8
262606150
100
AcDbLine
 62
7
  6
CONTINUOUS
 10
17.0230410869
 20
-7.1019910598
 11
16.9676964609
 21
-6.8146732151
  0
LINE
  5
46E
100
AcDbEntity
  8
262606150
100
AcDbLine
 62
253
  6
CONTINUOUS
 10
19.5580494473
 20
-8.4770706418
 11
19.5166985445
 21
-8.2624002549
  0
LINE
  5
46F
100
AcDbEntity
  8
262606150
100
AcDbLine
 62
7
  6
CONTINUOUS
 10
19.6227241586
 20
-8.4791454981
 11
19.5673795326
 21
-8.1918276534
  0
LINE
  5
470
100
AcDbEntity
  8
262606150
100
AcDbLine
 62
253
  6
CONTINUOUS
 10
20.161946866
 20
-9.0714121782
 11
20.1622444115
 21
-9.0980974879
  0
LINE
  5
471
100
AcDbEntity
  8
262606150
100
AcDbLine
 62
253
  6
CONTINUOUS
 10
21.4507173916
 20
-37.9511746864
 11
21.009188575
 21
-56.1982667432
  0
LINE
  5
472
100
AcDbEntity
  8
262606150
100
AcDbLine
 62
253
  6
CONTINUOUS
 10
20.1622444115
 20
-9.0980974879
 11
20.1520195402
 21
-9.5106086316
  0
LINE
  5
473
100
AcDbEntity
  8
262606150
100
AcDbLine
 62
253
  6
CONTINUOUS
 10
19.1012180239
 20
-52.092483788
 11
19.1215847565
 21
-51.2708104455
  0
LINE
  5
474
100
AcDbEntity
  8
262606150
100
AcDbLine
 62
7
  6
CONTINUOUS
 10
20.2291200985
 20
-8.9941148651
 11
20.2188952272
 21
-9.4066260087
  0
LINE
  5
475
100
AcDbEntity
  8
262606150
100
AcDbLine
 62
7
  6
CONTINUOUS
 10
19.1680937109
 20
-51.9885011651
 11
19.1869546758
 21
-51.2275763584
  0
LINE
  5
476
100
AcDbEntity
  8
262606150
100
AcDbLine
 62
7
  6
CONTINUOUS
 10
22.0830099697
 20
23.6301095423
 11
21.1783557765
 21
-12.8673755263
  0
LINE
  5
477
100
AcDbEntity
  8
262606150
100
AcDbLine
 62
7
  6
CONTINUOUS
 10
21.0235049461
 20
-19.1146613133
 11
20.1188761693
 21
-55.6114364102
  0
LINE
  5
478
100
AcDbEntity
  8
262606150
100
AcDbLine
 62
253
  6
CONTINUOUS
 10
21.17922513
 20
-15.5595304429
 11
21.1705320841
 21
-15.9102417817
  0
LINE
  5
479
100
AcDbEntity
  8
262606150
100
AcDbLine
 62
253
  6
CONTINUOUS
 10
21.9030451972
 20
-19.7025237743
 11
21.4507177628
 21
-37.9511747182
  0
LINE
  5
47A
100
AcDbEntity
  8
262606150
100
AcDbLine
 62
253
  6
CONTINUOUS
 10
24.5983125857
 20
22.5956020775
 11
23.6914256456
 21
-13.90224095
  0
LINE
  5
47B
100
AcDbEntity
  8
262606150
100
AcDbLine
 62
253
  6
CONTINUOUS
 10
23.5365748848
 20
-20.1495239275
 11
22.6379878297
 21
-56.495552136
  0
LINE
  5
47C
100
AcDbEntity
  8
262606150
100
AcDbLine
 62
253
  6
CONTINUOUS
 10
22.6379878297
 20
-56.495552136
 11
22.6349733771
 21
-56.6131446549
  0
LINE
  5
47D
100
AcDbEntity
  8
262606150
100
AcDbLine
 62
253
  6
CONTINUOUS
 10
22.9732268013
 20
23.0387117782
 11
22.057895958
 21
-13.4552407967
  0
LWPOLYLINE
  5
47E
100
AcDbEntity
  8
262606150
100
AcDbPolyline
 62
253
  6
CONTINUOUS
 90
52
 70
0
 10
21.0091737958
 20
-56.1982788934
 10
21.0053100934
 20
-56.2841729576
 10
20.997352825
 20
-56.3645034812
 10
20.9857864063
 20
-56.4393107181
 10
20.9710995073
 20
-56.5084941338
 10
20.9537512279
 20
-56.5723828372
 10
20.9340791871
 20
-56.6316675459
 10
20.9124069079
 20
-56.6865634547
 10
20.8890790917
 20
-56.737135799
 10
20.8643281608
 20
-56.7837968829
 10
20.8384274858
 20
-56.8267297446
 10
20.811623011
 20
-56.8660695735
 10
20.7840305753
 20
-56.9021190982
 10
20.7558528261
 20
-56.9350372437
 10
20.7272938511
 20
-56.9649820981
 10
20.6984189516
 20
-56.9922181024
 10
20.6693996376
 20
-57.0168831645
 10
20.6403773218
 20
-57.0391356643
 10
20.6113258972
 20
-57.059227741
 10
20.5823525177
 20
-57.0772907832
 10
20.5535777892
 20
-57.0934414666
 10
20.5249577406
 20
-57.1078663477
 10
20.4965134032
 20
-57.120707594
 10
20.4683891066
 20
-57.1320256831
 10
20.4407137571
 20
-57.1418740494
 10
20.4136433105
 20
-57.150338698
 10
20.3871743628
 20
-57.1575570136
 10
20.361189019
 20
-57.1636493237
 10
20.3359437725
 20
-57.1686517638
 10
20.3112960938
 20
-57.172712828
 10
20.2864856366
 20
-57.1760305039
 10
20.2613524553
 20
-57.1786319771
 10
20.2360839433
 20
-57.1805020684
 10
20.2103977047
 20
-57.1816774877
 10
20.1843525344
 20
-57.1821485882
 10
20.1579006876
 20
-57.1818983082
 10
20.130576795
 20
-57.1808872515
 10
20.1023425419
 20
-57.1790569713
 10
20.0732260077
 20
-57.1763550953
 10
20.0428407121
 20
-57.1726775053
 10
20.0110123456
 20
-57.1679110569
 10
19.97789443
 20
-57.1619715177
 10
19.9435906104
 20
-57.1547731958
 10
19.9081927465
 20
-57.146257977
 10
19.8716191
 20
-57.1363163175
 10
19.8337242215
 20
-57.1247862044
 10
19.7946082559
 20
-57.1115961341
 10
19.7542102259
 20
-57.0966276257
 10
19.712150781
 20
-57.0795994995
 10
19.6683277136
 20
-57.0603093484
 10
19.622918418
 20
-57.0386770735
 10
19.5759742657
 20
-57.0145668428
  0
LWPOLYLINE
  5
47F
100
AcDbEntity
  8
262606150
100
AcDbPolyline
 62
7
  6
CONTINUOUS
 90
4
 70
0
 10
20.1188406095
 20
-55.6121351742
 10
20.118528352
 20
-55.6185225119
 10
20.118343749
 20
-55.6204808028
 10
20.1186351205
 20
-55.6187351955
  0
LWPOLYLINE
  5
480
100
AcDbEntity
  8
262606150
100
AcDbPolyline
 62
253
  6
CONTINUOUS
 90
37
 70
0
 10
23.6914153855
 20
-13.9022473434
 10
23.6822396234
 20
-14.0779112251
 10
23.6635365733
 20
-14.2472315029
 10
23.6355295727
 20
-14.4096839023
 10
23.5983193785
 20
-14.5653812654
 10
23.5521981979
 20
-14.7132230925
 10
23.4980894672
 20
-14.8511972649
 10
23.4366538308
 20
-14.9791839792
 10
23.3684650223
 20
-15.0971659168
 10
23.2949327796
 20
-15.2039150767
 10
23.217134915
 20
-15.29955265
 10
23.1356709539
 20
-15.3848074702
 10
23.0515340583
 20
-15.4598134483
 10
22.9656610749
 20
-15.5250261239
 10
22.8785901956
 20
-15.5812160863
 10
22.7906860192
 20
-15.6290629073
 10
22.7025352195
 20
-15.669136825
 10
22.6146225539
 20
-15.7020399769
 10
22.5270327109
 20
-15.728387849
 10
22.4401493441
 20
-15.7486925897
 10
22.3543091832
 20
-15.7634672222
 10
22.2694247117
 20
-15.7731872154
 10
22.1857423006
 20
-15.7782556169
 10
22.1034979757
 20
-15.7791131515
 10
22.0225205839
 20
-15.7761602398
 10
21.9429690675
 20
-15.769710818
 10
21.8650354083
 20
-15.7601290358
 10
21.7885404692
 20
-15.7477810501
 10
21.7136184687
 20
-15.7329184458
 10
21.640457204
 20
-15.7158539971
 10
21.5689549687
 20
-15.6969672094
 10
21.4993025832
 20
-15.6765742475
 10
21.4316761823
 20
-15.6548693818
 10
21.3658435164
 20
-15.6319579533
 10
21.3017508884
 20
-15.6079810106
 10
21.2395470239
 20
-15.5831518779
 10
21.1792705727
 20
-15.557639627
  0
LWPOLYLINE
  5
481
100
AcDbEntity
  8
262606150
100
AcDbPolyline
 62
253
  6
CONTINUOUS
 90
7
 70
0
 10
20.2291200985
 20
-8.9941148651
 10
20.2288392629
 20
-8.9994719
 10
20.2246891618
 20
-9.020973891
 10
20.2157701239
 20
-9.0419174265
 10
20.2022304515
 20
-9.0619635393
 10
20.1842911617
 20
-9.080791109
 10
20.1622444115
 20
-9.0980974879
  0
LWPOLYLINE
  5
482
100
AcDbEntity
  8
262606150
100
AcDbPolyline
 62
253
  6
CONTINUOUS
 90
37
 70
0
 10
22.057895958
 20
-13.4552407967
 10
22.0530173061
 20
-13.5470219112
 10
22.0430868291
 20
-13.6354577147
 10
22.02819439
 20
-13.7202583899
 10
22.0083554554
 20
-13.8014506707
 10
21.9837491162
 20
-13.8784542608
 10
21.9548966618
 20
-13.9502373085
 10
21.9221121081
 20
-14.0167274305
 10
21.8856985184
 20
-14.0779128974
 10
21.8464613701
 20
-14.1331902659
 10
21.8049542523
 20
-14.1826151305
 10
21.7614800064
 20
-14.2265596385
 10
21.7166092734
 20
-14.2651319942
 10
21.6708373467
 20
-14.2985734346
 10
21.6244420852
 20
-14.3272795913
 10
21.5776461367
 20
-14.3516311383
 10
21.5307648023
 20
-14.3719332925
 10
21.4840627868
 20
-14.3885013999
 10
21.4376216717
 20
-14.4016812368
 10
21.3916610821
 20
-14.4117552538
 10
21.346381621
 20
-14.4189990928
 10
21.301783316
 20
-14.4236882881
 10
21.2580255887
 20
-14.4260665101
 10
21.2152468527
 20
-14.4263710718
 10
21.1733766113
 20
-14.4248096093
 10
21.1325358738
 20
-14.4215843352
 10
21.0928093605
 20
-14.4168916443
 10
21.0540424903
 20
-14.4108708926
 10
21.0163193398
 20
-14.4036794617
 10
20.9796925895
 20
-14.3954716143
 10
20.9439370021
 20
-14.3863193963
 10
20.9090723878
 20
-14.3763283361
 10
20.8751651994
 20
-14.3656177444
 10
20.8420433996
 20
-14.3542268891
 10
20.8096664131
 20
-14.3422164018
 10
20.7781291011
 20
-14.3296897212
 10
20.7474541896
 20
-14.3167268504
  0
LINE
  5
483
100
AcDbEntity
  8
262606150
100
AcDbLine
 62
253
  6
CONTINUOUS
 10
20.2188952272
 20
-9.4066260087
 11
20.2185748193
 21
-9.4124621614
  0
LWPOLYLINE
  5
484
100
AcDbEntity
  8
262606150
100
AcDbPolyline
 62
253
  6
CONTINUOUS
 90
8
 70
0
 10
20.1520195402
 20
-9.5106086316
 10
20.150489934
 20
-9.5351770832
 10
20.1464767228
 20
-9.5583918272
 10
20.1399925265
 20
-9.5799843635
 10
20.1310637272
 20
-9.5997242767
 10
20.1197662216
 20
-9.6173392041
 10
20.1062566024
 20
-9.6325496516
 10
20.0923720361
 20
-9.6440140934
  0
LWPOLYLINE
  5
485
100
AcDbEntity
  8
262606150
100
AcDbPolyline
 62
253
  6
CONTINUOUS
 90
8
 70
0
 10
19.1012180239
 20
-52.092483788
 10
19.099292552
 20
-52.117726878
 10
19.0948190438
 20
-52.1414639908
 10
19.0878466073
 20
-52.1634332791
 10
19.0784504709
 20
-52.1833949234
 10
19.06673485
 20
-52.2011254569
 10
19.0528348889
 20
-52.2164233773
 10
19.0378738143
 20
-52.2284658166
  0
LWPOLYLINE
  5
486
100
AcDbEntity
  8
262606150
100
AcDbPolyline
 62
7
  6
CONTINUOUS
 90
7
 70
0
 10
20.2188952272
 20
-9.4066260087
 10
20.2157003081
 20
-9.4434744963
 10
20.2078747954
 20
-9.4800854834
 10
20.1954130931
 20
-9.5157632519
 10
20.178370312
 20
-9.5499252334
 10
20.1570410011
 20
-9.5817585179
 10
20.1319897207
 20
-9.6104503285
  0
LWPOLYLINE
  5
487
100
AcDbEntity
  8
262606150
100
AcDbPolyline
 62
253
  6
CONTINUOUS
 90
6
 70
0
 10
20.2185748193
 20
-9.4124621614
 10
20.2143508876
 20
-9.4338509331
 10
20.205404063
 20
-9.4546855086
 10
20.1918774063
 20
-9.4746327409
 10
20.17398721
 20
-9.4933736716
 10
20.1520195402
 20
-9.5106086316
  0
LINE
  5
488
100
AcDbEntity
  8
262606150
100
AcDbLine
 62
7
  6
CONTINUOUS
 10
20.1319897207
 20
-9.6104503285
 11
20.1034109557
 21
-9.6358097912
  0
LINE
  5
489
100
AcDbEntity
  8
262606150
100
AcDbLine
 62
7
  6
CONTINUOUS
 10
20.1034109557
 20
-9.6358097912
 11
20.0922253627
 21
-9.6441178057
  0
LINE
  5
48A
100
AcDbEntity
  8
262606150
100
AcDbLine
 62
253
  6
CONTINUOUS
 10
19.6948097152
 20
-9.8344080734
 11
20.1520195402
 21
-9.5106086316
  0
LINE
  5
48B
100
AcDbEntity
  8
262606150
100
AcDbLine
 62
7
  6
CONTINUOUS
 10
19.76844991
 20
-9.8734181829
 11
20.0923720361
 21
-9.6440140934
  0
LINE
  5
48C
100
AcDbEntity
  8
262606150
100
AcDbLine
 62
7
  6
CONTINUOUS
 10
-14.6594724022
 20
-33.8087515785
 11
-14.7855351225
 21
-33.8952108691
  0
LINE
  5
48D
100
AcDbEntity
  8
262606150
100
AcDbLine
 62
7
  6
CONTINUOUS
 10
-14.3127999214
 20
-33.5709885295
 11
-14.4703783218
 21
-33.6790626427
  0
LINE
  5
48E
100
AcDbEntity
  8
262606150
100
AcDbLine
 62
7
  6
CONTINUOUS
 10
-14.974629203
 20
-34.0248998049
 11
-15.1006919233
 21
-34.1113590954
  0
LINE
  5
48F
100
AcDbEntity
  8
262606150
100
AcDbLine
 62
7
  6
CONTINUOUS
 10
-15.2897860037
 20
-34.2410480312
 11
-15.415848724
 21
-34.3275073218
  0
LINE
  5
490
100
AcDbEntity
  8
262606150
100
AcDbLine
 62
253
  6
CONTINUOUS
 10
-14.9265489677
 20
-34.799961459
 11
-14.3232786115
 21
-34.3862124389
  0
LINE
  5
491
100
AcDbEntity
  8
262606150
100
AcDbLine
 62
7
  6
CONTINUOUS
 10
-14.8504226702
 20
-34.8402885549
 11
-14.3866305675
 21
-34.5221997808
  0
LWPOLYLINE
  5
492
100
AcDbEntity
  8
262606150
100
AcDbPolyline
 62
7
  6
CONTINUOUS
 90
4
 70
0
 10
-14.2476120941
 20
-33.5290799001
 10
-14.2417265405
 20
-33.5251079858
 10
-14.2384375444
 20
-33.522443406
 10
-14.2375388644
 20
-33.5211798164
  0
LINE
  5
493
100
AcDbEntity
  8
262606150
100
AcDbLine
 62
253
  6
CONTINUOUS
 10
21.1454655568
 20
-12.6680340646
 11
21.1839358114
 21
-12.6422551785
  0
LWPOLYLINE
  5
494
100
AcDbEntity
  8
262606150
100
AcDbPolyline
 62
7
  6
CONTINUOUS
 90
4
 70
0
 10
-14.3029118789
 20
-33.5645390965
 10
-14.2839074147
 20
-33.5532959465
 10
-14.2684628772
 20
-33.5434047901
 10
-14.2476120941
 20
-33.5290799001
  0
LWPOLYLINE
  5
495
100
AcDbEntity
  8
262606150
100
AcDbPolyline
 62
253
  6
CONTINUOUS
 90
13
 70
0
 10
43.5625394278
 20
-3.0394308072
 10
43.4842059838
 20
-3.0782200101
 10
43.3988962563
 20
-3.1119771033
 10
43.30755734
 20
-3.1403273211
 10
43.211203265
 20
-3.162955924
 10
43.1109037388
 20
-3.1796116928
 10
43.0077722706
 20
-3.1901097178
 10
42.9029538095
 20
-3.1943334517
 10
42.7976120331
 20
-3.1922360031
 10
42.6929164289
 20
-3.1838406578
 10
42.5900293109
 20
-3.1692406194
 10
42.4900929152
 20
-3.1485979752
 10
42.3942167197
 20
-3.1221418966
  0
LWPOLYLINE
  5
496
100
AcDbEntity
  8
262606150
100
AcDbPolyline
 62
7
  6
CONTINUOUS
 90
4
 70
0
 10
-18.6971592169
 20
-31.236733338
 10
-18.6730068285
 20
-31.2282172461
 10
-18.647709595
 20
-31.2235454505
 10
-18.6217668677
 20
-31.222648924
  0
LWPOLYLINE
  5
497
100
AcDbEntity
  8
262606150
100
AcDbPolyline
 62
253
  6
CONTINUOUS
 90
18
 70
0
 10
22.9732124143
 20
23.038700065
 10
22.8826953614
 20
23.0453777824
 10
22.793982301
 20
23.0591826836
 10
22.7078058858
 20
23.0796762496
 10
22.6249190315
 20
23.1076982564
 10
22.5459151473
 20
23.141214868
 10
22.4713089998
 20
23.1760802229
 10
22.4017267359
 20
23.2108491326
 10
22.3377928581
 20
23.2473336205
 10
22.280026087
 20
23.2866689969
 10
22.2288963613
 20
23.3287165917
 10
22.1848801017
 20
23.3730886486
 10
22.1484108665
 20
23.4200441694
 10
22.1198030863
 20
23.4693118239
 10
22.0992587961
 20
23.5200713435
 10
22.0869306677
 20
23.5716253005
 10
22.0829203445
 20
23.6234811465
 10
22.0829921154
 20
23.6293191824
  0
LWPOLYLINE
  5
498
100
AcDbEntity
  8
262606150
100
AcDbPolyline
 62
253
  6
CONTINUOUS
 90
52
 70
0
 10
22.6349744717
 20
-56.6131439408
 10
22.6262137052
 20
-56.7771402037
 10
22.6094874425
 20
-56.930266843
 10
22.585829736
 20
-57.072479469
 10
22.5562420241
 20
-57.2035247415
 10
22.5217197949
 20
-57.3239565067
 10
22.4832142706
 20
-57.4349940352
 10
22.4417958512
 20
-57.5371046698
 10
22.398035801
 20
-57.6304661378
 10
22.3517335306
 20
-57.7159357563
 10
22.3031191509
 20
-57.7940003695
 10
22.2527627094
 20
-57.8651922599
 10
22.2008492317
 20
-57.9301446186
 10
22.1477686885
 20
-57.989080283
 10
22.0939746238
 20
-58.0421883839
 10
22.0396583834
 20
-58.0899593927
 10
21.985119876
 20
-58.1326789831
 10
21.9305939448
 20
-58.1706858467
 10
21.8761104954
 20
-58.2044900888
 10
21.8219861027
 20
-58.2342797353
 10
21.76846805
 20
-58.2602807166
 10
21.71536044
 20
-58.2829891905
 10
21.6624246852
 20
-58.3026579475
 10
21.609749361
 20
-58.319586054
 10
21.5574191066
 20
-58.3343331243
 10
21.5054506347
 20
-58.3471451099
 10
21.4538077645
 20
-58.3580577693
 10
21.4025963507
 20
-58.3672413129
 10
21.3528196132
 20
-58.3748970649
 10
21.3046136692
 20
-58.3809582516
 10
21.2570564413
 20
-58.3850586832
 10
21.2099557901
 20
-58.3870097218
 10
21.1632894827
 20
-58.3872346734
 10
21.1160686753
 20
-58.3861516158
 10
21.0682324494
 20
-58.3838746354
 10
21.0197694311
 20
-58.3802570101
 10
20.9698010854
 20
-58.3751555349
 10
20.9182688154
 20
-58.3683952069
 10
20.8652968849
 20
-58.3599697332
 10
20.810256022
 20
-58.3498546309
 10
20.7528418889
 20
-58.3376726886
 10
20.6930375305
 20
-58.323423584
 10
20.6305312024
 20
-58.3075235939
 10
20.5650464312
 20
-58.2899154994
 10
20.4964553726
 20
-58.2700942754
 10
20.4245921404
 20
-58.2477284283
 10
20.3495818487
 20
-58.2227509573
 10
20.2714497134
 20
-58.1947566631
 10
20.189953427
 20
-58.162893638
 10
20.1052080343
 20
-58.1267504724
 10
20.0174549027
 20
-58.0862962789
 10
19.926701657
 20
-58.0412362775
  0
LINE
  5
499
100
AcDbEntity
  8
262606150
100
AcDbLine
 62
7
  6
CONTINUOUS
 10
17.1819134606
 20
-58.9661881957
 11
17.2304273095
 21
-58.7500159917
  0
LINE
  5
49A
100
AcDbEntity
  8
262606150
100
AcDbLine
 62
7
  6
CONTINUOUS
 10
17.1024186241
 20
-58.8026684392
 11
17.0468841926
 21
-59.0492498805
  0
LINE
  5
49B
100
AcDbEntity
  8
262606150
100
AcDbLine
 62
7
  6
CONTINUOUS
 10
17.2304273095
 20
-58.7500159917
 11
17.2792419347
 21
-58.5374793257
  0
LINE
  5
49C
100
AcDbEntity
  8
262606150
100
AcDbLine
 62
7
  6
CONTINUOUS
 10
17.1583587122
 20
-58.5606420176
 11
17.1024186241
 21
-58.8026684392
  0
LINE
  5
49D
100
AcDbEntity
  8
262606150
100
AcDbLine
 62
7
  6
CONTINUOUS
 10
17.2792419347
 20
-58.5374793257
 11
17.3285220251
 21
-58.3274174912
  0
LINE
  5
49E
100
AcDbEntity
  8
262606150
100
AcDbLine
 62
7
  6
CONTINUOUS
 10
17.2149796821
 20
-58.3213570185
 11
17.1583587122
 21
-58.5606420176
  0
LINE
  5
49F
100
AcDbEntity
  8
262606150
100
AcDbLine
 62
7
  6
CONTINUOUS
 10
17.3285220251
 20
-58.3274174912
 11
17.3700882939
 21
-58.1534789876
  0
LINE
  5
4A0
100
AcDbEntity
  8
262606150
100
AcDbLine
 62
7
  6
CONTINUOUS
 10
16.7679286492
 20
-58.1554864704
 11
16.8261281358
 21
-57.9141974779
  0
LINE
  5
4A1
100
AcDbEntity
  8
262606150
100
AcDbLine
 62
7
  6
CONTINUOUS
 10
17.2726599611
 20
-58.0828764431
 11
17.2149796821
 21
-58.3213570185
  0
LINE
  5
4A2
100
AcDbEntity
  8
262606150
100
AcDbLine
 62
7
  6
CONTINUOUS
 10
16.8261281358
 20
-57.9141974779
 11
16.8885044578
 21
-57.6613245057
  0
LWPOLYLINE
  5
4A3
100
AcDbEntity
  8
262606150
100
AcDbPolyline
 62
7
  6
CONTINUOUS
 90
3
 70
0
 10
17.3469393567
 20
-57.7829270328
 10
17.3318583347
 20
-57.843207215
 10
17.2726599611
 20
-58.0828764431
  0
LINE
  5
4A4
100
AcDbEntity
  8
262606150
100
AcDbLine
 62
7
  6
CONTINUOUS
 10
16.8885044578
 20
-57.6613245057
 11
16.9537795754
 21
-57.4026939175
  0
LINE
  5
4A5
100
AcDbEntity
  8
262606150
100
AcDbLine
 62
7
  6
CONTINUOUS
 10
16.9537795754
 20
-57.4026939175
 11
17.0208278252
 21
-57.1435924963
  0
LWPOLYLINE
  5
4A6
100
AcDbEntity
  8
262606150
100
AcDbPolyline
 62
7
  6
CONTINUOUS
 90
3
 70
0
 10
17.0208278252
 20
-57.1435924963
 10
17.065716497
 20
-56.9740107369
 10
17.0882177844
 20
-56.8901656135
  0
LWPOLYLINE
  5
4A7
100
AcDbEntity
  8
262606150
100
AcDbPolyline
 62
7
  6
CONTINUOUS
 90
10
 70
0
 10
14.0662511322
 20
-57.3228719578
 10
14.1245354521
 20
-57.1078113624
 10
14.1831080497
 20
-56.8955635223
 10
14.241968925
 20
-56.6861284373
 10
14.3004319045
 20
-56.4818002621
 10
14.3591831616
 20
-56.2802848421
 10
14.4202812174
 20
-56.074699714
 10
14.4844122453
 20
-55.8627507234
 10
14.5508900718
 20
-55.6467320247
 10
14.6197146968
 20
-55.4266436178
  0
LINE
  5
4A8
100
AcDbEntity
  8
262606150
100
AcDbLine
 62
7
  6
CONTINUOUS
 10
13.6614544679
 20
-56.5941080319
 11
13.7208080328
 21
-56.3863856976
  0
LINE
  5
4A9
100
AcDbEntity
  8
262606150
100
AcDbLine
 62
7
  6
CONTINUOUS
 10
13.7208080328
 20
-56.3863856976
 11
13.7841174901
 21
-56.1690613685
  0
LINE
  5
4AA
100
AcDbEntity
  8
262606150
100
AcDbLine
 62
7
  6
CONTINUOUS
 10
13.7841174901
 20
-56.1690613685
 11
13.8508822038
 21
-55.9439902827
  0
LINE
  5
4AB
100
AcDbEntity
  8
262606150
100
AcDbLine
 62
7
  6
CONTINUOUS
 10
13.8508822038
 20
-55.9439902827
 11
13.9195142262
 21
-55.7172983028
  0
LINE
  5
4AC
100
AcDbEntity
  8
262606150
100
AcDbLine
 62
7
  6
CONTINUOUS
 10
13.9195142262
 20
-55.7172983028
 11
13.9878597315
 21
-55.4955191406
  0
LWPOLYLINE
  5
4AD
100
AcDbEntity
  8
262606150
100
AcDbPolyline
 62
7
  6
CONTINUOUS
 90
10
 70
0
 10
14.4855170195
 20
-55.5091937593
 10
14.4177550938
 20
-55.7255577239
 10
14.3519184263
 20
-55.9392394448
 10
14.288007017
 20
-56.150238922
 10
14.2265278854
 20
-56.3568528387
 10
14.1669740121
 20
-56.5607845118
 10
14.1078243378
 20
-56.7671438914
 10
14.048571843
 20
-56.9776342941
 10
13.9897235473
 20
-57.1905524033
 10
13.9312794507
 20
-57.405898219
  0
LINE
  5
4AE
100
AcDbEntity
  8
262606150
100
AcDbLine
 62
7
  6
CONTINUOUS
 10
13.9878597315
 20
-55.4955191406
 11
14.0552968237
 21
-55.2805954306
  0
LWPOLYLINE
  5
4AF
100
AcDbEntity
  8
262606150
100
AcDbPolyline
 62
253
  6
CONTINUOUS
 90
15
 70
0
 10
20.5481241761
 20
-17.4237812379
 10
20.5093758272
 20
-17.518868081
 10
20.4768325985
 20
-17.6143915562
 10
20.450845856
 20
-17.7093203062
 10
20.4316961761
 20
-17.8026293949
 10
20.4195903157
 20
-17.8933113735
 10
20.4146589807
 20
-17.9803871579
 10
20.4169554141
 20
-18.0629165997
 10
20.4264548217
 20
-18.1400086367
 10
20.4430546393
 20
-18.2108309142
 10
20.4665756403
 20
-18.2746187712
 10
20.4967638709
 20
-18.3306834966
 10
20.5332933917
 20
-18.3784197652
 10
20.5757697974
 20
-18.4173121735
 10
20.6159752206
 20
-18.442976772
  0
LWPOLYLINE
  5
4B0
100
AcDbEntity
  8
262606150
100
AcDbPolyline
 62
253
  6
CONTINUOUS
 90
10
 70
0
 10
20.5481241761
 20
-17.4237812379
 10
20.6262409152
 20
-17.2374104127
 10
20.6965579918
 20
-17.0500208699
 10
20.7587501122
 20
-16.8624794926
 10
20.8125295695
 20
-16.6756538663
 10
20.8576475748
 20
-16.4904082658
 10
20.8938954076
 20
-16.3075996564
 10
20.9211053822
 20
-16.1280737295
 10
20.9391516229
 20
-15.9526609902
 10
20.9479506462
 20
-15.7821729154
  0
LWPOLYLINE
  5
4B1
100
AcDbEntity
  8
262606150
100
AcDbPolyline
 62
253
  6
CONTINUOUS
 90
10
 70
0
 10
20.6687100622
 20
-17.4935395501
 10
20.756352096
 20
-17.3126054802
 10
20.8366734204
 20
-17.1309397511
 10
20.9093513424
 20
-16.9494124445
 10
20.974148693
 20
-16.7689331317
 10
21.0307922816
 20
-16.5903424773
 10
21.0789353995
 20
-16.4143874275
 10
21.1183371763
 20
-16.2418647213
 10
21.1489008525
 20
-16.0736371042
 10
21.1705254104
 20
-15.9105110261
  0
LINE
  5
4B2
100
AcDbEntity
  8
262606150
100
AcDbLine
 62
7
  6
CONTINUOUS
 10
46.7529082064
 20
-0.7304441548
 11
45.3330088308
 21
-1.65638628
  0
LINE
  5
4B3
100
AcDbEntity
  8
262606150
100
AcDbLine
 62
7
  6
CONTINUOUS
 10
45.1903830632
 20
-7.4104654064
 11
46.6031520744
 21
-6.7721899628
  0
LWPOLYLINE
  5
4B4
100
AcDbEntity
  8
262606150
100
AcDbPolyline
 62
253
  6
CONTINUOUS
 90
10
 70
0
 10
22.9732268013
 20
23.0387117782
 10
23.17097959
 20
23.0175594528
 10
23.3663968242
 20
22.988979942
 10
23.5586109924
 20
22.9531001179
 10
23.7467688023
 20
22.9100792606
 10
23.9300349691
 20
22.8601083514
 10
24.1075959231
 20
22.8034092246
 10
24.2786634218
 20
22.7402335831
 10
24.4424780489
 20
22.6708618808
 10
24.5983125857
 20
22.5956020775
  0
LINE
  5
4B5
100
AcDbEntity
  8
262606150
100
AcDbLine
 62
7
  6
CONTINUOUS
 10
18.7492930663
 20
-59.783661812
 11
18.811612825
 21
-59.5510331273
  0
LINE
  5
4B6
100
AcDbEntity
  8
262606150
100
AcDbLine
 62
7
  6
CONTINUOUS
 10
18.6801631564
 20
-59.6210218902
 11
18.6142063349
 21
-59.8667588448
  0
LINE
  5
4B7
100
AcDbEntity
  8
262606150
100
AcDbLine
 62
7
  6
CONTINUOUS
 10
18.1795638966
 20
-59.6408932355
 11
18.2655200166
 21
-59.322154455
  0
LINE
  5
4B8
100
AcDbEntity
  8
262606150
100
AcDbLine
 62
7
  6
CONTINUOUS
 10
18.7131745245
 20
-59.4999269344
 11
18.6801631564
 21
-59.6210218902
  0
LINE
  5
4B9
100
AcDbEntity
  8
262606150
100
AcDbLine
 62
7
  6
CONTINUOUS
 10
18.2655200166
 20
-59.322154455
 11
18.3464649069
 21
-59.029502945
  0
LINE
  5
4BA
100
AcDbEntity
  8
262606150
100
AcDbLine
 62
7
  6
CONTINUOUS
 10
18.3464649069
 20
-59.029502945
 11
18.433812655
 21
-58.7206876725
  0
LWPOLYLINE
  5
4BB
100
AcDbEntity
  8
262606150
100
AcDbPolyline
 62
7
  6
CONTINUOUS
 90
3
 70
0
 10
18.9469255724
 20
-59.06054801
 10
19.0203359672
 20
-58.80148532
 10
19.0338015445
 20
-58.7544684447
  0
LINE
  5
4BC
100
AcDbEntity
  8
262606150
100
AcDbLine
 62
7
  6
CONTINUOUS
 10
18.8857147428
 20
-58.8841225898
 11
18.8121517455
 21
-59.1434525632
  0
LINE
  5
4BD
100
AcDbEntity
  8
262606150
100
AcDbLine
 62
7
  6
CONTINUOUS
 10
18.433812655
 20
-58.7206876725
 11
18.5272541545
 21
-58.3973216414
  0
LINE
  5
4BE
100
AcDbEntity
  8
262606150
100
AcDbLine
 62
7
  6
CONTINUOUS
 10
18.9754853496
 20
-58.5732820202
 11
18.8857147428
 21
-58.8841225898
  0
LINE
  5
4BF
100
AcDbEntity
  8
262606150
100
AcDbLine
 62
7
  6
CONTINUOUS
 10
18.5272541545
 20
-58.3973216414
 11
18.6236565134
 21
-58.0707031029
  0
LWPOLYLINE
  5
4C0
100
AcDbEntity
  8
262606150
100
AcDbPolyline
 62
7
  6
CONTINUOUS
 90
3
 70
0
 10
18.6236565134
 20
-58.0707031029
 10
18.6879676308
 20
-57.8576751379
 10
18.7201360528
 20
-57.7525764736
  0
LINE
  5
4C1
100
AcDbEntity
  8
262606150
100
AcDbLine
 62
7
  6
CONTINUOUS
 10
13.3797717713
 20
-49.7949336007
 11
13.4769345956
 21
-49.6331517737
  0
LWPOLYLINE
  5
4C2
100
AcDbEntity
  8
262606150
100
AcDbPolyline
 62
7
  6
CONTINUOUS
 90
11
 70
0
 10
2.3256254966
 20
-43.3753301421
 10
2.3461732086
 20
-43.3599023449
 10
2.3691187429
 20
-43.3390093246
 10
2.3898599726
 20
-43.3157621632
 10
2.4081533741
 20
-43.2903729478
 10
2.4237573377
 20
-43.2631076619
 10
2.4364694255
 20
-43.2342418358
 10
2.446116889
 20
-43.2040626942
 10
2.4525465563
 20
-43.17291028
 10
2.4556451653
 20
-43.1411725845
 10
2.4558451349
 20
-43.1353758876
  0
LINE
  5
4C3
100
AcDbEntity
  8
262606150
100
AcDbLine
 62
7
  6
CONTINUOUS
 10
2.3943546189
 20
-42.62962703
 11
1.2871501152
 21
-43.3889959826
  0
LINE
  5
4C4
100
AcDbEntity
  8
262606150
100
AcDbLine
 62
253
  6
CONTINUOUS
 10
1.78569935
 20
-43.6530971336
 11
2.3889697062
 21
-43.2393481134
  0
LINE
  5
4C5
100
AcDbEntity
  8
262606150
100
AcDbLine
 62
7
  6
CONTINUOUS
 10
1.8618256475
 20
-43.6934242294
 11
2.3256177502
 21
-43.3753354553
  0
LWPOLYLINE
  5
4C6
100
AcDbEntity
  8
262606150
100
AcDbPolyline
 62
7
  6
CONTINUOUS
 90
4
 70
0
 10
2.4595424462
 20
-42.5877184006
 10
2.4654279998
 20
-42.5837464863
 10
2.4687169959
 20
-42.5810819065
 10
2.4696156759
 20
-42.5798183169
  0
LINE
  5
4C7
100
AcDbEntity
  8
262606150
100
AcDbLine
 62
7
  6
CONTINUOUS
 10
-2.0011150803
 20
-40.3011737388
 11
-3.245076494
 21
-40.9880971737
  0
LWPOLYLINE
  5
4C8
100
AcDbEntity
  8
262606150
100
AcDbPolyline
 62
7
  6
CONTINUOUS
 90
4
 70
0
 10
-1.9900046766
 20
-40.2953718385
 10
-1.9652970451
 20
-40.2865439525
 10
-1.9401123468
 20
-40.2819353505
 10
-1.9146123274
 20
-40.2812874244
  0
LINE
  5
4C9
100
AcDbEntity
  8
262606150
100
AcDbLine
 62
253
  6
CONTINUOUS
 10
-27.6337604924
 20
53.1800528073
 11
-26.0349437117
 21
52.3486531146
  0
LINE
  5
4CA
100
AcDbEntity
  8
262606150
100
AcDbLine
 62
253
  6
CONTINUOUS
 10
-26.0349437117
 20
52.3486531146
 11
-23.2905623905
 21
50.9081988176
  0
LINE
  5
4CB
100
AcDbEntity
  8
262606150
100
AcDbLine
 62
253
  6
CONTINUOUS
 10
-23.2905623905
 20
50.9081988176
 11
-19.8795756858
 21
49.1121888153
  0
LINE
  5
4CC
100
AcDbEntity
  8
262606150
100
AcDbLine
 62
7
  6
CONTINUOUS
 10
-28.0158549095
 20
50.6250611824
 11
21.675102411
 21
24.3018268196
  0
LINE
  5
4CD
100
AcDbEntity
  8
262606150
100
AcDbLine
 62
253
  6
CONTINUOUS
 10
14.7490641251
 20
28.9883416464
 11
21.6175621796
 21
25.3490161152
  0
LINE
  5
4CE
100
AcDbEntity
  8
262606150
100
AcDbLine
 62
7
  6
CONTINUOUS
 10
21.6750868045
 20
24.3018154793
 11
21.6757128695
 21
24.3014820405
  0
LINE
  5
4CF
100
AcDbEntity
  8
262606150
100
AcDbLine
 62
253
  6
CONTINUOUS
 10
-28.0689641502
 20
51.6699239498
 11
14.7490641251
 21
28.9883416464
  0
LINE
  5
4D0
100
AcDbEntity
  8
262606150
100
AcDbLine
 62
253
  6
CONTINUOUS
 10
-19.8795759687
 20
49.1121852557
 11
14.5187375447
 21
30.8891856272
  0
LINE
  5
4D1
100
AcDbEntity
  8
262606150
100
AcDbLine
 62
253
  6
CONTINUOUS
 10
14.5187375447
 20
30.8891856272
 11
20.7303216134
 21
27.5729532698
  0
LINE
  5
4D2
100
AcDbEntity
  8
262606150
100
AcDbLine
 62
253
  6
CONTINUOUS
 10
20.7303216134
 20
27.5729532698
 11
22.0314595744
 21
26.8704302762
  0
LWPOLYLINE
  5
4D3
100
AcDbEntity
  8
262606150
100
AcDbPolyline
 62
253
  6
CONTINUOUS
 90
46
 70
0
 10
21.6175445764
 20
25.3490083468
 10
21.6702271364
 20
25.3202589279
 10
21.7210118644
 20
25.2902775253
 10
21.7698375759
 20
25.2593093346
 10
21.8164856763
 20
25.2276733026
 10
21.8610921853
 20
25.1955160992
 10
21.9041418771
 20
25.1627563836
 10
21.9457905272
 20
25.1293920324
 10
21.985843815
 20
25.0957092656
 10
22.0242750049
 20
25.0620010499
 10
22.0610296668
 20
25.0284955689
 10
22.0961801604
 20
24.9952229746
 10
22.1299007728
 20
24.9621579097
 10
22.1620322725
 20
24.9295833235
 10
22.1927693042
 20
24.8974121114
 10
22.2227929592
 20
24.8649993426
 10
22.252150899
 20
24.8323433647
 10
22.2807897192
 20
24.7995228266
 10
22.3091936305
 20
24.7659386669
 10
22.337177667
 20
24.7318057459
 10
22.3648843512
 20
24.6969350123
 10
22.3932159459
 20
24.6600403416
 10
22.4223497102
 20
24.6206731392
 10
22.4519289911
 20
24.5791986613
 10
22.4819920637
 20
24.5354958322
 10
22.5124650059
 20
24.4894899572
 10
22.5432006628
 20
24.4411949227
 10
22.5741141293
 20
24.3906207408
 10
22.6050276878
 20
24.3378658804
 10
22.635858198
 20
24.2828134762
 10
22.6666317669
 20
24.2251508647
 10
22.6971731194
 20
24.1648797082
 10
22.7272911028
 20
24.1020252375
 10
22.75692728
 20
24.0363137403
 10
22.7858454161
 20
23.9677756575
 10
22.8137891045
 20
23.8964985599
 10
22.8406017281
 20
23.8223149336
 10
22.8659774917
 20
23.745399663
 10
22.8895956775
 20
23.6658424908
 10
22.9111841724
 20
23.5833971874
 10
22.9303506339
 20
23.4983643306
 10
22.946669596
 20
23.4109497076
 10
22.9596682528
 20
23.3208724905
 10
22.968790878
 20
23.2283589766
 10
22.9734917419
 20
23.1341117469
 10
22.9732124143
 20
23.038700065
  0
LWPOLYLINE
  5
4D4
100
AcDbEntity
  8
262606150
100
AcDbPolyline
 62
253
  6
CONTINUOUS
 90
46
 70
0
 10
22.031463212
 20
26.8704321663
 10
22.1332600432
 20
26.8131505097
 10
22.2313009095
 20
26.7535032023
 10
22.3255934767
 20
26.6919017432
 10
22.415860883
 20
26.6287153833
 10
22.5018811492
 20
26.5649012855
 10
22.5838649615
 20
26.5015903145
 10
22.6618715542
 20
26.4395955366
 10
22.7359298575
 20
26.3790101909
 10
22.806253956
 20
26.3197242778
 10
22.8729405639
 20
26.2622605212
 10
22.9365195538
 20
26.2062703153
 10
22.9976965368
 20
26.150346629
 10
23.0564125507
 20
26.0943532481
 10
23.1129245149
 20
26.0386152398
 10
23.1682588091
 20
25.9823894705
 10
23.2222198456
 20
25.9261970965
 10
23.2749405193
 20
25.8696658597
 10
23.3279993216
 20
25.8103508166
 10
23.3816147995
 20
25.7472954837
 10
23.4358932066
 20
25.6806774311
 10
23.4918192412
 20
25.6099905713
 10
23.5491351412
 20
25.5355965285
 10
23.6065720301
 20
25.45846058
 10
23.6639805967
 20
25.378458855
 10
23.7214191174
 20
25.2955724643
 10
23.7790520807
 20
25.2094231772
 10
23.8368461518
 20
25.1192370272
 10
23.8945889652
 20
25.0248107645
 10
23.952323893
 20
24.9257859707
 10
24.0101554455
 20
24.8213620686
 10
24.0677538276
 20
24.7115149524
 10
24.1246616354
 20
24.5964541637
 10
24.1806465098
 20
24.4758260277
 10
24.2352243088
 20
24.3498449773
 10
24.2879106318
 20
24.2186885689
 10
24.3384078753
 20
24.0818951646
 10
24.3859889882
 20
23.9397379814
 10
24.4303285662
 20
23.7922001824
 10
24.4715197673
 20
23.6383145513
 10
24.5088640897
 20
23.4782477796
 10
24.5411896221
 20
23.3123041348
 10
24.5675110322
 20
23.1399997281
 10
24.5866550654
 20
22.9620571053
 10
24.5973368104
 20
22.7801288208
 10
24.5983185143
 20
22.5956058744
  0
LWPOLYLINE
  5
4D5
100
AcDbEntity
  8
262606150
100
AcDbPolyline
 62
7
  6
CONTINUOUS
 90
25
 70
0
 10
21.6757117296
 20
24.3014826459
 10
21.6878711686
 20
24.2946317973
 10
21.7046267203
 20
24.2840832543
 10
21.7245260501
 20
24.2701331964
 10
21.7472204328
 20
24.2525266381
 10
21.7721814053
 20
24.2311920695
 10
21.7987215915
 20
24.2062889162
 10
21.8263225239
 20
24.1779289908
 10
21.8544989038
 20
24.1462657219
 10
21.8826324949
 20
24.1116965986
 10
21.9103076151
 20
24.0744807335
 10
21.9370135506
 20
24.0350934943
 10
21.9620891123
 20
23.9944111257
 10
21.9852149789
 20
23.9529692343
 10
22.0061210315
 20
23.9113414517
 10
22.0244173789
 20
23.8705495898
 10
22.0400147245
 20
23.8312305749
 10
22.0529478168
 20
23.7938669355
 10
22.0632249394
 20
23.759208389
 10
22.0710055283
 20
23.7277890753
 10
22.0765594381
 20
23.6998917077
 10
22.0801783226
 20
23.6758287584
 10
22.0821952035
 20
23.6558950019
 10
22.0829908383
 20
23.640320097
 10
22.0830099043
 20
23.6301067936
  0
LINE
  5
4D6
100
AcDbEntity
  8
262606150
100
AcDbLine
 62
253
  6
CONTINUOUS
 10
41.8255225633
 20
-75.9758469625
 11
41.8254807813
 21
-76.1562890767
  0
LINE
  5
4D7
100
AcDbEntity
  8
262606150
100
AcDbLine
 62
253
  6
CONTINUOUS
 10
43.0986148383
 20
26.9651514079
 11
43.0985192769
 21
26.7412666493
  0
LWPOLYLINE
  5
4D8
100
AcDbEntity
  8
262606150
100
AcDbPolyline
 62
253
  6
CONTINUOUS
 90
4
 70
0
 10
43.0985192769
 20
26.7412666493
 10
43.0981375837
 20
26.670222745
 10
43.0968435901
 20
26.5994311962
 10
42.8010132732
 20
13.7828139584
  0
LINE
  5
4D9
100
AcDbEntity
  8
262606150
100
AcDbLine
 62
253
  6
CONTINUOUS
 10
41.8265168036
 20
-75.8097445809
 11
41.8255225633
 21
-75.9758469625
  0
LINE
  5
4DA
100
AcDbEntity
  8
262606150
100
AcDbLine
 62
253
  6
CONTINUOUS
 10
43.0996212842
 20
27.1290792178
 11
43.0986148383
 21
26.9651514079
  0
LINE
  5
4DB
100
AcDbEntity
  8
262606150
100
AcDbLine
 62
253
  6
CONTINUOUS
 10
41.8283938004
 20
-75.6564820979
 11
41.8265168036
 21
-75.8097445809
  0
LWPOLYLINE
  5
4DC
100
AcDbEntity
  8
262606150
100
AcDbPolyline
 62
253
  6
CONTINUOUS
 90
27
 70
0
 10
41.8254807813
 20
-76.1562890767
 10
41.8246193512
 20
-76.2053504719
 10
41.8226913043
 20
-76.2548209046
 10
41.8196399695
 20
-76.3046426291
 10
41.8154215362
 20
-76.3546320242
 10
41.8099708783
 20
-76.4048510842
 10
41.8031744679
 20
-76.4555898629
 10
41.7949498733
 20
-76.5067636049
 10
41.7852131981
 20
-76.5582750474
 10
41.773798095
 20
-76.6103532878
 10
41.7605951571
 20
-76.6628727909
 10
41.7454923789
 20
-76.7156998477
 10
41.7282663939
 20
-76.7689986756
 10
41.7087784106
 20
-76.8225939975
 10
41.6868876337
 20
-76.8762981942
 10
41.662311958
 20
-76.9301910319
 10
41.6348835406
 20
-76.9840317737
 10
41.604434335
 20
-77.0375628855
 10
41.57062541
 20
-77.0907573649
 10
41.533265382
 20
-77.1432899428
 10
41.4921642612
 20
-77.1948164532
 10
41.446930887
 20
-77.2451820912
 10
41.3973627081
 20
-77.2939573484
 10
41.3432599074
 20
-77.3406935305
 10
41.2841877692
 20
-77.3850877257
 10
41.2199406132
 20
-77.4265963101
 10
41.1714172518
 20
-77.4538249634
  0
LWPOLYLINE
  5
4DD
100
AcDbEntity
  8
262606150
100
AcDbPolyline
 62
253
  6
CONTINUOUS
 90
3
 70
0
 10
43.1043047869
 20
27.4050911342
 10
43.102321247
 20
27.3091786252
 10
43.0996212842
 20
27.1290792178
  0
LINE
  5
4DE
100
AcDbEntity
  8
262606150
100
AcDbLine
 62
253
  6
CONTINUOUS
 10
41.8934592629
 20
-72.4430890476
 11
41.8353983704
 21
-75.292568002
  0
LINE
  5
4DF
100
AcDbEntity
  8
262606150
100
AcDbLine
 62
253
  6
CONTINUOUS
 10
40.5715262795
 20
-75.2690386304
 11
40.5682715518
 21
-75.4186938386
  0
LINE
  5
4E0
100
AcDbEntity
  8
262606150
100
AcDbLine
 62
253
  6
CONTINUOUS
 10
42.8010132732
 20
13.7828139584
 11
42.523406799
 21
2.1534788701
  0
LINE
  5
4E1
100
AcDbEntity
  8
262606150
100
AcDbLine
 62
253
  6
CONTINUOUS
 10
42.523406799
 20
2.1534788701
 11
41.3347109886
 21
-45.8667296842
  0
LINE
  5
4E2
100
AcDbEntity
  8
262606150
100
AcDbLine
 62
253
  6
CONTINUOUS
 10
41.3347109899
 20
-45.8667296828
 11
41.0710982791
 21
-56.3013714463
  0
LINE
  5
4E3
100
AcDbEntity
  8
262606150
100
AcDbLine
 62
253
  6
CONTINUOUS
 10
41.0710982791
 20
-56.3013714463
 11
40.7543839865
 21
-68.4447339526
  0
LINE
  5
4E4
100
AcDbEntity
  8
262606150
100
AcDbLine
 62
253
  6
CONTINUOUS
 10
40.7543839865
 20
-68.4447339526
 11
40.5715262795
 21
-75.2690386304
  0
LWPOLYLINE
  5
4E5
100
AcDbEntity
  8
262606150
100
AcDbPolyline
 62
253
  6
CONTINUOUS
 90
3
 70
0
 10
40.5682715518
 20
-75.4186938386
 10
40.5660942588
 20
-75.4918062894
 10
40.5630306404
 20
-75.5641043867
  0
LWPOLYLINE
  5
4E6
100
AcDbEntity
  8
262606150
100
AcDbPolyline
 62
253
  6
CONTINUOUS
 90
40
 70
0
 10
40.5357476888
 20
-76.220445524
 10
40.5345727509
 20
-76.2521827093
 10
40.5326998164
 20
-76.2841921005
 10
40.5300920697
 20
-76.3164376023
 10
40.5267209825
 20
-76.3488024723
 10
40.5225432471
 20
-76.3813277057
 10
40.5174836502
 20
-76.4142011164
 10
40.5114879325
 20
-76.4473696217
 10
40.5045016292
 20
-76.4807709912
 10
40.496416061
 20
-76.5145534257
 10
40.4871588089
 20
-76.5486384716
 10
40.4766565962
 20
-76.582941423
 10
40.464764714
 20
-76.6175689066
 10
40.4513914229
 20
-76.6524114235
 10
40.4364442394
 20
-76.6873502232
 10
40.4197409877
 20
-76.7224374282
 10
40.401170458
 20
-76.7575227405
 10
40.3806217732
 20
-76.7924435725
 10
40.357876151
 20
-76.8271831904
 10
40.3328057825
 20
-76.86153881
 10
40.3052853737
 20
-76.8952934973
 10
40.2750639618
 20
-76.928347239
 10
40.2420051325
 20
-76.9604312298
 10
40.2059805841
 20
-76.9912609298
 10
40.1667198606
 20
-77.0206360149
 10
40.1240815298
 20
-77.0482146672
 10
40.0779470455
 20
-77.0736361097
 10
40.0280550894
 20
-77.0965852428
 10
39.9742832692
 20
-77.1166413763
 10
39.9165480327
 20
-77.1333731776
 10
39.8546381403
 20
-77.1463584269
 10
39.7884427813
 20
-77.1551085481
 10
39.7179957921
 20
-77.1591275505
 10
39.6433315833
 20
-77.1579267134
 10
39.5641541318
 20
-77.1509632033
 10
39.4809033511
 20
-77.1377510382
 10
39.3948409234
 20
-77.118122164
 10
39.3065788903
 20
-77.0919834884
 10
39.216047473
 20
-77.059100687
 10
39.1236237142
 20
-77.0193831487
  0
LINE
  5
4E7
100
AcDbEntity
  8
262606150
100
AcDbLine
 62
253
  6
CONTINUOUS
 10
44.3768234916
 20
27.0729152771
 11
44.3711725208
 21
26.9229715323
  0
LINE
  5
4E8
100
AcDbEntity
  8
262606150
100
AcDbLine
 62
253
  6
CONTINUOUS
 10
44.3839700303
 20
27.2371208144
 11
44.3768234916
 21
27.0729152771
  0
LINE
  5
4E9
100
AcDbEntity
  8
262606150
100
AcDbLine
 62
253
  6
CONTINUOUS
 10
44.3927445984
 20
27.4171351997
 11
44.3839700303
 21
27.2371208144
  0
LINE
  5
4EA
100
AcDbEntity
  8
262606150
100
AcDbLine
 62
7
  6
CONTINUOUS
 10
17.9218681032
 20
-52.2010607901
 11
18.0086479114
 21
-52.0337786708
  0
LINE
  5
4EB
100
AcDbEntity
  8
262606150
100
AcDbLine
 62
7
  6
CONTINUOUS
 10
18.2262014055
 20
-52.005776608
 11
18.3238047122
 21
-51.8176304445
  0
LINE
  5
4EC
100
AcDbEntity
  8
262606150
100
AcDbLine
 62
7
  6
CONTINUOUS
 10
18.5413582062
 20
-51.7896283816
 11
18.6389615129
 21
-51.6014822182
  0
LINE
  5
4ED
100
AcDbEntity
  8
262606150
100
AcDbLine
 62
7
  6
CONTINUOUS
 10
18.856515007
 20
-51.5734801553
 11
18.9541183137
 21
-51.3853339918
  0
LINE
  5
4EE
100
AcDbEntity
  8
262606150
100
AcDbLine
 62
7
  6
CONTINUOUS
 10
13.721736813
 20
-49.619584432
 11
13.831018144
 21
-49.4376245776
  0
LINE
  5
4EF
100
AcDbEntity
  8
262606150
100
AcDbLine
 62
7
  6
CONTINUOUS
 10
14.0758203614
 20
-49.4240572359
 11
14.1851016923
 21
-49.2420973815
  0
LINE
  5
4F0
100
AcDbEntity
  8
262606150
100
AcDbLine
 62
7
  6
CONTINUOUS
 10
14.4299039097
 20
-49.2285300398
 11
14.5391852407
 21
-49.0465701854
  0
LWPOLYLINE
  5
4F1
100
AcDbEntity
  8
262606150
100
AcDbPolyline
 62
7
  6
CONTINUOUS
 90
4
 70
0
 10
2.4042426614
 20
-42.6231775969
 10
2.4232471256
 20
-42.611934447
 10
2.4386916631
 20
-42.6020432906
 10
2.4595424462
 20
-42.5877184006
  0
LWPOLYLINE
  5
4F2
100
AcDbEntity
  8
262606150
100
AcDbPolyline
 62
7
  6
CONTINUOUS
 90
25
 70
0
 10
47.4930345268
 20
29.1291350925
 10
47.4921202594
 20
29.2941728107
 10
47.4818231943
 20
29.4620997282
 10
47.4621433315
 20
29.6329158449
 10
47.4329165113
 20
29.8073752085
 10
47.3943068934
 20
29.9847237714
 10
47.3468069569
 20
30.1626993908
 10
47.2903028184
 20
30.3413100993
 10
47.2249083614
 20
30.5205478642
 10
47.151457715
 20
30.6981264456
 10
47.0698476807
 20
30.8740245895
 10
46.9801814569
 20
31.0482635497
 10
46.8836027676
 20
31.2186208477
 10
46.7800230654
 20
31.3850467601
 10
46.6695308976
 20
31.5475910101
 10
46.5535356303
 20
31.7041802893
 10
46.4319667699
 20
31.8547383156
 10
46.3048948101
 20
31.9993413711
 10
46.173940598
 20
32.1361449933
 10
46.0390544026
 20
32.265049273
 10
45.9002859549
 20
32.3861541196
 10
45.7594052948
 20
32.4979147983
 10
45.6170024356
 20
32.5998163979
 10
45.4724873641
 20
32.6923738297
 10
45.3258600801
 20
32.7755870938
  0
LWPOLYLINE
  5
4F3
100
AcDbEntity
  8
262606150
100
AcDbPolyline
 62
253
  6
CONTINUOUS
 90
3
 70
0
 10
41.8353983704
 20
-75.292568002
 10
41.8338424022
 20
-75.3665542863
 10
41.8283938004
 20
-75.6564820979
  0
LINE
  5
4F4
100
AcDbEntity
  8
262606150
100
AcDbLine
 62
253
  6
CONTINUOUS
 10
42.5030389393
 20
-45.7838082569
 11
41.8934592629
 21
-72.4430890476
  0
LINE
  5
4F5
100
AcDbEntity
  8
262606150
100
AcDbLine
 62
7
  6
CONTINUOUS
 10
45.3330088308
 20
-1.65638628
 11
45.1903830632
 21
-7.4104654064
  0
LINE
  5
4F6
100
AcDbEntity
  8
262606150
100
AcDbLine
 62
7
  6
CONTINUOUS
 10
44.2531280188
 20
-45.2229853804
 11
44.3957537865
 21
-39.4689062539
  0
LINE
  5
4F7
100
AcDbEntity
  8
262606150
100
AcDbLine
 62
7
  6
CONTINUOUS
 10
47.4930345268
 20
29.1291350925
 11
46.7529082064
 21
-0.7304441548
  0
LINE
  5
4F8
100
AcDbEntity
  8
262606150
100
AcDbLine
 62
7
  6
CONTINUOUS
 10
46.6031520744
 20
-6.7721899628
 11
45.8156531621
 21
-38.5429641287
  0
LINE
  5
4F9
100
AcDbEntity
  8
262606150
100
AcDbLine
 62
7
  6
CONTINUOUS
 10
45.66589703
 20
-44.5847099367
 11
44.9257707097
 21
-74.444289184
  0
LINE
  5
4FA
100
AcDbEntity
  8
262606150
100
AcDbLine
 62
253
  6
CONTINUOUS
 10
44.3711725208
 20
26.9229715323
 11
42.5030389393
 21
-45.7838082569
  0
LWPOLYLINE
  5
4FB
100
AcDbEntity
  8
262606150
100
AcDbPolyline
 62
253
  6
CONTINUOUS
 90
4
 70
0
 10
40.548272124
 20
-75.8676173041
 10
40.5447182821
 20
-75.9502621152
 10
40.5414739877
 20
-76.0368428613
 10
40.5357495913
 20
-76.2204439622
  0
LINE
  5
4FC
100
AcDbEntity
  8
262606150
100
AcDbLine
 62
253
  6
CONTINUOUS
 10
40.5630306404
 20
-75.5641043867
 11
40.548272124
 21
-75.8676173041
  0
LWPOLYLINE
  5
4FD
100
AcDbEntity
  8
262606150
100
AcDbPolyline
 62
7
  6
CONTINUOUS
 90
14
 70
0
 10
44.9257707097
 20
-74.444289184
 10
44.9168046312
 20
-74.6040928941
 10
44.8985575927
 20
-74.7568988766
 10
44.8710295942
 20
-74.9027071312
 10
44.8340238345
 20
-75.0420804906
 10
44.7877371149
 20
-75.1744561221
 10
44.7327598384
 20
-75.2981455286
 10
44.6689806807
 20
-75.4130374411
 10
44.5965109662
 20
-75.5192431286
 10
44.5162750713
 20
-75.6154079004
 10
44.4281735128
 20
-75.7014031343
 10
44.332305774
 20
-75.7773574526
 10
44.2298946813
 20
-75.8423020314
 10
44.2027475664
 20
-75.8570589429
  0
LWPOLYLINE
  5
4FE
100
AcDbEntity
  8
262606150
100
AcDbPolyline
 62
7
  6
CONTINUOUS
 90
7
 70
0
 10
-28.0083479037
 20
50.6274878548
 10
-28.0145177053
 20
50.6284672817
 10
-28.0258119839
 20
50.6308118719
 10
-28.0312011411
 20
50.6323075925
 10
-28.030896989
 20
50.6321715395
 10
-28.0252635595
 20
50.6297414497
 10
-28.0158708047
 20
50.625069581
  0
LINE
  5
4FF
100
AcDbEntity
  8
262606150
100
AcDbLine
 62
253
  6
CONTINUOUS
 10
42.1759613062
 20
30.8868993252
 11
42.3876482558
 21
30.7822246277
  0
LWPOLYLINE
  5
500
100
AcDbEntity
  8
262606150
100
AcDbPolyline
 62
253
  6
CONTINUOUS
 90
4
 70
0
 10
-42.5691645993
 20
74.3340537869
 10
-42.2294298646
 20
74.1643363726
 10
-42.1481864614
 20
74.1229757591
 10
-42.0662894308
 20
74.0802106724
  0
LINE
  5
501
100
AcDbEntity
  8
262606150
100
AcDbLine
 62
253
  6
CONTINUOUS
 10
41.9834242649
 20
30.9836529711
 11
42.1759613062
 21
30.8868993252
  0
LINE
  5
502
100
AcDbEntity
  8
262606150
100
AcDbLine
 62
253
  6
CONTINUOUS
 10
41.8079668794
 20
31.0733772748
 11
41.9834242649
 21
30.9836529711
  0
LINE
  5
503
100
AcDbEntity
  8
262606150
100
AcDbLine
 62
253
  6
CONTINUOUS
 10
32.9395953907
 20
35.6771317468
 11
39.3543961195
 21
32.3491275103
  0
LWPOLYLINE
  5
504
100
AcDbEntity
  8
262606150
100
AcDbPolyline
 62
253
  6
CONTINUOUS
 90
3
 70
0
 10
39.3543961195
 20
32.3491275103
 10
41.4781661641
 20
31.2448720631
 10
41.8079668794
 20
31.0733772748
  0
LINE
  5
505
100
AcDbEntity
  8
262606150
100
AcDbLine
 62
253
  6
CONTINUOUS
 10
-34.9164390611
 20
70.3259621315
 11
-33.1672109124
 21
69.4128085422
  0
LWPOLYLINE
  5
506
100
AcDbEntity
  8
262606150
100
AcDbPolyline
 62
253
  6
CONTINUOUS
 90
5
 70
0
 10
-42.962801314
 20
74.5374813662
 10
-42.8588290773
 20
74.4827607447
 10
-42.7584305158
 20
74.4305367378
 10
-42.6616739084
 20
74.380814381
 10
-42.5691645993
 20
74.3340537869
  0
LINE
  5
507
100
AcDbEntity
  8
262606150
100
AcDbLine
 62
253
  6
CONTINUOUS
 10
-33.1672109124
 20
69.4128085422
 11
-26.6122479606
 21
65.9582457589
  0
LINE
  5
508
100
AcDbEntity
  8
262606150
100
AcDbLine
 62
253
  6
CONTINUOUS
 10
-35.5595693481
 20
70.6651207858
 11
-34.9164390611
 21
70.3259621315
  0
LINE
  5
509
100
AcDbEntity
  8
262606150
100
AcDbLine
 62
253
  6
CONTINUOUS
 10
-26.6122479606
 20
65.9582457589
 11
-19.1497055487
 21
62.0091343657
  0
LINE
  5
50A
100
AcDbEntity
  8
262606150
100
AcDbLine
 62
253
  6
CONTINUOUS
 10
-19.1497055487
 20
62.0091343657
 11
20.5360151109
 21
40.986237566
  0
LINE
  5
50B
100
AcDbEntity
  8
262606150
100
AcDbLine
 62
253
  6
CONTINUOUS
 10
17.0205182445
 20
44.0833764512
 11
32.9395953907
 21
35.6771317468
  0
LINE
  5
50C
100
AcDbEntity
  8
262606150
100
AcDbLine
 62
253
  6
CONTINUOUS
 10
40.3781983286
 20
30.4059954169
 11
40.8398176363
 21
30.1616333429
  0
LINE
  5
50D
100
AcDbEntity
  8
262606150
100
AcDbLine
 62
253
  6
CONTINUOUS
 10
-42.0662894308
 20
74.0802106724
 11
-35.5595693481
 21
70.6651207858
  0
LINE
  5
50E
100
AcDbEntity
  8
262606150
100
AcDbLine
 62
253
  6
CONTINUOUS
 10
20.5360151109
 20
40.986237566
 11
26.0133737922
 21
38.0790192073
  0
LINE
  5
50F
100
AcDbEntity
  8
262606150
100
AcDbLine
 62
253
  6
CONTINUOUS
 10
26.0133737922
 20
38.0790192073
 11
32.3231590904
 21
34.7169584188
  0
LWPOLYLINE
  5
510
100
AcDbEntity
  8
262606150
100
AcDbPolyline
 62
253
  6
CONTINUOUS
 90
3
 70
0
 10
40.8398176363
 20
30.1616333429
 10
40.9233059658
 20
30.1168295528
 10
41.0058303807
 20
30.0714707757
  0
LINE
  5
511
100
AcDbEntity
  8
262606150
100
AcDbLine
 62
253
  6
CONTINUOUS
 10
-33.6036817058
 20
70.9323475781
 11
17.0205182445
 21
44.0833764512
  0
LWPOLYLINE
  5
512
100
AcDbEntity
  8
262606150
100
AcDbPolyline
 62
253
  6
CONTINUOUS
 90
3
 70
0
 10
32.3231590904
 20
34.7169584188
 10
32.8466619667
 20
34.4347964005
 10
40.3781983286
 20
30.4059954169
  0
LWPOLYLINE
  5
513
100
AcDbEntity
  8
262606150
100
AcDbPolyline
 62
253
  6
CONTINUOUS
 90
40
 70
0
 10
42.3876482558
 20
30.7822246277
 10
42.5267312322
 20
30.7067841889
 10
42.6626307123
 20
30.6228548927
 10
42.7948246729
 20
30.5312320083
 10
42.9233598835
 20
30.4322507683
 10
43.0472934142
 20
30.3270860965
 10
43.1648004339
 20
30.2180620429
 10
43.2752077461
 20
30.1066980515
 10
43.3789390751
 20
29.9934399645
 10
43.4760277215
 20
29.879184623
 10
43.5664425212
 20
29.7648067568
 10
43.6503393969
 20
29.6509223992
 10
43.7280904363
 20
29.537913041
 10
43.7998406308
 20
29.4263487155
 10
43.8657759117
 20
29.316707633
 10
43.9263270572
 20
29.2091047548
 10
43.9816918706
 20
29.1039310238
 10
44.0320970964
 20
29.001492631
 10
44.0779822409
 20
28.9016799317
 10
44.1195640401
 20
28.8047268081
 10
44.1570606683
 20
28.7108340414
 10
44.1908615288
 20
28.6197759383
 10
44.221168602
 20
28.5316920707
 10
44.2481841517
 20
28.4466961291
 10
44.2722402288
 20
28.3644835245
 10
44.2935131804
 20
28.2851316024
 10
44.3121782231
 20
28.2086971171
 10
44.3285066653
 20
28.1348242403
 10
44.3426448877
 20
28.0635506976
 10
44.3547366062
 20
27.994899876
 10
44.3649916165
 20
27.9284884927
 10
44.373525615
 20
27.8643317468
 10
44.3804512635
 20
27.8024354225
 10
44.385919487
 20
27.7424064113
 10
44.3900168211
 20
27.6842539393
 10
44.3928276531
 20
27.6279721436
 10
44.39444831
 20
27.5731571197
 10
44.3949391745
 20
27.5196794922
 10
44.394351928
 20
27.4676731904
 10
44.3927445984
 20
27.4171351997
  0
LINE
  5
514
100
AcDbEntity
  8
262606150
100
AcDbLine
 62
253
  6
CONTINUOUS
 10
-41.8223601506
 20
75.377168584
 11
-33.6036817058
 21
70.9323475781
  0
LWPOLYLINE
  5
515
100
AcDbEntity
  8
262606150
100
AcDbPolyline
 62
253
  6
CONTINUOUS
 90
5
 70
0
 10
41.3530821165
 20
29.87722605
 10
41.4492065899
 20
29.824021276
 10
41.5506741811
 20
29.7687117572
 10
41.6568402947
 20
29.7114934463
 10
41.7676880284
 20
29.6524068152
  0
LINE
  5
516
100
AcDbEntity
  8
262606150
100
AcDbLine
 62
253
  6
CONTINUOUS
 10
-41.9968532842
 20
75.4736997193
 11
-41.8223601506
 21
75.377168584
  0
LINE
  5
517
100
AcDbEntity
  8
262606150
100
AcDbLine
 62
253
  6
CONTINUOUS
 10
41.0058303807
 20
30.0714707757
 11
41.3530821165
 21
29.87722605
  0
LWPOLYLINE
  5
518
100
AcDbEntity
  8
262606150
100
AcDbPolyline
 62
253
  6
CONTINUOUS
 90
40
 70
0
 10
41.7676863812
 20
29.6524059575
 10
41.8598028006
 20
29.6002911317
 10
41.9497226318
 20
29.5427564138
 10
42.0370856504
 20
29.4803622221
 10
42.1219734685
 20
29.413344558
 10
42.2037951671
 20
29.3424700882
 10
42.2813302443
 20
29.2692397726
 10
42.3541751455
 20
29.1946378576
 10
42.4226463707
 20
29.1189458199
 10
42.4867354637
 20
29.0427202816
 10
42.546434749
 20
28.9665196115
 10
42.6018769669
 20
28.8907402268
 10
42.6532893603
 20
28.8156059834
 10
42.7007751157
 20
28.7414779837
 10
42.7444746722
 20
28.6686636129
 10
42.7846585747
 20
28.5972198938
 10
42.8214604631
 20
28.5273949108
 10
42.8550352693
 20
28.4593914587
 10
42.8856565818
 20
28.3931355942
 10
42.913463638
 20
28.328783988
 10
42.9386027736
 20
28.2664681015
 10
42.9613235151
 20
28.2060299691
 10
42.9817587519
 20
28.1475590671
 10
43.0000431345
 20
28.0911286233
 10
43.0163906979
 20
28.0365303689
 10
43.0309175995
 20
27.9838147527
 10
43.0437397212
 20
27.9330199457
 10
43.0550319918
 20
27.8839057074
 10
43.0648904663
 20
27.8364973626
 10
43.0734100246
 20
27.7908121073
 10
43.0807263583
 20
27.746592766
 10
43.0869151111
 20
27.7038501262
 10
43.0920507888
 20
27.6625899308
 10
43.0962318802
 20
27.622549268
 10
43.0995145726
 20
27.5837353999
 10
43.1019544029
 20
27.5461467386
 10
43.1036152406
 20
27.5095133915
 10
43.104537212
 20
27.4737480504
 10
43.1047539646
 20
27.4389406052
 10
43.1043031809
 20
27.4050899567
  0
LWPOLYLINE
  5
519
100
AcDbEntity
  8
262606150
100
AcDbPolyline
 62
253
  6
CONTINUOUS
 90
3
 70
0
 10
-42.2877432207
 20
75.6381120454
 10
-42.1871137446
 20
75.5808356374
 10
-41.9968532842
 20
75.4736997193
  0
LWPOLYLINE
  5
51A
100
AcDbEntity
  8
262606150
100
AcDbPolyline
 62
253
  6
CONTINUOUS
 90
7
 70
0
 10
19.1012180239
 20
-52.092483788
 10
19.1232623543
 20
-52.0751795956
 10
19.1412016116
 20
-52.0563528675
 10
19.1547425644
 20
-52.0363058652
 10
19.163663178
 20
-52.0153588796
 10
19.1678134186
 20
-51.9938514151
 10
19.1680934526
 20
-51.9885115621
  0
LWPOLYLINE
  5
51B
100
AcDbEntity
  8
262606150
100
AcDbPolyline
 62
7
  6
CONTINUOUS
 90
11
 70
0
 10
19.0378738143
 20
-52.2284658166
 10
19.0584215263
 20
-52.2130380195
 10
19.0813670606
 20
-52.1921449992
 10
19.1021082904
 20
-52.1688978377
 10
19.1204016918
 20
-52.1435086224
 10
19.1360056554
 20
-52.1162433365
 10
19.1487177432
 20
-52.0873775104
 10
19.1583652067
 20
-52.0571983688
 10
19.1647948741
 20
-52.0260459545
 10
19.167893483
 20
-51.994308259
 10
19.1680934526
 20
-51.9885115621
  0
LINE
  5
51C
100
AcDbEntity
  8
262606150
100
AcDbLine
 62
7
  6
CONTINUOUS
 10
19.111696714
 20
-51.2772598786
 11
18.9541183137
 21
-51.3853339918
  0
LINE
  5
51D
100
AcDbEntity
  8
262606150
100
AcDbLine
 62
7
  6
CONTINUOUS
 10
18.7650242332
 20
-51.5150229276
 11
18.6389615129
 21
-51.6014822182
  0
LINE
  5
51E
100
AcDbEntity
  8
262606150
100
AcDbLine
 62
7
  6
CONTINUOUS
 10
18.1347106317
 20
-51.9473193803
 11
18.0086479114
 21
-52.0337786708
  0
LINE
  5
51F
100
AcDbEntity
  8
262606150
100
AcDbLine
 62
7
  6
CONTINUOUS
 10
18.4498674325
 20
-51.731171154
 11
18.3238047122
 21
-51.8176304445
  0
LINE
  5
520
100
AcDbEntity
  8
262606150
100
AcDbLine
 62
253
  6
CONTINUOUS
 10
18.4979476677
 20
-52.5062328081
 11
19.1012180239
 21
-52.092483788
  0
LINE
  5
521
100
AcDbEntity
  8
262606150
100
AcDbLine
 62
7
  6
CONTINUOUS
 10
18.5740739652
 20
-52.546559904
 11
19.0378660679
 21
-52.2284711299
  0
LWPOLYLINE
  5
522
100
AcDbEntity
  8
262606150
100
AcDbPolyline
 62
7
  6
CONTINUOUS
 90
4
 70
0
 10
19.1768845413
 20
-51.2353512492
 10
19.1827700949
 20
-51.2313793349
 10
19.1860590911
 20
-51.2287147551
 10
19.186957771
 20
-51.2274511655
  0
LINE
  5
523
100
AcDbEntity
  8
262606150
100
AcDbLine
 62
7
  6
CONTINUOUS
 10
12.6740864834
 20
-54.5465858615
 11
12.8082791238
 21
-54.4640388184
  0
LINE
  5
524
100
AcDbEntity
  8
262606150
100
AcDbLine
 62
7
  6
CONTINUOUS
 10
13.1042919048
 20
-54.7751932786
 11
13.2384860555
 21
-54.6926453064
  0
LINE
  5
525
100
AcDbEntity
  8
262606150
100
AcDbLine
 62
7
  6
CONTINUOUS
 10
14.0552968237
 20
-55.2805954306
 11
14.1894931949
 21
-55.1980460925
  0
LINE
  5
526
100
AcDbEntity
  8
262606150
100
AcDbLine
 62
7
  6
CONTINUOUS
 10
14.4855170195
 20
-55.5091937593
 11
14.6197146968
 21
-55.4266436178
  0
LINE
  5
527
100
AcDbEntity
  8
262606150
100
AcDbLine
 62
7
  6
CONTINUOUS
 10
14.7723506585
 20
-55.6615734317
 11
14.9065495453
 21
-55.5790225462
  0
LWPOLYLINE
  5
528
100
AcDbEntity
  8
262606150
100
AcDbPolyline
 62
7
  6
CONTINUOUS
 90
4
 70
0
 10
19.1215847565
 20
-51.2708104455
 10
19.1405892207
 20
-51.2595672956
 10
19.1560337582
 20
-51.2496761392
 10
19.1768845413
 20
-51.2353512492
  0
LINE
  5
529
100
AcDbEntity
  8
262606150
100
AcDbLine
 62
7
  6
CONTINUOUS
 10
14.7162270149
 20
-48.9488065874
 11
14.5391852407
 21
-49.0465701854
  0
LINE
  5
52A
100
AcDbEntity
  8
262606150
100
AcDbLine
 62
7
  6
CONTINUOUS
 10
14.3267351117
 20
-49.1638865031
 11
14.1851016923
 21
-49.2420973815
  0
LINE
  5
52B
100
AcDbEntity
  8
262606150
100
AcDbLine
 62
7
  6
CONTINUOUS
 10
13.9726515633
 20
-49.3594136992
 11
13.831018144
 21
-49.4376245776
  0
LINE
  5
52C
100
AcDbEntity
  8
262606150
100
AcDbLine
 62
7
  6
CONTINUOUS
 10
13.618568015
 20
-49.5549408953
 11
13.4769345956
 21
-49.6331517737
  0
LWPOLYLINE
  5
52D
100
AcDbEntity
  8
262606150
100
AcDbPolyline
 62
7
  6
CONTINUOUS
 90
4
 70
0
 10
14.7273374185
 20
-48.9430046871
 10
14.751489807
 20
-48.9344885952
 10
14.7767870404
 20
-48.9298167996
 10
14.8027297677
 20
-48.928920273
  0
LINE
  5
52E
100
AcDbEntity
  8
262606150
100
AcDbLine
 62
7
  6
CONTINUOUS
 10
45.3258600801
 20
32.7755870938
 11
-39.3495313964
 21
77.6314745115
  0
LWPOLYLINE
  5
52F
100
AcDbEntity
  8
262606150
100
AcDbPolyline
 62
7
  6
CONTINUOUS
 90
9
 70
0
 10
21.3497949643
 20
-59.969631048
 10
21.3619054454
 20
-59.9610117298
 10
21.3777483329
 20
-59.9451465399
 10
21.3905814835
 20
-59.9259812497
 10
21.4002357517
 20
-59.9037665444
 10
21.4066566773
 20
-59.8787784258
 10
21.4097372974
 20
-59.8514089324
 10
21.409433531
 20
-59.8220016741
 10
21.4058316942
 20
-59.7907984914
  0
LINE
  5
530
100
AcDbEntity
  8
262606150
100
AcDbLine
 62
253
  6
CONTINUOUS
 10
20.0852274708
 20
-55.4132770949
 11
20.1244360726
 21
-55.3869976512
  0
LINE
  5
531
100
AcDbEntity
  8
262606150
100
AcDbLine
 62
7
  6
CONTINUOUS
 10
44.3957537865
 20
-39.4689062539
 11
45.8156531621
 21
-38.5429641287
  0
LINE
  5
532
100
AcDbEntity
  8
262606150
100
AcDbLine
 62
7
  6
CONTINUOUS
 10
15.2026579902
 20
-55.8901122071
 11
15.3368594379
 21
-55.8075597464
  0
LINE
  5
533
100
AcDbEntity
  8
262606150
100
AcDbLine
 62
7
  6
CONTINUOUS
 10
15.6330292181
 20
-56.1185929694
 11
15.7672344219
 21
-56.036038198
  0
LINE
  5
534
100
AcDbEntity
  8
262606150
100
AcDbLine
 62
7
  6
CONTINUOUS
 10
13.9312794507
 20
-57.405898219
 11
14.0662511322
 21
-57.3228719578
  0
LINE
  5
535
100
AcDbEntity
  8
262606150
100
AcDbLine
 62
7
  6
CONTINUOUS
 10
16.2838533395
 20
-56.463888034
 11
16.4180673123
 21
-56.3813278685
  0
LINE
  5
536
100
AcDbEntity
  8
262606150
100
AcDbLine
 62
7
  6
CONTINUOUS
 10
17.0882177844
 20
-56.8901656135
 11
17.2224497621
 21
-56.8075943726
  0
LINE
  5
537
100
AcDbEntity
  8
262606150
100
AcDbLine
 62
7
  6
CONTINUOUS
 10
15.3418470146
 20
-58.152077382
 11
15.4768359986
 21
-58.0690404774
  0
LINE
  5
538
100
AcDbEntity
  8
262606150
100
AcDbLine
 62
7
  6
CONTINUOUS
 10
17.7398210917
 20
-57.234981371
 11
17.8740758789
 21
-57.152396099
  0
LINE
  5
539
100
AcDbEntity
  8
262606150
100
AcDbLine
 62
7
  6
CONTINUOUS
 10
16.2054189379
 20
-58.6073230532
 11
16.3404253916
 21
-58.5242754024
  0
LINE
  5
53A
100
AcDbEntity
  8
262606150
100
AcDbLine
 62
7
  6
CONTINUOUS
 10
18.7201360528
 20
-57.7525764736
 11
18.8544459649
 21
-57.6699572923
  0
LINE
  5
53B
100
AcDbEntity
  8
262606150
100
AcDbLine
 62
7
  6
CONTINUOUS
 10
17.0468841926
 20
-59.0492498805
 11
17.1819134606
 21
-58.9661881957
  0
LINE
  5
53C
100
AcDbEntity
  8
262606150
100
AcDbLine
 62
7
  6
CONTINUOUS
 10
19.1521532421
 20
-57.9800872607
 11
19.2864985365
 21
-57.8974463142
  0
LINE
  5
53D
100
AcDbEntity
  8
262606150
100
AcDbLine
 62
7
  6
CONTINUOUS
 10
17.8901337741
 20
-59.4901099095
 11
18.0251916745
 21
-59.4070306118
  0
LINE
  5
53E
100
AcDbEntity
  8
262606150
100
AcDbLine
 62
7
  6
CONTINUOUS
 10
18.8121517455
 20
-59.1434525632
 11
18.9469255724
 21
-59.06054801
  0
LINE
  5
53F
100
AcDbEntity
  8
262606150
100
AcDbLine
 62
7
  6
CONTINUOUS
 10
20.1354083098
 20
-58.4958913626
 11
20.2698699113
 21
-58.4131788712
  0
LINE
  5
540
100
AcDbEntity
  8
262606150
100
AcDbLine
 62
7
  6
CONTINUOUS
 10
18.6142063349
 20
-59.8667588448
 11
18.7492930663
 21
-59.783661812
  0
LINE
  5
541
100
AcDbEntity
  8
262606150
100
AcDbLine
 62
7
  6
CONTINUOUS
 10
21.1551021444
 20
-59.0236332574
 11
21.2896457502
 21
-58.9408703221
  0
LWPOLYLINE
  5
542
100
AcDbEntity
  8
262606150
100
AcDbPolyline
 62
253
  6
CONTINUOUS
 90
13
 70
0
 10
42.5030337255
 20
-45.7840186039
 10
42.4247033053
 20
-45.8226846724
 10
42.3393956185
 20
-45.8563584882
 10
42.2480577629
 20
-45.884665287
 10
42.1517034243
 20
-45.9073044623
 10
42.0514026585
 20
-45.924010666
 10
41.9482700135
 20
-45.9345565947
 10
41.8434507761
 20
-45.938811885
 10
41.7381082854
 20
-45.9367434608
 10
41.633412052
 20
-45.9283736582
 10
41.5305243975
 20
-45.9137953644
 10
41.4305875504
 20
-45.8931709827
 10
41.3347109886
 20
-45.8667296842
  0
LINE
  5
543
100
AcDbEntity
  8
262606150
100
AcDbLine
 62
7
  6
CONTINUOUS
 10
45.66589703
 20
-44.5847099367
 11
44.2531280188
 21
-45.2229853804
  0
LWPOLYLINE
  5
544
100
AcDbEntity
  8
262606150
100
AcDbPolyline
 62
7
  6
CONTINUOUS
 90
30
 70
0
 10
21.8632097411
 20
-60.3521778204
 10
21.8822668168
 20
-60.3393412553
 10
21.91630589
 20
-60.3097480353
 10
21.945269582
 20
-60.2750097771
 10
21.969161098
 20
-60.2353878883
 10
21.9881903481
 20
-60.1906802182
 10
22.0021097124
 20
-60.1410867144
 10
22.0106330135
 20
-60.0870598275
 10
22.0137303984
 20
-60.028614326
 10
22.0111191185
 20
-59.9656728579
 10
22.0025512546
 20
-59.8991586415
 10
21.9883477176
 20
-59.8307630542
 10
21.9687387592
 20
-59.761165521
 10
21.9439522724
 20
-59.6910348833
 10
21.9149647233
 20
-59.6222076982
 10
21.8825600907
 20
-59.5556026723
 10
21.8471433947
 20
-59.4913811236
 10
21.8094387725
 20
-59.4301398486
 10
21.7702770597
 20
-59.3725347903
 10
21.7299534395
 20
-59.3184052929
 10
21.6882555495
 20
-59.2670725187
 10
21.6453233074
 20
-59.2184864254
 10
21.6016780744
 20
-59.1730237472
 10
21.5575188602
 20
-59.1306828637
 10
21.5133226272
 20
-59.0917047003
 10
21.4691763798
 20
-59.0559397764
 10
21.4246093226
 20
-59.0228964321
 10
21.3795797702
 20
-58.9925442703
 10
21.3345252509
 20
-58.9651717386
 10
21.2896456621
 20
-58.9408688487
  0
LINE
  5
545
100
AcDbEntity
  8
262606150
100
AcDbLine
 62
7
  6
CONTINUOUS
 10
20.6297329772
 20
-59.6838315531
 11
20.764516114
 21
-59.6009212731
  0
LINE
  5
546
100
AcDbEntity
  8
262606150
100
AcDbLine
 62
7
  6
CONTINUOUS
 10
20.0142955295
 20
-60.5891677345
 11
20.149446327
 21
-60.5060312922
  0
LINE
  5
547
100
AcDbEntity
  8
262606150
100
AcDbLine
 62
7
  6
CONTINUOUS
 10
21.1627239612
 20
-59.9560589365
 11
21.2975492944
 21
-59.8731226998
  0
LINE
  5
548
100
AcDbEntity
  8
262606150
100
AcDbLine
 62
7
  6
CONTINUOUS
 10
20.7442410363
 20
-60.9622090976
 11
20.8794269328
 21
-60.8790510646
  0
LINE
  5
549
100
AcDbEntity
  8
262606150
100
AcDbLine
 62
7
  6
CONTINUOUS
 10
21.8632278769
 20
-60.3521666644
 11
21.7283039194
 21
-60.4351635687
  0
LINE
  5
54A
100
AcDbEntity
  8
262606150
100
AcDbLine
 62
7
  6
CONTINUOUS
 10
22.0662516417
 20
-61.6293677582
 11
22.2014844869
 21
-61.5461808452
  0
LWPOLYLINE
  5
54B
100
AcDbEntity
  8
262606150
100
AcDbPolyline
 62
7
  6
CONTINUOUS
 90
5
 70
0
 10
21.728330759
 20
-60.4351470585
 10
21.7170063751
 20
-60.4417538871
 10
21.6745141152
 20
-60.4609746934
 10
21.6262969231
 20
-60.474276771
 10
21.5727890316
 20
-60.4807632839
  0
LINE
  5
54C
100
AcDbEntity
  8
262606150
100
AcDbLine
 62
253
  6
CONTINUOUS
 10
44.9257707097
 20
-74.444289184
 11
41.8254807813
 21
-76.1562890767
  0
LWPOLYLINE
  5
54D
100
AcDbEntity
  8
262606150
100
AcDbPolyline
 62
253
  6
CONTINUOUS
 90
16
 70
0
 10
41.8254806351
 20
-76.156288991
 10
41.756094114
 20
-76.1935056786
 10
41.681101834
 20
-76.2267494318
 10
41.6011633973
 20
-76.2557278518
 10
41.5169819102
 20
-76.2801860559
 10
41.4292977994
 20
-76.2999089195
 10
41.3388822993
 20
-76.3147229683
 10
41.2465306684
 20
-76.3244979038
 10
41.1530551947
 20
-76.3291477498
 10
41.059278051
 20
-76.3286316082
 10
40.9660240636
 20
-76.3229540193
 10
40.8741134572
 20
-76.312164921
 10
40.7843546406
 20
-76.2963592104
 10
40.6975370966
 20
-76.2756759087
 10
40.6144244374
 20
-76.2502969386
 10
40.5357476888
 20
-76.220445524
  0
LINE
  5
54E
100
AcDbEntity
  8
262606150
100
AcDbLine
 62
7
  6
CONTINUOUS
 10
44.2027526273
 20
-75.8570676659
 11
41.1710129097
 21
-77.4540380589
  0
ELLIPSE
  5
54F
100
AcDbEntity
  8
262606150
100
AcDbEllipse
 62
7
  6
CONTINUOUS
 10
-2.0072276131
 20
-40.5477771299
 30
0.0
 11
0.1521720671
 21
0.2587721321
 31
0.0
 40
0.5733931714
 41
0.7168970968
 42
0.7692569744
  0
ELLIPSE
  5
550
100
AcDbEntity
  8
262606150
100
AcDbEllipse
 62
7
  6
CONTINUOUS
 10
14.710114482
 20
-49.1954099785
 30
0.0
 11
0.1521720671
 21
0.2587721321
 31
0.0
 40
0.5733931714
 41
0.7168970968
 42
0.7692569744
  0
ELLIPSE
  5
551
100
AcDbEntity
  8
262606150
100
AcDbEllipse
 62
7
  6
CONTINUOUS
 10
-18.7143821535
 20
-31.4891386294
 30
0.0
 11
0.1521720671
 21
0.2587721321
 31
0.0
 40
0.5733931714
 41
0.7168970968
 42
0.7692569744
  0
ELLIPSE
  5
552
100
AcDbEntity
  8
262606150
100
AcDbEllipse
 62
7
  6
CONTINUOUS
 10
19.1055841811
 20
-51.5238632698
 30
0.0
 11
0.1297351894
 21
0.27069695
 31
0.0
 40
0.5087060422
 41
0.6709320232
 42
0.7232919008
  0
ELLIPSE
  5
553
100
AcDbEntity
  8
262606150
100
AcDbEllipse
 62
7
  6
CONTINUOUS
 10
2.388242086
 20
-42.8762304212
 30
0.0
 11
0.1297351894
 21
0.27069695
 31
0.0
 40
0.5087060422
 41
0.6709320232
 42
0.7232919008
  0
ELLIPSE
  5
554
100
AcDbEntity
  8
262606150
100
AcDbEllipse
 62
7
  6
CONTINUOUS
 10
-14.3189124543
 20
-33.8175919207
 30
0.0
 11
0.1297351894
 21
0.27069695
 31
0.0
 40
0.5087060422
 41
0.6709320232
 42
0.7232919008
  0
ELLIPSE
  5
555
100
AcDbEntity
  8
262606150
100
AcDbEllipse
 62
7
  6
CONTINUOUS
 10
19.5410582963
 20
-8.7810606722
 30
0.0
 11
0.0568573695
 21
0.3025699301
 31
0.0
 40
0.6538992226
 41
0.1972028392
 42
0.5257638336
  0
ELLIPSE
  5
556
100
AcDbEntity
  8
262606150
100
AcDbEllipse
 62
7
  6
CONTINUOUS
 10
16.9413752246
 20
-7.4039062339
 30
0.0
 11
0.0568573695
 21
0.3025699301
 31
0.0
 40
0.6538992226
 41
0.1972028392
 42
0.5257638336
  0
ELLIPSE
  5
557
100
AcDbEntity
  8
262606150
100
AcDbEllipse
 62
7
  6
CONTINUOUS
 10
2.8288099786
 20
0.0720750024
 30
0.0
 11
0.0568573695
 21
0.3025699301
 31
0.0
 40
0.6538992226
 41
0.1972028392
 42
0.5257638336
  0
ELLIPSE
  5
558
100
AcDbEntity
  8
262606150
100
AcDbEllipse
 62
7
  6
CONTINUOUS
 10
0.2291269069
 20
1.4492294406
 30
0.0
 11
0.0568573695
 21
0.3025699301
 31
0.0
 40
0.6538992226
 41
0.1972028392
 42
0.5257638336
  0
ELLIPSE
  5
559
100
AcDbEntity
  8
262606150
100
AcDbEllipse
 62
7
  6
CONTINUOUS
 10
-16.4831214108
 20
10.3023651152
 30
0.0
 11
0.0568573695
 21
0.3025699301
 31
0.0
 40
0.6538992226
 41
0.1972028392
 42
0.5257638336
  0
ELLIPSE
  5
55A
100
AcDbEntity
  8
262606150
100
AcDbEllipse
 62
7
  6
CONTINUOUS
 10
-13.8834383391
 20
8.9252106769
 30
0.0
 11
0.0568573695
 21
0.3025699301
 31
0.0
 40
0.6538992226
 41
0.1972028392
 42
0.5257638336
  0
ENDSEC
  0
SECTION
  2
OBJECTS
  0
DICTIONARY
  5
C
100
AcDbDictionary
280
0
281
1
  3
ACAD_GROUP
350
D
  3
ACAD_MLINESTYLE
350
17
  3
ACAD_LAYOUT
350
1A
  3
ACAD_PLOTSETTINGS
350
19
  3
ACAD_PLOTSTYLENAME
350
E
  0
DICTIONARY
  5
D
102
{ACAD_REACTORS
330
C
102
}
100
AcDbDictionary
280
0
281
1
  0
ACDBDICTIONARYWDFLT
  5
E
102
{ACAD_REACTORS
330
C
102
}
100
AcDbDictionary
281
1
  3
Normal
350
F
100
AcDbDictionaryWithDefault
340
F
  0
DICTIONARY
  5
17
102
{ACAD_REACTORS
330
C
102
}
100
AcDbDictionary
280
0
281
1
  3
Standard
350
18
  0
DICTIONARY
  5
19
102
{ACAD_REACTORS
330
C
102
}
100
AcDbDictionary
281
1
  0
DICTIONARY
  5
1A
102
{ACAD_REACTORS
330
C
102
}
100
AcDbDictionary
281
1
  3
Model
350
55B
  3
Layout1
350
55C
  0
ACDBPLACEHOLDER
  5
F
102
{ACAD_REACTORS
330
E
102
}
  0
MLINESTYLE
  5
18
102
{ACAD_REACTORS
330
17
102
}
100
AcDbMlineStyle
  2
STANDARD
 70
0
  3

 62
256
 51
90.0
 52
90.0
 71
2
 49
0.5
 62
256
  6
BYLAYER
 49
-0.5
 62
256
  6
BYLAYER
  0
LAYOUT
  5
55B
102
{ACAD_REACTORS
330
1A
102
}
100
AcDbPlotSettings
  1

  2
none_device
  4
ANSI_C_(22.00_x_17.00_Inches)
  6

 40
0.0
 41
0.0
 42
0.0
 43
0.0
 44
558.8
 45
431.8
 46
0.0
 47
0.0
 48
0.0
 49
0.0
140
0.0
141
0.0
142
1.0
143
1.0
 70
1024
 72
1
 73
0
 74
0
  7

 75
0
147
1.0
148
0.0
149
0.0
100
AcDbLayout
  1
Model
 70
0
 71
0
 10
0.0
 20
0.0
 11
558.8
 21
431.8
 12
0.0
 22
0.0
 32
0.0
 14
0.0
 24
0.0
 34
0.0
 15
0.0
 25
0.0
 35
0.0
146
0.0
 13
0.0
 23
0.0
 33
0.0
 16
1.0
 26
0.0
 36
0.0
 17
0.0
 27
1.0
 37
0.0
 76
0
330
217
345
0
346
0
  0
LAYOUT
  5
55C
102
{ACAD_REACTORS
330
1A
102
}
100
AcDbPlotSettings
  1

  2
none_device
  4
ANSI_C_(22.00_x_17.00_Inches)
  6

 40
0.0
 41
0.0
 42
0.0
 43
0.0
 44
558.8
 45
431.8
 46
0.0
 47
0.0
 48
0.0
 49
0.0
140
0.0
141
0.0
142
1.0
143
1.0
 70
0
 72
1
 73
0
 74
0
  7

 75
0
147
1.0
148
0.0
149
0.0
100
AcDbLayout
  1
Layout1
 70
0
 71
1
 10
0.0
 20
0.0
 11
558.8
 21
431.8
 12
0.0
 22
0.0
 32
0.0
 14
0.0
 24
0.0
 34
0.0
 15
0.0
 25
0.0
 35
0.0
146
0.0
 13
0.0
 23
0.0
 33
0.0
 16
1.0
 26
0.0
 36
0.0
 17
0.0
 27
1.0
 37
0.0
 76
0
330
218
345
0
346
0
  0
ENDSEC
  0
EOF
