  0
SECTION
  2
HEADER
  9
$ACADVER
  1
AC1024
  9
$DWGCODEPAGE
  3
ANSI_1252
  9
$EXTMAX
 10
297.0
 20
210.0
 30
0.0
  9
$EXTMIN
 10
0.0
 20
0.0
 30
0.0
  9
$LIMMIN
 10
0.0
 20
0.0
  9
$LIMMAX
 10
297.0
 20
210.0
  9
$VIEWCTR
 10
148.5
 20
105.0
  9
$VIEWSIZE
 40
210.0
  9
$CLAYER
  8
0
  9
$LTSCALE
 40
16.335
  9
$CELTYPE
  6
BYLAYER
  9
$DIMSCALE
 40
1.0
  9
$DIMASZ
 40
3.0
  9
$DIMEXO
 40
0.5
  9
$DIMDLI
 40
11.286
  9
$DIMEXE
 40
1.5
  9
$DIMCEN
 40
2.673
  9
$DIMLFAC
 40
1.0
  9
$DIMBLK
  1
_FILLED
  9
$DIMALT
 70
0
  9
$DIMALTF
 40
0.0393700787
  9
$DIMTXT
 40
3.0
  9
$DIMTOL
 70
1
  9
$DIMLIM
 70
0
  9
$DIMTFAC
 40
1.0
  9
$DIMTP
 40
0.01
  9
$DIMTM
 40
0.01
  9
$DIMGAP
 40
0.625
  9
$DIMDSEP
 70
44
  9
$AUNITS
 70
0
  9
$PDMODE
 70
3
  9
$PDSIZE
 40
3.0
  9
$HANDSEED
  5
39D
  9
$TILEMODE
 70
1
  9
$MEASUREMENT
 70
1
  9
$INSUNITS
 70
4
  0
ENDSEC
  0
SECTION
  2
CLASSES
  0
CLASS
  1
ACDBDICTIONARYWDFLT
  2
AcDbDictionaryWithDefault
  3
AutoCAD 2000
 90
0
 91
1
280
0
281
0
  0
CLASS
  1
ACDBPLACEHOLDER
  2
AcDbPlaceHolder
  3
AutoCAD 2000
 90
0
 91
1
280
0
281
0
  0
CLASS
  1
LAYOUT
  2
AcDbLayout
  3
AutoCAD 2000
 90
0
 91
0
280
0
281
0
  0
ENDSEC
  0
SECTION
  2
TABLES
  0
TABLE
  2
VPORT
  5
8
100
AcDbSymbolTable
 70
2
  0
VPORT
  5
1F4
100
AcDbSymbolTableRecord
100
AcDbViewportTableRecord
  2
*ACTIVE
 70
0
 10
0.0
 20
0.0
 11
1.0
 21
1.0
 12
148.5
 22
105.0
 13
0.0
 23
0.0
 14
1.0
 24
1.0
 15
0.0
 25
0.0
 16
0.0
 26
0.0
 36
1.0
 17
0.0
 27
0.0
 37
0.0
 40
210.0
 41
1.4142857143
 42
50.0
 43
0.0
 44
0.0
 50
0.0
 51
0.0
 71
0
 72
100
 73
1
 74
1
 75
0
 76
0
 77
0
 78
0
  0
ENDTAB
  0
TABLE
  2
LTYPE
  5
5
100
AcDbSymbolTable
 70
6
  0
LTYPE
  5
14
100
AcDbSymbolTableRecord
100
AcDbLinetypeTableRecord
  2
BYBLOCK
 70
0
  3

 72
65
 73
0
 40
0.0
  0
LTYPE
  5
15
100
AcDbSymbolTableRecord
100
AcDbLinetypeTableRecord
  2
BYLAYER
 70
0
  3

 72
65
 73
0
 40
0.0
  0
LTYPE
  5
16
100
AcDbSymbolTableRecord
100
AcDbLinetypeTableRecord
  2
CONTINUOUS
 70
64
  3
Solid line
 72
65
 73
0
 40
0.0
  0
LTYPE
  5
1F5
100
AcDbSymbolTableRecord
100
AcDbLinetypeTableRecord
  2
CENTER
 70
64
  3
____ _ ____ _ ____ _ ____ _ ____ _ ____ _ ____
 72
65
 73
4
 40
0.6
 49
0.375
 74
0
 49
-0.075
 74
0
 49
0.075
 74
0
 49
-0.075
 74
0
  0
LTYPE
  5
1F6
100
AcDbSymbolTableRecord
100
AcDbLinetypeTableRecord
  2
HIDDEN
 70
64
  3
- - - - - - - - - - - - - - - - - - - -
 72
65
 73
2
 40
0.2
 49
0.1
 74
0
 49
-0.1
 74
0
  0
LTYPE
  5
1F7
100
AcDbSymbolTableRecord
100
AcDbLinetypeTableRecord
  2
PHANTOM
 70
64
  3
_____ _ _ _____ _ _ _____ _ _ _____
 72
65
 73
6
 40
0.8
 49
0.45
 74
0
 49
-0.05
 74
0
 49
0.1
 74
0
 49
-0.05
 74
0
 49
0.1
 74
0
 49
-0.05
 74
0
  0
LTYPE
  5
1F8
100
AcDbSymbolTableRecord
100
AcDbLinetypeTableRecord
  2
DOT
 70
64
  3
. . . . . . . . . . . . . . . . . . . .
 72
65
 73
2
 40
0.2
 49
0.1
 74
0
 49
-0.1
 74
0
  0
LTYPE
  5
1F9
100
AcDbSymbolTableRecord
100
AcDbLinetypeTableRecord
  2
DASHED
 70
64
  3
- - - - - - - - - - - - - - - - - - - -
 72
65
 73
2
 40
0.2
 49
0.1
 74
0
 49
-0.1
 74
0
  0
ENDTAB
  0
TABLE
  2
LAYER
  5
2
100
AcDbSymbolTable
 70
36
  0
LAYER
  5
10
100
AcDbSymbolTableRecord
100
AcDbLayerTableRecord
  2
0
 70
0
 62
7
  6
CONTINUOUS
370
-3
390
F
  0
LAYER
  5
1FA
100
AcDbSymbolTableRecord
100
AcDbLayerTableRecord
  2
DEFAULT_1
 70
0
 62
7
  6
CENTER
370
-3
390
F
  0
LAYER
  5
1FB
100
AcDbSymbolTableRecord
100
AcDbLayerTableRecord
  2
DEFAULT_2
 70
0
 62
7
  6
HIDDEN
370
-3
390
F
  0
LAYER
  5
1FC
100
AcDbSymbolTableRecord
100
AcDbLayerTableRecord
  2
DEFAULT_3
 70
0
 62
7
  6
PHANTOM
370
-3
390
F
  0
LAYER
  5
1FD
100
AcDbSymbolTableRecord
100
AcDbLayerTableRecord
  2
ASSI
 70
0
 62
7
  6
CONTINUOUS
370
-3
390
F
  0
LAYER
  5
1FE
100
AcDbSymbolTableRecord
100
AcDbLayerTableRecord
  2
COORDINATE
 70
0
 62
7
  6
CONTINUOUS
370
-3
390
F
  0
LAYER
  5
1FF
100
AcDbSymbolTableRecord
100
AcDbLayerTableRecord
  2
COPY_PUBLISH
 70
0
 62
7
  6
CONTINUOUS
370
-3
390
F
  0
LAYER
  5
200
100
AcDbSymbolTableRecord
100
AcDbLayerTableRecord
  2
COSMETICI
 70
0
 62
7
  6
CONTINUOUS
370
-3
390
F
  0
LAYER
  5
201
100
AcDbSymbolTableRecord
100
AcDbLayerTableRecord
  2
CURVE
 70
0
 62
7
  6
CONTINUOUS
370
-3
390
F
  0
LAYER
  5
202
100
AcDbSymbolTableRecord
100
AcDbLayerTableRecord
  2
DRAFT
 70
0
 62
7
  6
CONTINUOUS
370
-3
390
F
  0
LAYER
  5
203
100
AcDbSymbolTableRecord
100
AcDbLayerTableRecord
  2
IMPORT_IGES
 70
0
 62
7
  6
CONTINUOUS
370
-3
390
F
  0
LAYER
  5
204
100
AcDbSymbolTableRecord
100
AcDbLayerTableRecord
  2
INTFCLR
 70
0
 62
7
  6
CONTINUOUS
370
-3
390
F
  0
LAYER
  5
205
100
AcDbSymbolTableRecord
100
AcDbLayerTableRecord
  2
INTFCLR_17
 70
0
 62
7
  6
CONTINUOUS
370
-3
390
F
  0
LAYER
  5
206
100
AcDbSymbolTableRecord
100
AcDbLayerTableRecord
  2
INTF_11
 70
0
 62
7
  6
CONTINUOUS
370
-3
390
F
  0
LAYER
  5
207
100
AcDbSymbolTableRecord
100
AcDbLayerTableRecord
  2
INTF_2
 70
0
 62
7
  6
CONTINUOUS
370
-3
390
F
  0
LAYER
  5
208
100
AcDbSymbolTableRecord
100
AcDbLayerTableRecord
  2
INTF_5
 70
0
 62
7
  6
CONTINUOUS
370
-3
390
F
  0
LAYER
  5
209
100
AcDbSymbolTableRecord
100
AcDbLayerTableRecord
  2
INTF_YELLOW
 70
0
 62
7
  6
CONTINUOUS
370
-3
390
F
  0
LAYER
  5
20A
100
AcDbSymbolTableRecord
100
AcDbLayerTableRecord
  2
NONE
 70
0
 62
7
  6
CONTINUOUS
370
-3
390
F
  0
LAYER
  5
20B
100
AcDbSymbolTableRecord
100
AcDbLayerTableRecord
  2
NOTE
 70
0
 62
7
  6
CONTINUOUS
370
-3
390
F
  0
LAYER
  5
20C
100
AcDbSymbolTableRecord
100
AcDbLayerTableRecord
  2
PIANI
 70
0
 62
7
  6
CONTINUOUS
370
-3
390
F
  0
LAYER
  5
20D
100
AcDbSymbolTableRecord
100
AcDbLayerTableRecord
  2
POSIZIONE_SCRITTE
 70
0
 62
7
  6
CONTINUOUS
370
-3
390
F
  0
LAYER
  5
20E
100
AcDbSymbolTableRecord
100
AcDbLayerTableRecord
  2
PUNTI
 70
0
 62
7
  6
CONTINUOUS
370
-3
390
F
  0
LAYER
  5
20F
100
AcDbSymbolTableRecord
100
AcDbLayerTableRecord
  2
RACCORDO
 70
0
 62
7
  6
CONTINUOUS
370
-3
390
F
  0
LAYER
  5
210
100
AcDbSymbolTableRecord
100
AcDbLayerTableRecord
  2
SIMBOLI
 70
0
 62
7
  6
CONTINUOUS
370
-3
390
F
  0
LAYER
  5
211
100
AcDbSymbolTableRecord
100
AcDbLayerTableRecord
  2
SMUSSO
 70
0
 62
7
  6
CONTINUOUS
370
-3
390
F
  0
LAYER
  5
212
100
AcDbSymbolTableRecord
100
AcDbLayerTableRecord
  2
SNAPLINE
 70
0
 62
7
  6
CONTINUOUS
370
-3
390
F
  0
LAYER
  5
213
100
AcDbSymbolTableRecord
100
AcDbLayerTableRecord
  2
SUPERFICI
 70
0
 62
7
  6
CONTINUOUS
370
-3
390
F
  0
LAYER
  5
214
100
AcDbSymbolTableRecord
100
AcDbLayerTableRecord
  2
TRASH
 70
0
 62
7
  6
CONTINUOUS
370
-3
390
F
  0
ENDTAB
  0
TABLE
  2
STYLE
  5
3
100
AcDbSymbolTable
 70
1
  0
STYLE
  5
11
100
AcDbSymbolTableRecord
100
AcDbTextStyleTableRecord
  2
STANDARD
 70
0
 40
0.0
 41
0.8
 50
0.0
 71
0
 42
0.2
  3
txt
  4

  0
STYLE
  5
215
100
AcDbSymbolTableRecord
100
AcDbTextStyleTableRecord
  2
TEXTSTYLE_1
 70
0
 40
0.0
 41
0.8
 50
0.0
 71
0
 42
0.2
  3
gdt
  4

  0
ENDTAB
  0
TABLE
  2
VIEW
  5
6
100
AcDbSymbolTable
 70
0
  0
ENDTAB
  0
TABLE
  2
UCS
  5
7
100
AcDbSymbolTable
 70
0
  0
ENDTAB
  0
TABLE
  2
APPID
  5
9
100
AcDbSymbolTable
 70
1
  0
APPID
  5
216
100
AcDbSymbolTableRecord
100
AcDbRegAppTableRecord
  2
ACAD
 70
0
  0
ENDTAB
  0
TABLE
  2
BLOCK_RECORD
  5
1
100
AcDbSymbolTable
 70
0
  0
BLOCK_RECORD
  5
217
100
AcDbSymbolTableRecord
100
AcDbBlockTableRecord
  2
*Model_Space
  0
BLOCK_RECORD
  5
218
100
AcDbSymbolTableRecord
100
AcDbBlockTableRecord
  2
*Paper_Space
  0
BLOCK_RECORD
  5
219
100
AcDbSymbolTableRecord
100
AcDbBlockTableRecord
  2
_FILLED
  0
ENDTAB
  0
TABLE
  2
DIMSTYLE
  5
A
100
AcDbSymbolTable
 70
1
100
AcDbDimStyleTable
 71
0
  0
DIMSTYLE
105
21A
100
AcDbSymbolTableRecord
100
AcDbDimStyleTableRecord
  2
STANDARD
 70
0
  3

  4

 40
1.0
 41
3.0
 42
0.5
 43
0.38
 44
1.5
 45
0.0
 46
0.0
 47
0.01
 48
0.01
140
3.0
141
0.0
142
0.0
143
25.4
144
1.0
145
0.0
146
1.0
147
0.625
 71
1
 72
0
 73
0
 74
0
 75
0
 76
0
 77
1
 78
8
 79
2
170
0
171
1
172
0
173
0
174
0
175
0
176
0
177
0
178
0
270
2
179
2
271
2
272
2
273
2
274
2
275
0
280
0
281
0
282
0
283
1
284
8
285
0
286
0
287
3
288
0
340
11
278
44
341
219
342
219
343
219
344
219
  0
ENDTAB
  0
ENDSEC
  0
SECTION
  2
BLOCKS
  0
BLOCK
  5
20
100
AcDbEntity
  8
0
100
AcDbBlockBegin
  2
*Model_Space
 70
0
 10
0.0
 20
0.0
 30
0.0
  3
*Model_Space
  1

  0
ENDBLK
  5
21
100
AcDbEntity
  8
0
100
AcDbBlockEnd
  0
BLOCK
  5
1C
100
AcDbEntity
  8
0
100
AcDbBlockBegin
  2
*Paper_Space
 70
0
 10
0.0
 20
0.0
 30
0.0
  3
*Paper_Space
  1

  0
ENDBLK
  5
1D
100
AcDbEntity
  8
0
100
AcDbBlockEnd
  0
BLOCK
  5
21B
100
AcDbEntity
  8
0
100
AcDbBlockBegin
  2
_FILLED
 70
64
 10
0.0
 20
0.0
 30
0.0
  3
_FILLED
  1

  0
SOLID
  5
21C
100
AcDbEntity
  8
0
  6
BYBLOCK
 62
0
100
AcDbTrace
 10
0.0
 20
0.0
 30
0.0
 11
-1.0
 21
0.3166666667
 31
0.0
 12
-1.0
 22
-0.3166666667
 32
0.0
 13
-1.0
 23
-0.3166666667
 33
0.0
  0
ENDBLK
  5
21D
100
AcDbEntity
  8
0
  6
BYBLOCK
 62
0
100
AcDbBlockEnd
  0
ENDSEC
  0
SECTION
  2
ENTITIES
  0
LWPOLYLINE
  5
21E
100
AcDbEntity
  8
RACCORDO
100
AcDbPolyline
 62
7
  6
CONTINUOUS
 90
15
 70
0
 10
71.8041302877
 20
113.3178523571
 10
71.7844777289
 20
113.3011467847
 10
71.69995829
 20
113.2212401161
 10
71.6202988622
 20
113.1324007022
 10
71.5456318111
 20
113.0347708031
 10
71.4761461204
 20
112.9284393969
 10
71.4120253654
 20
112.8135561492
 10
71.3533589675
 20
112.6902786144
 10
71.3001930397
 20
112.558806886
 10
71.252579797
 20
112.4193930238
 10
71.2105795373
 20
112.2721406399
 10
71.1743166561
 20
112.1170309782
 10
71.1439644969
 20
111.9543081513
 10
71.119664997
 20
111.784343122
 10
71.1079365774
 20
111.6779897851
  0
LINE
  5
21F
100
AcDbEntity
  8
SUPERFICI
100
AcDbLine
 62
7
  6
CONTINUOUS
 10
71.8038637947
 20
113.317630707
 30
0.0
 11
73.7817508699
 21
114.9664317084
 31
0.0
  0
LINE
  5
220
100
AcDbEntity
  8
RACCORDO
100
AcDbLine
 62
7
  6
CONTINUOUS
 10
71.8038638591
 20
113.3176307607
 30
0.0
 11
71.8041421529
 21
113.317862673
 31
0.0
  0
LWPOLYLINE
  5
221
100
AcDbEntity
  8
RACCORDO
100
AcDbPolyline
 62
7
  6
CONTINUOUS
 90
14
 70
0
 10
96.0255017221
 20
30.5367954621
 10
96.1297189087
 20
30.4939618688
 10
96.2937833767
 20
30.4339271663
 10
96.4562787341
 20
30.3835054663
 10
96.6167967221
 20
30.3427336728
 10
96.7749129737
 20
30.3115662644
 10
96.9303271628
 20
30.2898882875
 10
97.0827429548
 20
30.2776292674
 10
97.2317650635
 20
30.2747723332
 10
97.3769702043
 20
30.2812701919
 10
97.5179507369
 20
30.2970147459
 10
97.6542761079
 20
30.3218117501
 10
97.7855796278
 20
30.3553725639
 10
97.899212055
 20
30.3928708167
  0
LINE
  5
222
100
AcDbEntity
  8
RACCORDO
100
AcDbLine
 62
7
  6
CONTINUOUS
 10
95.8199651689
 20
30.6249011572
 30
0.0
 11
96.0256346487
 21
30.536738418
 31
0.0
  0
LINE
  5
223
100
AcDbEntity
  8
RACCORDO
100
AcDbLine
 62
7
  6
CONTINUOUS
 10
95.6519391534
 20
30.6977003973
 30
0.0
 11
95.8199651689
 21
30.6249011572
 31
0.0
  0
LWPOLYLINE
  5
224
100
AcDbEntity
  8
RACCORDO
100
AcDbPolyline
 62
7
  6
CONTINUOUS
 90
8
 70
0
 10
93.0899831658
 20
31.8935822592
 10
93.4936560564
 20
31.6963697484
 10
93.8877221731
 20
31.5064636579
 10
94.2722957469
 20
31.323981226
 10
94.6474352983
 20
31.1490057272
 10
95.0131665705
 20
30.9816002655
 10
95.3695038099
 20
30.8218199844
 10
95.6519372765
 20
30.6977012144
  0
LINE
  5
225
100
AcDbEntity
  8
RACCORDO
100
AcDbLine
 62
7
  6
CONTINUOUS
 10
92.3088402542
 20
32.2812978433
 30
0.0
 11
93.0899831658
 21
31.8935822592
 31
0.0
  0
LINE
  5
226
100
AcDbEntity
  8
RACCORDO
100
AcDbLine
 62
250
  6
CONTINUOUS
 10
92.3389395807
 20
32.3415681464
 30
0.0
 11
92.1954885479
 21
32.4132738193
 31
0.0
  0
LWPOLYLINE
  5
227
100
AcDbEntity
  8
RACCORDO
100
AcDbPolyline
 62
7
  6
CONTINUOUS
 90
10
 70
0
 10
84.0708565527
 20
36.7104153883
 10
84.9371066684
 20
36.2141005489
 10
85.8232142477
 20
35.7142481406
 10
86.7160417534
 20
35.2184437502
 10
87.6155350451
 20
34.7267168757
 10
88.5216417205
 20
34.2390956529
 10
89.4343069715
 20
33.7556093952
 10
90.3534762396
 20
33.2762870207
 10
91.2790949985
 20
32.8011569667
 10
92.308837383
 20
32.28129928
  0
LINE
  5
228
100
AcDbEntity
  8
RACCORDO
100
AcDbLine
 62
250
  6
CONTINUOUS
 10
84.1013905334
 20
36.7635892039
 30
0.0
 11
84.0106886489
 21
36.8156729139
 31
0.0
  0
LWPOLYLINE
  5
229
100
AcDbEntity
  8
RACCORDO
100
AcDbPolyline
 62
7
  6
CONTINUOUS
 90
9
 70
0
 10
77.3062825948
 20
40.8682934555
 10
78.1339270031
 20
40.3308980202
 10
78.9688331295
 20
39.7973097792
 10
79.8109494123
 20
39.2675609259
 10
80.6602261546
 20
38.7416820139
 10
81.5166116626
 20
38.2197047621
 10
82.3800541145
 20
37.7016606346
 10
83.2505016401
 20
37.1875805366
 10
84.0708565712
 20
36.7104153776
  0
LINE
  5
22A
100
AcDbEntity
  8
RACCORDO
100
AcDbLine
 62
250
  6
CONTINUOUS
 10
76.5646801739
 20
41.4228887188
 30
0.0
 11
76.4761753013
 21
41.4813667168
 31
0.0
  0
LINE
  5
22B
100
AcDbEntity
  8
RACCORDO
100
AcDbLine
 62
7
  6
CONTINUOUS
 10
76.3967280824
 20
41.4688454053
 30
0.0
 11
77.3062825948
 21
40.8682934555
 31
0.0
  0
LINE
  5
22C
100
AcDbEntity
  8
RACCORDO
100
AcDbLine
 62
250
  6
CONTINUOUS
 10
73.7317136944
 20
43.399162618
 30
0.0
 11
73.6740245243
 21
43.442874231
 31
0.0
  0
LWPOLYLINE
  5
22D
100
AcDbEntity
  8
RACCORDO
100
AcDbPolyline
 62
7
  6
CONTINUOUS
 90
9
 70
0
 10
73.6451681893
 20
43.4048208726
 10
73.8656137185
 20
43.2377670733
 10
74.1439243181
 20
43.0310522163
 10
74.4352339025
 20
42.8190491458
 10
74.7394628859
 20
42.6017395609
 10
75.0565194418
 20
42.3790915454
 10
75.3862837446
 20
42.1510567924
 10
75.7285623177
 20
41.9175609925
 10
76.3967255728
 20
41.4688470771
  0
LINE
  5
22E
100
AcDbEntity
  8
RACCORDO
100
AcDbLine
 62
7
  6
CONTINUOUS
 10
73.5221655712
 20
43.499380132
 30
0.0
 11
73.6451679916
 21
43.4048210239
 31
0.0
  0
LWPOLYLINE
  5
22F
100
AcDbEntity
  8
RACCORDO
100
AcDbPolyline
 62
7
  6
CONTINUOUS
 90
3
 70
0
 10
73.3647240936
 20
43.6217938623
 10
73.3994714926
 20
43.594639842
 10
73.5221655712
 20
43.499380132
  0
LINE
  5
230
100
AcDbEntity
  8
0
100
AcDbLine
 62
7
  6
CONTINUOUS
 10
85.517550905
 20
46.9121740952
 30
0.0
 11
85.3151963901
 21
47.0237853494
 31
0.0
  0
LINE
  5
231
100
AcDbEntity
  8
0
100
AcDbLine
 62
7
  6
CONTINUOUS
 10
85.2810904851
 20
47.3524807462
 30
0.0
 11
85.4967618289
 21
47.2335123599
 31
0.0
  0
LINE
  5
232
100
AcDbEntity
  8
0
100
AcDbLine
 62
7
  6
CONTINUOUS
 10
84.2477630385
 20
47.6135293574
 30
0.0
 11
84.2057249555
 21
47.6372304016
 31
0.0
  0
LINE
  5
233
100
AcDbEntity
  8
0
100
AcDbLine
 62
7
  6
CONTINUOUS
 10
82.6924535195
 20
49.6591725541
 30
0.0
 11
83.0579246585
 21
49.4486368887
 31
0.0
  0
LINE
  5
234
100
AcDbEntity
  8
0
100
AcDbLine
 62
7
  6
CONTINUOUS
 10
82.4794801138
 20
47.8937618774
 30
0.0
 11
82.4279290456
 21
47.9237536483
 31
0.0
  0
LWPOLYLINE
  5
235
100
AcDbEntity
  8
RACCORDO
100
AcDbPolyline
 62
7
  6
CONTINUOUS
 90
9
 70
0
 10
70.1326218502
 20
59.4598959712
 10
70.2186687399
 20
58.0281915221
 10
70.3140539319
 20
56.60260383
 10
70.418772734
 20
55.1832063097
 10
70.5328199043
 20
53.77007341
 10
70.6561898002
 20
52.3632784326
 10
70.7888762234
 20
50.9628957029
 10
70.9308726783
 20
49.5689972061
 10
71.0752639429
 20
48.2430528306
  0
LINE
  5
236
100
AcDbEntity
  8
RACCORDO
100
AcDbLine
 62
7
  6
CONTINUOUS
 10
70.0522618923
 20
60.9709840075
 30
0.0
 11
70.1326218502
 21
59.4598959712
 31
0.0
  0
LINE
  5
237
100
AcDbEntity
  8
RACCORDO
100
AcDbLine
 62
250
  6
CONTINUOUS
 10
70.0994894687
 20
60.7538588282
 30
0.0
 11
70.0882915623
 21
60.9729561706
 31
0.0
  0
LWPOLYLINE
  5
238
100
AcDbEntity
  8
RACCORDO
100
AcDbPolyline
 62
7
  6
CONTINUOUS
 90
10
 70
0
 10
69.6671908254
 20
78.98599487
 10
69.6724369612
 20
76.7539909574
 10
69.6882405356
 20
74.5313509097
 10
69.7138464043
 20
72.3780703711
 10
69.7484753247
 20
70.2937605568
 10
69.7915539191
 20
68.278093053
 10
69.843346691
 20
66.3312404225
 10
69.9044400765
 20
64.4536261561
 10
69.9751192014
 20
62.6455211202
 10
70.052261878
 20
60.9709842955
  0
LINE
  5
239
100
AcDbEntity
  8
RACCORDO
100
AcDbLine
 62
250
  6
CONTINUOUS
 10
69.7079021342
 20
78.8988692155
 30
0.0
 11
69.7079100368
 21
78.9858392357
 31
0.0
  0
LWPOLYLINE
  5
23A
100
AcDbEntity
  8
RACCORDO
100
AcDbPolyline
 62
7
  6
CONTINUOUS
 90
9
 70
0
 10
69.9748668019
 20
95.6747116863
 10
69.9042305954
 20
93.7854716085
 10
69.843179775
 20
91.837698041
 10
69.7914163338
 20
89.8313319031
 10
69.7483735613
 20
87.7661526807
 10
69.7137656503
 20
85.6420256332
 10
69.6881884824
 20
83.4593231774
 10
69.6724111652
 20
81.2185419529
 10
69.6671908254
 20
78.9859938273
  0
LINE
  5
23B
100
AcDbEntity
  8
RACCORDO
100
AcDbLine
 62
7
  6
CONTINUOUS
 10
70.0588156808
 20
97.5828546845
 30
0.0
 11
69.9748668019
 21
95.6747116863
 31
0.0
  0
LINE
  5
23C
100
AcDbEntity
  8
RACCORDO
100
AcDbLine
 62
250
  6
CONTINUOUS
 10
70.0929003996
 20
97.3555080716
 30
0.0
 11
70.1035733753
 21
97.5806393799
 31
0.0
  0
LWPOLYLINE
  5
23D
100
AcDbEntity
  8
RACCORDO
100
AcDbPolyline
 62
7
  6
CONTINUOUS
 90
9
 70
0
 10
70.9299961632
 20
109.8465671244
 10
70.7880926378
 20
108.2899316444
 10
70.6554922612
 20
106.7374856009
 10
70.5322019201
 20
105.1893085541
 10
70.4182281549
 20
103.645481732
 10
70.3135770591
 20
102.106085657
 10
70.2182542925
 20
100.5712010818
 10
70.1322650456
 20
99.0409091799
 10
70.0588156803
 20
97.582854673
  0
LINE
  5
23E
100
AcDbEntity
  8
RACCORDO
100
AcDbLine
 62
7
  6
CONTINUOUS
 10
71.1079427904
 20
111.6780249998
 30
0.0
 11
70.9299961632
 21
109.8465671244
 31
0.0
  0
LINE
  5
23F
100
AcDbEntity
  8
RACCORDO
100
AcDbLine
 62
7
  6
CONTINUOUS
 10
87.1618367288
 20
54.8674967662
 30
0.0
 11
86.3404704969
 21
54.6896230373
 31
0.0
  0
LINE
  5
240
100
AcDbEntity
  8
RACCORDO
100
AcDbLine
 62
7
  6
CONTINUOUS
 10
77.382274429
 20
58.0889200742
 30
0.0
 11
90.9596515645
 21
50.2495126807
 31
0.0
  0
LINE
  5
241
100
AcDbEntity
  8
DRAFT
100
AcDbLine
 62
7
  6
CONTINUOUS
 10
84.8139130566
 20
53.8959932862
 30
0.0
 11
89.1766423887
 21
51.3770080476
 31
0.0
  0
LINE
  5
242
100
AcDbEntity
  8
DRAFT
100
AcDbLine
 62
7
  6
CONTINUOUS
 10
84.962745992
 20
53.9733688519
 30
0.0
 11
89.4111594985
 21
51.4049224814
 31
0.0
  0
LINE
  5
243
100
AcDbEntity
  8
DRAFT
100
AcDbLine
 62
7
  6
CONTINUOUS
 10
85.1859953952
 20
54.0894322005
 30
0.0
 11
89.5116668313
 21
51.5918437267
 31
0.0
  0
LINE
  5
244
100
AcDbEntity
  8
DRAFT
100
AcDbLine
 62
7
  6
CONTINUOUS
 10
85.3348283307
 20
54.1668077662
 30
0.0
 11
89.746183941
 21
51.6197581605
 31
0.0
  0
LINE
  5
245
100
AcDbEntity
  8
DRAFT
100
AcDbLine
 62
7
  6
CONTINUOUS
 10
85.5580777339
 20
54.2828711147
 30
0.0
 11
89.8466912738
 21
51.8066794057
 31
0.0
  0
LINE
  5
246
100
AcDbEntity
  8
DRAFT
100
AcDbLine
 62
7
  6
CONTINUOUS
 10
85.7069106693
 20
54.3602466804
 30
0.0
 11
90.0812083836
 21
51.8345938395
 31
0.0
  0
LINE
  5
247
100
AcDbEntity
  8
DRAFT
100
AcDbLine
 62
7
  6
CONTINUOUS
 10
85.9301600725
 20
54.476310029
 30
0.0
 11
90.1817157163
 21
52.0215150848
 31
0.0
  0
LINE
  5
248
100
AcDbEntity
  8
DRAFT
100
AcDbLine
 62
7
  6
CONTINUOUS
 10
86.078993008
 20
54.5536855947
 30
0.0
 11
90.4162328261
 21
52.0494295186
 31
0.0
  0
LINE
  5
249
100
AcDbEntity
  8
DRAFT
100
AcDbLine
 62
7
  6
CONTINUOUS
 10
86.3022424112
 20
54.6697489433
 30
0.0
 11
90.5167401589
 21
52.2363507638
 31
0.0
  0
LWPOLYLINE
  5
24A
100
AcDbEntity
  8
RACCORDO
100
AcDbPolyline
 62
7
  6
CONTINUOUS
 90
31
 70
0
 10
71.1083495718
 20
47.9478499164
 10
71.1192240933
 20
47.8585932323
 10
71.141285904
 20
47.7089610744
 10
71.1684908164
 20
47.555821798
 10
71.200720746
 20
47.3996510602
 10
71.2378399559
 20
47.2408302062
 10
71.2797409219
 20
47.0796107724
 10
71.3262984431
 20
46.9164411137
 10
71.377416557
 20
46.7517805186
 10
71.4330563507
 20
46.5859235026
 10
71.4930908671
 20
46.4193654576
 10
71.5573512661
 20
46.2526040923
 10
71.6257133762
 20
46.0859549272
 10
71.6980305307
 20
45.91988493
 10
71.7741949168
 20
45.7548691718
 10
71.8541727942
 20
45.5912417912
 10
71.9378202731
 20
45.4294949628
 10
72.0249585205
 20
45.2700963783
 10
72.115478255
 20
45.1133203012
 10
72.2092077065
 20
44.9595900274
 10
72.3060082205
 20
44.8093538951
 10
72.4058467393
 20
44.6629457066
 10
72.5085541633
 20
44.5208407874
 10
72.6139457939
 20
44.383475366
 10
72.7219519545
 20
44.2510981174
 10
72.8323537352
 20
44.1241223875
 10
72.9449435626
 20
44.0029645108
 10
73.0596748953
 20
43.8879186639
 10
73.1763605777
 20
43.7793978379
 10
73.2946871761
 20
43.6778863242
 10
73.364971657
 20
43.6216002559
  0
LINE
  5
24B
100
AcDbEntity
  8
RACCORDO
100
AcDbLine
 62
250
  6
CONTINUOUS
 10
71.1158070478
 20
48.1614696285
 30
0.0
 11
71.1062810508
 21
48.2464061313
 31
0.0
  0
LINE
  5
24C
100
AcDbEntity
  8
RACCORDO
100
AcDbLine
 62
7
  6
CONTINUOUS
 10
71.0752638352
 20
48.2430537888
 30
0.0
 11
71.1083580958
 21
47.9477982594
 31
0.0
  0
LINE
  5
24D
100
AcDbEntity
  8
RACCORDO
100
AcDbLine
 62
250
  6
CONTINUOUS
 10
71.1342618965
 20
47.9970250193
 30
0.0
 11
71.1305779306
 21
48.0298878235
 31
0.0
  0
LINE
  5
24E
100
AcDbEntity
  8
RACCORDO
100
AcDbLine
 62
250
  6
CONTINUOUS
 10
87.1618367288
 20
54.8674967662
 30
0.0
 11
90.8592273693
 21
52.7326697496
 31
0.0
  0
LINE
  5
24F
100
AcDbEntity
  8
RACCORDO
100
AcDbLine
 62
7
  6
CONTINUOUS
 10
87.3072913285
 20
54.8511628755
 30
0.0
 11
90.8719110186
 21
52.7929961416
 31
0.0
  0
LINE
  5
250
100
AcDbEntity
  8
RACCORDO
100
AcDbLine
 62
7
  6
CONTINUOUS
 10
77.0287748863
 20
92.4287357358
 30
0.0
 11
77.0287748863
 21
58.701199242
 31
0.0
  0
LINE
  5
251
100
AcDbEntity
  8
0
100
AcDbLine
 62
7
  6
CONTINUOUS
 10
84.9937959508
 20
46.463849575
 30
0.0
 11
84.9868391021
 21
46.5613253776
 31
0.0
  0
LINE
  5
252
100
AcDbEntity
  8
0
100
AcDbLine
 62
7
  6
CONTINUOUS
 10
85.8998000385
 20
46.8563228246
 30
0.0
 11
85.9005798637
 21
46.8447127929
 31
0.0
  0
LINE
  5
253
100
AcDbEntity
  8
0
100
AcDbLine
 62
7
  6
CONTINUOUS
 10
85.2459509631
 20
47.892474843
 30
0.0
 11
85.2810903522
 21
47.3524809127
 31
0.0
  0
LINE
  5
254
100
AcDbEntity
  8
RACCORDO
100
AcDbLine
 62
250
  6
CONTINUOUS
 10
91.1480736706
 20
48.1396247423
 30
0.0
 11
91.1417853485
 21
48.2738094854
 31
0.0
  0
LWPOLYLINE
  5
255
100
AcDbEntity
  8
RACCORDO
100
AcDbPolyline
 62
7
  6
CONTINUOUS
 90
9
 70
0
 10
91.0440812093
 20
48.2694491873
 10
91.0444538129
 20
48.2568436534
 10
91.0439874314
 20
48.2352740223
 10
91.0422546615
 20
48.2168791713
 10
91.0396164646
 20
48.2018092001
 10
91.0365387456
 20
48.1903258011
 10
91.0336684633
 20
48.1826884434
 10
91.0318296435
 20
48.178986765
 10
91.031636694
 20
48.1786548554
  0
LWPOLYLINE
  5
256
100
AcDbEntity
  8
RACCORDO
100
AcDbPolyline
 62
7
  6
CONTINUOUS
 90
10
 70
0
 10
90.6837895395
 20
65.9207884063
 10
90.6887191485
 20
63.7350247297
 10
90.7036000365
 20
61.5572039564
 10
90.7277109778
 20
59.4473256359
 10
90.7602159594
 20
57.404939669
 10
90.8007342451
 20
55.4298377242
 10
90.8493025463
 20
53.5220477549
 10
90.9063666554
 20
51.6819109968
 10
90.972290761
 20
49.9097473698
 10
91.0440724846
 20
48.2696310642
  0
LINE
  5
257
100
AcDbEntity
  8
RACCORDO
100
AcDbLine
 62
7
  6
CONTINUOUS
 10
90.5511608818
 20
51.6797101612
 30
0.0
 11
90.5511608818
 21
52.2584231814
 31
0.0
  0
LWPOLYLINE
  5
258
100
AcDbEntity
  8
RACCORDO
100
AcDbPolyline
 62
7
  6
CONTINUOUS
 90
10
 70
0
 10
91.0440379604
 20
84.0016238187
 10
90.9720530649
 20
82.2703549986
 10
90.9061715166
 20
80.4196070884
 10
90.8491160936
 20
78.5114129213
 10
90.8006219501
 20
76.5457162282
 10
90.7601744591
 20
74.5223028521
 10
90.7276081384
 20
72.4410930166
 10
90.7035430033
 20
70.3024822736
 10
90.6886978039
 20
68.1069482287
 10
90.6837895395
 20
65.9207882051
  0
LINE
  5
259
100
AcDbEntity
  8
0
100
AcDbLine
 62
7
  6
CONTINUOUS
 10
83.8873665167
 20
47.400612589
 30
0.0
 11
83.8994551668
 21
47.4541891252
 31
0.0
  0
LINE
  5
25A
100
AcDbEntity
  8
0
100
AcDbLine
 62
7
  6
CONTINUOUS
 10
83.4134243519
 20
47.3551622037
 30
0.0
 11
83.4290951857
 21
47.4168352555
 31
0.0
  0
LINE
  5
25B
100
AcDbEntity
  8
DRAFT
100
AcDbLine
 62
7
  6
CONTINUOUS
 10
84.7692508505
 20
53.823772469
 30
0.0
 11
84.8139130566
 21
53.8959932862
 31
0.0
  0
LINE
  5
25C
100
AcDbEntity
  8
RACCORDO
100
AcDbLine
 62
250
  6
CONTINUOUS
 10
97.4415769239
 20
45.0949955357
 30
0.0
 11
97.4481610687
 21
44.9630807605
 31
0.0
  0
LINE
  5
25D
100
AcDbEntity
  8
RACCORDO
100
AcDbLine
 62
250
  6
CONTINUOUS
 10
97.4481610696
 20
81.704242986
 30
0.0
 11
97.4415769249
 21
81.5647250056
 31
0.0
  0
LWPOLYLINE
  5
25E
100
AcDbEntity
  8
RACCORDO
100
AcDbPolyline
 62
7
  6
CONTINUOUS
 90
4
 70
0
 10
90.873696432
 20
52.1242187558
 10
90.8803228924
 20
52.1420409355
 10
90.8853177163
 20
52.1603946873
 10
90.8857311733
 20
52.1624646527
  0
LINE
  5
25F
100
AcDbEntity
  8
DRAFT
100
AcDbLine
 62
7
  6
CONTINUOUS
 10
85.0743706936
 20
53.9089299847
 30
0.0
 11
85.1859953952
 21
54.0894322005
 31
0.0
  0
LINE
  5
260
100
AcDbEntity
  8
DRAFT
100
AcDbLine
 62
7
  6
CONTINUOUS
 10
85.4464530323
 20
54.1023688989
 30
0.0
 11
85.5580777339
 21
54.2828711147
 31
0.0
  0
LINE
  5
261
100
AcDbEntity
  8
DRAFT
100
AcDbLine
 62
7
  6
CONTINUOUS
 10
85.8185353709
 20
54.2958078132
 30
0.0
 11
85.9301600725
 21
54.476310029
 31
0.0
  0
LINE
  5
262
100
AcDbEntity
  8
DRAFT
100
AcDbLine
 62
7
  6
CONTINUOUS
 10
86.1906177096
 20
54.4892467275
 30
0.0
 11
86.3022424112
 21
54.6697489433
 31
0.0
  0
LWPOLYLINE
  5
263
100
AcDbEntity
  8
RACCORDO
100
AcDbPolyline
 62
7
  6
CONTINUOUS
 90
10
 70
0
 10
75.3443127145
 20
93.5234808368
 10
76.100416384
 20
93.0275588248
 10
76.9121428995
 20
92.5029715657
 10
77.7308229851
 20
91.9818847078
 10
78.5564080133
 20
91.4643286636
 10
79.3888512991
 20
90.950332221
 10
80.2281043085
 20
90.4399250794
 10
81.074118279
 20
89.9331366335
 10
81.9268444987
 20
89.4299955915
 10
82.729192515
 20
88.9634491939
  0
LINE
  5
264
100
AcDbEntity
  8
RACCORDO
100
AcDbLine
 62
250
  6
CONTINUOUS
 10
75.3952094337
 20
93.6009347537
 30
0.0
 11
75.2839231662
 21
93.674063475
 31
0.0
  0
LWPOLYLINE
  5
265
100
AcDbEntity
  8
RACCORDO
100
AcDbPolyline
 62
7
  6
CONTINUOUS
 90
4
 70
0
 10
90.8596896202
 20
84.5010889102
 10
90.8725612619
 20
84.4843198516
 10
90.8851539557
 20
84.4670969557
 10
90.8973987134
 20
84.4495070256
  0
LWPOLYLINE
  5
266
100
AcDbEntity
  8
RACCORDO
100
AcDbPolyline
 62
7
  6
CONTINUOUS
 90
15
 70
0
 10
90.8976707853
 20
84.4491061627
 10
90.9192946937
 20
84.4157150794
 10
90.9391743615
 20
84.3819837041
 10
90.9576106971
 20
84.3474765912
 10
90.974446907
 20
84.312489101
 10
90.9895861765
 20
84.277254179
 10
91.0029456501
 20
84.242023842
 10
91.0144365876
 20
84.2071431705
 10
91.0240399431
 20
84.1728417042
 10
91.0317506201
 20
84.1393736848
 10
91.037566253
 20
84.1071338445
 10
91.041557626
 20
84.0763346899
 10
91.0438194722
 20
84.0471907961
 10
91.0444752003
 20
84.0200846876
 10
91.0440394332
 20
84.0016566796
  0
LINE
  5
267
100
AcDbEntity
  8
DRAFT
100
AcDbLine
 62
7
  6
CONTINUOUS
 10
89.1364283577
 20
51.3022189099
 30
0.0
 11
89.1766423887
 21
51.3770080476
 31
0.0
  0
LINE
  5
268
100
AcDbEntity
  8
DRAFT
100
AcDbLine
 62
7
  6
CONTINUOUS
 10
89.4111594985
 20
51.4049224814
 30
0.0
 11
89.5116668313
 21
51.5918437267
 31
0.0
  0
LINE
  5
269
100
AcDbEntity
  8
DRAFT
100
AcDbLine
 62
7
  6
CONTINUOUS
 10
89.746183941
 20
51.6197581605
 30
0.0
 11
89.8466912738
 21
51.8066794057
 31
0.0
  0
LINE
  5
26A
100
AcDbEntity
  8
DRAFT
100
AcDbLine
 62
7
  6
CONTINUOUS
 10
90.0812083836
 20
51.8345938395
 30
0.0
 11
90.1817157163
 21
52.0215150848
 31
0.0
  0
LINE
  5
26B
100
AcDbEntity
  8
DRAFT
100
AcDbLine
 62
7
  6
CONTINUOUS
 10
90.4162328261
 20
52.0494295186
 30
0.0
 11
90.5167401589
 21
52.2363507638
 31
0.0
  0
LINE
  5
26C
100
AcDbEntity
  8
RACCORDO
100
AcDbLine
 62
7
  6
CONTINUOUS
 10
90.5511608818
 20
52.2584231814
 30
0.0
 11
90.8592273693
 21
52.7326697496
 31
0.0
  0
LINE
  5
26D
100
AcDbEntity
  8
0
100
AcDbLine
 62
7
  6
CONTINUOUS
 10
79.3258513559
 20
51.6652214234
 30
0.0
 11
79.382570371
 21
51.6979702719
 31
0.0
  0
LINE
  5
26E
100
AcDbEntity
  8
0
100
AcDbLine
 62
7
  6
CONTINUOUS
 10
79.7149428836
 20
51.4270350527
 30
0.0
 11
79.7716564657
 21
51.4597807642
 31
0.0
  0
LWPOLYLINE
  5
26F
100
AcDbEntity
  8
RACCORDO
100
AcDbPolyline
 62
7
  6
CONTINUOUS
 90
10
 70
0
 10
89.7789359394
 20
85.1300202268
 10
90.637787608
 20
84.6933694088
 10
90.6634542971
 20
84.6791224391
 10
90.6905100063
 20
84.6619482384
 10
90.7185436975
 20
84.6418330154
 10
90.7469826358
 20
84.618972483
 10
90.7755088146
 20
84.5934600585
 10
90.8038501317
 20
84.5653880646
 10
90.8315462716
 20
84.5350988635
 10
90.8599608417
 20
84.5007438391
  0
LWPOLYLINE
  5
270
100
AcDbEntity
  8
RACCORDO
100
AcDbPolyline
 62
7
  6
CONTINUOUS
 90
9
 70
0
 10
82.7291924779
 20
88.9634492153
 10
83.5420398114
 20
88.4974403802
 10
84.4137490719
 20
88.0049540706
 10
85.2919690766
 20
87.5162301444
 10
86.1766481575
 20
87.0312970394
 10
87.0677364076
 20
86.5501818514
 10
87.9651816783
 20
86.0729124647
 10
88.8689321272
 20
85.5995162722
 10
89.7789359394
 20
85.1300202268
  0
LINE
  5
271
100
AcDbEntity
  8
RACCORDO
100
AcDbLine
 62
250
  6
CONTINUOUS
 10
82.7792917345
 20
89.0506678853
 30
0.0
 11
82.667412658
 21
89.1149323204
 31
0.0
  0
LWPOLYLINE
  5
272
100
AcDbEntity
  8
RACCORDO
100
AcDbPolyline
 62
7
  6
CONTINUOUS
 90
3
 70
0
 10
75.3188001607
 20
93.5388515006
 10
75.3336086167
 20
93.530296887
 10
75.3442515928
 20
93.5235212429
  0
LWPOLYLINE
  5
273
100
AcDbEntity
  8
RACCORDO
100
AcDbPolyline
 62
7
  6
CONTINUOUS
 90
28
 70
0
 10
102.5256999843
 20
98.6638629836
 10
102.5247639592
 20
98.7381643509
 10
102.5175690222
 20
98.876758104
 10
102.5033331428
 20
99.0175891542
 10
102.4822369481
 20
99.1600363113
 10
102.4545043249
 20
99.3036458448
 10
102.4203229477
 20
99.4481451433
 10
102.3798989879
 20
99.5930603769
 10
102.3334364882
 20
99.7379037514
 10
102.2810628828
 20
99.8823927694
 10
102.2229936381
 20
100.0260504824
 10
102.1594645545
 20
100.1683924287
 10
102.0906376213
 20
100.3091193599
 10
102.0167495644
 20
100.4477582215
 10
101.9380600557
 20
100.5838499129
 10
101.8547334011
 20
100.7171016594
 10
101.767036901
 20
100.8470623406
 10
101.6752570531
 20
100.9732844295
 10
101.5795726864
 20
101.0954720885
 10
101.4802862051
 20
101.2131733328
 10
101.3777024791
 20
101.3259661487
 10
101.2719959961
 20
101.4335970531
 10
101.1634785055
 20
101.5356333035
 10
101.0524501597
 20
101.6316400598
 10
100.9390494953
 20
101.7212971486
 10
100.823563746
 20
101.8041662716
 10
100.706448883
 20
101.8797779372
 10
100.6466677934
 20
101.9151992324
  0
LINE
  5
274
100
AcDbEntity
  8
RACCORDO
100
AcDbLine
 62
250
  6
CONTINUOUS
 10
102.5142495397
 20
35.2463023746
 30
0.0
 11
102.5151348303
 21
34.9473313006
 31
0.0
  0
LINE
  5
275
100
AcDbEntity
  8
RACCORDO
100
AcDbLine
 62
7
  6
CONTINUOUS
 10
102.5256999819
 20
34.9792893682
 30
0.0
 11
102.5180811513
 21
43.6643743244
 31
0.0
  0
LINE
  5
276
100
AcDbEntity
  8
RACCORDO
100
AcDbLine
 62
250
  6
CONTINUOUS
 10
102.4968362062
 20
48.4603182594
 30
0.0
 11
102.4968625242
 21
48.4183580978
 31
0.0
  0
LINE
  5
277
100
AcDbEntity
  8
RACCORDO
100
AcDbLine
 62
7
  6
CONTINUOUS
 10
102.5180811513
 20
43.6643743244
 30
0.0
 11
102.5146582768
 21
52.0619495694
 31
0.0
  0
LINE
  5
278
100
AcDbEntity
  8
RACCORDO
100
AcDbLine
 62
250
  6
CONTINUOUS
 10
102.4922830042
 20
66.828777196
 30
0.0
 11
102.4922829822
 21
66.7846367412
 31
0.0
  0
LINE
  5
279
100
AcDbEntity
  8
RACCORDO
100
AcDbLine
 62
7
  6
CONTINUOUS
 10
102.5146582768
 20
52.0619495694
 30
0.0
 11
102.5132568144
 21
69.0793054179
 31
0.0
  0
LINE
  5
27A
100
AcDbEntity
  8
RACCORDO
100
AcDbLine
 62
7
  6
CONTINUOUS
 10
102.5132568144
 20
69.0793054179
 30
0.0
 11
102.5162793056
 21
86.7999211977
 31
0.0
  0
LINE
  5
27B
100
AcDbEntity
  8
RACCORDO
100
AcDbLine
 62
250
  6
CONTINUOUS
 10
102.4968894233
 20
85.1944307735
 30
0.0
 11
102.4968625242
 21
85.1524538009
 31
0.0
  0
LINE
  5
27C
100
AcDbEntity
  8
RACCORDO
100
AcDbLine
 62
7
  6
CONTINUOUS
 10
102.5162793056
 20
86.7999211977
 30
0.0
 11
102.523795604
 21
97.1667440431
 31
0.0
  0
LINE
  5
27D
100
AcDbEntity
  8
RACCORDO
100
AcDbLine
 62
7
  6
CONTINUOUS
 10
102.523795604
 20
97.1667440431
 30
0.0
 11
102.5256999823
 21
98.6638616289
 31
0.0
  0
LINE
  5
27E
100
AcDbEntity
  8
RACCORDO
100
AcDbLine
 62
250
  6
CONTINUOUS
 10
102.5150290219
 20
98.6318090141
 30
0.0
 11
102.5143330028
 21
98.3647836134
 31
0.0
  0
LINE
  5
27F
100
AcDbEntity
  8
RACCORDO
100
AcDbLine
 62
250
  6
CONTINUOUS
 10
90.5511608818
 20
51.6791951292
 30
0.0
 11
90.8900772369
 21
52.2071931444
 31
0.0
  0
LINE
  5
280
100
AcDbEntity
  8
RACCORDO
100
AcDbLine
 62
7
  6
CONTINUOUS
 10
90.8912000902
 20
52.1709846821
 30
0.0
 11
90.5335940856
 21
51.6138700494
 31
0.0
  0
LWPOLYLINE
  5
281
100
AcDbEntity
  8
RACCORDO
100
AcDbPolyline
 62
7
  6
CONTINUOUS
 90
6
 70
0
 10
90.8232713114
 20
52.0479976239
 10
90.8323068959
 20
52.0579902154
 10
90.8449267708
 20
52.0738737381
 10
90.855970127
 20
52.090168273
 10
90.8654997242
 20
52.1068253693
 10
90.873696432
 20
52.1242187558
  0
LINE
  5
282
100
AcDbEntity
  8
RACCORDO
100
AcDbLine
 62
250
  6
CONTINUOUS
 10
89.7531411904
 20
50.9461366495
 30
0.0
 11
90.1265941171
 21
51.3383560784
 31
0.0
  0
LINE
  5
283
100
AcDbEntity
  8
RACCORDO
100
AcDbLine
 62
7
  6
CONTINUOUS
 10
89.7666851042
 20
50.9383165635
 30
0.0
 11
90.1819319919
 21
51.374430155
 31
0.0
  0
LINE
  5
284
100
AcDbEntity
  8
RACCORDO
100
AcDbLine
 62
7
  6
CONTINUOUS
 10
90.7894669323
 20
52.0124945276
 30
0.0
 11
90.8232642502
 21
52.0479902054
 31
0.0
  0
LINE
  5
285
100
AcDbEntity
  8
0
100
AcDbLine
 62
7
  6
CONTINUOUS
 10
80.3824168057
 20
51.0223772305
 30
0.0
 11
80.4391234015
 21
51.0551189082
 31
0.0
  0
LINE
  5
286
100
AcDbEntity
  8
0
100
AcDbLine
 62
7
  6
CONTINUOUS
 10
80.7438692167
 20
50.8052971809
 30
0.0
 11
80.8005731749
 21
50.8380373357
 31
0.0
  0
LINE
  5
287
100
AcDbEntity
  8
0
100
AcDbLine
 62
7
  6
CONTINUOUS
 10
80.8783988517
 20
50.7249796086
 30
0.0
 11
80.9351020057
 21
50.7577192991
 31
0.0
  0
LINE
  5
288
100
AcDbEntity
  8
0
100
AcDbLine
 62
7
  6
CONTINUOUS
 10
81.2417645988
 20
50.5087127873
 30
0.0
 11
81.2984660176
 21
50.5414514758
 31
0.0
  0
LINE
  5
289
100
AcDbEntity
  8
0
100
AcDbLine
 62
7
  6
CONTINUOUS
 10
81.5957265122
 20
50.2992923224
 30
0.0
 11
81.6524267722
 21
50.3320303419
 31
0.0
  0
LINE
  5
28A
100
AcDbEntity
  8
0
100
AcDbLine
 62
7
  6
CONTINUOUS
 10
80.3188214666
 20
49.1750293129
 30
0.0
 11
80.3755651107
 21
49.2077923819
 31
0.0
  0
LINE
  5
28B
100
AcDbEntity
  8
0
100
AcDbLine
 62
7
  6
CONTINUOUS
 10
81.9611838519
 20
50.0845859096
 30
0.0
 11
82.0178833639
 21
50.1173234972
 31
0.0
  0
LINE
  5
28C
100
AcDbEntity
  8
0
100
AcDbLine
 62
7
  6
CONTINUOUS
 10
82.6924535195
 20
49.6591725538
 30
0.0
 11
82.7491525194
 21
49.6919098457
 31
0.0
  0
LINE
  5
28D
100
AcDbEntity
  8
SMUSSO
100
AcDbLine
 62
7
  6
CONTINUOUS
 10
86.3404704969
 20
54.6896230373
 30
0.0
 11
86.3022424112
 21
54.6697489433
 31
0.0
  0
LINE
  5
28E
100
AcDbEntity
  8
DRAFT
100
AcDbLine
 62
7
  6
CONTINUOUS
 10
86.078993008
 20
54.5536855947
 30
0.0
 11
85.9301600725
 21
54.476310029
 31
0.0
  0
LINE
  5
28F
100
AcDbEntity
  8
DRAFT
100
AcDbLine
 62
7
  6
CONTINUOUS
 10
85.7069106693
 20
54.3602466804
 30
0.0
 11
85.5580777339
 21
54.2828711147
 31
0.0
  0
LINE
  5
290
100
AcDbEntity
  8
DRAFT
100
AcDbLine
 62
7
  6
CONTINUOUS
 10
85.3348283307
 20
54.1668077662
 30
0.0
 11
85.1859953952
 21
54.0894322005
 31
0.0
  0
LINE
  5
291
100
AcDbEntity
  8
DRAFT
100
AcDbLine
 62
7
  6
CONTINUOUS
 10
84.962745992
 20
53.9733688519
 30
0.0
 11
84.8139130566
 21
53.8959932862
 31
0.0
  0
LINE
  5
292
100
AcDbEntity
  8
RACCORDO
100
AcDbLine
 62
250
  6
CONTINUOUS
 10
90.5511608818
 20
51.6797101612
 30
0.0
 11
89.5795800915
 21
51.0463486529
 31
0.0
  0
LINE
  5
293
100
AcDbEntity
  8
RACCORDO
100
AcDbLine
 62
7
  6
CONTINUOUS
 10
90.5048887755
 20
51.5849616904
 30
0.0
 11
89.6321185804
 21
51.0160135878
 31
0.0
  0
LINE
  5
294
100
AcDbEntity
  8
SMUSSO
100
AcDbLine
 62
7
  6
CONTINUOUS
 10
90.5511608818
 20
52.2584231814
 30
0.0
 11
90.5167401589
 21
52.2363507638
 31
0.0
  0
LINE
  5
295
100
AcDbEntity
  8
DRAFT
100
AcDbLine
 62
7
  6
CONTINUOUS
 10
90.3157254933
 20
52.1074493564
 30
0.0
 11
90.1817157163
 21
52.0215150848
 31
0.0
  0
LINE
  5
296
100
AcDbEntity
  8
DRAFT
100
AcDbLine
 62
7
  6
CONTINUOUS
 10
89.9807010508
 20
51.8926136774
 30
0.0
 11
89.8466912738
 21
51.8066794057
 31
0.0
  0
LINE
  5
297
100
AcDbEntity
  8
DRAFT
100
AcDbLine
 62
7
  6
CONTINUOUS
 10
89.6456766083
 20
51.6777779983
 30
0.0
 11
89.5116668313
 21
51.5918437267
 31
0.0
  0
LINE
  5
298
100
AcDbEntity
  8
DRAFT
100
AcDbLine
 62
7
  6
CONTINUOUS
 10
89.3106521657
 20
51.4629423192
 30
0.0
 11
89.1766423887
 21
51.3770080476
 31
0.0
  0
LINE
  5
299
100
AcDbEntity
  8
0
100
AcDbLine
 62
7
  6
CONTINUOUS
 10
81.3732040541
 20
48.543521667
 30
0.0
 11
81.4299407881
 21
48.5762807462
 31
0.0
  0
LINE
  5
29A
100
AcDbEntity
  8
0
100
AcDbLine
 62
7
  6
CONTINUOUS
 10
83.0579246593
 20
49.4486368767
 30
0.0
 11
83.1146237228
 21
49.4813742054
 31
0.0
  0
LINE
  5
29B
100
AcDbEntity
  8
0
100
AcDbLine
 62
7
  6
CONTINUOUS
 10
81.9187038443
 20
48.22151027
 30
0.0
 11
81.9754389769
 21
48.2542684245
 31
0.0
  0
LINE
  5
29C
100
AcDbEntity
  8
0
100
AcDbLine
 62
7
  6
CONTINUOUS
 10
83.8404326095
 20
49.0024349438
 30
0.0
 11
83.8971326991
 21
49.0351728649
 31
0.0
  0
LINE
  5
29D
100
AcDbEntity
  8
0
100
AcDbLine
 62
7
  6
CONTINUOUS
 10
82.4794801135
 20
47.8937618816
 30
0.0
 11
82.536214541
 21
47.926519629
 31
0.0
  0
LINE
  5
29E
100
AcDbEntity
  8
0
100
AcDbLine
 62
7
  6
CONTINUOUS
 10
84.2013967554
 20
48.7986799516
 30
0.0
 11
84.2580979124
 21
48.831418489
 31
0.0
  0
LINE
  5
29F
100
AcDbEntity
  8
0
100
AcDbLine
 62
7
  6
CONTINUOUS
 10
84.8637970184
 20
48.4059039734
 30
0.0
 11
84.9205018366
 21
48.4386446248
 31
0.0
  0
LINE
  5
2A0
100
AcDbEntity
  8
0
100
AcDbLine
 62
7
  6
CONTINUOUS
 10
83.9109864567
 20
47.7390080913
 30
0.0
 11
83.967708606
 21
47.7717587493
 31
0.0
  0
LINE
  5
2A1
100
AcDbEntity
  8
0
100
AcDbLine
 62
7
  6
CONTINUOUS
 10
83.3552256339
 20
47.3884637675
 30
0.0
 11
83.4119601141
 21
47.4212215453
 31
0.0
  0
LINE
  5
2A2
100
AcDbEntity
  8
0
100
AcDbLine
 62
7
  6
CONTINUOUS
 10
83.7807183582
 20
47.1457868114
 30
0.0
 11
83.8374533686
 21
47.1785448954
 31
0.0
  0
LINE
  5
2A3
100
AcDbEntity
  8
0
100
AcDbLine
 62
250
  6
CONTINUOUS
 10
85.7963730502
 20
47.8713990596
 30
0.0
 11
85.8530865439
 21
47.9041447201
 31
0.0
  0
LWPOLYLINE
  5
2A4
100
AcDbEntity
  8
RACCORDO
100
AcDbPolyline
 62
7
  6
CONTINUOUS
 90
9
 70
0
 10
75.2641001766
 20
93.5587849993
 10
75.2635240981
 20
93.5587413484
 10
75.264669972
 20
93.5587013279
 10
75.2683953888
 20
93.5582665886
 10
75.2744800204
 20
93.5570380427
 10
75.2828321156
 20
93.5546793811
 10
75.2932244769
 20
93.5509400226
 10
75.305286391
 20
93.5456992659
 10
75.3188001607
 20
93.5388515006
  0
LINE
  5
2A5
100
AcDbEntity
  8
0
100
AcDbLine
 62
7
  6
CONTINUOUS
 10
85.2810904788
 20
47.3524808429
 30
0.0
 11
85.3378125489
 21
47.3852314553
 31
0.0
  0
LINE
  5
2A6
100
AcDbEntity
  8
0
100
AcDbLine
 62
250
  6
CONTINUOUS
 10
85.4967618354
 20
47.2335122591
 30
0.0
 11
85.5534858307
 21
47.2662639831
 31
0.0
  0
LINE
  5
2A7
100
AcDbEntity
  8
0
100
AcDbLine
 62
7
  6
CONTINUOUS
 10
84.8834762207
 20
46.5252662309
 30
0.0
 11
84.940215286
 21
46.558026656
 31
0.0
  0
LINE
  5
2A8
100
AcDbEntity
  8
0
100
AcDbLine
 62
7
  6
CONTINUOUS
 10
85.9005798637
 20
46.8447127929
 30
0.0
 11
85.9141599976
 21
46.852553792
 31
0.0
  0
LINE
  5
2A9
100
AcDbEntity
  8
0
100
AcDbLine
 62
7
  6
CONTINUOUS
 10
85.3687534859
 20
46.2559897195
 30
0.0
 11
85.4254960063
 21
46.2887521397
 31
0.0
  0
LINE
  5
2AA
100
AcDbEntity
  8
0
100
AcDbLine
 62
250
  6
CONTINUOUS
 10
86.1454874833
 20
46.3401715992
 30
0.0
 11
86.2022285421
 21
46.3729331754
 31
0.0
  0
LINE
  5
2AB
100
AcDbEntity
  8
0
100
AcDbLine
 62
7
  6
CONTINUOUS
 10
86.3126783221
 20
45.7387039608
 30
0.0
 11
86.3694313111
 21
45.7714724254
 31
0.0
  0
LWPOLYLINE
  5
2AC
100
AcDbEntity
  8
RACCORDO
100
AcDbPolyline
 62
7
  6
CONTINUOUS
 90
9
 70
0
 10
102.3129901831
 20
34.076823262
 10
102.3662254473
 20
34.1780954585
 10
102.4106388473
 20
34.282890999
 10
102.4481298427
 20
34.3945655214
 10
102.4785031194
 20
34.512899888
 10
102.50153776
 20
34.6376854451
 10
102.5170078022
 20
34.7686396186
 10
102.5247437857
 20
34.9053556054
 10
102.5256999795
 20
34.9792909261
  0
LWPOLYLINE
  5
2AD
100
AcDbEntity
  8
RACCORDO
100
AcDbPolyline
 62
7
  6
CONTINUOUS
 90
10
 70
0
 10
78.0193782062
 20
114.9799126533
 10
77.9496078849
 20
115.0189360726
 10
77.8270234662
 20
115.0804588744
 10
77.7056519557
 20
115.1323355769
 10
77.5859270698
 20
115.1745180233
 10
77.4682165134
 20
115.2070777928
 10
77.3528159846
 20
115.2301329431
 10
77.24001346
 20
115.2437825717
 10
77.1301684108
 20
115.2480943849
 10
77.0964643528
 20
115.2475362934
  0
LINE
  5
2AE
100
AcDbEntity
  8
RACCORDO
100
AcDbLine
 62
250
  6
CONTINUOUS
 10
100.5624127762
 20
101.9490855709
 30
0.0
 11
100.6104194344
 21
101.9216627304
 31
0.0
  0
LINE
  5
2AF
100
AcDbEntity
  8
RACCORDO
100
AcDbLine
 62
250
  6
CONTINUOUS
 10
100.2525182695
 20
102.1266608832
 30
0.0
 11
100.4349339379
 21
102.0219642261
 31
0.0
  0
LINE
  5
2B0
100
AcDbEntity
  8
RACCORDO
100
AcDbLine
 62
250
  6
CONTINUOUS
 10
97.242378196
 20
103.8583114372
 30
0.0
 11
97.3765446944
 21
103.7810366902
 31
0.0
  0
LINE
  5
2B1
100
AcDbEntity
  8
RACCORDO
100
AcDbLine
 62
7
  6
CONTINUOUS
 10
100.6466625749
 20
101.9152022332
 30
0.0
 11
94.9004878353
 21
105.2272591206
 31
0.0
  0
LINE
  5
2B2
100
AcDbEntity
  8
RACCORDO
100
AcDbLine
 62
250
  6
CONTINUOUS
 10
89.2888582609
 20
108.445748375
 30
0.0
 11
89.3241819487
 21
108.4253530089
 31
0.0
  0
LINE
  5
2B3
100
AcDbEntity
  8
RACCORDO
100
AcDbLine
 62
7
  6
CONTINUOUS
 10
94.9004878353
 20
105.2272591206
 30
0.0
 11
85.524043665
 21
110.6404581894
 31
0.0
  0
LINE
  5
2B4
100
AcDbEntity
  8
RACCORDO
100
AcDbLine
 62
7
  6
CONTINUOUS
 10
85.524043665
 20
110.6404581894
 30
0.0
 11
79.5607475944
 21
114.0874328016
 31
0.0
  0
LINE
  5
2B5
100
AcDbEntity
  8
RACCORDO
100
AcDbLine
 62
250
  6
CONTINUOUS
 10
81.3010448719
 20
113.0626940842
 30
0.0
 11
81.3744078641
 21
113.0202316801
 31
0.0
  0
LINE
  5
2B6
100
AcDbEntity
  8
RACCORDO
100
AcDbLine
 62
7
  6
CONTINUOUS
 10
79.5607475944
 20
114.0874328016
 30
0.0
 11
78.0193818099
 21
114.979910564
 31
0.0
  0
LINE
  5
2B7
100
AcDbEntity
  8
RACCORDO
100
AcDbLine
 62
250
  6
CONTINUOUS
 10
78.219165939
 20
114.8488652627
 30
0.0
 11
78.3403416972
 21
114.7784707266
 31
0.0
  0
LINE
  5
2B8
100
AcDbEntity
  8
RACCORDO
100
AcDbLine
 62
250
  6
CONTINUOUS
 10
77.9826681903
 20
114.9863481445
 30
0.0
 11
78.1091792248
 21
114.9127801322
 31
0.0
  0
LINE
  5
2B9
100
AcDbEntity
  8
RACCORDO
100
AcDbLine
 62
7
  6
CONTINUOUS
 10
102.3130154643
 20
34.0768622274
 30
0.0
 11
102.3128883438
 21
34.0766443926
 31
0.0
  0
LINE
  5
2BA
100
AcDbEntity
  8
SUPERFICI
100
AcDbLine
 62
7
  6
CONTINUOUS
 10
102.3128900929
 20
34.076647389
 30
0.0
 11
101.286925195
 21
32.3187769332
 31
0.0
  0
LINE
  5
2BB
100
AcDbEntity
  8
SUPERFICI
100
AcDbLine
 62
7
  6
CONTINUOUS
 10
100.3095357513
 20
31.2791549478
 30
0.0
 11
97.8999204001
 21
30.3931311993
 31
0.0
  0
LINE
  5
2BC
100
AcDbEntity
  8
RACCORDO
100
AcDbLine
 62
7
  6
CONTINUOUS
 10
97.8999204631
 20
30.3931312225
 30
0.0
 11
97.8992233207
 21
30.3928750661
 31
0.0
  0
LINE
  5
2BD
100
AcDbEntity
  8
RACCORDO
100
AcDbLine
 62
7
  6
CONTINUOUS
 10
77.095175249
 20
115.2474986099
 30
0.0
 11
77.0964141425
 21
115.2475364938
 31
0.0
  0
LINE
  5
2BE
100
AcDbEntity
  8
SUPERFICI
100
AcDbLine
 62
7
  6
CONTINUOUS
 10
74.7936125638
 20
115.1823939696
 30
0.0
 11
77.0951760269
 21
115.2474986341
 31
0.0
  0
ARC
  5
2BF
100
AcDbEntity
  8
SUPERFICI
100
AcDbCircle
 62
7
  6
CONTINUOUS
 10
31.1782972401
 20
-54.9116030053
 30
0.0
 40
170.357246714
100
AcDbArc
 50
66.7940702768
 51
66.9358043824
  0
ARC
  5
2C0
100
AcDbEntity
  8
SUPERFICI
100
AcDbCircle
 62
7
  6
CONTINUOUS
 10
8.3830633824
 20
28.1859217556
 30
0.0
 40
109.6269292879
100
AcDbArc
 50
51.9412335122
 51
52.1313350123
  0
ARC
  5
2C1
100
AcDbEntity
  8
RACCORDO
100
AcDbCircle
 62
250
  6
CONTINUOUS
 10
152.836267416
 20
38.4595862811
 30
0.0
 40
54.7155699177
100
AcDbArc
 50
186.3867064016
 51
186.6989549319
  0
ARC
  5
2C2
100
AcDbEntity
  8
RACCORDO
100
AcDbCircle
 62
250
  6
CONTINUOUS
 10
153.1346423159
 20
38.5100274974
 30
0.0
 40
54.6856204636
100
AcDbArc
 50
186.4066799552
 51
186.7179519971
  0
ARC
  5
2C3
100
AcDbEntity
  8
0
100
AcDbCircle
 62
7
  6
CONTINUOUS
 10
100.2244635305
 20
49.7165594185
 30
0.0
 40
14.4057498653
100
AcDbArc
 50
195.6268955656
 51
195.893792767
  0
ARC
  5
2C4
100
AcDbEntity
  8
SUPERFICI
100
AcDbCircle
 62
7
  6
CONTINUOUS
 10
87.5862195604
 20
31.9524550738
 30
0.0
 40
13.8393773348
100
AcDbArc
 50
5.2316008469
 51
6.486561291
  0
ARC
  5
2C5
100
AcDbEntity
  8
RACCORDO
100
AcDbCircle
 62
250
  6
CONTINUOUS
 10
97.3341359029
 20
33.8299287713
 30
0.0
 40
3.4690177144
100
AcDbArc
 50
246.7986336142
 51
249.3960784365
  0
ARC
  5
2C6
100
AcDbEntity
  8
RACCORDO
100
AcDbCircle
 62
250
  6
CONTINUOUS
 10
76.2433389299
 20
57.8246740378
 30
0.0
 40
1.539247461
100
AcDbArc
 50
212.3162969399
 51
215.4706135493
  0
ARC
  5
2C7
100
AcDbEntity
  8
RACCORDO
100
AcDbCircle
 62
250
  6
CONTINUOUS
 10
76.1644862799
 20
57.7747101302
 30
0.0
 40
1.0193779687
100
AcDbArc
 50
211.813122171
 51
214.7831555604
  0
ARC
  5
2C8
100
AcDbEntity
  8
0
100
AcDbCircle
 62
7
  6
CONTINUOUS
 10
85.5313289204
 20
46.4623909974
 30
0.0
 40
0.5316187285
100
AcDbArc
 50
39.9792221347
 51
42.9609918642
  0
ARC
  5
2C9
100
AcDbEntity
  8
0
100
AcDbCircle
 62
7
  6
CONTINUOUS
 10
85.6189967729
 20
46.5238163443
 30
0.0
 40
0.4894367855
100
AcDbArc
 50
42.7352268088
 51
44.3035627007
  0
ARC
  5
2CA
100
AcDbEntity
  8
0
100
AcDbCircle
 62
7
  6
CONTINUOUS
 10
85.5786551693
 20
46.5066288063
 30
0.0
 40
0.4668364712
100
AcDbArc
 50
42.946120893
 51
46.4025183922
  0
ARC
  5
2CB
100
AcDbEntity
  8
RACCORDO
100
AcDbCircle
 62
250
  6
CONTINUOUS
 10
90.9416471311
 20
48.3380806536
 30
0.0
 40
0.1821092691
100
AcDbArc
 50
290.751752896
 51
299.44672432
  0
ARC
  5
2CC
100
AcDbEntity
  8
RACCORDO
100
AcDbCircle
 62
250
  6
CONTINUOUS
 10
90.9444809391
 20
48.3327581885
 30
0.0
 40
0.1760813193
100
AcDbArc
 50
299.4951693786
 51
301.3812134687
  0
ARC
  5
2CD
100
AcDbEntity
  8
0
100
AcDbCircle
 62
7
  6
CONTINUOUS
 10
160.7592310359
 20
182.7085131713
 30
0.0
 40
155.8942519332
100
AcDbArc
 50
241.3219839943
 51
241.4748020582
  0
ARC
  5
2CE
100
AcDbEntity
  8
0
100
AcDbCircle
 62
7
  6
CONTINUOUS
 10
159.8500977924
 20
181.0549057122
 30
0.0
 40
154.0072022938
100
AcDbArc
 50
240.9182429317
 51
241.0777399279
  0
ARC
  5
2CF
100
AcDbEntity
  8
0
100
AcDbCircle
 62
7
  6
CONTINUOUS
 10
159.3671767955
 20
180.1875233151
 30
0.0
 40
153.0144456688
100
AcDbArc
 50
240.7016261461
 51
240.8711286243
  0
ARC
  5
2D0
100
AcDbEntity
  8
0
100
AcDbCircle
 62
7
  6
CONTINUOUS
 10
158.7095184003
 20
181.2159806056
 30
0.0
 40
151.9401253202
100
AcDbArc
 50
240.478252819
 51
240.6345589264
  0
ARC
  5
2D1
100
AcDbEntity
  8
0
100
AcDbCircle
 62
7
  6
CONTINUOUS
 10
158.7780602373
 20
179.9202510889
 30
0.0
 40
151.9110257904
100
AcDbArc
 50
240.4729096977
 51
240.6276279121
  0
ARC
  5
2D2
100
AcDbEntity
  8
0
100
AcDbCircle
 62
7
  6
CONTINUOUS
 10
158.7980535778
 20
179.6152436345
 30
0.0
 40
151.9090014056
100
AcDbArc
 50
240.4398537459
 51
240.6599247217
  0
ARC
  5
2D3
100
AcDbEntity
  8
0
100
AcDbCircle
 62
7
  6
CONTINUOUS
 10
158.739048751
 20
181.2012783483
 30
0.0
 40
151.885456305
100
AcDbArc
 50
240.478353119
 51
240.6347157551
  0
ARC
  5
2D4
100
AcDbEntity
  8
0
100
AcDbCircle
 62
7
  6
CONTINUOUS
 10
158.2854413854
 20
178.2716192249
 30
0.0
 40
150.8142488796
100
AcDbArc
 50
240.2344655632
 51
240.3950837767
  0
ARC
  5
2D5
100
AcDbEntity
  8
0
100
AcDbCircle
 62
7
  6
CONTINUOUS
 10
157.8578411115
 20
177.5243250147
 30
0.0
 40
149.9532663495
100
AcDbArc
 50
240.049455567
 51
240.2089174377
  0
ARC
  5
2D6
100
AcDbEntity
  8
0
100
AcDbCircle
 62
7
  6
CONTINUOUS
 10
157.6306855936
 20
179.2571899236
 30
0.0
 40
149.6476054672
100
AcDbArc
 50
239.9984495512
 51
240.1359597661
  0
ARC
  5
2D7
100
AcDbEntity
  8
0
100
AcDbCircle
 62
7
  6
CONTINUOUS
 10
156.4683841876
 20
177.3235287875
 30
0.0
 40
147.4485384819
100
AcDbArc
 50
239.4833717492
 51
239.6480762828
  0
ARC
  5
2D8
100
AcDbEntity
  8
0
100
AcDbCircle
 62
7
  6
CONTINUOUS
 10
156.5024019707
 20
177.3172137435
 30
0.0
 40
147.4033771349
100
AcDbArc
 50
239.483258982
 51
239.6480137851
  0
ARC
  5
2D9
100
AcDbEntity
  8
0
100
AcDbCircle
 62
7
  6
CONTINUOUS
 10
156.4334274419
 20
175.0756676738
 30
0.0
 40
147.1204312845
100
AcDbArc
 50
239.4118912676
 51
239.569825224
  0
ARC
  5
2DA
100
AcDbEntity
  8
0
100
AcDbCircle
 62
7
  6
CONTINUOUS
 10
155.7444186363
 20
176.0993567385
 30
0.0
 40
146.0262145359
100
AcDbArc
 50
239.1568971916
 51
239.3228112292
  0
ARC
  5
2DB
100
AcDbEntity
  8
0
100
AcDbCircle
 62
7
  6
CONTINUOUS
 10
155.8755319806
 20
174.1336004981
 30
0.0
 40
146.0255621303
100
AcDbArc
 50
239.1568933664
 51
239.3228081521
  0
ARC
  5
2DC
100
AcDbEntity
  8
0
100
AcDbCircle
 62
7
  6
CONTINUOUS
 10
155.7669055984
 20
176.0735492647
 30
0.0
 40
145.9584052698
100
AcDbArc
 50
239.1566462475
 51
239.322636933
  0
ARC
  5
2DD
100
AcDbEntity
  8
0
100
AcDbCircle
 62
7
  6
CONTINUOUS
 10
155.2363393148
 20
175.249414098
 30
0.0
 40
145.0360864372
100
AcDbArc
 50
238.92862291
 51
239.0951857281
  0
ARC
  5
2DE
100
AcDbEntity
  8
0
100
AcDbCircle
 62
7
  6
CONTINUOUS
 10
155.2507987425
 20
175.2101893285
 30
0.0
 40
144.9526415019
100
AcDbArc
 50
238.9282448557
 51
239.094902912
  0
ARC
  5
2DF
100
AcDbEntity
  8
0
100
AcDbCircle
 62
7
  6
CONTINUOUS
 10
154.8144866229
 20
172.3675875901
 30
0.0
 40
143.9653103435
100
AcDbArc
 50
238.6906390704
 51
238.8382633562
  0
ARC
  5
2E0
100
AcDbEntity
  8
0
100
AcDbCircle
 62
7
  6
CONTINUOUS
 10
154.1506510524
 20
173.4588398127
 30
0.0
 40
142.9420724468
100
AcDbArc
 50
238.4352099387
 51
238.6180726184
  0
ARC
  5
2E1
100
AcDbEntity
  8
0
100
AcDbCircle
 62
7
  6
CONTINUOUS
 10
154.1579381188
 20
173.4077592159
 30
0.0
 40
142.844770106
100
AcDbArc
 50
238.4345027919
 51
238.6174887265
  0
ARC
  5
2E2
100
AcDbEntity
  8
RACCORDO
100
AcDbCircle
 62
250
  6
CONTINUOUS
 10
116.5800106277
 20
79.0270617961
 30
0.0
 40
52.5931878013
100
AcDbArc
 50
246.4807283591
 51
246.6251616392
  0
ARC
  5
2E3
100
AcDbEntity
  8
RACCORDO
100
AcDbCircle
 62
250
  6
CONTINUOUS
 10
116.4431793182
 20
78.7104204913
 30
0.0
 40
52.2482464692
100
AcDbArc
 50
246.6251349074
 51
246.9276744983
  0
ARC
  5
2E4
100
AcDbEntity
  8
RACCORDO
100
AcDbCircle
 62
250
  6
CONTINUOUS
 10
109.9011488223
 20
132.4835414847
 30
0.0
 40
35.5910380215
100
AcDbArc
 50
246.2945395723
 51
246.9525116755
  0
ARC
  5
2E5
100
AcDbEntity
  8
RACCORDO
100
AcDbCircle
 62
250
  6
CONTINUOUS
 10
109.8180270451
 20
132.2810422382
 30
0.0
 40
35.010857751
100
AcDbArc
 50
246.3020077553
 51
246.9642317756
  0
ARC
  5
2E6
100
AcDbEntity
  8
RACCORDO
100
AcDbCircle
 62
250
  6
CONTINUOUS
 10
93.5535330726
 20
69.5965033765
 30
0.0
 40
32.8513065783
100
AcDbArc
 50
232.2981034069
 51
232.577915337
  0
ARC
  5
2E7
100
AcDbEntity
  8
RACCORDO
100
AcDbCircle
 62
250
  6
CONTINUOUS
 10
92.7984519505
 20
68.619778617
 30
0.0
 40
31.6167464357
100
AcDbArc
 50
231.9466797033
 51
232.2982909435
  0
ARC
  5
2E8
100
AcDbEntity
  8
RACCORDO
100
AcDbCircle
 62
250
  6
CONTINUOUS
 10
91.6102495903
 20
67.0566354512
 30
0.0
 40
29.6532947341
100
AcDbArc
 50
232.577694531
 51
232.7809085217
  0
ARC
  5
2E9
100
AcDbEntity
  8
RACCORDO
100
AcDbCircle
 62
250
  6
CONTINUOUS
 10
87.8805115846
 20
131.4083651861
 30
0.0
 40
23.621898519
100
AcDbArc
 50
231.915757425
 51
232.7745770511
  0
ARC
  5
2EA
100
AcDbEntity
  8
RACCORDO
100
AcDbCircle
 62
250
  6
CONTINUOUS
 10
87.8534315746
 20
131.3991223511
 30
0.0
 40
23.2374291287
100
AcDbArc
 50
231.9026868969
 51
232.7671411153
  0
ARC
  5
2EB
100
AcDbEntity
  8
SUPERFICI
100
AcDbCircle
 62
7
  6
CONTINUOUS
 10
82.0227532358
 20
98.5038301237
 30
0.0
 40
19.4116416597
100
AcDbArc
 50
354.2581630964
 51
355.2578475643
  0
ARC
  5
2EC
100
AcDbEntity
  8
RACCORDO
100
AcDbCircle
 62
250
  6
CONTINUOUS
 10
75.2391042418
 20
111.1895500345
 30
0.0
 40
4.1098166544
100
AcDbArc
 50
171.8018646238
 51
174.3917111394
  0
ARC
  5
2ED
100
AcDbEntity
  8
RACCORDO
100
AcDbCircle
 62
250
  6
CONTINUOUS
 10
99.2445959784
 20
99.544444165
 30
0.0
 40
2.7414328168
100
AcDbArc
 50
57.2078612858
 51
58.2016758249
  0
ARC
  5
2EE
100
AcDbEntity
  8
RACCORDO
100
AcDbCircle
 62
250
  6
CONTINUOUS
 10
99.8288841298
 20
98.6372693192
 30
0.0
 40
2.6861618914
100
AcDbArc
 50
0.5654608929
 51
2.5814088694
  0
ARC
  5
2EF
100
AcDbEntity
  8
RACCORDO
100
AcDbCircle
 62
250
  6
CONTINUOUS
 10
99.2902811907
 20
99.6188549427
 30
0.0
 40
2.6541175694
100
AcDbArc
 50
58.1934486408
 51
60.1826641552
  0
ARC
  5
2F0
100
AcDbEntity
  8
RACCORDO
100
AcDbCircle
 62
250
  6
CONTINUOUS
 10
99.9125992503
 20
98.638529357
 30
0.0
 40
2.6024384487
100
AcDbArc
 50
359.8520434886
 51
0.5559104363
  0
ARC
  5
2F1
100
AcDbEntity
  8
RACCORDO
100
AcDbCircle
 62
250
  6
CONTINUOUS
 10
89.9413730822
 20
83.8163190227
 30
0.0
 40
1.2186587529
100
AcDbArc
 50
34.1565830342
 51
38.1548542394
  0
ARC
  5
2F2
100
AcDbEntity
  8
RACCORDO
100
AcDbCircle
 62
250
  6
CONTINUOUS
 10
75.0331048093
 20
93.4940772576
 30
0.0
 40
0.2648655636
100
AcDbArc
 50
99.4197301527
 51
110.0022217554
  0
ARC
  5
2F3
100
AcDbEntity
  8
RACCORDO
100
AcDbCircle
 62
250
  6
CONTINUOUS
 10
75.3841124049
 20
93.3899068197
 30
0.0
 40
0.2048055999
100
AcDbArc
 50
138.1183160859
 51
144.0845754831
  0
ARC
  5
2F4
100
AcDbEntity
  8
0
100
AcDbCircle
 62
7
  6
CONTINUOUS
 10
295.5012050772
 20
61.3363195265
 30
0.0
 40
210.6259348166
100
AcDbArc
 50
183.6660326255
 51
183.7978424015
  0
ARC
  5
2F5
100
AcDbEntity
  8
0
100
AcDbCircle
 62
7
  6
CONTINUOUS
 10
291.2147151689
 20
63.5655685571
 30
0.0
 40
210.3785197298
100
AcDbArc
 50
183.5582711782
 51
184.094681255
  0
ARC
  5
2F6
100
AcDbEntity
  8
0
100
AcDbCircle
 62
7
  6
CONTINUOUS
 10
294.3640389659
 20
61.4541220664
 30
0.0
 40
209.9061867026
100
AcDbArc
 50
183.5639261801
 51
184.0685409562
  0
ARC
  5
2F7
100
AcDbEntity
  8
0
100
AcDbCircle
 62
7
  6
CONTINUOUS
 10
290.2977747271
 20
63.7448239805
 30
0.0
 40
209.823715236
100
AcDbArc
 50
183.5575657843
 51
184.0953942425
  0
ARC
  5
2F8
100
AcDbEntity
  8
0
100
AcDbCircle
 62
7
  6
CONTINUOUS
 10
290.6371409974
 20
63.5597419809
 30
0.0
 40
209.7430731395
100
AcDbArc
 50
183.5585101234
 51
184.0965403281
  0
ARC
  5
2F9
100
AcDbEntity
  8
0
100
AcDbCircle
 62
7
  6
CONTINUOUS
 10
294.034829935
 20
61.1970243041
 30
0.0
 40
209.2003012739
100
AcDbArc
 50
183.8847424642
 51
184.0955373795
  0
ARC
  5
2FA
100
AcDbEntity
  8
0
100
AcDbCircle
 62
7
  6
CONTINUOUS
 10
293.833787785
 20
61.2159764091
 30
0.0
 40
208.9421884314
100
AcDbArc
 50
183.9040572304
 51
184.0968086531
  0
ARC
  5
2FB
100
AcDbEntity
  8
0
100
AcDbCircle
 62
7
  6
CONTINUOUS
 10
280.7442472681
 20
50.2674346915
 30
0.0
 40
198.8360694755
100
AcDbArc
 50
180.2334894633
 51
180.589555524
  0
ARC
  5
2FC
100
AcDbEntity
  8
0
100
AcDbCircle
 62
7
  6
CONTINUOUS
 10
280.1555710567
 20
50.2990699342
 30
0.0
 40
198.1906808212
100
AcDbArc
 50
180.293211848
 51
180.5911507776
  0
ARC
  5
2FD
100
AcDbEntity
  8
0
100
AcDbCircle
 62
7
  6
CONTINUOUS
 10
277.1162672176
 20
46.6047834699
 30
0.0
 40
195.5554428631
100
AcDbArc
 50
178.9174816321
 51
179.4659871078
  0
ARC
  5
2FE
100
AcDbEntity
  8
0
100
AcDbCircle
 62
7
  6
CONTINUOUS
 10
254.0593031121
 20
10.7055011361
 30
0.0
 40
174.1319335965
100
AcDbArc
 50
167.5104790966
 51
167.7208403709
  0
ARC
  5
2FF
100
AcDbEntity
  8
0
100
AcDbCircle
 62
7
  6
CONTINUOUS
 10
253.7017110987
 20
10.832027537
 30
0.0
 40
173.7071539812
100
AcDbArc
 50
167.5565864129
 51
167.7220001504
  0
ARC
  5
300
100
AcDbEntity
  8
0
100
AcDbCircle
 62
7
  6
CONTINUOUS
 10
250.7576286298
 20
9.7285695397
 30
0.0
 40
171.1179029564
100
AcDbArc
 50
167.2551064261
 51
167.3694616048
  0
ARC
  5
301
100
AcDbEntity
  8
0
100
AcDbCircle
 62
7
  6
CONTINUOUS
 10
248.9606697806
 20
5.3206684125
 30
0.0
 40
170.8004375016
100
AcDbArc
 50
165.1821238283
 51
165.7316292025
  0
ARC
  5
302
100
AcDbEntity
  8
0
100
AcDbCircle
 62
7
  6
CONTINUOUS
 10
246.2065471815
 20
14.2253874366
 30
0.0
 40
169.8577660067
100
AcDbArc
 50
167.4885840554
 51
167.8851668277
  0
ARC
  5
303
100
AcDbEntity
  8
0
100
AcDbCircle
 62
7
  6
CONTINUOUS
 10
241.8483055455
 20
-4.6926775259
 30
0.0
 40
168.1805840197
100
AcDbArc
 50
161.1449231376
 51
161.46099169
  0
ARC
  5
304
100
AcDbEntity
  8
0
100
AcDbCircle
 62
7
  6
CONTINUOUS
 10
242.4016235313
 20
7.7869162172
 30
0.0
 40
167.2836233191
100
AcDbArc
 50
165.0984846018
 51
165.6755311097
  0
ARC
  5
305
100
AcDbEntity
  8
0
100
AcDbCircle
 62
7
  6
CONTINUOUS
 10
240.2898557791
 20
-5.6076306014
 30
0.0
 40
166.6328709029
100
AcDbArc
 50
160.9338080687
 51
161.2721443574
  0
ARC
  5
306
100
AcDbEntity
  8
0
100
AcDbCircle
 62
7
  6
CONTINUOUS
 10
241.5339111883
 20
8.0640174447
 30
0.0
 40
166.3274563221
100
AcDbArc
 50
165.0979409021
 51
165.6782936197
  0
ARC
  5
307
100
AcDbEntity
  8
0
100
AcDbCircle
 62
7
  6
CONTINUOUS
 10
239.6654605705
 20
-5.3388934641
 30
0.0
 40
165.9120375071
100
AcDbArc
 50
160.9478921479
 51
161.2737994412
  0
ARC
  5
308
100
AcDbEntity
  8
0
100
AcDbCircle
 62
7
  6
CONTINUOUS
 10
319.5577008779
 20
128.4002789763
 30
0.0
 40
250.1708469894
100
AcDbArc
 50
198.2430640654
 51
198.5578573092
  0
ARC
  5
309
100
AcDbEntity
  8
0
100
AcDbCircle
 62
7
  6
CONTINUOUS
 10
319.4037476095
 20
128.366927329
 30
0.0
 40
249.9500931055
100
AcDbArc
 50
198.2437923747
 51
198.5423906597
  0
ARC
  5
30A
100
AcDbEntity
  8
0
100
AcDbCircle
 62
7
  6
CONTINUOUS
 10
318.5172607861
 20
128.5473627279
 30
0.0
 40
249.4761289248
100
AcDbArc
 50
198.4831154124
 51
198.8548409349
  0
ARC
  5
30B
100
AcDbEntity
  8
0
100
AcDbCircle
 62
7
  6
CONTINUOUS
 10
317.3226497812
 20
120.4130931344
 30
0.0
 40
247.7271602499
100
AcDbArc
 50
196.1119163984
 51
196.6658855955
  0
ARC
  5
30C
100
AcDbEntity
  8
0
100
AcDbCircle
 62
7
  6
CONTINUOUS
 10
316.9897529778
 20
114.2550147496
 30
0.0
 40
245.452012699
100
AcDbArc
 50
194.8309799749
 51
195.2063930501
  0
ARC
  5
30D
100
AcDbEntity
  8
0
100
AcDbCircle
 62
7
  6
CONTINUOUS
 10
319.6285420991
 20
118.1935282325
 30
0.0
 40
245.4416136937
100
AcDbArc
 50
196.4234850745
 51
196.9775628913
  0
ARC
  5
30E
100
AcDbEntity
  8
0
100
AcDbCircle
 62
7
  6
CONTINUOUS
 10
316.7628284523
 20
114.2151171186
 30
0.0
 40
245.1592295642
100
AcDbArc
 50
194.8315360088
 51
195.182666307
  0
ARC
  5
30F
100
AcDbEntity
  8
0
100
AcDbCircle
 62
7
  6
CONTINUOUS
 10
319.2538735339
 20
118.1014412456
 30
0.0
 40
244.9925521575
100
AcDbArc
 50
196.4240067749
 51
196.9790978469
  0
ARC
  5
310
100
AcDbEntity
  8
0
100
AcDbCircle
 62
7
  6
CONTINUOUS
 10
317.9267534146
 20
110.2293140014
 30
0.0
 40
241.9227320216
100
AcDbArc
 50
194.8165900195
 51
195.0190717382
  0
ARC
  5
311
100
AcDbEntity
  8
0
100
AcDbCircle
 62
7
  6
CONTINUOUS
 10
304.9179866222
 20
80.4134435846
 30
0.0
 40
224.0105049962
100
AcDbArc
 50
187.9453941843
 51
188.4777906637
  0
ARC
  5
312
100
AcDbEntity
  8
0
100
AcDbCircle
 62
7
  6
CONTINUOUS
 10
304.4045687931
 20
80.3680341974
 30
0.0
 40
223.4350589201
100
AcDbArc
 50
187.9457558321
 51
188.4795195896
  0
ARC
  5
313
100
AcDbEntity
  8
0
100
AcDbCircle
 62
7
  6
CONTINUOUS
 10
300.504633537
 20
75.1755535692
 30
0.0
 40
219.252780622
100
AcDbArc
 50
186.8785535549
 51
187.2262288711
  0
ARC
  5
314
100
AcDbEntity
  8
RACCORDO
100
AcDbCircle
 62
250
  6
CONTINUOUS
 10
166.5345286992
 20
88.7226828297
 30
0.0
 40
68.0775767521
100
AcDbArc
 50
174.0436141578
 51
174.3256371561
  0
ARC
  5
315
100
AcDbEntity
  8
RACCORDO
100
AcDbCircle
 62
250
  6
CONTINUOUS
 10
166.1646927722
 20
88.7602766767
 30
0.0
 40
68.0358683182
100
AcDbArc
 50
174.0589336591
 51
174.3421037516
  0
SPLINE
  5
316
100
AcDbEntity
  8
0
100
AcDbSpline
 62
7
  6
CONTINUOUS
 70
0
 71
3
 72
13
 73
9
 74
0
 42
0.0000001
 43
0.0000001
 44
0.0000000001
 40
0.0
 40
0.0
 40
0.0
 40
0.0
 40
0.2361284169
 40
0.4745259796
 40
0.5946612283
 40
0.7170799262
 40
0.8490937504
 40
1.0
 40
1.0
 40
1.0
 40
1.0
 10
86.0081510739
 20
46.8838041945
 30
0.0
 10
86.0002995708
 20
46.8792736661
 30
0.0
 10
85.9839754812
 20
46.8711088023
 30
0.0
 10
85.9628095528
 20
46.8625174157
 30
0.0
 10
85.9454794914
 20
46.8561672781
 30
0.0
 10
85.9316097185
 20
46.8521673942
 30
0.0
 10
85.9158818939
 20
46.8514018562
 30
0.0
 10
85.9051582518
 20
46.8541203267
 30
0.0
 10
85.8998000385
 20
46.8563228246
 30
0.0
  0
SPLINE
  5
317
100
AcDbEntity
  8
0
100
AcDbSpline
 62
7
  6
CONTINUOUS
 70
0
 71
3
 72
11
 73
7
 74
0
 42
0.0000001
 43
0.0000001
 44
0.0000000001
 40
0.0
 40
0.0
 40
0.0
 40
0.0
 40
0.2135768194
 40
0.4472470895
 40
0.7088274588
 40
1.0
 40
1.0
 40
1.0
 40
1.0
 10
85.7090163595
 20
47.1932089547
 30
0.0
 10
85.7215624989
 20
47.2004029564
 30
0.0
 10
85.7436331202
 20
47.2229295155
 30
0.0
 10
85.7628292012
 20
47.2675309831
 30
0.0
 10
85.7721538199
 20
47.3203097043
 30
0.0
 10
85.7720416666
 20
47.3579351206
 30
0.0
 10
85.7705065983
 20
47.3775920015
 30
0.0
  0
SPLINE
  5
318
100
AcDbEntity
  8
SUPERFICI
100
AcDbSpline
 62
7
  6
CONTINUOUS
 70
0
 71
3
 72
9
 73
5
 74
0
 42
0.0000001
 43
0.0000001
 44
0.0000000001
 40
0.0
 40
0.0
 40
0.0
 40
0.0
 40
0.5253939374
 40
1.0
 40
1.0
 40
1.0
 40
1.0
 10
101.3679456441
 20
33.2143548986
 30
0.0
 10
101.3871103774
 20
33.0049920356
 30
0.0
 10
101.3809156496
 20
32.6003484761
 30
0.0
 10
101.2615204684
 20
32.2106192724
 30
0.0
 10
101.1752902599
 20
32.0414088963
 30
0.0
  0
SPLINE
  5
319
100
AcDbEntity
  8
SUPERFICI
100
AcDbSpline
 62
7
  6
CONTINUOUS
 70
0
 71
3
 72
11
 73
7
 74
0
 42
0.0000001
 43
0.0000001
 44
0.0000000001
 40
0.0
 40
0.0
 40
0.0
 40
0.0
 40
0.2496038137
 40
0.4968687965
 40
0.7448401063
 40
1.0
 40
1.0
 40
1.0
 40
1.0
 10
101.1752902599
 20
32.0414088963
 30
0.0
 10
101.1307189999
 20
31.9539462798
 30
0.0
 10
101.0258593406
 20
31.7874686248
 30
0.0
 10
100.8245145188
 20
31.5723332038
 30
0.0
 10
100.5841604464
 20
31.3980740623
 30
0.0
 10
100.403712683
 20
31.313783988
 30
0.0
 10
100.3095281897
 20
31.2791521673
 30
0.0
  0
SPLINE
  5
31A
100
AcDbEntity
  8
SUPERFICI
100
AcDbSpline
 62
7
  6
CONTINUOUS
 70
0
 71
3
 72
9
 73
5
 74
0
 42
0.0000001
 43
0.0000001
 44
0.0000000001
 40
0.0
 40
0.0
 40
0.0
 40
0.0
 40
0.5041925865
 40
1.0
 40
1.0
 40
1.0
 40
1.0
 10
99.9166682661
 20
64.2187463242
 30
0.0
 10
99.9166682661
 20
61.1927156326
 30
0.0
 10
99.9740822442
 20
55.1910031717
 30
0.0
 10
100.1551237959
 20
49.1909268594
 30
0.0
 10
100.3043376831
 20
46.2189652089
 30
0.0
  0
SPLINE
  5
31B
100
AcDbEntity
  8
SUPERFICI
100
AcDbSpline
 62
7
  6
CONTINUOUS
 70
0
 71
3
 72
9
 73
5
 74
0
 42
0.0000001
 43
0.0000001
 44
0.0000000001
 40
0.0
 40
0.0
 40
0.0
 40
0.0
 40
0.253367319
 40
1.0
 40
1.0
 40
1.0
 40
1.0
 10
100.3043376831
 20
46.2189652089
 30
0.0
 10
100.3583170571
 20
45.1438331786
 30
0.0
 10
100.6034768285
 20
40.9021550255
 30
0.0
 10
100.9787008411
 20
36.6678235475
 30
0.0
 10
101.3370024622
 20
33.5158918654
 30
0.0
  0
SPLINE
  5
31C
100
AcDbEntity
  8
0
100
AcDbSpline
 62
7
  6
CONTINUOUS
 70
0
 71
3
 72
9
 73
5
 74
0
 42
0.0000001
 43
0.0000001
 44
0.0000000001
 40
0.0
 40
0.0
 40
0.0
 40
0.0
 40
0.2532157763
 40
1.0
 40
1.0
 40
1.0
 40
1.0
 10
94.4115942295
 20
103.4787896772
 30
0.0
 10
93.7198557693
 20
103.8250956206
 30
0.0
 10
90.9978749461
 20
105.2122524389
 30
0.0
 10
88.3159801846
 20
106.6782994822
 30
0.0
 10
86.3402180673
 20
107.8190797675
 30
0.0
  0
SPLINE
  5
31D
100
AcDbEntity
  8
SUPERFICI
100
AcDbSpline
 62
7
  6
CONTINUOUS
 70
0
 71
3
 72
9
 73
5
 74
0
 42
0.0000001
 43
0.0000001
 44
0.0000000001
 40
0.0
 40
0.0
 40
0.0
 40
0.0
 40
0.4773268882
 40
1.0
 40
1.0
 40
1.0
 40
1.0
 10
97.9178337401
 20
101.8283911754
 30
0.0
 10
97.3505429506
 20
102.070153674
 30
0.0
 10
96.17432672
 20
102.6054698405
 30
0.0
 10
95.0153960222
 20
103.1765075838
 30
0.0
 10
94.4115942295
 20
103.4787896772
 30
0.0
  0
SPLINE
  5
31E
100
AcDbEntity
  8
SUPERFICI
100
AcDbSpline
 62
7
  6
CONTINUOUS
 70
0
 71
3
 72
14
 73
10
 74
0
 42
0.0000001
 43
0.0000001
 44
0.0000000001
 40
0.0
 40
0.0
 40
0.0
 40
0.0
 40
0.2347063819
 40
0.3605527399
 40
0.4902518558
 40
0.6216407593
 40
0.7521244262
 40
0.8791285584
 40
1.0
 40
1.0
 40
1.0
 40
1.0
 10
101.3679456441
 20
96.8990364884
 30
0.0
 10
101.4066215015
 20
97.3662082307
 30
0.0
 10
101.3146146095
 20
98.1008171887
 30
0.0
 10
100.9692227104
 20
99.0186123375
 30
0.0
 10
100.5939706484
 20
99.6977717383
 30
0.0
 10
100.1211473747
 20
100.3237223118
 30
0.0
 10
99.5711431292
 20
100.8757534332
 30
0.0
 10
98.965329423
 20
101.3316026097
 30
0.0
 10
98.5272113672
 20
101.5676212231
 30
0.0
 10
98.3053610696
 20
101.6628163921
 30
0.0
  0
SPLINE
  5
31F
100
AcDbEntity
  8
SUPERFICI
100
AcDbSpline
 62
7
  6
CONTINUOUS
 70
0
 71
3
 72
9
 73
5
 74
0
 42
0.0000001
 43
0.0000001
 44
0.0000000001
 40
0.0
 40
0.0
 40
0.0
 40
0.0
 40
0.4975554147
 40
1.0
 40
1.0
 40
1.0
 40
1.0
 10
99.9166682661
 20
64.2187463242
 30
0.0
 10
99.9166682661
 20
67.2791579431
 30
0.0
 10
99.9759050946
 20
73.4300572962
 30
0.0
 10
100.1578411066
 20
79.5791880677
 30
0.0
 10
100.3043376831
 20
82.666198365
 30
0.0
  0
SPLINE
  5
320
100
AcDbEntity
  8
SUPERFICI
100
AcDbSpline
 62
7
  6
CONTINUOUS
 70
0
 71
3
 72
9
 73
5
 74
0
 42
0.0000001
 43
0.0000001
 44
0.0000000001
 40
0.0
 40
0.0
 40
0.0
 40
0.0
 40
0.2471908839
 40
1.0
 40
1.0
 40
1.0
 40
1.0
 10
100.3043376831
 20
82.666198365
 30
0.0
 10
100.3587644982
 20
83.8130930073
 30
0.0
 10
100.6105866196
 20
88.4512632616
 30
0.0
 10
100.9873890777
 20
93.0825399171
 30
0.0
 10
101.3370024622
 20
96.5617671107
 30
0.0
  0
SPLINE
  5
321
100
AcDbEntity
  8
RACCORDO
100
AcDbSpline
 62
7
  6
CONTINUOUS
 70
0
 71
3
 72
8
 73
4
 74
0
 42
0.0000001
 43
0.0000001
 44
0.0000000001
 40
0.0
 40
0.0
 40
0.0
 40
0.0
 40
1.0
 40
1.0
 40
1.0
 40
1.0
 10
90.5048801327
 20
51.5849652642
 30
0.0
 10
90.5162637226
 20
51.5923821052
 30
0.0
 10
90.5262668618
 20
51.6024472242
 30
0.0
 10
90.533609045
 20
51.6138791092
 30
0.0
  0
SPLINE
  5
322
100
AcDbEntity
  8
0
100
AcDbSpline
 62
7
  6
CONTINUOUS
 70
0
 71
3
 72
9
 73
5
 74
0
 42
0.0000001
 43
0.0000001
 44
0.0000000001
 40
0.0
 40
0.0
 40
0.0
 40
0.0
 40
0.2465685677
 40
1.0
 40
1.0
 40
1.0
 40
1.0
 10
78.8230994288
 20
112.4793912055
 30
0.0
 10
79.4282083598
 20
112.0764420534
 30
0.0
 10
81.895895929
 20
110.4626530351
 30
0.0
 10
84.4164072642
 20
108.9298640133
 30
0.0
 10
86.3402180673
 20
107.8190797675
 30
0.0
  0
SPLINE
  5
323
100
AcDbEntity
  8
SUPERFICI
100
AcDbSpline
 62
7
  6
CONTINUOUS
 70
0
 71
3
 72
9
 73
5
 74
0
 42
0.0000001
 43
0.0000001
 44
0.0000000001
 40
0.0
 40
0.0
 40
0.0
 40
0.0
 40
0.4677108263
 40
1.0
 40
1.0
 40
1.0
 40
1.0
 10
75.9647095328
 20
114.5038499554
 30
0.0
 10
76.3949000561
 20
114.1673288231
 30
0.0
 10
77.3382682063
 20
113.4780301489
 30
0.0
 10
78.3057246663
 20
112.8239171423
 30
0.0
 10
78.8230994288
 20
112.4793912055
 30
0.0
  0
SPLINE
  5
324
100
AcDbEntity
  8
SUPERFICI
100
AcDbSpline
 62
7
  6
CONTINUOUS
 70
0
 71
3
 72
11
 73
7
 74
0
 42
0.0000001
 43
0.0000001
 44
0.0000000001
 40
0.0
 40
0.0
 40
0.0
 40
0.0
 40
0.2506622525
 40
0.4958966547
 40
0.7438722211
 40
1.0
 40
1.0
 40
1.0
 40
1.0
 10
73.7817511075
 20
114.9664319065
 30
0.0
 10
73.8355656675
 20
115.011292709
 30
0.0
 10
73.9501445854
 20
115.0909830531
 30
0.0
 10
74.142006057
 20
115.1744992771
 30
0.0
 10
74.3479822936
 20
115.2189994573
 30
0.0
 10
74.4897621816
 20
115.2222415073
 30
0.0
 10
74.561208677
 20
115.2177377766
 30
0.0
  0
SPLINE
  5
325
100
AcDbEntity
  8
SUPERFICI
100
AcDbSpline
 62
7
  6
CONTINUOUS
 70
0
 71
3
 72
10
 73
6
 74
0
 42
0.0000001
 43
0.0000001
 44
0.0000000001
 40
0.0
 40
0.0
 40
0.0
 40
0.0
 40
0.4549653087
 40
0.7158450761
 40
1.0
 40
1.0
 40
1.0
 40
1.0
 10
74.561208677
 20
115.2177377766
 30
0.0
 10
74.7479830368
 20
115.2059641911
 30
0.0
 10
75.0382824828
 20
115.1217126852
 30
0.0
 10
75.4013561252
 20
114.9283180441
 30
0.0
 10
75.5856433017
 20
114.7993142724
 30
0.0
 10
75.6779440716
 20
114.7276033785
 30
0.0
  0
SPLINE
  5
326
100
AcDbEntity
  8
0
100
AcDbSpline
 62
7
  6
CONTINUOUS
 70
0
 71
3
 72
8
 73
4
 74
0
 42
0.0000001
 43
0.0000001
 44
0.0000000001
 40
0.0
 40
0.0
 40
0.0
 40
0.0
 40
1.0
 40
1.0
 40
1.0
 40
1.0
 10
84.4883794605
 20
46.7462019054
 30
0.0
 10
84.4467150828
 20
46.8947952842
 30
0.0
 10
84.4051929991
 20
47.0434286344
 30
0.0
 10
84.3638130583
 20
47.1921014736
 30
0.0
  0
SPLINE
  5
327
100
AcDbEntity
  8
0
100
AcDbSpline
 62
7
  6
CONTINUOUS
 70
0
 71
3
 72
10
 73
6
 74
0
 42
0.0000001
 43
0.0000001
 44
0.0000000001
 40
0.0
 40
0.0
 40
0.0
 40
0.0
 40
0.2508508665
 40
0.6417709522
 40
1.0
 40
1.0
 40
1.0
 40
1.0
 10
85.740248111
 20
46.6233916125
 30
0.0
 10
85.7300070786
 20
46.6527132092
 30
0.0
 10
85.6978959457
 20
46.7256546403
 30
0.0
 10
85.6293286197
 20
46.8301461548
 30
0.0
 10
85.556404362
 20
46.890781794
 30
0.0
 10
85.517550905
 20
46.9121740952
 30
0.0
  0
SPLINE
  5
328
100
AcDbEntity
  8
0
100
AcDbSpline
 62
7
  6
CONTINUOUS
 70
0
 71
3
 72
9
 73
5
 74
0
 42
0.0000001
 43
0.0000001
 44
0.0000000001
 40
0.0
 40
0.0
 40
0.0
 40
0.0
 40
0.4981034
 40
1.0
 40
1.0
 40
1.0
 40
1.0
 10
85.9476206124
 20
45.9377535977
 30
0.0
 10
85.9139747054
 20
46.0518296947
 30
0.0
 10
85.8452240518
 20
46.2804353366
 30
0.0
 10
85.7797633378
 20
46.5102535969
 30
0.0
 10
85.7402480916
 20
46.6233916153
 30
0.0
  0
SPLINE
  5
329
100
AcDbEntity
  8
0
100
AcDbSpline
 62
7
  6
CONTINUOUS
 70
0
 71
3
 72
10
 73
6
 74
0
 42
0.0000001
 43
0.0000001
 44
0.0000000001
 40
0.0
 40
0.0
 40
0.0
 40
0.0
 40
0.5199365665
 40
0.7646687879
 40
1.0
 40
1.0
 40
1.0
 40
1.0
 10
85.5409498009
 20
47.7410429766
 30
0.0
 10
85.4931161033
 20
47.7731198193
 30
0.0
 10
85.420189397
 20
47.8167282176
 30
0.0
 10
85.3199217894
 20
47.8639696292
 30
0.0
 10
85.2703898522
 20
47.8834054961
 30
0.0
 10
85.2459508386
 20
47.8924749116
 30
0.0
  0
SPLINE
  5
32A
100
AcDbEntity
  8
0
100
AcDbSpline
 62
7
  6
CONTINUOUS
 70
0
 71
3
 72
11
 73
7
 74
0
 42
0.0000001
 43
0.0000001
 44
0.0000000001
 40
0.0
 40
0.0
 40
0.0
 40
0.0
 40
0.2310229567
 40
0.4898091408
 40
0.7536629571
 40
1.0
 40
1.0
 40
1.0
 40
1.0
 10
85.7705066136
 20
47.3775919929
 30
0.0
 10
85.7678561083
 20
47.4115322879
 30
0.0
 10
85.7496792734
 20
47.4824257627
 30
0.0
 10
85.7000943761
 20
47.5825854783
 30
0.0
 10
85.6286651936
 20
47.6715619706
 30
0.0
 10
85.5710987766
 20
47.7208253477
 30
0.0
 10
85.5409498009
 20
47.7410429767
 30
0.0
  0
SPLINE
  5
32B
100
AcDbEntity
  8
RACCORDO
100
AcDbSpline
 62
250
  6
CONTINUOUS
 70
0
 71
3
 72
9
 73
5
 74
0
 42
0.0000001
 43
0.0000001
 44
0.0000000001
 40
0.0
 40
0.0
 40
0.0
 40
0.0
 40
0.2533314422
 40
1.0
 40
1.0
 40
1.0
 40
1.0
 10
84.0106886489
 20
36.8156729139
 30
0.0
 10
83.3702933488
 20
37.1854291447
 30
0.0
 10
80.8533142282
 20
38.6638004257
 30
0.0
 10
78.380822107
 20
40.2181343477
 30
0.0
 10
76.5644497218
 20
41.4227718692
 30
0.0
  0
LINE
  5
32C
100
AcDbEntity
  8
RACCORDO
100
AcDbLine
 62
250
  6
CONTINUOUS
 10
76.4761753013
 20
41.4813667168
 30
0.0
 11
76.4268562409
 21
41.5141477204
 31
0.0
  0
LINE
  5
32D
100
AcDbEntity
  8
RACCORDO
100
AcDbLine
 62
250
  6
CONTINUOUS
 10
76.4268562409
 20
41.5141477204
 30
0.0
 11
76.3384647658
 21
41.5729787786
 31
0.0
  0
SPLINE
  5
32E
100
AcDbEntity
  8
RACCORDO
100
AcDbSpline
 62
250
  6
CONTINUOUS
 70
0
 71
3
 72
9
 73
5
 74
0
 42
0.0000001
 43
0.0000001
 44
0.0000000001
 40
0.0
 40
0.0
 40
0.0
 40
0.0
 40
0.5275249965
 40
1.0
 40
1.0
 40
1.0
 40
1.0
 10
74.9897554055
 20
56.931471321
 30
0.0
 10
75.0325365895
 20
56.8714526615
 30
0.0
 10
75.1219608616
 20
56.7633475264
 30
0.0
 10
75.2289188732
 20
56.6717268073
 30
0.0
 10
75.2839231662
 20
56.6352255271
 30
0.0
  0
SPLINE
  5
32F
100
AcDbEntity
  8
RACCORDO
100
AcDbSpline
 62
250
  6
CONTINUOUS
 70
0
 71
3
 72
9
 73
5
 74
0
 42
0.0000001
 43
0.0000001
 44
0.0000000001
 40
0.0
 40
0.0
 40
0.0
 40
0.0
 40
0.2467703652
 40
1.0
 40
1.0
 40
1.0
 40
1.0
 10
75.2839231662
 20
56.6352255271
 30
0.0
 10
75.8791185878
 20
56.2402659829
 30
0.0
 10
78.3039780673
 20
54.6592817071
 30
0.0
 10
80.7792047971
 20
53.1557473911
 30
0.0
 10
82.667412658
 20
52.0655197859
 30
0.0
  0
LINE
  5
330
100
AcDbEntity
  8
0
100
AcDbLine
 62
7
  6
CONTINUOUS
 10
82.803375892
 20
49.6605867857
 30
0.0
 11
82.7491525194
 21
49.6919098457
 31
0.0
  0
SPLINE
  5
331
100
AcDbEntity
  8
RACCORDO
100
AcDbSpline
 62
250
  6
CONTINUOUS
 70
0
 71
3
 72
9
 73
5
 74
0
 42
0.0000001
 43
0.0000001
 44
0.0000000001
 40
0.0
 40
0.0
 40
0.0
 40
0.0
 40
0.503978627
 40
1.0
 40
1.0
 40
1.0
 40
1.0
 10
76.3384647658
 20
41.5729787786
 30
0.0
 10
75.8934275045
 20
41.8694431897
 30
0.0
 10
75.0139742486
 20
42.4631194104
 30
0.0
 10
74.1515704499
 20
43.0818122351
 30
0.0
 10
73.7317136944
 20
43.399162618
 30
0.0
  0
SPLINE
  5
332
100
AcDbEntity
  8
RACCORDO
100
AcDbSpline
 62
250
  6
CONTINUOUS
 70
0
 71
3
 72
15
 73
11
 74
0
 42
0.0000001
 43
0.0000001
 44
0.0000000001
 40
0.0
 40
0.0
 40
0.0
 40
0.0
 40
0.1092167954
 40
0.2300717179
 40
0.3597890088
 40
0.4948540788
 40
0.6310929941
 40
0.7638256989
 40
0.8882362617
 40
1.0
 40
1.0
 40
1.0
 40
1.0
 10
73.3100619787
 20
43.7235678313
 30
0.0
 10
73.1731247819
 20
43.8303690237
 30
0.0
 10
72.9029007108
 20
44.0790630588
 30
0.0
 10
72.5317708982
 20
44.5158346641
 30
0.0
 10
72.184748675
 20
45.0225572564
 30
0.0
 10
71.8721855771
 20
45.5792166919
 30
0.0
 10
71.6046571248
 20
46.1640568224
 30
0.0
 10
71.389528223
 20
46.7521331148
 30
0.0
 10
71.2341338163
 20
47.3184346246
 30
0.0
 10
71.1687049592
 20
47.6890899625
 30
0.0
 10
71.14896016
 20
47.8657008937
 30
0.0
  0
LINE
  5
333
100
AcDbEntity
  8
RACCORDO
100
AcDbLine
 62
250
  6
CONTINUOUS
 10
71.14896016
 20
47.8657008937
 30
0.0
 11
71.1342619774
 21
47.9970249563
 31
0.0
  0
LINE
  5
334
100
AcDbEntity
  8
RACCORDO
100
AcDbLine
 62
250
  6
CONTINUOUS
 10
71.1305780256
 20
48.0298877429
 30
0.0
 11
71.1158070478
 21
48.1614696285
 31
0.0
  0
SPLINE
  5
335
100
AcDbEntity
  8
RACCORDO
100
AcDbSpline
 62
250
  6
CONTINUOUS
 70
0
 71
3
 72
9
 73
5
 74
0
 42
0.0000001
 43
0.0000001
 44
0.0000000001
 40
0.0
 40
0.0
 40
0.0
 40
0.0
 40
0.2467658554
 40
1.0
 40
1.0
 40
1.0
 40
1.0
 10
71.1062810508
 20
48.2464061313
 30
0.0
 10
70.9914594486
 20
49.2722232543
 30
0.0
 10
70.5592456097
 20
53.4329259672
 30
0.0
 10
70.2577088288
 20
57.6070504532
 30
0.0
 10
70.0994894687
 20
60.7538588282
 30
0.0
  0
SPLINE
  5
336
100
AcDbEntity
  8
RACCORDO
100
AcDbSpline
 62
250
  6
CONTINUOUS
 70
0
 71
3
 72
9
 73
5
 74
0
 42
0.0000001
 43
0.0000001
 44
0.0000000001
 40
0.0
 40
0.0
 40
0.0
 40
0.0
 40
0.4966346854
 40
1.0
 40
1.0
 40
1.0
 40
1.0
 10
70.0882915623
 20
60.9729561706
 30
0.0
 10
69.9423270287
 20
63.9377731553
 30
0.0
 10
69.7645288467
 20
69.913190297
 30
0.0
 10
69.7079169732
 20
75.8902173104
 30
0.0
 10
69.7079169732
 20
78.8988544736
 30
0.0
  0
SPLINE
  5
337
100
AcDbEntity
  8
RACCORDO
100
AcDbSpline
 62
250
  6
CONTINUOUS
 70
0
 71
3
 72
10
 73
6
 74
0
 42
0.0000001
 43
0.0000001
 44
0.0000000001
 40
0.0
 40
0.0
 40
0.0
 40
0.0
 40
0.5031928449
 40
0.7525959714
 40
1.0
 40
1.0
 40
1.0
 40
1.0
 10
74.3530518384
 20
75.278868674
 30
0.0
 10
74.3530517626
 20
72.3162776896
 30
0.0
 10
74.3949833774
 20
67.8851269054
 30
0.0
 10
74.5406893542
 20
61.9992577051
 30
0.0
 10
74.6551485762
 20
59.0763290808
 30
0.0
 10
74.7261332398
 20
57.6214473318
 30
0.0
  0
SPLINE
  5
338
100
AcDbEntity
  8
RACCORDO
100
AcDbSpline
 62
250
  6
CONTINUOUS
 70
0
 71
3
 72
10
 73
6
 74
0
 42
0.0000001
 43
0.0000001
 44
0.0000000001
 40
0.0
 40
0.0
 40
0.0
 40
0.0
 40
0.2251578638
 40
0.4724674765
 40
1.0
 40
1.0
 40
1.0
 40
1.0
 10
74.7261332398
 20
57.6214473318
 30
0.0
 10
74.7285585155
 20
57.5718130437
 30
0.0
 10
74.7431969314
 20
57.468031787
 30
0.0
 10
74.8039157794
 20
57.2554476833
 30
0.0
 10
74.8802522921
 20
57.1001917641
 30
0.0
 10
74.9425058001
 20
57.0018035046
 30
0.0
  0
SPLINE
  5
339
100
AcDbEntity
  8
RACCORDO
100
AcDbSpline
 62
250
  6
CONTINUOUS
 70
0
 71
3
 72
9
 73
5
 74
0
 42
0.0000001
 43
0.0000001
 44
0.0000000001
 40
0.0
 40
0.0
 40
0.0
 40
0.0
 40
0.2466208837
 40
1.0
 40
1.0
 40
1.0
 40
1.0
 10
76.6688747839
 20
110.8859870288
 30
0.0
 10
77.2748592481
 20
110.48371609
 30
0.0
 10
79.7452365553
 20
108.8725734279
 30
0.0
 10
82.2671362202
 20
107.3406425062
 30
0.0
 10
84.1913407286
 20
106.2296308051
 30
0.0
  0
SPLINE
  5
33A
100
AcDbEntity
  8
RACCORDO
100
AcDbSpline
 62
250
  6
CONTINUOUS
 70
0
 71
3
 72
9
 73
5
 74
0
 42
0.0000001
 43
0.0000001
 44
0.0000000001
 40
0.0
 40
0.0
 40
0.0
 40
0.0
 40
0.2468445454
 40
1.0
 40
1.0
 40
1.0
 40
1.0
 10
84.1913407286
 20
106.2296308051
 30
0.0
 10
84.8442123481
 20
105.8526709381
 30
0.0
 10
87.5005979368
 20
104.3455648774
 30
0.0
 10
90.2018451715
 20
102.9177277988
 30
0.0
 10
92.2573695846
 20
101.8853855006
 30
0.0
  0
SPLINE
  5
33B
100
AcDbEntity
  8
RACCORDO
100
AcDbSpline
 62
250
  6
CONTINUOUS
 70
0
 71
3
 72
9
 73
5
 74
0
 42
0.0000001
 43
0.0000001
 44
0.0000000001
 40
0.0
 40
0.0
 40
0.0
 40
0.0
 40
0.4954167402
 40
1.0
 40
1.0
 40
1.0
 40
1.0
 10
73.7934897939
 20
112.8978751056
 30
0.0
 10
74.2332283223
 20
112.5636459438
 30
0.0
 10
75.1387593277
 20
111.9125733676
 30
0.0
 10
76.0630656593
 20
111.2890786266
 30
0.0
 10
76.531379263
 20
110.9773809238
 30
0.0
  0
LINE
  5
33C
100
AcDbEntity
  8
RACCORDO
100
AcDbLine
 62
250
  6
CONTINUOUS
 10
76.531379263
 20
110.9773809238
 30
0.0
 11
76.6688747839
 21
110.8859870288
 31
0.0
  0
LINE
  5
33D
100
AcDbEntity
  8
RACCORDO
100
AcDbLine
 62
250
  6
CONTINUOUS
 10
92.2573695846
 20
101.8853855006
 30
0.0
 11
92.4157182518
 21
101.8059626693
 31
0.0
  0
SPLINE
  5
33E
100
AcDbEntity
  8
RACCORDO
100
AcDbSpline
 62
250
  6
CONTINUOUS
 70
0
 71
3
 72
9
 73
5
 74
0
 42
0.0000001
 43
0.0000001
 44
0.0000000001
 40
0.0
 40
0.0
 40
0.0
 40
0.0
 40
0.2474822855
 40
1.0
 40
1.0
 40
1.0
 40
1.0
 10
92.4157182518
 20
101.8059626693
 30
0.0
 10
92.6877623238
 20
101.6696916545
 30
0.0
 10
93.7884486205
 20
101.1220484652
 30
0.0
 10
94.8994855989
 20
100.5943442928
 30
0.0
 10
95.7466140012
 20
100.2224163256
 30
0.0
  0
SPLINE
  5
33F
100
AcDbEntity
  8
RACCORDO
100
AcDbSpline
 62
250
  6
CONTINUOUS
 70
0
 71
3
 72
15
 73
11
 74
0
 42
0.0000001
 43
0.0000001
 44
0.0000000001
 40
0.0
 40
0.0
 40
0.0
 40
0.0
 40
0.118104517
 40
0.2428267092
 40
0.3720533048
 40
0.5032511211
 40
0.6337973162
 40
0.7612766566
 40
0.8837389003
 40
1.0
 40
1.0
 40
1.0
 40
1.0
 10
96.118160791
 20
100.0619839561
 30
0.0
 10
96.3116887883
 20
99.9778051507
 30
0.0
 10
96.6946820112
 20
99.7691638992
 30
0.0
 10
97.2263795889
 20
99.3665506129
 30
0.0
 10
97.713652171
 20
98.8774714753
 30
0.0
 10
98.1370718291
 20
98.3189851582
 30
0.0
 10
98.4756236013
 20
97.70865555
 30
0.0
 10
98.7146102096
 20
97.0691081425
 30
0.0
 10
98.8400651992
 20
96.4237258215
 30
0.0
 10
98.8441762264
 20
95.9940003096
 30
0.0
 10
98.8244950246
 20
95.7871856779
 30
0.0
  0
SPLINE
  5
340
100
AcDbEntity
  8
RACCORDO
100
AcDbSpline
 62
250
  6
CONTINUOUS
 70
0
 71
3
 72
9
 73
5
 74
0
 42
0.0000001
 43
0.0000001
 44
0.0000000001
 40
0.0
 40
0.0
 40
0.0
 40
0.0
 40
0.5033727026
 40
1.0
 40
1.0
 40
1.0
 40
1.0
 10
97.388917475
 20
63.1189404979
 30
0.0
 10
97.3889186812
 20
60.0975632424
 30
0.0
 10
97.4458974364
 20
54.0953149603
 30
0.0
 10
97.6252689533
 20
48.0946935421
 30
0.0
 10
97.7726582277
 20
45.1174500495
 30
0.0
  0
SPLINE
  5
341
100
AcDbEntity
  8
RACCORDO
100
AcDbSpline
 62
250
  6
CONTINUOUS
 70
0
 71
3
 72
9
 73
5
 74
0
 42
0.0000001
 43
0.0000001
 44
0.0000000001
 40
0.0
 40
0.0
 40
0.0
 40
0.0
 40
0.5032008003
 40
1.0
 40
1.0
 40
1.0
 40
1.0
 10
97.7726582277
 20
81.5646832056
 30
0.0
 10
97.6279213235
 20
78.4732390339
 30
0.0
 10
97.4477127889
 20
72.3246947162
 30
0.0
 10
97.3889158371
 20
66.1743993041
 30
0.0
 10
97.388917475
 20
63.1189404979
 30
0.0
  0
SPLINE
  5
342
100
AcDbEntity
  8
RACCORDO
100
AcDbSpline
 62
250
  6
CONTINUOUS
 70
0
 71
3
 72
9
 73
5
 74
0
 42
0.0000001
 43
0.0000001
 44
0.0000000001
 40
0.0
 40
0.0
 40
0.0
 40
0.0
 40
0.2527489388
 40
1.0
 40
1.0
 40
1.0
 40
1.0
 10
98.7905381153
 20
95.4538191535
 30
0.0
 10
98.6759823752
 20
94.2978696137
 30
0.0
 10
98.2512309717
 20
89.7215951217
 30
0.0
 10
97.9416190396
 20
85.1345320792
 30
0.0
 10
97.7792205902
 20
81.704073546
 30
0.0
  0
SPLINE
  5
343
100
AcDbEntity
  8
RACCORDO
100
AcDbSpline
 62
250
  6
CONTINUOUS
 70
0
 71
3
 72
10
 73
6
 74
0
 42
0.0000001
 43
0.0000001
 44
0.0000000001
 40
0.0
 40
0.0
 40
0.0
 40
0.0
 40
0.5031929947
 40
0.7525962634
 40
1.0
 40
1.0
 40
1.0
 40
1.0
 10
74.7886284093
 20
75.2673965002
 30
0.0
 10
74.7886282506
 20
72.3069877843
 30
0.0
 10
74.8305211747
 20
67.8791007056
 30
0.0
 10
74.9760873087
 20
61.9975680971
 30
0.0
 10
75.09044168
 20
59.0767934421
 30
0.0
 10
75.1613675158
 20
57.6229852055
 30
0.0
  0
SPLINE
  5
344
100
AcDbEntity
  8
RACCORDO
100
AcDbSpline
 62
250
  6
CONTINUOUS
 70
0
 71
3
 72
9
 73
5
 74
0
 42
0.0000001
 43
0.0000001
 44
0.0000000001
 40
0.0
 40
0.0
 40
0.0
 40
0.0
 40
0.5030517997
 40
1.0
 40
1.0
 40
1.0
 40
1.0
 10
75.1613675158
 20
93.3274689991
 30
0.0
 10
75.0213795982
 20
90.3014942448
 30
0.0
 10
74.8460494125
 20
84.2815322379
 30
0.0
 10
74.7886477846
 20
78.2598537398
 30
0.0
 10
74.7886284093
 20
75.2673965002
 30
0.0
  0
SPLINE
  5
345
100
AcDbEntity
  8
RACCORDO
100
AcDbSpline
 62
250
  6
CONTINUOUS
 70
0
 71
3
 72
9
 73
5
 74
0
 42
0.0000001
 43
0.0000001
 44
0.0000000001
 40
0.0
 40
0.0
 40
0.0
 40
0.0
 40
0.2469666214
 40
1.0
 40
1.0
 40
1.0
 40
1.0
 10
82.8754975275
 20
52.4445320449
 30
0.0
 10
83.5144719678
 20
52.0755962292
 30
0.0
 10
86.1130101113
 20
50.6012694878
 30
0.0
 10
88.7553977198
 20
49.2044140124
 30
0.0
 10
90.7658466557
 20
48.194707974
 30
0.0
  0
SPLINE
  5
346
100
AcDbEntity
  8
RACCORDO
100
AcDbSpline
 62
250
  6
CONTINUOUS
 70
0
 71
3
 72
9
 73
5
 74
0
 42
0.0000001
 43
0.0000001
 44
0.0000000001
 40
0.0
 40
0.0
 40
0.0
 40
0.0
 40
0.2467699898
 40
1.0
 40
1.0
 40
1.0
 40
1.0
 10
75.5059704323
 20
57.0055692543
 30
0.0
 10
76.1000405216
 20
56.6113609935
 30
0.0
 10
78.5203177818
 20
55.0333802049
 30
0.0
 10
80.9908625363
 20
53.5326967745
 30
0.0
 10
82.8754975275
 20
52.4445320449
 30
0.0
  0
LINE
  5
347
100
AcDbEntity
  8
RACCORDO
100
AcDbLine
 62
250
  6
CONTINUOUS
 10
78.1092402178
 20
114.9127878477
 30
0.0
 11
78.2189624352
 21
114.8488393163
 31
0.0
  0
LINE
  5
348
100
AcDbEntity
  8
RACCORDO
100
AcDbLine
 62
250
  6
CONTINUOUS
 10
97.7792205902
 20
81.704073546
 30
0.0
 11
97.7726582277
 21
81.5646832056
 31
0.0
  0
LINE
  5
349
100
AcDbEntity
  8
RACCORDO
100
AcDbLine
 62
250
  6
CONTINUOUS
 10
78.3403416972
 20
114.7784707266
 30
0.0
 11
78.4058484138
 21
114.7404298014
 31
0.0
  0
SPLINE
  5
34A
100
AcDbEntity
  8
RACCORDO
100
AcDbSpline
 62
250
  6
CONTINUOUS
 70
0
 71
3
 72
8
 73
4
 74
0
 42
0.0000001
 43
0.0000001
 44
0.0000000001
 40
0.0
 40
0.0
 40
0.0
 40
0.0
 40
1.0
 40
1.0
 40
1.0
 40
1.0
 10
78.4058484138
 20
114.7404298014
 30
0.0
 10
79.3704250641
 20
114.1803418978
 30
0.0
 10
80.3356945974
 20
113.6214476871
 30
0.0
 10
81.3010447745
 20
113.0626940655
 30
0.0
  0
SPLINE
  5
34B
100
AcDbEntity
  8
RACCORDO
100
AcDbSpline
 62
250
  6
CONTINUOUS
 70
0
 71
3
 72
9
 73
5
 74
0
 42
0.0000001
 43
0.0000001
 44
0.0000000001
 40
0.0
 40
0.0
 40
0.0
 40
0.0
 40
0.2500108724
 40
1.0
 40
1.0
 40
1.0
 40
1.0
 10
102.4968625242
 20
85.1524538009
 30
0.0
 10
102.495902822
 20
83.6254145819
 30
0.0
 10
102.493038359
 20
77.5175227361
 30
0.0
 10
102.4922875566
 20
71.4096301281
 30
0.0
 10
102.4922830042
 20
66.828777196
 30
0.0
  0
SPLINE
  5
34C
100
AcDbEntity
  8
RACCORDO
100
AcDbSpline
 62
250
  6
CONTINUOUS
 70
0
 71
3
 72
9
 73
5
 74
0
 42
0.0000001
 43
0.0000001
 44
0.0000000001
 40
0.0
 40
0.0
 40
0.0
 40
0.0
 40
0.2499785982
 40
1.0
 40
1.0
 40
1.0
 40
1.0
 10
81.3744078641
 20
113.0202316801
 30
0.0
 10
82.0336615722
 20
112.6386642319
 30
0.0
 10
84.6712266182
 20
111.1128243443
 30
0.0
 10
87.3096715869
 20
109.5885059543
 30
0.0
 10
89.2888582609
 20
108.445748375
 30
0.0
  0
SPLINE
  5
34D
100
AcDbEntity
  8
RACCORDO
100
AcDbSpline
 62
250
  6
CONTINUOUS
 70
0
 71
3
 72
11
 73
7
 74
0
 42
0.0000001
 43
0.0000001
 44
0.0000000001
 40
0.0
 40
0.0
 40
0.0
 40
0.0
 40
0.2500402001
 40
0.5000464905
 40
0.7500349826
 40
1.0
 40
1.0
 40
1.0
 40
1.0
 10
102.5143330028
 20
98.3647836134
 30
0.0
 10
102.5115000613
 20
97.2670803597
 30
0.0
 10
102.5085506708
 20
95.0718166077
 30
0.0
 10
102.5036922482
 20
91.7790756515
 30
0.0
 10
102.499433415
 20
88.4866634683
 30
0.0
 10
102.4975843643
 20
86.2918074198
 30
0.0
 10
102.4968890159
 20
85.194430792
 30
0.0
  0
LINE
  5
34E
100
AcDbEntity
  8
RACCORDO
100
AcDbLine
 62
250
  6
CONTINUOUS
 10
76.3384647658
 20
110.6713196422
 30
0.0
 11
76.4761753031
 21
110.5797820268
 31
0.0
  0
SPLINE
  5
34F
100
AcDbEntity
  8
RACCORDO
100
AcDbSpline
 62
250
  6
CONTINUOUS
 70
0
 71
3
 72
9
 73
5
 74
0
 42
0.0000001
 43
0.0000001
 44
0.0000000001
 40
0.0
 40
0.0
 40
0.0
 40
0.0
 40
0.2466192677
 40
1.0
 40
1.0
 40
1.0
 40
1.0
 10
76.4761753031
 20
110.5797820268
 30
0.0
 10
77.0831257111
 20
110.1768679853
 30
0.0
 10
79.5574578855
 20
108.5631401437
 30
0.0
 10
82.0833974094
 20
107.0287545274
 30
0.0
 10
84.0106886489
 20
105.9159606362
 30
0.0
  0
SPLINE
  5
350
100
AcDbEntity
  8
RACCORDO
100
AcDbSpline
 62
250
  6
CONTINUOUS
 70
0
 71
3
 72
9
 73
5
 74
0
 42
0.0000001
 43
0.0000001
 44
0.0000000001
 40
0.0
 40
0.0
 40
0.0
 40
0.0
 40
0.2533180404
 40
1.0
 40
1.0
 40
1.0
 40
1.0
 10
82.667412658
 20
89.1149323204
 30
0.0
 10
82.0425266591
 20
89.4757336727
 30
0.0
 10
79.5858963037
 20
90.9175585898
 30
0.0
 10
77.1707109813
 20
92.4301961255
 30
0.0
 10
75.3949372908
 20
93.600804367
 30
0.0
  0
SPLINE
  5
351
100
AcDbEntity
  8
RACCORDO
100
AcDbSpline
 62
250
  6
CONTINUOUS
 70
0
 71
3
 72
9
 73
5
 74
0
 42
0.0000001
 43
0.0000001
 44
0.0000000001
 40
0.0
 40
0.0
 40
0.0
 40
0.0
 40
0.5415887702
 40
1.0
 40
1.0
 40
1.0
 40
1.0
 10
75.2839231662
 20
93.674063475
 30
0.0
 10
75.23714744
 20
93.7049629966
 30
0.0
 10
75.1434369352
 20
93.752698117
 30
0.0
 10
75.0365604951
 20
93.763170692
 30
0.0
 10
74.9897554055
 20
93.7553713371
 30
0.0
  0
SPLINE
  5
352
100
AcDbEntity
  8
RACCORDO
100
AcDbSpline
 62
250
  6
CONTINUOUS
 70
0
 71
3
 72
9
 73
5
 74
0
 42
0.0000001
 43
0.0000001
 44
0.0000000001
 40
0.0
 40
0.0
 40
0.0
 40
0.0
 40
0.247273562
 40
1.0
 40
1.0
 40
1.0
 40
1.0
 10
70.1035733753
 20
97.5806393799
 30
0.0
 10
70.1576184363
 20
98.7097008024
 30
0.0
 10
70.4064792153
 20
103.2742540803
 30
0.0
 10
70.7750631813
 20
107.8321822231
 30
0.0
 10
71.1158070478
 20
111.256184885
 30
0.0
  0
LINE
  5
353
100
AcDbEntity
  8
RACCORDO
100
AcDbLine
 62
250
  6
CONTINUOUS
 10
71.1158070478
 20
111.256184885
 30
0.0
 11
71.1342616817
 21
111.4421879249
 31
0.0
  0
LINE
  5
354
100
AcDbEntity
  8
RACCORDO
100
AcDbLine
 62
250
  6
CONTINUOUS
 10
71.1342616817
 20
111.4421879249
 30
0.0
 11
71.14896016
 21
111.5911895779
 31
0.0
  0
SPLINE
  5
355
100
AcDbEntity
  8
RACCORDO
100
AcDbSpline
 62
250
  6
CONTINUOUS
 70
0
 71
3
 72
20
 73
16
 74
0
 42
0.0000001
 43
0.0000001
 44
0.0000000001
 40
0.0
 40
0.0
 40
0.0
 40
0.0
 40
0.1579102565
 40
0.2295874956
 40
0.2962754038
 40
0.4155334729
 40
0.469824652
 40
0.5218165742
 40
0.5728743732
 40
0.624425422
 40
0.677774042
 40
0.7340425505
 40
0.7940315719
 40
0.8582210811
 40
1.0
 40
1.0
 40
1.0
 40
1.0
 10
71.1712863295
 20
111.7755964196
 30
0.0
 10
71.1948216328
 20
111.9382004471
 30
0.0
 10
71.2441063739
 20
112.173227367
 30
0.0
 10
71.3472504753
 20
112.4642287395
 30
0.0
 10
71.4618636868
 20
112.7067647949
 30
0.0
 10
71.6083974464
 20
112.9139710353
 30
0.0
 10
71.786390076
 20
113.0684562627
 30
0.0
 10
71.9279305419
 20
113.1526148588
 30
0.0
 10
72.0801154812
 20
113.2075628595
 30
0.0
 10
72.2411054421
 20
113.2339666335
 30
0.0
 10
72.4095829433
 20
113.231758564
 30
0.0
 10
72.5840313919
 20
113.2010799363
 30
0.0
 10
72.7631807197
 20
113.1432007257
 30
0.0
 10
73.0150269368
 20
113.0273763826
 30
0.0
 10
73.1941911334
 20
112.9067468807
 30
0.0
 10
73.3100656101
 20
112.8154581045
 30
0.0
  0
SPLINE
  5
356
100
AcDbEntity
  8
RACCORDO
100
AcDbSpline
 62
250
  6
CONTINUOUS
 70
0
 71
3
 72
9
 73
5
 74
0
 42
0.0000001
 43
0.0000001
 44
0.0000000001
 40
0.0
 40
0.0
 40
0.0
 40
0.0
 40
0.4953990544
 40
1.0
 40
1.0
 40
1.0
 40
1.0
 10
73.5903853293
 20
112.5991551748
 30
0.0
 10
74.0317355227
 20
112.2636512996
 30
0.0
 10
74.9406154784
 20
111.6100612548
 30
0.0
 10
75.8683776061
 20
110.9842012896
 30
0.0
 10
76.3384647658
 20
110.6713196422
 30
0.0
  0
SPLINE
  5
357
100
AcDbEntity
  8
RACCORDO
100
AcDbSpline
 62
250
  6
CONTINUOUS
 70
0
 71
3
 72
11
 73
7
 74
0
 42
0.0000001
 43
0.0000001
 44
0.0000000001
 40
0.0
 40
0.0
 40
0.0
 40
0.0
 40
0.2130200597
 40
0.4428401529
 40
0.703574231
 40
1.0
 40
1.0
 40
1.0
 40
1.0
 10
74.9425058001
 20
93.7429659603
 30
0.0
 10
74.9110518846
 20
93.7314717075
 30
0.0
 10
74.8499658163
 20
93.6938993235
 30
0.0
 10
74.782507794
 20
93.6037327675
 30
0.0
 10
74.7395879711
 20
93.4863158046
 30
0.0
 10
74.7282916945
 20
93.3988098131
 30
0.0
 10
74.7261332398
 20
93.3522595365
 30
0.0
  0
SPLINE
  5
358
100
AcDbEntity
  8
RACCORDO
100
AcDbSpline
 62
250
  6
CONTINUOUS
 70
0
 71
3
 72
9
 73
5
 74
0
 42
0.0000001
 43
0.0000001
 44
0.0000000001
 40
0.0
 40
0.0
 40
0.0
 40
0.0
 40
0.503051697
 40
1.0
 40
1.0
 40
1.0
 40
1.0
 10
74.7261332398
 20
93.3522595365
 30
0.0
 10
74.586017527
 20
90.3240547472
 30
0.0
 10
74.4105345449
 20
84.2996533118
 30
0.0
 10
74.3530610535
 20
78.2735336019
 30
0.0
 10
74.3530518384
 20
75.278868674
 30
0.0
  0
SPLINE
  5
359
100
AcDbEntity
  8
RACCORDO
100
AcDbSpline
 62
250
  6
CONTINUOUS
 70
0
 71
3
 72
9
 73
5
 74
0
 42
0.0000001
 43
0.0000001
 44
0.0000000001
 40
0.0
 40
0.0
 40
0.0
 40
0.0
 40
0.496836355
 40
1.0
 40
1.0
 40
1.0
 40
1.0
 10
69.7079100368
 20
78.9858392357
 30
0.0
 10
69.7084630935
 20
82.0289854205
 30
0.0
 10
69.7678940017
 20
88.1540283858
 30
0.0
 10
69.94809848
 20
94.2773153717
 30
0.0
 10
70.0925695969
 20
97.35582849
 30
0.0
  0
SPLINE
  5
35A
100
AcDbEntity
  8
RACCORDO
100
AcDbSpline
 62
250
  6
CONTINUOUS
 70
0
 71
3
 72
9
 73
5
 74
0
 42
0.0000001
 43
0.0000001
 44
0.0000000001
 40
0.0
 40
0.0
 40
0.0
 40
0.0
 40
0.2447952618
 40
1.0
 40
1.0
 40
1.0
 40
1.0
 10
75.2691255608
 20
93.5583195622
 30
0.0
 10
75.265716207
 20
93.5562020124
 30
0.0
 10
75.2521124235
 20
93.5470353496
 30
0.0
 10
75.2399047526
 20
93.5358440196
 30
0.0
 10
75.2316295159
 20
93.5266339287
 30
0.0
  0
SPLINE
  5
35B
100
AcDbEntity
  8
RACCORDO
100
AcDbSpline
 62
250
  6
CONTINUOUS
 70
0
 71
3
 72
9
 73
5
 74
0
 42
0.0000001
 43
0.0000001
 44
0.0000000001
 40
0.0
 40
0.0
 40
0.0
 40
0.0
 40
0.2219679384
 40
1.0
 40
1.0
 40
1.0
 40
1.0
 10
75.2182436766
 20
93.5100438196
 30
0.0
 10
75.2098682514
 20
93.4985030284
 30
0.0
 10
75.1773062775
 20
93.4427246397
 30
0.0
 10
75.1645770757
 20
93.3773478321
 30
0.0
 10
75.1613670244
 20
93.3274687349
 30
0.0
  0
SPLINE
  5
35C
100
AcDbEntity
  8
RACCORDO
100
AcDbSpline
 62
250
  6
CONTINUOUS
 70
0
 71
3
 72
11
 73
7
 74
0
 42
0.0000001
 43
0.0000001
 44
0.0000000001
 40
0.0
 40
0.0
 40
0.0
 40
0.0
 40
0.2146484779
 40
0.4465111507
 40
0.7073014065
 40
1.0
 40
1.0
 40
1.0
 40
1.0
 10
82.7291995153
 20
88.9634614005
 30
0.0
 10
82.7185773005
 20
88.9696001072
 30
0.0
 10
82.6987524465
 20
88.9866880204
 30
0.0
 10
82.6785521621
 20
89.0224165516
 30
0.0
 10
82.6676557991
 20
89.0663902219
 30
0.0
 10
82.666609279
 20
89.0982221216
 30
0.0
 10
82.667412658
 20
89.1149323204
 30
0.0
  0
SPLINE
  5
35D
100
AcDbEntity
  8
RACCORDO
100
AcDbSpline
 62
250
  6
CONTINUOUS
 70
0
 71
3
 72
14
 73
10
 74
0
 42
0.0000001
 43
0.0000001
 44
0.0000000001
 40
0.0
 40
0.0
 40
0.0
 40
0.0
 40
0.1120263491
 40
0.2211815142
 40
0.3314506299
 40
0.4465451479
 40
0.5694582569
 40
0.7021350885
 40
1.0
 40
1.0
 40
1.0
 40
1.0
 10
71.8041422243
 20
113.3178623744
 30
0.0
 10
71.8577506429
 20
113.362520194
 30
0.0
 10
71.9725466525
 20
113.4407910402
 30
0.0
 10
72.16571928
 20
113.5179494273
 30
0.0
 10
72.3727049131
 20
113.5526488319
 30
0.0
 10
72.5908118941
 20
113.5446980065
 30
0.0
 10
72.8173181892
 20
113.4947700969
 30
0.0
 10
73.1398836042
 20
113.3705428708
 30
0.0
 10
73.3687576658
 20
113.2249621768
 30
0.0
 10
73.5160427029
 20
113.1121636691
 30
0.0
  0
LINE
  5
35E
100
AcDbEntity
  8
RACCORDO
100
AcDbLine
 62
250
  6
CONTINUOUS
 10
97.7726582277
 20
45.1174500495
 30
0.0
 11
97.7792205902
 21
44.9856642422
 31
0.0
  0
SPLINE
  5
35F
100
AcDbEntity
  8
RACCORDO
100
AcDbSpline
 62
250
  6
CONTINUOUS
 70
0
 71
3
 72
15
 73
11
 74
0
 42
0.0000001
 43
0.0000001
 44
0.0000000001
 40
0.0
 40
0.0
 40
0.0
 40
0.0
 40
0.1158219631
 40
0.2394314243
 40
0.3685114128
 40
0.5004083284
 40
0.632242274
 40
0.7611451242
 40
0.8844906654
 40
1.0
 40
1.0
 40
1.0
 40
1.0
 10
100.7293364592
 20
101.8490047725
 30
0.0
 10
100.8489413182
 20
101.7719525108
 30
0.0
 10
101.0841106453
 20
101.5934726502
 30
0.0
 10
101.4081221761
 20
101.2759627942
 30
0.0
 10
101.7067949566
 20
100.9086891401
 30
0.0
 10
101.9701594978
 20
100.5033113044
 30
0.0
 10
102.189565628
 20
100.0727928556
 30
0.0
 10
102.3579311205
 20
99.6310011174
 30
0.0
 10
102.469908724
 20
99.1923247958
 30
0.0
 10
102.5059379229
 20
98.8999989959
 30
0.0
 10
102.512320202
 20
98.7582509438
 30
0.0
  0
LINE
  5
360
100
AcDbEntity
  8
RACCORDO
100
AcDbLine
 62
250
  6
CONTINUOUS
 10
100.4349339379
 20
102.0219642261
 30
0.0
 11
100.5624127762
 21
101.9490855709
 31
0.0
  0
SPLINE
  5
361
100
AcDbEntity
  8
0
100
AcDbSpline
 62
7
  6
CONTINUOUS
 70
0
 71
3
 72
9
 73
5
 74
0
 42
0.0000001
 43
0.0000001
 44
0.0000000001
 40
0.0
 40
0.0
 40
0.0
 40
0.0
 40
0.2333543506
 40
1.0
 40
1.0
 40
1.0
 40
1.0
 10
85.7348029948
 20
47.2153360952
 30
0.0
 10
85.7296131086
 20
47.2145071808
 30
0.0
 10
85.7070939155
 20
47.2126694882
 30
0.0
 10
85.684472212
 20
47.2162296611
 30
0.0
 10
85.6676863611
 20
47.2202756708
 30
0.0
  0
SPLINE
  5
362
100
AcDbEntity
  8
0
100
AcDbSpline
 62
7
  6
CONTINUOUS
 70
0
 71
3
 72
9
 73
5
 74
0
 42
0.0000001
 43
0.0000001
 44
0.0000000001
 40
0.0
 40
0.0
 40
0.0
 40
0.0
 40
0.2353813911
 40
1.0
 40
1.0
 40
1.0
 40
1.0
 10
85.6676863611
 20
47.2202756708
 30
0.0
 10
85.6582811233
 20
47.2225426803
 30
0.0
 10
85.6188123285
 20
47.2342026985
 30
0.0
 10
85.5812867617
 20
47.251608487
 30
0.0
 10
85.5534859244
 20
47.2662639315
 30
0.0
  0
SPLINE
  5
363
100
AcDbEntity
  8
RACCORDO
100
AcDbSpline
 62
250
  6
CONTINUOUS
 70
0
 71
3
 72
8
 73
4
 74
0
 42
0.0000001
 43
0.0000001
 44
0.0000000001
 40
0.0
 40
0.0
 40
0.0
 40
0.0
 40
1.0
 40
1.0
 40
1.0
 40
1.0
 10
97.3765450949
 20
103.7810367559
 30
0.0
 10
98.3349139532
 20
103.2290762689
 30
0.0
 10
99.2933488917
 20
102.6772290918
 30
0.0
 10
100.2525182695
 20
102.1266608832
 30
0.0
  0
SPLINE
  5
364
100
AcDbEntity
  8
RACCORDO
100
AcDbSpline
 62
250
  6
CONTINUOUS
 70
0
 71
3
 72
9
 73
5
 74
0
 42
0.0000001
 43
0.0000001
 44
0.0000000001
 40
0.0
 40
0.0
 40
0.0
 40
0.0
 40
0.2532962166
 40
1.0
 40
1.0
 40
1.0
 40
1.0
 10
97.7792205902
 20
44.9856642422
 30
0.0
 10
97.8325218012
 20
43.9215145847
 30
0.0
 10
98.0739763884
 20
39.7219395969
 30
0.0
 10
98.441057352
 20
35.5294302607
 30
0.0
 10
98.7905381153
 20
32.4079439082
 30
0.0
  0
SPLINE
  5
365
100
AcDbEntity
  8
RACCORDO
100
AcDbSpline
 62
250
  6
CONTINUOUS
 70
0
 71
3
 72
9
 73
5
 74
0
 42
0.0000001
 43
0.0000001
 44
0.0000000001
 40
0.0
 40
0.0
 40
0.0
 40
0.0
 40
0.249982161
 40
1.0
 40
1.0
 40
1.0
 40
1.0
 10
89.3241819487
 20
108.4253530089
 30
0.0
 10
89.9838119403
 20
108.0444942254
 30
0.0
 10
92.6226865304
 20
106.5212385728
 30
0.0
 10
95.262099323
 20
104.9989145719
 30
0.0
 10
97.242378196
 20
103.8583114372
 30
0.0
  0
SPLINE
  5
366
100
AcDbEntity
  8
RACCORDO
100
AcDbSpline
 62
250
  6
CONTINUOUS
 70
0
 71
3
 72
9
 73
5
 74
0
 42
0.0000001
 43
0.0000001
 44
0.0000000001
 40
0.0
 40
0.0
 40
0.0
 40
0.0
 40
0.250008362
 40
1.0
 40
1.0
 40
1.0
 40
1.0
 10
102.4922829822
 20
66.7846367412
 30
0.0
 10
102.4922829812
 20
65.2575590682
 30
0.0
 10
102.4926397766
 20
59.1494527321
 30
0.0
 10
102.4939693282
 20
53.0413460777
 30
0.0
 10
102.4968362062
 20
48.4603182594
 30
0.0
  0
SPLINE
  5
367
100
AcDbEntity
  8
RACCORDO
100
AcDbSpline
 62
250
  6
CONTINUOUS
 70
0
 71
3
 72
10
 73
6
 74
0
 42
0.0000001
 43
0.0000001
 44
0.0000000001
 40
0.0
 40
0.0
 40
0.0
 40
0.0
 40
0.2189818832
 40
0.4528674047
 40
1.0
 40
1.0
 40
1.0
 40
1.0
 10
92.3088377589
 20
32.2813000314
 30
0.0
 10
92.3006076989
 20
32.2854160026
 30
0.0
 10
92.284906333
 20
32.2968301799
 30
0.0
 10
92.2595816983
 20
32.3309587725
 30
0.0
 10
92.2510677675
 20
32.3639683342
 30
0.0
 10
92.2483673425
 20
32.3868004287
 30
0.0
  0
SPLINE
  5
368
100
AcDbEntity
  8
RACCORDO
100
AcDbSpline
 62
250
  6
CONTINUOUS
 70
0
 71
3
 72
10
 73
6
 74
0
 42
0.0000001
 43
0.0000001
 44
0.0000000001
 40
0.0
 40
0.0
 40
0.0
 40
0.0
 40
0.2191228753
 40
0.4530765971
 40
1.0
 40
1.0
 40
1.0
 40
1.0
 10
92.1502407501
 20
32.3607752243
 30
0.0
 10
92.1420104433
 20
32.3649025629
 30
0.0
 10
92.1263119842
 20
32.3763308342
 30
0.0
 10
92.1009913396
 20
32.4104568454
 30
0.0
 10
92.0924681173
 20
32.4434541278
 30
0.0
 10
92.0897652877
 20
32.4662755428
 30
0.0
  0
SPLINE
  5
369
100
AcDbEntity
  8
RACCORDO
100
AcDbSpline
 62
250
  6
CONTINUOUS
 70
0
 71
3
 72
9
 73
5
 74
0
 42
0.0000001
 43
0.0000001
 44
0.0000000001
 40
0.0
 40
0.0
 40
0.0
 40
0.0
 40
0.2557579912
 40
1.0
 40
1.0
 40
1.0
 40
1.0
 10
90.8996579822
 20
84.5691929873
 30
0.0
 10
90.8867099128
 20
84.5856678609
 30
0.0
 10
90.8344044447
 20
84.648733032
 30
0.0
 10
90.7754108148
 20
84.7063544114
 30
0.0
 10
90.7280743201
 20
84.7447893065
 30
0.0
  0
SPLINE
  5
36A
100
AcDbEntity
  8
RACCORDO
100
AcDbSpline
 62
250
  6
CONTINUOUS
 70
0
 71
3
 72
9
 73
5
 74
0
 42
0.0000001
 43
0.0000001
 44
0.0000000001
 40
0.0
 40
0.0
 40
0.0
 40
0.0
 40
0.258729061
 40
1.0
 40
1.0
 40
1.0
 40
1.0
 10
90.7280743201
 20
84.7447893065
 30
0.0
 10
90.7156279675
 20
84.75489513
 30
0.0
 10
90.6665858006
 20
84.7927713182
 30
0.0
 10
90.6137126152
 20
84.8258098392
 30
0.0
 10
90.5727079897
 20
84.8465107314
 30
0.0
  0
SPLINE
  5
36B
100
AcDbEntity
  8
RACCORDO
100
AcDbSpline
 62
250
  6
CONTINUOUS
 70
0
 71
3
 72
9
 73
5
 74
0
 42
0.0000001
 43
0.0000001
 44
0.0000000001
 40
0.0
 40
0.0
 40
0.0
 40
0.0
 40
0.2530865831
 40
1.0
 40
1.0
 40
1.0
 40
1.0
 10
90.5727079897
 20
84.8465107314
 30
0.0
 10
89.9057720528
 20
85.1831900517
 30
0.0
 10
87.279465341
 20
86.5310206838
 30
0.0
 10
84.6894105316
 20
87.9496740511
 30
0.0
 10
82.7790523267
 20
89.050535975
 30
0.0
  0
SPLINE
  5
36C
100
AcDbEntity
  8
RACCORDO
100
AcDbSpline
 62
250
  6
CONTINUOUS
 70
0
 71
3
 72
9
 73
5
 74
0
 42
0.0000001
 43
0.0000001
 44
0.0000000001
 40
0.0
 40
0.0
 40
0.0
 40
0.0
 40
0.2468432282
 40
1.0
 40
1.0
 40
1.0
 40
1.0
 10
84.0106886489
 20
105.9159606362
 30
0.0
 10
84.6646127769
 20
105.5383930527
 30
0.0
 10
87.3252952268
 20
104.0288496753
 30
0.0
 10
90.0309123066
 20
102.5987043267
 30
0.0
 10
92.0897652889
 20
101.5646908535
 30
0.0
  0
LINE
  5
36D
100
AcDbEntity
  8
RACCORDO
100
AcDbLine
 62
250
  6
CONTINUOUS
 10
92.0897652889
 20
101.5646908535
 30
0.0
 11
92.2483673425
 21
101.4851412924
 31
0.0
  0
SPLINE
  5
36E
100
AcDbEntity
  8
RACCORDO
100
AcDbSpline
 62
250
  6
CONTINUOUS
 70
0
 71
3
 72
9
 73
5
 74
0
 42
0.0000001
 43
0.0000001
 44
0.0000000001
 40
0.0
 40
0.0
 40
0.0
 40
0.0
 40
0.24747327
 40
1.0
 40
1.0
 40
1.0
 40
1.0
 10
92.2483673425
 20
101.4851412924
 30
0.0
 10
92.5214629641
 20
101.3483445199
 30
0.0
 10
93.6264472521
 20
100.7985745084
 30
0.0
 10
94.7418494363
 20
100.2688782031
 30
0.0
 10
95.5923044379
 20
99.8955228301
 30
0.0
  0
SPLINE
  5
36F
100
AcDbEntity
  8
RACCORDO
100
AcDbSpline
 62
250
  6
CONTINUOUS
 70
0
 71
3
 72
15
 73
11
 74
0
 42
0.0000001
 43
0.0000001
 44
0.0000000001
 40
0.0
 40
0.0
 40
0.0
 40
0.0
 40
0.1183584511
 40
0.2430983833
 40
0.3722039228
 40
0.5032404561
 40
0.6336540763
 40
0.761068701
 40
0.8835606079
 40
1.0
 40
1.0
 40
1.0
 40
1.0
 10
95.9674733307
 20
99.7333556113
 30
0.0
 10
96.1477939957
 20
99.6571909729
 30
0.0
 10
96.5048348364
 20
99.4679810986
 30
0.0
 10
97.0016750787
 20
99.1012929506
 30
0.0
 10
97.4579165056
 20
98.6545398934
 30
0.0
 10
97.8550766871
 20
98.1424783525
 30
0.0
 10
98.1729027366
 20
97.58068608
 30
0.0
 10
98.3968331465
 20
96.9899372569
 30
0.0
 10
98.5128235421
 20
96.3921567204
 30
0.0
 10
98.5141858232
 20
95.9938983149
 30
0.0
 10
98.494252872
 20
95.802360283
 30
0.0
  0
SPLINE
  5
370
100
AcDbEntity
  8
RACCORDO
100
AcDbSpline
 62
250
  6
CONTINUOUS
 70
0
 71
3
 72
9
 73
5
 74
0
 42
0.0000001
 43
0.0000001
 44
0.0000000001
 40
0.0
 40
0.0
 40
0.0
 40
0.0
 40
0.2527497172
 40
1.0
 40
1.0
 40
1.0
 40
1.0
 10
98.4602757247
 20
95.4678313777
 30
0.0
 10
98.345628723
 20
94.3107136847
 30
0.0
 10
97.9205399868
 20
89.7298299225
 30
0.0
 10
97.6106808272
 20
85.1381514435
 30
0.0
 10
97.4481526115
 20
81.7042459445
 30
0.0
  0
SPLINE
  5
371
100
AcDbEntity
  8
RACCORDO
100
AcDbSpline
 62
250
  6
CONTINUOUS
 70
0
 71
3
 72
9
 73
5
 74
0
 42
0.0000001
 43
0.0000001
 44
0.0000000001
 40
0.0
 40
0.0
 40
0.0
 40
0.0
 40
0.5031756257
 40
1.0
 40
1.0
 40
1.0
 40
1.0
 10
97.4421195727
 20
81.5645352923
 30
0.0
 10
97.2969612495
 20
78.4713786872
 30
0.0
 10
97.1163635681
 20
72.3190917268
 30
0.0
 10
97.0574520935
 20
66.1650506265
 30
0.0
 10
97.0574520935
 20
63.1075756654
 30
0.0
  0
SPLINE
  5
372
100
AcDbEntity
  8
RACCORDO
100
AcDbSpline
 62
250
  6
CONTINUOUS
 70
0
 71
3
 72
9
 73
5
 74
0
 42
0.0000001
 43
0.0000001
 44
0.0000000001
 40
0.0
 40
0.0
 40
0.0
 40
0.0
 40
0.4968497215
 40
1.0
 40
1.0
 40
1.0
 40
1.0
 10
90.7878567072
 20
65.7896183193
 30
0.0
 10
90.7878566242
 20
68.7848632321
 30
0.0
 10
90.8435357579
 20
74.813343278
 30
0.0
 10
91.0128192365
 20
80.8402263605
 30
0.0
 10
91.1480736706
 20
83.870436947
 30
0.0
  0
SPLINE
  5
373
100
AcDbEntity
  8
RACCORDO
100
AcDbSpline
 62
250
  6
CONTINUOUS
 70
0
 71
3
 72
9
 73
5
 74
0
 42
0.0000001
 43
0.0000001
 44
0.0000000001
 40
0.0
 40
0.0
 40
0.0
 40
0.0
 40
0.4776123651
 40
1.0
 40
1.0
 40
1.0
 40
1.0
 10
91.1480736706
 20
83.870436947
 30
0.0
 10
91.1528136589
 20
83.9767739312
 30
0.0
 10
91.1153509127
 20
84.2017261873
 30
0.0
 10
91.0151962427
 20
84.4042101665
 30
0.0
 10
90.9498208365
 20
84.500542877
 30
0.0
  0
SPLINE
  5
374
100
AcDbEntity
  8
RACCORDO
100
AcDbSpline
 62
250
  6
CONTINUOUS
 70
0
 71
3
 72
9
 73
5
 74
0
 42
0.0000001
 43
0.0000001
 44
0.0000000001
 40
0.0
 40
0.0
 40
0.0
 40
0.0
 40
0.2469669114
 40
1.0
 40
1.0
 40
1.0
 40
1.0
 10
82.667412658
 20
52.0655197859
 30
0.0
 10
83.3075973045
 20
51.6958852037
 30
0.0
 10
85.9110549961
 20
50.2187695949
 30
0.0
 10
88.5584490018
 20
48.8192788093
 30
0.0
 10
90.5727079897
 20
47.8076727835
 30
0.0
  0
SPLINE
  5
375
100
AcDbEntity
  8
RACCORDO
100
AcDbSpline
 62
250
  6
CONTINUOUS
 70
0
 71
3
 72
9
 73
5
 74
0
 42
0.0000001
 43
0.0000001
 44
0.0000000001
 40
0.0
 40
0.0
 40
0.0
 40
0.0
 40
0.2820117965
 40
1.0
 40
1.0
 40
1.0
 40
1.0
 10
90.5727079897
 20
47.8076727835
 30
0.0
 10
90.6009239802
 20
47.7935023721
 30
0.0
 10
90.7031750149
 20
47.7490633397
 30
0.0
 10
90.8207381868
 20
47.7300052295
 30
0.0
 10
90.8996579822
 20
47.7452929711
 30
0.0
  0
LINE
  5
376
100
AcDbEntity
  8
RACCORDO
100
AcDbLine
 62
250
  6
CONTINUOUS
 10
92.1954885479
 20
32.4132738193
 30
0.0
 11
92.0897652867
 21
32.4662755433
 31
0.0
  0
SPLINE
  5
377
100
AcDbEntity
  8
RACCORDO
100
AcDbSpline
 62
250
  6
CONTINUOUS
 70
0
 71
3
 72
9
 73
5
 74
0
 42
0.0000001
 43
0.0000001
 44
0.0000000001
 40
0.0
 40
0.0
 40
0.0
 40
0.0
 40
0.2531056024
 40
1.0
 40
1.0
 40
1.0
 40
1.0
 10
92.0897652867
 20
32.4662755433
 30
0.0
 10
91.4056866192
 20
32.809531122
 30
0.0
 10
88.7124433064
 20
34.1845241169
 30
0.0
 10
86.0578922814
 20
35.6355135128
 30
0.0
 10
84.1011801241
 20
36.7634665585
 30
0.0
  0
LINE
  5
378
100
AcDbEntity
  8
0
100
AcDbLine
 62
7
  6
CONTINUOUS
 10
83.8374533686
 20
47.1785448954
 30
0.0
 11
83.8873665167
 21
47.400612589
 31
0.0
  0
SPLINE
  5
379
100
AcDbEntity
  8
RACCORDO
100
AcDbSpline
 62
7
  6
CONTINUOUS
 70
0
 71
3
 72
8
 73
4
 74
0
 42
0.0000001
 43
0.0000001
 44
0.0000000001
 40
0.0
 40
0.0
 40
0.0
 40
0.0
 40
1.0
 40
1.0
 40
1.0
 40
1.0
 10
90.533609045
 20
51.6138791092
 30
0.0
 10
90.5373216195
 20
51.6196596411
 30
0.0
 10
90.5404446938
 20
51.6258566794
 30
0.0
 10
90.5429275772
 20
51.6322623838
 30
0.0
  0
SPLINE
  5
37A
100
AcDbEntity
  8
RACCORDO
100
AcDbSpline
 62
7
  6
CONTINUOUS
 70
0
 71
3
 72
9
 73
5
 74
0
 42
0.0000001
 43
0.0000001
 44
0.0000000001
 40
0.0
 40
0.0
 40
0.0
 40
0.0
 40
0.2400352627
 40
1.0
 40
1.0
 40
1.0
 40
1.0
 10
90.5429275772
 20
51.6322623838
 30
0.0
 10
90.5443247625
 20
51.635867046
 30
0.0
 10
90.5493291637
 20
51.6511998709
 30
0.0
 10
90.5511608818
 20
51.6674702923
 30
0.0
 10
90.5511608818
 20
51.6797101612
 30
0.0
  0
SPLINE
  5
37B
100
AcDbEntity
  8
RACCORDO
100
AcDbSpline
 62
250
  6
CONTINUOUS
 70
0
 71
3
 72
11
 73
7
 74
0
 42
0.0000001
 43
0.0000001
 44
0.0000000001
 40
0.0
 40
0.0
 40
0.0
 40
0.0
 40
0.250034831
 40
0.5000462126
 40
0.7500396938
 40
1.0
 40
1.0
 40
1.0
 40
1.0
 10
102.4968625242
 20
48.4183580978
 30
0.0
 10
102.4975527305
 20
47.3205330549
 30
0.0
 10
102.4993897943
 20
45.124986188
 30
0.0
 10
102.5036373375
 20
41.8317975199
 30
0.0
 10
102.5085024832
 20
38.538937366
 30
0.0
 10
102.5114451742
 20
36.3437968362
 30
0.0
 10
102.5142495397
 20
35.2463023746
 30
0.0
  0
LINE
  5
37C
100
AcDbEntity
  8
0
100
AcDbLine
 62
7
  6
CONTINUOUS
 10
84.2057249555
 20
47.6372304016
 30
0.0
 11
83.967708606
 21
47.7717587493
 31
0.0
  0
SPLINE
  5
37D
100
AcDbEntity
  8
0
100
AcDbSpline
 62
7
  6
CONTINUOUS
 70
0
 71
3
 72
18
 73
14
 74
0
 42
0.0000001
 43
0.0000001
 44
0.0000000001
 40
0.0
 40
0.0
 40
0.0
 40
0.0
 40
0.0419745993
 40
0.0851187542
 40
0.1308079917
 40
0.179831518
 40
0.2890530481
 40
0.4126495125
 40
0.5494794646
 40
0.697209302
 40
0.8497270348
 40
0.9258024912
 40
1.0
 40
1.0
 40
1.0
 40
1.0
 10
86.0648780512
 20
46.9165656407
 30
0.0
 10
86.0784170712
 20
46.9243879094
 30
0.0
 10
86.1043149626
 20
46.9433574105
 30
0.0
 10
86.1349007334
 20
46.9818972677
 30
0.0
 10
86.1580037855
 20
47.0280809037
 30
0.0
 10
86.1799007677
 20
47.101164172
 30
0.0
 10
86.1870426641
 20
47.2070455409
 30
0.0
 10
86.1709597158
 20
47.3443026509
 30
0.0
 10
86.1291633758
 20
47.4912248084
 30
0.0
 10
86.059988333
 20
47.6392817312
 30
0.0
 10
85.9832013234
 20
47.7571548679
 30
0.0
 10
85.9121508882
 20
47.8448296188
 30
0.0
 10
85.8734648938
 20
47.8854711902
 30
0.0
 10
85.8530867484
 20
47.9041445238
 30
0.0
  0
SPLINE
  5
37E
100
AcDbEntity
  8
0
100
AcDbSpline
 62
7
  6
CONTINUOUS
 70
0
 71
3
 72
9
 73
5
 74
0
 42
0.0000001
 43
0.0000001
 44
0.0000000001
 40
0.0
 40
0.0
 40
0.0
 40
0.0
 40
0.2497389476
 40
1.0
 40
1.0
 40
1.0
 40
1.0
 10
86.3512045565
 20
45.8360549894
 30
0.0
 10
86.3387040145
 20
45.8807205826
 30
0.0
 10
86.2893314279
 20
46.0597593721
 30
0.0
 10
86.2401318117
 20
46.2388479658
 30
0.0
 10
86.2022285277
 20
46.3729332266
 30
0.0
  0
SPLINE
  5
37F
100
AcDbEntity
  8
0
100
AcDbSpline
 62
7
  6
CONTINUOUS
 70
0
 71
3
 72
11
 73
7
 74
0
 42
0.0000001
 43
0.0000001
 44
0.0000000001
 40
0.0
 40
0.0
 40
0.0
 40
0.0
 40
0.237439338
 40
0.4819012382
 40
0.73647515
 40
1.0
 40
1.0
 40
1.0
 40
1.0
 10
86.2022285277
 20
46.3729332266
 30
0.0
 10
86.1920325488
 20
46.4090021458
 30
0.0
 10
86.171903733
 20
46.4823761622
 30
0.0
 10
86.1341853374
 20
46.5924750547
 30
0.0
 10
86.0855835405
 20
46.7027647412
 30
0.0
 10
86.0435070284
 20
46.7733914226
 30
0.0
 10
86.0188425908
 20
46.8068913104
 30
0.0
  0
SPLINE
  5
380
100
AcDbEntity
  8
0
100
AcDbSpline
 62
7
  6
CONTINUOUS
 70
0
 71
3
 72
8
 73
4
 74
0
 42
0.0000001
 43
0.0000001
 44
0.0000000001
 40
0.0
 40
0.0
 40
0.0
 40
0.0
 40
1.0
 40
1.0
 40
1.0
 40
1.0
 10
86.0188425908
 20
46.8068913104
 30
0.0
 10
86.0062876648
 20
46.8239437409
 30
0.0
 10
85.992859363
 20
46.840402415
 30
0.0
 10
85.978486872
 20
46.855953719
 30
0.0
  0
SPLINE
  5
381
100
AcDbEntity
  8
RACCORDO
100
AcDbSpline
 62
250
  6
CONTINUOUS
 70
0
 71
3
 72
9
 73
5
 74
0
 42
0.0000001
 43
0.0000001
 44
0.0000000001
 40
0.0
 40
0.0
 40
0.0
 40
0.0
 40
0.5331883284
 40
1.0
 40
1.0
 40
1.0
 40
1.0
 10
102.5150290219
 20
34.9471772472
 30
0.0
 10
102.5154458197
 20
34.7870033932
 30
0.0
 10
102.4885729728
 20
34.4851784046
 30
0.0
 10
102.3836780653
 20
34.1979947954
 30
0.0
 10
102.3130149828
 20
34.0768651948
 30
0.0
  0
SPLINE
  5
382
100
AcDbEntity
  8
0
100
AcDbSpline
 62
7
  6
CONTINUOUS
 70
0
 71
3
 72
11
 73
7
 74
0
 42
0.0000001
 43
0.0000001
 44
0.0000000001
 40
0.0
 40
0.0
 40
0.0
 40
0.0
 40
0.2730240157
 40
0.5273148709
 40
0.7683017555
 40
1.0
 40
1.0
 40
1.0
 40
1.0
 10
85.8530867484
 20
47.9041445238
 30
0.0
 10
85.7806323411
 20
47.9705753731
 30
0.0
 10
85.6283993994
 20
48.0855096722
 30
0.0
 10
85.3903866379
 20
48.2269612704
 30
0.0
 10
85.1551111388
 20
48.3422074493
 30
0.0
 10
84.9979764309
 20
48.407715456
 30
0.0
 10
84.9205018366
 20
48.4386446248
 30
0.0
  0
SPLINE
  5
383
100
AcDbEntity
  8
RACCORDO
100
AcDbSpline
 62
250
  6
CONTINUOUS
 70
0
 71
3
 72
9
 73
5
 74
0
 42
0.0000001
 43
0.0000001
 44
0.0000000001
 40
0.0
 40
0.0
 40
0.0
 40
0.0
 40
0.4650643868
 40
1.0
 40
1.0
 40
1.0
 40
1.0
 10
77.0964144606
 20
115.2475349435
 30
0.0
 10
77.2409521915
 20
115.2518814618
 30
0.0
 10
77.5540445911
 20
115.2017222116
 30
0.0
 10
77.8388996428
 20
115.0699883366
 30
0.0
 10
77.9826681903
 20
114.9863481445
 30
0.0
  0
LINE
  5
384
100
AcDbEntity
  8
0
100
AcDbLine
 62
7
  6
CONTINUOUS
 10
82.8299816051
 20
48.9166937922
 30
0.0
 11
82.7981598144
 21
48.8247069148
 31
0.0
  0
SPLINE
  5
385
100
AcDbEntity
  8
RACCORDO
100
AcDbSpline
 62
250
  6
CONTINUOUS
 70
0
 71
3
 72
13
 73
9
 74
0
 42
0.0000001
 43
0.0000001
 44
0.0000000001
 40
0.0
 40
0.0
 40
0.0
 40
0.0
 40
0.276038147
 40
0.5251633108
 40
0.643836753
 40
0.7610782855
 40
0.879081718
 40
1.0
 40
1.0
 40
1.0
 40
1.0
 10
98.8244950246
 20
32.1127967884
 30
0.0
 10
98.8450596438
 20
31.9196776988
 30
0.0
 10
98.8431035941
 20
31.5453009033
 30
0.0
 10
98.7027803274
 20
31.1048926693
 30
0.0
 10
98.5131542996
 20
30.8189788316
 30
0.0
 10
98.3388578527
 20
30.639133549
 30
0.0
 10
98.1332180546
 20
30.4935486016
 30
0.0
 10
97.9797674151
 20
30.4224918566
 30
0.0
 10
97.899920529
 20
30.3931311724
 30
0.0
  0
LINE
  5
386
100
AcDbEntity
  8
0
100
AcDbLine
 62
7
  6
CONTINUOUS
 10
85.5534858307
 20
47.2662639831
 30
0.0
 11
85.3378125489
 21
47.3852314553
 31
0.0
  0
SPLINE
  5
387
100
AcDbEntity
  8
RACCORDO
100
AcDbSpline
 62
250
  6
CONTINUOUS
 70
0
 71
3
 72
9
 73
5
 74
0
 42
0.0000001
 43
0.0000001
 44
0.0000000001
 40
0.0
 40
0.0
 40
0.0
 40
0.0
 40
0.2539178316
 40
1.0
 40
1.0
 40
1.0
 40
1.0
 10
90.8996579822
 20
47.7452929711
 30
0.0
 10
90.9039903105
 20
47.7461323616
 30
0.0
 10
90.9209838391
 20
47.749778713
 30
0.0
 10
90.9376833613
 20
47.7548189064
 30
0.0
 10
90.9498208365
 20
47.7593804213
 30
0.0
  0
SPLINE
  5
388
100
AcDbEntity
  8
RACCORDO
100
AcDbSpline
 62
250
  6
CONTINUOUS
 70
0
 71
3
 72
9
 73
5
 74
0
 42
0.0000001
 43
0.0000001
 44
0.0000000001
 40
0.0
 40
0.0
 40
0.0
 40
0.0
 40
0.2532976918
 40
1.0
 40
1.0
 40
1.0
 40
1.0
 10
97.4481526115
 20
44.9630834889
 30
0.0
 10
97.5014961335
 20
43.8978922037
 30
0.0
 10
97.7431413457
 20
39.6942304311
 30
0.0
 10
98.1105139882
 20
35.4976386
 30
0.0
 10
98.4602757247
 20
32.3731161212
 30
0.0
  0
SPLINE
  5
389
100
AcDbEntity
  8
RACCORDO
100
AcDbSpline
 62
250
  6
CONTINUOUS
 70
0
 71
3
 72
16
 73
12
 74
0
 42
0.0000001
 43
0.0000001
 44
0.0000000001
 40
0.0
 40
0.0
 40
0.0
 40
0.0
 40
0.1310693176
 40
0.250902893
 40
0.3079719124
 40
0.3639441772
 40
0.4753234002
 40
0.5912458526
 40
0.7159796762
 40
0.8520019356
 40
1.0
 40
1.0
 40
1.0
 40
1.0
 10
98.494252872
 20
32.0768715988
 30
0.0
 10
98.5120977705
 20
31.9249438344
 30
0.0
 10
98.5175595766
 20
31.6292459636
 30
0.0
 10
98.4312496364
 20
31.2751054126
 30
0.0
 10
98.3082556176
 20
31.0315449233
 30
0.0
 10
98.15424232
 20
30.8185375685
 30
0.0
 10
97.8982885047
 20
30.5998057883
 30
0.0
 10
97.513528088
 20
30.4401721097
 30
0.0
 10
97.0732851309
 20
30.3827414383
 30
0.0
 10
96.5951857081
 20
30.4290684294
 30
0.0
 10
96.2750576761
 20
30.5220409474
 30
0.0
 10
96.1133687423
 20
30.5828052069
 30
0.0
  0
SPLINE
  5
38A
100
AcDbEntity
  8
RACCORDO
100
AcDbSpline
 62
250
  6
CONTINUOUS
 70
0
 71
3
 72
9
 73
5
 74
0
 42
0.0000001
 43
0.0000001
 44
0.0000000001
 40
0.0
 40
0.0
 40
0.0
 40
0.0
 40
0.2529183479
 40
1.0
 40
1.0
 40
1.0
 40
1.0
 10
95.592304439
 20
30.8030056411
 30
0.0
 10
95.314082376
 20
30.9240911113
 30
0.0
 10
94.2190461461
 20
31.4144008066
 30
0.0
 10
93.1406811139
 20
31.9409619132
 30
0.0
 10
92.338893874
 20
32.3415360199
 30
0.0
  0
SPLINE
  5
38B
100
AcDbEntity
  8
RACCORDO
100
AcDbSpline
 62
250
  6
CONTINUOUS
 70
0
 71
3
 72
11
 73
7
 74
0
 42
0.0000001
 43
0.0000001
 44
0.0000000001
 40
0.0
 40
0.0
 40
0.0
 40
0.0
 40
0.2256338693
 40
0.4568908487
 40
0.7117681931
 40
1.0
 40
1.0
 40
1.0
 40
1.0
 10
90.9498208365
 20
47.7593804213
 30
0.0
 10
90.9820829102
 20
47.7715087127
 30
0.0
 10
91.0436679175
 20
47.8084335018
 30
0.0
 10
91.1100045191
 20
47.8975611784
 30
0.0
 10
91.1461832481
 20
48.0119589475
 30
0.0
 10
91.1501439425
 20
48.0956449019
 30
0.0
 10
91.1480736706
 20
48.1396247423
 30
0.0
  0
SPLINE
  5
38C
100
AcDbEntity
  8
RACCORDO
100
AcDbSpline
 62
250
  6
CONTINUOUS
 70
0
 71
3
 72
10
 73
6
 74
0
 42
0.0000001
 43
0.0000001
 44
0.0000000001
 40
0.0
 40
0.0
 40
0.0
 40
0.0
 40
0.2473392197
 40
0.4967212562
 40
1.0
 40
1.0
 40
1.0
 40
1.0
 10
91.1417853485
 20
48.2738094854
 30
0.0
 10
91.0745750289
 20
49.7167593387
 30
0.0
 10
90.9661849916
 20
52.6158488814
 30
0.0
 10
90.827581545
 20
58.4544972363
 30
0.0
 10
90.7878664862
 20
62.850362129
 30
0.0
 10
90.7878567072
 20
65.7896183193
 30
0.0
  0
SPLINE
  5
38D
100
AcDbEntity
  8
0
100
AcDbSpline
 62
7
  6
CONTINUOUS
 70
0
 71
3
 72
9
 73
5
 74
0
 42
0.0000001
 43
0.0000001
 44
0.0000000001
 40
0.0
 40
0.0
 40
0.0
 40
0.0
 40
0.5003849896
 40
1.0
 40
1.0
 40
1.0
 40
1.0
 10
86.1454874835
 20
46.3401715991
 30
0.0
 10
86.1738097247
 20
46.2399719195
 30
0.0
 10
86.2293762525
 20
46.0394367689
 30
0.0
 10
86.2841944008
 20
45.8386912094
 30
0.0
 10
86.3126783221
 20
45.7387039608
 30
0.0
  0
SPLINE
  5
38E
100
AcDbEntity
  8
0
100
AcDbSpline
 62
7
  6
CONTINUOUS
 70
0
 71
3
 72
12
 73
8
 74
0
 42
0.0000001
 43
0.0000001
 44
0.0000000001
 40
0.0
 40
0.0
 40
0.0
 40
0.0
 40
0.2632308203
 40
0.4559179354
 40
0.642323479
 40
0.82295056
 40
1.0
 40
1.0
 40
1.0
 40
1.0
 10
85.9386963877
 20
46.803961223
 30
0.0
 10
85.9675460347
 20
46.7695874024
 30
0.0
 10
86.0103988622
 20
46.7040124563
 30
0.0
 10
86.0581473884
 20
46.6053952761
 30
0.0
 10
86.0928477804
 20
46.516403063
 30
0.0
 10
86.1211121334
 20
46.4280176221
 30
0.0
 10
86.1372774853
 20
46.3692172936
 30
0.0
 10
86.1454874833
 20
46.3401715992
 30
0.0
  0
SPLINE
  5
38F
100
AcDbEntity
  8
0
100
AcDbSpline
 62
7
  6
CONTINUOUS
 70
0
 71
3
 72
18
 73
14
 74
0
 42
0.0000001
 43
0.0000001
 44
0.0000000001
 40
0.0
 40
0.0
 40
0.0
 40
0.0
 40
0.0742038483
 40
0.1502613954
 40
0.3027868312
 40
0.4505013837
 40
0.5873316477
 40
0.7109355886
 40
0.8201596283
 40
0.8691855008
 40
0.9148751323
 40
0.9580217179
 40
1.0
 40
1.0
 40
1.0
 40
1.0
 10
85.7963730502
 20
47.8713990596
 30
0.0
 10
85.8167528407
 20
47.852723681
 30
0.0
 10
85.8554325057
 20
47.8120815719
 30
0.0
 10
85.9264918803
 20
47.7244147984
 30
0.0
 10
86.003263753
 20
47.6065408716
 30
0.0
 10
86.0724398998
 20
47.4584866561
 30
0.0
 10
86.1142363473
 20
47.3115668282
 30
0.0
 10
86.1303293024
 20
47.1743040742
 30
0.0
 10
86.1231704482
 20
47.0684196687
 30
0.0
 10
86.1012805961
 20
46.9953312519
 30
0.0
 10
86.0781673691
 20
46.949149692
 30
0.0
 10
86.0475890376
 20
46.9106037741
 30
0.0
 10
86.0216956796
 20
46.8916197963
 30
0.0
 10
86.0081510739
 20
46.8838041945
 30
0.0
  0
SPLINE
  5
390
100
AcDbEntity
  8
0
100
AcDbSpline
 62
7
  6
CONTINUOUS
 70
0
 71
3
 72
11
 73
7
 74
0
 42
0.0000001
 43
0.0000001
 44
0.0000000001
 40
0.0
 40
0.0
 40
0.0
 40
0.0
 40
0.2316985409
 40
0.4726854332
 40
0.7269760297
 40
1.0
 40
1.0
 40
1.0
 40
1.0
 10
84.8637970184
 20
48.4059039734
 30
0.0
 10
84.9412712533
 20
48.3749746588
 30
0.0
 10
85.0984050718
 20
48.3094662731
 30
0.0
 10
85.3336788467
 20
48.1942192558
 30
0.0
 10
85.5716891495
 20
48.0527661975
 30
0.0
 10
85.723919943
 20
47.9378306292
 30
0.0
 10
85.7963730502
 20
47.8713990596
 30
0.0
  0
SPLINE
  5
391
100
AcDbEntity
  8
RACCORDO
100
AcDbSpline
 62
250
  6
CONTINUOUS
 70
0
 71
3
 72
9
 73
5
 74
0
 42
0.0000001
 43
0.0000001
 44
0.0000000001
 40
0.0
 40
0.0
 40
0.0
 40
0.0
 40
0.5033912046
 40
1.0
 40
1.0
 40
1.0
 40
1.0
 10
97.0574776255
 20
63.1075670975
 30
0.0
 10
97.0574776255
 20
60.0841848003
 30
0.0
 10
97.1145871428
 20
54.0781751547
 30
0.0
 10
97.2943346612
 20
48.0737943593
 30
0.0
 10
97.4421450881
 20
45.0948121668
 30
0.0
  0
SPLINE
  5
392
100
AcDbEntity
  8
0
100
AcDbSpline
 62
7
  6
CONTINUOUS
 70
0
 71
3
 72
11
 73
7
 74
0
 42
0.0000001
 43
0.0000001
 44
0.0000000001
 40
0.0
 40
0.0
 40
0.0
 40
0.0
 40
0.2878764514
 40
0.5547962473
 40
0.7929938754
 40
1.0
 40
1.0
 40
1.0
 40
1.0
 10
85.4967618354
 20
47.2335122591
 30
0.0
 10
85.5157181589
 20
47.2235190831
 30
0.0
 10
85.5530002774
 20
47.2055873805
 30
0.0
 10
85.6089721374
 20
47.1862979922
 30
0.0
 10
85.6618020319
 20
47.1780237183
 30
0.0
 10
85.6956487956
 20
47.1855439453
 30
0.0
 10
85.7090163595
 20
47.1932089547
 30
0.0
  0
SPLINE
  5
393
100
AcDbEntity
  8
RACCORDO
100
AcDbSpline
 62
250
  6
CONTINUOUS
 70
0
 71
3
 72
9
 73
5
 74
0
 42
0.0000001
 43
0.0000001
 44
0.0000000001
 40
0.0
 40
0.0
 40
0.0
 40
0.0
 40
0.6405231959
 40
1.0
 40
1.0
 40
1.0
 40
1.0
 10
90.8212345891
 20
52.0615970603
 30
0.0
 10
90.8225549215
 20
52.05886672
 30
0.0
 10
90.8245418457
 20
52.0547335845
 30
0.0
 10
90.8244425679
 20
52.0492326493
 30
0.0
 10
90.8232706823
 20
52.0479982229
 30
0.0
  0
SPLINE
  5
394
100
AcDbEntity
  8
RACCORDO
100
AcDbSpline
 62
250
  6
CONTINUOUS
 70
0
 71
3
 72
8
 73
4
 74
0
 42
0.0000001
 43
0.0000001
 44
0.0000000001
 40
0.0
 40
0.0
 40
0.0
 40
0.0
 40
1.0
 40
1.0
 40
1.0
 40
1.0
 10
90.9744296306
 20
48.1587002259
 30
0.0
 10
90.985219689
 20
48.1608681635
 30
0.0
 10
90.9958826536
 20
48.1638801767
 30
0.0
 10
91.0061720231
 20
48.167785838
 30
0.0
  0
SPLINE
  5
395
100
AcDbEntity
  8
RACCORDO
100
AcDbSpline
 62
250
  6
CONTINUOUS
 70
0
 71
3
 72
9
 73
5
 74
0
 42
0.0000001
 43
0.0000001
 44
0.0000000001
 40
0.0
 40
0.0
 40
0.0
 40
0.0
 40
0.281313329
 40
1.0
 40
1.0
 40
1.0
 40
1.0
 10
90.7658466557
 20
48.194707974
 30
0.0
 10
90.7839526169
 20
48.1861670629
 30
0.0
 10
90.8496161771
 20
48.1594769594
 30
0.0
 10
90.9242868883
 20
48.1486274873
 30
0.0
 10
90.9744296306
 20
48.1587002259
 30
0.0
  0
SPLINE
  5
396
100
AcDbEntity
  8
RACCORDO
100
AcDbSpline
 62
250
  6
CONTINUOUS
 70
0
 71
3
 72
9
 73
5
 74
0
 42
0.0000001
 43
0.0000001
 44
0.0000000001
 40
0.0
 40
0.0
 40
0.0
 40
0.0
 40
0.5292666917
 40
1.0
 40
1.0
 40
1.0
 40
1.0
 10
75.3272538673
 20
57.1931834064
 30
0.0
 10
75.3534343112
 20
57.1555084438
 30
0.0
 10
75.407786384
 20
57.0875795733
 30
0.0
 10
75.4726399877
 20
57.0291082819
 30
0.0
 10
75.5059704323
 20
57.0055692543
 30
0.0
  0
SPLINE
  5
397
100
AcDbEntity
  8
RACCORDO
100
AcDbSpline
 62
250
  6
CONTINUOUS
 70
0
 71
3
 72
9
 73
5
 74
0
 42
0.0000001
 43
0.0000001
 44
0.0000000001
 40
0.0
 40
0.0
 40
0.0
 40
0.0
 40
0.470660781
 40
1.0
 40
1.0
 40
1.0
 40
1.0
 10
75.1613671341
 20
57.6229849851
 30
0.0
 10
75.1658376502
 20
57.558507514
 30
0.0
 10
75.1993253979
 20
57.4233345477
 30
0.0
 10
75.2599176398
 20
57.2991077036
 30
0.0
 10
75.2982474404
 20
57.2373445972
 30
0.0
  0
ELLIPSE
  5
398
100
AcDbEntity
  8
RACCORDO
100
AcDbEllipse
 62
7
  6
CONTINUOUS
 10
87.1618367288
 20
54.7042027108
 30
0.0
 11
0.193576202
 21
0.0971400987
 31
0.0
 40
0.7160534512
 41
0.4403889818
 42
1.2258350725
  0
ELLIPSE
  5
399
100
AcDbEntity
  8
RACCORDO
100
AcDbEllipse
 62
7
  6
CONTINUOUS
 10
77.382382133
 20
58.4971552113
 30
0.0
 11
-0.2500120911
 21
0.4330057209
 31
0.0
 40
0.5775075436
 41
0.7855021057
 42
2.355993846
  0
ELLIPSE
  5
39A
100
AcDbEntity
  8
RACCORDO
100
AcDbEllipse
 62
7
  6
CONTINUOUS
 10
90.8592273693
 20
52.5693756942
 30
0.0
 11
0.0497612036
 21
0.2013898992
 31
0.0
 40
0.2927433574
 41
0.5184988287
 42
0.7010273183
  0
ENDSEC
  0
SECTION
  2
OBJECTS
  0
DICTIONARY
  5
C
100
AcDbDictionary
280
0
281
1
  3
ACAD_GROUP
350
D
  3
ACAD_MLINESTYLE
350
17
  3
ACAD_LAYOUT
350
1A
  3
ACAD_PLOTSETTINGS
350
19
  3
ACAD_PLOTSTYLENAME
350
E
  0
DICTIONARY
  5
D
102
{ACAD_REACTORS
330
C
102
}
100
AcDbDictionary
280
0
281
1
  0
ACDBDICTIONARYWDFLT
  5
E
102
{ACAD_REACTORS
330
C
102
}
100
AcDbDictionary
281
1
  3
Normal
350
F
100
AcDbDictionaryWithDefault
340
F
  0
DICTIONARY
  5
17
102
{ACAD_REACTORS
330
C
102
}
100
AcDbDictionary
280
0
281
1
  3
Standard
350
18
  0
DICTIONARY
  5
19
102
{ACAD_REACTORS
330
C
102
}
100
AcDbDictionary
281
1
  0
DICTIONARY
  5
1A
102
{ACAD_REACTORS
330
C
102
}
100
AcDbDictionary
281
1
  3
Model
350
39B
  3
Layout1
350
39C
  0
ACDBPLACEHOLDER
  5
F
102
{ACAD_REACTORS
330
E
102
}
  0
MLINESTYLE
  5
18
102
{ACAD_REACTORS
330
17
102
}
100
AcDbMlineStyle
  2
STANDARD
 70
0
  3

 62
256
 51
90.0
 52
90.0
 71
2
 49
0.5
 62
256
  6
BYLAYER
 49
-0.5
 62
256
  6
BYLAYER
  0
LAYOUT
  5
39B
102
{ACAD_REACTORS
330
1A
102
}
100
AcDbPlotSettings
  1

  2
none_device
  4
ISO_A4_(297.00_x_210.00_MM)
  6

 40
0.0
 41
0.0
 42
0.0
 43
0.0
 44
297.0
 45
210.0
 46
0.0
 47
0.0
 48
0.0
 49
0.0
140
0.0
141
0.0
142
1.0
143
1.0
 70
1024
 72
1
 73
0
 74
0
  7

 75
0
147
1.0
148
0.0
149
0.0
100
AcDbLayout
  1
Model
 70
0
 71
0
 10
0.0
 20
0.0
 11
297.0
 21
210.0
 12
0.0
 22
0.0
 32
0.0
 14
0.0
 24
0.0
 34
0.0
 15
0.0
 25
0.0
 35
0.0
146
0.0
 13
0.0
 23
0.0
 33
0.0
 16
1.0
 26
0.0
 36
0.0
 17
0.0
 27
1.0
 37
0.0
 76
0
330
217
345
0
346
0
  0
LAYOUT
  5
39C
102
{ACAD_REACTORS
330
1A
102
}
100
AcDbPlotSettings
  1

  2
none_device
  4
ISO_A4_(297.00_x_210.00_MM)
  6

 40
0.0
 41
0.0
 42
0.0
 43
0.0
 44
297.0
 45
210.0
 46
0.0
 47
0.0
 48
0.0
 49
0.0
140
0.0
141
0.0
142
1.0
143
1.0
 70
0
 72
1
 73
0
 74
0
  7

 75
0
147
1.0
148
0.0
149
0.0
100
AcDbLayout
  1
Layout1
 70
0
 71
1
 10
0.0
 20
0.0
 11
297.0
 21
210.0
 12
0.0
 22
0.0
 32
0.0
 14
0.0
 24
0.0
 34
0.0
 15
0.0
 25
0.0
 35
0.0
146
0.0
 13
0.0
 23
0.0
 33
0.0
 16
1.0
 26
0.0
 36
0.0
 17
0.0
 27
1.0
 37
0.0
 76
0
330
218
345
0
346
0
  0
ENDSEC
  0
EOF
