  0
SECTION
  2
HEADER
  9
$ACADVER
  1
AC1015
  9
$DWGCODEPAGE
  3
ANSI_1252
  9
$EXTMAX
 10
297.0
 20
210.0
 30
0.0
  9
$EXTMIN
 10
0.0
 20
0.0
 30
0.0
  9
$LIMMIN
 10
0.0
 20
0.0
  9
$LIMMAX
 10
297.0
 20
210.0
  9
$VIEWCTR
 10
148.5
 20
105.0
  9
$VIEWSIZE
 40
210.0
  9
$CLAYER
  8
0
  9
$LTSCALE
 40
16.335
  9
$CELTYPE
  6
BYLAYER
  9
$DIMSCALE
 40
1.0
  9
$DIMASZ
 40
3.0
  9
$DIMEXO
 40
0.5
  9
$DIMDLI
 40
11.286
  9
$DIMEXE
 40
1.5
  9
$DIMCEN
 40
2.673
  9
$DIMLFAC
 40
1.0
  9
$DIMBLK
  1
_FILLED
  9
$DIMALT
 70
0
  9
$DIMALTF
 40
0.0393700787
  9
$DIMTXT
 40
3.0
  9
$DIMTOL
 70
1
  9
$DIMLIM
 70
0
  9
$DIMTFAC
 40
1.0
  9
$DIMTP
 40
0.01
  9
$DIMTM
 40
0.01
  9
$DIMGAP
 40
0.625
  9
$DIMDSEP
 70
44
  9
$AUNITS
 70
0
  9
$PDMODE
 70
3
  9
$PDSIZE
 40
3.0
  9
$HANDSEED
  5
5D1
  9
$TILEMODE
 70
1
  9
$MEASUREMENT
 70
1
  9
$INSUNITS
 70
4
  0
ENDSEC
  0
SECTION
  2
CLASSES
  0
CLASS
  1
ACDBDICTIONARYWDFLT
  2
AcDbDictionaryWithDefault
  3
AutoCAD 2000
 90
0
280
0
281
0
  0
CLASS
  1
ACDBPLACEHOLDER
  2
AcDbPlaceHolder
  3
AutoCAD 2000
 90
0
280
0
281
0
  0
CLASS
  1
LAYOUT
  2
AcDbLayout
  3
AutoCAD 2000
 90
0
280
0
281
0
  0
ENDSEC
  0
SECTION
  2
TABLES
  0
TABLE
  2
VPORT
  5
8
100
AcDbSymbolTable
 70
2
  0
VPORT
  5
1F4
100
AcDbSymbolTableRecord
100
AcDbViewportTableRecord
  2
*ACTIVE
 70
0
 10
0.0
 20
0.0
 11
1.0
 21
1.0
 12
148.5
 22
105.0
 13
0.0
 23
0.0
 14
1.0
 24
1.0
 15
0.0
 25
0.0
 16
0.0
 26
0.0
 36
1.0
 17
0.0
 27
0.0
 37
0.0
 40
210.0
 41
1.4142857143
 42
50.0
 43
0.0
 44
0.0
 50
0.0
 51
0.0
 71
0
 72
100
 73
1
 74
1
 75
0
 76
0
 77
0
 78
0
  0
ENDTAB
  0
TABLE
  2
LTYPE
  5
5
100
AcDbSymbolTable
 70
6
  0
LTYPE
  5
14
100
AcDbSymbolTableRecord
100
AcDbLinetypeTableRecord
  2
BYBLOCK
 70
0
  3

 72
65
 73
0
 40
0.0
  0
LTYPE
  5
15
100
AcDbSymbolTableRecord
100
AcDbLinetypeTableRecord
  2
BYLAYER
 70
0
  3

 72
65
 73
0
 40
0.0
  0
LTYPE
  5
16
100
AcDbSymbolTableRecord
100
AcDbLinetypeTableRecord
  2
CONTINUOUS
 70
64
  3
Solid line
 72
65
 73
0
 40
0.0
  0
LTYPE
  5
1F5
100
AcDbSymbolTableRecord
100
AcDbLinetypeTableRecord
  2
CENTER
 70
64
  3
____ _ ____ _ ____ _ ____ _ ____ _ ____ _ ____
 72
65
 73
4
 40
0.6
 49
0.375
 74
0
 49
-0.075
 74
0
 49
0.075
 74
0
 49
-0.075
 74
0
  0
LTYPE
  5
1F6
100
AcDbSymbolTableRecord
100
AcDbLinetypeTableRecord
  2
HIDDEN
 70
64
  3
- - - - - - - - - - - - - - - - - - - -
 72
65
 73
2
 40
0.2
 49
0.1
 74
0
 49
-0.1
 74
0
  0
LTYPE
  5
1F7
100
AcDbSymbolTableRecord
100
AcDbLinetypeTableRecord
  2
PHANTOM
 70
64
  3
_____ _ _ _____ _ _ _____ _ _ _____
 72
65
 73
6
 40
0.8
 49
0.45
 74
0
 49
-0.05
 74
0
 49
0.1
 74
0
 49
-0.05
 74
0
 49
0.1
 74
0
 49
-0.05
 74
0
  0
LTYPE
  5
1F8
100
AcDbSymbolTableRecord
100
AcDbLinetypeTableRecord
  2
DOT
 70
64
  3
. . . . . . . . . . . . . . . . . . . .
 72
65
 73
2
 40
0.2
 49
0.1
 74
0
 49
-0.1
 74
0
  0
LTYPE
  5
1F9
100
AcDbSymbolTableRecord
100
AcDbLinetypeTableRecord
  2
DASHED
 70
64
  3
- - - - - - - - - - - - - - - - - - - -
 72
65
 73
2
 40
0.2
 49
0.1
 74
0
 49
-0.1
 74
0
  0
ENDTAB
  0
TABLE
  2
LAYER
  5
2
100
AcDbSymbolTable
 70
36
  0
LAYER
  5
10
100
AcDbSymbolTableRecord
100
AcDbLayerTableRecord
  2
0
 70
0
 62
7
  6
CONTINUOUS
370
-3
390
F
  0
LAYER
  5
1FA
100
AcDbSymbolTableRecord
100
AcDbLayerTableRecord
  2
DEFAULT_1
 70
0
 62
7
  6
CENTER
370
-3
390
F
  0
LAYER
  5
1FB
100
AcDbSymbolTableRecord
100
AcDbLayerTableRecord
  2
DEFAULT_2
 70
0
 62
7
  6
HIDDEN
370
-3
390
F
  0
LAYER
  5
1FC
100
AcDbSymbolTableRecord
100
AcDbLayerTableRecord
  2
DEFAULT_3
 70
0
 62
7
  6
PHANTOM
370
-3
390
F
  0
LAYER
  5
1FD
100
AcDbSymbolTableRecord
100
AcDbLayerTableRecord
  2
ALTRI_PIANI
 70
0
 62
7
  6
CONTINUOUS
370
-3
390
F
  0
LAYER
  5
1FE
100
AcDbSymbolTableRecord
100
AcDbLayerTableRecord
  2
ASSI
 70
0
 62
7
  6
CONTINUOUS
370
-3
390
F
  0
LAYER
  5
1FF
100
AcDbSymbolTableRecord
100
AcDbLayerTableRecord
  2
COORDINATE
 70
0
 62
7
  6
CONTINUOUS
370
-3
390
F
  0
LAYER
  5
200
100
AcDbSymbolTableRecord
100
AcDbLayerTableRecord
  2
COORD_ORIGINE
 70
0
 62
7
  6
CONTINUOUS
370
-3
390
F
  0
LAYER
  5
201
100
AcDbSymbolTableRecord
100
AcDbLayerTableRecord
  2
COPY_PUBLISH
 70
0
 62
7
  6
CONTINUOUS
370
-3
390
F
  0
LAYER
  5
202
100
AcDbSymbolTableRecord
100
AcDbLayerTableRecord
  2
COSMETIC
 70
0
 62
7
  6
CONTINUOUS
370
-3
390
F
  0
LAYER
  5
203
100
AcDbSymbolTableRecord
100
AcDbLayerTableRecord
  2
COSMETICI
 70
0
 62
7
  6
CONTINUOUS
370
-3
390
F
  0
LAYER
  5
204
100
AcDbSymbolTableRecord
100
AcDbLayerTableRecord
  2
CURVE
 70
0
 62
7
  6
CONTINUOUS
370
-3
390
F
  0
LAYER
  5
205
100
AcDbSymbolTableRecord
100
AcDbLayerTableRecord
  2
DRAFT
 70
0
 62
7
  6
CONTINUOUS
370
-3
390
F
  0
LAYER
  5
206
100
AcDbSymbolTableRecord
100
AcDbLayerTableRecord
  2
IMPORT_IGES
 70
0
 62
7
  6
CONTINUOUS
370
-3
390
F
  0
LAYER
  5
207
100
AcDbSymbolTableRecord
100
AcDbLayerTableRecord
  2
INTF_RED
 70
0
 62
7
  6
CONTINUOUS
370
-3
390
F
  0
LAYER
  5
208
100
AcDbSymbolTableRecord
100
AcDbLayerTableRecord
  2
NOTE
 70
0
 62
7
  6
CONTINUOUS
370
-3
390
F
  0
LAYER
  5
209
100
AcDbSymbolTableRecord
100
AcDbLayerTableRecord
  2
PIANI
 70
0
 62
7
  6
CONTINUOUS
370
-3
390
F
  0
LAYER
  5
20A
100
AcDbSymbolTableRecord
100
AcDbLayerTableRecord
  2
PIANI_ORIGINE
 70
0
 62
7
  6
CONTINUOUS
370
-3
390
F
  0
LAYER
  5
20B
100
AcDbSymbolTableRecord
100
AcDbLayerTableRecord
  2
PUNTI
 70
0
 62
7
  6
CONTINUOUS
370
-3
390
F
  0
LAYER
  5
20C
100
AcDbSymbolTableRecord
100
AcDbLayerTableRecord
  2
RACCORDO
 70
0
 62
7
  6
CONTINUOUS
370
-3
390
F
  0
LAYER
  5
20D
100
AcDbSymbolTableRecord
100
AcDbLayerTableRecord
  2
SIMBOLI
 70
0
 62
7
  6
CONTINUOUS
370
-3
390
F
  0
LAYER
  5
20E
100
AcDbSymbolTableRecord
100
AcDbLayerTableRecord
  2
SNAPLINE
 70
0
 62
7
  6
CONTINUOUS
370
-3
390
F
  0
LAYER
  5
20F
100
AcDbSymbolTableRecord
100
AcDbLayerTableRecord
  2
SUPERFICI
 70
0
 62
7
  6
CONTINUOUS
370
-3
390
F
  0
LAYER
  5
210
100
AcDbSymbolTableRecord
100
AcDbLayerTableRecord
  2
TRASH
 70
0
 62
7
  6
CONTINUOUS
370
-3
390
F
  0
ENDTAB
  0
TABLE
  2
STYLE
  5
3
100
AcDbSymbolTable
 70
1
  0
STYLE
  5
11
100
AcDbSymbolTableRecord
100
AcDbTextStyleTableRecord
  2
STANDARD
 70
0
 40
0.0
 41
0.8
 50
0.0
 71
0
 42
0.2
  3
txt
  4

  0
STYLE
  5
211
100
AcDbSymbolTableRecord
100
AcDbTextStyleTableRecord
  2
TEXTSTYLE_1
 70
0
 40
0.0
 41
0.8
 50
0.0
 71
0
 42
0.2
  3
gdt
  4

  0
ENDTAB
  0
TABLE
  2
VIEW
  5
6
100
AcDbSymbolTable
 70
0
  0
ENDTAB
  0
TABLE
  2
UCS
  5
7
100
AcDbSymbolTable
 70
0
  0
ENDTAB
  0
TABLE
  2
APPID
  5
9
100
AcDbSymbolTable
 70
1
  0
APPID
  5
212
100
AcDbSymbolTableRecord
100
AcDbRegAppTableRecord
  2
ACAD
 70
0
  0
ENDTAB
  0
TABLE
  2
BLOCK_RECORD
  5
1
100
AcDbSymbolTable
 70
0
  0
BLOCK_RECORD
  5
213
100
AcDbSymbolTableRecord
100
AcDbBlockTableRecord
  2
*Model_Space
  0
BLOCK_RECORD
  5
214
100
AcDbSymbolTableRecord
100
AcDbBlockTableRecord
  2
*Paper_Space
  0
ENDTAB
  0
TABLE
  2
DIMSTYLE
  5
A
100
AcDbSymbolTable
 70
1
100
AcDbDimStyleTable
 71
0
  0
DIMSTYLE
105
215
100
AcDbSymbolTableRecord
100
AcDbDimStyleTableRecord
  2
STANDARD
 70
0
  3

  4

 40
1.0
 41
3.0
 42
0.5
 43
0.38
 44
1.5
 45
0.0
 46
0.0
 47
0.01
 48
0.01
140
3.0
141
0.09
142
0.0
143
25.4
144
1.0
145
0.0
146
1.0
147
0.625
 71
1.0
 72
0.0
 73
0
 74
0
 75
0
 76
0
 77
1
 78
8
170
0
171
2
172
0
173
0
174
0
175
0
176
0
177
0
178
0
270
2
271
2
272
2
273
2
274
2
275
0
280
0
281
0
282
0
283
1
284
8
285
0
286
0
287
3
288
0
340
11
278
44
  0
ENDTAB
  0
ENDSEC
  0
SECTION
  2
BLOCKS
  0
BLOCK
  5
20
100
AcDbEntity
  8
0
100
AcDbBlockBegin
  2
*Model_Space
 70
0
 10
0.0
 20
0.0
 30
0.0
  3
*Model_Space
  1

  0
ENDBLK
  5
21
100
AcDbEntity
  8
0
100
AcDbBlockEnd
  0
BLOCK
  5
1C
100
AcDbEntity
  8
0
100
AcDbBlockBegin
  2
*Paper_Space
 70
0
 10
0.0
 20
0.0
 30
0.0
  3
*Paper_Space
  1

  0
ENDBLK
  5
1D
100
AcDbEntity
  8
0
100
AcDbBlockEnd
  0
ENDSEC
  0
SECTION
  2
ENTITIES
  0
LWPOLYLINE
  5
216
100
AcDbEntity
  8
0
100
AcDbPolyline
 62
7
  6
CONTINUOUS
 90
4
 70
0
 10
-74.632055193
 20
100.7797495191
 10
-74.7884067224
 20
100.5600950036
 10
-74.918372222
 20
100.3088342663
 10
-75.0178644522
 20
100.0289695313
  0
LWPOLYLINE
  5
217
100
AcDbEntity
  8
0
100
AcDbPolyline
 62
253
  6
CONTINUOUS
 90
4
 70
0
 10
-74.6746398164
 20
99.9098917205
 10
-74.540665754
 20
100.058533399
 10
-74.3912854856
 20
100.1706107939
 10
-74.224678304
 20
100.240015934
  0
LWPOLYLINE
  5
218
100
AcDbEntity
  8
0
100
AcDbPolyline
 62
7
  6
CONTINUOUS
 90
3
 70
0
 10
-74.2995664845
 20
101.0877323851
 10
-74.4492571862
 20
100.9693015585
 10
-74.632055193
 20
100.7797495191
  0
LINE
  5
219
100
AcDbEntity
  8
0
100
AcDbLine
 62
7
  6
CONTINUOUS
 10
-69.9696125532
 20
104.1436650669
 11
-74.301914069
 21
101.08576892
  0
LINE
  5
21A
100
AcDbEntity
  8
0
100
AcDbLine
 62
253
  6
CONTINUOUS
 10
-72.716569358
 20
101.0045745815
 11
-68.4137265288
 21
104.0416985868
  0
LINE
  5
21B
100
AcDbEntity
  8
0
100
AcDbLine
 62
7
  6
CONTINUOUS
 10
-74.2397110221
 20
101.1278629519
 11
-74.2995664845
 21
101.0877323851
  0
LWPOLYLINE
  5
21C
100
AcDbEntity
  8
0
100
AcDbPolyline
 62
7
  6
CONTINUOUS
 90
9
 70
0
 10
-69.9687229307
 20
104.1422192443
 10
-69.8133178186
 20
104.2312157038
 10
-69.6417394219
 20
104.2925086165
 10
-69.4564509192
 20
104.3224728902
 10
-69.2579771499
 20
104.3226489948
 10
-69.0537739498
 20
104.2945392408
 10
-68.8463265977
 20
104.2386443984
 10
-68.6331498147
 20
104.1544636974
 10
-68.414243601
 20
104.0419971379
  0
LWPOLYLINE
  5
21D
100
AcDbEntity
  8
0
100
AcDbPolyline
 62
253
  6
CONTINUOUS
 90
10
 70
0
 10
-65.6703678636
 20
96.8217261015
 10
-65.7606627638
 20
96.757275161
 10
-65.8490200786
 20
96.6805293492
 10
-65.9339386688
 20
96.5926997695
 10
-66.0138532127
 20
96.4953387661
 10
-66.0874970137
 20
96.3899185767
 10
-66.1538293794
 20
96.2777108116
 10
-66.211626126
 20
96.1603833098
 10
-66.2596051807
 20
96.0400695582
 10
-66.2967229002
 20
95.9188703404
  0
LWPOLYLINE
  5
21E
100
AcDbEntity
  8
0
100
AcDbPolyline
 62
253
  6
CONTINUOUS
 90
10
 70
0
 10
-63.99383688
 20
88.0303801207
 10
-64.3645577666
 20
87.4710944673
 10
-64.71887472
 20
86.9189944648
 10
-65.0568483871
 20
86.3740554626
 10
-65.3783335018
 20
85.8366035292
 10
-65.6836171461
 20
85.3062549534
 10
-65.973314986
 20
84.781958421
 10
-66.2475687138
 20
84.2633893162
 10
-66.5061498113
 20
83.7509075463
 10
-66.7490252074
 20
83.2445265535
  0
LWPOLYLINE
  5
21F
100
AcDbEntity
  8
0
100
AcDbPolyline
 62
253
  6
CONTINUOUS
 90
10
 70
0
 10
-65.2248492269
 20
93.2129369692
 10
-65.8789795575
 20
92.4421025838
 10
-66.4986845094
 20
91.6834483981
 10
-67.0840629526
 20
90.9368884684
 10
-67.6356454204
 20
90.2014734501
 10
-68.15296538
 20
89.4781623582
 10
-68.6346479054
 20
88.7697660555
 10
-69.0801845597
 20
88.0773005519
 10
-69.4898188408
 20
87.4000469233
 10
-69.863405951
 20
86.7382102775
  0
LWPOLYLINE
  5
220
100
AcDbEntity
  8
RACCORDO
100
AcDbPolyline
 62
7
  6
CONTINUOUS
 90
6
 70
0
 10
-59.3518694051
 20
87.5211527956
 10
-59.3762230684
 20
87.498393254
 10
-59.396527259
 20
87.4717973669
 10
-59.4121950912
 20
87.4419956655
 10
-59.4226901894
 20
87.4097771032
 10
-59.4240890914
 20
87.4033271725
  0
LWPOLYLINE
  5
221
100
AcDbEntity
  8
RACCORDO
100
AcDbPolyline
 62
253
  6
CONTINUOUS
 90
3
 70
0
 10
-59.2740898226
 20
87.4918894539
 10
-59.251538473
 20
87.5115554167
 10
-59.2283486106
 20
87.5272292489
  0
LINE
  5
222
100
AcDbEntity
  8
RACCORDO
100
AcDbLine
 62
253
  6
CONTINUOUS
 10
-59.2283486106
 20
87.5272292489
 11
-59.2051483136
 21
87.5384864377
  0
LWPOLYLINE
  5
223
100
AcDbEntity
  8
RACCORDO
100
AcDbPolyline
 62
7
  6
CONTINUOUS
 90
3
 70
0
 10
-59.3011799026
 20
87.5502732168
 10
-59.3241786391
 20
87.5394930655
 10
-59.3518694051
 20
87.5211527956
  0
LINE
  5
224
100
AcDbEntity
  8
RACCORDO
100
AcDbLine
 62
7
  6
CONTINUOUS
 10
-59.3018014682
 20
87.5500289858
 11
-59.0970304265
 21
87.6313753531
  0
LINE
  5
225
100
AcDbEntity
  8
RACCORDO
100
AcDbLine
 62
253
  6
CONTINUOUS
 10
-59.2051483136
 20
87.5384864377
 11
-59.0457926556
 21
87.6017913063
  0
LINE
  5
226
100
AcDbEntity
  8
RACCORDO
100
AcDbLine
 62
253
  6
CONTINUOUS
 10
-59.3018014682
 20
87.5500289858
 11
-59.3011799026
 21
87.5502732168
  0
LWPOLYLINE
  5
227
100
AcDbEntity
  8
0
100
AcDbPolyline
 62
7
  6
CONTINUOUS
 90
3
 70
0
 10
-75.0178644522
 20
100.0289695313
 10
-75.0829075009
 20
99.7279061669
 10
-75.1113705197
 20
99.4496657375
  0
LWPOLYLINE
  5
228
100
AcDbEntity
  8
0
100
AcDbPolyline
 62
253
  6
CONTINUOUS
 90
10
 70
0
 10
-73.3282577545
 20
100.1066764356
 10
-73.298907523
 20
100.230700983
 10
-73.2572859197
 20
100.3492488115
 10
-73.2049622747
 20
100.4635308639
 10
-73.1409529843
 20
100.5762650469
 10
-73.0660950871
 20
100.6846203599
 10
-72.985243171
 20
100.7819120949
 10
-72.901078328
 20
100.8667321791
 10
-72.8117943786
 20
100.9411637947
 10
-72.7165707511
 20
101.0045737633
  0
LWPOLYLINE
  5
229
100
AcDbEntity
  8
0
100
AcDbPolyline
 62
253
  6
CONTINUOUS
 90
10
 70
0
 10
-62.5362678895
 20
79.0718958577
 10
-62.6267448812
 20
78.964949254
 10
-62.7077382405
 20
78.8407246349
 10
-62.7791443885
 20
78.7012761674
 10
-62.84134158
 20
78.549185782
 10
-62.8937424603
 20
78.3857345914
 10
-62.9347806597
 20
78.2111447941
 10
-62.9638450723
 20
78.0269066644
 10
-62.9812934634
 20
77.8355370796
 10
-62.9869960192
 20
77.6389194161
  0
LWPOLYLINE
  5
22A
100
AcDbEntity
  8
0
100
AcDbPolyline
 62
253
  6
CONTINUOUS
 90
10
 70
0
 10
-62.4998636734
 20
79.1102829874
 10
-62.5039548946
 20
79.1061227331
 10
-62.5080346435
 20
79.1019359551
 10
-62.5121029129
 20
79.0977227948
 10
-62.5161598128
 20
79.0934834633
 10
-62.5202052189
 20
79.0892180307
 10
-62.5242387721
 20
79.0849264305
 10
-62.5282603479
 20
79.0806087378
 10
-62.5322700562
 20
79.0762651657
 10
-62.5362678895
 20
79.0718958577
  0
LWPOLYLINE
  5
22B
100
AcDbEntity
  8
ASSI
100
AcDbPolyline
 62
7
  6
CONTINUOUS
 90
3
 70
0
 10
-60.5259530116
 20
80.075175419
 10
-60.2958790534
 20
80.2253693894
 10
-60.2471796694
 20
80.256243825
  0
LINE
  5
22C
100
AcDbEntity
  8
0
100
AcDbLine
 62
253
  6
CONTINUOUS
 10
-60.657669423
 20
76.2912393297
 11
-60.5560968842
 21
76.3383808464
  0
LWPOLYLINE
  5
22D
100
AcDbEntity
  8
0
100
AcDbPolyline
 62
253
  6
CONTINUOUS
 90
5
 70
0
 10
-74.9377591149
 20
99.1448758794
 10
-74.9080729237
 20
99.3676185121
 10
-74.85607108
 20
99.5667905476
 10
-74.7804768344
 20
99.7443484502
 10
-74.6746398164
 20
99.9098917205
  0
LINE
  5
22E
100
AcDbEntity
  8
0
100
AcDbLine
 62
7
  6
CONTINUOUS
 10
50.059799165
 20
-86.680030092
 11
50.1592214773
 21
-86.6765162203
  0
LWPOLYLINE
  5
22F
100
AcDbEntity
  8
0
100
AcDbPolyline
 62
7
  6
CONTINUOUS
 90
6
 70
0
 10
68.4861281359
 20
-104.2286184137
 10
68.7666655435
 20
-104.2813328202
 10
69.0380236877
 20
-104.293839393
 10
69.2960367111
 20
-104.2667291206
 10
69.5433983413
 20
-104.1993720311
 10
69.6651595198
 20
-104.1487388864
  0
LWPOLYLINE
  5
230
100
AcDbEntity
  8
0
100
AcDbPolyline
 62
7
  6
CONTINUOUS
 90
3
 70
0
 10
-75.1350554853
 20
98.3546358589
 10
-75.1394119149
 20
97.9828864374
 10
-75.1457287581
 20
97.6007450511
  0
LINE
  5
231
100
AcDbEntity
  8
0
100
AcDbLine
 62
7
  6
CONTINUOUS
 10
-75.1590592709
 20
97.0424302966
 11
-75.1589652764
 21
97.0503225885
  0
LINE
  5
232
100
AcDbEntity
  8
0
100
AcDbLine
 62
253
  6
CONTINUOUS
 10
-74.9824126964
 20
97.4948577376
 11
-74.9732293536
 21
98.0247948357
  0
LWPOLYLINE
  5
233
100
AcDbEntity
  8
0
100
AcDbPolyline
 62
253
  6
CONTINUOUS
 90
3
 70
0
 10
-74.9732293536
 20
98.0247948357
 10
-74.9673782897
 20
98.2982389853
 10
-74.9589328673
 20
98.5765954887
  0
LWPOLYLINE
  5
234
100
AcDbEntity
  8
0
100
AcDbPolyline
 62
253
  6
CONTINUOUS
 90
3
 70
0
 10
-75.0050022494
 20
96.7500394833
 10
-74.9967936075
 20
96.9908318499
 10
-74.9824126964
 20
97.4948577376
  0
LINE
  5
235
100
AcDbEntity
  8
0
100
AcDbLine
 62
253
  6
CONTINUOUS
 10
-74.9589328673
 20
98.5765954887
 11
-74.9377591149
 21
99.1448758794
  0
LWPOLYLINE
  5
236
100
AcDbEntity
  8
0
100
AcDbPolyline
 62
7
  6
CONTINUOUS
 90
3
 70
0
 10
-75.1116772486
 20
99.4446733198
 10
-75.1269602601
 20
99.0745900984
 10
-75.1327336206
 20
98.718113866
  0
LINE
  5
237
100
AcDbEntity
  8
0
100
AcDbLine
 62
7
  6
CONTINUOUS
 10
-75.1116313644
 20
99.4446287503
 11
-75.1113705197
 21
99.4496657375
  0
LWPOLYLINE
  5
238
100
AcDbEntity
  8
RACCORDO
100
AcDbPolyline
 62
253
  6
CONTINUOUS
 90
7
 70
0
 10
-59.3649882483
 20
87.3254414061
 10
-59.3573940657
 20
87.3552290969
 10
-59.346294359
 20
87.3852586264
 10
-59.3319897545
 20
87.4147166695
 10
-59.3148676806
 20
87.4428053794
 10
-59.2953918746
 20
87.4687639968
 10
-59.2740898226
 20
87.4918894539
  0
LWPOLYLINE
  5
239
100
AcDbEntity
  8
0
100
AcDbPolyline
 62
253
  6
CONTINUOUS
 90
10
 70
0
 10
51.5623152909
 20
-83.2115598407
 10
51.7631096802
 20
-83.2320972896
 10
51.9619899676
 20
-83.2607364846
 10
52.1580473926
 20
-83.2973634558
 10
52.351001215
 20
-83.3420242021
 10
52.5391894991
 20
-83.3944749743
 10
52.7197818477
 20
-83.4539271753
 10
52.8914134479
 20
-83.519781501
 10
53.0539714666
 20
-83.5918827973
 10
53.2067353864
 20
-83.6698914648
  0
LWPOLYLINE
  5
23A
100
AcDbEntity
  8
0
100
AcDbPolyline
 62
253
  6
CONTINUOUS
 90
10
 70
0
 10
69.093213625
 20
-100.5476728536
 10
69.2224396533
 20
-100.5858088816
 10
69.359679197
 20
-100.6126385151
 10
69.5019835477
 20
-100.6276470565
 10
69.6473591922
 20
-100.6305499919
 10
69.7916827898
 20
-100.6211940863
 10
69.9289333215
 20
-100.6004231161
 10
70.0557447191
 20
-100.5697282269
 10
70.171244038
 20
-100.5303216528
 10
70.2740113753
 20
-100.4835926828
  0
LINE
  5
23B
100
AcDbEntity
  8
0
100
AcDbLine
 62
7
  6
CONTINUOUS
 10
68.2045727583
 20
-104.1374656577
 11
68.4861281359
 21
-104.2286184137
  0
LWPOLYLINE
  5
23C
100
AcDbEntity
  8
0
100
AcDbPolyline
 62
7
  6
CONTINUOUS
 90
4
 70
0
 10
-74.8642428118
 20
-20.4390982782
 10
-74.7069840498
 20
-20.7982533093
 10
-74.5135734337
 20
-21.1497766059
 10
-74.2880596098
 20
-21.4836567667
  0
LINE
  5
23D
100
AcDbEntity
  8
0
100
AcDbLine
 62
7
  6
CONTINUOUS
 10
-74.9851726941
 20
-20.076473832
 11
-74.8642428118
 21
-20.4390982782
  0
LWPOLYLINE
  5
23E
100
AcDbEntity
  8
0
100
AcDbPolyline
 62
253
  6
CONTINUOUS
 90
3
 70
0
 10
-75.1272995314
 20
-17.1876678394
 10
-75.1532887813
 20
-17.1055057636
 10
-75.1590592709
 20
-17.0437556195
  0
LWPOLYLINE
  5
23F
100
AcDbEntity
  8
0
100
AcDbPolyline
 62
253
  6
CONTINUOUS
 90
7
 70
0
 10
-74.85607108
 20
-20.1200371298
 10
-74.7804768344
 20
-20.3645816343
 10
-74.6746398164
 20
-20.6313192864
 10
-74.540665754
 20
-20.9108958943
 10
-74.3912854856
 20
-21.1720299281
 10
-74.224678304
 20
-21.4138510548
 10
-74.0397649705
 20
-21.6460505591
  0
LWPOLYLINE
  5
240
100
AcDbEntity
  8
0
100
AcDbPolyline
 62
253
  6
CONTINUOUS
 90
3
 70
0
 10
-74.9377591149
 20
-19.6534664077
 10
-74.9080729237
 20
-19.8835437363
 10
-74.85607108
 20
-20.1200371298
  0
LWPOLYLINE
  5
241
100
AcDbEntity
  8
0
100
AcDbPolyline
 62
7
  6
CONTINUOUS
 90
3
 70
0
 10
-75.1115905788
 20
-19.3445838919
 10
-75.0685143408
 20
-19.7133950397
 10
-74.9851726941
 20
-20.076473832
  0
LINE
  5
242
100
AcDbEntity
  8
0
100
AcDbLine
 62
253
  6
CONTINUOUS
 10
-74.9489913936
 20
-19.3915040865
 11
-74.9377591149
 21
-19.6534664077
  0
LINE
  5
243
100
AcDbEntity
  8
0
100
AcDbLine
 62
253
  6
CONTINUOUS
 10
-70.0304290529
 20
-11.7323066212
 11
-69.8638621482
 21
-16.1730829787
  0
LWPOLYLINE
  5
244
100
AcDbEntity
  8
0
100
AcDbPolyline
 62
7
  6
CONTINUOUS
 90
3
 70
0
 10
-75.1299302712
 20
-18.8673021988
 10
-75.1176630433
 20
-19.2335549374
 10
-75.1116830931
 20
-19.34305745
  0
LINE
  5
245
100
AcDbEntity
  8
0
100
AcDbLine
 62
253
  6
CONTINUOUS
 10
-75.0050022494
 20
-17.3358743153
 11
-74.9892424048
 21
-17.8444968234
  0
LINE
  5
246
100
AcDbEntity
  8
0
100
AcDbLine
 62
253
  6
CONTINUOUS
 10
-74.9892424048
 20
-17.8444968234
 11
-74.9824126964
 21
-18.1007429395
  0
LINE
  5
247
100
AcDbEntity
  8
0
100
AcDbLine
 62
7
  6
CONTINUOUS
 10
-75.1441129458
 20
-17.6964908618
 11
-75.1371093491
 21
-18.1041333565
  0
LWPOLYLINE
  5
248
100
AcDbEntity
  8
0
100
AcDbPolyline
 62
253
  6
CONTINUOUS
 90
5
 70
0
 10
-74.9824126964
 20
-18.1007429395
 10
-74.9732293536
 20
-18.6098920727
 10
-74.9673782897
 20
-18.8676193784
 10
-74.9589328673
 20
-19.1291187218
 10
-74.9489913936
 20
-19.3915040865
  0
LINE
  5
249
100
AcDbEntity
  8
0
100
AcDbLine
 62
7
  6
CONTINUOUS
 10
-75.1371093491
 20
-18.1041333565
 11
-75.1299302712
 21
-18.8673021988
  0
LWPOLYLINE
  5
24A
100
AcDbEntity
  8
0
100
AcDbPolyline
 62
7
  6
CONTINUOUS
 90
3
 70
0
 10
-75.1495037851
 20
-17.0401747221
 10
-75.1486978866
 20
-17.2717109515
 10
-75.1441129458
 20
-17.6964908618
  0
LINE
  5
24B
100
AcDbEntity
  8
0
100
AcDbLine
 62
253
  6
CONTINUOUS
 10
-75.0147991644
 20
-17.3415123666
 11
-75.0187414177
 21
-7.4047182301
  0
LINE
  5
24C
100
AcDbEntity
  8
0
100
AcDbLine
 62
7
  6
CONTINUOUS
 10
-75.1590592709
 20
-17.0437556195
 11
-75.1590592709
 21
97.0424302966
  0
LINE
  5
24D
100
AcDbEntity
  8
0
100
AcDbLine
 62
7
  6
CONTINUOUS
 10
-75.0187414177
 20
-7.4047182301
 11
-75.0190424559
 21
86.8147952033
  0
LINE
  5
24E
100
AcDbEntity
  8
0
100
AcDbLine
 62
253
  6
CONTINUOUS
 10
-75.0147991644
 20
96.7446486748
 11
-75.0190424559
 21
86.8147952033
  0
LINE
  5
24F
100
AcDbEntity
  8
0
100
AcDbLine
 62
7
  6
CONTINUOUS
 10
-75.1327336206
 20
98.718113866
 11
-75.1350554853
 21
98.3546358589
  0
LWPOLYLINE
  5
250
100
AcDbEntity
  8
0
100
AcDbPolyline
 62
7
  6
CONTINUOUS
 90
3
 70
0
 10
-75.1457287581
 20
97.6007450511
 10
-75.1490817429
 20
97.2072991925
 10
-75.1495029902
 20
97.0498506234
  0
LINE
  5
251
100
AcDbEntity
  8
0
100
AcDbLine
 62
253
  6
CONTINUOUS
 10
-70.0304100687
 20
82.4878259078
 11
-69.8637655392
 21
86.7386819023
  0
LWPOLYLINE
  5
252
100
AcDbEntity
  8
RACCORDO
100
AcDbPolyline
 62
253
  6
CONTINUOUS
 90
6
 70
0
 10
-59.4241982656
 20
87.4027793716
 10
-59.4245064509
 20
87.4008911823
 10
-59.4234996552
 20
87.3853829869
 10
-59.4166106667
 20
87.3701359263
 10
-59.404349377
 20
87.3556697563
 10
-59.3871369638
 20
87.3409157945
  0
LWPOLYLINE
  5
253
100
AcDbEntity
  8
ASSI
100
AcDbPolyline
 62
7
  6
CONTINUOUS
 90
4
 70
0
 10
-59.8536030376
 20
85.7597169919
 10
-59.7945785924
 20
86.1056050626
 10
-59.733434315
 20
86.4521883959
 10
-59.6701702056
 20
86.7994669918
  0
LWPOLYLINE
  5
254
100
AcDbEntity
  8
ASSI
100
AcDbPolyline
 62
7
  6
CONTINUOUS
 90
3
 70
0
 10
-59.6701702056
 20
86.7994669918
 10
-59.6047862641
 20
87.1474408503
 10
-59.5372824904
 20
87.4961099714
  0
LWPOLYLINE
  5
255
100
AcDbEntity
  8
RACCORDO
100
AcDbPolyline
 62
7
  6
CONTINUOUS
 90
10
 70
0
 10
-59.4242545213
 20
87.4024930114
 10
-59.5430487691
 20
86.778743513
 10
-59.6911120874
 20
85.9498828803
 10
-59.8272417372
 20
85.1249009728
 10
-59.9513796127
 20
84.3041200416
 10
-60.0634850734
 20
83.4878081395
 10
-60.1635214271
 20
82.6762164434
 10
-60.2514514331
 20
81.8696109825
 10
-60.3272415059
 20
81.0683039199
 10
-60.3747126453
 20
80.489120842
  0
LINE
  5
256
100
AcDbEntity
  8
ASSI
100
AcDbLine
 62
7
  6
CONTINUOUS
 10
-59.5372824904
 20
87.4961099714
 11
-59.4676588847
 21
87.8454743551
  0
LWPOLYLINE
  5
257
100
AcDbEntity
  8
ASSI
100
AcDbPolyline
 62
253
  6
CONTINUOUS
 90
7
 70
0
 10
-59.2906526325
 20
87.743065342
 10
-59.1645245577
 20
88.3519600787
 10
-59.0326147867
 20
88.9601522483
 10
-58.895018375
 20
89.5675130125
 10
-58.7518306797
 20
90.1739158541
 10
-58.6031473183
 20
90.7792365822
 10
-58.4490641278
 20
91.3833533373
  0
LWPOLYLINE
  5
258
100
AcDbEntity
  8
RACCORDO
100
AcDbPolyline
 62
7
  6
CONTINUOUS
 90
5
 70
0
 10
44.6219633968
 20
-76.4968229433
 10
44.5919536745
 20
-76.4951660456
 10
44.563460032
 20
-76.4966358629
 10
44.5364824692
 20
-76.5012323952
 10
44.5117370266
 20
-76.5080504453
  0
LWPOLYLINE
  5
259
100
AcDbEntity
  8
RACCORDO
100
AcDbPolyline
 62
7
  6
CONTINUOUS
 90
5
 70
0
 10
44.992192505
 20
-76.3043474902
 10
44.9621827827
 20
-76.3026905925
 10
44.9336891401
 20
-76.3041604098
 10
44.9067115774
 20
-76.3087569421
 10
44.8819661348
 20
-76.3155749922
  0
LWPOLYLINE
  5
25A
100
AcDbEntity
  8
RACCORDO
100
AcDbPolyline
 62
7
  6
CONTINUOUS
 90
5
 70
0
 10
45.3624216131
 20
-76.1118720371
 10
45.3324118908
 20
-76.1102151394
 10
45.3039182483
 20
-76.1116849567
 10
45.2769406855
 20
-76.116281489
 10
45.2521952429
 20
-76.1230995391
  0
LWPOLYLINE
  5
25B
100
AcDbEntity
  8
RACCORDO
100
AcDbPolyline
 62
7
  6
CONTINUOUS
 90
5
 70
0
 10
45.7326507213
 20
-75.919396584
 10
45.702640999
 20
-75.9177396863
 10
45.6741473564
 20
-75.9192095036
 10
45.6471697936
 20
-75.9238060359
 10
45.6224243511
 20
-75.930624086
  0
LWPOLYLINE
  5
25C
100
AcDbEntity
  8
RACCORDO
100
AcDbPolyline
 62
7
  6
CONTINUOUS
 90
5
 70
0
 10
46.1028798294
 20
-75.726921131
 10
46.0728701071
 20
-75.7252642333
 10
46.0443764646
 20
-75.7267340506
 10
46.0173989018
 20
-75.7313305829
 10
45.9926534592
 20
-75.738148633
  0
LWPOLYLINE
  5
25D
100
AcDbEntity
  8
RACCORDO
100
AcDbPolyline
 62
7
  6
CONTINUOUS
 90
5
 70
0
 10
46.4731089376
 20
-75.5344456779
 10
46.4430992153
 20
-75.5327887802
 10
46.4146055727
 20
-75.5342585975
 10
46.3876280099
 20
-75.5388551298
 10
46.3628825674
 20
-75.5456731799
  0
LWPOLYLINE
  5
25E
100
AcDbEntity
  8
RACCORDO
100
AcDbPolyline
 62
7
  6
CONTINUOUS
 90
10
 70
0
 10
46.8433380457
 20
-75.3419702248
 10
46.8133283234
 20
-75.3403133271
 10
46.7848346809
 20
-75.3417831444
 10
46.7578571181
 20
-75.3463796767
 10
46.7331116755
 20
-75.3531977268
 10
46.7098823127
 20
-75.3631424919
 10
46.6860209085
 20
-75.3789295636
 10
46.6608114225
 20
-75.4014641392
 10
46.6349698951
 20
-75.4298410213
 10
46.6084963263
 20
-75.46406021
  0
LWPOLYLINE
  5
25F
100
AcDbEntity
  8
0
100
AcDbPolyline
 62
253
  6
CONTINUOUS
 90
9
 70
0
 10
51.5621030523
 20
-83.2115425327
 10
51.3815345609
 20
-83.1867076545
 10
51.2120783549
 20
-83.1429309564
 10
51.0596402656
 20
-83.0817297899
 10
50.9289115885
 20
-83.0047850091
 10
50.8253684969
 20
-82.915081809
 10
50.7535690354
 20
-82.8174126164
 10
50.7147684578
 20
-82.7167902407
 10
50.7064738218
 20
-82.6427687129
  0
LWPOLYLINE
  5
260
100
AcDbEntity
  8
0
100
AcDbPolyline
 62
253
  6
CONTINUOUS
 90
10
 70
0
 10
51.285010169
 20
-85.4532798785
 10
51.475363948
 20
-85.4875118189
 10
51.6534343618
 20
-85.5136119948
 10
51.8230752348
 20
-85.5243532893
 10
51.9842054604
 20
-85.5141455274
 10
52.1373867228
 20
-85.4815437555
 10
52.2853521393
 20
-85.4286194451
 10
52.4284219697
 20
-85.3565673218
 10
52.5641206092
 20
-85.2655683609
 10
52.6910208364
 20
-85.1569801916
  0
LINE
  5
261
100
AcDbEntity
  8
0
100
AcDbLine
 62
7
  6
CONTINUOUS
 10
49.8597506309
 20
-86.1591688821
 11
49.8133155959
 21
-86.1482906739
  0
LWPOLYLINE
  5
262
100
AcDbEntity
  8
0
100
AcDbPolyline
 62
7
  6
CONTINUOUS
 90
10
 70
0
 10
51.2851191857
 20
-85.4534619762
 10
51.2534940817
 20
-85.4443843356
 10
51.2216270627
 20
-85.434730635
 10
51.1895548789
 20
-85.424517156
 10
51.1573351484
 20
-85.4137715553
 10
51.1249820212
 20
-85.4024981172
 10
51.0924650404
 20
-85.3906772375
 10
51.0597955795
 20
-85.3783120382
 10
51.0270279884
 20
-85.3654288783
 10
50.9941944565
 20
-85.3520422464
  0
LWPOLYLINE
  5
263
100
AcDbEntity
  8
0
100
AcDbPolyline
 62
253
  6
CONTINUOUS
 90
10
 70
0
 10
69.1692849765
 20
-102.8580230109
 10
69.2900293927
 20
-102.8989734265
 10
69.4140789631
 20
-102.9260408796
 10
69.5415758409
 20
-102.9409166854
 10
69.6755709202
 20
-102.9437624869
 10
69.8129623416
 20
-102.933779488
 10
69.9446996315
 20
-102.9116571364
 10
70.067854576
 20
-102.8786816439
 10
70.185415446
 20
-102.834268426
 10
70.2972471894
 20
-102.7767918194
  0
LWPOLYLINE
  5
264
100
AcDbEntity
  8
0
100
AcDbPolyline
 62
253
  6
CONTINUOUS
 90
5
 70
0
 10
-74.0397649705
 20
-21.6460505591
 10
-73.8544021844
 20
-21.8517989226
 10
-73.6763269273
 20
-22.0246722527
 10
-73.5005427113
 20
-22.1709624252
 10
-73.3283284192
 20
-22.2898115868
  0
LWPOLYLINE
  5
265
100
AcDbEntity
  8
0
100
AcDbPolyline
 62
253
  6
CONTINUOUS
 90
3
 70
0
 10
-75.0147991644
 20
-17.3415123666
 10
-75.080839184
 20
-17.2669042229
 10
-75.1272995314
 20
-17.1876678394
  0
LWPOLYLINE
  5
266
100
AcDbEntity
  8
0
100
AcDbPolyline
 62
7
  6
CONTINUOUS
 90
5
 70
0
 10
-74.2880596098
 20
-21.4836567667
 10
-74.0392204547
 20
-21.7906100315
 10
-73.7725671784
 20
-22.0684054979
 10
-73.4911081712
 20
-22.3155206583
 10
-73.1966899469
 20
-22.5284655376
  0
LWPOLYLINE
  5
267
100
AcDbEntity
  8
0
100
AcDbPolyline
 62
253
  6
CONTINUOUS
 90
8
 70
0
 10
-65.2248492269
 20
-26.1046811593
 10
-65.8789795575
 20
-25.0892803166
 10
-66.4986845094
 20
-24.0503455008
 10
-67.0840629526
 20
-22.9881041864
 10
-67.6356454204
 20
-21.9017432471
 10
-68.15296538
 20
-20.7927391594
 10
-68.6346479054
 20
-19.6648590427
 10
-69.0801845597
 20
-18.5196508828
  0
LWPOLYLINE
  5
268
100
AcDbEntity
  8
0
100
AcDbPolyline
 62
253
  6
CONTINUOUS
 90
3
 70
0
 10
-69.0801845597
 20
-18.5196508828
 10
-69.4898188408
 20
-17.3564142722
 10
-69.863405951
 20
-16.1756855936
  0
LWPOLYLINE
  5
269
100
AcDbEntity
  8
0
100
AcDbPolyline
 62
253
  6
CONTINUOUS
 90
10
 70
0
 10
-66.7489945468
 20
-17.252388273
 10
-66.5072120919
 20
-18.0606896313
 10
-66.2487892391
 20
-18.8612264154
 10
-65.9739930631
 20
-19.6531441683
 10
-65.6831988302
 20
-20.4353075695
 10
-65.3765766943
 20
-21.2071627612
 10
-65.0540716902
 20
-21.9688169789
 10
-64.7158526529
 20
-22.7199091097
 10
-64.3623321673
 20
-23.4595298646
 10
-63.9938094646
 20
-24.1870469412
  0
LWPOLYLINE
  5
26A
100
AcDbEntity
  8
0
100
AcDbPolyline
 62
253
  6
CONTINUOUS
 90
9
 70
0
 10
-60.3273873545
 20
-22.1743896859
 10
-60.3080245161
 20
-22.40572672
 10
-60.2874121931
 20
-22.6361961024
 10
-60.2655517092
 20
-22.8657851002
 10
-60.242443569
 20
-23.0944903616
 10
-60.2180872045
 20
-23.3223177384
 10
-60.1924828538
 20
-23.5492636918
 10
-60.1656318147
 20
-23.7753154715
 10
-60.1375349467
 20
-24.0004649967
  0
LINE
  5
26B
100
AcDbEntity
  8
0
100
AcDbLine
 62
253
  6
CONTINUOUS
 10
-60.3490962394
 20
-21.8939766584
 11
-60.3273873545
 21
-22.1743896859
  0
LINE
  5
26C
100
AcDbEntity
  8
0
100
AcDbLine
 62
253
  6
CONTINUOUS
 10
-60.3629440211
 20
-21.7007528244
 11
-60.3490962394
 21
-21.8939766584
  0
LINE
  5
26D
100
AcDbEntity
  8
0
100
AcDbLine
 62
253
  6
CONTINUOUS
 10
-60.3759319198
 20
-21.5069513083
 11
-60.3629440211
 21
-21.7007528244
  0
LWPOLYLINE
  5
26E
100
AcDbEntity
  8
RACCORDO
100
AcDbPolyline
 62
253
  6
CONTINUOUS
 90
10
 70
0
 10
-60.4777686973
 20
22.0759177411
 10
-60.5212008512
 20
22.7674596242
 10
-60.5537866684
 20
23.4661508722
 10
-60.5755160816
 20
24.17177472
 10
-60.5863824039
 20
24.88411031
 10
-60.5863824374
 20
25.6029386178
 10
-60.5755161738
 20
26.3280426938
 10
-60.5537867915
 20
27.059199831
 10
-60.5212009558
 20
27.7961814608
 10
-60.4777687133
 20
28.5387592021
  0
LINE
  5
26F
100
AcDbEntity
  8
0
100
AcDbLine
 62
253
  6
CONTINUOUS
 10
-60.3880602393
 20
-21.3125651263
 11
-60.3759319198
 21
-21.5069513083
  0
LWPOLYLINE
  5
270
100
AcDbEntity
  8
0
100
AcDbPolyline
 62
253
  6
CONTINUOUS
 90
5
 70
0
 10
-62.1930732219
 20
-17.5306936144
 10
-62.1799019799
 20
-17.7550526099
 10
-62.1424557757
 20
-17.9850862704
 10
-62.082641247
 20
-18.2165395758
 10
-62.0436178159
 20
-18.3355256304
  0
LWPOLYLINE
  5
271
100
AcDbEntity
  8
0
100
AcDbPolyline
 62
253
  6
CONTINUOUS
 90
5
 70
0
 10
-62.193085874
 20
40.4384744521
 10
-62.1802156682
 20
40.213006792
 10
-62.1433667044
 20
39.9855538425
 10
-62.0841671099
 20
39.7553129493
 10
-62.0494288448
 20
39.6480283019
  0
LWPOLYLINE
  5
272
100
AcDbEntity
  8
0
100
AcDbPolyline
 62
253
  6
CONTINUOUS
 90
3
 70
0
 10
-60.4020100361
 20
-21.0687869095
 10
-60.3993276549
 20
-21.1176138901
 10
-60.3880602393
 20
-21.3125651263
  0
LWPOLYLINE
  5
273
100
AcDbEntity
  8
0
100
AcDbPolyline
 62
253
  6
CONTINUOUS
 90
10
 70
0
 10
-60.4019095851
 20
-21.0687218507
 10
-60.4098392219
 20
-20.9072470315
 10
-60.4278791061
 20
-20.7517814025
 10
-60.4559669125
 20
-20.6030590595
 10
-60.4941852234
 20
-20.4613525492
 10
-60.5423749577
 20
-20.327985837
 10
-60.5997978061
 20
-20.2050053159
 10
-60.6658240871
 20
-20.0932761512
 10
-60.7402700744
 20
-19.9928119256
 10
-60.8227746871
 20
-19.9040565527
  0
LWPOLYLINE
  5
274
100
AcDbEntity
  8
0
100
AcDbPolyline
 62
253
  6
CONTINUOUS
 90
10
 70
0
 10
-60.4232980812
 20
36.8611113688
 10
-60.4283163506
 20
37.0297784689
 10
-60.4437589572
 20
37.1915667838
 10
-60.469545719
 20
37.3456811461
 10
-60.5055453946
 20
37.4913664767
 10
-60.5515772674
 20
37.6279054603
 10
-60.6074103759
 20
37.7546236549
 10
-60.6727643537
 20
37.8709002249
 10
-60.7473125538
 20
37.9761693164
 10
-60.8306834196
 20
38.0699179029
  0
LINE
  5
275
100
AcDbEntity
  8
0
100
AcDbLine
 62
253
  6
CONTINUOUS
 10
-62.9860121574
 20
-16.5805855373
 11
-62.9863806651
 21
19.6698124705
  0
LINE
  5
276
100
AcDbEntity
  8
0
100
AcDbLine
 62
253
  6
CONTINUOUS
 10
-62.9860121574
 20
77.637754286
 11
-62.9859706119
 21
41.3866567358
  0
LINE
  5
277
100
AcDbEntity
  8
0
100
AcDbLine
 62
253
  6
CONTINUOUS
 10
-62.1930481531
 20
18.7203289598
 11
-62.1930481542
 21
-17.5307439129
  0
LINE
  5
278
100
AcDbEntity
  8
0
100
AcDbLine
 62
253
  6
CONTINUOUS
 10
-62.1930481531
 20
40.4383202922
 11
-62.1930481542
 21
76.6893931647
  0
LINE
  5
279
100
AcDbEntity
  8
0
100
AcDbLine
 62
7
  6
CONTINUOUS
 10
-61.3274917698
 20
21.5193390976
 11
-61.3274917698
 21
37.5709223774
  0
LINE
  5
27A
100
AcDbEntity
  8
0
100
AcDbLine
 62
7
  6
CONTINUOUS
 10
-60.5969642454
 20
21.9936668187
 11
-60.5969642454
 21
23.215221839
  0
LINE
  5
27B
100
AcDbEntity
  8
0
100
AcDbLine
 62
7
  6
CONTINUOUS
 10
-60.5969642454
 20
27.4901448777
 11
-60.5969642454
 21
28.9069934332
  0
LINE
  5
27C
100
AcDbEntity
  8
0
100
AcDbLine
 62
253
  6
CONTINUOUS
 10
-60.5166642891
 20
-17.8634404158
 11
-60.5166642891
 21
18.3876318379
  0
LINE
  5
27D
100
AcDbEntity
  8
0
100
AcDbLine
 62
253
  6
CONTINUOUS
 10
-60.5166642891
 20
40.1056243471
 11
-60.5166642891
 21
76.3156129602
  0
LWPOLYLINE
  5
27E
100
AcDbEntity
  8
0
100
AcDbPolyline
 62
253
  6
CONTINUOUS
 90
10
 70
0
 10
-60.4019095851
 20
79.1312285919
 10
-60.4098392219
 20
78.9605968268
 10
-60.4278791061
 20
78.7842991918
 10
-60.4559669125
 20
78.6031417539
 10
-60.4941852234
 20
78.4173016962
 10
-60.5423749577
 20
78.2282866868
 10
-60.5997978061
 20
78.0389956996
 10
-60.6658240871
 20
77.8510210407
 10
-60.7402700744
 20
77.664588455
 10
-60.8227746871
 20
77.4805588234
  0
LINE
  5
27F
100
AcDbEntity
  8
0
100
AcDbLine
 62
253
  6
CONTINUOUS
 10
-60.4020100361
 20
79.1311776521
 11
-60.3880558294
 21
79.3911431888
  0
LINE
  5
280
100
AcDbEntity
  8
0
100
AcDbLine
 62
253
  6
CONTINUOUS
 10
-60.3880558294
 20
79.3911431888
 11
-60.3759319198
 21
79.5994574112
  0
LWPOLYLINE
  5
281
100
AcDbEntity
  8
RACCORDO
100
AcDbPolyline
 62
7
  6
CONTINUOUS
 90
10
 70
0
 10
-60.5363647419
 20
28.6202768805
 10
-60.5718055285
 20
28.0288782673
 10
-60.6083914285
 20
27.2454501628
 10
-60.6327470669
 20
26.4684657343
 10
-60.6448574511
 20
25.6982294989
 10
-60.64471832
 20
24.9349919493
 10
-60.6323270794
 20
24.1789864626
 10
-60.6076826554
 20
23.4304608567
 10
-60.5707946889
 20
22.6897045637
 10
-60.5362905126
 20
22.1561097293
  0
LWPOLYLINE
  5
282
100
AcDbEntity
  8
0
100
AcDbPolyline
 62
253
  6
CONTINUOUS
 90
10
 70
0
 10
-62.9863806651
 20
19.6698124705
 10
-62.9620831617
 20
20.0685096444
 10
-62.8951075582
 20
20.4220242055
 10
-62.78530862
 20
20.7304359656
 10
-62.6281042958
 20
20.9984661295
 10
-62.4274823179
 20
21.2217230269
 10
-62.1961449269
 20
21.3866229602
 10
-61.9381474703
 20
21.4887413767
 10
-61.6487555771
 20
21.5328931355
 10
-61.327553841
 20
21.519321628
  0
LWPOLYLINE
  5
283
100
AcDbEntity
  8
0
100
AcDbPolyline
 62
253
  6
CONTINUOUS
 90
10
 70
0
 10
-62.193085874
 20
18.7204831205
 10
-62.1802156682
 20
18.9304379749
 10
-62.1433667044
 20
19.1142993798
 10
-62.0841671099
 20
19.2747517438
 10
-62.0012522295
 20
19.4143498197
 10
-61.8950716023
 20
19.5285532722
 10
-61.7712327123
 20
19.6118723967
 10
-61.6326653983
 20
19.6645339602
 10
-61.4767332222
 20
19.6871247616
 10
-61.3016304644
 20
19.6766303173
  0
LINE
  5
284
100
AcDbEntity
  8
ASSI
100
AcDbLine
 62
253
  6
CONTINUOUS
 10
-60.3759319198
 20
79.5994574112
 11
-60.3604561719
 21
79.8468096762
  0
LINE
  5
285
100
AcDbEntity
  8
RACCORDO
100
AcDbLine
 62
7
  6
CONTINUOUS
 10
-60.5363294038
 20
28.620814799
 11
-60.5363595218
 21
28.6203520874
  0
LINE
  5
286
100
AcDbEntity
  8
ASSI
100
AcDbLine
 62
253
  6
CONTINUOUS
 10
-60.3604561719
 20
79.8468096762
 11
-60.3522860477
 21
79.9703950514
  0
LINE
  5
287
100
AcDbEntity
  8
ASSI
100
AcDbLine
 62
7
  6
CONTINUOUS
 10
-60.5259530116
 20
80.075175419
 11
-60.497522965
 21
80.4847406809
  0
LINE
  5
288
100
AcDbEntity
  8
RACCORDO
100
AcDbLine
 62
7
  6
CONTINUOUS
 10
-60.3747404176
 20
80.4887627369
 11
-60.3747577372
 21
80.488529373
  0
LINE
  5
289
100
AcDbEntity
  8
ASSI
100
AcDbLine
 62
7
  6
CONTINUOUS
 10
-60.497522965
 20
80.4847406809
 11
-60.4644937088
 21
80.9058311126
  0
LWPOLYLINE
  5
28A
100
AcDbEntity
  8
RACCORDO
100
AcDbPolyline
 62
253
  6
CONTINUOUS
 90
10
 70
0
 10
-60.3161296459
 20
80.4074204305
 10
-60.2533944436
 20
81.1584296474
 10
-60.1798577094
 20
81.9144041624
 10
-60.0955422795
 20
82.675109474
 10
-60.0004746362
 20
83.44030753
 10
-59.8946841339
 20
84.2097630951
 10
-59.7782026941
 20
84.9832439375
 10
-59.6510659551
 20
85.7605124443
 10
-59.5133135572
 20
86.5413255839
 10
-59.3649881584
 20
87.3254413542
  0
LWPOLYLINE
  5
28B
100
AcDbEntity
  8
ASSI
100
AcDbPolyline
 62
7
  6
CONTINUOUS
 90
11
 70
0
 10
-60.4644937088
 20
80.9058311126
 10
-60.4268652432
 20
81.338446714
 10
-60.3848920305
 20
81.7824774293
 10
-60.3383196084
 20
82.2380333142
 10
-60.2863845893
 20
82.7054445364
 10
-60.2290928856
 20
83.1848143849
 10
-60.166438585
 20
83.6760395706
 10
-60.0976405624
 20
84.1791403941
 10
-60.0224384428
 20
84.6941236222
 10
-59.9410926012
 20
85.2209824881
 10
-59.8536030376
 20
85.7597169919
  0
LWPOLYLINE
  5
28C
100
AcDbEntity
  8
RACCORDO
100
AcDbPolyline
 62
253
  6
CONTINUOUS
 90
8
 70
0
 10
-60.4777688032
 20
28.538759254
 10
-60.4740236386
 20
28.5674451949
 10
-60.4665616466
 20
28.597208736
 10
-60.4555849289
 20
28.6272437565
 10
-60.441390781
 20
28.6567367826
 10
-60.4243636397
 20
28.68488902
 10
-60.4049646709
 20
28.7109379887
 10
-60.3837192798
 20
28.7341781739
  0
LWPOLYLINE
  5
28D
100
AcDbEntity
  8
0
100
AcDbPolyline
 62
253
  6
CONTINUOUS
 90
10
 70
0
 10
-61.3016323682
 20
19.6766188187
 10
-61.2605980453
 20
19.8842366177
 10
-61.2305007662
 20
20.0936594394
 10
-61.2114526488
 20
20.303840409
 10
-61.2035083914
 20
20.5138992645
 10
-61.206688476
 20
20.7226317864
 10
-61.2208924254
 20
20.9285274655
 10
-61.2459107146
 20
21.1304439302
 10
-61.2815141675
 20
21.3275986776
 10
-61.3274183687
 20
21.519086124
  0
LWPOLYLINE
  5
28E
100
AcDbEntity
  8
0
100
AcDbPolyline
 62
253
  6
CONTINUOUS
 90
9
 70
0
 10
-60.8318679245
 20
19.4991941768
 10
-60.8972521068
 20
19.3345251249
 10
-60.9416143339
 20
19.1706059387
 10
-60.9635750227
 20
19.012827474
 10
-60.9624952945
 20
18.8663046812
 10
-60.938489038
 20
18.7358401697
 10
-60.8924772149
 20
18.6257204201
 10
-60.8263247457
 20
18.5396157601
 10
-60.7599163521
 20
18.4893137414
  0
LWPOLYLINE
  5
28F
100
AcDbEntity
  8
0
100
AcDbPolyline
 62
253
  6
CONTINUOUS
 90
10
 70
0
 10
-60.8306834196
 20
19.5017828015
 10
-60.7472328086
 20
19.6923950858
 10
-60.6726407319
 20
19.8843060826
 10
-60.6072727033
 20
20.0765709179
 10
-60.5514486825
 20
20.2682472802
 10
-60.5054418369
 20
20.4583885626
 10
-60.4694755173
 20
20.6460488437
 10
-60.4437225232
 20
20.8303029626
 10
-60.4283060176
 20
21.0102506941
 10
-60.4232980812
 20
21.185009899
  0
LINE
  5
290
100
AcDbEntity
  8
RACCORDO
100
AcDbLine
 62
7
  6
CONTINUOUS
 10
-50.769758369
 20
36.5505584956
 11
-50.7020646746
 21
36.6600222761
  0
LINE
  5
291
100
AcDbEntity
  8
RACCORDO
100
AcDbLine
 62
7
  6
CONTINUOUS
 10
-50.3995292608
 20
36.7430339487
 11
-50.3318355664
 21
36.8524977292
  0
LINE
  5
292
100
AcDbEntity
  8
RACCORDO
100
AcDbLine
 62
7
  6
CONTINUOUS
 10
-50.0293001527
 20
36.9355094018
 11
-49.9616064583
 21
37.0449731823
  0
LINE
  5
293
100
AcDbEntity
  8
RACCORDO
100
AcDbLine
 62
7
  6
CONTINUOUS
 10
-49.6590710445
 20
37.1279848549
 11
-49.5913773502
 21
37.2374486353
  0
LINE
  5
294
100
AcDbEntity
  8
RACCORDO
100
AcDbLine
 62
7
  6
CONTINUOUS
 10
-49.2888419364
 20
37.320460308
 11
-49.221148242
 21
37.4299240884
  0
LINE
  5
295
100
AcDbEntity
  8
RACCORDO
100
AcDbLine
 62
7
  6
CONTINUOUS
 10
-48.9186128282
 20
37.512935761
 11
-48.8509191339
 21
37.6223995415
  0
LINE
  5
296
100
AcDbEntity
  8
RACCORDO
100
AcDbLine
 62
7
  6
CONTINUOUS
 10
-48.5483837201
 20
37.7054112141
 11
-48.4806900257
 21
37.8148749946
  0
LWPOLYLINE
  5
297
100
AcDbEntity
  8
RACCORDO
100
AcDbPolyline
 62
7
  6
CONTINUOUS
 90
6
 70
0
 10
-60.4763373213
 20
28.7505043181
 10
-60.4978551532
 20
28.7258004001
 10
-60.5151235897
 20
28.6977726274
 10
-60.5276111463
 20
28.6671300644
 10
-60.5348991275
 20
28.6346774038
 10
-60.5363294038
 20
28.620814799
  0
LINE
  5
298
100
AcDbEntity
  8
RACCORDO
100
AcDbLine
 62
253
  6
CONTINUOUS
 10
-60.3837192798
 20
28.7341781739
 11
-60.3612028802
 21
28.7539801343
  0
LWPOLYLINE
  5
299
100
AcDbEntity
  8
RACCORDO
100
AcDbPolyline
 62
7
  6
CONTINUOUS
 90
4
 70
0
 10
-50.9636392618
 20
36.5695474704
 10
-50.9888455186
 20
36.5502377645
 10
-51.0156002669
 20
36.5269807748
 10
-51.0234605665
 20
36.5191918102
  0
LWPOLYLINE
  5
29A
100
AcDbEntity
  8
RACCORDO
100
AcDbPolyline
 62
7
  6
CONTINUOUS
 90
5
 70
0
 10
-50.5934101537
 20
36.7620229235
 10
-50.6186164104
 20
36.7427132176
 10
-50.6453711587
 20
36.7194562279
 10
-50.6731872468
 20
36.6918925807
 10
-50.7020646746
 20
36.6600222761
  0
LWPOLYLINE
  5
29B
100
AcDbEntity
  8
RACCORDO
100
AcDbPolyline
 62
7
  6
CONTINUOUS
 90
5
 70
0
 10
-50.2231810455
 20
36.9544983765
 10
-50.2483873023
 20
36.9351886707
 10
-50.2751420506
 20
36.911931681
 10
-50.3029581386
 20
36.8843680338
 10
-50.3318355664
 20
36.8524977292
  0
LWPOLYLINE
  5
29C
100
AcDbEntity
  8
RACCORDO
100
AcDbPolyline
 62
7
  6
CONTINUOUS
 90
5
 70
0
 10
-49.8529519374
 20
37.1469738296
 10
-49.8781581941
 20
37.1276641237
 10
-49.9049129424
 20
37.104407134
 10
-49.9327290305
 20
37.0768434869
 10
-49.9616064583
 20
37.0449731823
  0
LWPOLYLINE
  5
29D
100
AcDbEntity
  8
RACCORDO
100
AcDbPolyline
 62
7
  6
CONTINUOUS
 90
5
 70
0
 10
-49.4827228292
 20
37.3394492827
 10
-49.507929086
 20
37.3201395768
 10
-49.5346838343
 20
37.2968825871
 10
-49.5624999223
 20
37.26931894
 10
-49.5913773502
 20
37.2374486353
  0
LWPOLYLINE
  5
29E
100
AcDbEntity
  8
RACCORDO
100
AcDbPolyline
 62
7
  6
CONTINUOUS
 90
5
 70
0
 10
-49.1124937211
 20
37.5319247358
 10
-49.1376999778
 20
37.5126150299
 10
-49.1644547261
 20
37.4893580402
 10
-49.1922708142
 20
37.461794393
 10
-49.221148242
 20
37.4299240884
  0
LINE
  5
29F
100
AcDbEntity
  8
0
100
AcDbLine
 62
253
  6
CONTINUOUS
 10
-60.2746550305
 20
39.682119641
 11
-58.4204198482
 21
40.7901033938
  0
LINE
  5
2A0
100
AcDbEntity
  8
0
100
AcDbLine
 62
253
  6
CONTINUOUS
 10
-60.5166642891
 20
40.1056243471
 11
-58.6300633113
 21
41.1575488977
  0
LWPOLYLINE
  5
2A1
100
AcDbEntity
  8
0
100
AcDbPolyline
 62
253
  6
CONTINUOUS
 90
5
 70
0
 10
-60.5168184576
 20
40.1055383651
 10
-60.6595496302
 20
40.0394480552
 10
-60.8204464116
 20
39.9896599454
 10
-60.9939851484
 20
39.9577354523
 10
-61.1743216976
 20
39.9446198844
  0
LWPOLYLINE
  5
2A2
100
AcDbEntity
  8
0
100
AcDbPolyline
 62
7
  6
CONTINUOUS
 90
10
 70
0
 10
69.1032054408
 20
-90.6172907086
 10
68.2520919734
 20
-90.3209383415
 10
67.404576958
 20
-90.0184204231
 10
66.5608075085
 20
-89.7097333103
 10
65.7201428095
 20
-89.3945753332
 10
64.8835323762
 20
-89.0732341443
 10
64.0534577606
 20
-88.7466373119
 10
63.2307868343
 20
-88.4151450185
 10
62.4148320521
 20
-88.0784994753
 10
61.6056879081
 20
-87.7367476755
  0
LINE
  5
2A3
100
AcDbEntity
  8
0
100
AcDbLine
 62
253
  6
CONTINUOUS
 10
67.9029406027
 20
-103.8155614889
 11
67.7196329602
 21
-103.7291367412
  0
LWPOLYLINE
  5
2A4
100
AcDbEntity
  8
0
100
AcDbPolyline
 62
7
  6
CONTINUOUS
 90
3
 70
0
 10
67.8919641791
 20
-103.9935230216
 10
67.9223214362
 20
-104.0094270402
 10
68.2045727583
 20
-104.1374656577
  0
LWPOLYLINE
  5
2A5
100
AcDbEntity
  8
0
100
AcDbPolyline
 62
253
  6
CONTINUOUS
 90
3
 70
0
 10
67.2594822134
 20
-103.4851538531
 10
66.3388511859
 20
-103.00187267
 10
65.8764923925
 20
-102.7535464249
  0
LINE
  5
2A6
100
AcDbEntity
  8
0
100
AcDbLine
 62
253
  6
CONTINUOUS
 10
67.7196329602
 20
-103.7291367412
 11
67.2594822134
 21
-103.4851538531
  0
LINE
  5
2A7
100
AcDbEntity
  8
0
100
AcDbLine
 62
7
  6
CONTINUOUS
 10
67.6480276302
 20
-103.8634408433
 11
67.8910208104
 21
-103.9929946439
  0
LINE
  5
2A8
100
AcDbEntity
  8
0
100
AcDbLine
 62
7
  6
CONTINUOUS
 10
66.7846237187
 20
-103.3969039166
 11
67.6480276302
 21
-103.8634408433
  0
LWPOLYLINE
  5
2A9
100
AcDbEntity
  8
0
100
AcDbPolyline
 62
253
  6
CONTINUOUS
 90
5
 70
0
 10
-73.1590707807
 20
-22.5524710864
 10
-73.2121729251
 20
-22.5109977933
 10
-73.261961721
 20
-22.451233911
 10
-73.3008685124
 20
-22.378040203
 10
-73.3282574882
 20
-22.2898240241
  0
LWPOLYLINE
  5
2AA
100
AcDbEntity
  8
0
100
AcDbPolyline
 62
253
  6
CONTINUOUS
 90
5
 70
0
 10
-74.9376110768
 20
-19.6525073134
 10
-75.0124559181
 20
-19.580526943
 10
-75.0649168571
 20
-19.5056794401
 10
-75.097780776
 20
-19.4279649317
 10
-75.1115905788
 20
-19.3445838919
  0
LINE
  5
2AB
100
AcDbEntity
  8
0
100
AcDbLine
 62
7
  6
CONTINUOUS
 10
-61.4700177621
 20
-19.3427680174
 11
-61.4470945572
 21
-19.3698474677
  0
LWPOLYLINE
  5
2AC
100
AcDbEntity
  8
0
100
AcDbPolyline
 62
253
  6
CONTINUOUS
 90
5
 70
0
 10
-60.8240313813
 20
-19.9028482161
 10
-60.8921204502
 20
-19.8137574659
 10
-60.9385783098
 20
-19.6996141129
 10
-60.9616833957
 20
-19.5642319623
 10
-60.9604305543
 20
-19.4112623418
  0
LWPOLYLINE
  5
2AD
100
AcDbEntity
  8
0
100
AcDbPolyline
 62
253
  6
CONTINUOUS
 90
3
 70
0
 10
-61.9517182944
 20
-19.6079243909
 10
-62.101485996
 20
-19.3830927095
 10
-62.2443887086
 20
-19.1459236239
  0
LINE
  5
2AE
100
AcDbEntity
  8
0
100
AcDbLine
 62
253
  6
CONTINUOUS
 10
-62.2443887086
 20
-19.1459236239
 11
-62.3775973627
 21
-18.899660962
  0
LINE
  5
2AF
100
AcDbEntity
  8
0
100
AcDbLine
 62
253
  6
CONTINUOUS
 10
-62.3775973627
 20
-18.899660962
 11
-62.4994181948
 21
-18.6474643702
  0
LINE
  5
2B0
100
AcDbEntity
  8
0
100
AcDbLine
 62
253
  6
CONTINUOUS
 10
-62.4998636734
 20
-18.647413244
 11
-62.5121035533
 21
-18.619928938
  0
LINE
  5
2B1
100
AcDbEntity
  8
0
100
AcDbLine
 62
253
  6
CONTINUOUS
 10
-62.5121035533
 20
-18.619928938
 11
-62.5242396263
 21
-18.5923334963
  0
LINE
  5
2B2
100
AcDbEntity
  8
0
100
AcDbLine
 62
253
  6
CONTINUOUS
 10
-62.5242396263
 20
-18.5923334963
 11
-62.5362678895
 21
-18.5646345455
  0
LWPOLYLINE
  5
2B3
100
AcDbEntity
  8
0
100
AcDbPolyline
 62
253
  6
CONTINUOUS
 90
10
 70
0
 10
-62.5362678895
 20
-18.5646345455
 10
-62.6267448812
 20
-18.3472956828
 10
-62.7077382405
 20
-18.1241526946
 10
-62.7791443885
 20
-17.8974406397
 10
-62.84134158
 20
-17.6693235894
 10
-62.8937424603
 20
-17.4418278741
 10
-62.9347806597
 20
-17.2171038696
 10
-62.9638450723
 20
-16.9973913252
 10
-62.9812934634
 20
-16.7847576609
 10
-62.9869960192
 20
-16.5812147453
  0
LWPOLYLINE
  5
2B4
100
AcDbEntity
  8
0
100
AcDbPolyline
 62
7
  6
CONTINUOUS
 90
7
 70
0
 10
-62.036066087
 20
-18.3567651819
 10
-62.0031713622
 20
-18.4440291442
 10
-61.9059436918
 20
-18.6656454283
 10
-61.7911927487
 20
-18.8821131459
 10
-61.6610269938
 20
-19.0895524343
 10
-61.5177619393
 20
-19.2842563853
 10
-61.4700177621
 20
-19.3427680174
  0
LINE
  5
2B5
100
AcDbEntity
  8
0
100
AcDbLine
 62
7
  6
CONTINUOUS
 10
-62.0436178159
 20
-18.3355256304
 11
-62.036066087
 21
-18.3567651819
  0
LWPOLYLINE
  5
2B6
100
AcDbEntity
  8
0
100
AcDbPolyline
 62
253
  6
CONTINUOUS
 90
10
 70
0
 10
-59.6762414568
 20
-26.7613267783
 10
-59.5667522517
 20
-27.2664760946
 10
-59.4503235917
 20
-27.7654960131
 10
-59.3269888716
 20
-28.2582938695
 10
-59.1966330148
 20
-28.7453205456
 10
-59.0594264339
 20
-29.2259303489
 10
-58.9159022667
 20
-29.6984508695
 10
-58.7663407822
 20
-30.1623388783
 10
-58.6106920808
 20
-30.6181104314
 10
-58.4490641278
 20
-31.0657496119
  0
LWPOLYLINE
  5
2B7
100
AcDbEntity
  8
0
100
AcDbPolyline
 62
253
  6
CONTINUOUS
 90
10
 70
0
 10
-60.1375349467
 20
-24.0004649967
 10
-60.096029024
 20
-24.3147218155
 10
-60.0520785771
 20
-24.6271525249
 10
-60.0056867285
 20
-24.937735376
 10
-59.9568573971
 20
-25.2464448978
 10
-59.90559348
 20
-25.5532635019
 10
-59.8518965477
 20
-25.8581812461
 10
-59.7957694107
 20
-26.1611804714
 10
-59.7372164244
 20
-26.4622360409
 10
-59.6762414568
 20
-26.7613267783
  0
LWPOLYLINE
  5
2B8
100
AcDbEntity
  8
0
100
AcDbPolyline
 62
253
  6
CONTINUOUS
 90
7
 70
0
 10
-61.2114526488
 20
38.2272850027
 10
-61.2035083914
 20
38.1374471342
 10
-61.206688476
 20
38.0388440077
 10
-61.2208924255
 20
37.9322544534
 10
-61.2459107146
 20
37.8183800215
 10
-61.2815141675
 20
37.6977734445
 10
-61.3274183687
 20
37.5710905682
  0
LINE
  5
2B9
100
AcDbEntity
  8
RACCORDO
100
AcDbLine
 62
7
  6
CONTINUOUS
 10
-60.5362723331
 20
22.1558455538
 11
-60.5362574774
 21
22.1556453977
  0
LWPOLYLINE
  5
2BA
100
AcDbEntity
  8
RACCORDO
100
AcDbPolyline
 62
253
  6
CONTINUOUS
 90
6
 70
0
 10
-60.3747577372
 20
80.488529373
 10
-60.3737517265
 20
80.4738312282
 10
-60.3672418182
 20
80.45582699
 10
-60.3554351464
 20
80.4380541814
 10
-60.3384442795
 20
80.4216888046
 10
-60.3161297519
 20
80.4074204915
  0
LWPOLYLINE
  5
2BB
100
AcDbEntity
  8
RACCORDO
100
AcDbPolyline
 62
253
  6
CONTINUOUS
 90
6
 70
0
 10
-60.5363595218
 20
28.6203520874
 10
-60.5353775919
 20
28.6053554188
 10
-60.5288751655
 20
28.5872458941
 10
-60.5169828259
 20
28.57067835
 10
-60.4999689944
 20
28.5546361291
 10
-60.4777688032
 20
28.5387592542
  0
LINE
  5
2BC
100
AcDbEntity
  8
0
100
AcDbLine
 62
7
  6
CONTINUOUS
 10
-58.6300633113
 20
17.2595632889
 11
-58.6300633113
 21
-16.8115159242
  0
LINE
  5
2BD
100
AcDbEntity
  8
0
100
AcDbLine
 62
7
  6
CONTINUOUS
 10
-58.6300633113
 20
41.1575488977
 11
-58.6300633113
 21
75.2263132003
  0
LWPOLYLINE
  5
2BE
100
AcDbEntity
  8
0
100
AcDbPolyline
 62
253
  6
CONTINUOUS
 90
9
 70
0
 10
-60.9604305543
 20
-19.4112623418
 10
-60.9345273641
 20
-19.2467469704
 10
-60.8858274864
 20
-19.079436677
 10
-60.8180474556
 20
-18.9172219065
 10
-60.7338440491
 20
-18.763123174
 10
-60.6344923907
 20
-18.6187432618
 10
-60.5221788442
 20
-18.4879370614
 10
-60.4010239519
 20
-18.3761127869
 10
-60.2748725621
 20
-18.2871161031
  0
LINE
  5
2BF
100
AcDbEntity
  8
RACCORDO
100
AcDbLine
 62
7
  6
CONTINUOUS
 10
-46.3896075343
 20
34.0215142999
 11
-46.3286558581
 21
34.1348708372
  0
LINE
  5
2C0
100
AcDbEntity
  8
RACCORDO
100
AcDbLine
 62
7
  6
CONTINUOUS
 10
-46.056251748
 20
34.2352799469
 11
-45.9953000718
 21
34.3486364842
  0
LINE
  5
2C1
100
AcDbEntity
  8
RACCORDO
100
AcDbLine
 62
7
  6
CONTINUOUS
 10
-45.7228959617
 20
34.4490455939
 11
-45.6619442855
 21
34.5624021311
  0
LINE
  5
2C2
100
AcDbEntity
  8
RACCORDO
100
AcDbLine
 62
7
  6
CONTINUOUS
 10
-45.3895401754
 20
34.6628112409
 11
-45.3285884993
 21
34.7761677781
  0
LINE
  5
2C3
100
AcDbEntity
  8
RACCORDO
100
AcDbLine
 62
7
  6
CONTINUOUS
 10
-45.0561843891
 20
34.8765768878
 11
-44.995232713
 21
34.9899334251
  0
LINE
  5
2C4
100
AcDbEntity
  8
RACCORDO
100
AcDbLine
 62
7
  6
CONTINUOUS
 10
-44.7228286029
 20
35.0903425348
 11
-44.6618769267
 21
35.2036990721
  0
LINE
  5
2C5
100
AcDbEntity
  8
RACCORDO
100
AcDbLine
 62
7
  6
CONTINUOUS
 10
-44.3894728166
 20
35.3041081818
 11
-44.3285211404
 21
35.4174647191
  0
LWPOLYLINE
  5
2C6
100
AcDbEntity
  8
RACCORDO
100
AcDbPolyline
 62
7
  6
CONTINUOUS
 90
10
 70
0
 10
-46.3286558581
 20
34.1348708372
 10
-46.3016349828
 20
34.1694564872
 10
-46.2759791918
 20
34.1992518742
 10
-46.2516884852
 20
34.2242569981
 10
-46.2294075886
 20
34.2445913668
 10
-46.2084917764
 20
34.2601354725
 10
-46.1870068716
 20
34.2705307913
 10
-46.1643081484
 20
34.2756578153
 10
-46.1410403326
 20
34.2756360524
 10
-46.1172034242
 20
34.2704655027
  0
LWPOLYLINE
  5
2C7
100
AcDbEntity
  8
RACCORDO
100
AcDbPolyline
 62
7
  6
CONTINUOUS
 90
10
 70
0
 10
-45.9953000718
 20
34.3486364842
 10
-45.9682791965
 20
34.3832221342
 10
-45.9426234055
 20
34.4130175212
 10
-45.9183326989
 20
34.4380226451
 10
-45.8960518023
 20
34.4583570138
 10
-45.8751359901
 20
34.4739011195
 10
-45.8536510853
 20
34.4842964383
 10
-45.8309523621
 20
34.4894234623
 10
-45.8076845463
 20
34.4894016994
 10
-45.7838476379
 20
34.4842311497
  0
LWPOLYLINE
  5
2C8
100
AcDbEntity
  8
RACCORDO
100
AcDbPolyline
 62
7
  6
CONTINUOUS
 90
10
 70
0
 10
-45.6619442855
 20
34.5624021311
 10
-45.6349234102
 20
34.5969877812
 10
-45.6092676192
 20
34.6267831682
 10
-45.5849769126
 20
34.651788292
 10
-45.562696016
 20
34.6721226608
 10
-45.5417802038
 20
34.6876667665
 10
-45.520295299
 20
34.6980620853
 10
-45.4975965758
 20
34.7031891093
 10
-45.47432876
 20
34.7031673464
 10
-45.4504918516
 20
34.6979967967
  0
LWPOLYLINE
  5
2C9
100
AcDbEntity
  8
RACCORDO
100
AcDbPolyline
 62
7
  6
CONTINUOUS
 90
10
 70
0
 10
-45.3285884993
 20
34.7761677781
 10
-45.3015676239
 20
34.8107534282
 10
-45.2759118329
 20
34.8405488151
 10
-45.2516211263
 20
34.865553939
 10
-45.2293402297
 20
34.8858883078
 10
-45.2084244175
 20
34.9014324134
 10
-45.1869395127
 20
34.9118277322
 10
-45.1642407895
 20
34.9169547562
 10
-45.1409729738
 20
34.9169329934
 10
-45.1171360653
 20
34.9117624436
  0
LWPOLYLINE
  5
2CA
100
AcDbEntity
  8
RACCORDO
100
AcDbPolyline
 62
7
  6
CONTINUOUS
 90
10
 70
0
 10
-44.995232713
 20
34.9899334251
 10
-44.9682118376
 20
35.0245190752
 10
-44.9425560466
 20
35.0543144621
 10
-44.91826534
 20
35.079319586
 10
-44.8959844434
 20
35.0996539548
 10
-44.8750686312
 20
35.1151980604
 10
-44.8535837264
 20
35.1255933792
 10
-44.8308850032
 20
35.1307204032
 10
-44.8076171875
 20
35.1306986404
 10
-44.783780279
 20
35.1255280906
  0
LWPOLYLINE
  5
2CB
100
AcDbEntity
  8
RACCORDO
100
AcDbPolyline
 62
7
  6
CONTINUOUS
 90
10
 70
0
 10
-44.6618769267
 20
35.2036990721
 10
-44.6348560513
 20
35.2382847221
 10
-44.6092002603
 20
35.2680801091
 10
-44.5849095537
 20
35.293085233
 10
-44.5626286571
 20
35.3134196017
 10
-44.5417128449
 20
35.3289637074
 10
-44.5202279401
 20
35.3393590262
 10
-44.4975292169
 20
35.3444860502
 10
-44.4742614012
 20
35.3444642873
 10
-44.4504244927
 20
35.3392937376
  0
LWPOLYLINE
  5
2CC
100
AcDbEntity
  8
RACCORDO
100
AcDbPolyline
 62
7
  6
CONTINUOUS
 90
9
 70
0
 10
-46.6179361606
 20
33.9754972324
 10
-46.6093349781
 20
33.9854862272
 10
-46.5850442715
 20
34.0104913511
 10
-46.5627633749
 20
34.0308257198
 10
-46.5418475627
 20
34.0463698255
 10
-46.5203626579
 20
34.0567651443
 10
-46.4976639347
 20
34.0618921683
 10
-46.4743961189
 20
34.0618704054
 10
-46.4505592105
 20
34.0566998557
  0
LWPOLYLINE
  5
2CD
100
AcDbEntity
  8
RACCORDO
100
AcDbPolyline
 62
7
  6
CONTINUOUS
 90
6
 70
0
 10
-44.044132464
 20
35.3528905275
 10
-44.0229787653
 20
35.3711926679
 10
-44.0072806069
 20
35.3927117047
 10
-43.9973134949
 20
35.4168409618
 10
-43.9931592074
 20
35.4432295559
 10
-43.993017293
 20
35.4493764697
  0
LWPOLYLINE
  5
2CE
100
AcDbEntity
  8
RACCORDO
100
AcDbPolyline
 62
7
  6
CONTINUOUS
 90
6
 70
0
 10
-44.044132464
 20
35.6474195293
 10
-44.0233916333
 20
35.6637117841
 10
-44.0080533949
 20
35.6807242066
 10
-43.9981177489
 20
35.6984567968
 10
-43.9936089225
 20
35.7174437564
 10
-43.9933107528
 20
35.7243037982
  0
LINE
  5
2CF
100
AcDbEntity
  8
0
100
AcDbLine
 62
7
  6
CONTINUOUS
 10
-44.044132464
 20
35.3528905275
 11
-46.3071225826
 21
33.8418796477
  0
LWPOLYLINE
  5
2D0
100
AcDbEntity
  8
RACCORDO
100
AcDbPolyline
 62
7
  6
CONTINUOUS
 90
3
 70
0
 10
-60.4393293741
 20
28.7789468855
 10
-60.4512039149
 20
28.7712741
 10
-60.4763373213
 20
28.7505043181
  0
LINE
  5
2D1
100
AcDbEntity
  8
RACCORDO
100
AcDbLine
 62
7
  6
CONTINUOUS
 10
-44.044132464
 20
35.6474195293
 11
-44.2342338856
 21
35.5255162805
  0
LINE
  5
2D2
100
AcDbEntity
  8
RACCORDO
100
AcDbLine
 62
7
  6
CONTINUOUS
 10
-48.1648444027
 20
38.026666958
 11
-48.3759734205
 21
37.9169047798
  0
LINE
  5
2D3
100
AcDbEntity
  8
RACCORDO
100
AcDbLine
 62
7
  6
CONTINUOUS
 10
50.7031522148
 20
-42.1191213333
 11
50.7376608218
 21
-42.1096353718
  0
LWPOLYLINE
  5
2D4
100
AcDbEntity
  8
0
100
AcDbPolyline
 62
7
  6
CONTINUOUS
 90
10
 70
0
 10
50.9941944565
 20
-85.3520422464
 10
50.9527485763
 20
-85.3344551565
 10
50.9111000825
 20
-85.3160165543
 10
50.8693068166
 20
-85.2967526215
 10
50.8274742871
 20
-85.2767097612
 10
50.785611083
 20
-85.2558933093
 10
50.7436262292
 20
-85.2342663225
 10
50.701523609
 20
-85.211832012
 10
50.6594046205
 20
-85.1886349371
 10
50.6173217344
 20
-85.1646988759
  0
LINE
  5
2D5
100
AcDbEntity
  8
0
100
AcDbLine
 62
7
  6
CONTINUOUS
 10
61.4991460896
 20
-87.6911510702
 11
61.6056879081
 21
-87.7367476755
  0
LINE
  5
2D6
100
AcDbEntity
  8
0
100
AcDbLine
 62
7
  6
CONTINUOUS
 10
49.8133155959
 20
-86.1482906739
 11
49.760240503
 21
-86.1247259133
  0
LINE
  5
2D7
100
AcDbEntity
  8
0
100
AcDbLine
 62
7
  6
CONTINUOUS
 10
49.7773919214
 20
-86.1686737305
 11
49.724276299
 21
-86.1449906372
  0
LWPOLYLINE
  5
2D8
100
AcDbEntity
  8
0
100
AcDbPolyline
 62
253
  6
CONTINUOUS
 90
3
 70
0
 10
65.8764923925
 20
-102.7535464249
 10
64.5531218714
 20
-102.0260135126
 10
63.3498129987
 20
-101.3559805079
  0
LINE
  5
2D9
100
AcDbEntity
  8
0
100
AcDbLine
 62
253
  6
CONTINUOUS
 10
51.3392469845
 20
-90.8593022266
 11
55.6189318473
 21
-93.2499441986
  0
LINE
  5
2DA
100
AcDbEntity
  8
0
100
AcDbLine
 62
253
  6
CONTINUOUS
 10
63.3498129987
 20
-101.3559805079
 11
61.1234632486
 21
-100.1024491334
  0
LINE
  5
2DB
100
AcDbEntity
  8
0
100
AcDbLine
 62
253
  6
CONTINUOUS
 10
61.1234632486
 20
-100.1024491334
 11
60.7688766185
 21
-99.901265858
  0
LWPOLYLINE
  5
2DC
100
AcDbEntity
  8
0
100
AcDbPolyline
 62
7
  6
CONTINUOUS
 90
7
 70
0
 10
61.093480566
 20
-100.201142543
 10
62.1041089255
 20
-100.7780294909
 10
63.090689388
 20
-101.3375728025
 10
64.0521939239
 20
-101.8799653963
 10
64.9882687859
 20
-102.4045113354
 10
65.8989195329
 20
-102.910396638
 10
66.7846237187
 20
-103.3969039166
  0
LINE
  5
2DD
100
AcDbEntity
  8
0
100
AcDbLine
 62
7
  6
CONTINUOUS
 10
-66.1315205771
 20
-26.7440369307
 11
60.3675132332
 21
-99.7820702715
  0
LINE
  5
2DE
100
AcDbEntity
  8
0
100
AcDbLine
 62
7
  6
CONTINUOUS
 10
60.3675132332
 20
-99.7820702715
 11
61.093480566
 21
-100.201142543
  0
LINE
  5
2DF
100
AcDbEntity
  8
0
100
AcDbLine
 62
7
  6
CONTINUOUS
 10
52.5671106027
 20
-95.165108203
 11
-58.4480026125
 21
-31.0680702161
  0
LINE
  5
2E0
100
AcDbEntity
  8
0
100
AcDbLine
 62
7
  6
CONTINUOUS
 10
46.9569902455
 20
-85.7430731037
 11
47.3671262731
 21
-85.9798748457
  0
LINE
  5
2E1
100
AcDbEntity
  8
0
100
AcDbLine
 62
7
  6
CONTINUOUS
 10
45.4755371922
 20
-84.8877006777
 11
45.8856633203
 21
-85.1244967038
  0
LINE
  5
2E2
100
AcDbEntity
  8
0
100
AcDbLine
 62
7
  6
CONTINUOUS
 10
43.8573763097
 20
-83.9533998172
 11
44.2675124317
 21
-84.1902023211
  0
LINE
  5
2E3
100
AcDbEntity
  8
0
100
AcDbLine
 62
7
  6
CONTINUOUS
 10
42.5153901695
 20
-83.1785538389
 11
42.9255425549
 21
-83.4153657331
  0
LINE
  5
2E4
100
AcDbEntity
  8
0
100
AcDbLine
 62
7
  6
CONTINUOUS
 10
50.1365467511
 20
-87.5789035207
 11
50.5985024864
 21
-87.8456260199
  0
LINE
  5
2E5
100
AcDbEntity
  8
0
100
AcDbLine
 62
7
  6
CONTINUOUS
 10
44.6776400216
 20
-84.4270048514
 11
45.0877768039
 21
-84.6638126893
  0
LINE
  5
2E6
100
AcDbEntity
  8
0
100
AcDbLine
 62
7
  6
CONTINUOUS
 10
46.273429413
 20
-85.3483936461
 11
46.6835669024
 21
-85.5852018923
  0
LINE
  5
2E7
100
AcDbEntity
  8
0
100
AcDbLine
 62
7
  6
CONTINUOUS
 10
48.957389625
 20
-86.8980729744
 11
49.3675320641
 21
-87.1348840785
  0
LINE
  5
2E8
100
AcDbEntity
  8
0
100
AcDbLine
 62
7
  6
CONTINUOUS
 10
48.2738238427
 20
-86.5033906588
 11
48.6839670367
 21
-86.7402078589
  0
LINE
  5
2E9
100
AcDbEntity
  8
0
100
AcDbLine
 62
7
  6
CONTINUOUS
 10
47.4451519921
 20
-85.6186895011
 11
48.0928929164
 21
-85.9926869927
  0
LINE
  5
2EA
100
AcDbEntity
  8
0
100
AcDbLine
 62
253
  6
CONTINUOUS
 10
52.5671106027
 20
-95.165108203
 11
60.7688766185
 21
-99.901265858
  0
LINE
  5
2EB
100
AcDbEntity
  8
0
100
AcDbLine
 62
7
  6
CONTINUOUS
 10
-66.6409752169
 20
-26.4488680635
 11
-66.1309893388
 21
-26.7443398274
  0
LINE
  5
2EC
100
AcDbEntity
  8
0
100
AcDbLine
 62
253
  6
CONTINUOUS
 10
-66.6499216983
 20
-26.3312486425
 11
-58.4480026125
 21
-31.0680702161
  0
LINE
  5
2ED
100
AcDbEntity
  8
0
100
AcDbLine
 62
253
  6
CONTINUOUS
 10
-68.791090771
 20
-25.065888466
 11
-66.6499216983
 21
-26.3312486425
  0
LINE
  5
2EE
100
AcDbEntity
  8
0
100
AcDbLine
 62
253
  6
CONTINUOUS
 10
-69.1847569926
 20
-24.8321808432
 11
-68.791090771
 21
-25.065888466
  0
LINE
  5
2EF
100
AcDbEntity
  8
0
100
AcDbLine
 62
253
  6
CONTINUOUS
 10
-63.9938095855
 20
-24.1870468021
 11
-59.6755432484
 21
-26.7607539591
  0
LINE
  5
2F0
100
AcDbEntity
  8
0
100
AcDbLine
 62
253
  6
CONTINUOUS
 10
-70.3417800509
 20
-24.1393877729
 11
-69.1847569926
 21
-24.8321808432
  0
LWPOLYLINE
  5
2F1
100
AcDbEntity
  8
0
100
AcDbPolyline
 62
7
  6
CONTINUOUS
 90
8
 70
0
 10
-72.9348002716
 20
-22.6926798036
 10
-72.1326094239
 20
-23.1878177833
 10
-71.2977077186
 20
-23.6947646887
 10
-70.4305888998
 20
-24.2153458764
 10
-69.5315059409
 20
-24.7504045169
 10
-68.6008715753
 20
-25.3005125749
 10
-67.6379367802
 20
-25.8665953374
 10
-66.6409752169
 20
-26.4488680635
  0
LWPOLYLINE
  5
2F2
100
AcDbEntity
  8
0
100
AcDbPolyline
 62
253
  6
CONTINUOUS
 90
3
 70
0
 10
-72.0382485721
 20
-23.1046695421
 10
-71.6005884206
 20
-23.3760029559
 10
-70.3417800509
 20
-24.1393877729
  0
LINE
  5
2F3
100
AcDbEntity
  8
0
100
AcDbLine
 62
7
  6
CONTINUOUS
 10
-73.1589720396
 20
-22.5524538731
 11
-72.9348002716
 21
-22.6926798036
  0
LINE
  5
2F4
100
AcDbEntity
  8
0
100
AcDbLine
 62
253
  6
CONTINUOUS
 10
-73.3283284192
 20
-22.2898115868
 11
-72.9039837589
 21
-22.5565252614
  0
LINE
  5
2F5
100
AcDbEntity
  8
0
100
AcDbLine
 62
253
  6
CONTINUOUS
 10
-72.9039837589
 20
-22.5565252614
 11
-72.0382485721
 21
-23.1046695421
  0
LINE
  5
2F6
100
AcDbEntity
  8
0
100
AcDbLine
 62
7
  6
CONTINUOUS
 10
-73.1966899469
 20
-22.5284655376
 11
-73.155557519
 21
-22.5546357869
  0
LWPOLYLINE
  5
2F7
100
AcDbEntity
  8
0
100
AcDbPolyline
 62
253
  6
CONTINUOUS
 90
5
 70
0
 10
-66.1315205771
 20
-26.7440369307
 10
-66.1619296836
 20
-26.7241882051
 10
-66.217365679
 20
-26.6733273946
 10
-66.2627293037
 20
-26.6099822146
 10
-66.297559991
 20
-26.5355353563
  0
LWPOLYLINE
  5
2F8
100
AcDbEntity
  8
0
100
AcDbPolyline
 62
253
  6
CONTINUOUS
 90
5
 70
0
 10
60.5826532664
 20
-99.9062878139
 10
60.5519935245
 20
-99.8862329724
 10
60.4967026317
 20
-99.8353800105
 10
60.4514753709
 20
-99.7721263786
 10
60.4167526054
 20
-99.6978663986
  0
LWPOLYLINE
  5
2F9
100
AcDbEntity
  8
0
100
AcDbPolyline
 62
7
  6
CONTINUOUS
 90
10
 70
0
 10
-60.7775758501
 20
-20.8164229007
 10
-60.7354645542
 20
-20.847080269
 10
-60.6932234646
 20
-20.8770781727
 10
-60.6509123983
 20
-20.9063748618
 10
-60.6086394802
 20
-20.9348934229
 10
-60.5664143136
 20
-20.9626286598
 10
-60.5241452736
 20
-20.98964897
 10
-60.4818369647
 20
-21.0159526339
 10
-60.4395929417
 20
-21.0414659045
 10
-60.3974669815
 20
-21.0661512137
  0
LINE
  5
2FA
100
AcDbEntity
  8
0
100
AcDbLine
 62
7
  6
CONTINUOUS
 10
-69.9530237833
 20
-11.7923156674
 11
-70.031994309
 21
-11.7307997701
  0
LWPOLYLINE
  5
2FB
100
AcDbEntity
  8
0
100
AcDbPolyline
 62
7
  6
CONTINUOUS
 90
10
 70
0
 10
-61.0752733344
 20
-20.5779795338
 10
-61.0427461803
 20
-20.605941161
 10
-61.0100111912
 20
-20.6335867791
 10
-60.9771066429
 20
-20.6608893582
 10
-60.944091705
 20
-20.6878091646
 10
-60.9109818671
 20
-20.7143333414
 10
-60.8777477775
 20
-20.7404767199
 10
-60.8444020123
 20
-20.7662285641
 10
-60.8110002437
 20
-20.7915517463
 10
-60.7775758501
 20
-20.8164229007
  0
LWPOLYLINE
  5
2FC
100
AcDbEntity
  8
0
100
AcDbPolyline
 62
7
  6
CONTINUOUS
 90
10
 70
0
 10
-75.0209102489
 20
-7.4018326079
 10
-74.507648078
 20
-7.8932536349
 10
-73.9837070178
 20
-8.3825972664
 10
-73.4490807585
 20
-8.8697785605
 10
-72.9032464738
 20
-9.3551677197
 10
-72.3467027128
 20
-9.8382163022
 10
-71.7810570251
 20
-10.3174908805
 10
-71.2069335771
 20
-10.7924901528
 10
-70.623885542
 20
-11.2636113026
 10
-70.031994309
 20
-11.7307997701
  0
LWPOLYLINE
  5
2FD
100
AcDbEntity
  8
0
100
AcDbPolyline
 62
253
  6
CONTINUOUS
 90
6
 70
0
 10
-61.0751168983
 20
-20.577950713
 10
-61.2721436291
 20
-20.388514002
 10
-61.4555896514
 20
-20.2058791186
 10
-61.629973153
 20
-20.0179850508
 10
-61.7952739896
 20
-19.8193000848
 10
-61.9517182944
 20
-19.6079243909
  0
LWPOLYLINE
  5
2FE
100
AcDbEntity
  8
0
100
AcDbPolyline
 62
253
  6
CONTINUOUS
 90
4
 70
0
 10
-61.4470945572
 20
-19.3698474677
 10
-61.3606296091
 20
-19.466461531
 10
-61.1903221563
 20
-19.6336186289
 10
-61.0101515904
 20
-19.7807141929
  0
LINE
  5
2FF
100
AcDbEntity
  8
RACCORDO
100
AcDbLine
 62
7
  6
CONTINUOUS
 10
-60.5333667785
 20
22.1333906333
 11
-60.5362723331
 21
22.1558455538
  0
LWPOLYLINE
  5
300
100
AcDbEntity
  8
RACCORDO
100
AcDbPolyline
 62
253
  6
CONTINUOUS
 90
6
 70
0
 10
-60.5362574774
 20
22.1556453977
 10
-60.5353775848
 20
22.148557483
 10
-60.5288751619
 20
22.1278721908
 10
-60.5169828201
 20
22.1082155701
 10
-60.4999689863
 20
22.0906679578
 10
-60.4777688032
 20
22.0759178021
  0
LINE
  5
301
100
AcDbEntity
  8
RACCORDO
100
AcDbLine
 62
253
  6
CONTINUOUS
 10
-44.044132464
 20
35.3528905275
 11
-44.044132464
 21
35.6474195293
  0
LINE
  5
302
100
AcDbEntity
  8
RACCORDO
100
AcDbLine
 62
7
  6
CONTINUOUS
 10
-43.9930172928
 20
35.4493951805
 11
-43.9930172928
 21
35.7243041982
  0
LINE
  5
303
100
AcDbEntity
  8
DRAFT
100
AcDbLine
 62
7
  6
CONTINUOUS
 10
-43.917768747
 20
-22.240938916
 11
-43.917768747
 21
-22.5321253798
  0
LWPOLYLINE
  5
304
100
AcDbEntity
  8
0
100
AcDbPolyline
 62
253
  6
CONTINUOUS
 90
28
 70
0
 10
-63.9938093026
 20
-24.1870465584
 10
-63.9015335115
 20
-23.9718571789
 10
-63.8078798988
 20
-23.7612273349
 10
-63.7130413945
 20
-23.5554207128
 10
-63.6174226652
 20
-23.3547334913
 10
-63.5210145179
 20
-23.1593199859
 10
-63.4234231709
 20
-22.9691612809
 10
-63.3248838839
 20
-22.7843552197
 10
-63.2256327467
 20
-22.6050477848
 10
-63.1253396538
 20
-22.4312036612
 10
-63.0244979394
 20
-22.2626526362
 10
-62.9231239008
 20
-22.0996662805
 10
-62.8203513289
 20
-21.9427653972
 10
-62.7170462004
 20
-21.7914445617
 10
-62.6130724271
 20
-21.6461733976
 10
-62.5066296465
 20
-21.5085742828
 10
-62.3989176015
 20
-21.3779757659
 10
-62.2902096416
 20
-21.2544109525
 10
-62.1783296113
 20
-21.1398934691
 10
-62.0653483129
 20
-21.0327096414
 10
-61.951500563
 20
-20.9332336487
 10
-61.8335224158
 20
-20.8454949955
 10
-61.7147489013
 20
-20.7666338561
 10
-61.5954357613
 20
-20.6971302139
 10
-61.4702601751
 20
-20.6442691408
 10
-61.3396236002
 20
-20.6089565225
 10
-61.2076660783
 20
-20.5870820103
 10
-61.0752733344
 20
-20.5779795338
  0
LINE
  5
305
100
AcDbEntity
  8
0
100
AcDbLine
 62
253
  6
CONTINUOUS
 10
-74.612521827
 20
-16.9115622781
 11
-74.9917982566
 21
-17.3234877973
  0
LINE
  5
306
100
AcDbEntity
  8
0
100
AcDbLine
 62
7
  6
CONTINUOUS
 10
-60.5969642454
 20
21.9936668187
 11
-60.4808301498
 21
22.0630618405
  0
LWPOLYLINE
  5
307
100
AcDbEntity
  8
0
100
AcDbPolyline
 62
253
  6
CONTINUOUS
 90
3
 70
0
 10
-60.5168184576
 20
18.387545801
 10
-60.6595521866
 20
18.321454516
 10
-60.820451189
 20
18.2716662148
  0
LWPOLYLINE
  5
308
100
AcDbEntity
  8
RACCORDO
100
AcDbPolyline
 62
253
  6
CONTINUOUS
 90
8
 70
0
 10
50.7723537915
 20
-35.5803978586
 10
50.7510474234
 20
-35.5858429786
 10
50.7184641918
 20
-35.5905064713
 10
50.6843529039
 20
-35.5920059253
 10
50.6497386315
 20
-35.5902957252
 10
50.6156615241
 20
-35.585427262
 10
50.583145552
 20
-35.5775473887
 10
50.5531677389
 20
-35.5668939777
  0
LINE
  5
309
100
AcDbEntity
  8
RACCORDO
100
AcDbLine
 62
7
  6
CONTINUOUS
 10
50.6675139549
 20
-42.1223057552
 11
50.7031522148
 21
-42.1191213333
  0
LWPOLYLINE
  5
30A
100
AcDbEntity
  8
0
100
AcDbPolyline
 62
7
  6
CONTINUOUS
 90
10
 70
0
 10
53.2061632411
 20
-83.6684913833
 10
54.0830725978
 20
-84.1422508469
 10
54.9714737259
 20
-84.609550791
 10
55.8712316267
 20
-85.0702935242
 10
56.7822523884
 20
-85.5244038921
 10
57.7043532153
 20
-85.9717636022
 10
58.6372575127
 20
-86.4122146352
 10
59.5807706511
 20
-86.8456453538
 10
60.5347849156
 20
-87.271987136
 10
61.4991460896
 20
-87.6911510702
  0
LINE
  5
30B
100
AcDbEntity
  8
0
100
AcDbLine
 62
7
  6
CONTINUOUS
 10
47.5249943885
 20
-85.2671611159
 11
47.9225255783
 21
-85.4966906426
  0
LINE
  5
30C
100
AcDbEntity
  8
0
100
AcDbLine
 62
7
  6
CONTINUOUS
 10
49.2708624044
 20
-86.275198344
 11
49.6288230316
 21
-86.4818854072
  0
LINE
  5
30D
100
AcDbEntity
  8
0
100
AcDbLine
 62
7
  6
CONTINUOUS
 10
47.5605653636
 20
-85.2466228807
 11
47.9580965533
 21
-85.4761524074
  0
LINE
  5
30E
100
AcDbEntity
  8
0
100
AcDbLine
 62
7
  6
CONTINUOUS
 10
49.2252828982
 20
-85.8568780942
 11
49.7242719607
 21
-86.1449880437
  0
LINE
  5
30F
100
AcDbEntity
  8
0
100
AcDbLine
 62
7
  6
CONTINUOUS
 10
49.260813629
 20
-85.8363630955
 11
49.7602226587
 21
-86.1247156102
  0
LINE
  5
310
100
AcDbEntity
  8
0
100
AcDbLine
 62
7
  6
CONTINUOUS
 10
49.1790937467
 20
-85.3073338471
 11
49.6780877488
 21
-85.5954466604
  0
LINE
  5
311
100
AcDbEntity
  8
0
100
AcDbLine
 62
7
  6
CONTINUOUS
 10
41.6438420354
 20
-80.5535832556
 11
42.0539844746
 21
-80.7903943597
  0
LINE
  5
312
100
AcDbEntity
  8
0
100
AcDbLine
 62
7
  6
CONTINUOUS
 10
42.9606770945
 20
-81.3139073149
 11
43.3708195337
 21
-81.550718419
  0
LINE
  5
313
100
AcDbEntity
  8
0
100
AcDbLine
 62
7
  6
CONTINUOUS
 10
43.6442428768
 20
-81.7085896305
 11
44.0543803662
 21
-81.9453978766
  0
LINE
  5
314
100
AcDbEntity
  8
0
100
AcDbLine
 62
7
  6
CONTINUOUS
 10
44.4645022993
 20
-82.1821971408
 11
45.0845189809
 21
-82.5401870021
  0
LINE
  5
315
100
AcDbEntity
  8
0
100
AcDbLine
 62
7
  6
CONTINUOUS
 10
45.8504117914
 20
-82.982403912
 11
46.4704291801
 21
-83.3403941816
  0
LINE
  5
316
100
AcDbEntity
  8
0
100
AcDbLine
 62
7
  6
CONTINUOUS
 10
47.4022562483
 20
-83.8784141635
 11
47.8124142439
 21
-84.1152342496
  0
LINE
  5
317
100
AcDbEntity
  8
0
100
AcDbLine
 62
7
  6
CONTINUOUS
 10
48.744252288
 20
-84.6532658576
 11
49.704655275
 21
-85.2077905632
  0
LINE
  5
318
100
AcDbEntity
  8
0
100
AcDbLine
 62
7
  6
CONTINUOUS
 10
41.6792957781
 20
-80.5331127089
 11
42.0894382172
 21
-80.769923813
  0
LINE
  5
319
100
AcDbEntity
  8
0
100
AcDbLine
 62
7
  6
CONTINUOUS
 10
42.9961308372
 20
-81.2934367682
 11
43.4062732764
 21
-81.5302478723
  0
LINE
  5
31A
100
AcDbEntity
  8
0
100
AcDbLine
 62
7
  6
CONTINUOUS
 10
43.6796966194
 20
-81.6881190838
 11
44.0898341088
 21
-81.92492733
  0
LINE
  5
31B
100
AcDbEntity
  8
0
100
AcDbLine
 62
7
  6
CONTINUOUS
 10
44.4999560419
 20
-82.1617265941
 11
45.1199727235
 21
-82.5197164554
  0
LINE
  5
31C
100
AcDbEntity
  8
0
100
AcDbLine
 62
7
  6
CONTINUOUS
 10
45.8858655341
 20
-82.9619333653
 11
46.5058829228
 21
-83.3199236349
  0
LINE
  5
31D
100
AcDbEntity
  8
0
100
AcDbLine
 62
7
  6
CONTINUOUS
 10
47.4377099906
 20
-83.857943617
 11
47.8478679861
 21
-84.0947637032
  0
LINE
  5
31E
100
AcDbEntity
  8
0
100
AcDbLine
 62
7
  6
CONTINUOUS
 10
48.7797060303
 20
-84.6327953112
 11
49.7407568257
 21
-85.1876939957
  0
LINE
  5
31F
100
AcDbEntity
  8
0
100
AcDbLine
 62
7
  6
CONTINUOUS
 10
50.612776498
 20
-85.1673333123
 11
-60.4020100361
 21
-21.0687869095
  0
LINE
  5
320
100
AcDbEntity
  8
0
100
AcDbLine
 62
253
  6
CONTINUOUS
 10
-60.8240313813
 20
-19.9028482161
 11
50.1907551531
 21
-84.001394619
  0
LINE
  5
321
100
AcDbEntity
  8
0
100
AcDbLine
 62
7
  6
CONTINUOUS
 10
50.7064738218
 20
-82.3638918715
 11
-60.2727789466
 21
-18.2858622198
  0
LINE
  5
322
100
AcDbEntity
  8
0
100
AcDbLine
 62
7
  6
CONTINUOUS
 10
-58.4185438154
 20
-17.1778784375
 11
50.7064738218
 21
-80.1852959635
  0
LINE
  5
323
100
AcDbEntity
  8
RACCORDO
100
AcDbLine
 62
7
  6
CONTINUOUS
 10
49.0088562497
 20
-79.0297598958
 11
49.0698079259
 21
-79.0649454516
  0
LINE
  5
324
100
AcDbEntity
  8
RACCORDO
100
AcDbLine
 62
7
  6
CONTINUOUS
 10
49.0088562497
 20
-79.0297598958
 11
44.6219633968
 21
-76.4968229433
  0
LINE
  5
325
100
AcDbEntity
  8
RACCORDO
100
AcDbLine
 62
7
  6
CONTINUOUS
 10
-50.8374520633
 20
-21.379752844
 11
-46.3896075343
 21
-23.9478753524
  0
LINE
  5
326
100
AcDbEntity
  8
RACCORDO
100
AcDbLine
 62
253
  6
CONTINUOUS
 10
-50.7020646746
 20
-21.3093673762
 11
-46.3286558581
 21
-23.8345188151
  0
LINE
  5
327
100
AcDbEntity
  8
RACCORDO
100
AcDbLine
 62
253
  6
CONTINUOUS
 10
44.7573507856
 20
-76.4264374754
 11
49.1307596021
 21
-78.9515889144
  0
LINE
  5
328
100
AcDbEntity
  8
RACCORDO
100
AcDbLine
 62
7
  6
CONTINUOUS
 10
49.342212036
 20
-78.8159942488
 11
49.4031637122
 21
-78.8511798046
  0
LINE
  5
329
100
AcDbEntity
  8
RACCORDO
100
AcDbLine
 62
7
  6
CONTINUOUS
 10
49.342212036
 20
-78.8159942488
 11
44.992192505
 21
-76.3043474902
  0
LINE
  5
32A
100
AcDbEntity
  8
RACCORDO
100
AcDbLine
 62
7
  6
CONTINUOUS
 10
-50.4672229552
 20
-21.187277391
 11
-46.056251748
 21
-23.7341097054
  0
LINE
  5
32B
100
AcDbEntity
  8
RACCORDO
100
AcDbLine
 62
253
  6
CONTINUOUS
 10
-50.3318355664
 20
-21.1168919231
 11
-45.9953000718
 21
-23.6207531681
  0
LINE
  5
32C
100
AcDbEntity
  8
RACCORDO
100
AcDbLine
 62
253
  6
CONTINUOUS
 10
45.1275798937
 20
-76.2339620224
 11
49.4641153883
 21
-78.7378232674
  0
LINE
  5
32D
100
AcDbEntity
  8
RACCORDO
100
AcDbLine
 62
7
  6
CONTINUOUS
 10
49.6755678223
 20
-78.6022286019
 11
49.7365194985
 21
-78.6374141577
  0
LINE
  5
32E
100
AcDbEntity
  8
RACCORDO
100
AcDbLine
 62
7
  6
CONTINUOUS
 10
49.6755678223
 20
-78.6022286019
 11
45.3624216131
 21
-76.1118720371
  0
LINE
  5
32F
100
AcDbEntity
  8
RACCORDO
100
AcDbLine
 62
7
  6
CONTINUOUS
 10
-50.096993847
 20
-20.9948019379
 11
-45.7228959617
 21
-23.5203440584
  0
LINE
  5
330
100
AcDbEntity
  8
RACCORDO
100
AcDbLine
 62
253
  6
CONTINUOUS
 10
-49.9616064583
 20
-20.92441647
 11
-45.6619442855
 21
-23.4069875212
  0
LINE
  5
331
100
AcDbEntity
  8
RACCORDO
100
AcDbLine
 62
253
  6
CONTINUOUS
 10
45.4978090019
 20
-76.0414865693
 11
49.7974711746
 21
-78.5240576204
  0
LINE
  5
332
100
AcDbEntity
  8
RACCORDO
100
AcDbLine
 62
7
  6
CONTINUOUS
 10
50.0089236086
 20
-78.3884629549
 11
50.0698752847
 21
-78.4236485107
  0
LINE
  5
333
100
AcDbEntity
  8
RACCORDO
100
AcDbLine
 62
7
  6
CONTINUOUS
 10
50.0089236086
 20
-78.3884629549
 11
45.7326507213
 21
-75.919396584
  0
LINE
  5
334
100
AcDbEntity
  8
RACCORDO
100
AcDbLine
 62
7
  6
CONTINUOUS
 10
-49.7267647389
 20
-20.8023264848
 11
-45.3895401754
 21
-23.3065784114
  0
LINE
  5
335
100
AcDbEntity
  8
RACCORDO
100
AcDbLine
 62
253
  6
CONTINUOUS
 10
-49.5913773502
 20
-20.731941017
 11
-45.3285884993
 21
-23.1932218742
  0
LINE
  5
336
100
AcDbEntity
  8
RACCORDO
100
AcDbLine
 62
253
  6
CONTINUOUS
 10
45.86803811
 20
-75.8490111162
 11
50.1308269609
 21
-78.3102919734
  0
LINE
  5
337
100
AcDbEntity
  8
RACCORDO
100
AcDbLine
 62
7
  6
CONTINUOUS
 10
50.3422793949
 20
-78.1746973079
 11
50.403231071
 21
-78.2098828637
  0
LINE
  5
338
100
AcDbEntity
  8
RACCORDO
100
AcDbLine
 62
7
  6
CONTINUOUS
 10
50.3422793949
 20
-78.1746973079
 11
46.1028798294
 21
-75.726921131
  0
LINE
  5
339
100
AcDbEntity
  8
RACCORDO
100
AcDbLine
 62
7
  6
CONTINUOUS
 10
-49.3565356307
 20
-20.6098510317
 11
-45.0561843891
 21
-23.0928127645
  0
LINE
  5
33A
100
AcDbEntity
  8
RACCORDO
100
AcDbLine
 62
253
  6
CONTINUOUS
 10
-49.221148242
 20
-20.5394655639
 11
-44.995232713
 21
-22.9794562272
  0
LINE
  5
33B
100
AcDbEntity
  8
RACCORDO
100
AcDbLine
 62
253
  6
CONTINUOUS
 10
46.2382672182
 20
-75.6565356631
 11
50.4641827472
 21
-78.0965263264
  0
LINE
  5
33C
100
AcDbEntity
  8
RACCORDO
100
AcDbLine
 62
7
  6
CONTINUOUS
 10
50.6756351811
 20
-77.9609316609
 11
46.4731089376
 21
-75.5344456779
  0
LINE
  5
33D
100
AcDbEntity
  8
RACCORDO
100
AcDbLine
 62
7
  6
CONTINUOUS
 10
-48.9863065226
 20
-20.4173755787
 11
-44.7228286029
 21
-22.8790471175
  0
LINE
  5
33E
100
AcDbEntity
  8
RACCORDO
100
AcDbLine
 62
253
  6
CONTINUOUS
 10
-48.8509191339
 20
-20.3469901108
 11
-44.6618769267
 21
-22.7656905802
  0
LINE
  5
33F
100
AcDbEntity
  8
RACCORDO
100
AcDbLine
 62
253
  6
CONTINUOUS
 10
46.6084963263
 20
-75.46406021
 11
50.6434700871
 21
-77.7938034894
  0
LINE
  5
340
100
AcDbEntity
  8
RACCORDO
100
AcDbLine
 62
7
  6
CONTINUOUS
 10
50.7064738219
 20
-77.5724964055
 11
46.8433380457
 21
-75.3419702248
  0
LINE
  5
341
100
AcDbEntity
  8
RACCORDO
100
AcDbLine
 62
7
  6
CONTINUOUS
 10
-48.6160774144
 20
-20.2249001256
 11
-44.3894728166
 21
-22.6652814705
  0
LWPOLYLINE
  5
342
100
AcDbEntity
  8
0
100
AcDbPolyline
 62
253
  6
CONTINUOUS
 90
5
 70
0
 10
-61.8563625514
 20
-17.8860177668
 10
-61.9795305758
 20
-17.8129815692
 10
-62.0794933866
 20
-17.7273807611
 10
-62.1516075661
 20
-17.632306488
 10
-62.1930481542
 20
-17.5307439129
  0
LWPOLYLINE
  5
343
100
AcDbEntity
  8
0
100
AcDbPolyline
 62
7
  6
CONTINUOUS
 90
10
 70
0
 10
-62.9860121574
 20
-16.5805855373
 10
-63.806536875
 20
-16.0742678401
 10
-64.615873567
 20
-15.5613152444
 10
-65.4138530381
 20
-15.0418056966
 10
-66.2003447719
 20
-14.5157936244
 10
-66.9751442465
 20
-13.9833843676
 10
-67.737978842
 20
-13.4447370165
 10
-68.4886555628
 20
-12.8999637436
 10
-69.2270552063
 20
-12.3491269464
 10
-69.9530237833
 20
-11.7923156674
  0
LWPOLYLINE
  5
344
100
AcDbEntity
  8
0
100
AcDbPolyline
 62
253
  6
CONTINUOUS
 90
10
 70
0
 10
-62.9865583619
 20
-16.580934168
 10
-62.8510936188
 20
-16.6691971381
 10
-62.7259915701
 20
-16.76300168
 10
-62.6117656377
 20
-16.8620226684
 10
-62.5091998048
 20
-16.9656486155
 10
-62.4191265646
 20
-17.0731932573
 10
-62.3421013163
 20
-17.1842213704
 10
-62.278489241
 20
-17.2980342186
 10
-62.2287251228
 20
-17.4137021892
 10
-62.1930751998
 20
-17.5306235614
  0
LINE
  5
345
100
AcDbEntity
  8
0
100
AcDbLine
 62
253
  6
CONTINUOUS
 10
-61.0101515904
 20
-19.7807141929
 11
-60.8228347993
 21
-19.9040161783
  0
LWPOLYLINE
  5
346
100
AcDbEntity
  8
0
100
AcDbPolyline
 62
7
  6
CONTINUOUS
 90
10
 70
0
 10
-60.2727738442
 20
-18.2858496565
 10
-60.3136380316
 20
-18.2582725119
 10
-60.3536679581
 20
-18.2231971476
 10
-60.3916698706
 20
-18.1814649151
 10
-60.42642496
 20
-18.1342106494
 10
-60.4568509323
 20
-18.0826800162
 10
-60.4819835524
 20
-18.0281643639
 10
-60.5008612416
 20
-17.9722283744
 10
-60.5126265354
 20
-17.9167023492
 10
-60.5166508585
 20
-17.8634422774
  0
LWPOLYLINE
  5
347
100
AcDbEntity
  8
0
100
AcDbPolyline
 62
7
  6
CONTINUOUS
 90
10
 70
0
 10
-58.4185409273
 20
-17.177880105
 10
-58.4528537406
 20
-17.1519119128
 10
-58.4852493635
 20
-17.1210435649
 10
-58.5157277961
 20
-17.0852750615
 10
-58.5453362266
 20
-17.0429863348
 10
-58.5730274668
 20
-16.9957974526
 10
-58.5956599519
 20
-16.9485686178
 10
-58.6121864935
 20
-16.9029198982
 10
-58.62365428
 20
-16.857231226
 10
-58.6300633113
 20
-16.8115026014
  0
LWPOLYLINE
  5
348
100
AcDbEntity
  8
0
100
AcDbPolyline
 62
253
  6
CONTINUOUS
 90
6
 70
0
 10
-62.4292494089
 20
39.1650533897
 10
-62.6295946131
 20
39.6294231873
 10
-62.7864262903
 20
40.0869184968
 10
-62.8958127643
 20
40.5273946805
 10
-62.9622793827
 20
40.9606672225
 10
-62.9859706119
 20
41.3866567358
  0
LWPOLYLINE
  5
349
100
AcDbEntity
  8
0
100
AcDbPolyline
 62
7
  6
CONTINUOUS
 90
6
 70
0
 10
-62.0442971294
 20
39.633264683
 10
-62.0012522295
 20
39.5179200408
 10
-61.8950716023
 20
39.2786745477
 10
-61.7712327123
 20
39.0502476037
 10
-61.6326653983
 20
38.8360266842
 10
-61.516193161
 20
38.6805625612
  0
LINE
  5
34A
100
AcDbEntity
  8
0
100
AcDbLine
 62
7
  6
CONTINUOUS
 10
-62.0494288448
 20
39.6480283019
 11
-62.0442971294
 21
39.633264683
  0
LINE
  5
34B
100
AcDbEntity
  8
0
100
AcDbLine
 62
253
  6
CONTINUOUS
 10
-64.2463226025
 20
89.2521304676
 11
-63.9938095855
 21
88.0304199135
  0
LWPOLYLINE
  5
34C
100
AcDbEntity
  8
0
100
AcDbPolyline
 62
253
  6
CONTINUOUS
 90
28
 70
0
 10
-63.9938093026
 20
88.0304200145
 10
-63.9015335115
 20
87.5681682339
 10
-63.8078798988
 20
87.1181498172
 10
-63.7130413945
 20
86.6804156099
 10
-63.6174226653
 20
86.2553820988
 10
-63.5210145181
 20
85.8426941029
 10
-63.4234231711
 20
85.4412616471
 10
-63.3248838842
 20
85.051078733
 10
-63.2256327472
 20
84.6722241979
 10
-63.1253396544
 20
84.3037867017
 10
-63.0244979402
 20
83.9458245201
 10
-62.9231239018
 20
83.5983544569
 10
-62.8203513301
 20
83.2605527263
 10
-62.7170462019
 20
82.9325846768
 10
-62.6130724289
 20
82.6145582894
 10
-62.5066296486
 20
82.3058593767
 10
-62.398917604
 20
82.0069047414
 10
-62.2902096444
 20
81.7178006095
 10
-62.1783296147
 20
81.4379281694
 10
-62.0653483167
 20
81.1675818674
 10
-61.9515005674
 20
80.9072435536
 10
-61.8335224208
 20
80.6572716156
 10
-61.714748907
 20
80.4181960071
 10
-61.5954357677
 20
80.1906113439
 10
-61.4702601822
 20
79.9759520513
 10
-61.339623608
 20
79.77536281
 10
-61.2076660868
 20
79.5889491962
 10
-61.0752733435
 20
79.4167747617
  0
LWPOLYLINE
  5
34D
100
AcDbEntity
  8
RACCORDO
100
AcDbPolyline
 62
7
  6
CONTINUOUS
 90
6
 70
0
 10
-43.9933107528
 20
35.7243037982
 10
-43.9945026885
 20
35.7371508836
 10
-44.0007263649
 20
35.7559755739
 10
-44.0122557242
 20
35.7733836256
 10
-44.0291149939
 20
35.7899092404
 10
-44.0513041739
 20
35.8055524182
  0
LWPOLYLINE
  5
34E
100
AcDbEntity
  8
RACCORDO
100
AcDbPolyline
 62
7
  6
CONTINUOUS
 90
6
 70
0
 10
-28.1348624175
 20
26.1662898337
 10
-28.1136028312
 20
26.1846835879
 10
-28.0978260936
 20
26.2063103411
 10
-28.0878090899
 20
26.2305603804
 10
-28.0836340075
 20
26.2566573207
 10
-28.0834914695
 20
26.2628380737
  0
LWPOLYLINE
  5
34F
100
AcDbEntity
  8
RACCORDO
100
AcDbPolyline
 62
7
  6
CONTINUOUS
 90
6
 70
0
 10
-28.1348624175
 20
26.2567179979
 10
-28.1140177658
 20
26.2730918057
 10
-28.0986027499
 20
26.2901893861
 10
-28.0886173697
 20
26.3080107392
 10
-28.0840859738
 20
26.3270927404
 10
-28.0837863116
 20
26.3339871211
  0
LINE
  5
350
100
AcDbEntity
  8
0
100
AcDbLine
 62
7
  6
CONTINUOUS
 10
-28.1348624175
 20
26.1662898337
 11
-30.4340383658
 21
24.6311174776
  0
LINE
  5
351
100
AcDbEntity
  8
0
100
AcDbLine
 62
7
  6
CONTINUOUS
 10
-28.1348624175
 20
26.2567179979
 11
-30.5581481753
 21
24.7027769261
  0
LINE
  5
352
100
AcDbEntity
  8
0
100
AcDbLine
 62
7
  6
CONTINUOUS
 10
-32.2556443219
 20
28.6360058239
 11
-34.9469758115
 21
27.2368309983
  0
LWPOLYLINE
  5
353
100
AcDbEntity
  8
0
100
AcDbPolyline
 62
253
  6
CONTINUOUS
 90
10
 70
0
 10
51.5623697596
 20
-46.9604920409
 10
51.7671436291
 20
-46.981415606
 10
51.9668523701
 20
-47.0101314213
 10
52.1617020638
 20
-47.0464773393
 10
52.3527413895
 20
-47.0906554066
 10
52.5389757244
 20
-47.1425663137
 10
52.7176769067
 20
-47.201439202
 10
52.8880946023
 20
-47.2668805115
 10
53.0511496109
 20
-47.3392446729
 10
53.2067505767
 20
-47.418724977
  0
LWPOLYLINE
  5
354
100
AcDbEntity
  8
RACCORDO
100
AcDbPolyline
 62
7
  6
CONTINUOUS
 90
6
 70
0
 10
-50.4672229552
 20
-21.187277391
 10
-50.4934554872
 20
-21.1803819524
 10
-50.5192879034
 20
-21.1788712922
 10
-50.5447202039
 20
-21.1827454103
 10
-50.5692652367
 20
-21.1923636804
 10
-50.5934101537
 20
-21.2073667288
  0
LWPOLYLINE
  5
355
100
AcDbEntity
  8
0
100
AcDbPolyline
 62
253
  6
CONTINUOUS
 90
7
 70
0
 10
-69.8638621482
 20
-16.1730829787
 10
-69.5475803683
 20
-16.2640091494
 10
-69.2238413145
 20
-16.3643661907
 10
-68.8925702467
 20
-16.4732321955
 10
-68.553493496
 20
-16.5895502948
 10
-68.2067380699
 20
-16.7124677587
 10
-67.8528593757
 20
-16.8412755172
  0
LWPOLYLINE
  5
356
100
AcDbEntity
  8
0
100
AcDbPolyline
 62
253
  6
CONTINUOUS
 90
9
 70
0
 10
-66.3244914342
 20
-17.4107636691
 10
-65.8887828118
 20
-17.5695697889
 10
-65.4419643938
 20
-17.7269554461
 10
-64.9851382769
 20
-17.8735395734
 10
-64.5171953024
 20
-18.0163611649
 10
-64.0349786594
 20
-18.1723108054
 10
-63.5375319004
 20
-18.3387701865
 10
-63.0258453559
 20
-18.5001368189
 10
-62.4998636734
 20
-18.647413244
  0
LINE
  5
357
100
AcDbEntity
  8
0
100
AcDbLine
 62
253
  6
CONTINUOUS
 10
-67.8528593757
 20
-16.8412755172
 11
-66.3244914342
 21
-17.4107636691
  0
LINE
  5
358
100
AcDbEntity
  8
RACCORDO
100
AcDbLine
 62
253
  6
CONTINUOUS
 10
-48.4806900257
 20
-20.1545146577
 11
-44.3285211404
 21
-22.5519249332
  0
LINE
  5
359
100
AcDbEntity
  8
RACCORDO
100
AcDbLine
 62
253
  6
CONTINUOUS
 10
46.9787254345
 20
-75.271584757
 11
50.7064738219
 21
-77.4239399562
  0
LINE
  5
35A
100
AcDbEntity
  8
RACCORDO
100
AcDbLine
 62
253
  6
CONTINUOUS
 10
-48.3759734205
 20
-20.0524848725
 11
-44.2342338856
 21
-22.4438733718
  0
LINE
  5
35B
100
AcDbEntity
  8
RACCORDO
100
AcDbLine
 62
253
  6
CONTINUOUS
 10
47.0834420397
 20
-75.1695549718
 11
50.7064738219
 21
-77.2614481156
  0
LINE
  5
35C
100
AcDbEntity
  8
RACCORDO
100
AcDbLine
 62
7
  6
CONTINUOUS
 10
35.517357527
 20
-68.3099028399
 11
31.6393962158
 21
-66.0708165811
  0
LINE
  5
35D
100
AcDbEntity
  8
RACCORDO
100
AcDbLine
 62
7
  6
CONTINUOUS
 10
19.6074549503
 20
-59.12372449
 11
15.7294936391
 21
-56.8846382312
  0
LINE
  5
35E
100
AcDbEntity
  8
RACCORDO
100
AcDbLine
 62
7
  6
CONTINUOUS
 10
3.6975523736
 20
-49.9375461401
 11
-0.1804089376
 21
-47.6984598813
  0
LINE
  5
35F
100
AcDbEntity
  8
RACCORDO
100
AcDbLine
 62
7
  6
CONTINUOUS
 10
-12.2123502031
 20
-40.7513677903
 11
-16.0903115143
 21
-38.5122815314
  0
LINE
  5
360
100
AcDbEntity
  8
RACCORDO
100
AcDbLine
 62
7
  6
CONTINUOUS
 10
-28.1222527798
 20
-31.5651894404
 11
-32.000214091
 21
-29.3261031816
  0
LINE
  5
361
100
AcDbEntity
  8
DRAFT
100
AcDbLine
 62
7
  6
CONTINUOUS
 10
-48.0245032772
 20
-19.8697618678
 11
-43.917768747
 21
-22.240938916
  0
LINE
  5
362
100
AcDbEntity
  8
DRAFT
100
AcDbLine
 62
7
  6
CONTINUOUS
 10
47.434912183
 20
-74.986831967
 11
50.7064738219
 21
-76.875790655
  0
LINE
  5
363
100
AcDbEntity
  8
0
100
AcDbLine
 62
7
  6
CONTINUOUS
 10
49.8252415537
 20
-85.2914388172
 11
49.7046600554
 21
-85.2077932618
  0
LINE
  5
364
100
AcDbEntity
  8
0
100
AcDbLine
 62
7
  6
CONTINUOUS
 10
49.8612834001
 20
-85.2714251071
 11
49.7407518508
 21
-85.1876911232
  0
LINE
  5
365
100
AcDbEntity
  8
0
100
AcDbLine
 62
7
  6
CONTINUOUS
 10
49.6780834444
 20
-85.5954442502
 11
49.7348848869
 21
-85.6363807973
  0
LWPOLYLINE
  5
366
100
AcDbEntity
  8
0
100
AcDbPolyline
 62
253
  6
CONTINUOUS
 90
10
 70
0
 10
57.4798664474
 20
-88.980516926
 10
56.9716863839
 20
-88.6004314768
 10
56.4573006448
 20
-88.2106650199
 10
55.9370793788
 20
-87.8096940836
 10
55.4125603266
 20
-87.3896618097
 10
54.8829416542
 20
-86.9565038088
 10
54.3454582734
 20
-86.5236914356
 10
53.7999094133
 20
-86.0879382181
 10
53.2482974728
 20
-85.6353696315
 10
52.6915183632
 20
-85.1574735454
  0
LWPOLYLINE
  5
367
100
AcDbEntity
  8
0
100
AcDbPolyline
 62
253
  6
CONTINUOUS
 90
7
 70
0
 10
61.4380818147
 20
-91.9851798206
 10
61.0155505673
 20
-91.649524609
 10
60.5884261118
 20
-91.3163424707
 10
60.1567294587
 20
-90.9846804759
 10
59.7202120152
 20
-90.6531802082
 10
59.279133833
 20
-90.3212124207
 10
57.4798664474
 20
-88.980516926
  0
LINE
  5
368
100
AcDbEntity
  8
0
100
AcDbLine
 62
253
  6
CONTINUOUS
 10
-62.197922075
 20
38.7238358449
 11
-62.4292494089
 21
39.1650533897
  0
LWPOLYLINE
  5
369
100
AcDbEntity
  8
0
100
AcDbPolyline
 62
253
  6
CONTINUOUS
 90
8
 70
0
 10
-65.2249416395
 20
93.2129560009
 10
-65.0658939416
 20
92.6801360816
 10
-64.9153379149
 20
92.1366821024
 10
-64.7720900949
 20
91.5821940458
 10
-64.6346953714
 20
91.0149692006
 10
-64.5019272495
 20
90.4357984735
 10
-64.37288945
 20
89.847951166
 10
-64.2463226025
 20
89.2521304676
  0
LWPOLYLINE
  5
36A
100
AcDbEntity
  8
RACCORDO
100
AcDbPolyline
 62
7
  6
CONTINUOUS
 90
6
 70
0
 10
-28.0837863116
 20
26.3339871211
 10
-28.0849842136
 20
26.3468985143
 10
-28.0912390434
 20
26.365817434
 10
-28.1028261145
 20
26.383312624
 10
-28.1197697755
 20
26.3999209599
 10
-28.1420700264
 20
26.4156424417
  0
LINE
  5
36B
100
AcDbEntity
  8
RACCORDO
100
AcDbLine
 62
253
  6
CONTINUOUS
 10
-28.1348624175
 20
26.2567179979
 11
-28.1348624175
 21
26.1662898337
  0
LINE
  5
36C
100
AcDbEntity
  8
RACCORDO
100
AcDbLine
 62
7
  6
CONTINUOUS
 10
-28.0834913826
 20
26.3339875231
 11
-28.0834913826
 21
26.2632775535
  0
LINE
  5
36D
100
AcDbEntity
  8
RACCORDO
100
AcDbLine
 62
7
  6
CONTINUOUS
 10
-46.3896075343
 20
-23.9478753524
 11
-46.3286558581
 21
-23.8345188151
  0
LINE
  5
36E
100
AcDbEntity
  8
RACCORDO
100
AcDbLine
 62
7
  6
CONTINUOUS
 10
-46.056251748
 20
-23.7341097054
 11
-45.9953000718
 21
-23.6207531681
  0
LINE
  5
36F
100
AcDbEntity
  8
RACCORDO
100
AcDbLine
 62
7
  6
CONTINUOUS
 10
-45.7228959617
 20
-23.5203440584
 11
-45.6619442855
 21
-23.4069875212
  0
LINE
  5
370
100
AcDbEntity
  8
RACCORDO
100
AcDbLine
 62
7
  6
CONTINUOUS
 10
-45.3895401754
 20
-23.3065784114
 11
-45.3285884993
 21
-23.1932218742
  0
LINE
  5
371
100
AcDbEntity
  8
RACCORDO
100
AcDbLine
 62
7
  6
CONTINUOUS
 10
-45.0561843891
 20
-23.0928127645
 11
-44.995232713
 21
-22.9794562272
  0
LINE
  5
372
100
AcDbEntity
  8
RACCORDO
100
AcDbLine
 62
7
  6
CONTINUOUS
 10
-44.7228286029
 20
-22.8790471175
 11
-44.6618769267
 21
-22.7656905802
  0
LINE
  5
373
100
AcDbEntity
  8
RACCORDO
100
AcDbLine
 62
7
  6
CONTINUOUS
 10
-44.3894728166
 20
-22.6652814705
 11
-44.3285211404
 21
-22.5519249332
  0
LINE
  5
374
100
AcDbEntity
  8
RACCORDO
100
AcDbLine
 62
7
  6
CONTINUOUS
 10
-50.769758369
 20
-21.4188311566
 11
-50.7020646746
 21
-21.3093673762
  0
LINE
  5
375
100
AcDbEntity
  8
RACCORDO
100
AcDbLine
 62
7
  6
CONTINUOUS
 10
-50.3995292608
 20
-21.2263557036
 11
-50.3318355664
 21
-21.1168919231
  0
LINE
  5
376
100
AcDbEntity
  8
RACCORDO
100
AcDbLine
 62
7
  6
CONTINUOUS
 10
-50.0293001527
 20
-21.0338802505
 11
-49.9616064583
 21
-20.92441647
  0
LINE
  5
377
100
AcDbEntity
  8
RACCORDO
100
AcDbLine
 62
7
  6
CONTINUOUS
 10
-49.6590710445
 20
-20.8414047974
 11
-49.5913773502
 21
-20.731941017
  0
LINE
  5
378
100
AcDbEntity
  8
RACCORDO
100
AcDbLine
 62
7
  6
CONTINUOUS
 10
-49.2888419364
 20
-20.6489293443
 11
-49.221148242
 21
-20.5394655639
  0
LINE
  5
379
100
AcDbEntity
  8
RACCORDO
100
AcDbLine
 62
7
  6
CONTINUOUS
 10
-48.9186128282
 20
-20.4564538913
 11
-48.8509191339
 21
-20.3469901108
  0
LINE
  5
37A
100
AcDbEntity
  8
RACCORDO
100
AcDbLine
 62
7
  6
CONTINUOUS
 10
-48.5483837201
 20
-20.2639784382
 11
-48.4806900257
 21
-20.1545146577
  0
LINE
  5
37B
100
AcDbEntity
  8
0
100
AcDbLine
 62
7
  6
CONTINUOUS
 10
-16.3457417452
 20
19.4498274741
 11
-19.0370732348
 21
18.0506526484
  0
LWPOLYLINE
  5
37C
100
AcDbEntity
  8
0
100
AcDbPolyline
 62
253
  6
CONTINUOUS
 90
9
 70
0
 10
-69.8637655392
 20
-16.1755851445
 10
-70.6470546534
 20
-16.0162608868
 10
-71.3708775572
 20
-15.9195669692
 10
-72.0379496425
 20
-15.8932932404
 10
-72.6502881436
 20
-15.9499173524
 10
-73.2108704692
 20
-16.0896951474
 10
-73.7234063225
 20
-16.2980470246
 10
-74.1902320612
 20
-16.5697487761
 10
-74.612521827
 20
-16.9115622781
  0
LWPOLYLINE
  5
37D
100
AcDbEntity
  8
RACCORDO
100
AcDbPolyline
 62
7
  6
CONTINUOUS
 90
6
 70
0
 10
-50.096993847
 20
-20.9948019379
 10
-50.1232263791
 20
-20.9879064993
 10
-50.1490587953
 20
-20.9863958391
 10
-50.1744910957
 20
-20.9902699573
 10
-50.1990361285
 20
-20.9998882273
 10
-50.2231810455
 20
-21.0148912758
  0
LWPOLYLINE
  5
37E
100
AcDbEntity
  8
RACCORDO
100
AcDbPolyline
 62
7
  6
CONTINUOUS
 90
6
 70
0
 10
-49.7267647389
 20
-20.8023264848
 10
-49.7529972709
 20
-20.7954310463
 10
-49.7788296871
 20
-20.7939203861
 10
-49.8042619876
 20
-20.7977945042
 10
-49.8288070204
 20
-20.8074127743
 10
-49.8529519374
 20
-20.8224158227
  0
LWPOLYLINE
  5
37F
100
AcDbEntity
  8
RACCORDO
100
AcDbPolyline
 62
7
  6
CONTINUOUS
 90
6
 70
0
 10
-49.3565356307
 20
-20.6098510317
 10
-49.3827681628
 20
-20.6029555932
 10
-49.408600579
 20
-20.601444933
 10
-49.4340328794
 20
-20.6053190511
 10
-49.4585779122
 20
-20.6149373212
 10
-49.4827228292
 20
-20.6299403696
  0
LWPOLYLINE
  5
380
100
AcDbEntity
  8
RACCORDO
100
AcDbPolyline
 62
7
  6
CONTINUOUS
 90
6
 70
0
 10
-48.9863065226
 20
-20.4173755787
 10
-49.0125390546
 20
-20.4104801401
 10
-49.0383714708
 20
-20.4089694799
 10
-49.0638037713
 20
-20.412843598
 10
-49.0883488041
 20
-20.4224618681
 10
-49.1124937211
 20
-20.4374649165
  0
LWPOLYLINE
  5
381
100
AcDbEntity
  8
RACCORDO
100
AcDbPolyline
 62
7
  6
CONTINUOUS
 90
10
 70
0
 10
-48.6160774144
 20
-20.2249001256
 10
-48.6423099465
 20
-20.218004687
 10
-48.6681423627
 20
-20.2164940268
 10
-48.6935746631
 20
-20.220368145
 10
-48.7181196959
 20
-20.229986415
 10
-48.7422646129
 20
-20.2449894634
 10
-48.7674708697
 20
-20.2642991693
 10
-48.794225618
 20
-20.287556159
 10
-48.8220417061
 20
-20.3151198062
 10
-48.8509191339
 20
-20.3469901108
  0
LINE
  5
382
100
AcDbEntity
  8
0
100
AcDbLine
 62
7
  6
CONTINUOUS
 10
75.1532887813
 20
-72.888307222
 11
73.6723602349
 21
-72.0332376397
  0
LWPOLYLINE
  5
383
100
AcDbEntity
  8
0
100
AcDbPolyline
 62
253
  6
CONTINUOUS
 90
10
 70
0
 10
61.438008018
 20
-91.9875835987
 10
62.5067531034
 20
-92.8976006765
 10
63.5234349647
 20
-93.8058523966
 10
64.4864530708
 20
-94.7207723144
 10
65.3935598002
 20
-95.6547050595
 10
66.2441599652
 20
-96.6092819383
 10
67.0392043917
 20
-97.5726142812
 10
67.7781568883
 20
-98.5405172738
 10
68.459082474
 20
-99.5193134931
 10
69.0808820898
 20
-100.5092477746
  0
LINE
  5
384
100
AcDbEntity
  8
0
100
AcDbLine
 62
7
  6
CONTINUOUS
 10
49.7348848869
 20
-85.6363807973
 11
49.7858882443
 21
-85.6831438362
  0
LINE
  5
385
100
AcDbEntity
  8
0
100
AcDbLine
 62
253
  6
CONTINUOUS
 10
60.3988488205
 20
-99.681084583
 11
60.1822137371
 21
-99.4647617858
  0
LWPOLYLINE
  5
386
100
AcDbEntity
  8
0
100
AcDbPolyline
 62
253
  6
CONTINUOUS
 90
3
 70
0
 10
60.1822137371
 20
-99.4647617858
 10
59.9651570378
 20
-99.2423021688
 10
59.7477701564
 20
-99.013641473
  0
LWPOLYLINE
  5
387
100
AcDbEntity
  8
0
100
AcDbPolyline
 62
253
  6
CONTINUOUS
 90
13
 70
0
 10
-60.8318679246
 20
38.0711402446
 10
-60.8972523395
 20
38.16030571
 10
-60.9416146081
 20
38.2729970936
 10
-60.9635751488
 20
38.405416584
 10
-60.9624950994
 20
38.5531869047
 10
-60.9384883798
 20
38.7113738824
 10
-60.8924759651
 20
38.8746275387
 10
-60.8263226541
 20
39.0371242307
 10
-60.7421806865
 20
39.1941241227
 10
-60.6419883378
 20
39.3417848221
 10
-60.5284322758
 20
39.4754142656
 10
-60.4053313489
 20
39.589862206
 10
-60.2766847368
 20
39.6809106574
  0
LWPOLYLINE
  5
388
100
AcDbEntity
  8
0
100
AcDbPolyline
 62
253
  6
CONTINUOUS
 90
4
 70
0
 10
-61.3016323682
 20
38.4395283289
 10
-61.2605980453
 20
38.3786981184
 10
-61.2305007662
 20
38.3078214739
 10
-61.2114526488
 20
38.2272850027
  0
LINE
  5
389
100
AcDbEntity
  8
0
100
AcDbLine
 62
253
  6
CONTINUOUS
 10
-61.9396078708
 20
38.3158845698
 11
-62.197922075
 21
38.7238358449
  0
LWPOLYLINE
  5
38A
100
AcDbEntity
  8
0
100
AcDbPolyline
 62
253
  6
CONTINUOUS
 90
12
 70
0
 10
-62.1930481542
 20
76.6893931647
 10
-62.1500354285
 20
76.5851347963
 10
-62.0742163839
 20
76.4872925856
 10
-61.9682190185
 20
76.3992765219
 10
-61.8349545141
 20
76.3237953295
 10
-61.6795931169
 20
76.2640109076
 10
-61.5104351158
 20
76.2225550235
 10
-61.3361621916
 20
76.2001524095
 10
-61.1607088163
 20
76.1960119937
 10
-60.9857938904
 20
76.2098702755
 10
-60.8157968831
 20
76.2418756082
 10
-60.657669423
 20
76.2912393297
  0
LWPOLYLINE
  5
38B
100
AcDbEntity
  8
RACCORDO
100
AcDbPolyline
 62
7
  6
CONTINUOUS
 90
9
 70
0
 10
-46.6206514689
 20
-23.989833616
 10
-46.6151321545
 20
-23.9827490848
 10
-46.5922328083
 20
-23.9587171159
 10
-46.5701323615
 20
-23.9414028707
 10
-46.5483921806
 20
-23.9299124386
 10
-46.5256963651
 20
-23.9215640883
 10
-46.5016062815
 20
-23.9154639093
 10
-46.4765605633
 20
-23.9125058121
 10
-46.4505592105
 20
-23.9126897966
  0
LWPOLYLINE
  5
38C
100
AcDbEntity
  8
RACCORDO
100
AcDbPolyline
 62
7
  6
CONTINUOUS
 90
10
 70
0
 10
-46.3286558581
 20
-23.8345188151
 10
-46.3016349828
 20
-23.7999331651
 10
-46.2759791918
 20
-23.7701377781
 10
-46.2516884852
 20
-23.7451326542
 10
-46.2294075886
 20
-23.7247982855
 10
-46.2084917764
 20
-23.7092541798
 10
-46.1870068716
 20
-23.698858861
 10
-46.1643081484
 20
-23.693731837
 10
-46.1410403326
 20
-23.6937535999
 10
-46.1172034242
 20
-23.6989241496
  0
LWPOLYLINE
  5
38D
100
AcDbEntity
  8
RACCORDO
100
AcDbPolyline
 62
7
  6
CONTINUOUS
 90
10
 70
0
 10
-45.9953000718
 20
-23.6207531681
 10
-45.9682791965
 20
-23.5861675181
 10
-45.9426234055
 20
-23.5563721311
 10
-45.9183326989
 20
-23.5313670072
 10
-45.8960518023
 20
-23.5110326385
 10
-45.8751359901
 20
-23.4954885328
 10
-45.8536510853
 20
-23.485093214
 10
-45.8309523621
 20
-23.47996619
 10
-45.8076845463
 20
-23.4799879529
 10
-45.7838476379
 20
-23.4851585026
  0
LWPOLYLINE
  5
38E
100
AcDbEntity
  8
RACCORDO
100
AcDbPolyline
 62
7
  6
CONTINUOUS
 90
10
 70
0
 10
-45.6619442855
 20
-23.4069875212
 10
-45.6349234102
 20
-23.3724018711
 10
-45.6092676192
 20
-23.3426064841
 10
-45.5849769126
 20
-23.3176013602
 10
-45.562696016
 20
-23.2972669915
 10
-45.5417802038
 20
-23.2817228858
 10
-45.520295299
 20
-23.271327567
 10
-45.4975965758
 20
-23.266200543
 10
-45.47432876
 20
-23.2662223059
 10
-45.4504918516
 20
-23.2713928556
  0
LWPOLYLINE
  5
38F
100
AcDbEntity
  8
RACCORDO
100
AcDbPolyline
 62
7
  6
CONTINUOUS
 90
10
 70
0
 10
-45.3285884993
 20
-23.1932218742
 10
-45.3015676239
 20
-23.1586362241
 10
-45.2759118329
 20
-23.1288408372
 10
-45.2516211263
 20
-23.1038357133
 10
-45.2293402297
 20
-23.0835013445
 10
-45.2084244175
 20
-23.0679572388
 10
-45.1869395127
 20
-23.05756192
 10
-45.1642407895
 20
-23.052434896
 10
-45.1409729738
 20
-23.0524566589
 10
-45.1171360653
 20
-23.0576272086
  0
LWPOLYLINE
  5
390
100
AcDbEntity
  8
RACCORDO
100
AcDbPolyline
 62
7
  6
CONTINUOUS
 90
10
 70
0
 10
-44.995232713
 20
-22.9794562272
 10
-44.9682118376
 20
-22.9448705771
 10
-44.9425560466
 20
-22.9150751902
 10
-44.91826534
 20
-22.8900700663
 10
-44.8959844434
 20
-22.8697356975
 10
-44.8750686312
 20
-22.8541915919
 10
-44.8535837264
 20
-22.8437962731
 10
-44.8308850032
 20
-22.8386692491
 10
-44.8076171875
 20
-22.8386910119
 10
-44.783780279
 20
-22.8438615617
  0
LWPOLYLINE
  5
391
100
AcDbEntity
  8
RACCORDO
100
AcDbPolyline
 62
7
  6
CONTINUOUS
 90
10
 70
0
 10
-44.6618769267
 20
-22.7656905802
 10
-44.6348560513
 20
-22.7311049302
 10
-44.6092002603
 20
-22.7013095432
 10
-44.5849095537
 20
-22.6763044193
 10
-44.5626286571
 20
-22.6559700505
 10
-44.5417128449
 20
-22.6404259449
 10
-44.5202279401
 20
-22.6300306261
 10
-44.4975292169
 20
-22.6249036021
 10
-44.4742614012
 20
-22.6249253649
 10
-44.4504244927
 20
-22.6300959147
  0
LWPOLYLINE
  5
392
100
AcDbEntity
  8
0
100
AcDbPolyline
 62
253
  6
CONTINUOUS
 90
10
 70
0
 10
-65.2249416395
 20
-26.1046898866
 10
-65.0658939416
 20
-25.9608829683
 10
-64.9153379149
 20
-25.7986788299
 10
-64.7720900949
 20
-25.6182880058
 10
-64.6346953714
 20
-25.4193906896
 10
-64.5019272495
 20
-25.2028391837
 10
-64.37288945
 20
-24.970712894
 10
-64.2463226025
 20
-24.7240176574
 10
-64.1205019533
 20
-24.4626319221
 10
-63.9938095855
 20
-24.1870468021
  0
LWPOLYLINE
  5
393
100
AcDbEntity
  8
RACCORDO
100
AcDbPolyline
 62
7
  6
CONTINUOUS
 90
6
 70
0
 10
-12.2249598408
 20
16.9801114839
 10
-12.2037002545
 20
16.9985052381
 10
-12.1879235169
 20
17.0201319912
 10
-12.1779065132
 20
17.0443820305
 10
-12.1737314308
 20
17.0704789708
 10
-12.1735888928
 20
17.0766597238
  0
LWPOLYLINE
  5
394
100
AcDbEntity
  8
RACCORDO
100
AcDbPolyline
 62
7
  6
CONTINUOUS
 90
6
 70
0
 10
-12.2249598408
 20
17.070539648
 10
-12.2041151891
 20
17.0869134558
 10
-12.1887001732
 20
17.1040110362
 10
-12.178714793
 20
17.1218323893
 10
-12.1741833971
 20
17.1409143905
 10
-12.1738837349
 20
17.1478087712
  0
LINE
  5
395
100
AcDbEntity
  8
0
100
AcDbLine
 62
7
  6
CONTINUOUS
 10
-12.2249598408
 20
16.9801114839
 11
-14.5241357891
 21
15.4449391277
  0
LINE
  5
396
100
AcDbEntity
  8
0
100
AcDbLine
 62
7
  6
CONTINUOUS
 10
-12.2249598408
 20
17.070539648
 11
-14.6482455986
 21
15.5165985762
  0
LWPOLYLINE
  5
397
100
AcDbEntity
  8
0
100
AcDbPolyline
 62
253
  6
CONTINUOUS
 90
6
 70
0
 10
-66.2875108955
 20
-26.533968236
 10
-66.1560486912
 20
-26.51863245
 10
-66.0280322149
 20
-26.4954137598
 10
-65.9033895237
 20
-26.4642366526
 10
-65.7818270749
 20
-26.4251052357
 10
-65.6634402561
 20
-26.377875795
  0
LWPOLYLINE
  5
398
100
AcDbEntity
  8
0
100
AcDbPolyline
 62
253
  6
CONTINUOUS
 90
5
 70
0
 10
-61.1885312343
 20
-18.024663887
 10
-61.3747455907
 20
-18.016644522
 10
-61.5523107537
 20
-17.9892686068
 10
-61.7135996961
 20
-17.9450523871
 10
-61.8563625514
 20
-17.8860177668
  0
LWPOLYLINE
  5
399
100
AcDbEntity
  8
RACCORDO
100
AcDbPolyline
 62
7
  6
CONTINUOUS
 90
5
 70
0
 10
-50.8374520633
 20
-21.379752844
 10
-50.8674617857
 20
-21.3780959463
 10
-50.8959554282
 20
-21.3795657636
 10
-50.922932991
 20
-21.3841622959
 10
-50.9476784336
 20
-21.390980346
  0
LWPOLYLINE
  5
39A
100
AcDbEntity
  8
0
100
AcDbPolyline
 62
253
  6
CONTINUOUS
 90
10
 70
0
 10
51.5623697596
 20
-25.2424994568
 10
51.7671436291
 20
-25.2634108928
 10
51.9668523701
 20
-25.2921293035
 10
52.1617020638
 20
-25.3284856998
 10
52.3527413895
 20
-25.3726673721
 10
52.5389757244
 20
-25.4245731849
 10
52.7176769067
 20
-25.4834468007
 10
52.8880946023
 20
-25.5488965881
 10
53.0511496109
 20
-25.621262951
 10
53.2067505767
 20
-25.7007323931
  0
LWPOLYLINE
  5
39B
100
AcDbEntity
  8
RACCORDO
100
AcDbPolyline
 62
7
  6
CONTINUOUS
 90
4
 70
0
 10
50.5676015858
 20
-42.0955080675
 10
50.5986409891
 20
-42.110034869
 10
50.6323251757
 20
-42.1191666942
 10
50.6675139549
 20
-42.1223057552
  0
LWPOLYLINE
  5
39C
100
AcDbEntity
  8
0
100
AcDbPolyline
 62
253
  6
CONTINUOUS
 90
10
 70
0
 10
-62.9867174271
 20
19.6699272021
 10
-62.8490058247
 20
19.5800443333
 10
-62.7235787482
 20
19.4858137358
 10
-62.6101521226
 20
19.3873179267
 10
-62.5081814807
 20
19.2840926097
 10
-62.4183267726
 20
19.1765758484
 10
-62.3418502085
 20
19.0662775557
 10
-62.2789271678
 20
18.9537727009
 10
-62.229247925
 20
18.838531906
 10
-62.1930858325
 20
18.7204823273
  0
LWPOLYLINE
  5
39D
100
AcDbEntity
  8
RACCORDO
100
AcDbPolyline
 62
7
  6
CONTINUOUS
 90
6
 70
0
 10
-60.4367960236
 20
21.9970399004
 10
-60.4644157788
 20
22.0162597784
 10
-60.4887415224
 20
22.0402029254
 10
-60.5088096651
 20
22.0682145245
 10
-60.5239447298
 20
22.0997198773
 10
-60.5333667785
 20
22.1333906333
  0
LWPOLYLINE
  5
39E
100
AcDbEntity
  8
0
100
AcDbPolyline
 62
253
  6
CONTINUOUS
 90
10
 70
0
 10
-61.3274917698
 20
37.5709223774
 10
-61.2305458052
 20
37.4761092751
 10
-61.13255669
 20
37.3851511647
 10
-61.0335244242
 20
37.2980480463
 10
-60.9331926078
 20
37.2146023975
 10
-60.8318176409
 20
37.1350117406
 10
-60.7301687232
 20
37.0598686427
 10
-60.6285022547
 20
36.9893706262
 10
-60.5265618356
 20
36.9233201687
 10
-60.4243474657
 20
36.8617172702
  0
LWPOLYLINE
  5
39F
100
AcDbEntity
  8
0
100
AcDbPolyline
 62
253
  6
CONTINUOUS
 90
10
 70
0
 10
50.1920118473
 20
-84.0026029556
 10
50.2745101904
 20
-84.0913507699
 10
50.3489527125
 20
-84.1918078515
 10
50.4149778527
 20
-84.3035310574
 10
50.4724014128
 20
-84.4265075841
 10
50.520593113
 20
-84.5598728382
 10
50.5588139803
 20
-84.7015807241
 10
50.5869043669
 20
-84.8503076112
 10
50.6049463256
 20
-85.0057813911
 10
50.6128769493
 20
-85.1672682536
  0
LWPOLYLINE
  5
3A0
100
AcDbEntity
  8
0
100
AcDbPolyline
 62
253
  6
CONTINUOUS
 90
7
 70
0
 10
59.7477701564
 20
-99.013641473
 10
59.5298951093
 20
-98.7785231001
 10
59.3118456866
 20
-98.5370395901
 10
59.0943765373
 20
-98.2896176864
 10
58.8777341839
 20
-98.0363027128
 10
58.6616879892
 20
-97.7767736762
 10
58.4462296711
 20
-97.5108742375
  0
LWPOLYLINE
  5
3A1
100
AcDbEntity
  8
0
100
AcDbPolyline
 62
253
  6
CONTINUOUS
 90
3
 70
0
 10
-61.327553841
 20
37.5708681957
 10
-61.6496251367
 20
37.9314800004
 10
-61.9396078708
 20
38.3158845698
  0
LWPOLYLINE
  5
3A2
100
AcDbEntity
  8
0
100
AcDbPolyline
 62
7
  6
CONTINUOUS
 90
3
 70
0
 10
49.7858882443
 20
-85.6831438362
 10
49.8311056282
 20
-85.7357251672
 10
49.871969271
 20
-85.7969384788
  0
LWPOLYLINE
  5
3A3
100
AcDbEntity
  8
0
100
AcDbPolyline
 62
253
  6
CONTINUOUS
 90
3
 70
0
 10
-61.5083618767
 20
38.6707924043
 10
-61.4767332222
 20
38.6321436571
 10
-61.3016304644
 20
38.4395262228
  0
LINE
  5
3A4
100
AcDbEntity
  8
0
100
AcDbLine
 62
7
  6
CONTINUOUS
 10
-61.516193161
 20
38.6805625612
 11
-61.5083618767
 21
38.6707924043
  0
LWPOLYLINE
  5
3A5
100
AcDbEntity
  8
0
100
AcDbPolyline
 62
253
  6
CONTINUOUS
 90
10
 70
0
 10
-66.2875108955
 20
95.8970699999
 10
-66.1560486912
 20
95.6315694498
 10
-66.0280322149
 20
95.357699124
 10
-65.9033895237
 20
95.0754890951
 10
-65.7818270749
 20
94.784761035
 10
-65.6634402561
 20
94.4857335866
 10
-65.5486879325
 20
94.1790042751
 10
-65.4375886749
 20
93.8647500408
 10
-65.3297461126
 20
93.5427455829
 10
-65.2249416395
 20
93.2129560009
  0
LWPOLYLINE
  5
3A6
100
AcDbEntity
  8
RACCORDO
100
AcDbPolyline
 62
7
  6
CONTINUOUS
 90
6
 70
0
 10
-12.1738837349
 20
17.1478087712
 10
-12.175081637
 20
17.1607201644
 10
-12.1813364667
 20
17.1796390841
 10
-12.1929235378
 20
17.1971342741
 10
-12.2098671988
 20
17.2137426101
 10
-12.2321674497
 20
17.2294640918
  0
LINE
  5
3A7
100
AcDbEntity
  8
RACCORDO
100
AcDbLine
 62
253
  6
CONTINUOUS
 10
-12.2249598408
 20
17.070539648
 11
-12.2249598408
 21
16.9801114839
  0
LINE
  5
3A8
100
AcDbEntity
  8
RACCORDO
100
AcDbLine
 62
7
  6
CONTINUOUS
 10
-12.1735888059
 20
17.1478091732
 11
-12.1735888059
 21
17.0770992036
  0
LWPOLYLINE
  5
3A9
100
AcDbEntity
  8
RACCORDO
100
AcDbPolyline
 62
7
  6
CONTINUOUS
 90
5
 70
0
 10
-50.5934101537
 20
-21.2073667288
 10
-50.6186164104
 20
-21.2266764347
 10
-50.6453711587
 20
-21.2499334244
 10
-50.6731872468
 20
-21.2774970716
 10
-50.7020646746
 20
-21.3093673762
  0
LWPOLYLINE
  5
3AA
100
AcDbEntity
  8
RACCORDO
100
AcDbPolyline
 62
7
  6
CONTINUOUS
 90
5
 70
0
 10
-50.2231810455
 20
-21.0148912758
 10
-50.2483873023
 20
-21.0342009816
 10
-50.2751420506
 20
-21.0574579713
 10
-50.3029581386
 20
-21.0850216185
 10
-50.3318355664
 20
-21.1168919231
  0
LWPOLYLINE
  5
3AB
100
AcDbEntity
  8
RACCORDO
100
AcDbPolyline
 62
7
  6
CONTINUOUS
 90
5
 70
0
 10
-49.8529519374
 20
-20.8224158227
 10
-49.8781581941
 20
-20.8417255285
 10
-49.9049129424
 20
-20.8649825182
 10
-49.9327290305
 20
-20.8925461654
 10
-49.9616064583
 20
-20.92441647
  0
LWPOLYLINE
  5
3AC
100
AcDbEntity
  8
RACCORDO
100
AcDbPolyline
 62
7
  6
CONTINUOUS
 90
5
 70
0
 10
-49.4827228292
 20
-20.6299403696
 10
-49.507929086
 20
-20.6492500755
 10
-49.5346838343
 20
-20.6725070652
 10
-49.5624999223
 20
-20.7000707123
 10
-49.5913773502
 20
-20.731941017
  0
LWPOLYLINE
  5
3AD
100
AcDbEntity
  8
RACCORDO
100
AcDbPolyline
 62
7
  6
CONTINUOUS
 90
5
 70
0
 10
-49.1124937211
 20
-20.4374649165
 10
-49.1376999778
 20
-20.4567746224
 10
-49.1644547261
 20
-20.4800316121
 10
-49.1922708142
 20
-20.5075952593
 10
-49.221148242
 20
-20.5394655639
  0
LWPOLYLINE
  5
3AE
100
AcDbEntity
  8
0
100
AcDbPolyline
 62
253
  6
CONTINUOUS
 90
3
 70
0
 10
-65.4375886749
 20
-26.2581933311
 10
-65.3297461126
 20
-26.1856736035
 10
-65.2249416395
 20
-26.1046898866
  0
LINE
  5
3AF
100
AcDbEntity
  8
0
100
AcDbLine
 62
253
  6
CONTINUOUS
 10
-60.2727789466
 20
-18.2858622198
 11
-58.4185438154
 21
-17.1778784375
  0
LINE
  5
3B0
100
AcDbEntity
  8
0
100
AcDbLine
 62
253
  6
CONTINUOUS
 10
-60.5166642891
 20
-17.8634404158
 11
-58.6300633113
 21
-16.8115159242
  0
LINE
  5
3B1
100
AcDbEntity
  8
0
100
AcDbLine
 62
7
  6
CONTINUOUS
 10
-0.4358391685
 20
10.2636491242
 11
-3.1271706581
 21
8.8644742986
  0
LWPOLYLINE
  5
3B2
100
AcDbEntity
  8
0
100
AcDbPolyline
 62
253
  6
CONTINUOUS
 90
5
 70
0
 10
-60.5168184579
 20
-17.8635264556
 10
-60.6617491376
 20
-17.9304534058
 10
-60.825722175
 20
-17.980682841
 10
-61.0030395536
 20
-18.0124552628
 10
-61.1885312343
 20
-18.024663887
  0
LINE
  5
3B3
100
AcDbEntity
  8
RACCORDO
100
AcDbLine
 62
253
  6
CONTINUOUS
 10
50.5531677389
 20
-35.5668939777
 11
50.5266288063
 21
-35.5537887136
  0
LINE
  5
3B4
100
AcDbEntity
  8
RACCORDO
100
AcDbLine
 62
253
  6
CONTINUOUS
 10
50.553150937
 20
-42.0300116634
 11
50.5266288063
 21
-42.0166301658
  0
LWPOLYLINE
  5
3B5
100
AcDbEntity
  8
0
100
AcDbPolyline
 62
253
  6
CONTINUOUS
 90
10
 70
0
 10
-60.4243474657
 20
21.1856158005
 10
-60.5265971867
 20
21.2420641933
 10
-60.6285639309
 20
21.2937435257
 10
-60.7302476983
 20
21.3406537975
 10
-60.8319046378
 20
21.3828922704
 10
-60.9332786005
 20
21.4203616829
 10
-61.0336011397
 20
21.4527702503
 10
-61.1326161065
 20
21.4800207111
 10
-61.2305796499
 20
21.5022103269
 10
-61.3274917698
 20
21.5193390976
  0
LWPOLYLINE
  5
3B6
100
AcDbEntity
  8
0
100
AcDbPolyline
 62
253
  6
CONTINUOUS
 90
10
 70
0
 10
-60.8304214376
 20
19.5024246818
 10
-60.8838906578
 20
19.5319954955
 10
-60.9372723591
 20
19.5590954135
 10
-60.9904843926
 20
19.5836829653
 10
-61.0434453148
 20
19.6057207297
 10
-61.0960732114
 20
19.6251748151
 10
-61.1482858517
 20
19.642015124
 10
-61.2000025469
 20
19.6562160706
 10
-61.2511442444
 20
19.6677564053
 10
-61.3016323682
 20
19.6766188187
  0
LINE
  5
3B7
100
AcDbEntity
  8
0
100
AcDbLine
 62
7
  6
CONTINUOUS
 10
50.2586222498
 20
-45.6113990583
 11
-60.7599163521
 21
18.4893137414
  0
LINE
  5
3B8
100
AcDbEntity
  8
0
100
AcDbLine
 62
7
  6
CONTINUOUS
 10
50.1878545095
 20
-44.5989296097
 11
-60.8306834196
 21
19.5017828015
  0
LINE
  5
3B9
100
AcDbEntity
  8
0
100
AcDbLine
 62
253
  6
CONTINUOUS
 10
-60.4243474657
 20
21.1856158005
 11
50.5997370118
 21
-42.9182991182
  0
LINE
  5
3BA
100
AcDbEntity
  8
0
100
AcDbLine
 62
7
  6
CONTINUOUS
 10
-60.5969642454
 20
21.9936668187
 11
50.7723537915
 21
-42.3095816304
  0
LINE
  5
3BB
100
AcDbEntity
  8
RACCORDO
100
AcDbLine
 62
7
  6
CONTINUOUS
 10
50.5676015858
 20
-42.0955080675
 11
-60.4367960236
 21
21.9970399004
  0
LINE
  5
3BC
100
AcDbEntity
  8
RACCORDO
100
AcDbLine
 62
253
  6
CONTINUOUS
 10
50.526628708
 20
-42.0166301088
 11
-60.4777686973
 21
22.0759177411
  0
LWPOLYLINE
  5
3BD
100
AcDbEntity
  8
RACCORDO
100
AcDbPolyline
 62
253
  6
CONTINUOUS
 90
6
 70
0
 10
-60.4367960236
 20
21.9970399004
 10
-60.441390781
 20
21.9999487019
 10
-60.4555849289
 20
22.0130506818
 10
-60.4665616466
 20
22.0304100639
 10
-60.4740236386
 20
22.0515566836
 10
-60.4777688032
 20
22.0759178023
  0
LWPOLYLINE
  5
3BE
100
AcDbEntity
  8
RACCORDO
100
AcDbPolyline
 62
253
  6
CONTINUOUS
 90
6
 70
0
 10
50.5676015858
 20
-42.0955080675
 10
50.5630068284
 20
-42.092599266
 10
50.5488126805
 20
-42.0794972861
 10
50.5378359629
 20
-42.062137904
 10
50.5303739708
 20
-42.0409912842
 10
50.5266288062
 20
-42.0166301656
  0
LWPOLYLINE
  5
3BF
100
AcDbEntity
  8
0
100
AcDbPolyline
 62
7
  6
CONTINUOUS
 90
14
 70
0
 10
50.2601449986
 20
-45.6121919133
 10
50.2746657615
 20
-45.6213962474
 10
50.3138021446
 20
-45.6503114827
 10
50.3657262151
 20
-45.6964099191
 10
50.4237600792
 20
-45.7577452934
 10
50.4830855109
 20
-45.8318398849
 10
50.5425097709
 20
-45.9198578492
 10
50.5973864206
 20
-46.0178388191
 10
50.6408654861
 20
-46.11345717
 10
50.6720488057
 20
-46.2005332995
 10
50.6927385218
 20
-46.2786048502
 10
50.7035482388
 20
-46.3422802194
 10
50.7066287966
 20
-46.3841936091
 10
50.7066863438
 20
-46.3887978496
  0
LWPOLYLINE
  5
3C0
100
AcDbEntity
  8
0
100
AcDbPolyline
 62
253
  6
CONTINUOUS
 90
6
 70
0
 10
-61.3016323682
 20
38.4395283289
 10
-61.2509274054
 20
38.3898774696
 10
-61.1996467267
 20
38.3422427129
 10
-61.147872507
 20
38.2966885145
 10
-61.0957249704
 20
38.2533062172
 10
-61.0432490566
 20
38.2121189335
  0
LWPOLYLINE
  5
3C1
100
AcDbEntity
  8
0
100
AcDbPolyline
 62
253
  6
CONTINUOUS
 90
10
 70
0
 10
58.4462296711
 20
-97.5108742375
 10
58.109356234
 20
-97.0807286713
 10
57.7792054579
 20
-96.6409704496
 10
57.4552486231
 20
-96.1908215133
 10
57.1362881763
 20
-95.7284304412
 10
56.8222709505
 20
-95.2539106751
 10
56.5142273592
 20
-94.7694190683
 10
56.211895319
 20
-94.2750829893
 10
55.9137814073
 20
-93.7689227516
 10
55.6189315487
 20
-93.2499444333
  0
LWPOLYLINE
  5
3C2
100
AcDbEntity
  8
RACCORDO
100
AcDbPolyline
 62
7
  6
CONTINUOUS
 90
6
 70
0
 10
3.6849427359
 20
7.793933134
 10
3.7062023222
 20
7.8123268882
 10
3.7219790598
 20
7.8339536413
 10
3.7319960635
 20
7.8582036806
 10
3.7361711459
 20
7.8843006209
 10
3.7363136839
 20
7.8904813739
  0
LWPOLYLINE
  5
3C3
100
AcDbEntity
  8
RACCORDO
100
AcDbPolyline
 62
7
  6
CONTINUOUS
 90
6
 70
0
 10
3.6849427359
 20
7.8843612981
 10
3.7057873876
 20
7.9007351059
 10
3.7212024035
 20
7.9178326864
 10
3.7311877837
 20
7.9356540394
 10
3.7357191796
 20
7.9547360406
 10
3.7360188418
 20
7.9616304213
  0
LINE
  5
3C4
100
AcDbEntity
  8
0
100
AcDbLine
 62
7
  6
CONTINUOUS
 10
-43.917768747
 20
-22.5321253798
 11
-46.3071225826
 21
-24.1275100046
  0
LINE
  5
3C5
100
AcDbEntity
  8
0
100
AcDbLine
 62
7
  6
CONTINUOUS
 10
3.6849427359
 20
7.793933134
 11
1.3857667876
 21
6.2587607778
  0
LINE
  5
3C6
100
AcDbEntity
  8
RACCORDO
100
AcDbLine
 62
7
  6
CONTINUOUS
 10
-43.917768747
 20
-22.240938916
 11
-44.2342338856
 21
-22.4438733718
  0
LINE
  5
3C7
100
AcDbEntity
  8
0
100
AcDbLine
 62
7
  6
CONTINUOUS
 10
3.6849427359
 20
7.8843612981
 11
1.2616569781
 21
6.3304202263
  0
LINE
  5
3C8
100
AcDbEntity
  8
RACCORDO
100
AcDbLine
 62
7
  6
CONTINUOUS
 10
-48.0245032772
 20
-19.8697618678
 11
-48.3759734205
 21
-20.0524848725
  0
LWPOLYLINE
  5
3C9
100
AcDbEntity
  8
0
100
AcDbPolyline
 62
253
  6
CONTINUOUS
 90
3
 70
0
 10
-65.6634402561
 20
-26.377875795
 10
-65.5486879325
 20
-26.322274406
 10
-65.4375886749
 20
-26.2581933311
  0
LWPOLYLINE
  5
3CA
100
AcDbEntity
  8
RACCORDO
100
AcDbPolyline
 62
7
  6
CONTINUOUS
 90
5
 70
0
 10
-50.9476784336
 20
-21.390980346
 10
-50.9709077963
 20
-21.4009251111
 10
-50.9947692005
 20
-21.4167121829
 10
-51.0199786865
 20
-21.4392467584
 10
-51.0262278446
 20
-21.4461090316
  0
LINE
  5
3CB
100
AcDbEntity
  8
RACCORDO
100
AcDbLine
 62
253
  6
CONTINUOUS
 10
51.8892922695
 20
23.4801701088
 11
51.7992492959
 21
23.4459384699
  0
LWPOLYLINE
  5
3CC
100
AcDbEntity
  8
0
100
AcDbPolyline
 62
253
  6
CONTINUOUS
 90
10
 70
0
 10
60.3988488205
 20
22.7499536529
 10
60.1822137371
 20
22.685440114
 10
59.9651570378
 20
22.610810715
 10
59.7477701564
 20
22.5260842747
 10
59.5298951093
 20
22.4313431707
 10
59.3118456866
 20
22.3265697915
 10
59.0943765373
 20
22.2116609947
 10
58.8777341839
 20
22.0866406591
 10
58.6616879892
 20
21.9516455102
 10
58.4462296711
 20
21.80677165
  0
LWPOLYLINE
  5
3CD
100
AcDbEntity
  8
RACCORDO
100
AcDbPolyline
 62
7
  6
CONTINUOUS
 90
6
 70
0
 10
44.6219633968
 20
-18.527433291
 10
44.5957308648
 20
-18.5205378525
 10
44.5698984486
 20
-18.5190271922
 10
44.5444661482
 20
-18.5229013104
 10
44.5199211154
 20
-18.5325195804
 10
44.4957761984
 20
-18.5475226289
  0
LWPOLYLINE
  5
3CE
100
AcDbEntity
  8
RACCORDO
100
AcDbPolyline
 62
7
  6
CONTINUOUS
 90
6
 70
0
 10
44.992192505
 20
-18.3349578379
 10
44.965959973
 20
-18.3280623994
 10
44.9401275567
 20
-18.3265517392
 10
44.9146952563
 20
-18.3304258573
 10
44.8901502235
 20
-18.3400441274
 10
44.8660053065
 20
-18.3550471758
  0
LWPOLYLINE
  5
3CF
100
AcDbEntity
  8
RACCORDO
100
AcDbPolyline
 62
7
  6
CONTINUOUS
 90
6
 70
0
 10
45.3624216131
 20
-18.1424823848
 10
45.3361890811
 20
-18.1355869463
 10
45.3103566649
 20
-18.1340762861
 10
45.2849243645
 20
-18.1379504042
 10
45.2603793317
 20
-18.1475686743
 10
45.2362344147
 20
-18.1625717227
  0
LWPOLYLINE
  5
3D0
100
AcDbEntity
  8
RACCORDO
100
AcDbPolyline
 62
7
  6
CONTINUOUS
 90
6
 70
0
 10
45.7326507213
 20
-17.9500069318
 10
45.7064181893
 20
-17.9431114932
 10
45.680585773
 20
-17.941600833
 10
45.6551534726
 20
-17.9454749511
 10
45.6306084398
 20
-17.9550932212
 10
45.6064635228
 20
-17.9700962696
  0
LWPOLYLINE
  5
3D1
100
AcDbEntity
  8
RACCORDO
100
AcDbPolyline
 62
7
  6
CONTINUOUS
 90
6
 70
0
 10
46.1028798294
 20
-17.7575314787
 10
46.0766472974
 20
-17.7506360401
 10
46.0508148812
 20
-17.7491253799
 10
46.0253825808
 20
-17.7529994981
 10
46.000837548
 20
-17.7626177681
 10
45.976692631
 20
-17.7776208166
  0
LWPOLYLINE
  5
3D2
100
AcDbEntity
  8
RACCORDO
100
AcDbPolyline
 62
7
  6
CONTINUOUS
 90
6
 70
0
 10
46.4731089376
 20
-17.5650560256
 10
46.4468764056
 20
-17.5581605871
 10
46.4210439893
 20
-17.5566499269
 10
46.3956116889
 20
-17.560524045
 10
46.3710666561
 20
-17.5701423151
 10
46.3469217391
 20
-17.5851453635
  0
LWPOLYLINE
  5
3D3
100
AcDbEntity
  8
RACCORDO
100
AcDbPolyline
 62
7
  6
CONTINUOUS
 90
10
 70
0
 10
46.8433380457
 20
-17.3725805725
 10
46.8171055137
 20
-17.365685134
 10
46.7912730975
 20
-17.3641744738
 10
46.7658407971
 20
-17.3680485919
 10
46.7412957643
 20
-17.377666862
 10
46.7171508473
 20
-17.3926699104
 10
46.6919445905
 20
-17.4119796163
 10
46.6651898422
 20
-17.435236606
 10
46.6373737541
 20
-17.4628002531
 10
46.6084963263
 20
-17.4946705578
  0
LWPOLYLINE
  5
3D4
100
AcDbEntity
  8
0
100
AcDbPolyline
 62
253
  6
CONTINUOUS
 90
10
 70
0
 10
50.5997370118
 20
-27.2421976485
 10
50.7019867328
 20
-27.2986460413
 10
50.803953477
 20
-27.3503253737
 10
50.9056372444
 20
-27.3972356455
 10
51.0072941839
 20
-27.4394741185
 10
51.1086681466
 20
-27.4769435309
 10
51.2089906858
 20
-27.5093520983
 10
51.3080056526
 20
-27.5366025591
 10
51.405969196
 20
-27.5587921749
 10
51.5028813159
 20
-27.5759209456
  0
LINE
  5
3D5
100
AcDbEntity
  8
RACCORDO
100
AcDbLine
 62
253
  6
CONTINUOUS
 10
50.5266287088
 20
-35.5537886576
 11
-60.4777687133
 21
28.5387592021
  0
LINE
  5
3D6
100
AcDbEntity
  8
0
100
AcDbLine
 62
7
  6
CONTINUOUS
 10
-60.5969642454
 20
28.9069934332
 11
50.7723537915
 21
-35.3962550159
  0
LWPOLYLINE
  5
3D7
100
AcDbEntity
  8
0
100
AcDbPolyline
 62
253
  6
CONTINUOUS
 90
10
 70
0
 10
-62.9867174271
 20
41.3879197862
 10
-62.8490058247
 20
41.298026206
 10
-62.7235787482
 20
41.2037977815
 10
-62.6101521226
 20
41.1053103207
 10
-62.5081814807
 20
41.0020857145
 10
-62.4183267726
 20
40.8945639459
 10
-62.3418502085
 20
40.7842692015
 10
-62.2789271678
 20
40.6717746251
 10
-62.229247925
 20
40.5565363618
 10
-62.1930858325
 20
40.4384749113
  0
LWPOLYLINE
  5
3D8
100
AcDbEntity
  8
0
100
AcDbPolyline
 62
253
  6
CONTINUOUS
 90
10
 70
0
 10
-60.2746437001
 20
39.6821264113
 10
-60.3178459848
 20
39.7119827765
 10
-60.3577292856
 20
39.7477615764
 10
-60.3947396678
 20
39.7892102504
 10
-60.4302133321
 20
39.8383086595
 10
-60.4618044798
 20
39.8936485579
 10
-60.4859791277
 20
39.9490216146
 10
-60.5027259194
 20
40.0016978405
 10
-60.5130922341
 20
40.0538206253
 10
-60.516652761
 20
40.105630775
  0
LWPOLYLINE
  5
3D9
100
AcDbEntity
  8
0
100
AcDbPolyline
 62
253
  6
CONTINUOUS
 90
5
 70
0
 10
-61.0432490566
 20
38.2121189335
 10
-60.9904116129
 20
38.1730971508
 10
-60.9372545054
 20
38.136278907
 10
-60.8838971744
 20
38.1017540245
 10
-60.8304214376
 20
38.0695798944
  0
LWPOLYLINE
  5
3DA
100
AcDbEntity
  8
0
100
AcDbPolyline
 62
7
  6
CONTINUOUS
 90
13
 70
0
 10
-58.4204702896
 20
40.790132518
 10
-58.4489843544
 20
40.8114560168
 10
-58.4759289651
 20
40.8357227227
 10
-58.5013041217
 20
40.8629326357
 10
-58.5253898235
 20
40.8939312361
 10
-58.5479060712
 20
40.9278730436
 10
-58.5680128673
 20
40.962221617
 10
-58.5856639849
 20
40.9966587396
 10
-58.6009056509
 20
41.0315026282
 10
-58.6130365483
 20
41.0651714914
 10
-58.6218229046
 20
41.0971380657
 10
-58.6274984923
 20
41.1279296146
 10
-58.6300633113
 20
41.1575461383
  0
LWPOLYLINE
  5
3DB
100
AcDbEntity
  8
0
100
AcDbPolyline
 62
253
  6
CONTINUOUS
 90
10
 70
0
 10
-69.8638621482
 20
86.7362649531
 10
-69.5475803683
 20
86.3392626304
 10
-69.2238413145
 20
85.9463870569
 10
-68.8925702467
 20
85.5567405877
 10
-68.553493496
 20
85.1689792852
 10
-68.2067380699
 20
84.7825507205
 10
-67.8528593757
 20
84.3976767492
 10
-67.4920551523
 20
84.0138539463
 10
-67.1241261576
 20
83.6297987332
 10
-66.7490841986
 20
83.2446118639
  0
LWPOLYLINE
  5
3DC
100
AcDbEntity
  8
0
100
AcDbPolyline
 62
253
  6
CONTINUOUS
 90
10
 70
0
 10
-69.8637655392
 20
86.7386819023
 10
-70.6470546534
 20
87.8135176802
 10
-71.3708775572
 20
88.890862492
 10
-72.0379496425
 20
89.9766579332
 10
-72.6502881436
 20
91.0807861589
 10
-73.2108704692
 20
92.2028157034
 10
-73.7234063225
 20
93.3292649559
 10
-74.1902320611
 20
94.4542905279
 10
-74.6125218269
 20
95.5824198282
 10
-74.9917982566
 20
96.7123839578
  0
LWPOLYLINE
  5
3DD
100
AcDbEntity
  8
RACCORDO
100
AcDbPolyline
 62
7
  6
CONTINUOUS
 90
6
 70
0
 10
3.7360188418
 20
7.9616304213
 10
3.7348209397
 20
7.9745418145
 10
3.72856611
 20
7.9934607342
 10
3.7169790389
 20
8.0109559243
 10
3.7000353779
 20
8.0275642602
 10
3.677735127
 20
8.043285742
  0
LINE
  5
3DE
100
AcDbEntity
  8
RACCORDO
100
AcDbLine
 62
253
  6
CONTINUOUS
 10
3.6849427359
 20
7.8843612981
 11
3.6849427359
 21
7.793933134
  0
LINE
  5
3DF
100
AcDbEntity
  8
RACCORDO
100
AcDbLine
 62
7
  6
CONTINUOUS
 10
3.7363137708
 20
7.9616308233
 11
3.7363137708
 21
7.8909208537
  0
LINE
  5
3E0
100
AcDbEntity
  8
0
100
AcDbLine
 62
7
  6
CONTINUOUS
 10
15.4740634082
 20
1.0774707743
 11
12.7827319186
 21
-0.3217040513
  0
LWPOLYLINE
  5
3E1
100
AcDbEntity
  8
RACCORDO
100
AcDbPolyline
 62
253
  6
CONTINUOUS
 90
7
 70
0
 10
50.8793143721
 20
16.2773558914
 10
50.878984629
 20
16.2773024167
 10
50.8439564609
 20
16.2758015786
 10
50.8088288264
 20
16.2784026619
 10
50.7752411618
 20
16.2835502599
 10
50.7437864316
 20
16.2907560426
 10
50.7146756438
 20
16.3010091834
  0
LWPOLYLINE
  5
3E2
100
AcDbEntity
  8
RACCORDO
100
AcDbPolyline
 62
7
  6
CONTINUOUS
 90
10
 70
0
 10
47.5691160391
 20
-17.0949299393
 10
47.5418873882
 20
-17.0820540539
 10
47.5131227598
 20
-17.0722709964
 10
47.482822154
 20
-17.0655807668
 10
47.4500557349
 20
-17.0619693064
 10
47.4157533383
 20
-17.061450674
 10
47.382704472
 20
-17.0640670452
 10
47.3518389716
 20
-17.0698324786
 10
47.3222270015
 20
-17.0787329156
 10
47.2938685616
 20
-17.0907683562
  0
LWPOLYLINE
  5
3E3
100
AcDbEntity
  8
RACCORDO
100
AcDbPolyline
 62
7
  6
CONTINUOUS
 90
10
 70
0
 10
31.6592134624
 20
-8.1128691586
 10
31.6319848115
 20
-8.0999932732
 10
31.6032201831
 20
-8.0902102157
 10
31.5729195773
 20
-8.0835199861
 10
31.5401531582
 20
-8.0799085258
 10
31.5058507616
 20
-8.0793898933
 10
31.4728018953
 20
-8.0820062645
 10
31.441936395
 20
-8.0877716979
 10
31.4123244248
 20
-8.0966721349
 10
31.3839659849
 20
-8.1087075756
  0
LWPOLYLINE
  5
3E4
100
AcDbEntity
  8
RACCORDO
100
AcDbPolyline
 62
7
  6
CONTINUOUS
 90
10
 70
0
 10
15.7493108857
 20
1.0733091913
 10
15.7220822348
 20
1.0861850767
 10
15.6933176064
 20
1.0959681342
 10
15.6630170006
 20
1.1026583638
 10
15.6302505815
 20
1.1062698241
 10
15.5959481849
 20
1.1067884566
 10
15.5628993186
 20
1.1041720854
 10
15.5320338183
 20
1.098406652
 10
15.5024218481
 20
1.089506215
 10
15.4740634082
 20
1.0774707743
  0
LWPOLYLINE
  5
3E5
100
AcDbEntity
  8
RACCORDO
100
AcDbPolyline
 62
7
  6
CONTINUOUS
 90
10
 70
0
 10
-0.160591691
 20
10.2594875412
 10
-0.1878203419
 20
10.2723634266
 10
-0.2165849703
 20
10.282146484
 10
-0.2468855761
 20
10.2888367137
 10
-0.2796519952
 20
10.292448174
 10
-0.3139543918
 20
10.2929668064
 10
-0.3470032581
 20
10.2903504352
 10
-0.3778687584
 20
10.2845850019
 10
-0.4074807286
 20
10.2756845648
 10
-0.4358391685
 20
10.2636491242
  0
LWPOLYLINE
  5
3E6
100
AcDbEntity
  8
0
100
AcDbPolyline
 62
253
  6
CONTINUOUS
 90
10
 70
0
 10
50.1881171879
 20
-26.0311329181
 10
50.2415839349
 20
-26.0607062655
 10
50.2949638664
 20
-26.0878080365
 10
50.3481748333
 20
-26.1123967858
 10
50.4011354206
 20
-26.1344351282
 10
50.4537636912
 20
-26.1538891883
 10
50.5059773363
 20
-26.1707288681
 10
50.5576956425
 20
-26.1849286036
 10
50.6088395896
 20
-26.1964671868
 10
50.6593306089
 20
-26.2053273404
  0
LWPOLYLINE
  5
3E7
100
AcDbEntity
  8
0
100
AcDbPolyline
 62
253
  6
CONTINUOUS
 90
5
 70
0
 10
-61.8424527308
 20
40.0762723628
 10
-61.9705196293
 20
40.1497837425
 10
-62.0745939544
 20
40.2366066533
 10
-62.1498993045
 20
40.3338311842
 10
-62.1930481531
 20
40.438320908
  0
LINE
  5
3E8
100
AcDbEntity
  8
0
100
AcDbLine
 62
253
  6
CONTINUOUS
 10
50.5997370118
 20
-27.2421976485
 11
-60.4243474657
 21
36.8617172702
  0
LINE
  5
3E9
100
AcDbEntity
  8
0
100
AcDbLine
 62
7
  6
CONTINUOUS
 10
-60.8318679246
 20
38.0711402446
 11
50.1866706773
 21
-26.029572555
  0
LINE
  5
3EA
100
AcDbEntity
  8
0
100
AcDbLine
 62
7
  6
CONTINUOUS
 10
50.7064738223
 20
-24.3969932384
 11
-60.2746550305
 21
39.682119641
  0
LINE
  5
3EB
100
AcDbEntity
  8
0
100
AcDbLine
 62
7
  6
CONTINUOUS
 10
50.7064738222
 20
-22.2183973303
 11
-58.4204198482
 21
40.7901033938
  0
LINE
  5
3EC
100
AcDbEntity
  8
RACCORDO
100
AcDbLine
 62
7
  6
CONTINUOUS
 10
49.0698079259
 20
-21.0955557993
 11
44.6219633968
 21
-18.527433291
  0
LINE
  5
3ED
100
AcDbEntity
  8
RACCORDO
100
AcDbLine
 62
7
  6
CONTINUOUS
 10
-46.4505592105
 20
34.0566998557
 11
-50.8374520633
 21
36.5896368083
  0
LINE
  5
3EE
100
AcDbEntity
  8
RACCORDO
100
AcDbLine
 62
7
  6
CONTINUOUS
 10
-46.4505592105
 20
34.0566998557
 11
-46.3896075343
 21
34.0215142999
  0
LINE
  5
3EF
100
AcDbEntity
  8
RACCORDO
100
AcDbLine
 62
253
  6
CONTINUOUS
 10
-50.7020646746
 20
36.6600222761
 11
-46.3286558581
 21
34.1348708372
  0
LINE
  5
3F0
100
AcDbEntity
  8
RACCORDO
100
AcDbLine
 62
253
  6
CONTINUOUS
 10
44.7573507856
 20
-18.4570478231
 11
49.1307596021
 21
-20.9821992621
  0
LINE
  5
3F1
100
AcDbEntity
  8
RACCORDO
100
AcDbLine
 62
7
  6
CONTINUOUS
 10
49.4031637122
 20
-20.8817901524
 11
44.992192505
 21
-18.3349578379
  0
LINE
  5
3F2
100
AcDbEntity
  8
RACCORDO
100
AcDbLine
 62
7
  6
CONTINUOUS
 10
-46.1172034242
 20
34.2704655027
 11
-50.4672229552
 21
36.7821122613
  0
LINE
  5
3F3
100
AcDbEntity
  8
RACCORDO
100
AcDbLine
 62
7
  6
CONTINUOUS
 10
-46.1172034242
 20
34.2704655027
 11
-46.056251748
 21
34.2352799469
  0
LINE
  5
3F4
100
AcDbEntity
  8
RACCORDO
100
AcDbLine
 62
253
  6
CONTINUOUS
 10
-50.3318355664
 20
36.8524977292
 11
-45.9953000718
 21
34.3486364842
  0
LINE
  5
3F5
100
AcDbEntity
  8
RACCORDO
100
AcDbLine
 62
253
  6
CONTINUOUS
 10
45.1275798937
 20
-18.2645723701
 11
49.4641153883
 21
-20.7684336151
  0
LINE
  5
3F6
100
AcDbEntity
  8
RACCORDO
100
AcDbLine
 62
7
  6
CONTINUOUS
 10
49.7365194985
 20
-20.6680245054
 11
45.3624216131
 21
-18.1424823848
  0
LINE
  5
3F7
100
AcDbEntity
  8
RACCORDO
100
AcDbLine
 62
7
  6
CONTINUOUS
 10
-45.7838476379
 20
34.4842311497
 11
-50.096993847
 21
36.9745877144
  0
LINE
  5
3F8
100
AcDbEntity
  8
RACCORDO
100
AcDbLine
 62
7
  6
CONTINUOUS
 10
-45.7838476379
 20
34.4842311497
 11
-45.7228959617
 21
34.4490455939
  0
LINE
  5
3F9
100
AcDbEntity
  8
RACCORDO
100
AcDbLine
 62
253
  6
CONTINUOUS
 10
-49.9616064583
 20
37.0449731823
 11
-45.6619442855
 21
34.5624021311
  0
LINE
  5
3FA
100
AcDbEntity
  8
RACCORDO
100
AcDbLine
 62
253
  6
CONTINUOUS
 10
45.4978090019
 20
-18.072096917
 11
49.7974711746
 21
-20.5546679681
  0
LINE
  5
3FB
100
AcDbEntity
  8
RACCORDO
100
AcDbLine
 62
7
  6
CONTINUOUS
 10
50.0698752847
 20
-20.4542588584
 11
45.7326507213
 21
-17.9500069318
  0
LINE
  5
3FC
100
AcDbEntity
  8
RACCORDO
100
AcDbLine
 62
7
  6
CONTINUOUS
 10
-45.4504918516
 20
34.6979967967
 11
-49.7267647389
 21
37.1670631675
  0
LINE
  5
3FD
100
AcDbEntity
  8
RACCORDO
100
AcDbLine
 62
7
  6
CONTINUOUS
 10
-45.4504918516
 20
34.6979967967
 11
-45.3895401754
 21
34.6628112409
  0
LINE
  5
3FE
100
AcDbEntity
  8
RACCORDO
100
AcDbLine
 62
253
  6
CONTINUOUS
 10
-49.5913773502
 20
37.2374486353
 11
-45.3285884993
 21
34.7761677781
  0
LINE
  5
3FF
100
AcDbEntity
  8
RACCORDO
100
AcDbLine
 62
253
  6
CONTINUOUS
 10
45.86803811
 20
-17.8796214639
 11
50.1308269609
 21
-20.3409023211
  0
LINE
  5
400
100
AcDbEntity
  8
RACCORDO
100
AcDbLine
 62
7
  6
CONTINUOUS
 10
50.403231071
 20
-20.2404932114
 11
46.1028798294
 21
-17.7575314787
  0
LINE
  5
401
100
AcDbEntity
  8
RACCORDO
100
AcDbLine
 62
7
  6
CONTINUOUS
 10
-49.3565356307
 20
37.3595386206
 11
-45.0561843891
 21
34.8765768878
  0
LINE
  5
402
100
AcDbEntity
  8
RACCORDO
100
AcDbLine
 62
253
  6
CONTINUOUS
 10
-49.221148242
 20
37.4299240884
 11
-44.995232713
 21
34.9899334251
  0
LINE
  5
403
100
AcDbEntity
  8
RACCORDO
100
AcDbLine
 62
253
  6
CONTINUOUS
 10
46.2382672182
 20
-17.6871460108
 11
50.4641827472
 21
-20.1271366741
  0
LINE
  5
404
100
AcDbEntity
  8
RACCORDO
100
AcDbLine
 62
7
  6
CONTINUOUS
 10
50.6756351811
 20
-19.9915420086
 11
46.4731089376
 21
-17.5650560256
  0
LINE
  5
405
100
AcDbEntity
  8
RACCORDO
100
AcDbLine
 62
7
  6
CONTINUOUS
 10
-48.9863065226
 20
37.5520140736
 11
-44.7228286029
 21
35.0903425348
  0
LINE
  5
406
100
AcDbEntity
  8
RACCORDO
100
AcDbLine
 62
253
  6
CONTINUOUS
 10
-48.8509191339
 20
37.6223995415
 11
-44.6618769267
 21
35.2036990721
  0
LINE
  5
407
100
AcDbEntity
  8
RACCORDO
100
AcDbLine
 62
253
  6
CONTINUOUS
 10
46.6084963263
 20
-17.4946705578
 11
50.6434700871
 21
-19.8244138371
  0
LINE
  5
408
100
AcDbEntity
  8
RACCORDO
100
AcDbLine
 62
7
  6
CONTINUOUS
 10
50.7064738222
 20
-19.6031067534
 11
46.8433380457
 21
-17.3725805725
  0
LINE
  5
409
100
AcDbEntity
  8
RACCORDO
100
AcDbLine
 62
7
  6
CONTINUOUS
 10
-48.6160774144
 20
37.7444895267
 11
-44.3894728166
 21
35.3041081818
  0
LINE
  5
40A
100
AcDbEntity
  8
RACCORDO
100
AcDbLine
 62
253
  6
CONTINUOUS
 10
-48.4806900257
 20
37.8148749946
 11
-44.3285211404
 21
35.4174647191
  0
LINE
  5
40B
100
AcDbEntity
  8
RACCORDO
100
AcDbLine
 62
253
  6
CONTINUOUS
 10
46.9787254345
 20
-17.3021951047
 11
50.7064738222
 21
-19.4545503041
  0
LINE
  5
40C
100
AcDbEntity
  8
RACCORDO
100
AcDbLine
 62
253
  6
CONTINUOUS
 10
-48.3759734205
 20
37.9169047798
 11
-44.2342338856
 21
35.5255162805
  0
LINE
  5
40D
100
AcDbEntity
  8
RACCORDO
100
AcDbLine
 62
253
  6
CONTINUOUS
 10
47.0834420397
 20
-17.2001653195
 11
50.7064738222
 21
-19.2920584635
  0
LINE
  5
40E
100
AcDbEntity
  8
RACCORDO
100
AcDbLine
 62
7
  6
CONTINUOUS
 10
35.517357527
 20
-10.3405131876
 11
31.6393962158
 21
-8.1014269288
  0
LINE
  5
40F
100
AcDbEntity
  8
RACCORDO
100
AcDbLine
 62
7
  6
CONTINUOUS
 10
19.6074549503
 20
-1.1543348377
 11
15.7294936391
 21
1.0847514211
  0
LINE
  5
410
100
AcDbEntity
  8
RACCORDO
100
AcDbLine
 62
7
  6
CONTINUOUS
 10
3.6975523736
 20
8.0318435122
 11
-0.1804089376
 21
10.270929771
  0
LINE
  5
411
100
AcDbEntity
  8
RACCORDO
100
AcDbLine
 62
7
  6
CONTINUOUS
 10
-12.2123502031
 20
17.218021862
 11
-16.0903115143
 21
19.4571081209
  0
LINE
  5
412
100
AcDbEntity
  8
RACCORDO
100
AcDbLine
 62
7
  6
CONTINUOUS
 10
-28.1222527798
 20
26.4042002119
 11
-32.000214091
 21
28.6432864707
  0
LINE
  5
413
100
AcDbEntity
  8
RACCORDO
100
AcDbLine
 62
7
  6
CONTINUOUS
 10
-47.8909678503
 20
38.0225261026
 11
-44.0513041739
 21
35.8055524182
  0
LINE
  5
414
100
AcDbEntity
  8
RACCORDO
100
AcDbLine
 62
7
  6
CONTINUOUS
 10
47.5691160391
 20
-17.0949299393
 11
50.7064738222
 21
-18.9064010029
  0
LWPOLYLINE
  5
415
100
AcDbEntity
  8
0
100
AcDbPolyline
 62
253
  6
CONTINUOUS
 90
10
 70
0
 10
51.5028813159
 20
-43.6275042254
 10
51.4059353513
 20
-43.5326911231
 10
51.3079462361
 20
-43.4417330127
 10
51.2089139703
 20
-43.3546298943
 10
51.1085821539
 20
-43.2711842455
 10
51.0072071869
 20
-43.1915935886
 10
50.9055582693
 20
-43.1164504907
 10
50.8038918008
 20
-43.0459524742
 10
50.7019513817
 20
-42.9799020167
 10
50.5997370118
 20
-42.9182991182
  0
LWPOLYLINE
  5
416
100
AcDbEntity
  8
0
100
AcDbPolyline
 62
253
  6
CONTINUOUS
 90
10
 70
0
 10
50.6593306089
 20
-44.9682391569
 10
50.608822633
 20
-44.9187813276
 10
50.5576656074
 20
-44.8712521617
 10
50.5059383133
 20
-44.8257246743
 10
50.4537199384
 20
-44.7822684547
 10
50.4010913355
 20
-44.7409506109
 10
50.3481349235
 20
-44.701835478
 10
50.2949326978
 20
-44.6649831985
 10
50.2415660796
 20
-44.6304498211
 10
50.1881171879
 20
-44.5982881346
  0
LINE
  5
417
100
AcDbEntity
  8
0
100
AcDbLine
 62
253
  6
CONTINUOUS
 10
50.8352247592
 20
-45.1603921774
 11
50.6593360448
 21
-44.9682285446
  0
LWPOLYLINE
  5
418
100
AcDbEntity
  8
0
100
AcDbPolyline
 62
253
  6
CONTINUOUS
 90
10
 70
0
 10
51.5028192681
 20
-43.6275217085
 10
51.8266304402
 20
-43.9871289303
 10
52.1210079714
 20
-44.368995999
 10
52.3855257022
 20
-44.7733654355
 10
52.6242621116
 20
-45.210305073
 10
52.8324555522
 20
-45.6701433973
 10
52.99636718
 20
-46.123550832
 10
53.1111823146
 20
-46.5608925752
 10
53.1811455622
 20
-46.9921462073
 10
53.2061194295
 20
-47.4173951414
  0
LWPOLYLINE
  5
419
100
AcDbEntity
  8
0
100
AcDbPolyline
 62
253
  6
CONTINUOUS
 90
5
 70
0
 10
-75.0147991644
 20
96.7446486748
 10
-75.080839184
 20
96.8192675123
 10
-75.1272995314
 20
96.8985119161
 10
-75.1532887813
 20
96.9806793389
 10
-75.1590592709
 20
97.0424302966
  0
LWPOLYLINE
  5
41A
100
AcDbEntity
  8
0
100
AcDbPolyline
 62
253
  6
CONTINUOUS
 90
4
 70
0
 10
55.6189318473
 20
-93.2499441986
 10
55.4049833159
 20
-92.8579447332
 10
55.1976800869
 20
-92.4735461807
 10
54.9968378462
 20
-92.0970172023
  0
LWPOLYLINE
  5
41B
100
AcDbEntity
  8
0
100
AcDbPolyline
 62
7
  6
CONTINUOUS
 90
9
 70
0
 10
49.871969271
 20
-85.7969384788
 10
49.9070951091
 20
-85.8639373691
 10
49.9322593134
 20
-85.9282312571
 10
49.9461258864
 20
-85.9892943168
 10
49.9500561826
 20
-86.0476348624
 10
49.9438235771
 20
-86.0963467831
 10
49.9261166248
 20
-86.1341924817
 10
49.8982168809
 20
-86.1624298759
 10
49.8929977994
 20
-86.1658784693
  0
LINE
  5
41C
100
AcDbEntity
  8
0
100
AcDbLine
 62
253
  6
CONTINUOUS
 10
54.9968378462
 20
-92.0970172023
 11
54.614407671
 21
-91.3692321736
  0
LWPOLYLINE
  5
41D
100
AcDbEntity
  8
0
100
AcDbPolyline
 62
253
  6
CONTINUOUS
 90
14
 70
0
 10
53.1292791177
 20
-88.4743565907
 10
52.9811118921
 20
-88.1897488498
 10
52.8353206096
 20
-87.9127806892
 10
52.6919685903
 20
-87.6436796032
 10
52.5487762227
 20
-87.3818865145
 10
52.4074824781
 20
-87.1278874643
 10
52.2681805965
 20
-86.8822460475
 10
52.1276915021
 20
-86.6452716487
 10
51.9889506409
 20
-86.4177249363
 10
51.852057281
 20
-86.2002908721
 10
51.7119449402
 20
-85.9942558749
 10
51.5688204075
 20
-85.8008770243
 10
51.4263345457
 20
-85.6205423423
 10
51.2851191857
 20
-85.4534619762
  0
LINE
  5
41E
100
AcDbEntity
  8
0
100
AcDbLine
 62
253
  6
CONTINUOUS
 10
54.614407671
 20
-91.3692321736
 11
54.2536009097
 21
-90.6726987359
  0
LINE
  5
41F
100
AcDbEntity
  8
0
100
AcDbLine
 62
253
  6
CONTINUOUS
 10
54.2536009097
 20
-90.6726987359
 11
53.1292791177
 21
-88.4743565907
  0
LWPOLYLINE
  5
420
100
AcDbEntity
  8
RACCORDO
100
AcDbPolyline
 62
7
  6
CONTINUOUS
 90
6
 70
0
 10
19.5948453126
 20
-1.3922452159
 10
19.6161048989
 20
-1.3738514617
 10
19.6318816365
 20
-1.3522247085
 10
19.6418986402
 20
-1.3279746692
 10
19.6460737226
 20
-1.301877729
 10
19.6462162606
 20
-1.295696976
  0
LWPOLYLINE
  5
421
100
AcDbEntity
  8
RACCORDO
100
AcDbPolyline
 62
7
  6
CONTINUOUS
 90
6
 70
0
 10
19.5948453126
 20
-1.3018170518
 10
19.6156899643
 20
-1.2854432439
 10
19.6311049802
 20
-1.2683456635
 10
19.6410903604
 20
-1.2505243105
 10
19.6456217563
 20
-1.2314423092
 10
19.6459214185
 20
-1.2245479286
  0
LWPOLYLINE
  5
422
100
AcDbEntity
  8
0
100
AcDbPolyline
 62
253
  6
CONTINUOUS
 90
10
 70
0
 10
58.4462296711
 20
21.80677165
 10
58.109356234
 20
21.5602903787
 10
57.7792054579
 20
21.2943904828
 10
57.4552486231
 20
21.0096605384
 10
57.1362881763
 20
20.705929449
 10
56.8222709505
 20
20.3847269821
 10
56.5142273592
 20
20.0492449918
 10
56.211895319
 20
19.7010651358
 10
55.9137814073
 20
19.34019943
 10
55.6189315487
 20
18.9675222823
  0
LWPOLYLINE
  5
423
100
AcDbEntity
  8
0
100
AcDbPolyline
 62
253
  6
CONTINUOUS
 90
10
 70
0
 10
61.0422569707
 20
23.6584161846
 10
60.9482777703
 20
23.5910431764
 10
60.8572157339
 20
23.5111152355
 10
60.770642137
 20
23.4202834356
 10
60.6899240107
 20
23.3202417293
 10
60.6164485924
 20
23.2129852139
 10
60.5515323026
 20
23.1008401689
 10
60.4960950983
 20
22.9859625624
 10
60.4507301859
 20
22.8702318623
 10
60.4158981394
 20
22.7555626145
  0
LINE
  5
424
100
AcDbEntity
  8
0
100
AcDbLine
 62
7
  6
CONTINUOUS
 10
-28.1348624175
 20
-31.8030998185
 11
-30.4320376968
 21
-33.3369363171
  0
LINE
  5
425
100
AcDbEntity
  8
0
100
AcDbLine
 62
7
  6
CONTINUOUS
 10
19.5948453126
 20
-1.3922452159
 11
17.2956693643
 21
-2.9274175721
  0
LINE
  5
426
100
AcDbEntity
  8
0
100
AcDbLine
 62
7
  6
CONTINUOUS
 10
-28.0325922592
 20
-31.6470905322
 11
-30.5561040799
 21
-33.2653019424
  0
LINE
  5
427
100
AcDbEntity
  8
0
100
AcDbLine
 62
7
  6
CONTINUOUS
 10
19.5948453126
 20
-1.3018170518
 11
17.1715595548
 21
-2.8557581235
  0
LINE
  5
428
100
AcDbEntity
  8
0
100
AcDbLine
 62
253
  6
CONTINUOUS
 10
73.0566057958
 20
22.3585017423
 11
68.2775694521
 21
19.5963259041
  0
LINE
  5
429
100
AcDbEntity
  8
0
100
AcDbLine
 62
7
  6
CONTINUOUS
 10
-32.1420618042
 20
-29.2743343207
 11
-34.9447056136
 21
-30.7313784189
  0
LWPOLYLINE
  5
42A
100
AcDbEntity
  8
RACCORDO
100
AcDbPolyline
 62
7
  6
CONTINUOUS
 90
3
 70
0
 10
50.8234664179
 20
16.1813407319
 10
50.8571407443
 20
16.1832377614
 10
50.8722025974
 20
16.1866877804
  0
LWPOLYLINE
  5
42B
100
AcDbEntity
  8
0
100
AcDbPolyline
 62
253
  6
CONTINUOUS
 90
10
 70
0
 10
61.438008018
 20
10.9266834481
 10
62.5067531034
 20
10.9321778906
 10
63.5234349647
 20
11.0045770647
 10
64.4864530709
 20
11.1491788591
 10
65.3935598002
 20
11.3759984519
 10
66.2441599652
 20
11.6832289126
 10
67.0392043918
 20
12.0546976993
 10
67.7781568883
 20
12.4835220303
 10
68.459082474
 20
12.9746686132
 10
69.0808820898
 20
13.5266239805
  0
LWPOLYLINE
  5
42C
100
AcDbEntity
  8
0
100
AcDbPolyline
 62
253
  6
CONTINUOUS
 90
9
 70
0
 10
-61.1743279887
 20
18.2266271974
 10
-61.3553764588
 20
18.2326392928
 10
-61.5310199202
 20
18.2574264629
 10
-61.6948720108
 20
18.299795937
 10
-61.8424549945
 20
18.358280881
 10
-61.970521075
 20
18.4317921747
 10
-62.0745947039
 20
18.5186148569
 10
-62.1498995543
 20
18.6158390443
 10
-62.1930481531
 20
18.7203283439
  0
LWPOLYLINE
  5
42D
100
AcDbEntity
  8
0
100
AcDbPolyline
 62
253
  6
CONTINUOUS
 90
10
 70
0
 10
61.4380818147
 20
10.9241681112
 10
61.0155505673
 20
10.9537471708
 10
60.5884261118
 20
10.9944107769
 10
60.1567294587
 20
11.0452923073
 10
59.7202120152
 20
11.1053493718
 10
59.279133833
 20
11.1738060584
 10
58.8343010654
 20
11.2500980748
 10
58.3861401089
 20
11.3333616279
 10
57.9345931951
 20
11.4224615337
 10
57.4798664474
 20
11.516372716
  0
LWPOLYLINE
  5
42E
100
AcDbEntity
  8
0
100
AcDbPolyline
 62
253
  6
CONTINUOUS
 90
10
 70
0
 10
51.5623152909
 20
11.0085772368
 10
51.7631096802
 20
10.988039788
 10
51.9619899676
 20
10.959400593
 10
52.1580473926
 20
10.9227736218
 10
52.351001215
 20
10.8781128755
 10
52.5391894991
 20
10.8256621032
 10
52.7197818477
 20
10.7662099022
 10
52.8914134479
 20
10.7003555765
 10
53.0539714666
 20
10.6282542803
 10
53.2067353864
 20
10.5502456127
  0
LWPOLYLINE
  5
42F
100
AcDbEntity
  8
RACCORDO
100
AcDbPolyline
 62
7
  6
CONTINUOUS
 90
10
 70
0
 10
-16.0704942677
 20
19.445665891
 10
-16.0977229186
 20
19.4585417764
 10
-16.126487547
 20
19.4683248339
 10
-16.1567881528
 20
19.4750150635
 10
-16.1895545719
 20
19.4786265239
 10
-16.2238569685
 20
19.4791451563
 10
-16.2569058348
 20
19.4765287851
 10
-16.2877713351
 20
19.4707633517
 10
-16.3173833053
 20
19.4618629147
 10
-16.3457417452
 20
19.4498274741
  0
LWPOLYLINE
  5
430
100
AcDbEntity
  8
RACCORDO
100
AcDbPolyline
 62
7
  6
CONTINUOUS
 90
10
 70
0
 10
-31.9803968444
 20
28.6318442409
 10
-32.0076254953
 20
28.6447201263
 10
-32.0363901237
 20
28.6545031838
 10
-32.0666907295
 20
28.6611934134
 10
-32.0994571486
 20
28.6648048737
 10
-32.1337595452
 20
28.6653235062
 10
-32.1668084115
 20
28.662707135
 10
-32.1976739118
 20
28.6569417016
 10
-32.227285882
 20
28.6480412646
 10
-32.2556443219
 20
28.6360058239
  0
LWPOLYLINE
  5
431
100
AcDbEntity
  8
RACCORDO
100
AcDbPolyline
 62
7
  6
CONTINUOUS
 90
10
 70
0
 10
-47.8909678503
 20
38.0225261026
 10
-47.9180608834
 20
38.0353378571
 10
-47.9466822438
 20
38.0450721881
 10
-47.9768319314
 20
38.0517290957
 10
-48.0094351508
 20
38.0553225684
 10
-48.0435666974
 20
38.0558386177
 10
-48.0764509573
 20
38.0532352779
 10
-48.1071627258
 20
38.0474985604
 10
-48.1366272076
 20
38.0386424538
 10
-48.1648444027
 20
38.026666958
  0
LINE
  5
432
100
AcDbEntity
  8
0
100
AcDbLine
 62
253
  6
CONTINUOUS
 10
-63.0258453559
 20
79.605961122
 11
-62.4998636734
 21
79.1102829874
  0
LWPOLYLINE
  5
433
100
AcDbEntity
  8
0
100
AcDbPolyline
 62
7
  6
CONTINUOUS
 90
10
 70
0
 10
-75.0209102489
 20
86.8165072154
 10
-74.5076480781
 20
86.325083744
 10
-73.9837070178
 20
85.8357382793
 10
-73.4490807585
 20
85.3485557629
 10
-72.9032464738
 20
84.8631663996
 10
-72.3467027128
 20
84.3801182242
 10
-71.7810570251
 20
83.9008434429
 10
-71.2069335771
 20
83.4258429506
 10
-70.623885542
 20
82.9547199706
 10
-70.031994309
 20
82.4875290628
  0
LWPOLYLINE
  5
434
100
AcDbEntity
  8
0
100
AcDbPolyline
 62
253
  6
CONTINUOUS
 90
3
 70
0
 10
-64.5171953024
 20
81.0098315946
 10
-64.0349786594
 20
80.5451088996
 10
-63.0258453559
 20
79.605961122
  0
LWPOLYLINE
  5
435
100
AcDbEntity
  8
0
100
AcDbPolyline
 62
253
  6
CONTINUOUS
 90
5
 70
0
 10
-66.7490841986
 20
83.2446118639
 10
-66.3244914342
 20
82.8162641557
 10
-65.8887828118
 20
82.3810705177
 10
-65.4419643938
 20
81.937717697
 10
-64.5171953024
 20
81.0098315946
  0
LWPOLYLINE
  5
436
100
AcDbEntity
  8
0
100
AcDbPolyline
 62
253
  6
CONTINUOUS
 90
3
 70
0
 10
51.13212381
 20
-45.5771106478
 10
50.9922183173
 20
-45.3636623759
 10
50.8352247592
 20
-45.1603921774
  0
LWPOLYLINE
  5
437
100
AcDbEntity
  8
0
100
AcDbPolyline
 62
7
  6
CONTINUOUS
 90
7
 70
0
 10
50.3413188363
 20
-86.048480981
 10
50.2905274317
 20
-85.9078789022
 10
50.2210145272
 20
-85.7671441615
 10
50.1343582629
 20
-85.6262692365
 10
50.0386669692
 20
-85.4985150012
 10
49.9365621024
 20
-85.3883561034
 10
49.8252415537
 20
-85.2914388172
  0
LWPOLYLINE
  5
438
100
AcDbEntity
  8
0
100
AcDbPolyline
 62
7
  6
CONTINUOUS
 90
7
 70
0
 10
50.3769371552
 20
-86.0284042256
 10
50.3262116861
 20
-85.8878682027
 10
50.2567746777
 20
-85.7471825407
 10
50.1702019318
 20
-85.6063408701
 10
50.074587101
 20
-85.4785905091
 10
49.9725466872
 20
-85.3684016372
 10
49.8612834001
 20
-85.2714251071
  0
LWPOLYLINE
  5
439
100
AcDbEntity
  8
RACCORDO
100
AcDbPolyline
 62
7
  6
CONTINUOUS
 90
6
 70
0
 10
19.6459214185
 20
-1.2245479286
 10
19.6447235164
 20
-1.2116365354
 10
19.6384686867
 20
-1.1927176156
 10
19.6268816156
 20
-1.1752224256
 10
19.6099379546
 20
-1.1586140897
 10
19.5876377037
 20
-1.1428926079
  0
LINE
  5
43A
100
AcDbEntity
  8
RACCORDO
100
AcDbLine
 62
253
  6
CONTINUOUS
 10
19.5948453126
 20
-1.3018170518
 11
19.5948453126
 21
-1.3922452159
  0
LINE
  5
43B
100
AcDbEntity
  8
RACCORDO
100
AcDbLine
 62
7
  6
CONTINUOUS
 10
19.6462163475
 20
-1.2245475266
 11
19.6462163475
 21
-1.2952574962
  0
LWPOLYLINE
  5
43C
100
AcDbEntity
  8
0
100
AcDbPolyline
 62
253
  6
CONTINUOUS
 90
10
 70
0
 10
68.2775680445
 20
19.5963249264
 10
68.1870313411
 20
19.5250931922
 10
68.1034034164
 20
19.4436312125
 10
68.0254066089
 20
19.3524472603
 10
67.9507514509
 20
19.2482366445
 10
67.8820686237
 20
19.133154149
 10
67.8247761467
 20
19.0164075101
 10
67.7795056775
 20
18.9017575996
 10
67.7442316571
 20
18.7857328205
 10
67.7195412659
 20
18.6674466678
  0
LINE
  5
43D
100
AcDbEntity
  8
0
100
AcDbLine
 62
253
  6
CONTINUOUS
 10
75.1532887813
 20
18.7269402879
 11
70.2971425147
 21
15.9201322674
  0
LINE
  5
43E
100
AcDbEntity
  8
0
100
AcDbLine
 62
7
  6
CONTINUOUS
 10
31.3839659849
 20
-8.1087075756
 11
28.6926344953
 21
-9.5078824012
  0
LINE
  5
43F
100
AcDbEntity
  8
0
100
AcDbLine
 62
7
  6
CONTINUOUS
 10
-16.2321592275
 20
-38.4605126706
 11
-19.0348030369
 21
-39.9175567688
  0
LWPOLYLINE
  5
440
100
AcDbEntity
  8
RACCORDO
100
AcDbPolyline
 62
253
  6
CONTINUOUS
 90
8
 70
0
 10
51.829824212
 20
23.1814395827
 10
51.8292694146
 20
23.1814395414
 10
51.795718285
 20
23.1841500181
 10
51.761588431
 20
23.1894924912
 10
51.7279054455
 20
23.197306421
 10
51.6956813771
 20
23.2073564135
 10
51.6658843252
 20
23.219339326
 10
51.6394093612
 20
23.2328934385
  0
LINE
  5
441
100
AcDbEntity
  8
0
100
AcDbLine
 62
253
  6
CONTINUOUS
 10
57.4798664474
 20
11.516372716
 11
56.9716863839
 21
11.626596348
  0
LWPOLYLINE
  5
442
100
AcDbEntity
  8
0
100
AcDbPolyline
 62
253
  6
CONTINUOUS
 90
3
 70
0
 10
56.9716863839
 20
11.626596348
 10
55.9370793788
 20
11.8549790594
 10
54.8829416542
 20
12.0696889507
  0
LWPOLYLINE
  5
443
100
AcDbEntity
  8
0
100
AcDbPolyline
 62
253
  6
CONTINUOUS
 90
5
 70
0
 10
54.8829416542
 20
12.0696889507
 10
54.3454582734
 20
12.1937282695
 10
53.7999094133
 20
12.3324141002
 10
53.2482974728
 20
12.4707283095
 10
52.6915183632
 20
12.6002226861
  0
LWPOLYLINE
  5
444
100
AcDbEntity
  8
RACCORDO
100
AcDbPolyline
 62
7
  6
CONTINUOUS
 90
6
 70
0
 10
-50.8374520633
 20
36.5896368083
 10
-50.8636845954
 20
36.5965322468
 10
-50.8895170116
 20
36.598042907
 10
-50.914949312
 20
36.5941687889
 10
-50.9394943448
 20
36.5845505188
 10
-50.9636392618
 20
36.5695474704
  0
LWPOLYLINE
  5
445
100
AcDbEntity
  8
RACCORDO
100
AcDbPolyline
 62
7
  6
CONTINUOUS
 90
6
 70
0
 10
-50.4672229552
 20
36.7821122613
 10
-50.4934554872
 20
36.7890076999
 10
-50.5192879034
 20
36.7905183601
 10
-50.5447202039
 20
36.7866442419
 10
-50.5692652367
 20
36.7770259719
 10
-50.5934101537
 20
36.7620229235
  0
LWPOLYLINE
  5
446
100
AcDbEntity
  8
RACCORDO
100
AcDbPolyline
 62
7
  6
CONTINUOUS
 90
6
 70
0
 10
-50.096993847
 20
36.9745877144
 10
-50.1232263791
 20
36.9814831529
 10
-50.1490587953
 20
36.9829938132
 10
-50.1744910957
 20
36.979119695
 10
-50.1990361285
 20
36.9695014249
 10
-50.2231810455
 20
36.9544983765
  0
LWPOLYLINE
  5
447
100
AcDbEntity
  8
RACCORDO
100
AcDbPolyline
 62
7
  6
CONTINUOUS
 90
6
 70
0
 10
-49.7267647389
 20
37.1670631675
 10
-49.7529972709
 20
37.173958606
 10
-49.7788296871
 20
37.1754692662
 10
-49.8042619876
 20
37.1715951481
 10
-49.8288070204
 20
37.161976878
 10
-49.8529519374
 20
37.1469738296
  0
LWPOLYLINE
  5
448
100
AcDbEntity
  8
RACCORDO
100
AcDbPolyline
 62
7
  6
CONTINUOUS
 90
6
 70
0
 10
-49.3565356307
 20
37.3595386206
 10
-49.3827681628
 20
37.3664340591
 10
-49.408600579
 20
37.3679447193
 10
-49.4340328794
 20
37.3640706012
 10
-49.4585779122
 20
37.3544523311
 10
-49.4827228292
 20
37.3394492827
  0
LWPOLYLINE
  5
449
100
AcDbEntity
  8
RACCORDO
100
AcDbPolyline
 62
7
  6
CONTINUOUS
 90
6
 70
0
 10
-48.9863065226
 20
37.5520140736
 10
-49.0125390546
 20
37.5589095122
 10
-49.0383714708
 20
37.5604201724
 10
-49.0638037713
 20
37.5565460543
 10
-49.0883488041
 20
37.5469277842
 10
-49.1124937211
 20
37.5319247358
  0
LWPOLYLINE
  5
44A
100
AcDbEntity
  8
RACCORDO
100
AcDbPolyline
 62
7
  6
CONTINUOUS
 90
10
 70
0
 10
-48.6160774144
 20
37.7444895267
 10
-48.6423099465
 20
37.7513849653
 10
-48.6681423627
 20
37.7528956255
 10
-48.6935746631
 20
37.7490215073
 10
-48.7181196959
 20
37.7394032373
 10
-48.7422646129
 20
37.7244001888
 10
-48.7674708697
 20
37.705090483
 10
-48.794225618
 20
37.6818334933
 10
-48.8220417061
 20
37.6542698461
 10
-48.8509191339
 20
37.6223995415
  0
LWPOLYLINE
  5
44B
100
AcDbEntity
  8
0
100
AcDbPolyline
 62
7
  6
CONTINUOUS
 90
10
 70
0
 10
69.1032054408
 20
3.6010491148
 10
68.2520919734
 20
3.8973990374
 10
67.404576958
 20
4.1999151225
 10
66.5608075085
 20
4.5086010131
 10
65.7201428094
 20
4.8237587861
 10
64.8835323762
 20
5.1451003822
 10
64.0534577606
 20
5.4716970115
 10
63.2307868343
 20
5.8031880848
 10
62.4148320521
 20
6.1398317978
 10
61.6056879081
 20
6.4815811575
  0
LINE
  5
44C
100
AcDbEntity
  8
0
100
AcDbLine
 62
7
  6
CONTINUOUS
 10
75.1532887813
 20
-14.9189175697
 11
73.6723602349
 21
-14.0638479874
  0
LINE
  5
44D
100
AcDbEntity
  8
0
100
AcDbLine
 62
7
  6
CONTINUOUS
 10
-69.9530237833
 20
82.4260131386
 11
-70.031994309
 21
82.4875290628
  0
LWPOLYLINE
  5
44E
100
AcDbEntity
  8
0
100
AcDbPolyline
 62
253
  6
CONTINUOUS
 90
9
 70
0
 10
-60.7581636262
 20
76.4550516508
 10
-60.83444728
 20
76.5153246991
 10
-60.8995651102
 20
76.6076816344
 10
-60.9419378608
 20
76.7206258634
 10
-60.9621901632
 20
76.8504682613
 10
-60.9605163193
 20
76.9954072044
 10
-60.9364901207
 20
77.1521053571
 10
-60.8905770058
 20
77.3146776637
 10
-60.8240313813
 20
77.4778992879
  0
LWPOLYLINE
  5
44F
100
AcDbEntity
  8
0
100
AcDbPolyline
 62
253
  6
CONTINUOUS
 90
6
 70
0
 10
-74.9376110768
 20
99.1434889115
 10
-75.0124559181
 20
99.2109411664
 10
-75.0649168571
 20
99.2793429981
 10
-75.097780776
 20
99.3488586883
 10
-75.1115533067
 20
99.4211194825
 10
-75.1116313644
 20
99.4446287503
  0
LWPOLYLINE
  5
450
100
AcDbEntity
  8
0
100
AcDbPolyline
 62
253
  6
CONTINUOUS
 90
10
 70
0
 10
50.1878545095
 20
-26.0307945083
 10
50.2711556756
 20
-26.1243386198
 10
50.3457268198
 20
-26.2293887409
 10
50.4111867321
 20
-26.3454514616
 10
50.4671778489
 20
-26.4719266873
 10
50.5134354843
 20
-26.6082561695
 10
50.5497510006
 20
-26.7539630011
 10
50.5758999271
 20
-26.9084378313
 10
50.5916821819
 20
-27.0709048447
 10
50.596964074
 20
-27.240596589
  0
LWPOLYLINE
  5
451
100
AcDbEntity
  8
0
100
AcDbPolyline
 62
253
  6
CONTINUOUS
 90
7
 70
0
 10
50.7603851291
 20
-24.8602309067
 10
50.8337664831
 20
-24.9548370502
 10
50.9350588514
 20
-25.0400496154
 10
51.0623759442
 20
-25.1139933652
 10
51.2127475527
 20
-25.1740841742
 10
51.3811339362
 20
-25.217564251
 10
51.5621030525
 20
-25.2424777112
  0
LWPOLYLINE
  5
452
100
AcDbEntity
  8
0
100
AcDbPolyline
 62
253
  6
CONTINUOUS
 90
12
 70
0
 10
50.1866706773
 20
-26.029572555
 10
50.1212864951
 20
-25.9404075178
 10
50.0769242679
 20
-25.8277167195
 10
50.0549635791
 20
-25.6952979078
 10
50.0560433074
 20
-25.5475282719
 10
50.0800495639
 20
-25.3893419371
 10
50.1260613869
 20
-25.2260888876
 10
50.1922138562
 20
-25.0635930142
 10
50.276354837
 20
-24.9065937685
 10
50.3765466601
 20
-24.758932725
 10
50.4901030927
 20
-24.6253019259
 10
50.6132052302
 20
-24.5108522462
  0
LWPOLYLINE
  5
453
100
AcDbEntity
  8
0
100
AcDbPolyline
 62
7
  6
CONTINUOUS
 90
3
 70
0
 10
43.7731076104
 20
-83.2146585159
 10
43.8135889324
 20
-83.5852202617
 10
43.8573763097
 20
-83.9533998172
  0
LWPOLYLINE
  5
454
100
AcDbEntity
  8
0
100
AcDbPolyline
 62
7
  6
CONTINUOUS
 90
3
 70
0
 10
44.1832442516
 20
-83.4514628873
 10
44.2237253219
 20
-83.8220236935
 10
44.2675124317
 20
-84.1902023211
  0
LINE
  5
455
100
AcDbEntity
  8
0
100
AcDbLine
 62
7
  6
CONTINUOUS
 10
44.5933699605
 20
-83.6882643315
 11
44.6338519718
 21
-84.0588256811
  0
LINE
  5
456
100
AcDbEntity
  8
0
100
AcDbLine
 62
7
  6
CONTINUOUS
 10
43.7359323439
 20
-82.8417145799
 11
43.7731076104
 21
-83.2146585159
  0
LWPOLYLINE
  5
457
100
AcDbEntity
  8
RACCORDO
100
AcDbPolyline
 62
7
  6
CONTINUOUS
 90
6
 70
0
 10
35.5558239952
 20
-10.4107262784
 10
35.5546260931
 20
-10.3978148852
 10
35.5483712634
 20
-10.3788959655
 10
35.5367841923
 20
-10.3614007755
 10
35.5198405313
 20
-10.3447924396
 10
35.4975402804
 20
-10.3290709578
  0
LINE
  5
458
100
AcDbEntity
  8
0
100
AcDbLine
 62
253
  6
CONTINUOUS
 10
55.6189318473
 20
18.9675223743
 11
54.9968378461
 21
18.1388191204
  0
LWPOLYLINE
  5
459
100
AcDbEntity
  8
0
100
AcDbPolyline
 62
253
  6
CONTINUOUS
 90
7
 70
0
 10
54.9968378461
 20
18.1388191204
 10
54.6144076707
 20
17.6327819151
 10
54.4314510227
 20
17.3933343553
 10
54.2536009091
 20
17.1627352167
 10
54.080799184
 20
16.9409605942
 10
53.9122872366
 20
16.7277277589
 10
53.7482629305
 20
16.5226958974
  0
LWPOLYLINE
  5
45A
100
AcDbEntity
  8
0
100
AcDbPolyline
 62
253
  6
CONTINUOUS
 90
18
 70
0
 10
53.7482629305
 20
16.5226958974
 10
53.5885056457
 20
16.3259997871
 10
53.4318510088
 20
16.1379880748
 10
53.2788798892
 20
15.9579907184
 10
53.1292791152
 20
15.7863750959
 10
52.9811118892
 20
15.6246848094
 10
52.8353206063
 20
15.4720998177
 10
52.6919685865
 20
15.3285319583
 10
52.5487762185
 20
15.1959351235
 10
52.4074824734
 20
15.072404044
 10
52.2681805912
 20
14.9582311542
 10
52.1276914962
 20
14.8574949619
 10
51.9889506344
 20
14.7671049264
 10
51.8520572738
 20
14.6874506852
 10
51.7119449323
 20
14.6259653168
 10
51.5688203989
 20
14.5834423077
 10
51.4263345365
 20
14.5554888637
 10
51.2851191758
 20
14.5412923189
  0
LWPOLYLINE
  5
45B
100
AcDbEntity
  8
RACCORDO
100
AcDbPolyline
 62
7
  6
CONTINUOUS
 90
6
 70
0
 10
35.5047478893
 20
-10.5784235657
 10
35.5260074756
 20
-10.5600298116
 10
35.5417842131
 20
-10.5384030584
 10
35.5518012169
 20
-10.5141530191
 10
35.5559762993
 20
-10.4880560788
 10
35.5561188373
 20
-10.4818753258
  0
LWPOLYLINE
  5
45C
100
AcDbEntity
  8
RACCORDO
100
AcDbPolyline
 62
7
  6
CONTINUOUS
 90
6
 70
0
 10
35.5047478893
 20
-10.4879954016
 10
35.525592541
 20
-10.4716215938
 10
35.5410075569
 20
-10.4545240134
 10
35.5509929371
 20
-10.4367026603
 10
35.555524333
 20
-10.4176206591
 10
35.5558239952
 20
-10.4107262784
  0
LINE
  5
45D
100
AcDbEntity
  8
RACCORDO
100
AcDbLine
 62
7
  6
CONTINUOUS
 10
-12.2249598408
 20
-40.9892781684
 11
-14.5221351201
 21
-42.523114667
  0
LINE
  5
45E
100
AcDbEntity
  8
0
100
AcDbLine
 62
7
  6
CONTINUOUS
 10
35.5047478893
 20
-10.5784235657
 11
33.205571941
 21
-12.1135959219
  0
LINE
  5
45F
100
AcDbEntity
  8
0
100
AcDbLine
 62
7
  6
CONTINUOUS
 10
-12.1226896825
 20
-40.8332688821
 11
-14.6462015032
 21
-42.4514802923
  0
LINE
  5
460
100
AcDbEntity
  8
0
100
AcDbLine
 62
7
  6
CONTINUOUS
 10
35.5047478893
 20
-10.4879954016
 11
33.0814621315
 21
-12.0419364734
  0
LWPOLYLINE
  5
461
100
AcDbEntity
  8
0
100
AcDbPolyline
 62
253
  6
CONTINUOUS
 90
3
 70
0
 10
-60.820451189
 20
18.2716662148
 10
-60.9939913688
 20
18.2397420972
 10
-61.1743279887
 20
18.2266271974
  0
LWPOLYLINE
  5
462
100
AcDbEntity
  8
0
100
AcDbPolyline
 62
253
  6
CONTINUOUS
 90
10
 70
0
 10
69.093213625
 20
13.5384881878
 10
69.2224396533
 20
13.5003628536
 10
69.359679197
 20
13.4735412404
 10
69.5019835477
 20
13.458538046
 10
69.6473591922
 20
13.4556354797
 10
69.7916827898
 20
13.4649890812
 10
69.9289333215
 20
13.4857619863
 10
70.0557447191
 20
13.5164653541
 10
70.171244038
 20
13.5558846459
 10
70.2740113753
 20
13.6026305728
  0
LINE
  5
463
100
AcDbEntity
  8
0
100
AcDbLine
 62
7
  6
CONTINUOUS
 10
61.4991460896
 20
6.5271777358
 11
61.6056879081
 21
6.4815811575
  0
LWPOLYLINE
  5
464
100
AcDbEntity
  8
0
100
AcDbPolyline
 62
7
  6
CONTINUOUS
 90
10
 70
0
 10
53.2061632411
 20
10.5498484401
 10
54.0830725978
 20
10.0760865268
 10
54.9714737259
 20
9.6087847456
 10
55.8712316267
 20
9.1480407876
 10
56.7822523884
 20
8.6939302153
 10
57.7043532153
 20
8.2465709132
 10
58.6372575127
 20
7.8061196765
 10
59.5807706511
 20
7.3726877344
 10
60.5347849156
 20
6.946344117
 10
61.4991460896
 20
6.5271777358
  0
LWPOLYLINE
  5
465
100
AcDbEntity
  8
0
100
AcDbPolyline
 62
7
  6
CONTINUOUS
 90
10
 70
0
 10
-62.9860121574
 20
77.637754286
 10
-63.806536875
 20
78.1440695337
 10
-64.615873567
 20
78.6570202922
 10
-65.4138530381
 20
79.1765286152
 10
-66.2003447719
 20
79.7025404831
 10
-66.9751442465
 20
80.2349501479
 10
-67.737978842
 20
80.7735972953
 10
-68.4886555628
 20
81.3183693446
 10
-69.2270552063
 20
81.8692043066
 10
-69.9530237833
 20
82.4260131386
  0
LWPOLYLINE
  5
466
100
AcDbEntity
  8
RACCORDO
100
AcDbPolyline
 62
253
  6
CONTINUOUS
 90
7
 70
0
 10
-60.2753051147
 20
80.3006071252
 10
-60.2804692836
 20
80.3039140854
 10
-60.2945524634
 20
80.3171781288
 10
-60.3054057965
 20
80.3346844012
 10
-60.3127353291
 20
80.3559587597
 10
-60.3163425471
 20
80.3804250059
 10
-60.3161297518
 20
80.4074204917
  0
LWPOLYLINE
  5
467
100
AcDbEntity
  8
0
100
AcDbPolyline
 62
253
  6
CONTINUOUS
 90
10
 70
0
 10
-62.9865583619
 20
77.639268891
 10
-62.8510936188
 20
77.5509739546
 10
-62.7259915701
 20
77.4571436629
 10
-62.6117656377
 20
77.3581025859
 10
-62.5091998048
 20
77.254461903
 10
-62.4191265646
 20
77.1469080015
 10
-62.3421013163
 20
77.0358766467
 10
-62.278489241
 20
76.9220680891
 10
-62.2287251228
 20
76.8064133838
 10
-62.1930751998
 20
76.6895148973
  0
LWPOLYLINE
  5
468
100
AcDbEntity
  8
RACCORDO
100
AcDbPolyline
 62
7
  6
CONTINUOUS
 90
8
 70
0
 10
-60.2753051147
 20
80.3006071252
 10
-60.3040886383
 20
80.3208005187
 10
-60.3294175098
 20
80.3463470158
 10
-60.3500345273
 20
80.3765060568
 10
-60.3649423569
 20
80.4102815975
 10
-60.3733909444
 20
80.446240458
 10
-60.375094886
 20
80.4828712311
 10
-60.3747404176
 20
80.4887627369
  0
LINE
  5
469
100
AcDbEntity
  8
0
100
AcDbLine
 62
7
  6
CONTINUOUS
 10
50.4106932481
 20
-86.1686700237
 11
50.3769371552
 21
-86.0284042256
  0
LWPOLYLINE
  5
46A
100
AcDbEntity
  8
0
100
AcDbPolyline
 62
253
  6
CONTINUOUS
 90
10
 70
0
 10
51.3385498477
 20
-90.8598759357
 10
51.448037994
 20
-91.3650246405
 10
51.5644658598
 20
-91.8640441004
 10
51.6878000505
 20
-92.3568416511
 10
51.8181558192
 20
-92.8438682763
 10
51.9553625768
 20
-93.3244781816
 10
52.0988866554
 20
-93.7969986511
 10
52.2484476093
 20
-94.2608863534
 10
52.4040955148
 20
-94.716657447
 10
52.5657224066
 20
-95.1642960148
  0
LINE
  5
46B
100
AcDbEntity
  8
0
100
AcDbLine
 62
7
  6
CONTINUOUS
 10
45.0941352427
 20
-84.4004055904
 11
45.1234457596
 21
-84.6432178814
  0
LINE
  5
46C
100
AcDbEntity
  8
0
100
AcDbLine
 62
7
  6
CONTINUOUS
 10
44.2593500508
 20
-83.8014562536
 11
44.3031813873
 21
-84.1696075132
  0
LINE
  5
46D
100
AcDbEntity
  8
0
100
AcDbLine
 62
7
  6
CONTINUOUS
 10
44.6338519718
 20
-84.0588256811
 11
44.6776400216
 21
-84.4270048514
  0
LINE
  5
46E
100
AcDbEntity
  8
0
100
AcDbLine
 62
7
  6
CONTINUOUS
 10
45.0662669416
 20
-84.1565581053
 11
45.0941352427
 21
-84.4004055904
  0
LINE
  5
46F
100
AcDbEntity
  8
0
100
AcDbLine
 62
7
  6
CONTINUOUS
 10
46.6348806867
 20
-84.8259186374
 11
46.6754035816
 21
-85.196455282
  0
LWPOLYLINE
  5
470
100
AcDbEntity
  8
0
100
AcDbPolyline
 62
7
  6
CONTINUOUS
 90
3
 70
0
 10
46.5992968413
 20
-84.8464613723
 10
46.6397788527
 20
-85.2170227219
 10
46.6835669024
 20
-85.5852018923
  0
LINE
  5
471
100
AcDbEntity
  8
0
100
AcDbLine
 62
7
  6
CONTINUOUS
 10
48.8731197018
 20
-86.1593326455
 11
48.9136016453
 21
-86.5298938987
  0
LINE
  5
472
100
AcDbEntity
  8
0
100
AcDbLine
 62
7
  6
CONTINUOUS
 10
45.0398408563
 20
-83.911675426
 11
45.0662669416
 21
-84.1565581053
  0
LWPOLYLINE
  5
473
100
AcDbEntity
  8
0
100
AcDbPolyline
 62
7
  6
CONTINUOUS
 90
3
 70
0
 10
46.1899065618
 20
-84.6167997426
 10
46.2163067652
 20
-84.8616984533
 10
46.2441477156
 20
-85.1055630879
  0
LINE
  5
474
100
AcDbEntity
  8
0
100
AcDbLine
 62
7
  6
CONTINUOUS
 10
49.2708624044
 20
-86.275198344
 11
49.3010987627
 21
-86.5631673173
  0
LINE
  5
475
100
AcDbEntity
  8
0
100
AcDbLine
 62
7
  6
CONTINUOUS
 10
49.3064333788
 20
-86.2546601091
 11
49.3367003399
 21
-86.5426115571
  0
LINE
  5
476
100
AcDbEntity
  8
0
100
AcDbLine
 62
7
  6
CONTINUOUS
 10
45.0148569868
 20
-83.6657575525
 11
45.0398408563
 21
-83.911675426
  0
LWPOLYLINE
  5
477
100
AcDbEntity
  8
0
100
AcDbPolyline
 62
253
  6
CONTINUOUS
 90
5
 70
0
 10
50.7491319126
 20
-86.9632549558
 10
50.772238946
 20
-87.1920093555
 10
50.7966044302
 20
-87.4199735617
 10
50.8222283303
 20
-87.6471318692
 10
50.8491119152
 20
-87.8734816741
  0
LWPOLYLINE
  5
478
100
AcDbEntity
  8
0
100
AcDbPolyline
 62
7
  6
CONTINUOUS
 90
3
 70
0
 10
44.1816155259
 20
-83.0579992093
 10
44.218828097
 20
-83.4309201523
 10
44.2593500508
 20
-83.8014562536
  0
LINE
  5
479
100
AcDbEntity
  8
0
100
AcDbLine
 62
7
  6
CONTINUOUS
 10
46.5976671734
 20
-84.4529971503
 11
46.6348806867
 21
-84.8259186374
  0
LINE
  5
47A
100
AcDbEntity
  8
0
100
AcDbLine
 62
7
  6
CONTINUOUS
 10
44.146069221
 20
-83.0785199025
 11
44.1832442516
 21
-83.4514628873
  0
LINE
  5
47B
100
AcDbEntity
  8
0
100
AcDbLine
 62
7
  6
CONTINUOUS
 10
44.5561939876
 20
-83.3153208027
 11
44.5933699605
 21
-83.6882643315
  0
LINE
  5
47C
100
AcDbEntity
  8
0
100
AcDbLine
 62
7
  6
CONTINUOUS
 10
46.5621208684
 20
-84.4735178435
 11
46.5992968413
 21
-84.8464613723
  0
LINE
  5
47D
100
AcDbEntity
  8
0
100
AcDbLine
 62
7
  6
CONTINUOUS
 10
48.8359437943
 20
-85.7863892148
 11
48.8731197018
 21
-86.1593326455
  0
LWPOLYLINE
  5
47E
100
AcDbEntity
  8
0
100
AcDbPolyline
 62
7
  6
CONTINUOUS
 90
6
 70
0
 10
44.9557799102
 20
-83.4393215162
 10
44.9792977936
 20
-83.6862879026
 10
45.0042564247
 20
-83.9322202131
 10
45.0306558034
 20
-84.1771184478
 10
45.0584959299
 20
-84.4209826065
 10
45.0877768039
 20
-84.6638126893
  0
LWPOLYLINE
  5
47F
100
AcDbEntity
  8
0
100
AcDbPolyline
 62
7
  6
CONTINUOUS
 90
3
 70
0
 10
46.1414283961
 20
-84.1239000923
 10
46.1649471054
 20
-84.3708669556
 10
46.1899065618
 20
-84.6167997426
  0
LINE
  5
480
100
AcDbEntity
  8
0
100
AcDbLine
 62
253
  6
CONTINUOUS
 10
50.7272843083
 20
-86.7337394233
 11
50.7491319126
 21
-86.9632549558
  0
LINE
  5
481
100
AcDbEntity
  8
0
100
AcDbLine
 62
7
  6
CONTINUOUS
 10
44.1477123375
 20
-82.6826934246
 11
44.1816155259
 21
-83.0579992093
  0
LINE
  5
482
100
AcDbEntity
  8
0
100
AcDbLine
 62
7
  6
CONTINUOUS
 10
43.7020631328
 20
-82.4663884537
 11
43.7359323439
 21
-82.8417145799
  0
LINE
  5
483
100
AcDbEntity
  8
0
100
AcDbLine
 62
7
  6
CONTINUOUS
 10
44.1122002298
 20
-82.7031947391
 11
44.146069221
 21
-83.0785199025
  0
LINE
  5
484
100
AcDbEntity
  8
0
100
AcDbLine
 62
7
  6
CONTINUOUS
 10
44.522324053
 20
-82.9399950946
 11
44.5561939876
 21
-83.3153208027
  0
LINE
  5
485
100
AcDbEntity
  8
0
100
AcDbLine
 62
7
  6
CONTINUOUS
 10
48.8020739228
 20
-85.4110636066
 11
48.8359437943
 21
-85.7863892148
  0
LWPOLYLINE
  5
486
100
AcDbEntity
  8
0
100
AcDbPolyline
 62
7
  6
CONTINUOUS
 90
3
 70
0
 10
44.9692158952
 20
-83.170816223
 10
44.9913153331
 20
-83.4188044849
 10
45.0148569868
 20
-83.6657575525
  0
LINE
  5
487
100
AcDbEntity
  8
0
100
AcDbLine
 62
7
  6
CONTINUOUS
 10
44.9337027745
 20
-83.1913210539
 11
44.9557799102
 21
-83.4393215162
  0
LINE
  5
488
100
AcDbEntity
  8
0
100
AcDbLine
 62
7
  6
CONTINUOUS
 10
46.1193504338
 20
-83.8758991527
 11
46.1414283961
 21
-84.1239000923
  0
LINE
  5
489
100
AcDbEntity
  8
0
100
AcDbLine
 62
7
  6
CONTINUOUS
 10
49.2091044051
 20
-85.6742515532
 11
49.2252828982
 21
-85.8568780942
  0
LINE
  5
48A
100
AcDbEntity
  8
0
100
AcDbLine
 62
7
  6
CONTINUOUS
 10
49.2446188512
 20
-85.6537461293
 11
49.260813629
 21
-85.8363630955
  0
LINE
  5
48B
100
AcDbEntity
  8
0
100
AcDbLine
 62
7
  6
CONTINUOUS
 10
49.1937080213
 20
-85.4910701375
 11
49.2091044051
 21
-85.6742515532
  0
LINE
  5
48C
100
AcDbEntity
  8
0
100
AcDbLine
 62
7
  6
CONTINUOUS
 10
49.2292069697
 20
-85.4705736618
 11
49.2446188512
 21
-85.6537461293
  0
LINE
  5
48D
100
AcDbEntity
  8
0
100
AcDbLine
 62
7
  6
CONTINUOUS
 10
44.1171185318
 20
-82.3050027982
 11
44.1477123375
 21
-82.6826934246
  0
LINE
  5
48E
100
AcDbEntity
  8
0
100
AcDbLine
 62
7
  6
CONTINUOUS
 10
43.6714999771
 20
-82.0886801372
 11
43.7020631328
 21
-82.4663884537
  0
LINE
  5
48F
100
AcDbEntity
  8
0
100
AcDbLine
 62
7
  6
CONTINUOUS
 10
44.0816372782
 20
-82.3254873972
 11
44.1122002298
 21
-82.7031947391
  0
LINE
  5
490
100
AcDbEntity
  8
0
100
AcDbLine
 62
7
  6
CONTINUOUS
 10
44.491760157
 20
-82.5622872073
 11
44.522324053
 21
-82.9399950946
  0
LINE
  5
491
100
AcDbEntity
  8
0
100
AcDbLine
 62
7
  6
CONTINUOUS
 10
48.7715100874
 20
-85.0333558209
 11
48.8020739228
 21
-85.4110636066
  0
LINE
  5
492
100
AcDbEntity
  8
0
100
AcDbLine
 62
7
  6
CONTINUOUS
 10
49.2145779844
 20
-85.286845693
 11
49.2292069697
 21
-85.4705736618
  0
LINE
  5
493
100
AcDbEntity
  8
0
100
AcDbLine
 62
7
  6
CONTINUOUS
 10
49.1790937467
 20
-85.3073338471
 11
49.1937080213
 21
-85.4910701375
  0
LWPOLYLINE
  5
494
100
AcDbEntity
  8
0
100
AcDbPolyline
 62
253
  6
CONTINUOUS
 90
4
 70
0
 10
50.6692882969
 20
-86.0407404635
 10
50.6873639621
 20
-86.2724760354
 10
50.7066955716
 20
-86.5034788361
 10
50.7272843083
 20
-86.7337394233
  0
LINE
  5
495
100
AcDbEntity
  8
0
100
AcDbLine
 62
7
  6
CONTINUOUS
 10
43.6442428768
 20
-81.7085896305
 11
43.6714999771
 21
-82.0886801372
  0
LINE
  5
496
100
AcDbEntity
  8
0
100
AcDbLine
 62
7
  6
CONTINUOUS
 10
44.0543803662
 20
-81.9453978766
 11
44.0816372782
 21
-82.3254873972
  0
LINE
  5
497
100
AcDbEntity
  8
0
100
AcDbLine
 62
7
  6
CONTINUOUS
 10
44.0898341088
 20
-81.92492733
 11
44.1171185318
 21
-82.3050027982
  0
LINE
  5
498
100
AcDbEntity
  8
0
100
AcDbLine
 62
7
  6
CONTINUOUS
 10
44.4645022993
 20
-82.1821971408
 11
44.491760157
 21
-82.5622872073
  0
LWPOLYLINE
  5
499
100
AcDbEntity
  8
0
100
AcDbPolyline
 62
7
  6
CONTINUOUS
 90
4
 70
0
 10
46.4704291801
 20
-83.3403941816
 10
46.4976870378
 20
-83.7204842481
 10
46.5282509339
 20
-84.0981921354
 10
46.5621208684
 20
-84.4735178435
  0
LWPOLYLINE
  5
49A
100
AcDbEntity
  8
0
100
AcDbPolyline
 62
7
  6
CONTINUOUS
 90
4
 70
0
 10
46.5058829228
 20
-83.3199236349
 10
46.5331682914
 20
-83.6999996491
 10
46.5637630416
 20
-84.0776908209
 10
46.5976671734
 20
-84.4529971503
  0
LINE
  5
49B
100
AcDbEntity
  8
0
100
AcDbLine
 62
7
  6
CONTINUOUS
 10
48.744252288
 20
-84.6532658576
 11
48.7715100874
 21
-85.0333558209
  0
LINE
  5
49C
100
AcDbEntity
  8
RACCORDO
100
AcDbLine
 62
253
  6
CONTINUOUS
 10
35.5047478893
 20
-10.4879954016
 11
35.5047478893
 21
-10.5784235657
  0
LINE
  5
49D
100
AcDbEntity
  8
RACCORDO
100
AcDbLine
 62
7
  6
CONTINUOUS
 10
35.5561189242
 20
-10.4107258764
 11
35.5561189242
 21
-10.481435846
  0
LWPOLYLINE
  5
49E
100
AcDbEntity
  8
0
100
AcDbPolyline
 62
253
  6
CONTINUOUS
 90
9
 70
0
 10
50.1907551531
 20
13.379352885
 10
50.1226663948
 20
13.211635494
 10
50.0762085689
 20
13.0438444917
 10
50.0531032862
 20
12.8817816349
 10
50.0543557686
 20
12.7302588967
 10
50.0802585302
 20
12.5956557426
 10
50.1289579403
 20
12.484582591
 10
50.1967373697
 20
12.4006382384
 10
50.2566229082
 20
12.3565052479
  0
LWPOLYLINE
  5
49F
100
AcDbEntity
  8
0
100
AcDbPolyline
 62
253
  6
CONTINUOUS
 90
10
 70
0
 10
50.1920209459
 20
13.3820389849
 10
50.274776266
 20
13.5662536975
 10
50.3496507917
 20
13.7529443303
 10
50.4162120668
 20
13.9411713516
 10
50.4738283485
 20
14.1294461536
 10
50.5220369724
 20
14.3166669755
 10
50.5606947126
 20
14.5020676298
 10
50.5895646632
 20
14.6843525915
 10
50.6084357342
 20
14.862294695
 10
50.6172131188
 20
15.0351931944
  0
LWPOLYLINE
  5
4A0
100
AcDbEntity
  8
RACCORDO
100
AcDbPolyline
 62
7
  6
CONTINUOUS
 90
4
 70
0
 10
44.4957761984
 20
-18.5475226289
 10
44.4705699416
 20
-18.5668323347
 10
44.4438151933
 20
-18.5900893244
 10
44.4359548937
 20
-18.597878289
  0
LWPOLYLINE
  5
4A1
100
AcDbEntity
  8
RACCORDO
100
AcDbPolyline
 62
7
  6
CONTINUOUS
 90
5
 70
0
 10
44.8660053065
 20
-18.3550471758
 10
44.8407990498
 20
-18.3743568816
 10
44.8140443015
 20
-18.3976138714
 10
44.7862282134
 20
-18.4251775185
 10
44.7573507856
 20
-18.4570478231
  0
LWPOLYLINE
  5
4A2
100
AcDbEntity
  8
RACCORDO
100
AcDbPolyline
 62
7
  6
CONTINUOUS
 90
5
 70
0
 10
45.2362344147
 20
-18.1625717227
 10
45.2110281579
 20
-18.1818814286
 10
45.1842734096
 20
-18.2051384183
 10
45.1564573215
 20
-18.2327020654
 10
45.1275798937
 20
-18.2645723701
  0
LWPOLYLINE
  5
4A3
100
AcDbEntity
  8
RACCORDO
100
AcDbPolyline
 62
7
  6
CONTINUOUS
 90
5
 70
0
 10
45.6064635228
 20
-17.9700962696
 10
45.5812572661
 20
-17.9894059755
 10
45.5545025178
 20
-18.0126629652
 10
45.5266864297
 20
-18.0402266124
 10
45.4978090019
 20
-18.072096917
  0
LWPOLYLINE
  5
4A4
100
AcDbEntity
  8
RACCORDO
100
AcDbPolyline
 62
7
  6
CONTINUOUS
 90
5
 70
0
 10
45.976692631
 20
-17.7776208166
 10
45.9514863742
 20
-17.7969305224
 10
45.9247316259
 20
-17.8201875121
 10
45.8969155378
 20
-17.8477511593
 10
45.86803811
 20
-17.8796214639
  0
LWPOLYLINE
  5
4A5
100
AcDbEntity
  8
RACCORDO
100
AcDbPolyline
 62
7
  6
CONTINUOUS
 90
5
 70
0
 10
46.3469217391
 20
-17.5851453635
 10
46.3217154824
 20
-17.6044550693
 10
46.294960734
 20
-17.627712059
 10
46.267144646
 20
-17.6552757062
 10
46.2382672182
 20
-17.6871460108
  0
LINE
  5
4A6
100
AcDbEntity
  8
0
100
AcDbLine
 62
7
  6
CONTINUOUS
 10
3.6849427359
 20
-50.1754565183
 11
1.3877674566
 21
-51.7092930168
  0
LINE
  5
4A7
100
AcDbEntity
  8
RACCORDO
100
AcDbLine
 62
7
  6
CONTINUOUS
 10
47.2938685616
 20
-17.0907683562
 11
47.0834420397
 21
-17.2001653195
  0
LINE
  5
4A8
100
AcDbEntity
  8
0
100
AcDbLine
 62
7
  6
CONTINUOUS
 10
-0.3222566508
 20
-47.6466910204
 11
-3.1249004602
 21
-49.1037351187
  0
LINE
  5
4A9
100
AcDbEntity
  8
0
100
AcDbLine
 62
7
  6
CONTINUOUS
 10
73.6723602349
 20
-15.5466601627
 11
75.1532887813
 21
-14.9189175697
  0
LWPOLYLINE
  5
4AA
100
AcDbEntity
  8
0
100
AcDbPolyline
 62
253
  6
CONTINUOUS
 90
5
 70
0
 10
-61.1743216976
 20
39.9446198844
 10
-61.3553712378
 20
39.9506314052
 10
-61.5310158795
 20
39.975418226
 10
-61.6948688703
 20
40.0177874834
 10
-61.8424527308
 20
40.0762723628
  0
LWPOLYLINE
  5
4AB
100
AcDbEntity
  8
0
100
AcDbPolyline
 62
253
  6
CONTINUOUS
 90
10
 70
0
 10
69.1692849765
 20
15.937973214
 10
69.2900293927
 20
15.8924946829
 10
69.4140789631
 20
15.8589815586
 10
69.5415758409
 20
15.8359069346
 10
69.6755709202
 20
15.8228485628
 10
69.8129623416
 20
15.8207540585
 10
69.9446996315
 20
15.8297663336
 10
70.067854576
 20
15.8489868522
 10
70.185415446
 20
15.878665704
 10
70.2972471894
 20
15.920236519
  0
LWPOLYLINE
  5
4AC
100
AcDbEntity
  8
RACCORDO
100
AcDbPolyline
 62
7
  6
CONTINUOUS
 90
4
 70
0
 10
50.7290924948
 20
16.2080591574
 10
50.7587243615
 20
16.1940543293
 10
50.7904881625
 20
16.1850253295
 10
50.8234664179
 20
16.1813407319
  0
LWPOLYLINE
  5
4AD
100
AcDbEntity
  8
0
100
AcDbPolyline
 62
253
  6
CONTINUOUS
 90
13
 70
0
 10
-60.8228347994
 20
77.4805534623
 10
-61.0105105428
 20
77.570955242
 10
-61.1909789825
 20
77.6302645272
 10
-61.3615110157
 20
77.65908902
 10
-61.5188130772
 20
77.6593424701
 10
-61.6621644052
 20
77.6320955815
 10
-61.7922743642
 20
77.5759387996
 10
-61.9068232694
 20
77.4905843459
 10
-62.0037886023
 20
77.3789395523
 10
-62.0830153927
 20
77.2420948522
 10
-62.142636915
 20
77.0804484705
 10
-62.1799505613
 20
76.8955794684
 10
-62.1930732219
 20
76.6895478825
  0
LINE
  5
4AE
100
AcDbEntity
  8
RACCORDO
100
AcDbLine
 62
253
  6
CONTINUOUS
 10
50.7146756438
 20
16.3010091834
 11
50.6882678576
 21
16.3148725236
  0
LINE
  5
4AF
100
AcDbEntity
  8
ASSI
100
AcDbLine
 62
7
  6
CONTINUOUS
 10
-60.3485677363
 20
79.9729091317
 11
-60.5259530116
 21
80.075175419
  0
LINE
  5
4B0
100
AcDbEntity
  8
0
100
AcDbLine
 62
7
  6
CONTINUOUS
 10
-60.7581636262
 20
76.4550516508
 11
50.2566229082
 21
12.3565052479
  0
LINE
  5
4B1
100
AcDbEntity
  8
0
100
AcDbLine
 62
253
  6
CONTINUOUS
 10
-60.8240313813
 20
77.4778992879
 11
50.1907551531
 21
13.379352885
  0
LINE
  5
4B2
100
AcDbEntity
  8
0
100
AcDbLine
 62
7
  6
CONTINUOUS
 10
50.612776498
 20
15.0326312493
 11
-60.4020100361
 21
79.1311776521
  0
LINE
  5
4B3
100
AcDbEntity
  8
ASSI
100
AcDbLine
 62
7
  6
CONTINUOUS
 10
50.6625043578
 20
15.8718464133
 11
-60.3522860477
 21
79.9703950514
  0
LINE
  5
4B4
100
AcDbEntity
  8
RACCORDO
100
AcDbLine
 62
7
  6
CONTINUOUS
 10
50.7290924948
 20
16.2080591574
 11
-60.2753051147
 21
80.3006071252
  0
LINE
  5
4B5
100
AcDbEntity
  8
RACCORDO
100
AcDbLine
 62
253
  6
CONTINUOUS
 10
50.6882677593
 20
16.3148725806
 11
-60.3161296459
 21
80.4074204305
  0
LINE
  5
4B6
100
AcDbEntity
  8
ASSI
100
AcDbLine
 62
7
  6
CONTINUOUS
 10
50.8433650253
 20
15.7719269699
 11
50.6662251846
 21
15.8743590413
  0
LWPOLYLINE
  5
4B7
100
AcDbEntity
  8
RACCORDO
100
AcDbPolyline
 62
253
  6
CONTINUOUS
 90
7
 70
0
 10
50.7290924948
 20
16.2080591574
 10
50.7239283259
 20
16.2113661176
 10
50.709845146
 20
16.224630161
 10
50.698991813
 20
16.2421364334
 10
50.6916622803
 20
16.2634107919
 10
50.6880550623
 20
16.2878770381
 10
50.6882678576
 20
16.3148725239
  0
LWPOLYLINE
  5
4B8
100
AcDbEntity
  8
0
100
AcDbPolyline
 62
7
  6
CONTINUOUS
 90
13
 70
0
 10
50.2567597364
 20
12.3566071861
 10
50.2885104989
 20
12.3358838336
 10
50.332745067
 20
12.3007479121
 10
50.386209578
 20
12.2500332454
 10
50.4458585086
 20
12.182978036
 10
50.5068595032
 20
12.1017002315
 10
50.5634101687
 20
12.0119779615
 10
50.6126012617
 20
11.9179213979
 10
50.6521646206
 20
11.8243997327
 10
50.6799415562
 20
11.7396930742
 10
50.6966617168
 20
11.6689979599
 10
50.7046626929
 20
11.6142384903
 10
50.7066305144
 20
11.5774358976
  0
LINE
  5
4B9
100
AcDbEntity
  8
0
100
AcDbLine
 62
253
  6
CONTINUOUS
 10
50.3774368544
 20
13.2569792975
 11
50.1920421694
 21
13.3819548359
  0
LINE
  5
4BA
100
AcDbEntity
  8
RACCORDO
100
AcDbLine
 62
253
  6
CONTINUOUS
 10
-59.3871369638
 20
87.3409157945
 11
-59.3649882483
 21
87.3254414064
  0
LWPOLYLINE
  5
4BB
100
AcDbEntity
  8
0
100
AcDbPolyline
 62
7
  6
CONTINUOUS
 90
10
 70
0
 10
50.9941944565
 20
14.7836461953
 10
50.952752179
 20
14.8146898465
 10
50.9111063925
 20
14.8450314708
 10
50.8693149165
 20
14.8746281648
 10
50.8274831955
 20
14.9034014676
 10
50.785619845
 20
14.9313456125
 10
50.7436340161
 20
14.9585294453
 10
50.7015296351
 20
14.9849508547
 10
50.6594080512
 20
15.01053482
 10
50.6173217345
 20
15.0352430188
  0
LWPOLYLINE
  5
4BC
100
AcDbEntity
  8
0
100
AcDbPolyline
 62
253
  6
CONTINUOUS
 90
10
 70
0
 10
51.5028130726
 20
-27.5756687583
 10
51.4455679064
 20
-27.3867259461
 10
51.3781144545
 20
-27.2050017863
 10
51.3008179399
 20
-27.0313774115
 10
51.214014484
 20
-26.8665559368
 10
51.1182225166
 20
-26.7114755891
 10
51.0142139054
 20
-26.5672230513
 10
50.9026838405
 20
-26.4345025174
 10
50.7841733041
 20
-26.3137172662
 10
50.6593306089
 20
-26.2053273404
  0
LWPOLYLINE
  5
4BD
100
AcDbEntity
  8
0
100
AcDbPolyline
 62
253
  6
CONTINUOUS
 90
5
 70
0
 10
67.7195410272
 20
-103.7290540834
 10
67.7460035421
 20
-103.8208530506
 10
67.7837517619
 20
-103.8935737379
 10
67.8313404349
 20
-103.9501676701
 10
67.8910208104
 20
-103.9929946439
  0
LWPOLYLINE
  5
4BE
100
AcDbEntity
  8
0
100
AcDbPolyline
 62
253
  6
CONTINUOUS
 90
10
 70
0
 10
50.877255769
 20
-88.0990138138
 10
50.9187143175
 20
-88.4129225426
 10
50.9626266627
 20
-88.7251107181
 10
51.008992076
 20
-89.035554851
 10
51.0578122213
 20
-89.3442473921
 10
51.1090837021
 20
-89.6511489772
 10
51.1627968072
 20
-89.9561894075
 10
51.2189460356
 20
-90.2593308915
 10
51.2775313502
 20
-90.5605670681
 10
51.3385498477
 20
-90.8598759357
  0
LINE
  5
4BF
100
AcDbEntity
  8
0
100
AcDbLine
 62
253
  6
CONTINUOUS
 10
50.8491119152
 20
-87.8734816741
 11
50.877255769
 21
-88.0990138138
  0
LINE
  5
4C0
100
AcDbEntity
  8
0
100
AcDbLine
 62
7
  6
CONTINUOUS
 10
46.2441477156
 20
-85.1055630879
 11
46.273429413
 21
-85.3483936461
  0
LINE
  5
4C1
100
AcDbEntity
  8
0
100
AcDbLine
 62
7
  6
CONTINUOUS
 10
46.6754035816
 20
-85.196455282
 11
46.7192358581
 21
-85.5646070843
  0
LINE
  5
4C2
100
AcDbEntity
  8
0
100
AcDbLine
 62
7
  6
CONTINUOUS
 10
48.9136016453
 20
-86.5298938987
 11
48.957389625
 21
-86.8980729744
  0
LINE
  5
4C3
100
AcDbEntity
  8
0
100
AcDbLine
 62
7
  6
CONTINUOUS
 10
49.36895622
 20
-86.829154611
 11
49.403201019
 21
-87.1142892709
  0
LINE
  5
4C4
100
AcDbEntity
  8
0
100
AcDbLine
 62
7
  6
CONTINUOUS
 10
49.3333219826
 20
-86.8497292288
 11
49.3675320641
 21
-87.1348840785
  0
LINE
  5
4C5
100
AcDbEntity
  8
0
100
AcDbLine
 62
7
  6
CONTINUOUS
 10
49.3010987627
 20
-86.5631673173
 11
49.3333219826
 21
-86.8497292288
  0
LINE
  5
4C6
100
AcDbEntity
  8
0
100
AcDbLine
 62
7
  6
CONTINUOUS
 10
49.3367003399
 20
-86.5426115571
 11
49.36895622
 21
-86.829154611
  0
LINE
  5
4C7
100
AcDbEntity
  8
0
100
AcDbLine
 62
253
  6
CONTINUOUS
 10
50.6552201081
 20
-85.8475889823
 11
50.6692882969
 21
-86.0407404635
  0
LWPOLYLINE
  5
4C8
100
AcDbEntity
  8
0
100
AcDbPolyline
 62
253
  6
CONTINUOUS
 90
7
 70
0
 10
51.5622805835
 20
11.0086322866
 10
51.5466569289
 20
11.2323190973
 10
51.5075938775
 20
11.4620254167
 10
51.4470745448
 20
11.6934430108
 10
51.3685097657
 20
11.921465499
 10
51.2732532657
 20
12.1438883892
 10
51.1596961315
 20
12.3605531448
  0
LINE
  5
4C9
100
AcDbEntity
  8
0
100
AcDbLine
 62
253
  6
CONTINUOUS
 10
50.6420200979
 20
-85.6539743841
 11
50.6552201081
 21
-85.8475889823
  0
LINE
  5
4CA
100
AcDbEntity
  8
0
100
AcDbLine
 62
253
  6
CONTINUOUS
 10
50.629680364
 20
-85.459797111
 11
50.6420200979
 21
-85.6539743841
  0
LWPOLYLINE
  5
4CB
100
AcDbEntity
  8
0
100
AcDbPolyline
 62
253
  6
CONTINUOUS
 90
7
 70
0
 10
51.5623700488
 20
-46.9604914386
 10
51.5489364304
 20
-46.7353490858
 10
51.5111874777
 20
-46.5084157788
 10
51.4507527321
 20
-46.2788880463
 10
51.366065379
 20
-46.0425185413
 10
51.2577827718
 20
-45.8044867051
 10
51.13212381
 20
-45.5771106478
  0
LINE
  5
4CC
100
AcDbEntity
  8
0
100
AcDbLine
 62
253
  6
CONTINUOUS
 10
50.6182018585
 20
-85.2650672108
 11
50.629680364
 21
-85.459797111
  0
LINE
  5
4CD
100
AcDbEntity
  8
0
100
AcDbLine
 62
253
  6
CONTINUOUS
 10
50.612776498
 20
-85.1673333123
 11
50.6182018585
 21
-85.2650672108
  0
LINE
  5
4CE
100
AcDbEntity
  8
0
100
AcDbLine
 62
7
  6
CONTINUOUS
 10
50.7064738223
 20
-24.6737038915
 11
50.7064738218
 21
11.5773683647
  0
LINE
  5
4CF
100
AcDbEntity
  8
0
100
AcDbLine
 62
7
  6
CONTINUOUS
 10
50.7064738223
 20
-46.3916964555
 11
50.7064738218
 21
-82.6427687129
  0
LINE
  5
4D0
100
AcDbEntity
  8
0
100
AcDbLine
 62
7
  6
CONTINUOUS
 10
50.7723537915
 20
-42.3095816304
 11
50.7723537915
 21
-35.3962550159
  0
LINE
  5
4D1
100
AcDbEntity
  8
0
100
AcDbLine
 62
7
  6
CONTINUOUS
 10
51.5028813159
 20
-27.5759209456
 11
51.5028813159
 21
-43.6275042254
  0
LINE
  5
4D2
100
AcDbEntity
  8
0
100
AcDbLine
 62
253
  6
CONTINUOUS
 10
51.5621030525
 20
-46.9604696594
 11
51.5621030523
 21
-83.2115425327
  0
LINE
  5
4D3
100
AcDbEntity
  8
0
100
AcDbLine
 62
253
  6
CONTINUOUS
 10
51.5621030525
 20
-25.242478327
 11
51.5621030523
 21
11.0085945449
  0
LINE
  5
4D4
100
AcDbEntity
  8
0
100
AcDbLine
 62
7
  6
CONTINUOUS
 10
50.706670775
 20
-24.6742117127
 11
50.7066219712
 21
-24.6815452823
  0
LINE
  5
4D5
100
AcDbEntity
  8
0
100
AcDbLine
 62
7
  6
CONTINUOUS
 10
50.7065198231
 20
-46.3861725718
 11
50.7064738223
 21
-46.3916964555
  0
LWPOLYLINE
  5
4D6
100
AcDbEntity
  8
0
100
AcDbPolyline
 62
253
  6
CONTINUOUS
 90
10
 70
0
 10
50.596964074
 20
-42.9166980587
 10
50.5917817259
 20
-43.090798224
 10
50.5762473716
 20
-43.2701430826
 10
50.5504181266
 20
-43.4538638908
 10
50.5144177576
 20
-43.6409944506
 10
50.4683961834
 20
-43.8306938353
 10
50.4124904278
 20
-44.022258544
 10
50.3468971253
 20
-44.2148255852
 10
50.2719105052
 20
-44.4073692471
 10
50.1878545095
 20
-44.5989296097
  0
LINE
  5
4D7
100
AcDbEntity
  8
0
100
AcDbLine
 62
253
  6
CONTINUOUS
 10
50.612776498
 20
15.0326312493
 11
50.626731124
 21
15.2925965441
  0
LWPOLYLINE
  5
4D8
100
AcDbEntity
  8
RACCORDO
100
AcDbPolyline
 62
253
  6
CONTINUOUS
 90
10
 70
0
 10
50.5266287088
 20
-35.5537886576
 10
50.4824347046
 20
-36.2959267036
 10
50.4492775511
 20
-37.0325785606
 10
50.4271672935
 20
-37.7635158479
 10
50.4161105962
 20
-38.4885099986
 10
50.4161106356
 20
-39.2073383056
 10
50.4271673998
 20
-39.9197838179
 10
50.4492776886
 20
-40.625627511
 10
50.4824348142
 20
-41.3246485294
 10
50.526628708
 20
-42.0166301088
  0
LINE
  5
4D9
100
AcDbEntity
  8
0
100
AcDbLine
 62
253
  6
CONTINUOUS
 10
50.626731124
 20
15.2925965441
 11
50.6388554849
 21
15.5009105058
  0
LINE
  5
4DA
100
AcDbEntity
  8
ASSI
100
AcDbLine
 62
253
  6
CONTINUOUS
 10
50.6388554849
 20
15.5009105058
 11
50.6543341385
 21
15.7482611575
  0
LINE
  5
4DB
100
AcDbEntity
  8
ASSI
100
AcDbLine
 62
253
  6
CONTINUOUS
 10
50.6543341385
 20
15.7482611575
 11
50.6625043578
 21
15.8718464133
  0
LINE
  5
4DC
100
AcDbEntity
  8
ASSI
100
AcDbLine
 62
7
  6
CONTINUOUS
 10
50.8717950719
 20
16.1814922318
 11
50.8433650253
 21
15.7719269699
  0
LINE
  5
4DD
100
AcDbEntity
  8
ASSI
100
AcDbLine
 62
7
  6
CONTINUOUS
 10
50.9048243281
 20
16.6025826635
 11
50.8717950719
 21
16.1814922318
  0
LWPOLYLINE
  5
4DE
100
AcDbEntity
  8
RACCORDO
100
AcDbPolyline
 62
253
  6
CONTINUOUS
 90
7
 70
0
 10
51.2244807304
 20
20.8916853767
 10
51.107808852
 20
20.1183144564
 10
51.0020183554
 20
19.3488588909
 10
50.9071411585
 20
18.5835509141
 10
50.8232066138
 20
17.8226257612
 10
50.7502412025
 20
17.0663214832
 10
50.6882677593
 20
16.3148725806
  0
LWPOLYLINE
  5
4DF
100
AcDbEntity
  8
ASSI
100
AcDbPolyline
 62
7
  6
CONTINUOUS
 90
11
 70
0
 10
51.5157149993
 20
21.4564685428
 10
51.4282254357
 20
20.917734039
 10
51.3468795941
 20
20.3908751731
 10
51.2716774745
 20
19.8758919449
 10
51.2028794519
 20
19.3727911214
 10
51.1402251512
 20
18.8815659357
 10
51.0829334476
 20
18.4021960872
 10
51.0309984285
 20
17.934784865
 10
50.9844260063
 20
17.4792289801
 10
50.9424527937
 20
17.0351982649
 10
50.9048243281
 20
16.6025826635
  0
LINE
  5
4E0
100
AcDbEntity
  8
RACCORDO
100
AcDbLine
 62
253
  6
CONTINUOUS
 10
51.3519983544
 20
21.6687340386
 11
51.2244807304
 21
20.8916853767
  0
LWPOLYLINE
  5
4E1
100
AcDbEntity
  8
RACCORDO
100
AcDbPolyline
 62
253
  6
CONTINUOUS
 90
3
 70
0
 10
51.6394092637
 20
23.2328934946
 10
51.4903220843
 20
22.4492174118
 10
51.3519983544
 20
21.6687340386
  0
LWPOLYLINE
  5
4E2
100
AcDbEntity
  8
ASSI
100
AcDbPolyline
 62
7
  6
CONTINUOUS
 90
6
 70
0
 10
51.8320355464
 20
23.1928615223
 10
51.7645317728
 20
22.8441924012
 10
51.6991478313
 20
22.4962185426
 10
51.6358837218
 20
22.1489399467
 10
51.5747394445
 20
21.8023566134
 10
51.5157149993
 20
21.4564685428
  0
LINE
  5
4E3
100
AcDbEntity
  8
ASSI
100
AcDbLine
 62
7
  6
CONTINUOUS
 10
51.9016591522
 20
23.542225906
 11
51.8320355464
 21
23.1928615223
  0
LWPOLYLINE
  5
4E4
100
AcDbEntity
  8
ASSI
100
AcDbPolyline
 62
253
  6
CONTINUOUS
 90
7
 70
0
 10
51.7241344848
 20
23.6445186025
 10
51.8502635928
 20
24.2534127428
 10
51.9821739448
 20
24.8616045768
 10
52.1197704854
 20
25.4689652666
 10
52.2629578575
 20
26.0753682948
 10
52.4116404435
 20
26.6806894705
 10
52.5657224066
 20
27.2848069344
  0
LWPOLYLINE
  5
4E5
100
AcDbEntity
  8
RACCORDO
100
AcDbPolyline
 62
253
  6
CONTINUOUS
 90
10
 70
0
 10
51.6394093611
 20
23.2328934383
 10
51.6467120577
 20
23.2617430611
 10
51.6574435746
 20
23.2911549788
 10
51.6714277422
 20
23.3203612183
 10
51.6884502989
 20
23.3486532614
 10
51.7080847326
 20
23.3751023048
 10
51.7296218074
 20
23.3986698406
 10
51.7523820981
 20
23.4186379179
 10
51.7758071548
 20
23.4345406438
 10
51.7992492959
 20
23.4459384699
  0
LINE
  5
4E6
100
AcDbEntity
  8
RACCORDO
100
AcDbLine
 62
7
  6
CONTINUOUS
 10
44.6896570912
 20
-18.5665116036
 11
44.7573507856
 21
-18.4570478231
  0
LINE
  5
4E7
100
AcDbEntity
  8
RACCORDO
100
AcDbLine
 62
7
  6
CONTINUOUS
 10
45.0598861994
 20
-18.3740361505
 11
45.1275798937
 21
-18.2645723701
  0
LINE
  5
4E8
100
AcDbEntity
  8
RACCORDO
100
AcDbLine
 62
7
  6
CONTINUOUS
 10
45.4301153075
 20
-18.1815606974
 11
45.4978090019
 21
-18.072096917
  0
LINE
  5
4E9
100
AcDbEntity
  8
RACCORDO
100
AcDbLine
 62
7
  6
CONTINUOUS
 10
45.8003444157
 20
-17.9890852444
 11
45.86803811
 21
-17.8796214639
  0
LINE
  5
4EA
100
AcDbEntity
  8
RACCORDO
100
AcDbLine
 62
7
  6
CONTINUOUS
 10
46.1705735238
 20
-17.7966097913
 11
46.2382672182
 21
-17.6871460108
  0
LINE
  5
4EB
100
AcDbEntity
  8
RACCORDO
100
AcDbLine
 62
7
  6
CONTINUOUS
 10
46.540802632
 20
-17.6041343382
 11
46.6084963263
 21
-17.4946705578
  0
LINE
  5
4EC
100
AcDbEntity
  8
RACCORDO
100
AcDbLine
 62
7
  6
CONTINUOUS
 10
46.9110317401
 20
-17.4116588851
 11
46.9787254345
 21
-17.3021951047
  0
LWPOLYLINE
  5
4ED
100
AcDbEntity
  8
RACCORDO
100
AcDbPolyline
 62
7
  6
CONTINUOUS
 90
10
 70
0
 10
49.1307596021
 20
-20.9821992621
 10
49.1577804774
 20
-20.947613612
 10
49.1834362684
 20
-20.9178182251
 10
49.207726975
 20
-20.8928131012
 10
49.2300078716
 20
-20.8724787324
 10
49.2509236838
 20
-20.8569346268
 10
49.2724085886
 20
-20.846539308
 10
49.2951073118
 20
-20.841412284
 10
49.3183751276
 20
-20.8414340468
 10
49.342212036
 20
-20.8466045965
  0
LWPOLYLINE
  5
4EE
100
AcDbEntity
  8
RACCORDO
100
AcDbPolyline
 62
7
  6
CONTINUOUS
 90
10
 70
0
 10
49.4641153883
 20
-20.7684336151
 10
49.4911362637
 20
-20.733847965
 10
49.5167920547
 20
-20.7040525781
 10
49.5410827613
 20
-20.6790474542
 10
49.5633636579
 20
-20.6587130854
 10
49.5842794701
 20
-20.6431689798
 10
49.6057643749
 20
-20.632773661
 10
49.6284630981
 20
-20.627646637
 10
49.6517309138
 20
-20.6276683998
 10
49.6755678223
 20
-20.6328389496
  0
LWPOLYLINE
  5
4EF
100
AcDbEntity
  8
RACCORDO
100
AcDbPolyline
 62
7
  6
CONTINUOUS
 90
10
 70
0
 10
49.7974711746
 20
-20.5546679681
 10
49.82449205
 20
-20.5200823181
 10
49.850147841
 20
-20.4902869311
 10
49.8744385476
 20
-20.4652818072
 10
49.8967194442
 20
-20.4449474385
 10
49.9176352564
 20
-20.4294033328
 10
49.9391201612
 20
-20.419008014
 10
49.9618188844
 20
-20.41388099
 10
49.9850867001
 20
-20.4139027528
 10
50.0089236086
 20
-20.4190733026
  0
LWPOLYLINE
  5
4F0
100
AcDbEntity
  8
RACCORDO
100
AcDbPolyline
 62
7
  6
CONTINUOUS
 90
10
 70
0
 10
50.1308269609
 20
-20.3409023211
 10
50.1578478363
 20
-20.3063166711
 10
50.1835036273
 20
-20.2765212841
 10
50.2077943339
 20
-20.2515161602
 10
50.2300752305
 20
-20.2311817915
 10
50.2509910427
 20
-20.2156376858
 10
50.2724759475
 20
-20.205242367
 10
50.2951746706
 20
-20.200115343
 10
50.3184424864
 20
-20.2001371059
 10
50.3422793949
 20
-20.2053076556
  0
LWPOLYLINE
  5
4F1
100
AcDbEntity
  8
RACCORDO
100
AcDbPolyline
 62
7
  6
CONTINUOUS
 90
10
 70
0
 10
50.4641827472
 20
-20.1271366741
 10
50.4912036226
 20
-20.0925510241
 10
50.5168594136
 20
-20.0627556371
 10
50.5411501202
 20
-20.0377505132
 10
50.5634310168
 20
-20.0174161445
 10
50.584346829
 20
-20.0018720388
 10
50.6058317338
 20
-19.99147672
 10
50.6285304569
 20
-19.986349696
 10
50.6517982727
 20
-19.9863714589
 10
50.6756351811
 20
-19.9915420086
  0
LWPOLYLINE
  5
4F2
100
AcDbEntity
  8
RACCORDO
100
AcDbPolyline
 62
7
  6
CONTINUOUS
 90
9
 70
0
 10
48.8414792996
 20
-21.1415728668
 10
48.8500804821
 20
-21.131583872
 10
48.8743711887
 20
-21.1065787481
 10
48.8966520853
 20
-21.0862443794
 10
48.9175678975
 20
-21.0707002737
 10
48.9390528023
 20
-21.0603049549
 10
48.9617515255
 20
-21.0551779309
 10
48.9850193413
 20
-21.0551996938
 10
49.0088562497
 20
-21.0603702435
  0
LINE
  5
4F3
100
AcDbEntity
  8
0
100
AcDbLine
 62
7
  6
CONTINUOUS
 10
50.7064738222
 20
-20.2374553341
 11
49.1522928776
 21
-21.2751904516
  0
LINE
  5
4F4
100
AcDbEntity
  8
0
100
AcDbLine
 62
7
  6
CONTINUOUS
 10
3.7872128942
 20
-50.019447232
 11
1.2637010735
 21
-51.6376586421
  0
LINE
  5
4F5
100
AcDbEntity
  8
0
100
AcDbLine
 62
7
  6
CONTINUOUS
 10
75.1532887813
 20
-8.9193211822
 11
73.6723602349
 21
-9.8313682251
  0
LWPOLYLINE
  5
4F6
100
AcDbEntity
  8
0
100
AcDbPolyline
 62
7
  6
CONTINUOUS
 90
10
 70
0
 10
-60.7775758501
 20
79.3192655411
 10
-60.7354609084
 20
79.302064759
 10
-60.6932170806
 20
79.2839698951
 10
-60.6509042061
 20
79.2650059777
 10
-60.608630478
 20
79.24521786
 10
-60.5664054701
 20
79.2246103092
 10
-60.5241374215
 20
79.2031468354
 10
-60.4818308909
 20
79.1808302603
 10
-60.439589485
 20
79.1577038676
 10
-60.3974669816
 20
79.133790681
  0
LWPOLYLINE
  5
4F7
100
AcDbEntity
  8
0
100
AcDbPolyline
 62
253
  6
CONTINUOUS
 90
6
 70
0
 10
67.7196329602
 20
18.667446219
 10
67.2594822134
 20
18.9134859081
 10
66.7988761825
 20
19.1695911408
 10
66.3388511859
 20
19.4299340184
 10
65.8764923925
 20
19.6870067458
 10
65.4162047132
 20
19.9374410623
  0
LWPOLYLINE
  5
4F8
100
AcDbEntity
  8
0
100
AcDbPolyline
 62
253
  6
CONTINUOUS
 90
5
 70
0
 10
68.2775694521
 20
19.5963259041
 10
67.47891541
 20
20.0264817788
 10
66.6796701476
 20
20.4625645869
 10
65.8798336649
 20
20.9045743285
 10
65.0803676021
 20
21.353354889
  0
LINE
  5
4F9
100
AcDbEntity
  8
ASSI
100
AcDbLine
 62
253
  6
CONTINUOUS
 10
-59.8536043073
 20
85.7597087357
 11
-63.9938093026
 21
88.0304200145
  0
LWPOLYLINE
  5
4FA
100
AcDbEntity
  8
0
100
AcDbPolyline
 62
253
  6
CONTINUOUS
 90
5
 70
0
 10
65.4162047132
 20
19.9374410623
 10
64.5531218714
 20
20.4131141858
 10
64.154565399
 20
20.6305830677
 10
63.7570387249
 20
20.8509764617
 10
62.5494984047
 20
21.5250491195
  0
LWPOLYLINE
  5
4FB
100
AcDbEntity
  8
0
100
AcDbPolyline
 62
253
  6
CONTINUOUS
 90
4
 70
0
 10
62.5494984047
 20
21.5250491195
 10
61.8297140289
 20
21.9324238459
 10
61.4791246265
 20
22.1356834037
 10
60.7688766185
 20
22.551632017
  0
LINE
  5
4FC
100
AcDbEntity
  8
0
100
AcDbLine
 62
253
  6
CONTINUOUS
 10
-67.3576197048
 20
96.524404877
 11
-66.6499216983
 21
96.1216492325
  0
LINE
  5
4FD
100
AcDbEntity
  8
0
100
AcDbLine
 62
253
  6
CONTINUOUS
 10
65.0803676021
 20
21.353354889
 11
62.6688056899
 21
22.7268193168
  0
LINE
  5
4FE
100
AcDbEntity
  8
0
100
AcDbLine
 62
253
  6
CONTINUOUS
 10
62.6688056899
 20
22.7268193168
 11
61.0424348574
 21
23.6583134736
  0
LINE
  5
4FF
100
AcDbEntity
  8
0
100
AcDbLine
 62
253
  6
CONTINUOUS
 10
-67.704329895
 20
96.7237573647
 11
-67.3576197048
 21
96.524404877
  0
LINE
  5
500
100
AcDbEntity
  8
RACCORDO
100
AcDbLine
 62
253
  6
CONTINUOUS
 10
51.6394092637
 20
23.2328934946
 11
-59.3649881584
 21
87.3254413542
  0
LINE
  5
501
100
AcDbEntity
  8
RACCORDO
100
AcDbLine
 62
253
  6
CONTINUOUS
 10
51.7992492959
 20
23.4459384699
 11
-59.2051483136
 21
87.5384864377
  0
LINE
  5
502
100
AcDbEntity
  8
0
100
AcDbLine
 62
7
  6
CONTINUOUS
 10
-58.4476846232
 20
91.3857635613
 11
52.5667818922
 21
27.288352178
  0
LINE
  5
503
100
AcDbEntity
  8
0
100
AcDbLine
 62
253
  6
CONTINUOUS
 10
53.1956563569
 20
28.1922784629
 11
-65.6713915364
 21
96.8212887362
  0
LINE
  5
504
100
AcDbEntity
  8
0
100
AcDbLine
 62
253
  6
CONTINUOUS
 10
-58.4476846232
 20
91.3857635613
 11
-66.6499216983
 21
96.1216492325
  0
LINE
  5
505
100
AcDbEntity
  8
0
100
AcDbLine
 62
253
  6
CONTINUOUS
 10
61.0424348574
 20
23.6583134736
 11
53.1956563569
 21
28.1922784629
  0
LINE
  5
506
100
AcDbEntity
  8
0
100
AcDbLine
 62
253
  6
CONTINUOUS
 10
60.7688766185
 20
22.551632017
 11
52.5667818922
 21
27.288352178
  0
LINE
  5
507
100
AcDbEntity
  8
ASSI
100
AcDbLine
 62
7
  6
CONTINUOUS
 10
-59.4676588847
 20
87.8454743551
 11
51.9016591522
 21
23.542225906
  0
LINE
  5
508
100
AcDbEntity
  8
0
100
AcDbLine
 62
253
  6
CONTINUOUS
 10
-65.6713915364
 20
96.8212887362
 11
-67.2884206045
 21
97.7625055609
  0
LWPOLYLINE
  5
509
100
AcDbEntity
  8
0
100
AcDbPolyline
 62
253
  6
CONTINUOUS
 90
6
 70
0
 10
-67.2884206045
 20
97.7625055609
 10
-69.6691119762
 20
99.1560632473
 10
-70.4468215117
 20
99.6179288781
 10
-71.2133592027
 20
100.080315834
 10
-71.9699418181
 20
100.5425310685
 10
-72.716569358
 20
101.0045745815
  0
LINE
  5
50A
100
AcDbEntity
  8
0
100
AcDbLine
 62
253
  6
CONTINUOUS
 10
-68.4087687613
 20
97.1387112885
 11
-67.704329895
 21
96.7237573647
  0
LINE
  5
50B
100
AcDbEntity
  8
ASSI
100
AcDbLine
 62
253
  6
CONTINUOUS
 10
55.6189315487
 20
18.9675222823
 11
51.5157135334
 21
21.4564602235
  0
LWPOLYLINE
  5
50C
100
AcDbEntity
  8
0
100
AcDbPolyline
 62
253
  6
CONTINUOUS
 90
3
 70
0
 10
-70.3417800509
 20
98.2997399255
 10
-69.9608012108
 20
98.0671148879
 10
-68.4087687613
 20
97.1387112885
  0
LWPOLYLINE
  5
50D
100
AcDbEntity
  8
0
100
AcDbPolyline
 62
253
  6
CONTINUOUS
 90
7
 70
0
 10
-73.3283284192
 20
100.1067713734
 10
-72.9039837589
 20
99.8421144997
 10
-72.4729753624
 20
99.5834127366
 10
-72.0382485721
 20
99.3271371463
 10
-71.6005884206
 20
99.0645502148
 10
-71.1650049903
 20
98.7977197806
 10
-70.3417800509
 20
98.2997399255
  0
LINE
  5
50E
100
AcDbEntity
  8
RACCORDO
100
AcDbLine
 62
253
  6
CONTINUOUS
 10
51.8222489503
 20
23.4297065343
 11
51.7992492959
 21
23.4459384699
  0
LWPOLYLINE
  5
50F
100
AcDbEntity
  8
0
100
AcDbPolyline
 62
7
  6
CONTINUOUS
 90
10
 70
0
 10
51.2851191758
 20
14.5412923189
 10
51.2535003004
 20
14.5697783748
 10
51.2216380793
 20
14.5979279182
 10
51.1895692046
 20
14.6257130047
 10
51.1573512483
 20
14.6530929783
 10
51.1249983003
 20
14.6800541739
 10
51.0924798363
 20
14.7066107457
 10
51.0598071865
 20
14.7327512383
 10
51.0270346737
 20
14.7584377448
 10
50.9941944565
 20
14.7836461953
  0
LWPOLYLINE
  5
510
100
AcDbEntity
  8
0
100
AcDbPolyline
 62
253
  6
CONTINUOUS
 90
10
 70
0
 10
51.285010169
 20
14.5412908832
 10
51.475363948
 20
14.3480012934
 10
51.6534343618
 20
14.1622626011
 10
51.8230752348
 20
13.9716301989
 10
51.9842054604
 20
13.7705371744
 10
52.1373867228
 20
13.5572774407
 10
52.2853521393
 20
13.3314051425
 10
52.4284219697
 20
13.0943325487
 10
52.5641206092
 20
12.849507573
 10
52.6910208364
 20
12.6002437603
  0
LWPOLYLINE
  5
511
100
AcDbEntity
  8
0
100
AcDbPolyline
 62
253
  6
CONTINUOUS
 90
5
 70
0
 10
51.0287886906
 20
12.5668412113
 10
50.8840247151
 20
12.7598687272
 10
50.7261740896
 20
12.9412471238
 10
50.5563878057
 20
13.108799464
 10
50.3774368544
 20
13.2569792975
  0
LINE
  5
512
100
AcDbEntity
  8
0
100
AcDbLine
 62
253
  6
CONTINUOUS
 10
51.1596961315
 20
12.3605531448
 11
51.0287886906
 21
12.5668412113
  0
LWPOLYLINE
  5
513
100
AcDbEntity
  8
0
100
AcDbPolyline
 62
253
  6
CONTINUOUS
 90
9
 70
0
 10
50.7064738218
 20
11.5773683647
 10
50.720553195
 20
11.4810706095
 10
50.7679666582
 20
11.3785474959
 10
50.8445463751
 20
11.2854216659
 10
50.9467906063
 20
11.2029924069
 10
51.0732847033
 20
11.1318768634
 10
51.2215399581
 20
11.0741596523
 10
51.3862027705
 20
11.0325218355
 10
51.5621030523
 20
11.0085945449
  0
LWPOLYLINE
  5
514
100
AcDbEntity
  8
0
100
AcDbPolyline
 62
253
  6
CONTINUOUS
 90
9
 70
0
 10
50.7064738223
 20
-46.3916964555
 10
50.7174544749
 20
-46.4768061229
 10
50.7603837419
 20
-46.5782211377
 10
50.8337647206
 20
-46.672827801
 10
50.9350569772
 20
-46.7580408724
 10
51.0623742189
 20
-46.8319850945
 10
51.2127462233
 20
-46.8920763055
 10
51.3811332017
 20
-46.9355566709
 10
51.5621030525
 20
-46.9604702753
  0
LWPOLYLINE
  5
515
100
AcDbEntity
  8
0
100
AcDbPolyline
 62
253
  6
CONTINUOUS
 90
3
 70
0
 10
50.7064738223
 20
-24.6737038915
 10
50.7174552571
 20
-24.7588165734
 10
50.7603851291
 20
-24.8602309067
  0
LINE
  5
516
100
AcDbEntity
  8
0
100
AcDbLine
 62
253
  6
CONTINUOUS
 10
53.2061632411
 20
-83.6684913833
 11
53.2061194295
 21
-47.4173951414
  0
LINE
  5
517
100
AcDbEntity
  8
0
100
AcDbLine
 62
253
  6
CONTINUOUS
 10
53.2061632411
 20
10.5498484401
 11
53.2065518511
 21
-25.7005379609
  0
LWPOLYLINE
  5
518
100
AcDbEntity
  8
RACCORDO
100
AcDbPolyline
 62
253
  6
CONTINUOUS
 90
10
 70
0
 10
50.7723537915
 20
-36.1629127291
 10
50.7637655416
 20
-36.3071374622
 10
50.7307405303
 20
-37.0407259743
 10
50.7087238536
 20
-37.7684394711
 10
50.6977155407
 20
-38.4905253753
 10
50.6977155623
 20
-39.2067362642
 10
50.7087238302
 20
-39.9163298694
 10
50.7307403149
 20
-40.6190587681
 10
50.7637650458
 20
-41.3151703832
 10
50.7723537915
 20
-41.4496580306
  0
LWPOLYLINE
  5
519
100
AcDbEntity
  8
0
100
AcDbPolyline
 62
253
  6
CONTINUOUS
 90
10
 70
0
 10
51.5623700488
 20
-25.242500107
 10
51.5489364304
 20
-25.4527802687
 10
51.5111874777
 20
-25.6371613161
 10
51.4507527321
 20
-25.7983268407
 10
51.366065379
 20
-25.9389483202
 10
51.2577827718
 20
-26.0543654296
 10
51.13212381
 20
-26.1387354409
 10
50.9922183173
 20
-26.1921696518
 10
50.8352247592
 20
-26.2153732819
 10
50.6593360448
 20
-26.2053326392
  0
LWPOLYLINE
  5
51A
100
AcDbEntity
  8
0
100
AcDbPolyline
 62
253
  6
CONTINUOUS
 90
10
 70
0
 10
53.2065518511
 20
-25.7005379609
 10
53.1809387977
 20
-26.0999947169
 10
53.1104408135
 20
-26.4555430564
 10
52.9951961277
 20
-26.7670991229
 10
52.8309019134
 20
-27.0392229005
 10
52.6224317314
 20
-27.2670112526
 10
52.3836984426
 20
-27.4361814846
 10
52.1195186578
 20
-27.5418695
 10
51.8257517531
 20
-27.5885473355
 10
51.5028192681
 20
-27.5759751408
  0
LWPOLYLINE
  5
51B
100
AcDbEntity
  8
0
100
AcDbPolyline
 62
253
  6
CONTINUOUS
 90
13
 70
0
 10
51.5622805905
 20
-83.2116092162
 10
51.5467012182
 20
-83.4199835611
 10
51.5076714127
 20
-83.6062417337
 10
51.447173032
 20
-83.7683686458
 10
51.3686180843
 20
-83.9044887138
 10
51.2733617419
 20
-84.0146614319
 10
51.1597835236
 20
-84.0989845199
 10
51.0287937892
 20
-84.1553355908
 10
50.8839052762
 20
-84.1834209754
 10
50.7259736307
 20
-84.1836464547
 10
50.5561914277
 20
-84.1545113779
 10
50.3773074086
 20
-84.0943908866
 10
50.1920421678
 20
-84.002614796
  0
LWPOLYLINE
  5
51C
100
AcDbEntity
  8
RACCORDO
100
AcDbPolyline
 62
253
  6
CONTINUOUS
 90
10
 70
0
 10
50.5266288062
 20
-35.5537887138
 10
50.5302000116
 20
-35.5260189806
 10
50.5373587765
 20
-35.4969018962
 10
50.5480295469
 20
-35.4671722163
 10
50.5620872439
 20
-35.437520502
 10
50.5792120088
 20
-35.4088877373
 10
50.598797492
 20
-35.382383039
 10
50.6202220775
 20
-35.3588195567
 10
50.6429565498
 20
-35.3387537938
 10
50.6663722993
 20
-35.3227404176
  0
LINE
  5
51D
100
AcDbEntity
  8
RACCORDO
100
AcDbLine
 62
7
  6
CONTINUOUS
 10
49.0698079259
 20
-21.0955557993
 11
49.1307596021
 21
-20.9821992621
  0
LINE
  5
51E
100
AcDbEntity
  8
RACCORDO
100
AcDbLine
 62
7
  6
CONTINUOUS
 10
49.4031637122
 20
-20.8817901524
 11
49.4641153883
 21
-20.7684336151
  0
LINE
  5
51F
100
AcDbEntity
  8
RACCORDO
100
AcDbLine
 62
7
  6
CONTINUOUS
 10
49.7365194985
 20
-20.6680245054
 11
49.7974711746
 21
-20.5546679681
  0
LINE
  5
520
100
AcDbEntity
  8
RACCORDO
100
AcDbLine
 62
7
  6
CONTINUOUS
 10
50.0698752847
 20
-20.4542588584
 11
50.1308269609
 21
-20.3409023211
  0
LINE
  5
521
100
AcDbEntity
  8
RACCORDO
100
AcDbLine
 62
7
  6
CONTINUOUS
 10
50.403231071
 20
-20.2404932114
 11
50.4641827472
 21
-20.1271366741
  0
LINE
  5
522
100
AcDbEntity
  8
0
100
AcDbLine
 62
7
  6
CONTINUOUS
 10
19.5948453126
 20
-59.3616348682
 11
17.2976700333
 21
-60.8954713667
  0
LINE
  5
523
100
AcDbEntity
  8
0
100
AcDbLine
 62
7
  6
CONTINUOUS
 10
19.6971154709
 20
-59.2056255818
 11
17.1736036502
 21
-60.823836992
  0
LINE
  5
524
100
AcDbEntity
  8
0
100
AcDbLine
 62
7
  6
CONTINUOUS
 10
15.5876459259
 20
-56.8328693703
 11
12.7850021165
 21
-58.2899134685
  0
LINE
  5
525
100
AcDbEntity
  8
RACCORDO
100
AcDbLine
 62
7
  6
CONTINUOUS
 10
50.7376608218
 20
-42.1096353718
 11
50.764924082
 21
-42.0970320293
  0
LWPOLYLINE
  5
526
100
AcDbEntity
  8
RACCORDO
100
AcDbPolyline
 62
253
  6
CONTINUOUS
 90
8
 70
0
 10
50.7723537915
 20
-42.0219088568
 10
50.750555307
 20
-42.0307555403
 10
50.7173994124
 20
-42.0405159855
 10
50.6824069825
 20
-42.0460138121
 10
50.6472029681
 20
-42.0468710832
 10
50.613607818
 20
-42.0444045394
 10
50.5822387579
 20
-42.0390825687
 10
50.553150937
 20
-42.0300116634
  0
LWPOLYLINE
  5
527
100
AcDbEntity
  8
0
100
AcDbPolyline
 62
253
  6
CONTINUOUS
 90
4
 70
0
 10
-72.7165668596
 20
101.0045215749
 10
-72.9867540755
 20
101.1404825846
 10
-73.255439239
 20
101.2321282711
 10
-73.5183839363
 20
101.2782877254
  0
LINE
  5
528
100
AcDbEntity
  8
0
100
AcDbLine
 62
7
  6
CONTINUOUS
 10
73.0571228682
 20
22.3582031912
 11
-68.414243601
 21
104.0419971379
  0
LWPOLYLINE
  5
529
100
AcDbEntity
  8
0
100
AcDbPolyline
 62
7
  6
CONTINUOUS
 90
16
 70
0
 10
73.0571228682
 20
22.3582031912
 10
73.2760290818
 20
22.2178823423
 10
73.4892058648
 20
22.0558918378
 10
73.6966532169
 20
21.8722316777
 10
73.900856417
 20
21.6645326948
 10
74.0993301863
 20
21.4351640563
 10
74.284618689
 20
21.1912332642
 10
74.4561970857
 20
20.9318059198
 10
74.6145902157
 20
20.6578164217
 10
74.7539167607
 20
20.3791754681
 10
74.87312096
 20
20.0955971749
 10
74.9732585743
 20
19.8073674262
 10
75.0516155672
 20
19.5252545716
 10
75.10728726
 20
19.2528480609
 10
75.1411783313
 20
18.9865584443
 10
75.1532887813
 20
18.7263857219
  0
LWPOLYLINE
  5
52A
100
AcDbEntity
  8
0
100
AcDbPolyline
 62
253
  6
CONTINUOUS
 90
13
 70
0
 10
68.2775719527
 20
19.5962728963
 10
68.5487989461
 20
19.419628127
 10
68.8139421189
 20
19.2030480226
 10
69.069090302
 20
18.9500671409
 10
69.3098832322
 20
18.6638225169
 10
69.5319775252
 20
18.3496386811
 10
69.7315219384
 20
18.0147294126
 10
69.9047613658
 20
17.664517598
 10
70.0487539983
 20
17.3050201827
 10
70.1614824958
 20
16.94466457
 10
70.2414511584
 20
16.5902524133
 10
70.2871988672
 20
16.2468844394
 10
70.2972830203
 20
15.9202371441
  0
LINE
  5
52B
100
AcDbEntity
  8
0
100
AcDbLine
 62
253
  6
CONTINUOUS
 10
52.6915183632
 20
12.6002226861
 11
52.7044416095
 21
12.5731329473
  0
LINE
  5
52C
100
AcDbEntity
  8
0
100
AcDbLine
 62
253
  6
CONTINUOUS
 10
52.7044416095
 20
12.5731329473
 11
52.7172569542
 21
12.5459297086
  0
LINE
  5
52D
100
AcDbEntity
  8
0
100
AcDbLine
 62
253
  6
CONTINUOUS
 10
52.7172569542
 20
12.5459297086
 11
52.7299601126
 21
12.5186204338
  0
LWPOLYLINE
  5
52E
100
AcDbEntity
  8
0
100
AcDbPolyline
 62
253
  6
CONTINUOUS
 90
10
 70
0
 10
52.7299601126
 20
12.5186204338
 10
52.8255564538
 20
12.3042374193
 10
52.9112167551
 20
12.083789065
 10
52.9867843696
 20
11.8594797886
 10
53.0526211508
 20
11.6334641917
 10
53.1080817626
 20
11.4077351272
 10
53.1514964623
 20
11.1843832841
 10
53.1822162272
 20
10.9656265193
 10
53.2006302736
 20
10.7535504123
 10
53.2066273312
 20
10.5501775383
  0
LWPOLYLINE
  5
52F
100
AcDbEntity
  8
0
100
AcDbPolyline
 62
253
  6
CONTINUOUS
 90
10
 70
0
 10
57.4797537507
 20
11.516469905
 10
57.2162229547
 20
12.3122140437
 10
56.9663666712
 20
13.1176970576
 10
56.7304567295
 20
13.9320672348
 10
56.5088423216
 20
14.7541741999
 10
56.3017013883
 20
15.5834685912
 10
56.1090124175
 20
16.4200769595
 10
55.9308574051
 20
17.2635880522
 10
55.7674501909
 20
18.1129778274
 10
55.618932231
 20
18.9675228852
  0
LWPOLYLINE
  5
530
100
AcDbEntity
  8
0
100
AcDbPolyline
 62
253
  6
CONTINUOUS
 90
3
 70
0
 10
69.1316111147
 20
-102.3251929383
 10
69.1490000603
 20
-102.59187838
 10
69.169655502
 20
-102.8592815174
  0
LWPOLYLINE
  5
531
100
AcDbEntity
  8
0
100
AcDbPolyline
 62
253
  6
CONTINUOUS
 90
6
 70
0
 10
69.1027642824
 20
13.5440211823
 10
69.0918338628
 20
13.7958642031
 10
69.085991038
 20
14.0520585661
 10
69.0854012713
 20
14.3119075464
 10
69.0916154448
 20
14.5732583591
 10
69.1034030172
 20
14.8367530091
  0
LINE
  5
532
100
AcDbEntity
  8
0
100
AcDbLine
 62
253
  6
CONTINUOUS
 10
61.6046440994
 20
6.4833890867
 11
61.4380818147
 21
10.9241681112
  0
LWPOLYLINE
  5
533
100
AcDbEntity
  8
0
100
AcDbPolyline
 62
253
  6
CONTINUOUS
 90
13
 70
0
 10
69.169655502
 20
15.9390607697
 10
69.1633038782
 20
16.1826111851
 10
69.1309847164
 20
16.4304691124
 10
69.0729763548
 20
16.685167486
 10
68.9853450954
 20
16.9624169149
 10
68.8719594256
 20
17.2538810026
 10
68.742880906
 20
17.5267370118
 10
68.5935739013
 20
17.7785470438
 10
68.4243362934
 20
18.0197975156
 10
68.2514987704
 20
18.232777809
 10
68.0800020988
 20
18.409449532
 10
67.9029406027
 20
18.5550022189
 10
67.7196329602
 20
18.667446219
  0
LINE
  5
534
100
AcDbEntity
  8
0
100
AcDbLine
 62
253
  6
CONTINUOUS
 10
69.093213625
 20
13.5384881878
 11
69.0997655525
 21
3.6032008445
  0
LINE
  5
535
100
AcDbEntity
  8
0
100
AcDbLine
 62
7
  6
CONTINUOUS
 10
69.1032054408
 20
-90.6172907086
 11
69.0997127539
 21
-54.3659160055
  0
LINE
  5
536
100
AcDbEntity
  8
0
100
AcDbLine
 62
7
  6
CONTINUOUS
 10
69.0997127539
 20
-54.3659160055
 11
69.0997127539
 21
-43.5069197235
  0
LINE
  5
537
100
AcDbEntity
  8
0
100
AcDbLine
 62
7
  6
CONTINUOUS
 10
69.1032573159
 20
-32.6500409772
 11
69.1032054408
 21
3.6010491148
  0
LINE
  5
538
100
AcDbEntity
  8
0
100
AcDbLine
 62
7
  6
CONTINUOUS
 10
69.0997127539
 20
-43.5069197235
 11
69.1032573159
 21
-32.6500409772
  0
LINE
  5
539
100
AcDbEntity
  8
0
100
AcDbLine
 62
253
  6
CONTINUOUS
 10
69.093213625
 20
-100.5476728536
 11
69.1002705946
 21
-90.6161947996
  0
LINE
  5
53A
100
AcDbEntity
  8
0
100
AcDbLine
 62
253
  6
CONTINUOUS
 10
61.6046440994
 20
-87.7367480778
 11
61.4380818147
 21
-91.9851798206
  0
LWPOLYLINE
  5
53B
100
AcDbEntity
  8
0
100
AcDbPolyline
 62
253
  6
CONTINUOUS
 90
4
 70
0
 10
69.1034030172
 20
14.8367530091
 10
69.1316111147
 20
15.3805212721
 10
69.1490000603
 20
15.6586868784
 10
69.169655502
 20
15.9390607697
  0
LWPOLYLINE
  5
53C
100
AcDbEntity
  8
0
100
AcDbPolyline
 62
253
  6
CONTINUOUS
 90
9
 70
0
 10
50.1866706774
 20
-44.6015186228
 10
50.1212862625
 20
-44.7661883716
 10
50.0769239939
 20
-44.9301081909
 10
50.0549634532
 20
-45.0878871632
 10
50.0560435025
 20
-45.2344102701
 10
50.0800502222
 20
-45.3648748897
 10
50.1260626369
 20
-45.4749945627
 10
50.1922159479
 20
-45.5610990694
 10
50.2586222498
 20
-45.6113990583
  0
LWPOLYLINE
  5
53D
100
AcDbEntity
  8
0
100
AcDbPolyline
 62
253
  6
CONTINUOUS
 90
10
 70
0
 10
51.5028130726
 20
-43.627677628
 10
51.4455679064
 20
-43.7627478776
 10
51.3781144545
 20
-43.9031035844
 10
51.3008179399
 20
-44.048032043
 10
51.214014484
 20
-44.1969268803
 10
51.1182225166
 20
-44.3489200423
 10
51.0142139054
 20
-44.5028616737
 10
50.9026838405
 20
-44.6578423093
 10
50.7841733041
 20
-44.813220724
 10
50.6593306089
 20
-44.9682391569
  0
LWPOLYLINE
  5
53E
100
AcDbEntity
  8
0
100
AcDbPolyline
 62
253
  6
CONTINUOUS
 90
10
 70
0
 10
-61.0751168983
 20
79.4166200487
 10
-61.2721436291
 20
79.4469991103
 10
-61.4555896514
 20
79.4699954772
 10
-61.629973153
 20
79.4779984374
 10
-61.7952739896
 20
79.465382617
 10
-61.9517182944
 20
79.4308968053
 10
-62.101485996
 20
79.376931878
 10
-62.2443887086
 20
79.3049762465
 10
-62.3775973627
 20
79.215414972
 10
-62.4994181948
 20
79.1097595817
  0
LWPOLYLINE
  5
53F
100
AcDbEntity
  8
0
100
AcDbPolyline
 62
7
  6
CONTINUOUS
 90
10
 70
0
 10
-61.0752733435
 20
79.4167747617
 10
-61.042739818
 20
79.4082216323
 10
-61.0099999227
 20
79.3990719196
 10
-60.9770919932
 20
79.3893409896
 10
-60.9440752506
 20
79.3790555737
 10
-60.910965243
 20
79.3682191489
 10
-60.8777326767
 20
79.3568114393
 10
-60.844390169
 20
79.3448348488
 10
-60.8109934233
 20
79.3323149549
 10
-60.7775758501
 20
79.3192655411
  0
LWPOLYLINE
  5
540
100
AcDbEntity
  8
0
100
AcDbPolyline
 62
253
  6
CONTINUOUS
 90
10
 70
0
 10
58.4462207477
 20
21.8068111283
 10
58.6580078676
 20
20.5360068596
 10
58.9007223756
 20
19.2794024863
 10
59.1740928614
 20
18.0370116877
 10
59.4780013639
 20
16.8076469049
 10
59.8119997773
 20
15.5927952541
 10
60.1752600124
 20
14.3965395911
 10
60.5673213942
 20
13.2204554791
 10
60.9881678878
 20
12.0636926595
 10
61.4375126193
 20
10.926705482
  0
LINE
  5
541
100
AcDbEntity
  8
0
100
AcDbLine
 62
7
  6
CONTINUOUS
 10
70.274574281
 20
-90.5501948548
 11
70.284899003
 21
-100.4790891586
  0
LINE
  5
542
100
AcDbEntity
  8
0
100
AcDbLine
 62
7
  6
CONTINUOUS
 10
70.2745495897
 20
3.6699293864
 11
70.274574281
 21
-90.5501948548
  0
LINE
  5
543
100
AcDbEntity
  8
0
100
AcDbLine
 62
7
  6
CONTINUOUS
 10
73.6723602349
 20
-9.8313682251
 11
73.6723602349
 21
-15.5466601627
  0
LINE
  5
544
100
AcDbEntity
  8
0
100
AcDbLine
 62
7
  6
CONTINUOUS
 10
73.6723602349
 20
-67.8007578774
 11
73.6723602349
 21
-73.516049815
  0
LINE
  5
545
100
AcDbEntity
  8
0
100
AcDbLine
 62
7
  6
CONTINUOUS
 10
75.1532887813
 20
-100.5340141261
 11
75.1532887813
 21
-72.888307222
  0
LINE
  5
546
100
AcDbEntity
  8
0
100
AcDbLine
 62
7
  6
CONTINUOUS
 10
75.1532887813
 20
-66.8887108345
 11
75.1532887813
 21
-14.9189175697
  0
LINE
  5
547
100
AcDbEntity
  8
0
100
AcDbLine
 62
7
  6
CONTINUOUS
 10
75.1532887813
 20
-8.9193211822
 11
75.1532887813
 21
18.7263857219
  0
LINE
  5
548
100
AcDbEntity
  8
0
100
AcDbLine
 62
7
  6
CONTINUOUS
 10
70.284899003
 20
13.6095716156
 11
70.2745495897
 21
3.6699293864
  0
LWPOLYLINE
  5
549
100
AcDbEntity
  8
0
100
AcDbPolyline
 62
253
  6
CONTINUOUS
 90
10
 70
0
 10
70.284899003
 20
-100.4790891586
 10
70.2817356054
 20
-100.74717363
 10
70.2809049338
 20
-101.0114970523
 10
70.2824069882
 20
-101.2720594255
 10
70.2878441408
 20
-101.5281026742
 10
70.2956140194
 20
-101.7803848738
 10
70.3009095077
 20
-102.0311802503
 10
70.3021282337
 20
-102.281246879
 10
70.3008725693
 20
-102.5298266846
 10
70.2971425147
 20
-102.7769196671
  0
LWPOLYLINE
  5
54A
100
AcDbEntity
  8
0
100
AcDbPolyline
 62
253
  6
CONTINUOUS
 90
3
 70
0
 10
69.169655502
 20
-102.8592815174
 10
69.1633038782
 20
-103.0685510634
 10
69.1309847164
 20
-103.256358565
  0
LWPOLYLINE
  5
54B
100
AcDbEntity
  8
0
100
AcDbPolyline
 62
253
  6
CONTINUOUS
 90
10
 70
0
 10
70.284899003
 20
13.6095716156
 10
70.2935493241
 20
13.880408643
 10
70.2984945556
 20
14.1468224417
 10
70.2997346975
 20
14.4088130115
 10
70.2947596072
 20
14.6651854028
 10
70.2860794273
 20
14.9171345653
 10
70.2812245853
 20
15.168245348
 10
70.2827052238
 20
15.4197127008
 10
70.2880112003
 20
15.670341674
 10
70.2971425147
 20
15.9201322674
  0
LWPOLYLINE
  5
54C
100
AcDbEntity
  8
0
100
AcDbPolyline
 62
253
  6
CONTINUOUS
 90
7
 70
0
 10
69.1027642824
 20
-100.5418926162
 10
69.0918338628
 20
-100.7842565032
 10
69.085991038
 20
-101.0317309264
 10
69.0854012713
 20
-101.2836931307
 10
69.0916154448
 20
-101.5391839404
 10
69.1034030172
 20
-101.7979338993
 10
69.1316111147
 20
-102.3251929383
  0
LWPOLYLINE
  5
54D
100
AcDbEntity
  8
0
100
AcDbPolyline
 62
7
  6
CONTINUOUS
 90
5
 70
0
 10
50.350966239
 20
-86.5257161413
 10
50.3799707401
 20
-86.4274381401
 10
50.3886972006
 20
-86.3155673918
 10
50.3751333997
 20
-86.1888285745
 10
50.3413188363
 20
-86.048480981
  0
LINE
  5
54E
100
AcDbEntity
  8
RACCORDO
100
AcDbLine
 62
7
  6
CONTINUOUS
 10
44.6896570912
 20
-76.5359012559
 11
44.7573507856
 21
-76.4264374754
  0
LINE
  5
54F
100
AcDbEntity
  8
0
100
AcDbLine
 62
7
  6
CONTINUOUS
 10
35.5047478893
 20
-68.547813218
 11
33.20757261
 21
-70.0816497166
  0
LINE
  5
550
100
AcDbEntity
  8
0
100
AcDbLine
 62
7
  6
CONTINUOUS
 10
35.6070180476
 20
-68.3918039317
 11
33.0835062269
 21
-70.0100153419
  0
LINE
  5
551
100
AcDbEntity
  8
0
100
AcDbLine
 62
7
  6
CONTINUOUS
 10
31.4975485026
 20
-66.0190477202
 11
28.6949046932
 21
-67.4760918184
  0
LWPOLYLINE
  5
552
100
AcDbEntity
  8
0
100
AcDbPolyline
 62
7
  6
CONTINUOUS
 90
9
 70
0
 10
75.1532887813
 20
-100.5340141261
 10
75.1411783313
 20
-100.7802020045
 10
75.10728726
 20
-101.0073550614
 10
75.0516155672
 20
-101.2154732967
 10
74.9732585743
 20
-101.4071014601
 10
74.87312096
 20
-101.5796948019
 10
74.7539167607
 20
-101.7256190736
 10
74.6145902157
 20
-101.8433692254
 10
74.4621552389
 20
-101.9316733573
  0
LWPOLYLINE
  5
553
100
AcDbEntity
  8
0
100
AcDbPolyline
 62
253
  6
CONTINUOUS
 90
9
 70
0
 10
50.2665614327
 20
-82.8854942721
 10
50.1803372826
 20
-83.0508523965
 10
50.1152202853
 20
-83.2184049323
 10
50.0728481066
 20
-83.3802795101
 10
50.0525962326
 20
-83.5335080909
 10
50.054270358
 20
-83.6765134476
 10
50.0782966758
 20
-83.8054661165
 10
50.1242097406
 20
-83.9150185838
 10
50.1907551531
 20
-84.001394619
  0
LINE
  5
554
100
AcDbEntity
  8
RACCORDO
100
AcDbLine
 62
7
  6
CONTINUOUS
 10
49.0698079259
 20
-79.0649454516
 11
49.1307596021
 21
-78.9515889144
  0
LINE
  5
555
100
AcDbEntity
  8
RACCORDO
100
AcDbLine
 62
7
  6
CONTINUOUS
 10
49.4031637122
 20
-78.8511798046
 11
49.4641153883
 21
-78.7378232674
  0
LINE
  5
556
100
AcDbEntity
  8
RACCORDO
100
AcDbLine
 62
7
  6
CONTINUOUS
 10
49.7365194985
 20
-78.6374141577
 11
49.7974711746
 21
-78.5240576204
  0
LINE
  5
557
100
AcDbEntity
  8
RACCORDO
100
AcDbLine
 62
7
  6
CONTINUOUS
 10
50.0698752847
 20
-78.4236485107
 11
50.1308269609
 21
-78.3102919734
  0
LINE
  5
558
100
AcDbEntity
  8
RACCORDO
100
AcDbLine
 62
7
  6
CONTINUOUS
 10
50.403231071
 20
-78.2098828637
 11
50.4641827472
 21
-78.0965263264
  0
LINE
  5
559
100
AcDbEntity
  8
RACCORDO
100
AcDbLine
 62
7
  6
CONTINUOUS
 10
45.0598861994
 20
-76.3434258028
 11
45.1275798937
 21
-76.2339620224
  0
LINE
  5
55A
100
AcDbEntity
  8
RACCORDO
100
AcDbLine
 62
7
  6
CONTINUOUS
 10
45.4301153075
 20
-76.1509503497
 11
45.4978090019
 21
-76.0414865693
  0
LINE
  5
55B
100
AcDbEntity
  8
RACCORDO
100
AcDbLine
 62
7
  6
CONTINUOUS
 10
45.8003444157
 20
-75.9584748967
 11
45.86803811
 21
-75.8490111162
  0
LINE
  5
55C
100
AcDbEntity
  8
RACCORDO
100
AcDbLine
 62
7
  6
CONTINUOUS
 10
46.1705735238
 20
-75.7659994436
 11
46.2382672182
 21
-75.6565356631
  0
LINE
  5
55D
100
AcDbEntity
  8
RACCORDO
100
AcDbLine
 62
7
  6
CONTINUOUS
 10
46.540802632
 20
-75.5735239905
 11
46.6084963263
 21
-75.46406021
  0
LINE
  5
55E
100
AcDbEntity
  8
RACCORDO
100
AcDbLine
 62
7
  6
CONTINUOUS
 10
46.9110317401
 20
-75.3810485374
 11
46.9787254345
 21
-75.271584757
  0
LWPOLYLINE
  5
55F
100
AcDbEntity
  8
RACCORDO
100
AcDbPolyline
 62
7
  6
CONTINUOUS
 90
10
 70
0
 10
49.1307596021
 20
-78.9515889144
 10
49.15437948
 20
-78.9159093191
 10
49.177639092
 20
-78.8860535371
 10
49.2005384382
 20
-78.8620215682
 10
49.222638885
 20
-78.844707323
 10
49.2443790659
 20
-78.8332168909
 10
49.2670748814
 20
-78.8248685406
 10
49.291164965
 20
-78.8187683616
 10
49.3162106832
 20
-78.8158102643
 10
49.342212036
 20
-78.8159942488
  0
LWPOLYLINE
  5
560
100
AcDbEntity
  8
RACCORDO
100
AcDbPolyline
 62
7
  6
CONTINUOUS
 90
10
 70
0
 10
49.4641153883
 20
-78.7378232674
 10
49.4877352663
 20
-78.7021436721
 10
49.5109948783
 20
-78.6722878901
 10
49.5338942245
 20
-78.6482559212
 10
49.5559946713
 20
-78.630941676
 10
49.5777348522
 20
-78.6194512439
 10
49.6004306677
 20
-78.6111028936
 10
49.6245207513
 20
-78.6050027146
 10
49.6495664695
 20
-78.6020446174
 10
49.6755678223
 20
-78.6022286019
  0
LWPOLYLINE
  5
561
100
AcDbEntity
  8
RACCORDO
100
AcDbPolyline
 62
7
  6
CONTINUOUS
 90
10
 70
0
 10
49.7974711746
 20
-78.5240576204
 10
49.8210910526
 20
-78.4883780252
 10
49.8443506646
 20
-78.4585222431
 10
49.8672500108
 20
-78.4344902742
 10
49.8893504576
 20
-78.417176029
 10
49.9110906385
 20
-78.4056855969
 10
49.933786454
 20
-78.3973372466
 10
49.9578765376
 20
-78.3912370676
 10
49.9829222558
 20
-78.3882789704
 10
50.0089236086
 20
-78.3884629549
  0
LWPOLYLINE
  5
562
100
AcDbEntity
  8
RACCORDO
100
AcDbPolyline
 62
7
  6
CONTINUOUS
 90
10
 70
0
 10
50.1308269609
 20
-78.3102919734
 10
50.1544468389
 20
-78.2746123782
 10
50.1777064509
 20
-78.2447565961
 10
50.2006057971
 20
-78.2207246272
 10
50.2227062439
 20
-78.203410382
 10
50.2444464248
 20
-78.1919199499
 10
50.2671422403
 20
-78.1835715996
 10
50.2912323239
 20
-78.1774714206
 10
50.3162780421
 20
-78.1745133234
 10
50.3422793949
 20
-78.1746973079
  0
LWPOLYLINE
  5
563
100
AcDbEntity
  8
RACCORDO
100
AcDbPolyline
 62
7
  6
CONTINUOUS
 90
10
 70
0
 10
50.4641827472
 20
-78.0965263264
 10
50.4878026251
 20
-78.0608467312
 10
50.5110622372
 20
-78.0309909491
 10
50.5339615834
 20
-78.0069589802
 10
50.5560620302
 20
-77.989644735
 10
50.5778022111
 20
-77.978154303
 10
50.6004980266
 20
-77.9698059527
 10
50.6245881102
 20
-77.9637057737
 10
50.6496338284
 20
-77.9607476764
 10
50.6756351811
 20
-77.9609316609
  0
LWPOLYLINE
  5
564
100
AcDbEntity
  8
RACCORDO
100
AcDbPolyline
 62
253
  6
CONTINUOUS
 90
4
 70
0
 10
-59.2781236613
 20
87.5558842685
 10
-59.2540849698
 20
87.5555872124
 10
-59.2295166523
 20
87.5496753222
 10
-59.2051483136
 20
87.5384864377
  0
LWPOLYLINE
  5
565
100
AcDbEntity
  8
0
100
AcDbPolyline
 62
253
  6
CONTINUOUS
 90
10
 70
0
 10
58.4462207477
 20
-97.5108070001
 10
58.6580078676
 20
-96.9953760408
 10
58.9007223756
 20
-96.4543914125
 10
59.1740928614
 20
-95.8879809671
 10
59.4780013639
 20
-95.2955697922
 10
59.8119997773
 20
-94.6781062635
 10
60.1752600124
 20
-94.0380855071
 10
60.5673213942
 20
-93.3764959557
 10
60.9881678878
 20
-92.6927685361
 10
61.4375126193
 20
-91.9871903891
  0
LWPOLYLINE
  5
566
100
AcDbEntity
  8
0
100
AcDbPolyline
 62
253
  6
CONTINUOUS
 90
10
 70
0
 10
57.4797537507
 20
-88.9805105881
 10
57.2162229547
 20
-89.4970504084
 10
56.9663666712
 20
-90.0041131894
 10
56.7304567295
 20
-90.5011556307
 10
56.5088423216
 20
-90.9874607046
 10
56.3017013883
 20
-91.4626755391
 10
56.1090124175
 20
-91.9268632125
 10
55.9308574051
 20
-92.3798074387
 10
55.7674501909
 20
-92.8209606184
 10
55.618932231
 20
-93.2499448965
  0
LWPOLYLINE
  5
567
100
AcDbEntity
  8
0
100
AcDbPolyline
 62
7
  6
CONTINUOUS
 90
5
 70
0
 10
50.3397669851
 20
-86.5805337252
 10
50.386445405
 20
-86.5053236977
 10
50.4154610864
 20
-86.4071216936
 10
50.4242134243
 20
-86.2953284939
 10
50.4106932481
 20
-86.1686700237
  0
LWPOLYLINE
  5
568
100
AcDbEntity
  8
RACCORDO
100
AcDbPolyline
 62
7
  6
CONTINUOUS
 90
9
 70
0
 10
48.8387639913
 20
-79.1069037153
 10
48.8442833057
 20
-79.0998191841
 10
48.8671826519
 20
-79.0757872152
 10
48.8892830987
 20
-79.0584729699
 10
48.9110232796
 20
-79.0469825379
 10
48.9337190951
 20
-79.0386341876
 10
48.9578091787
 20
-79.0325340086
 10
48.9828548969
 20
-79.0295759113
 10
49.0088562497
 20
-79.0297598958
  0
LWPOLYLINE
  5
569
100
AcDbEntity
  8
0
100
AcDbPolyline
 62
253
  6
CONTINUOUS
 90
3
 70
0
 10
50.4855493748
 20
-82.5938731981
 10
50.3697755298
 20
-82.7311317242
 10
50.2665614327
 20
-82.8854942721
  0
LINE
  5
56A
100
AcDbEntity
  8
0
100
AcDbLine
 62
7
  6
CONTINUOUS
 10
50.7064738218
 20
-78.2068449866
 11
49.1522928776
 21
-79.2445801038
  0
LINE
  5
56B
100
AcDbEntity
  8
0
100
AcDbLine
 62
7
  6
CONTINUOUS
 10
41.6792957781
 20
-80.5331127089
 11
41.6438420354
 21
-80.5535832556
  0
LINE
  5
56C
100
AcDbEntity
  8
0
100
AcDbLine
 62
7
  6
CONTINUOUS
 10
42.0894382172
 20
-80.769923813
 11
42.0539844746
 21
-80.7903943597
  0
LINE
  5
56D
100
AcDbEntity
  8
0
100
AcDbLine
 62
7
  6
CONTINUOUS
 10
42.9961308372
 20
-81.2934367682
 11
42.9606770945
 21
-81.3139073149
  0
LINE
  5
56E
100
AcDbEntity
  8
0
100
AcDbLine
 62
7
  6
CONTINUOUS
 10
43.4062732764
 20
-81.5302478723
 11
43.3708195337
 21
-81.550718419
  0
LINE
  5
56F
100
AcDbEntity
  8
0
100
AcDbLine
 62
7
  6
CONTINUOUS
 10
43.6796966194
 20
-81.6881190838
 11
43.6442428768
 21
-81.7085896305
  0
LINE
  5
570
100
AcDbEntity
  8
0
100
AcDbLine
 62
7
  6
CONTINUOUS
 10
44.0898341088
 20
-81.92492733
 11
44.0543803662
 21
-81.9453978766
  0
LINE
  5
571
100
AcDbEntity
  8
0
100
AcDbLine
 62
7
  6
CONTINUOUS
 10
44.4999560419
 20
-82.1617265941
 11
44.4645022993
 21
-82.1821971408
  0
LINE
  5
572
100
AcDbEntity
  8
0
100
AcDbLine
 62
7
  6
CONTINUOUS
 10
42.9612115106
 20
-83.3947709251
 11
42.9255425549
 21
-83.4153657331
  0
LINE
  5
573
100
AcDbEntity
  8
0
100
AcDbLine
 62
7
  6
CONTINUOUS
 10
45.1199727235
 20
-82.5197164554
 11
45.0845189809
 21
-82.5401870021
  0
LINE
  5
574
100
AcDbEntity
  8
0
100
AcDbLine
 62
7
  6
CONTINUOUS
 10
45.8858655341
 20
-82.9619333653
 11
45.8504117914
 21
-82.982403912
  0
LINE
  5
575
100
AcDbEntity
  8
0
100
AcDbLine
 62
7
  6
CONTINUOUS
 10
44.3031813873
 20
-84.1696075132
 11
44.2675124317
 21
-84.1902023211
  0
LINE
  5
576
100
AcDbEntity
  8
0
100
AcDbLine
 62
7
  6
CONTINUOUS
 10
46.5058829228
 20
-83.3199236349
 11
46.4704291801
 21
-83.3403941816
  0
LINE
  5
577
100
AcDbEntity
  8
RACCORDO
100
AcDbLine
 62
7
  6
CONTINUOUS
 10
47.434912183
 20
-74.986831967
 11
47.0834420397
 21
-75.1695549718
  0
LWPOLYLINE
  5
578
100
AcDbEntity
  8
RACCORDO
100
AcDbPolyline
 62
7
  6
CONTINUOUS
 90
6
 70
0
 10
46.3628825674
 20
-75.5456731799
 10
46.3396532046
 20
-75.555617945
 10
46.3157918004
 20
-75.5714050167
 10
46.2905823144
 20
-75.5939395922
 10
46.264740787
 20
-75.6223164744
 10
46.2382672182
 20
-75.6565356631
  0
LWPOLYLINE
  5
579
100
AcDbEntity
  8
RACCORDO
100
AcDbPolyline
 62
7
  6
CONTINUOUS
 90
6
 70
0
 10
45.9926534592
 20
-75.738148633
 10
45.9694240964
 20
-75.7480933981
 10
45.9455626922
 20
-75.7638804698
 10
45.9203532062
 20
-75.7864150453
 10
45.8945116788
 20
-75.8147919275
 10
45.86803811
 20
-75.8490111162
  0
LWPOLYLINE
  5
57A
100
AcDbEntity
  8
RACCORDO
100
AcDbPolyline
 62
7
  6
CONTINUOUS
 90
6
 70
0
 10
45.6224243511
 20
-75.930624086
 10
45.5991949883
 20
-75.9405688512
 10
45.5753335841
 20
-75.9563559229
 10
45.5501240981
 20
-75.9788904984
 10
45.5242825707
 20
-76.0072673805
 10
45.4978090019
 20
-76.0414865693
  0
LWPOLYLINE
  5
57B
100
AcDbEntity
  8
RACCORDO
100
AcDbPolyline
 62
7
  6
CONTINUOUS
 90
6
 70
0
 10
45.2521952429
 20
-76.1230995391
 10
45.2289658801
 20
-76.1330443042
 10
45.2051044759
 20
-76.1488313759
 10
45.1798949899
 20
-76.1713659515
 10
45.1540534625
 20
-76.1997428336
 10
45.1275798937
 20
-76.2339620224
  0
LWPOLYLINE
  5
57C
100
AcDbEntity
  8
RACCORDO
100
AcDbPolyline
 62
7
  6
CONTINUOUS
 90
6
 70
0
 10
44.8819661348
 20
-76.3155749922
 10
44.858736772
 20
-76.3255197573
 10
44.8348753678
 20
-76.341306829
 10
44.8096658818
 20
-76.3638414045
 10
44.7838243544
 20
-76.3922182867
 10
44.7573507856
 20
-76.4264374754
  0
LWPOLYLINE
  5
57D
100
AcDbEntity
  8
RACCORDO
100
AcDbPolyline
 62
7
  6
CONTINUOUS
 90
5
 70
0
 10
44.5117370266
 20
-76.5080504453
 10
44.4885076638
 20
-76.5179952104
 10
44.4646462596
 20
-76.5337822821
 10
44.4394367736
 20
-76.5563168576
 10
44.4331876156
 20
-76.5631791308
  0
LWPOLYLINE
  5
57E
100
AcDbEntity
  8
0
100
AcDbPolyline
 62
253
  6
CONTINUOUS
 90
4
 70
0
 10
69.1309847164
 20
-103.256358565
 10
69.0729763549
 20
-103.4237625985
 10
68.9853450954
 20
-103.578794092
 10
68.8719594256
 20
-103.7155482907
  0
LWPOLYLINE
  5
57F
100
AcDbEntity
  8
0
100
AcDbPolyline
 62
253
  6
CONTINUOUS
 90
10
 70
0
 10
52.7299601126
 20
-85.1179099694
 10
52.8255564538
 20
-85.0080075174
 10
52.9112167551
 20
-84.8810882646
 10
52.9867843696
 20
-84.7392370185
 10
53.0526211508
 20
-84.5850451796
 10
53.1080817626
 20
-84.4198273383
 10
53.1514964623
 20
-84.2438653796
 10
53.1822162272
 20
-84.0586714703
 10
53.2006302736
 20
-83.8667443282
 10
53.2066273312
 20
-83.669956623
  0
LWPOLYLINE
  5
580
100
AcDbEntity
  8
0
100
AcDbPolyline
 62
253
  6
CONTINUOUS
 90
4
 70
0
 10
52.7129965484
 20
-85.1357523071
 10
52.7172560521
 20
-85.1313302459
 10
52.7215030929
 20
-85.1268823726
 10
52.7299601126
 20
-85.1179099694
  0
LWPOLYLINE
  5
581
100
AcDbEntity
  8
0
100
AcDbPolyline
 62
253
  6
CONTINUOUS
 90
5
 70
0
 10
52.6915183632
 20
-85.1574735454
 10
52.6958378083
 20
-85.1531815173
 10
52.7001453352
 20
-85.1488632232
 10
52.7044409333
 20
-85.1445188062
 10
52.7129965484
 20
-85.1357523071
  0
LWPOLYLINE
  5
582
100
AcDbEntity
  8
0
100
AcDbPolyline
 62
7
  6
CONTINUOUS
 90
3
 70
0
 10
50.2454089055
 20
-86.6476609761
 10
50.3042857547
 20
-86.600987363
 10
50.350966239
 20
-86.5257161413
  0
LINE
  5
583
100
AcDbEntity
  8
0
100
AcDbLine
 62
7
  6
CONTINUOUS
 10
50.2809609137
 20
-86.6271361369
 11
50.3397669851
 21
-86.5805337252
  0
LWPOLYLINE
  5
584
100
AcDbEntity
  8
0
100
AcDbPolyline
 62
253
  6
CONTINUOUS
 90
3
 70
0
 10
50.7399139723
 20
-82.385662506
 10
50.6103762605
 20
-82.4774203446
 10
50.4855493748
 20
-82.5938731981
  0
LINE
  5
585
100
AcDbEntity
  8
0
100
AcDbLine
 62
7
  6
CONTINUOUS
 10
75.1532887813
 20
-66.8887108345
 11
73.6723602349
 21
-67.8007578774
  0
LINE
  5
586
100
AcDbEntity
  8
0
100
AcDbLine
 62
7
  6
CONTINUOUS
 10
45.1234457596
 20
-84.6432178814
 11
45.0877768039
 21
-84.6638126893
  0
LINE
  5
587
100
AcDbEntity
  8
0
100
AcDbLine
 62
7
  6
CONTINUOUS
 10
47.4377099906
 20
-83.857943617
 11
47.4022562483
 21
-83.8784141635
  0
LINE
  5
588
100
AcDbEntity
  8
0
100
AcDbLine
 62
7
  6
CONTINUOUS
 10
45.9213322752
 20
-85.1039018963
 11
45.8856633203
 21
-85.1244967038
  0
LINE
  5
589
100
AcDbEntity
  8
0
100
AcDbLine
 62
7
  6
CONTINUOUS
 10
47.8478679861
 20
-84.0947637032
 11
47.8124142439
 21
-84.1152342496
  0
LINE
  5
58A
100
AcDbEntity
  8
0
100
AcDbLine
 62
7
  6
CONTINUOUS
 10
46.7192358581
 20
-85.5646070843
 11
46.6835669024
 21
-85.5852018923
  0
LINE
  5
58B
100
AcDbEntity
  8
0
100
AcDbLine
 62
7
  6
CONTINUOUS
 10
47.5605653636
 20
-85.2466228807
 11
47.5249943885
 21
-85.2671611159
  0
LINE
  5
58C
100
AcDbEntity
  8
0
100
AcDbLine
 62
7
  6
CONTINUOUS
 10
48.7797060303
 20
-84.6327953112
 11
48.744252288
 21
-84.6532658576
  0
LINE
  5
58D
100
AcDbEntity
  8
0
100
AcDbLine
 62
7
  6
CONTINUOUS
 10
47.4027952279
 20
-85.9592800381
 11
47.3671262731
 21
-85.9798748457
  0
LINE
  5
58E
100
AcDbEntity
  8
0
100
AcDbLine
 62
7
  6
CONTINUOUS
 10
49.260813629
 20
-85.8363630955
 11
49.2252828982
 21
-85.8568780942
  0
LINE
  5
58F
100
AcDbEntity
  8
0
100
AcDbLine
 62
7
  6
CONTINUOUS
 10
48.7196359923
 20
-86.7196130509
 11
48.6839670367
 21
-86.7402078589
  0
LINE
  5
590
100
AcDbEntity
  8
0
100
AcDbLine
 62
7
  6
CONTINUOUS
 10
49.403201019
 20
-87.1142892709
 11
49.3675320641
 21
-87.1348840785
  0
LINE
  5
591
100
AcDbEntity
  8
ASSI
100
AcDbLine
 62
7
  6
CONTINUOUS
 10
50.2814648204
 20
-86.6279023509
 11
50.2459139187
 21
-86.6484289959
  0
LINE
  5
592
100
AcDbEntity
  8
0
100
AcDbLine
 62
7
  6
CONTINUOUS
 10
50.6341714406
 20
-87.8250312128
 11
50.5985024864
 21
-87.8456260199
  0
LINE
  5
593
100
AcDbEntity
  8
0
100
AcDbLine
 62
7
  6
CONTINUOUS
 10
49.7602226587
 20
-86.1247156102
 11
49.7242719607
 21
-86.1449880437
  0
LINE
  5
594
100
AcDbEntity
  8
0
100
AcDbLine
 62
7
  6
CONTINUOUS
 10
49.7407568257
 20
-85.1876939957
 11
49.704655275
 21
-85.2077905632
  0
LINE
  5
595
100
AcDbEntity
  8
0
100
AcDbLine
 62
7
  6
CONTINUOUS
 10
73.6723602349
 20
-73.516049815
 11
75.1532887813
 21
-72.888307222
  0
LWPOLYLINE
  5
596
100
AcDbEntity
  8
0
100
AcDbPolyline
 62
7
  6
CONTINUOUS
 90
3
 70
0
 10
49.9285282771
 20
-86.1453782802
 10
49.8995567053
 20
-86.157352862
 10
49.8597506309
 20
-86.1591688821
  0
LWPOLYLINE
  5
597
100
AcDbEntity
  8
0
100
AcDbPolyline
 62
7
  6
CONTINUOUS
 90
4
 70
0
 10
49.8929977994
 20
-86.1658784693
 10
49.8637421389
 20
-86.1779271269
 10
49.8238768488
 20
-86.1796551094
 10
49.7773919214
 20
-86.1686737305
  0
LINE
  5
598
100
AcDbEntity
  8
0
100
AcDbLine
 62
7
  6
CONTINUOUS
 10
50.1592214773
 20
-86.6765162203
 11
50.2454089055
 21
-86.6476609761
  0
LINE
  5
599
100
AcDbEntity
  8
RACCORDO
100
AcDbLine
 62
253
  6
CONTINUOUS
 10
-59.3011799026
 20
87.5502732168
 11
-59.2781236613
 21
87.5558842685
  0
LWPOLYLINE
  5
59A
100
AcDbEntity
  8
0
100
AcDbPolyline
 62
253
  6
CONTINUOUS
 90
5
 70
0
 10
-73.5183839363
 20
101.2782877254
 10
-73.7719510747
 20
101.2774804091
 10
-74.010407038
 20
101.2292125193
 10
-74.2264501838
 20
101.1342582989
 10
-74.2627120031
 20
101.1121209109
  0
LINE
  5
59B
100
AcDbEntity
  8
0
100
AcDbLine
 62
253
  6
CONTINUOUS
 10
68.8719594256
 20
-103.7155482907
 11
68.742880906
 21
-103.8159037102
  0
LWPOLYLINE
  5
59C
100
AcDbEntity
  8
0
100
AcDbPolyline
 62
253
  6
CONTINUOUS
 90
8
 70
0
 10
69.6661384933
 20
-104.1480120757
 10
69.7315219384
 20
-104.1135484363
 10
69.9047613658
 20
-103.9816592458
 10
70.0487539983
 20
-103.8068607308
 10
70.1614824958
 20
-103.5942383543
 10
70.2414511584
 20
-103.3488345664
 10
70.2871988672
 20
-103.0749030513
 10
70.2972830203
 20
-102.7768332716
  0
LINE
  5
59D
100
AcDbEntity
  8
0
100
AcDbLine
 62
253
  6
CONTINUOUS
 10
69.6578771504
 20
-104.1518784553
 11
69.6661384933
 21
-104.1480120757
  0
LINE
  5
59E
100
AcDbEntity
  8
0
100
AcDbLine
 62
253
  6
CONTINUOUS
 10
70.2971425147
 20
-102.7769196671
 11
75.1532887813
 21
-100.5345686922
  0
LINE
  5
59F
100
AcDbEntity
  8
0
100
AcDbLine
 62
7
  6
CONTINUOUS
 10
69.6578771504
 20
-104.1518784553
 11
74.4629866393
 21
-101.9332117315
  0
LWPOLYLINE
  5
5A0
100
AcDbEntity
  8
0
100
AcDbPolyline
 62
253
  6
CONTINUOUS
 90
6
 70
0
 10
68.742880906
 20
-103.8159037102
 10
68.5935739013
 20
-103.8753199451
 10
68.4243362934
 20
-103.9030371344
 10
68.2514987704
 20
-103.9019651287
 10
68.0800020988
 20
-103.8730000084
 10
67.9029406027
 20
-103.8155614889
  0
LWPOLYLINE
  5
5A1
100
AcDbEntity
  8
0
100
AcDbPolyline
 62
253
  6
CONTINUOUS
 90
6
 70
0
 10
-74.224678304
 20
100.240015934
 10
-74.0397649705
 20
100.2767840909
 10
-73.8544021844
 20
100.282944015
 10
-73.6763269273
 20
100.2577772876
 10
-73.5005427113
 20
100.1996012826
 10
-73.3283284192
 20
100.1067713734
  0
ELLIPSE
  5
5A2
100
AcDbEntity
  8
0
100
AcDbEllipse
 62
7
  6
CONTINUOUS
 10
79.1684329647
 20
-58.3394684041
 30
0.0
 11
34.4034672171
 21
37.8475060645
 31
0.0
 40
0.3767675316
 41
2.5124830887
 42
2.5524854967
  0
ELLIPSE
  5
5A3
100
AcDbEntity
  8
0
100
AcDbEllipse
 62
7
  6
CONTINUOUS
 10
76.1571974855
 20
-56.600818778
 30
0.0
 11
7.2377674229
 21
51.483945896
 31
0.0
 40
0.7095721619
 41
2.1515411774
 42
2.2096942882
  0
ELLIPSE
  5
5A4
100
AcDbEntity
  8
0
100
AcDbEllipse
 62
7
  6
CONTINUOUS
 10
81.9676199697
 20
-59.9556838987
 30
0.0
 11
33.5713001075
 21
38.3416924229
 31
0.0
 40
0.3986954156
 41
2.509532018
 42
2.5473622339
  0
ELLIPSE
  5
5A5
100
AcDbEntity
  8
0
100
AcDbEllipse
 62
7
  6
CONTINUOUS
 10
79.2783046457
 20
-58.4029069357
 30
0.0
 11
9.7508962765
 21
50.6334558725
 31
0.0
 40
0.7026126147
 41
2.2118163266
 42
2.2502025684
  0
ELLIPSE
  5
5A6
100
AcDbEntity
  8
0
100
AcDbEllipse
 62
7
  6
CONTINUOUS
 10
81.9156326132
 20
-59.9256670506
 30
0.0
 11
7.2378260408
 21
51.483927051
 31
0.0
 40
0.709572028
 41
2.1696173038
 42
2.1871672081
  0
ELLIPSE
  5
5A7
100
AcDbEntity
  8
0
100
AcDbEllipse
 62
7
  6
CONTINUOUS
 10
81.915686963
 20
-59.9256984315
 30
0.0
 11
7.23858149
 21
51.4836841785
 31
0.0
 40
0.7095703025
 41
-4.0849437831
 42
-4.0734782659
  0
ELLIPSE
  5
5A8
100
AcDbEntity
  8
0
100
AcDbEllipse
 62
7
  6
CONTINUOUS
 10
83.6100144285
 20
-60.9039818752
 30
0.0
 11
34.4034992598
 21
37.847487114
 31
0.0
 40
0.3767666782
 41
2.5124830438
 42
2.5706361537
  0
ELLIPSE
  5
5A9
100
AcDbEntity
  8
0
100
AcDbEllipse
 62
7
  6
CONTINUOUS
 10
82.853193196
 20
-60.4670027807
 30
0.0
 11
-8.0749207149
 21
55.1758227681
 31
0.0
 40
0.7089099449
 41
1.9555460954
 42
1.9780738138
  0
ELLIPSE
  5
5AA
100
AcDbEntity
  8
RACCORDO
100
AcDbEllipse
 62
7
  6
CONTINUOUS
 10
47.0834420397
 20
-17.3626460561
 30
0.0
 11
0.1077208956
 21
0.1674997862
 31
0.0
 40
0.6067084637
 41
0.8145158917
 42
1.5999140551
  0
ELLIPSE
  5
5AB
100
AcDbEntity
  8
RACCORDO
100
AcDbEllipse
 62
7
  6
CONTINUOUS
 10
47.0834420397
 20
-75.3320357084
 30
0.0
 11
0.1077208956
 21
0.1674997862
 31
0.0
 40
0.6067084637
 41
0.8145158917
 42
1.5999140551
  0
ELLIPSE
  5
5AC
100
AcDbEntity
  8
RACCORDO
100
AcDbEllipse
 62
7
  6
CONTINUOUS
 10
35.4977343594
 20
-68.321246603
 30
0.0
 11
0.0572407096
 21
0.2418565759
 31
0.0
 40
0.5009985936
 41
-2.6479073085
 42
-1.7466911639
  0
ELLIPSE
  5
5AD
100
AcDbEntity
  8
RACCORDO
100
AcDbEllipse
 62
7
  6
CONTINUOUS
 10
35.3759361708
 20
-68.3915577585
 30
0.0
 11
0.2426255169
 21
-0.0650185666
 31
0.0
 40
0.5176669722
 41
0.4759404935
 42
1.0931607981
  0
ELLIPSE
  5
5AE
100
AcDbEntity
  8
RACCORDO
100
AcDbEllipse
 62
7
  6
CONTINUOUS
 10
31.4979748596
 20
-66.1524714997
 30
0.0
 11
0.2426255169
 21
-0.0650185666
 31
0.0
 40
0.5176669722
 41
1.0931607981
 42
1.7103811028
  0
ELLIPSE
  5
5AF
100
AcDbEntity
  8
RACCORDO
100
AcDbEllipse
 62
7
  6
CONTINUOUS
 10
19.5878317828
 20
-59.1350682531
 30
0.0
 11
0.0572407096
 21
0.2418565759
 31
0.0
 40
0.5009985936
 41
-2.6479073085
 42
-1.7466911639
  0
ELLIPSE
  5
5B0
100
AcDbEntity
  8
RACCORDO
100
AcDbEllipse
 62
7
  6
CONTINUOUS
 10
19.4660335941
 20
-59.2053794087
 30
0.0
 11
0.2426255169
 21
-0.0650185666
 31
0.0
 40
0.5176669722
 41
0.4759404935
 42
1.0931607981
  0
ELLIPSE
  5
5B1
100
AcDbEntity
  8
RACCORDO
100
AcDbEllipse
 62
7
  6
CONTINUOUS
 10
15.5880722829
 20
-56.9662931499
 30
0.0
 11
0.2426255169
 21
-0.0650185666
 31
0.0
 40
0.5176669722
 41
1.0931607981
 42
1.7103811028
  0
ELLIPSE
  5
5B2
100
AcDbEntity
  8
RACCORDO
100
AcDbEllipse
 62
7
  6
CONTINUOUS
 10
3.6779292061
 20
-49.9488899033
 30
0.0
 11
0.0572407096
 21
0.2418565759
 31
0.0
 40
0.5009985936
 41
-2.6479073085
 42
-1.7466911639
  0
ELLIPSE
  5
5B3
100
AcDbEntity
  8
RACCORDO
100
AcDbEllipse
 62
7
  6
CONTINUOUS
 10
3.5561310174
 20
-50.0192010588
 30
0.0
 11
0.2426255169
 21
-0.0650185666
 31
0.0
 40
0.5176669722
 41
0.4759404935
 42
1.0931607981
  0
ELLIPSE
  5
5B4
100
AcDbEntity
  8
RACCORDO
100
AcDbEllipse
 62
7
  6
CONTINUOUS
 10
-0.3218302938
 20
-47.7801148
 30
0.0
 11
0.2426255169
 21
-0.0650185666
 31
0.0
 40
0.5176669722
 41
1.0931607981
 42
1.7103811028
  0
ELLIPSE
  5
5B5
100
AcDbEntity
  8
RACCORDO
100
AcDbEllipse
 62
7
  6
CONTINUOUS
 10
-12.2319733706
 20
-40.7627115534
 30
0.0
 11
0.0572407096
 21
0.2418565759
 31
0.0
 40
0.5009985936
 41
-2.6479073085
 42
-1.7466911639
  0
ELLIPSE
  5
5B6
100
AcDbEntity
  8
RACCORDO
100
AcDbEllipse
 62
7
  6
CONTINUOUS
 10
-12.3537715593
 20
-40.8330227089
 30
0.0
 11
0.2426255169
 21
-0.0650185666
 31
0.0
 40
0.5176669722
 41
0.4759404935
 42
1.0931607981
  0
ELLIPSE
  5
5B7
100
AcDbEntity
  8
RACCORDO
100
AcDbEllipse
 62
7
  6
CONTINUOUS
 10
-16.2317328705
 20
-38.5939364501
 30
0.0
 11
0.2426255169
 21
-0.0650185666
 31
0.0
 40
0.5176669722
 41
1.0931607981
 42
1.7103811028
  0
ELLIPSE
  5
5B8
100
AcDbEntity
  8
RACCORDO
100
AcDbEllipse
 62
7
  6
CONTINUOUS
 10
-28.1418759473
 20
-31.5765332035
 30
0.0
 11
0.0572407096
 21
0.2418565759
 31
0.0
 40
0.5009985936
 41
-2.6479073085
 42
-1.7466911639
  0
ELLIPSE
  5
5B9
100
AcDbEntity
  8
RACCORDO
100
AcDbEllipse
 62
7
  6
CONTINUOUS
 10
-28.263674136
 20
-31.646844359
 30
0.0
 11
0.2426255169
 21
-0.0650185666
 31
0.0
 40
0.5176669722
 41
0.4759404935
 42
1.0931607981
  0
ELLIPSE
  5
5BA
100
AcDbEntity
  8
RACCORDO
100
AcDbEllipse
 62
7
  6
CONTINUOUS
 10
-32.1416354472
 20
-29.4077581002
 30
0.0
 11
0.2426255169
 21
-0.0650185666
 31
0.0
 40
0.5176669722
 41
1.0931607981
 42
1.7103811028
  0
ELLIPSE
  5
5BB
100
AcDbEntity
  8
RACCORDO
100
AcDbEllipse
 62
7
  6
CONTINUOUS
 10
-48.3759734205
 20
-20.2149656092
 30
0.0
 11
0.1077208956
 21
0.1674997862
 31
0.0
 40
0.6067084637
 41
0.8145158917
 42
1.5999140551
  0
ELLIPSE
  5
5BC
100
AcDbEntity
  8
RACCORDO
100
AcDbEllipse
 62
7
  6
CONTINUOUS
 10
-48.3759734205
 20
37.7544240431
 30
0.0
 11
0.1077208956
 21
0.1674997862
 31
0.0
 40
0.6067084637
 41
0.8145158917
 42
1.5999140551
  0
ELLIPSE
  5
5BD
100
AcDbEntity
  8
0
100
AcDbEllipse
 62
7
  6
CONTINUOUS
 10
76.5673414835
 20
-56.8376307822
 30
0.0
 11
7.2305949799
 21
51.4325980791
 31
0.0
 40
0.7095720608
 41
2.1516163671
 42
2.1916590651
  0
ELLIPSE
  5
5BE
100
AcDbEntity
  8
0
100
AcDbEllipse
 62
7
  6
CONTINUOUS
 10
79.5785946266
 20
-58.5762906071
 30
0.0
 11
34.3693385331
 21
37.8096659779
 31
0.0
 40
0.3767628842
 41
2.5125580866
 42
2.5707697425
  0
ELLIPSE
  5
5BF
100
AcDbEntity
  8
0
100
AcDbEllipse
 62
7
  6
CONTINUOUS
 10
82.3777473087
 20
-60.1924862841
 30
0.0
 11
33.5377432167
 21
38.3035125442
 31
0.0
 40
0.3986975955
 41
2.5293927517
 42
2.5678176478
  0
ELLIPSE
  5
5C0
100
AcDbEntity
  8
0
100
AcDbEllipse
 62
7
  6
CONTINUOUS
 10
79.6884329317
 20
-58.6397098679
 30
0.0
 11
9.7408451892
 21
50.5830871963
 31
0.0
 40
0.7026136933
 41
2.1921187529
 42
2.2299870627
  0
ELLIPSE
  5
5C1
100
AcDbEntity
  8
0
100
AcDbEllipse
 62
7
  6
CONTINUOUS
 10
84.0201033906
 20
-61.1407621022
 30
0.0
 11
34.3688608553
 21
37.8099484825
 31
0.0
 40
0.3767756187
 41
2.5306500223
 42
2.5482176245
  0
ELLIPSE
  5
5C2
100
AcDbEntity
  8
0
100
AcDbEllipse
 62
7
  6
CONTINUOUS
 10
82.3257652834
 20
-60.1624725142
 30
0.0
 11
7.2303702395
 21
51.4326703304
 31
0.0
 40
0.7095725746
 41
2.1516126193
 42
2.2098244154
  0
ELLIPSE
  5
5C3
100
AcDbEntity
  8
0
100
AcDbEllipse
 62
7
  6
CONTINUOUS
 10
84.0201771255
 20
-61.1408046759
 30
0.0
 11
34.3693377279
 21
37.8096664541
 31
0.0
 40
0.3767629057
 41
2.5592924316
 42
2.570769579
  0
ELLIPSE
  5
5C4
100
AcDbEntity
  8
0
100
AcDbEllipse
 62
7
  6
CONTINUOUS
 10
83.3151657769
 20
-60.7337399591
 30
0.0
 11
-8.0666525071
 21
55.1207681313
 31
0.0
 40
0.7089103936
 41
1.9542586629
 42
1.9782098547
  0
ELLIPSE
  5
5C5
100
AcDbEntity
  8
0
100
AcDbEllipse
 62
7
  6
CONTINUOUS
 10
76.5673414835
 20
-56.8376307822
 30
0.0
 11
7.2378116568
 21
51.4839316753
 31
0.0
 40
0.7095720608
 41
2.1515418868
 42
2.1915442948
  0
ELLIPSE
  5
5C6
100
AcDbEntity
  8
0
100
AcDbEllipse
 62
7
  6
CONTINUOUS
 10
79.5785946266
 20
-58.5762906071
 30
0.0
 11
34.4036417146
 21
37.8474028646
 31
0.0
 40
0.3767628842
 41
2.5124836062
 42
2.5706365761
  0
ELLIPSE
  5
5C7
100
AcDbEntity
  8
0
100
AcDbEllipse
 62
7
  6
CONTINUOUS
 10
82.3777473087
 20
-60.1924862841
 30
0.0
 11
33.5712164036
 21
38.3417423269
 31
0.0
 40
0.3986975955
 41
2.5292984007
 42
2.5676844815
  0
ELLIPSE
  5
5C8
100
AcDbEntity
  8
0
100
AcDbEllipse
 62
7
  6
CONTINUOUS
 10
79.6884329317
 20
-58.6397098679
 30
0.0
 11
9.7505672844
 21
50.6335729168
 31
0.0
 40
0.7026136933
 41
2.1920442726
 42
2.2298744885
  0
ELLIPSE
  5
5C9
100
AcDbEntity
  8
0
100
AcDbEllipse
 62
7
  6
CONTINUOUS
 10
84.0201033906
 20
-61.1407621022
 30
0.0
 11
34.40316356
 21
37.8476856512
 31
0.0
 40
0.3767756187
 41
-3.7526279327
 42
-3.7350780285
  0
ELLIPSE
  5
5CA
100
AcDbEntity
  8
0
100
AcDbEllipse
 62
7
  6
CONTINUOUS
 10
82.3257652834
 20
-60.1624725142
 30
0.0
 11
7.2375866921
 21
51.4840039987
 31
0.0
 40
0.7095725746
 41
2.1515381391
 42
2.209691249
  0
ELLIPSE
  5
5CB
100
AcDbEntity
  8
0
100
AcDbEllipse
 62
7
  6
CONTINUOUS
 10
84.0201771255
 20
-61.1408046759
 30
0.0
 11
34.4036409085
 21
37.8474033413
 31
0.0
 40
0.3767629057
 41
2.5591708956
 42
2.5706364128
  0
ELLIPSE
  5
5CC
100
AcDbEntity
  8
0
100
AcDbEllipse
 62
7
  6
CONTINUOUS
 10
83.3151657769
 20
-60.7337399591
 30
0.0
 11
-8.0747036322
 21
55.1757827983
 31
0.0
 40
0.7089103936
 41
1.9541497306
 42
1.9780766887
  0
ELLIPSE
  5
5CD
100
AcDbEntity
  8
RACCORDO
100
AcDbEllipse
 62
7
  6
CONTINUOUS
 10
-44.2342338856
 20
35.3630355438
 30
0.0
 11
0.0920429359
 21
0.1765852643
 31
0.0
 40
0.5463614449
 41
0.7618697785
 42
1.5472679419
  0
ELLIPSE
  5
5CE
100
AcDbEntity
  8
RACCORDO
100
AcDbEllipse
 62
7
  6
CONTINUOUS
 10
-44.2342338856
 20
-22.6063541085
 30
0.0
 11
0.0920429359
 21
0.1765852643
 31
0.0
 40
0.5463614449
 41
0.7618697785
 42
1.5472679419
  0
ENDSEC
  0
SECTION
  2
OBJECTS
  0
DICTIONARY
  5
C
100
AcDbDictionary
280
0
281
1
  3
ACAD_GROUP
350
D
  3
ACAD_MLINESTYLE
350
17
  3
ACAD_LAYOUT
350
1A
  3
ACAD_PLOTSETTINGS
350
19
  3
ACAD_PLOTSTYLENAME
350
E
  0
DICTIONARY
  5
D
102
{ACAD_REACTORS
330
C
102
}
100
AcDbDictionary
280
0
281
1
  0
ACDBDICTIONARYWDFLT
  5
E
102
{ACAD_REACTORS
330
C
102
}
100
AcDbDictionary
281
1
  3
Normal
350
F
100
AcDbDictionaryWithDefault
340
F
  0
DICTIONARY
  5
17
102
{ACAD_REACTORS
330
C
102
}
100
AcDbDictionary
280
0
281
1
  3
Standard
350
18
  0
DICTIONARY
  5
19
102
{ACAD_REACTORS
330
C
102
}
100
AcDbDictionary
281
1
  0
DICTIONARY
  5
1A
102
{ACAD_REACTORS
330
C
102
}
100
AcDbDictionary
281
1
  3
Model
350
5CF
  3
Layout1
350
5D0
  0
ACDBPLACEHOLDER
  5
F
102
{ACAD_REACTORS
330
E
102
}
  0
MLINESTYLE
  5
18
102
{ACAD_REACTORS
330
17
102
}
100
AcDbMlineStyle
  2
STANDARD
 70
0
  3

 62
256
 51
90.0
 52
90.0
 71
2
 49
0.5
 62
256
  6
BYLAYER
 49
-0.5
 62
256
  6
BYLAYER
  0
LAYOUT
  5
5CF
102
{ACAD_REACTORS
330
1A
102
}
100
AcDbPlotSettings
  1

  2
none_device
  4
ISO_A4_(297.00_x_210.00_MM)
  6

 40
0.0
 41
0.0
 42
0.0
 43
0.0
 44
297.0
 45
210.0
 46
0.0
 47
0.0
 48
0.0
 49
0.0
140
0.0
141
0.0
142
1.0
143
1.0
 70
1024
 72
1
 73
0
 74
0
  7

 75
0
147
1.0
148
0.0
149
0.0
100
AcDbLayout
  1
Model
 70
0
 71
0
 10
0.0
 20
0.0
 11
297.0
 21
210.0
 12
0.0
 22
0.0
 32
0.0
 14
0.0
 24
0.0
 34
0.0
 15
0.0
 25
0.0
 35
0.0
146
0.0
 13
0.0
 23
0.0
 33
0.0
 16
1.0
 26
0.0
 36
0.0
 17
0.0
 27
1.0
 37
0.0
 76
0
330
213
345
0
346
0
  0
LAYOUT
  5
5D0
102
{ACAD_REACTORS
330
1A
102
}
100
AcDbPlotSettings
  1

  2
none_device
  4
ISO_A4_(297.00_x_210.00_MM)
  6

 40
0.0
 41
0.0
 42
0.0
 43
0.0
 44
297.0
 45
210.0
 46
0.0
 47
0.0
 48
0.0
 49
0.0
140
0.0
141
0.0
142
1.0
143
1.0
 70
0
 72
1
 73
0
 74
0
  7

 75
0
147
1.0
148
0.0
149
0.0
100
AcDbLayout
  1
Layout1
 70
0
 71
1
 10
0.0
 20
0.0
 11
297.0
 21
210.0
 12
0.0
 22
0.0
 32
0.0
 14
0.0
 24
0.0
 34
0.0
 15
0.0
 25
0.0
 35
0.0
146
0.0
 13
0.0
 23
0.0
 33
0.0
 16
1.0
 26
0.0
 36
0.0
 17
0.0
 27
1.0
 37
0.0
 76
0
330
214
345
0
346
0
  0
ENDSEC
  0
EOF
