  0
SECTION
  2
HEADER
  9
$ACADVER
  1
AC1021
  9
$DWGCODEPAGE
  3
ANSI_1252
  9
$EXTMAX
 10
297.0
 20
210.0
 30
0.0
  9
$EXTMIN
 10
0.0
 20
0.0
 30
0.0
  9
$LIMMIN
 10
0.0
 20
0.0
  9
$LIMMAX
 10
297.0
 20
210.0
  9
$VIEWCTR
 10
148.5
 20
105.0
  9
$VIEWSIZE
 40
210.0
  9
$CLAYER
  8
0
  9
$LTSCALE
 40
16.335
  9
$CELTYPE
  6
BYLAYER
  9
$DIMSCALE
 40
1.0
  9
$DIMASZ
 40
3.0
  9
$DIMEXO
 40
0.5
  9
$DIMDLI
 40
11.286
  9
$DIMEXE
 40
1.5
  9
$DIMCEN
 40
2.673
  9
$DIMLFAC
 40
1.0
  9
$DIMBLK
  1
_FILLED
  9
$DIMALT
 70
0
  9
$DIMALTF
 40
25.4
  9
$DIMTXT
 40
3.0
  9
$DIMTOL
 70
1
  9
$DIMLIM
 70
0
  9
$DIMTFAC
 40
1.0
  9
$DIMTP
 40
0.01
  9
$DIMTM
 40
0.01
  9
$DIMGAP
 40
0.625
  9
$DIMDSEP
 70
44
  9
$AUNITS
 70
0
  9
$PDMODE
 70
3
  9
$PDSIZE
 40
3.0
  9
$HANDSEED
  5
28B
  9
$TILEMODE
 70
1
  9
$MEASUREMENT
 70
1
  9
$INSUNITS
 70
4
  0
ENDSEC
  0
SECTION
  2
CLASSES
  0
CLASS
  1
ACDBDICTIONARYWDFLT
  2
AcDbDictionaryWithDefault
  3
AutoCAD 2000
 90
0
 91
1
280
0
281
0
  0
CLASS
  1
ACDBPLACEHOLDER
  2
AcDbPlaceHolder
  3
AutoCAD 2000
 90
0
 91
1
280
0
281
0
  0
CLASS
  1
LAYOUT
  2
AcDbLayout
  3
AutoCAD 2000
 90
0
 91
0
280
0
281
0
  0
ENDSEC
  0
SECTION
  2
TABLES
  0
TABLE
  2
VPORT
  5
8
100
AcDbSymbolTable
 70
2
  0
VPORT
  5
1F4
100
AcDbSymbolTableRecord
100
AcDbViewportTableRecord
  2
*ACTIVE
 70
0
 10
0.0
 20
0.0
 11
1.0
 21
1.0
 12
148.5
 22
105.0
 13
0.0
 23
0.0
 14
1.0
 24
1.0
 15
0.0
 25
0.0
 16
0.0
 26
0.0
 36
1.0
 17
0.0
 27
0.0
 37
0.0
 40
210.0
 41
1.4142857143
 42
50.0
 43
0.0
 44
0.0
 50
0.0
 51
0.0
 71
0
 72
100
 73
1
 74
1
 75
0
 76
0
 77
0
 78
0
  0
ENDTAB
  0
TABLE
  2
LTYPE
  5
5
100
AcDbSymbolTable
 70
6
  0
LTYPE
  5
14
100
AcDbSymbolTableRecord
100
AcDbLinetypeTableRecord
  2
BYBLOCK
 70
0
  3

 72
65
 73
0
 40
0.0
  0
LTYPE
  5
15
100
AcDbSymbolTableRecord
100
AcDbLinetypeTableRecord
  2
BYLAYER
 70
0
  3

 72
65
 73
0
 40
0.0
  0
LTYPE
  5
16
100
AcDbSymbolTableRecord
100
AcDbLinetypeTableRecord
  2
CONTINUOUS
 70
64
  3
Solid line
 72
65
 73
0
 40
0.0
  0
LTYPE
  5
1F5
100
AcDbSymbolTableRecord
100
AcDbLinetypeTableRecord
  2
CENTER
 70
64
  3
____ _ ____ _ ____ _ ____ _ ____ _ ____ _ ____
 72
65
 73
4
 40
0.6
 49
0.375
 74
0
 49
-0.075
 74
0
 49
0.075
 74
0
 49
-0.075
 74
0
  0
LTYPE
  5
1F6
100
AcDbSymbolTableRecord
100
AcDbLinetypeTableRecord
  2
HIDDEN
 70
64
  3
- - - - - - - - - - - - - - - - - - - -
 72
65
 73
2
 40
0.2
 49
0.1
 74
0
 49
-0.1
 74
0
  0
LTYPE
  5
1F7
100
AcDbSymbolTableRecord
100
AcDbLinetypeTableRecord
  2
PHANTOM
 70
64
  3
_____ _ _ _____ _ _ _____ _ _ _____
 72
65
 73
6
 40
0.8
 49
0.45
 74
0
 49
-0.05
 74
0
 49
0.1
 74
0
 49
-0.05
 74
0
 49
0.1
 74
0
 49
-0.05
 74
0
  0
LTYPE
  5
1F8
100
AcDbSymbolTableRecord
100
AcDbLinetypeTableRecord
  2
DOT
 70
64
  3
. . . . . . . . . . . . . . . . . . . .
 72
65
 73
2
 40
0.2
 49
0.1
 74
0
 49
-0.1
 74
0
  0
LTYPE
  5
1F9
100
AcDbSymbolTableRecord
100
AcDbLinetypeTableRecord
  2
DASHED
 70
64
  3
- - - - - - - - - - - - - - - - - - - -
 72
65
 73
2
 40
0.2
 49
0.1
 74
0
 49
-0.1
 74
0
  0
ENDTAB
  0
TABLE
  2
LAYER
  5
2
100
AcDbSymbolTable
 70
36
  0
LAYER
  5
10
100
AcDbSymbolTableRecord
100
AcDbLayerTableRecord
  2
0
 70
0
 62
7
  6
CONTINUOUS
370
-3
390
F
  0
LAYER
  5
1FA
100
AcDbSymbolTableRecord
100
AcDbLayerTableRecord
  2
DEFAULT_1
 70
0
 62
7
  6
CENTER
370
-3
390
F
  0
LAYER
  5
1FB
100
AcDbSymbolTableRecord
100
AcDbLayerTableRecord
  2
DEFAULT_2
 70
0
 62
7
  6
HIDDEN
370
-3
390
F
  0
LAYER
  5
1FC
100
AcDbSymbolTableRecord
100
AcDbLayerTableRecord
  2
DEFAULT_3
 70
0
 62
7
  6
PHANTOM
370
-3
390
F
  0
LAYER
  5
1FD
100
AcDbSymbolTableRecord
100
AcDbLayerTableRecord
  2
ASSI
 70
0
 62
7
  6
CONTINUOUS
370
-3
390
F
  0
LAYER
  5
1FE
100
AcDbSymbolTableRecord
100
AcDbLayerTableRecord
  2
COLORE_MATERIALE
 70
0
 62
7
  6
CONTINUOUS
370
-3
390
F
  0
LAYER
  5
1FF
100
AcDbSymbolTableRecord
100
AcDbLayerTableRecord
  2
COORDINATE
 70
0
 62
7
  6
CONTINUOUS
370
-3
390
F
  0
LAYER
  5
200
100
AcDbSymbolTableRecord
100
AcDbLayerTableRecord
  2
COORD_ORIGINE
 70
0
 62
7
  6
CONTINUOUS
370
-3
390
F
  0
LAYER
  5
201
100
AcDbSymbolTableRecord
100
AcDbLayerTableRecord
  2
COPY
 70
0
 62
7
  6
CONTINUOUS
370
-3
390
F
  0
LAYER
  5
202
100
AcDbSymbolTableRecord
100
AcDbLayerTableRecord
  2
COSMETICI
 70
0
 62
7
  6
CONTINUOUS
370
-3
390
F
  0
LAYER
  5
203
100
AcDbSymbolTableRecord
100
AcDbLayerTableRecord
  2
CURVE
 70
0
 62
7
  6
CONTINUOUS
370
-3
390
F
  0
LAYER
  5
204
100
AcDbSymbolTableRecord
100
AcDbLayerTableRecord
  2
DRAFT
 70
0
 62
7
  6
CONTINUOUS
370
-3
390
F
  0
LAYER
  5
205
100
AcDbSymbolTableRecord
100
AcDbLayerTableRecord
  2
IGS
 70
0
 62
7
  6
CONTINUOUS
370
-3
390
F
  0
LAYER
  5
206
100
AcDbSymbolTableRecord
100
AcDbLayerTableRecord
  2
NOTE
 70
0
 62
7
  6
CONTINUOUS
370
-3
390
F
  0
LAYER
  5
207
100
AcDbSymbolTableRecord
100
AcDbLayerTableRecord
  2
PIANI
 70
0
 62
7
  6
CONTINUOUS
370
-3
390
F
  0
LAYER
  5
208
100
AcDbSymbolTableRecord
100
AcDbLayerTableRecord
  2
PIANI_ORIGINE
 70
0
 62
7
  6
CONTINUOUS
370
-3
390
F
  0
LAYER
  5
209
100
AcDbSymbolTableRecord
100
AcDbLayerTableRecord
  2
PIANI_RIFERIMENTO
 70
0
 62
7
  6
CONTINUOUS
370
-3
390
F
  0
LAYER
  5
20A
100
AcDbSymbolTableRecord
100
AcDbLayerTableRecord
  2
PUNTI
 70
0
 62
7
  6
CONTINUOUS
370
-3
390
F
  0
LAYER
  5
20B
100
AcDbSymbolTableRecord
100
AcDbLayerTableRecord
  2
RACCORDO
 70
0
 62
7
  6
CONTINUOUS
370
-3
390
F
  0
LAYER
  5
20C
100
AcDbSymbolTableRecord
100
AcDbLayerTableRecord
  2
SIMBOLI
 70
0
 62
7
  6
CONTINUOUS
370
-3
390
F
  0
LAYER
  5
20D
100
AcDbSymbolTableRecord
100
AcDbLayerTableRecord
  2
SMUSSO
 70
0
 62
7
  6
CONTINUOUS
370
-3
390
F
  0
LAYER
  5
20E
100
AcDbSymbolTableRecord
100
AcDbLayerTableRecord
  2
SNAPLINE
 70
0
 62
7
  6
CONTINUOUS
370
-3
390
F
  0
LAYER
  5
20F
100
AcDbSymbolTableRecord
100
AcDbLayerTableRecord
  2
SOLIDO
 70
0
 62
7
  6
CONTINUOUS
370
-3
390
F
  0
LAYER
  5
210
100
AcDbSymbolTableRecord
100
AcDbLayerTableRecord
  2
SUPERFICI
 70
0
 62
7
  6
CONTINUOUS
370
-3
390
F
  0
LAYER
  5
211
100
AcDbSymbolTableRecord
100
AcDbLayerTableRecord
  2
TRASH
 70
0
 62
7
  6
CONTINUOUS
370
-3
390
F
  0
ENDTAB
  0
TABLE
  2
STYLE
  5
3
100
AcDbSymbolTable
 70
1
  0
STYLE
  5
11
100
AcDbSymbolTableRecord
100
AcDbTextStyleTableRecord
  2
STANDARD
 70
0
 40
0.0
 41
0.8
 50
0.0
 71
0
 42
0.2
  3
txt
  4

  0
STYLE
  5
212
100
AcDbSymbolTableRecord
100
AcDbTextStyleTableRecord
  2
TEXTSTYLE_1
 70
0
 40
0.0
 41
0.8
 50
0.0
 71
0
 42
0.2
  3
gdt
  4

  0
ENDTAB
  0
TABLE
  2
VIEW
  5
6
100
AcDbSymbolTable
 70
0
  0
ENDTAB
  0
TABLE
  2
UCS
  5
7
100
AcDbSymbolTable
 70
0
  0
ENDTAB
  0
TABLE
  2
APPID
  5
9
100
AcDbSymbolTable
 70
1
  0
APPID
  5
213
100
AcDbSymbolTableRecord
100
AcDbRegAppTableRecord
  2
ACAD
 70
0
  0
ENDTAB
  0
TABLE
  2
BLOCK_RECORD
  5
1
100
AcDbSymbolTable
 70
0
  0
BLOCK_RECORD
  5
214
100
AcDbSymbolTableRecord
100
AcDbBlockTableRecord
  2
*Model_Space
  0
BLOCK_RECORD
  5
215
100
AcDbSymbolTableRecord
100
AcDbBlockTableRecord
  2
*Paper_Space
  0
ENDTAB
  0
TABLE
  2
DIMSTYLE
  5
A
100
AcDbSymbolTable
 70
1
100
AcDbDimStyleTable
 71
0
  0
DIMSTYLE
105
216
100
AcDbSymbolTableRecord
100
AcDbDimStyleTableRecord
  2
STANDARD
 70
0
  3

  4

 40
1.0
 41
3.0
 42
0.5
 43
0.38
 44
1.5
 45
0.0
 46
0.0
 47
0.01
 48
0.01
140
3.0
141
0.09
142
0.0
143
25.4
144
1.0
145
0.0
146
1.0
147
0.625
 71
1.0
 72
0.0
 73
0
 74
0
 75
0
 76
0
 77
1
 78
8
170
0
171
1
172
0
173
0
174
0
175
0
176
0
177
0
178
0
270
2
271
2
272
2
273
2
274
2
275
0
280
0
281
0
282
0
283
1
284
8
285
0
286
0
287
3
288
0
340
11
278
44
  0
ENDTAB
  0
ENDSEC
  0
SECTION
  2
BLOCKS
  0
BLOCK
  5
20
100
AcDbEntity
  8
0
100
AcDbBlockBegin
  2
*Model_Space
 70
0
 10
0.0
 20
0.0
 30
0.0
  3
*Model_Space
  1

  0
ENDBLK
  5
21
100
AcDbEntity
  8
0
100
AcDbBlockEnd
  0
BLOCK
  5
1C
100
AcDbEntity
  8
0
100
AcDbBlockBegin
  2
*Paper_Space
 70
0
 10
0.0
 20
0.0
 30
0.0
  3
*Paper_Space
  1

  0
ENDBLK
  5
1D
100
AcDbEntity
  8
0
100
AcDbBlockEnd
  0
ENDSEC
  0
SECTION
  2
ENTITIES
  0
LWPOLYLINE
  5
217
100
AcDbEntity
  8
RACCORDO
100
AcDbPolyline
 62
7
  6
CONTINUOUS
 90
61
 70
0
 10
-10.2783856431
 20
20.7062135127
 10
-10.300238926
 20
20.6915287201
 10
-10.3251979268
 20
20.6740830257
 10
-10.3498803111
 20
20.6561119749
 10
-10.3742844876
 20
20.6376274336
 10
-10.3984080533
 20
20.6186416951
 10
-10.4222454439
 20
20.599169039
 10
-10.4457945291
 20
20.5792209612
 10
-10.4690528581
 20
20.5588086943
 10
-10.4920127155
 20
20.5379477635
 10
-10.5146714711
 20
20.5166493947
 10
-10.5370264143
 20
20.4949242428
 10
-10.5590687425
 20
20.4727889101
 10
-10.5807952588
 20
20.450254594
 10
-10.6022030194
 20
20.4273316375
 10
-10.623282876
 20
20.4040373077
 10
-10.6440314842
 20
20.3803824756
 10
-10.664445538
 20
20.3563776526
 10
-10.6845154152
 20
20.3320410556
 10
-10.7042361271
 20
20.3073853597
 10
-10.7236058271
 20
20.2824193695
 10
-10.7426189818
 20
20.2571562978
 10
-10.7612697542
 20
20.2316096775
 10
-10.7795567866
 20
20.2057871017
 10
-10.7974802823
 20
20.17969293
 10
-10.8150359412
 20
20.1533375612
 10
-10.8322198483
 20
20.1267307388
 10
-10.8490317781
 20
20.0998756481
 10
-10.8654671557
 20
20.0727820805
 10
-10.8815213178
 20
20.0454595704
 10
-10.8971932816
 20
20.0179108072
 10
-10.9124780074
 20
19.9901451732
 10
-10.927370204
 20
19.9621719141
 10
-10.9418681463
 20
19.9339933199
 10
-10.9559662259
 20
19.9056183937
 10
-10.9696585563
 20
19.8770561882
 10
-10.9829426006
 20
19.8483086223
 10
-10.9958121797
 20
19.8193841797
 10
-11.0082607512
 20
19.7902919834
 10
-11.0202845798
 20
19.761034178
 10
-11.0318779379
 20
19.7316160517
 10
-11.0430324723
 20
19.7020495656
 10
-11.0537400401
 20
19.6723460183
 10
-11.0639941375
 20
19.6425117002
 10
-11.0737866772
 20
19.612557445
 10
-11.0831074218
 20
19.5825004258
 10
-11.0919491782
 20
19.5523489931
 10
-11.1003044942
 20
19.5221117142
 10
-11.1081636267
 20
19.4918048753
 10
-11.1155193242
 20
19.4614364361
 10
-11.1223637568
 20
19.4310150099
 10
-11.128687506
 20
19.4005562534
 10
-11.1344829248
 20
19.3700680765
 10
-11.1397418265
 20
19.3395586458
 10
-11.1444550857
 20
19.3090421796
 10
-11.1486144081
 20
19.2785266843
 10
-11.1522110846
 20
19.2480200649
 10
-11.1552358885
 20
19.2175340788
 10
-11.1576795797
 20
19.1870770559
 10
-11.1595328122
 20
19.1566566985
 10
-11.1606414428
 20
19.1306899443
  0
LINE
  5
218
100
AcDbEntity
  8
RACCORDO
100
AcDbLine
 62
7
  6
CONTINUOUS
 10
-10.2783869559
 20
20.7062126532
 11
-6.000179851
 21
23.5276500038
  0
LINE
  5
219
100
AcDbEntity
  8
RACCORDO
100
AcDbLine
 62
253
  6
CONTINUOUS
 10
-10.0440184736
 20
20.6709107067
 11
-5.7420657846
 21
23.5081263002
  0
LWPOLYLINE
  5
21A
100
AcDbEntity
  8
RACCORDO
100
AcDbPolyline
 62
253
  6
CONTINUOUS
 90
29
 70
0
 10
-10.2773035623
 20
20.7069206576
 10
-10.270400953
 20
20.7111387713
 10
-10.2632724551
 20
20.7149999684
 10
-10.255924093
 20
20.7185009856
 10
-10.2483620771
 20
20.7216388642
 10
-10.240592798
 20
20.7244109523
 10
-10.2326228217
 20
20.7268149071
 10
-10.2244588837
 20
20.7288486971
 10
-10.2161078836
 20
20.7305106034
 10
-10.2075768789
 20
20.7317992216
 10
-10.1988730793
 20
20.7327134626
 10
-10.1900038405
 20
20.7332525538
 10
-10.180976658
 20
20.7334160395
 10
-10.1717991609
 20
20.7332037817
 10
-10.1624791052
 20
20.7326159597
 10
-10.1530243675
 20
20.7316530702
 10
-10.1434429381
 20
20.7303159271
 10
-10.1337429143
 20
20.7286056604
 10
-10.123932494
 20
20.7265237154
 10
-10.114019968
 20
20.7240718517
 10
-10.1040137135
 20
20.7212521412
 10
-10.093922187
 20
20.7180669672
 10
-10.0837539171
 20
20.7145190212
 10
-10.073517497
 20
20.7106113019
 10
-10.0632215778
 20
20.7063471117
 10
-10.0528748606
 20
20.7017300542
 10
-10.0424860898
 20
20.6967640315
 10
-10.0320640449
 20
20.6914532405
 10
-10.0216175338
 20
20.6858021693
  0
LWPOLYLINE
  5
21B
100
AcDbEntity
  8
RACCORDO
100
AcDbPolyline
 62
7
  6
CONTINUOUS
 90
39
 70
0
 10
4.1148994092
 20
-23.7271809325
 10
4.1368679255
 20
-23.73943404
 10
4.1574125087
 20
-23.7501352233
 10
4.1782551168
 20
-23.7602765027
 10
4.1993908974
 20
-23.7698551162
 10
4.2208328031
 20
-23.7788749499
 10
4.2425686288
 20
-23.7873277388
 10
4.2645853878
 20
-23.7952056308
 10
4.2868966743
 20
-23.8025098232
 10
4.3094907684
 20
-23.8092317163
 10
4.3323547732
 20
-23.8153628328
 10
4.3555022066
 20
-23.8209013943
 10
4.3789212915
 20
-23.825838342
 10
4.402599672
 20
-23.8301649217
 10
4.4265516733
 20
-23.8338766237
 10
4.4507678626
 20
-23.8369640348
 10
4.4752341938
 20
-23.8394176014
 10
4.4999597099
 20
-23.8412297516
 10
4.5249340951
 20
-23.8423905116
 10
4.5501448508
 20
-23.8428904137
 10
4.5755994693
 20
-23.8427200378
 10
4.6012876821
 20
-23.8418690793
 10
4.6271978092
 20
-23.8403278079
 10
4.6533370289
 20
-23.8380850959
 10
4.6797055081
 20
-23.8351289582
 10
4.7062821168
 20
-23.8314498796
 10
4.7330438703
 20
-23.8270402253
 10
4.7599868369
 20
-23.821889859
 10
4.7870951054
 20
-23.815990976
 10
4.814329625
 20
-23.8093427456
 10
4.8416810461
 20
-23.8019389726
 10
4.869140551
 20
-23.7937734257
 10
4.8966717235
 20
-23.7848494536
 10
4.924265807
 20
-23.7751630781
 10
4.9519150299
 20
-23.7647099919
 10
4.9795862374
 20
-23.753496552
 10
5.0072638064
 20
-23.7415237352
 10
5.0349475024
 20
-23.7287862649
 10
5.0589605281
 20
-23.7171158982
  0
LINE
  5
21C
100
AcDbEntity
  8
RACCORDO
100
AcDbLine
 62
7
  6
CONTINUOUS
 10
4.1149230969
 20
-23.727194683
 11
-10.7080611223
 21
-15.1685893705
  0
LINE
  5
21D
100
AcDbEntity
  8
RACCORDO
100
AcDbLine
 62
253
  6
CONTINUOUS
 10
3.801585876
 20
-23.0881822853
 11
-11.0141897871
 21
-14.5337391027
  0
LWPOLYLINE
  5
21E
100
AcDbEntity
  8
RACCORDO
100
AcDbPolyline
 62
253
  6
CONTINUOUS
 90
35
 70
0
 10
-10.7200883669
 20
-15.1614131852
 10
-10.7355242639
 20
-15.151496992
 10
-10.7506076706
 20
-15.140990792
 10
-10.7653315938
 20
-15.1298994516
 10
-10.779689454
 20
-15.1182279596
 10
-10.7936746055
 20
-15.1059817044
 10
-10.8072805496
 20
-15.0931663555
 10
-10.8205011872
 20
-15.0797877161
 10
-10.8333303877
 20
-15.0658519686
 10
-10.8457622039
 20
-15.051365542
 10
-10.8577910834
 20
-15.0363349904
 10
-10.8694114588
 20
-15.0207672345
 10
-10.8806179307
 20
-15.0046694589
 10
-10.891405482
 20
-14.9880489786
 10
-10.9017691159
 20
-14.9709134484
 10
-10.9117040221
 20
-14.9532707594
 10
-10.9212057583
 20
-14.9351289342
 10
-10.9302699295
 20
-14.9164963088
 10
-10.9388923215
 20
-14.8973814668
 10
-10.9470690683
 20
-14.8777931381
 10
-10.9547963813
 20
-14.8577403431
 10
-10.9620706785
 20
-14.8372322906
 10
-10.968888716
 20
-14.8162783089
 10
-10.975247342
 20
-14.7948880139
 10
-10.9811435977
 20
-14.7730712441
 10
-10.9865748464
 20
-14.7508379581
 10
-10.9915385808
 20
-14.7281983405
 10
-10.9960324865
 20
-14.7051628102
 10
-11.0000545433
 20
-14.6817419561
 10
-11.0036028971
 20
-14.6579465267
 10
-11.0066758983
 20
-14.6337874485
 10
-11.0092721693
 20
-14.6092758373
 10
-11.0113905281
 20
-14.5844229525
 10
-11.013029985
 20
-14.5592401897
 10
-11.0141897869
 20
-14.5337391029
  0
LINE
  5
21F
100
AcDbEntity
  8
DRAFT
100
AcDbLine
 62
7
  6
CONTINUOUS
 10
-4.8049527507
 20
20.8187025274
 11
-4.4643203473
 21
21.6028196027
  0
LINE
  5
220
100
AcDbEntity
  8
RACCORDO
100
AcDbLine
 62
7
  6
CONTINUOUS
 10
-4.4643203473
 20
22.7703720986
 11
-5.181580725
 21
21.1220966576
  0
LWPOLYLINE
  5
221
100
AcDbEntity
  8
RACCORDO
100
AcDbPolyline
 62
253
  6
CONTINUOUS
 90
28
 70
0
 10
-11.160615985
 20
-14.3308569433
 10
-11.1603713495
 20
-14.3358090877
 10
-11.1596197537
 20
-14.3444271536
 10
-11.1584555354
 20
-14.3530192532
 10
-11.1568796578
 20
-14.3615782774
 10
-11.1548934248
 20
-14.3700971442
 10
-11.1524984798
 20
-14.3785688049
 10
-11.1496968045
 20
-14.38698625
 10
-11.1464907171
 20
-14.3953425146
 10
-11.1428828703
 20
-14.4036306847
 10
-11.1388762493
 20
-14.4118439025
 10
-11.1344741693
 20
-14.4199753721
 10
-11.1296802726
 20
-14.4280183655
 10
-11.1244985258
 20
-14.4359662278
 10
-11.1189332164
 20
-14.4438123826
 10
-11.1129889492
 20
-14.451550338
 10
-11.1066706426
 20
-14.4591736915
 10
-11.0999835246
 20
-14.4666761353
 10
-11.092933128
 20
-14.4740514617
 10
-11.0855252867
 20
-14.4812935683
 10
-11.07776613
 20
-14.4883964628
 10
-11.0696620778
 20
-14.4953542682
 10
-11.0612198358
 20
-14.5021612273
 10
-11.0524463892
 20
-14.5088117082
 10
-11.0433489972
 20
-14.5153002078
 10
-11.0339351872
 20
-14.5216213577
 10
-11.0242127485
 20
-14.5277699275
 10
-11.0141897255
 20
-14.5337408298
  0
LWPOLYLINE
  5
222
100
AcDbEntity
  8
RACCORDO
100
AcDbPolyline
 62
7
  6
CONTINUOUS
 90
42
 70
0
 10
-11.160615976
 20
-14.3308569429
 10
-11.1594868526
 20
-14.3560904464
 10
-11.1576173743
 20
-14.3850262708
 10
-11.1551512545
 20
-14.4136108368
 10
-11.152092634
 20
-14.4418470348
 10
-11.1484471297
 20
-14.4697239107
 10
-11.1442231982
 20
-14.4972153871
 10
-11.1394269159
 20
-14.524318736
 10
-11.134064579
 20
-14.5510299632
 10
-11.1281479034
 20
-14.577321208
 10
-11.1216846013
 20
-14.6031892226
 10
-11.1146825398
 20
-14.6286307232
 10
-11.1071571096
 20
-14.6536179176
 10
-11.0991178753
 20
-14.6781479402
 10
-11.0905747885
 20
-14.7022175404
 10
-11.0815477002
 20
-14.7257984566
 10
-11.0720520212
 20
-14.7488798399
 10
-11.0620968985
 20
-14.7714676669
 10
-11.0516952717
 20
-14.7935583244
 10
-11.0408636573
 20
-14.8151417373
 10
-11.0296116537
 20
-14.8362229345
 10
-11.0179413573
 20
-14.8568187987
 10
-11.0058651205
 20
-14.8769256022
 10
-10.9933952935
 20
-14.8965401417
 10
-10.9805323019
 20
-14.915677316
 10
-10.9672883312
 20
-14.9343326151
 10
-10.9536753048
 20
-14.9525023684
 10
-10.9396916457
 20
-14.9702000484
 10
-10.9253491338
 20
-14.9874208085
 10
-10.9106596337
 20
-15.0041602676
 10
-10.8956201971
 20
-15.0204301031
 10
-10.8802423576
 20
-15.0362248375
 10
-10.8645377594
 20
-15.0515397322
 10
-10.8485020418
 20
-15.0663850027
 10
-10.8321467964
 20
-15.0807546646
 10
-10.8154832162
 20
-15.0946436523
 10
-10.7985048777
 20
-15.1080611493
 10
-10.7812229905
 20
-15.1210010957
 10
-10.7636488449
 20
-15.1334578728
 10
-10.7457746277
 20
-15.1454387858
 10
-10.7276047258
 20
-15.1569414602
 10
-10.7080380789
 20
-15.1686026022
  0
LWPOLYLINE
  5
223
100
AcDbEntity
  8
RACCORDO
100
AcDbPolyline
 62
253
  6
CONTINUOUS
 90
28
 70
0
 10
-11.4523284284
 20
2.5132707846
 10
-11.4520346147
 20
2.5059724735
 10
-11.4512887813
 20
2.497722905
 10
-11.450130149
 20
2.4894877269
 10
-11.4485596778
 20
2.4812737834
 10
-11.4465786677
 20
2.4730878997
 10
-11.4441887563
 20
2.4649367851
 10
-11.4413919198
 20
2.456827205
 10
-11.4381904727
 20
2.4487659012
 10
-11.4345870641
 20
2.4407594949
 10
-11.4305846726
 20
2.4328146258
 10
-11.4261866118
 20
2.4249378985
 10
-11.4213965303
 20
2.4171358031
 10
-11.416218399
 20
2.409414819
 10
-11.4106564998
 20
2.4017813485
 10
-11.4047154299
 20
2.3942416635
 10
-11.3984001099
 20
2.3868020195
 10
-11.3917157621
 20
2.3794685857
 10
-11.3846678952
 20
2.3722473796
 10
-11.3772623053
 20
2.3651443551
 10
-11.3695051469
 20
2.3581654368
 10
-11.3614029173
 20
2.351316447
 10
-11.3529623785
 20
2.3446030932
 10
-11.3441904749
 20
2.3380308975
 10
-11.3350943991
 20
2.3316052329
 10
-11.3256816514
 20
2.3253313987
 10
-11.3159600427
 20
2.3192146119
 10
-11.3059376162
 20
2.3132599357
  0
LWPOLYLINE
  5
224
100
AcDbEntity
  8
RACCORDO
100
AcDbPolyline
 62
253
  6
CONTINUOUS
 90
22
 70
0
 10
-11.0141897871
 20
-14.5337391027
 10
-11.04085759
 20
-13.7672941032
 10
-11.0662483614
 20
-13.0000267298
 10
-11.0903620056
 20
-12.2319398055
 10
-11.1131984316
 20
-11.4630360945
 10
-11.1347575525
 20
-10.6933184876
 10
-11.1550392859
 20
-9.9227900033
 10
-11.1740435548
 20
-9.15145354
 10
-11.1917702894
 20
-8.3793118734
 10
-11.2082194269
 20
-7.6063678431
 10
-11.223390906
 20
-6.8326242935
 10
-11.2372846696
 20
-6.0580840716
 10
-11.2499006684
 20
-5.2827500245
 10
-11.2612388556
 20
-4.5066250051
 10
-11.2712991885
 20
-3.7297118692
 10
-11.2800816312
 20
-2.9520134735
 10
-11.2875862066
 20
-2.1735326474
 10
-11.2938128309
 20
-1.3942722871
 10
-11.2987613166
 20
-0.6142353536
 10
-11.3024315904
 20
0.1665752519
 10
-11.3048236933
 20
0.948156688
 10
-11.3059376164
 20
1.7305060793
  0
LWPOLYLINE
  5
225
100
AcDbEntity
  8
RACCORDO
100
AcDbPolyline
 62
7
  6
CONTINUOUS
 90
33
 70
0
 10
-11.4523860405
 20
2.5168533188
 10
-11.4522254385
 20
2.5068664929
 10
-11.4517052388
 20
2.4965106358
 10
-11.4508262322
 20
2.4861799899
 10
-11.449589204
 20
2.4758785531
 10
-11.4479918448
 20
2.4655954746
 10
-11.4460338881
 20
2.4553419523
 10
-11.4437158716
 20
2.4451295918
 10
-11.4410328187
 20
2.4349483665
 10
-11.4379837922
 20
2.4248092583
 10
-11.4345686559
 20
2.4147242047
 10
-11.4307800871
 20
2.4046849055
 10
-11.426616322
 20
2.3947015945
 10
-11.4220770853
 20
2.3847871112
 10
-11.4171539601
 20
2.3749372516
 10
-11.4118440122
 20
2.3651609303
 10
-11.4061475061
 20
2.3554722049
 10
-11.4000584212
 20
2.3458742349
 10
-11.3935751704
 20
2.336377904
 10
-11.3866969592
 20
2.326994221
 10
-11.3794165799
 20
2.3177257972
 10
-11.3717298924
 20
2.3085804925
 10
-11.3636376423
 20
2.2995714516
 10
-11.3551378713
 20
2.2907080048
 10
-11.3462215572
 20
2.2819929125
 10
-11.3368938649
 20
2.2734428832
 10
-11.3271747008
 20
2.2650849488
 10
-11.3170632226
 20
2.2569257322
 10
-11.3065599423
 20
2.2489729365
 10
-11.2956892159
 20
2.2412505097
 10
-11.2844602522
 20
2.233768774
 10
-11.2728669829
 20
2.2265274115
 10
-11.2645232982
 20
2.2215972632
  0
LWPOLYLINE
  5
226
100
AcDbEntity
  8
RACCORDO
100
AcDbPolyline
 62
253
  6
CONTINUOUS
 90
23
 70
0
 10
-11.3059391065
 20
2.3132607954
 10
-11.3058449725
 20
2.3072404404
 10
-11.3055551909
 20
2.3013412981
 10
-11.3050701628
 20
2.2955715351
 10
-11.3043905597
 20
2.2899391388
 10
-11.3035173223
 20
2.2844519064
 10
-11.3024516597
 20
2.2791174343
 10
-11.3011950469
 20
2.2739431072
 10
-11.2997492237
 20
2.2689360884
 10
-11.2981161915
 20
2.2641033093
 10
-11.2962982111
 20
2.2594514602
 10
-11.2942977992
 20
2.254986981
 10
-11.2921177251
 20
2.2507160521
 10
-11.2897610068
 20
2.246644586
 10
-11.2872309069
 20
2.242778219
 10
-11.2845309279
 20
2.2391223037
 10
-11.2816648075
 20
2.2356819011
 10
-11.2786365135
 20
2.232461774
 10
-11.2754502382
 20
2.2294663802
 10
-11.2721103925
 20
2.2266998663
 10
-11.2686215999
 20
2.2241660623
 10
-11.2649886902
 20
2.2218684759
 10
-11.2645233065
 20
2.2215972488
  0
LWPOLYLINE
  5
227
100
AcDbEntity
  8
RACCORDO
100
AcDbPolyline
 62
7
  6
CONTINUOUS
 90
22
 70
0
 10
-11.4523860608
 20
1.9352041479
 10
-11.4512824345
 20
1.1573154186
 10
-11.4488962941
 20
0.3752384989
 10
-11.4452306204
 20
-0.4060685926
 10
-11.4402854195
 20
-1.1866026891
 10
-11.4340607065
 20
-1.9663610178
 10
-11.4265564965
 20
-2.7453409266
 10
-11.417772809
 20
-3.5235396315
 10
-11.4077096727
 20
-4.3009542445
 10
-11.3963671163
 20
-5.0775819532
 10
-11.383745172
 20
-5.8534199352
 10
-11.3698438824
 20
-6.6284652931
 10
-11.3546632929
 20
-7.4027151028
 10
-11.3382034522
 20
-8.1761664581
 10
-11.3204644166
 20
-8.9488165549
 10
-11.301446243
 20
-9.7206626232
 10
-11.2811489924
 20
-10.4917018073
 10
-11.2595727317
 20
-11.2619313683
 10
-11.236717525
 20
-12.0313487106
 10
-11.2125834445
 20
-12.7999510619
 10
-11.187170586
 20
-13.5677352456
 10
-11.1606159995
 20
-14.3308565346
  0
LWPOLYLINE
  5
228
100
AcDbEntity
  8
RACCORDO
100
AcDbPolyline
 62
253
  6
CONTINUOUS
 90
22
 70
0
 10
-11.3059376165
 20
2.313259935
 10
-11.3048236933
 20
3.0969428716
 10
-11.3024315904
 20
3.8813858625
 10
-11.2987613166
 20
4.666586022
 10
-11.2938128309
 20
5.4525404296
 10
-11.2875862066
 20
6.2392462258
 10
-11.2800816312
 20
7.0267006127
 10
-11.2712991885
 20
7.8149007257
 10
-11.2612388556
 20
8.6038436333
 10
-11.2499006684
 20
9.3935264332
 10
-11.2372846696
 20
10.1839462206
 10
-11.223390906
 20
10.9751000881
 10
-11.2082194269
 20
11.7669851253
 10
-11.1917702894
 20
12.55959842
 10
-11.1740435548
 20
13.3529370563
 10
-11.1550392859
 20
14.1469981141
 10
-11.1347575525
 20
14.9417787377
 10
-11.1131984316
 20
15.7372759392
 10
-11.0903620056
 20
16.5334865951
 10
-11.0662483614
 20
17.3304077105
 10
-11.04085759
 20
18.12803642
 10
-11.0141897871
 20
18.9263697895
  0
LWPOLYLINE
  5
229
100
AcDbEntity
  8
RACCORDO
100
AcDbPolyline
 62
253
  6
CONTINUOUS
 90
29
 70
0
 10
-11.1606414428
 20
19.1306899443
 10
-11.160709692
 20
19.1229363669
 10
-11.1603713405
 20
19.1149762769
 10
-11.1596197446
 20
19.1070150542
 10
-11.1584555261
 20
19.099059286
 10
-11.1568796484
 20
19.0911155552
 10
-11.1548934152
 20
19.0831904346
 10
-11.1524984702
 20
19.0752904814
 10
-11.1496967948
 20
19.0674222324
 10
-11.1464907073
 20
19.0595921978
 10
-11.1428828604
 20
19.0518068563
 10
-11.1388762393
 20
19.0440726498
 10
-11.1344741592
 20
19.0363959775
 10
-11.1296802625
 20
19.0287831914
 10
-11.1244985157
 20
19.0212405904
 10
-11.1189332063
 20
19.0137744154
 10
-11.1129889391
 20
19.0063908441
 10
-11.1066706326
 20
18.9990959858
 10
-11.0999835145
 20
18.9918958763
 10
-11.092933118
 20
18.9847964731
 10
-11.0855252768
 20
18.9778036506
 10
-11.0777661201
 20
18.9709231945
 10
-11.069662068
 20
18.9641607981
 10
-11.0612198261
 20
18.9575220565
 10
-11.0524463795
 20
18.9510124629
 10
-11.0433489877
 20
18.9446374033
 10
-11.0339351778
 20
18.9384021527
 10
-11.0242127392
 20
18.9323118702
 10
-11.0141897164
 20
18.926371595
  0
LWPOLYLINE
  5
22A
100
AcDbEntity
  8
RACCORDO
100
AcDbPolyline
 62
253
  6
CONTINUOUS
 90
43
 70
0
 10
-11.3059391065
 20
1.7305069396
 10
-11.3058449725
 20
1.7366359985
 10
-11.3055551909
 20
1.7428697735
 10
-11.3050701628
 20
1.7491996351
 10
-11.3043905596
 20
1.7556168204
 10
-11.3035173221
 20
1.7621124457
 10
-11.3024516594
 20
1.7686775187
 10
-11.3011950465
 20
1.775302951
 10
-11.2997492232
 20
1.7819795705
 10
-11.2981161909
 20
1.7886981345
 10
-11.2962982103
 20
1.7954493421
 10
-11.2942977983
 20
1.8022238471
 10
-11.292117724
 20
1.8090122711
 10
-11.2897610056
 20
1.8158052167
 10
-11.2872309055
 20
1.8225932798
 10
-11.2845309263
 20
1.8293670634
 10
-11.2816648057
 20
1.8361171901
 10
-11.2786365116
 20
1.8428343153
 10
-11.2754502361
 20
1.8495091401
 10
-11.2721103903
 20
1.8561324241
 10
-11.2686215976
 20
1.8626949984
 10
-11.2649886877
 20
1.8691877779
 10
-11.2612166901
 20
1.8756017743
 10
-11.2573108264
 20
1.8819281084
 10
-11.2532765038
 20
1.8881580222
 10
-11.2491193072
 20
1.8942828912
 10
-11.2448449917
 20
1.9002942366
 10
-11.2404594745
 20
1.9061837363
 10
-11.2359688267
 20
1.9119432373
 10
-11.231379265
 20
1.9175647662
 10
-11.226697143
 20
1.9230405409
 10
-11.2219289425
 20
1.928362981
 10
-11.2170812642
 20
1.9335247182
 10
-11.2121608193
 20
1.9385186069
 10
-11.2071744193
 20
1.9433377338
 10
-11.2021289671
 20
1.9479754274
 10
-11.1970314477
 20
1.9524252675
 10
-11.1918889176
 20
1.9566810939
 10
-11.1867084961
 20
1.960737015
 10
-11.1814973547
 20
1.9645874161
 10
-11.1762627075
 20
1.9682269667
 10
-11.1710118011
 20
1.9716506283
 10
-11.1657519047
 20
1.9748536616
  0
LWPOLYLINE
  5
22B
100
AcDbEntity
  8
RACCORDO
100
AcDbPolyline
 62
7
  6
CONTINUOUS
 90
22
 70
0
 10
-11.1606413953
 20
19.1306915836
 10
-11.1872035586
 20
18.3355815131
 10
-11.2126129352
 20
17.5375011416
 10
-11.2367438071
 20
16.7401273193
 10
-11.2595960652
 20
15.9434633451
 10
-11.2811696242
 20
15.1475120861
 10
-11.3014644067
 20
14.3522762245
 10
-11.3204803326
 20
13.5577585873
 10
-11.3382173276
 20
12.7639621113
 10
-11.3546753215
 20
11.9708896443
 10
-11.369854245
 20
11.1785440656
 10
-11.3837540362
 20
10.3869283478
 10
-11.3963746364
 20
9.5960454781
 10
-11.4077159898
 20
8.8058984132
 10
-11.4177780511
 20
8.0164900217
 10
-11.4265607784
 20
7.2278231592
 10
-11.4340641297
 20
6.439900756
 10
-11.4402880726
 20
5.6527256271
 10
-11.4452325786
 20
4.8663004512
 10
-11.4488976195
 20
4.0806280271
 10
-11.4512831761
 20
3.2957115367
 10
-11.4523860616
 20
2.5168364705
  0
LWPOLYLINE
  5
22C
100
AcDbEntity
  8
RACCORDO
100
AcDbPolyline
 62
253
  6
CONTINUOUS
 90
69
 70
0
 10
-11.0141897869
 20
18.9263697893
 10
-11.013029985
 20
18.9532417686
 10
-11.0113905281
 20
18.9803623089
 10
-11.0092721693
 20
19.0077189864
 10
-11.0066758983
 20
19.035299301
 10
-11.0036028971
 20
19.06309059
 10
-11.0000545433
 20
19.0910800328
 10
-10.9960324865
 20
19.1192548162
 10
-10.9915385808
 20
19.1476020325
 10
-10.9865748464
 20
19.1761085914
 10
-10.9811435978
 20
19.2047614185
 10
-10.975247342
 20
19.2335474167
 10
-10.968888716
 20
19.2624533625
 10
-10.9620706785
 20
19.291466018
 10
-10.9547963813
 20
19.3205721104
 10
-10.9470690683
 20
19.3497582936
 10
-10.9388923215
 20
19.3790112397
 10
-10.9302699295
 20
19.4083175361
 10
-10.9212057584
 20
19.4376636664
 10
-10.9117040222
 20
19.4670361969
 10
-10.9017691159
 20
19.4964216999
 10
-10.891405482
 20
19.5258066518
 10
-10.8806179307
 20
19.5551776225
 10
-10.8694114588
 20
19.5845211714
 10
-10.8577910834
 20
19.6138237707
 10
-10.8457622039
 20
19.6430720163
 10
-10.8333303877
 20
19.6722525429
 10
-10.8205011872
 20
19.7013519205
 10
-10.8072805496
 20
19.7303568671
 10
-10.7936746055
 20
19.7592541063
 10
-10.779689454
 20
19.7880302827
 10
-10.7653315938
 20
19.8166722364
 10
-10.7506076706
 20
19.8451668907
 10
-10.7355242639
 20
19.8735011091
 10
-10.7200883669
 20
19.901661963
 10
-10.7043071383
 20
19.9296365727
 10
-10.6881876513
 20
19.9574119959
 10
-10.671737394
 20
19.9849755391
 10
-10.6549639837
 20
20.0123146243
 10
-10.6378749173
 20
20.0394166287
 10
-10.6204781161
 20
20.0662691949
 10
-10.6027816517
 20
20.0928600474
 10
-10.5847934605
 20
20.1191768604
 10
-10.5665219003
 20
20.1452076118
 10
-10.5479754317
 20
20.1709404343
 10
-10.5291623433
 20
20.1963634315
 10
-10.5100913576
 20
20.2214650157
 10
-10.4907713226
 20
20.2462337238
 10
-10.4712108942
 20
20.2706580677
 10
-10.451419152
 20
20.2947269071
 10
-10.4314052693
 20
20.3184292681
 10
-10.4111782044
 20
20.3417541583
 10
-10.3907473331
 20
20.3646909568
 10
-10.3701221383
 20
20.3872291963
 10
-10.3493118804
 20
20.4093583841
 10
-10.3283262329
 20
20.4310684231
 10
-10.3071749111
 20
20.4523494404
 10
-10.285867361
 20
20.473191569
 10
-10.2644134605
 20
20.4935853261
 10
-10.2428231673
 20
20.513521417
 10
-10.2211061485
 20
20.5329905642
 10
-10.1992724617
 20
20.5519839248
 10
-10.1773322513
 20
20.5704928375
 10
-10.1552953979
 20
20.5885086285
 10
-10.1331721347
 20
20.6060231006
 10
-10.1109727152
 20
20.6230283022
 10
-10.0887071109
 20
20.6395162796
 10
-10.0663855423
 20
20.6554794707
 10
-10.0440184736
 20
20.6709107067
  0
LINE
  5
22D
100
AcDbEntity
  8
DRAFT
100
AcDbLine
 62
7
  6
CONTINUOUS
 10
10.0241461613
 20
-9.2198052256
 11
10.8726742988
 21
-9.2240803625
  0
LWPOLYLINE
  5
22E
100
AcDbEntity
  8
RACCORDO
100
AcDbPolyline
 62
253
  6
CONTINUOUS
 90
70
 70
0
 10
4.8175319422
 20
12.1178647803
 10
4.7946018251
 20
12.1032773178
 10
4.7717081489
 20
12.0881501385
 10
4.7488612897
 20
12.0724902435
 10
4.7260714735
 20
12.0563049395
 10
4.703349159
 20
12.0396016509
 10
4.6807050329
 20
12.0223879185
 10
4.6581493488
 20
12.0046716939
 10
4.6356923398
 20
11.9864611742
 10
4.6133446012
 20
11.9677646206
 10
4.5911162834
 20
11.9485906911
 10
4.5690174382
 20
11.9289482318
 10
4.5470584303
 20
11.9088461174
 10
4.5252492217
 20
11.8882936401
 10
4.5035996861
 20
11.8673002852
 10
4.482119954
 20
11.8458755245
 10
4.4608197463
 20
11.8240292275
 10
4.4397087309
 20
11.8017714947
 10
4.4187968367
 20
11.7791124329
 10
4.3980935528
 20
11.7560625055
 10
4.3776082487
 20
11.7326323373
 10
4.3573505305
 20
11.7088325466
 10
4.3373295788
 20
11.6846741031
 10
4.3175544659
 20
11.6601681513
 10
4.2980344731
 20
11.6353258182
 10
4.2787784569
 20
11.6101585619
 10
4.2597951315
 20
11.584677975
 10
4.2410933853
 20
11.5588956076
 10
4.2226816881
 20
11.5328233218
 10
4.2045683884
 20
11.5064731447
 10
4.1867619961
 20
11.4798570713
 10
4.1692705927
 20
11.4529873712
 10
4.1521020894
 20
11.4258764078
 10
4.1352645259
 20
11.3985364903
 10
4.1187655299
 20
11.3709801909
 10
4.102612579
 20
11.343220209
 10
4.0868132572
 20
11.315269192
 10
4.0713747351
 20
11.2871400127
 10
4.0563039941
 20
11.2588456067
 10
4.04160809
 20
11.2303988353
 10
4.0272936805
 20
11.2018127683
 10
4.0133672523
 20
11.1731005727
 10
3.9998353451
 20
11.1442753492
 10
3.9867041022
 20
11.1153503671
 10
3.9739794582
 20
11.0863389156
 10
3.9616673673
 20
11.0572541927
 10
3.9497734102
 20
11.028109556
 10
3.9383029732
 20
10.9989184173
 10
3.9272614359
 20
10.969694095
 10
3.916653809
 20
10.9404500215
 10
3.9064848889
 20
10.9111996352
 10
3.8967594395
 20
10.881956274
 10
3.8874818698
 20
10.8527333573
 10
3.87865638
 20
10.8235443269
 10
3.870287115
 20
10.7944025384
 10
3.8623778783
 20
10.7653213957
 10
3.8549322371
 20
10.7363142352
 10
3.8479536705
 20
10.7073942672
 10
3.8414453453
 20
10.6785747558
 10
3.8354102053
 20
10.6498689477
 10
3.8298510778
 20
10.6212899562
 10
3.8247704849
 20
10.5928508699
 10
3.8201707263
 20
10.5645647718
 10
3.816053968
 20
10.5364446679
 10
3.8124220798
 20
10.5085034567
 10
3.8092766956
 20
10.4807539607
 10
3.8066192918
 20
10.4532089435
 10
3.8044510834
 20
10.4258810486
 10
3.802773027
 20
10.3987827952
 10
3.8015858757
 20
10.371926607
  0
LWPOLYLINE
  5
22F
100
AcDbEntity
  8
RACCORDO
100
AcDbPolyline
 62
253
  6
CONTINUOUS
 90
70
 70
0
 10
5.1833634001
 20
11.513203142
 10
5.1679780914
 20
11.5035215247
 10
5.1526308622
 20
11.4934894219
 10
5.1373217125
 20
11.4831068334
 10
5.1220435726
 20
11.4723686257
 10
5.1068035122
 20
11.4612799323
 10
5.0916227408
 20
11.4498561545
 10
5.0765014139
 20
11.4380968745
 10
5.061439376
 20
11.42600251
 10
5.0464573699
 20
11.4135897151
 10
5.0315555196
 20
11.4008580606
 10
5.0167337011
 20
11.3878079757
 10
5.0020122858
 20
11.3744574021
 10
4.9873914172
 20
11.3608059325
 10
4.9728709517
 20
11.3468539741
 10
4.9584708307
 20
11.3326206901
 10
4.9441912082
 20
11.318105682
 10
4.9300319301
 20
11.3033093483
 10
4.9160124747
 20
11.2882520472
 10
4.9021330413
 20
11.2729334263
 10
4.8883934306
 20
11.257353838
 10
4.8748125242
 20
11.2415346981
 10
4.8613905383
 20
11.2254756748
 10
4.8481272567
 20
11.2091770999
 10
4.8350409112
 20
11.1926613844
 10
4.8221317499
 20
11.1759282362
 10
4.8093995247
 20
11.1589779475
 10
4.7968617233
 20
11.1418338056
 10
4.7845186065
 20
11.1244955349
 10
4.7723699135
 20
11.1069634112
 10
4.7604323496
 20
11.0892615493
 10
4.7487062114
 20
11.0713897251
 10
4.7371912022
 20
11.0533481629
 10
4.7259031373
 20
11.0351616499
 10
4.7148423242
 20
11.0168299793
 10
4.7040084555
 20
10.998353358
 10
4.6934164237
 20
10.9797571931
 10
4.683066566
 20
10.9610413289
 10
4.6729585452
 20
10.9422059212
 10
4.6631062424
 20
10.9232768451
 10
4.6535100045
 20
10.9042539629
 10
4.6441694846
 20
10.8851374124
 10
4.6350975222
 20
10.8659534816
 10
4.6262944917
 20
10.8467020887
 10
4.6177600187
 20
10.8273833156
 10
4.6095058208
 20
10.8080236963
 10
4.6015322799
 20
10.7886231682
 10
4.593839014
 20
10.769181794
 10
4.5864365938
 20
10.7497262959
 10
4.5793254203
 20
10.7302566581
 10
4.5725050925
 20
10.7107728963
 10
4.5659849777
 20
10.6913017805
 10
4.5597654864
 20
10.6718433201
 10
4.5538462081
 20
10.6523975057
 10
4.5482352788
 20
10.6329910794
 10
4.5429331268
 20
10.6136241112
 10
4.5379393238
 20
10.5942965311
 10
4.5332607214
 20
10.575034872
 10
4.5288977498
 20
10.5558392171
 10
4.5248499788
 20
10.5367094831
 10
4.5211229692
 20
10.517671953
 10
4.5177171613
 20
10.4987267373
 10
4.5146321148
 20
10.4798737255
 10
4.5118720701
 20
10.461138869
 10
4.5094374711
 20
10.4425222119
 10
4.5073278739
 20
10.4240237102
 10
4.5055461871
 20
10.4056691823
 10
4.5040933804
 20
10.3874672344
 10
4.5029684842
 20
10.3694092604
 10
4.5021714984
 20
10.3514952602
  0
LWPOLYLINE
  5
230
100
AcDbEntity
  8
RACCORDO
100
AcDbPolyline
 62
7
  6
CONTINUOUS
 90
34
 70
0
 10
-11.2737256497
 20
2.2270637501
 10
-11.2798266163
 20
2.2232727391
 10
-11.2907676418
 20
2.216108757
 10
-11.3013413674
 20
2.2087464312
 10
-11.3115472741
 20
2.2011938528
 10
-11.3213874465
 20
2.1934575222
 10
-11.3308644395
 20
2.1855430617
 10
-11.3399789907
 20
2.1774572914
 10
-11.3487315395
 20
2.1692075326
 10
-11.3571226117
 20
2.160800851
 10
-11.3651517001
 20
2.1522453621
 10
-11.3728196818
 20
2.1435482872
 10
-11.3801277299
 20
2.1347164262
 10
-11.387075509
 20
2.1257583231
 10
-11.3936633644
 20
2.1166822785
 10
-11.3998923662
 20
2.1074959946
 10
-11.4057627288
 20
2.0982085071
 10
-11.4112746419
 20
2.0888293967
 10
-11.4164287628
 20
2.0793685619
 10
-11.4212246635
 20
2.0698389707
 10
-11.4256651387
 20
2.0602480657
 10
-11.4297549461
 20
2.0505983466
 10
-11.4334938505
 20
2.0409043907
 10
-11.4368853787
 20
2.031172553
 10
-11.4399375935
 20
2.0213929548
 10
-11.4426507827
 20
2.0115762259
 10
-11.4450261431
 20
2.001732053
 10
-11.4470693546
 20
1.9918486757
 10
-11.4487800849
 20
1.9819363283
 10
-11.4501585046
 20
1.9720048057
 10
-11.4512072951
 20
1.9620413879
 10
-11.4519258511
 20
1.9520484858
 10
-11.4523126516
 20
1.9420437756
 10
-11.4523860458
 20
1.9351935255
  0
LINE
  5
231
100
AcDbEntity
  8
RACCORDO
100
AcDbLine
 62
253
  6
CONTINUOUS
 10
9.2491362258
 20
14.8523941432
 11
4.8175319496
 21
12.117864776
  0
LINE
  5
232
100
AcDbEntity
  8
RACCORDO
100
AcDbLine
 62
253
  6
CONTINUOUS
 10
9.6024204918
 20
14.2399902464
 11
5.1833634001
 21
11.513203142
  0
LWPOLYLINE
  5
233
100
AcDbEntity
  8
RACCORDO
100
AcDbPolyline
 62
253
  6
CONTINUOUS
 90
55
 70
0
 10
4.5021714984
 20
10.3514952602
 10
4.4916917027
 20
10.3462992677
 10
4.4809331914
 20
10.3412794036
 10
4.4699048663
 20
10.3364398215
 10
4.4586158525
 20
10.3317845258
 10
4.4470754906
 20
10.3273173683
 10
4.4352933295
 20
10.3230420452
 10
4.423279118
 20
10.318962094
 10
4.4110427967
 20
10.3150808905
 10
4.3985944902
 20
10.3114016462
 10
4.3859444986
 20
10.3079274053
 10
4.3731032886
 20
10.3046610425
 10
4.3600814854
 20
10.3016052603
 10
4.3468898634
 20
10.2987625873
 10
4.3335393376
 20
10.2961353754
 10
4.3200409545
 20
10.2937257986
 10
4.3064058829
 20
10.2915358505
 10
4.2926454047
 20
10.2895673431
 10
4.2787709056
 20
10.2878219053
 10
4.2647938657
 20
10.2863009812
 10
4.2507258497
 20
10.2850058292
 10
4.2365784979
 20
10.2839375211
 10
4.222363516
 20
10.2830969407
 10
4.2080926658
 20
10.2824847835
 10
4.1937777553
 20
10.2821015561
 10
4.1794306288
 20
10.2819475756
 10
4.1650631575
 20
10.2820229693
 10
4.1506872292
 20
10.2823276749
 10
4.136314739
 20
10.2828614403
 10
4.1219575788
 20
10.2836238237
 10
4.1076276281
 20
10.2846141945
 10
4.0933367437
 20
10.2858317331
 10
4.0790967502
 20
10.2872754321
 10
4.06491943
 20
10.2889440971
 10
4.0508165137
 20
10.2908363472
 10
4.0367996703
 20
10.2929506168
 10
4.0228804976
 20
10.2952851566
 10
4.0090705127
 20
10.2978380349
 10
3.9953811421
 20
10.3006071394
 10
3.9818237127
 20
10.3035901788
 10
3.9684094422
 20
10.306784685
 10
3.9551494298
 20
10.3101880148
 10
3.942054647
 20
10.3137973522
 10
3.9291359288
 20
10.3176097107
 10
3.9164039644
 20
10.3216219359
 10
3.9038692884
 20
10.3258307081
 10
3.8915422722
 20
10.3302325448
 10
3.8794331155
 20
10.3348238038
 10
3.8675518376
 20
10.3396006863
 10
3.8559082692
 20
10.3445592398
 10
3.8445120446
 20
10.3496953615
 10
3.8333725931
 20
10.3550048017
 10
3.8224991318
 20
10.3604831671
 10
3.8119006575
 20
10.366125925
 10
3.8015859397
 20
10.3719284064
  0
LINE
  5
234
100
AcDbEntity
  8
RACCORDO
100
AcDbLine
 62
253
  6
CONTINUOUS
 10
-5.181580725
 20
21.1220966576
 11
-5.181580725
 21
21.0591903191
  0
LINE
  5
235
100
AcDbEntity
  8
DRAFT
100
AcDbLine
 62
7
  6
CONTINUOUS
 10
-4.4643203473
 20
22.7703720986
 11
-4.4643203473
 21
21.6028196027
  0
LINE
  5
236
100
AcDbEntity
  8
DRAFT
100
AcDbLine
 62
7
  6
CONTINUOUS
 10
3.1146431986
 20
16.2460270821
 11
3.455275602
 21
17.0301441575
  0
LINE
  5
237
100
AcDbEntity
  8
RACCORDO
100
AcDbLine
 62
7
  6
CONTINUOUS
 10
3.455275602
 20
18.1976966533
 11
2.7380152243
 21
16.5494212123
  0
LWPOLYLINE
  5
238
100
AcDbEntity
  8
RACCORDO
100
AcDbPolyline
 62
253
  6
CONTINUOUS
 90
55
 70
0
 10
3.4994796717
 20
-6.2352024509
 10
3.5097945351
 20
-6.240990271
 10
3.5203933831
 20
-6.2466062612
 10
3.5312674462
 20
-6.2520457773
 10
3.5424076976
 20
-6.2573043145
 10
3.5538049479
 20
-6.2623775354
 10
3.5654498588
 20
-6.2672612685
 10
3.5773328716
 20
-6.2719515072
 10
3.5894440915
 20
-6.2764443415
 10
3.6017733799
 20
-6.2807359885
 10
3.6143104793
 20
-6.2848228964
 10
3.6270450677
 20
-6.288701713
 10
3.6399666479
 20
-6.2923692141
 10
3.6530645376
 20
-6.2958223858
 10
3.6663278915
 20
-6.2990583804
 10
3.6797457508
 20
-6.3020744882
 10
3.6933070282
 20
-6.3048682375
 10
3.70700049
 20
-6.3074373286
 10
3.7208147797
 20
-6.3097795879
 10
3.7347384583
 20
-6.3118931021
 10
3.7487600137
 20
-6.3137761441
 10
3.7628678432
 20
-6.3154271063
 10
3.7770502692
 20
-6.3168446516
 10
3.7912955613
 20
-6.3180276314
 10
3.8055919461
 20
-6.3189750117
 10
3.8199276005
 20
-6.3196860406
 10
3.8342906571
 20
-6.3201601558
 10
3.8486692275
 20
-6.3203969021
 10
3.8630514147
 20
-6.3203961184
 10
3.8774253184
 20
-6.3201578352
 10
3.891779041
 20
-6.3196821815
 10
3.9061007001
 20
-6.3189695886
 10
3.9203784514
 20
-6.318020679
 10
3.934600494
 20
-6.3168361635
 10
3.9487550645
 20
-6.3154170607
 10
3.9628304464
 20
-6.3137645803
 10
3.9768149914
 20
-6.3118800112
 10
3.9906971369
 20
-6.3097649524
 10
4.0044653873
 20
-6.3074211928
 10
4.0181083222
 20
-6.3048505945
 10
4.0316146403
 20
-6.3020553318
 10
4.0449731801
 20
-6.2990377561
 10
4.0581729019
 20
-6.2958002762
 10
4.0712028748
 20
-6.292345618
 10
4.0840523272
 20
-6.2886766805
 10
4.0967106665
 20
-6.2847963987
 10
4.1091674722
 20
-6.2807080093
 10
4.1214123785
 20
-6.2764149534
 10
4.13343513
 20
-6.2719207368
 10
4.1452257132
 20
-6.2672291572
 10
4.156774451
 20
-6.2623441202
 10
4.1680718815
 20
-6.2572695395
 10
4.1791086857
 20
-6.2520096
 10
4.1898757009
 20
-6.2465687589
 10
4.200364018
 20
-6.2409515642
  0
LWPOLYLINE
  5
239
100
AcDbEntity
  8
RACCORDO
100
AcDbPolyline
 62
7
  6
CONTINUOUS
 90
46
 70
0
 10
3.5408949238
 20
-6.3268656627
 10
3.5491720793
 20
-6.3315380299
 10
3.561602169
 20
-6.3381706759
 10
3.5742562244
 20
-6.3444794709
 10
3.5871297253
 20
-6.3504695615
 10
3.600211103
 20
-6.3561423804
 10
3.6134786656
 20
-6.3614950915
 10
3.6269244635
 20
-6.3665311027
 10
3.6405406613
 20
-6.3712531349
 10
3.6543020913
 20
-6.3756580605
 10
3.6682002514
 20
-6.3797489545
 10
3.6822276191
 20
-6.3835284521
 10
3.6963569959
 20
-6.3869943507
 10
3.7105782837
 20
-6.3901492688
 10
3.7248848858
 20
-6.3929962312
 10
3.7392522005
 20
-6.3955348956
 10
3.7536651592
 20
-6.3977671265
 10
3.7681218483
 20
-6.3996968671
 10
3.7826160283
 20
-6.4013265846
 10
3.797137596
 20
-6.4026579945
 10
3.8116802132
 20
-6.4036930262
 10
3.8262426419
 20
-6.4044331914
 10
3.8408167052
 20
-6.4048792879
 10
3.85539448
 20
-6.4050317019
 10
3.8699748427
 20
-6.4048904849
 10
3.884549862
 20
-6.4044552485
 10
3.8991113995
 20
-6.403725166
 10
3.9136582561
 20
-6.4026988458
 10
3.92818402
 20
-6.4013744083
 10
3.9426787543
 20
-6.3997500575
 10
3.957136612
 20
-6.3978233299
 10
3.9715554462
 20
-6.3955904391
 10
3.9859205669
 20
-6.3930493173
 10
4.0002086005
 20
-6.3901997034
 10
4.0144129366
 20
-6.3870385166
 10
4.0285235762
 20
-6.3835630305
 10
4.0425145246
 20
-6.3797745917
 10
4.0563782616
 20
-6.3756704254
 10
4.0701062917
 20
-6.3712473158
 10
4.083674495
 20
-6.3665074156
 10
4.097075024
 20
-6.3614477907
 10
4.1102998329
 20
-6.3560648232
 10
4.1233281307
 20
-6.3503603256
 10
4.1361486262
 20
-6.3443322813
 10
4.1487564463
 20
-6.3379753958
 10
4.1575034873
 20
-6.3332987444
  0
LINE
  5
23A
100
AcDbEntity
  8
RACCORDO
100
AcDbLine
 62
253
  6
CONTINUOUS
 10
3.4994796715
 20
-6.8179563073
 11
-11.3059376164
 21
1.7305060793
  0
LINE
  5
23B
100
AcDbEntity
  8
RACCORDO
100
AcDbLine
 62
253
  6
CONTINUOUS
 10
3.6396683634
 20
-6.5736104457
 11
-11.1657519047
 21
1.9748536616
  0
LINE
  5
23C
100
AcDbEntity
  8
RACCORDO
100
AcDbLine
 62
7
  6
CONTINUOUS
 10
-11.2645226183
 20
2.2215968514
 11
3.5408976498
 21
-6.3268672559
  0
LINE
  5
23D
100
AcDbEntity
  8
RACCORDO
100
AcDbLine
 62
253
  6
CONTINUOUS
 10
-11.3059376165
 20
2.313259935
 11
3.4994796714
 21
-6.2352024515
  0
LWPOLYLINE
  5
23E
100
AcDbEntity
  8
RACCORDO
100
AcDbPolyline
 62
253
  6
CONTINUOUS
 90
29
 70
0
 10
-11.3059376162
 20
1.730506079
 10
-11.3159600427
 20
1.7364627484
 10
-11.3256816514
 20
1.7425852456
 10
-11.335094399
 20
1.7488685069
 10
-11.3441904749
 20
1.7553073255
 10
-11.3529623785
 20
1.7618963886
 10
-11.3614029173
 20
1.7686302861
 10
-11.3695051469
 20
1.7755035016
 10
-11.3772623053
 20
1.7825103164
 10
-11.3846678952
 20
1.7896448452
 10
-11.3917157621
 20
1.7969011672
 10
-11.3984001099
 20
1.8042733169
 10
-11.4047154299
 20
1.8117551898
 10
-11.4106564998
 20
1.8193406195
 10
-11.416218399
 20
1.8270233376
 10
-11.4213965302
 20
1.8347969611
 10
-11.4261866118
 20
1.8426550889
 10
-11.4305846726
 20
1.8505912281
 10
-11.4345870641
 20
1.8585987545
 10
-11.4381904727
 20
1.8666710632
 10
-11.4413919198
 20
1.8748015001
 10
-11.4441887563
 20
1.882983288
 10
-11.4465786677
 20
1.8912096833
 10
-11.4485596778
 20
1.8994739059
 10
-11.450130149
 20
1.9077690692
 10
-11.4512887813
 20
1.9160883455
 10
-11.4520346147
 20
1.9244248747
 10
-11.4523670308
 20
1.9327716945
 10
-11.4523860548
 20
1.9351946052
  0
LWPOLYLINE
  5
23F
100
AcDbEntity
  8
RACCORDO
100
AcDbPolyline
 62
253
  6
CONTINUOUS
 90
48
 70
0
 10
-11.1657519047
 20
1.9748536616
 10
-11.1717720406
 20
1.978432444
 10
-11.1776025984
 20
1.9821053478
 10
-11.1832435782
 20
1.9858723729
 10
-11.1886994251
 20
1.989736843
 10
-11.193965694
 20
1.9936954344
 10
-11.1990290491
 20
1.9977381765
 10
-11.2038889059
 20
2.0018652341
 10
-11.2085458489
 20
2.0060764423
 10
-11.2129882957
 20
2.0103613365
 10
-11.2172156975
 20
2.0147200874
 10
-11.2212286032
 20
2.0191525241
 10
-11.225017077
 20
2.0236476695
 10
-11.228580566
 20
2.0282056803
 10
-11.2319196231
 20
2.0328263998
 10
-11.2350259722
 20
2.0374983806
 10
-11.2378990387
 20
2.0422217553
 10
-11.2405393971
 20
2.0469963912
 10
-11.2429404948
 20
2.0518104439
 10
-11.2451017357
 20
2.0566640082
 10
-11.247023716
 20
2.0615569892
 10
-11.2487016706
 20
2.0664772574
 10
-11.2501349942
 20
2.0714248792
 10
-11.2513242922
 20
2.0763997883
 10
-11.2522666163
 20
2.0813896568
 10
-11.2529613542
 20
2.0863945248
 10
-11.2534091182
 20
2.0914143522
 10
-11.2536087966
 20
2.0964366915
 10
-11.2535597733
 20
2.1014615483
 10
-11.2532626644
 20
2.1064889168
 10
-11.2527182067
 20
2.1115063326
 10
-11.2519257869
 20
2.1165137687
 10
-11.2508860183
 20
2.1215112521
 10
-11.2496014769
 20
2.1264863988
 10
-11.2480715554
 20
2.131439155
 10
-11.2462968612
 20
2.1363695747
 10
-11.2442817924
 20
2.1412654349
 10
-11.2420257505
 20
2.1461266531
 10
-11.2395293339
 20
2.1509533119
 10
-11.2367987373
 20
2.1557334367
 10
-11.2338333821
 20
2.1604669068
 10
-11.2306338468
 20
2.1651538428
 10
-11.2272080615
 20
2.1697826323
 10
-11.2235554685
 20
2.1743531298
 10
-11.2196766255
 20
2.1788654808
 10
-11.2155811356
 20
2.1833085093
 10
-11.2112684444
 20
2.1876820556
 10
-11.2091956997
 20
2.189651782
  0
LINE
  5
240
100
AcDbEntity
  8
DRAFT
100
AcDbLine
 62
7
  6
CONTINUOUS
 10
10.0241461613
 20
8.9058349192
 11
9.6024204918
 21
8.6665853615
  0
LINE
  5
241
100
AcDbEntity
  8
DRAFT
100
AcDbLine
 62
7
  6
CONTINUOUS
 10
9.6024204918
 20
8.1809309864
 11
9.743841848
 21
8.2611608595
  0
LINE
  5
242
100
AcDbEntity
  8
0
100
AcDbLine
 62
7
  6
CONTINUOUS
 10
10.8726742988
 20
-9.2240803625
 11
11.0211928732
 21
-9.309833126
  0
LINE
  5
243
100
AcDbEntity
  8
0
100
AcDbLine
 62
7
  6
CONTINUOUS
 10
9.6024204918
 20
7.2500934342
 11
11.0702202993
 21
8.2801279162
  0
LINE
  5
244
100
AcDbEntity
  8
DRAFT
100
AcDbLine
 62
7
  6
CONTINUOUS
 10
9.6024204918
 20
-6.8655795577
 11
8.7892476934
 21
-6.3960637754
  0
LINE
  5
245
100
AcDbEntity
  8
RACCORDO
100
AcDbLine
 62
7
  6
CONTINUOUS
 10
7.7059698745
 20
-4.3898999897
 11
7.80626557
 21
-4.4478094673
  0
LWPOLYLINE
  5
246
100
AcDbEntity
  8
RACCORDO
100
AcDbPolyline
 62
253
  6
CONTINUOUS
 90
70
 70
0
 10
4.5021714984
 20
-23.0751570474
 10
4.5029684842
 20
-23.0921822863
 10
4.5040933804
 20
-23.1089858286
 10
4.5055461871
 20
-23.1255676745
 10
4.5073278739
 20
-23.1419353487
 10
4.5094374711
 20
-23.1580813264
 10
4.5118720701
 20
-23.1739830326
 10
4.5146321148
 20
-23.1896400165
 10
4.5177171613
 20
-23.2050527288
 10
4.5211229692
 20
-23.2201999469
 10
4.5248499788
 20
-23.2350812904
 10
4.5288977498
 20
-23.2496971397
 10
4.5332607214
 20
-23.2640274129
 10
4.5379393238
 20
-23.2780717136
 10
4.5429331268
 20
-23.2918304383
 10
4.5482352788
 20
-23.3052846948
 10
4.5538462081
 20
-23.3184340754
 10
4.5597654864
 20
-23.3312789877
 10
4.5659849777
 20
-23.3438017625
 10
4.5725050925
 20
-23.3560019514
 10
4.5793254203
 20
-23.3678800029
 10
4.5864365938
 20
-23.379419593
 10
4.593839014
 20
-23.3906202586
 10
4.6015322799
 20
-23.4014824628
 10
4.6095058208
 20
-23.4119912713
 10
4.6177600187
 20
-23.4221461954
 10
4.6262944917
 20
-23.4319477238
 10
4.6350975222
 20
-23.4413823891
 10
4.6441694846
 20
-23.4504496921
 10
4.6535100045
 20
-23.459150132
 10
4.6631062424
 20
-23.4674717389
 10
4.6729585452
 20
-23.475413988
 10
4.683066566
 20
-23.4829774041
 10
4.6934164236
 20
-23.4901515915
 10
4.7040084555
 20
-23.4969360183
 10
4.7148423242
 20
-23.5033312163
 10
4.7259031373
 20
-23.5093283859
 10
4.7371912022
 20
-23.5149269774
 10
4.7487062113
 20
-23.5201275404
 10
4.7604323496
 20
-23.524922924
 10
4.7723699135
 20
-23.5293125734
 10
4.7845186065
 20
-23.5332970434
 10
4.7968617233
 20
-23.536870848
 10
4.8093995247
 20
-23.5400334206
 10
4.8221317498
 20
-23.5427853279
 10
4.8350409111
 20
-23.5451227836
 10
4.8481272567
 20
-23.5470452192
 10
4.8613905383
 20
-23.5485532032
 10
4.8748125242
 20
-23.5496446562
 10
4.8883934306
 20
-23.5503190049
 10
4.9021330413
 20
-23.5505768225
 10
4.9160124747
 20
-23.5504177489
 10
4.93003193
 20
-23.5498412096
 10
4.9441912082
 20
-23.5488477792
 10
4.9584708307
 20
-23.5474388207
 10
4.9728709517
 20
-23.5456137637
 10
4.9873914171
 20
-23.5433731787
 10
5.0020122858
 20
-23.54072014
 10
5.0167337011
 20
-23.5376540804
 10
5.0315555196
 20
-23.5341755671
 10
5.0464573699
 20
-23.5302893756
 10
5.061439376
 20
-23.5259949386
 10
5.0765014139
 20
-23.5212928235
 10
5.0916227408
 20
-23.5161895075
 10
5.1068035122
 20
-23.5106843997
 10
5.1220435726
 20
-23.5047780911
 10
5.1373217125
 20
-23.4984788323
 10
5.1526308622
 20
-23.4917893737
 10
5.1679780914
 20
-23.4847069649
 10
5.1833634001
 20
-23.477231606
  0
LWPOLYLINE
  5
247
100
AcDbEntity
  8
RACCORDO
100
AcDbPolyline
 62
253
  6
CONTINUOUS
 90
36
 70
0
 10
3.8015858757
 20
-23.0881822851
 10
3.802773027
 20
-23.1136991632
 10
3.8044510834
 20
-23.1389042128
 10
3.8066192918
 20
-23.1637858802
 10
3.8092766956
 20
-23.1883327887
 10
3.8124220798
 20
-23.2125336599
 10
3.816053968
 20
-23.236377321
 10
3.8201707263
 20
-23.2598528546
 10
3.8247704849
 20
-23.2829495031
 10
3.8298510778
 20
-23.3056565933
 10
3.8354102053
 20
-23.327963715
 10
3.8414453453
 20
-23.3498606747
 10
3.8479536705
 20
-23.3713374042
 10
3.8549322371
 20
-23.3923840734
 10
3.8623778783
 20
-23.4129910578
 10
3.870287115
 20
-23.4331488932
 10
3.87865638
 20
-23.4528483795
 10
3.8874818698
 20
-23.4720804876
 10
3.8967594395
 20
-23.4908363267
 10
3.9064848889
 20
-23.5091073211
 10
3.916653809
 20
-23.5268851267
 10
3.9272614359
 20
-23.5441615355
 10
3.9383029732
 20
-23.5609286641
 10
3.9497734102
 20
-23.5771788499
 10
3.9616673673
 20
-23.5929045684
 10
3.9739794582
 20
-23.6080986427
 10
3.9867041022
 20
-23.6227541444
 10
3.9998353451
 20
-23.6368642874
 10
4.0133672523
 20
-23.65042265
 10
4.0272936805
 20
-23.6634230424
 10
4.04160809
 20
-23.675859407
 10
4.0563039941
 20
-23.6877260814
 10
4.0713747351
 20
-23.69901767
 10
4.0868132572
 20
-23.7097289092
 10
4.102612579
 20
-23.7198549392
 10
4.114898602
 20
-23.7271805391
  0
LWPOLYLINE
  5
248
100
AcDbEntity
  8
RACCORDO
100
AcDbPolyline
 62
253
  6
CONTINUOUS
 90
22
 70
0
 10
3.4994811615
 20
-6.2352033119
 10
3.4995752955
 20
-6.2412236671
 10
3.4998650772
 20
-6.2471228096
 10
3.5003501053
 20
-6.2528925729
 10
3.5010297085
 20
-6.2585249694
 10
3.5019029459
 20
-6.264012202
 10
3.5029686087
 20
-6.2693466744
 10
3.5042252216
 20
-6.2745210016
 10
3.505671045
 20
-6.2795280206
 10
3.5073040773
 20
-6.2843607998
 10
3.5091220578
 20
-6.289012649
 10
3.5111224698
 20
-6.2934771283
 10
3.5133025441
 20
-6.2977480573
 10
3.5156592626
 20
-6.3018195234
 10
3.5181893627
 20
-6.3056858904
 10
3.5208893419
 20
-6.3093418057
 10
3.5237554624
 20
-6.3127822082
 10
3.5267837565
 20
-6.3160023353
 10
3.529970032
 20
-6.318997729
 10
3.5333098779
 20
-6.3217642427
 10
3.5367986706
 20
-6.3242980466
 10
3.5404315804
 20
-6.3265956329
  0
LWPOLYLINE
  5
249
100
AcDbEntity
  8
RACCORDO
100
AcDbPolyline
 62
253
  6
CONTINUOUS
 90
22
 70
0
 10
3.4994796715
 20
-6.8179563073
 10
3.5006344811
 20
-7.600329306
 10
3.5031125006
 20
-8.3819603493
 10
3.506913721
 20
-9.1628465617
 10
3.5120380737
 20
-9.9429850385
 10
3.518485595
 20
-10.7223729419
 10
3.526256426
 20
-11.5010075007
 10
3.535350594
 20
-12.2788858827
 10
3.5457680107
 20
-13.0560051943
 10
3.5575086365
 20
-13.8323625768
 10
3.5705724292
 20
-14.6079551744
 10
3.5849593414
 20
-15.3827801342
 10
3.6006693184
 20
-16.1568346057
 10
3.6177023036
 20
-16.9301157424
 10
3.6360582352
 20
-17.7026206994
 10
3.6557370434
 20
-18.4743466332
 10
3.6767386592
 20
-19.2452907685
 10
3.6990630047
 20
-20.0154502065
 10
3.722709989
 20
-20.7848219238
 10
3.7476795223
 20
-21.5534030277
 10
3.7739715167
 20
-22.3211907559
 10
3.801585876
 20
-23.0881822853
  0
LINE
  5
24A
100
AcDbEntity
  8
RACCORDO
100
AcDbLine
 62
253
  6
CONTINUOUS
 10
2.7380152243
 20
16.5494212123
 11
2.7380152243
 21
16.4865148738
  0
LINE
  5
24B
100
AcDbEntity
  8
DRAFT
100
AcDbLine
 62
7
  6
CONTINUOUS
 10
3.455275602
 20
18.1976966533
 11
3.455275602
 21
17.0301441575
  0
LWPOLYLINE
  5
24C
100
AcDbEntity
  8
RACCORDO
100
AcDbPolyline
 62
253
  6
CONTINUOUS
 90
43
 70
0
 10
3.4994811615
 20
-6.8179571676
 10
3.4995752955
 20
-6.8118281091
 10
3.4998650771
 20
-6.8055943342
 10
3.5003501052
 20
-6.7992644729
 10
3.5010297084
 20
-6.792847288
 10
3.5019029457
 20
-6.786351663
 10
3.5029686084
 20
-6.7797865903
 10
3.5042252212
 20
-6.7731611584
 10
3.5056710444
 20
-6.7664845391
 10
3.5073040766
 20
-6.7597659754
 10
3.509122057
 20
-6.7530147681
 10
3.5111224689
 20
-6.7462402634
 10
3.5133025429
 20
-6.7394518395
 10
3.5156592612
 20
-6.7326588942
 10
3.5181893612
 20
-6.7258708313
 10
3.5208893402
 20
-6.7190970478
 10
3.5237554606
 20
-6.7123469213
 10
3.5267837545
 20
-6.7056297962
 10
3.5299700298
 20
-6.6989549715
 10
3.5333098756
 20
-6.6923316876
 10
3.5367986681
 20
-6.6857691133
 10
3.5404315778
 20
-6.6792763338
 10
3.5442035753
 20
-6.6728623374
 10
3.5481094389
 20
-6.6665360033
 10
3.5521437615
 20
-6.6603060894
 10
3.556300958
 20
-6.6541812202
 10
3.5605752734
 20
-6.6481698748
 10
3.5649607906
 20
-6.6422803749
 10
3.5694514384
 20
-6.6365208737
 10
3.5740410001
 20
-6.6308993446
 10
3.5787231222
 20
-6.6254235697
 10
3.5834913228
 20
-6.6201011293
 10
3.5883390012
 20
-6.6149393919
 10
3.5932594463
 20
-6.6099455029
 10
3.5982458465
 20
-6.6051263757
 10
3.6032912988
 20
-6.6004886819
 10
3.6083888185
 20
-6.5960388415
 10
3.6135313488
 20
-6.5917830148
 10
3.6187117706
 20
-6.5877270933
 10
3.6239229123
 20
-6.583876692
 10
3.6291575599
 20
-6.5802371411
 10
3.6344084666
 20
-6.5768134792
 10
3.6396683634
 20
-6.5736104457
  0
LWPOLYLINE
  5
24D
100
AcDbEntity
  8
RACCORDO
100
AcDbPolyline
 62
253
  6
CONTINUOUS
 90
22
 70
0
 10
3.801585876
 20
10.3719266069
 10
3.7739715167
 20
9.5741397672
 10
3.7476795223
 20
8.7770314126
 10
3.722709989
 20
7.9806044768
 10
3.6990630047
 20
7.1848618271
 10
3.6767386592
 20
6.3898064568
 10
3.6557370434
 20
5.5954414841
 10
3.6360582352
 20
4.8017698969
 10
3.6177023036
 20
4.0087945511
 10
3.6006693184
 20
3.2165183627
 10
3.5849593414
 20
2.4249442475
 10
3.5705724292
 20
1.6340751178
 10
3.5575086365
 20
0.8439138809
 10
3.5457680107
 20
0.0544634441
 10
3.535350594
 20
-0.7342732877
 10
3.526256426
 20
-1.5222934145
 10
3.518485595
 20
-2.3095940688
 10
3.5120380737
 20
-3.0961723219
 10
3.506913721
 20
-3.882025186
 10
3.5031125006
 20
-4.6671497386
 10
3.5006344811
 20
-5.4515431224
 10
3.4994796714
 20
-6.2352024515
  0
LINE
  5
24E
100
AcDbEntity
  8
0
100
AcDbLine
 62
7
  6
CONTINUOUS
 10
9.6024204918
 20
3.8394438649
 11
11.0702202993
 21
4.9025334216
  0
LWPOLYLINE
  5
24F
100
AcDbEntity
  8
RACCORDO
100
AcDbPolyline
 62
253
  6
CONTINUOUS
 90
43
 70
0
 10
4.2003624406
 20
-6.8192726873
 10
4.2002183734
 20
-6.8131358419
 10
4.1998802368
 20
-6.8068914228
 10
4.1993485036
 20
-6.8005481617
 10
4.1986239173
 20
-6.7941149285
 10
4.1977074912
 20
-6.7876007189
 10
4.1966005067
 20
-6.7810146418
 10
4.1953045118
 20
-6.7743659068
 10
4.1938213186
 20
-6.7676638108
 10
4.1921530011
 20
-6.7609177256
 10
4.1903018922
 20
-6.7541370843
 10
4.1882705803
 20
-6.7473313683
 10
4.1860619059
 20
-6.7405100944
 10
4.1836789573
 20
-6.7336828008
 10
4.1811250667
 20
-6.7268590342
 10
4.1784038053
 20
-6.7200483364
 10
4.1755189782
 20
-6.7132602311
 10
4.1724746193
 20
-6.70650421
 10
4.1692749857
 20
-6.6997897204
 10
4.1659245515
 20
-6.6931261511
 10
4.1624280016
 20
-6.68652282
 10
4.1587902253
 20
-6.6799889607
 10
4.1550163095
 20
-6.6735337096
 10
4.1511115311
 20
-6.6671660931
 10
4.1470813505
 20
-6.6608950153
 10
4.142931403
 20
-6.6547292451
 10
4.1386674916
 20
-6.6486774042
 10
4.1342955787
 20
-6.642747955
 10
4.1298217775
 20
-6.6369491888
 10
4.1252523438
 20
-6.6312892142
 10
4.1205936673
 20
-6.6257759455
 10
4.1158522621
 20
-6.6204170921
 10
4.1110347583
 20
-6.6152201473
 10
4.1061478924
 20
-6.6101923782
 10
4.1011984977
 20
-6.6053408151
 10
4.096193495
 20
-6.6006722422
 10
4.0911398829
 20
-6.5961931874
 10
4.086044728
 20
-6.5919099141
 10
4.080915155
 20
-6.5878284116
 10
4.0757583366
 20
-6.5839543871
 10
4.0705814838
 20
-6.5802932577
 10
4.0653918353
 20
-6.5768501428
 10
4.060196648
 20
-6.5736298571
  0
LWPOLYLINE
  5
250
100
AcDbEntity
  8
RACCORDO
100
AcDbPolyline
 62
253
  6
CONTINUOUS
 90
22
 70
0
 10
4.200364018
 20
-6.8192717921
 10
4.2015133061
 20
-7.6009596479
 10
4.2039851289
 20
-8.3819006609
 10
4.2077794865
 20
-9.1620948311
 10
4.2128964609
 20
-9.9415450807
 10
4.21933597
 20
-10.7202484874
 10
4.2270977672
 20
-11.4981962849
 10
4.2361818086
 20
-12.2753884078
 10
4.2465881381
 20
-13.0518249214
 10
4.258316641
 20
-13.8274972553
 10
4.2713673319
 20
-14.602405401
 10
4.2857401961
 20
-15.3765493671
 10
4.3014350752
 20
-16.1499206085
 10
4.3184519836
 20
-16.922519117
 10
4.3367909068
 20
-17.6943449008
 10
4.3564516424
 20
-18.46538944
 10
4.3774342052
 20
-19.235652726
 10
4.3997385804
 20
-20.0051347673
 10
4.4233645219
 20
-20.7738270695
 10
4.4483119478
 20
-21.5417268012
 10
4.4745809399
 20
-22.3088367938
 10
4.5021714984
 20
-23.0751570474
  0
LWPOLYLINE
  5
251
100
AcDbEntity
  8
RACCORDO
100
AcDbPolyline
 62
253
  6
CONTINUOUS
 90
23
 70
0
 10
4.2003624406
 20
-6.2409524338
 10
4.2002183734
 20
-6.24702546
 10
4.1998802368
 20
-6.2529738393
 10
4.1993485037
 20
-6.2587892538
 10
4.1986239175
 20
-6.2644635717
 10
4.1977074915
 20
-6.2699888586
 10
4.1966005071
 20
-6.2753573884
 10
4.1953045123
 20
-6.2805616541
 10
4.1938213193
 20
-6.2855943785
 10
4.1921530019
 20
-6.2904485242
 10
4.1903018932
 20
-6.2951173036
 10
4.1882705815
 20
-6.2995941883
 10
4.1860619072
 20
-6.3038729181
 10
4.1836789588
 20
-6.30794751
 10
4.1811250684
 20
-6.3118122665
 10
4.1784038072
 20
-6.3154617833
 10
4.1755189803
 20
-6.3188909573
 10
4.1724746216
 20
-6.3220949934
 10
4.1692749882
 20
-6.3250694113
 10
4.1659245541
 20
-6.3278100519
 10
4.1624280044
 20
-6.3303130828
 10
4.1587902283
 20
-6.3325750041
 10
4.1575034961
 20
-6.3332987605
  0
LWPOLYLINE
  5
252
100
AcDbEntity
  8
RACCORDO
100
AcDbPolyline
 62
253
  6
CONTINUOUS
 90
22
 70
0
 10
4.5021714984
 20
10.3514952602
 10
4.4745809399
 20
9.5544073073
 10
4.4483119478
 20
8.7580033643
 10
4.4233645219
 20
7.962283431
 10
4.3997385804
 20
7.1672445847
 10
4.3774342052
 20
6.3728897482
 10
4.3564516424
 20
5.5792276905
 10
4.3367909068
 20
4.7862584192
 10
4.3184519836
 20
3.9939819266
 10
4.3014350752
 20
3.2024069584
 10
4.2857401961
 20
2.4115335225
 10
4.2713673319
 20
1.621361611
 10
4.258316641
 20
0.8318999457
 10
4.2465881381
 20
0.0431485344
 10
4.2361818086
 20
-0.7448926307
 10
4.2270977672
 20
-1.5322148513
 10
4.21933597
 20
-2.3188182418
 10
4.2128964609
 20
-3.1047026877
 10
4.2077794865
 20
-3.8898591476
 10
4.2039851289
 20
-4.6742846077
 10
4.2015133061
 20
-5.4579820818
 10
4.200364018
 20
-6.2409515699
  0
LINE
  5
253
100
AcDbEntity
  8
DRAFT
100
AcDbLine
 62
7
  6
CONTINUOUS
 10
7.947686927
 20
-1.0931639958
 11
9.6024204918
 21
-0.170523288
  0
LINE
  5
254
100
AcDbEntity
  8
DRAFT
100
AcDbLine
 62
7
  6
CONTINUOUS
 10
9.743841848
 20
-9.8644792853
 11
9.6024204918
 21
-9.5616856287
  0
LWPOLYLINE
  5
255
100
AcDbEntity
  8
RACCORDO
100
AcDbPolyline
 62
253
  6
CONTINUOUS
 90
55
 70
0
 10
5.1833634001
 20
11.513203142
 10
5.1826695536
 20
11.5248360995
 10
5.18168276
 20
11.5366347301
 10
5.1804038532
 20
11.5485890627
 10
5.178833914
 20
11.5606889944
 10
5.1769742693
 20
11.5729242994
 10
5.1748264906
 20
11.5852846374
 10
5.1723923931
 20
11.5977595625
 10
5.1696740338
 20
11.610338532
 10
5.1666737101
 20
11.6230109151
 10
5.1633939576
 20
11.6357660023
 10
5.1598375481
 20
11.648593014
 10
5.1560074871
 20
11.6614811098
 10
5.1519070115
 20
11.6744193979
 10
5.1475395868
 20
11.6873969438
 10
5.1429089037
 20
11.7004027801
 10
5.1380188759
 20
11.7134259153
 10
5.132873636
 20
11.7264553434
 10
5.1274775323
 20
11.7394800529
 10
5.1218351251
 20
11.7524890364
 10
5.1159511829
 20
11.7654713
 10
5.1098306783
 20
11.778415872
 10
5.1034787839
 20
11.7913118127
 10
5.0969008678
 20
11.8041482237
 10
5.090102489
 20
11.8169142566
 10
5.0830893931
 20
11.8295991227
 10
5.0758675067
 20
11.8421921017
 10
5.0684429334
 20
11.8546825512
 10
5.0608219477
 20
11.8670599153
 10
5.0530109902
 20
11.8793137337
 10
5.0450166622
 20
11.8914336503
 10
5.0368457196
 20
11.9034094226
 10
5.0285050681
 20
11.9152309296
 10
5.0200017562
 20
11.9268881808
 10
5.0113429705
 20
11.9383713244
 10
5.0025360284
 20
11.9496706558
 10
4.993588373
 20
11.9607766257
 10
4.984507566
 20
11.9716798485
 10
4.9753012817
 20
11.9823711094
 10
4.9659773006
 20
11.9928413733
 10
4.9565435025
 20
12.0030817915
 10
4.94700786
 20
12.0130837096
 10
4.9373784319
 20
12.0228386749
 10
4.9276633562
 20
12.0323384433
 10
4.9178708431
 20
12.0415749864
 10
4.9080091687
 20
12.0505404982
 10
4.898086667
 20
12.0592274019
 10
4.8881117237
 20
12.0676283559
 10
4.878092769
 20
12.0757362606
 10
4.8680382698
 20
12.0835442638
 10
4.8579567236
 20
12.0910457667
 10
4.8478566502
 20
12.0982344299
 10
4.8377465855
 20
12.1051041779
 10
4.8276350737
 20
12.1116492052
 10
4.8175306601
 20
12.1178639803
  0
LWPOLYLINE
  5
256
100
AcDbEntity
  8
RACCORDO
100
AcDbPolyline
 62
253
  6
CONTINUOUS
 90
30
 70
0
 10
5.1833634001
 20
-23.477231606
 10
5.1826695536
 20
-23.489299137
 10
5.18168276
 20
-23.5011809651
 10
5.1804038532
 20
-23.512867049
 10
5.178833914
 20
-23.5243475123
 10
5.1769742692
 20
-23.5356126529
 10
5.1748264905
 20
-23.5466529504
 10
5.1723923929
 20
-23.5574590745
 10
5.1696740336
 20
-23.5680218926
 10
5.1666737098
 20
-23.5783324781
 10
5.1633939573
 20
-23.5883821172
 10
5.1598375477
 20
-23.5981623169
 10
5.1560074867
 20
-23.6076648117
 10
5.1519070111
 20
-23.616881571
 10
5.1475395863
 20
-23.6258048055
 10
5.1429089032
 20
-23.634426974
 10
5.1380188754
 20
-23.6427407898
 10
5.1328736354
 20
-23.6507392268
 10
5.1274775317
 20
-23.6584155253
 10
5.1218351244
 20
-23.665763198
 10
5.1159511822
 20
-23.6727760353
 10
5.1098306776
 20
-23.6794481104
 10
5.1034787832
 20
-23.6857737848
 10
5.096900867
 20
-23.6917477124
 10
5.0901024882
 20
-23.6973648446
 10
5.0830893922
 20
-23.7026204344
 10
5.0758675059
 20
-23.70751004
 10
5.0684429325
 20
-23.7120295292
 10
5.0608219468
 20
-23.7161750826
 10
5.0589609742
 20
-23.7171156823
  0
LINE
  5
257
100
AcDbEntity
  8
RACCORDO
100
AcDbLine
 62
7
  6
CONTINUOUS
 10
7.947686927
 20
-4.6927397893
 11
7.947686927
 21
-7.7882202655
  0
LINE
  5
258
100
AcDbEntity
  8
RACCORDO
100
AcDbLine
 62
7
  6
CONTINUOUS
 10
7.947686927
 20
-4.1886444719
 11
7.947686927
 21
-1.0931639958
  0
LINE
  5
259
100
AcDbEntity
  8
RACCORDO
100
AcDbLine
 62
253
  6
CONTINUOUS
 10
7.80626557
 20
-4.4478094673
 11
4.060196648
 21
-6.5736298571
  0
LINE
  5
25A
100
AcDbEntity
  8
RACCORDO
100
AcDbLine
 62
253
  6
CONTINUOUS
 10
7.947686927
 20
-4.6927397893
 11
4.200364018
 21
-6.8192717921
  0
LWPOLYLINE
  5
25B
100
AcDbEntity
  8
RACCORDO
100
AcDbPolyline
 62
253
  6
CONTINUOUS
 90
55
 70
0
 10
4.060196648
 20
-6.5736298571
 10
4.0538958499
 20
-6.5771043549
 10
4.0474384022
 20
-6.5804676223
 10
4.0408243048
 20
-6.5837196595
 10
4.0340477302
 20
-6.586863029
 10
4.0271145058
 20
-6.5898951683
 10
4.0200421149
 20
-6.5928083894
 10
4.0128302955
 20
-6.5956023473
 10
4.0054793095
 20
-6.5982773869
 10
3.9980074256
 20
-6.6008268549
 10
3.9904143649
 20
-6.6032504299
 10
3.9827004064
 20
-6.6055484332
 10
3.9748846556
 20
-6.6077151755
 10
3.9669668578
 20
-6.6097503334
 10
3.9589472678
 20
-6.6116542302
 10
3.9508457551
 20
-6.6134221474
 10
3.9426621075
 20
-6.6150537488
 10
3.9343965372
 20
-6.6165493705
 10
3.9260695505
 20
-6.6179053013
 10
3.9176810003
 20
-6.6191211933
 10
3.9092310338
 20
-6.6201973944
 10
3.9007405988
 20
-6.6211312374
 10
3.8922095978
 20
-6.6219223691
 10
3.8836381283
 20
-6.6225711428
 10
3.8750474306
 20
-6.6230759509
 10
3.8664374533
 20
-6.6234364368
 10
3.8578082477
 20
-6.6236529571
 10
3.8491812088
 20
-6.6237249751
 10
3.8405563408
 20
-6.6236521319
 10
3.8319336395
 20
-6.6234347864
 10
3.8233344864
 20
-6.6230734782
 10
3.814758945
 20
-6.6225678505
 10
3.8062069519
 20
-6.6219182602
 10
3.7976996991
 20
-6.6211263177
 10
3.7892372947
 20
-6.6201916698
 10
3.7808196306
 20
-6.6191146697
 10
3.7724675735
 20
-6.6178979874
 10
3.7641812812
 20
-6.6165412751
 10
3.7559605959
 20
-6.6150448806
 10
3.7478259111
 20
-6.6134125176
 10
3.7397774493
 20
-6.6116438504
 10
3.731814988
 20
-6.6097392147
 10
3.7239582533
 20
-6.6077033315
 10
3.7162075095
 20
-6.6055358773
 10
3.7085624923
 20
-6.6032371755
 10
3.7010421351
 20
-6.6008129176
 10
3.6936467265
 20
-6.5982627823
 10
3.6863759779
 20
-6.595587091
 10
3.6792479571
 20
-6.5927924982
 10
3.6722629419
 20
-6.5898786624
 10
3.6654206545
 20
-6.5868459251
 10
3.6587383295
 20
-6.5837019669
 10
3.6522217118
 20
-6.5804493476
 10
3.6458650564
 20
-6.5770855072
 10
3.6396683634
 20
-6.5736104457
  0
LWPOLYLINE
  5
25C
100
AcDbEntity
  8
RACCORDO
100
AcDbPolyline
 62
253
  6
CONTINUOUS
 90
55
 70
0
 10
4.200364018
 20
-6.8192717979
 10
4.189875701
 20
-6.825018721
 10
4.1791086857
 20
-6.8305889371
 10
4.1680718816
 20
-6.8359778843
 10
4.156774451
 20
-6.8411811829
 10
4.1452257133
 20
-6.846194543
 10
4.13343513
 20
-6.8510137631
 10
4.1214123785
 20
-6.8556349247
 10
4.1091674722
 20
-6.8600542157
 10
4.0967106665
 20
-6.8642678414
 10
4.0840523272
 20
-6.8682723435
 10
4.0712028749
 20
-6.8720644756
 10
4.058172902
 20
-6.8756410248
 10
4.0449731801
 20
-6.8789990764
 10
4.0316146403
 20
-6.8821358938
 10
4.0181083223
 20
-6.8850487982
 10
4.0044653873
 20
-6.8877354218
 10
3.990697137
 20
-6.8901935812
 10
3.9768149914
 20
-6.8924211553
 10
3.9628304464
 20
-6.8944163386
 10
3.9487550646
 20
-6.896177524
 10
3.934600494
 20
-6.8977031769
 10
3.9203784515
 20
-6.8989920711
 10
3.9061007001
 20
-6.9000431809
 10
3.891779041
 20
-6.9008555649
 10
3.8774253185
 20
-6.9014285841
 10
3.8630514147
 20
-6.9017618018
 10
3.8486692276
 20
-6.9018548741
 10
3.8342906571
 20
-6.9017077545
 10
3.8199276005
 20
-6.9013206001
 10
3.8055919462
 20
-6.9006936694
 10
3.7912955613
 20
-6.8998275089
 10
3.7770502692
 20
-6.8987228679
 10
3.7628678433
 20
-6.8973806034
 10
3.7487600137
 20
-6.8958018489
 10
3.7347384583
 20
-6.8939879401
 10
3.7208147797
 20
-6.8919403283
 10
3.70700049
 20
-6.8896607262
 10
3.6933070282
 20
-6.887151047
 10
3.6797457508
 20
-6.8844133302
 10
3.6663278915
 20
-6.8814498618
 10
3.6530645377
 20
-6.8782631147
 10
3.6399666479
 20
-6.8748556877
 10
3.6270450677
 20
-6.8712304156
 10
3.6143104793
 20
-6.8673903149
 10
3.6017733799
 20
-6.8633385229
 10
3.5894440915
 20
-6.8590783802
 10
3.5773328716
 20
-6.8546134424
 10
3.5654498588
 20
-6.8499474294
 10
3.5538049479
 20
-6.84508424
 10
3.5424076977
 20
-6.8400278865
 10
3.5312674462
 20
-6.8347825033
 10
3.5203933831
 20
-6.8293524142
 10
3.5097945351
 20
-6.8237421345
 10
3.4994796717
 20
-6.8179563076
  0
LINE
  5
25D
100
AcDbEntity
  8
RACCORDO
100
AcDbLine
 62
253
  6
CONTINUOUS
 10
4.200364018
 20
-6.2409515699
 11
7.947686927
 21
-4.1886444719
  0
LINE
  5
25E
100
AcDbEntity
  8
RACCORDO
100
AcDbLine
 62
7
  6
CONTINUOUS
 10
4.1575009544
 20
-6.3333001526
 11
7.9049659045
 21
-4.2809152625
  0
LINE
  5
25F
100
AcDbEntity
  8
DRAFT
100
AcDbLine
 62
7
  6
CONTINUOUS
 10
9.6024204918
 20
-6.8655795577
 11
9.6024204918
 21
-14.2861962799
  0
LINE
  5
260
100
AcDbEntity
  8
RACCORDO
100
AcDbLine
 62
7
  6
CONTINUOUS
 10
9.6024204918
 20
-14.2861962799
 11
9.6024204918
 21
-21.2760930922
  0
LINE
  5
261
100
AcDbEntity
  8
DRAFT
100
AcDbLine
 62
7
  6
CONTINUOUS
 10
9.6024204918
 20
-0.170523288
 11
9.6024204918
 21
7.2500934342
  0
LINE
  5
262
100
AcDbEntity
  8
RACCORDO
100
AcDbLine
 62
7
  6
CONTINUOUS
 10
9.6024204918
 20
7.2500934342
 11
9.6024204918
 21
14.2399902464
  0
LINE
  5
263
100
AcDbEntity
  8
DRAFT
100
AcDbLine
 62
7
  6
CONTINUOUS
 10
7.947686927
 20
-6.8652983625
 11
8.7892476934
 21
-6.3960637754
  0
LINE
  5
264
100
AcDbEntity
  8
DRAFT
100
AcDbLine
 62
7
  6
CONTINUOUS
 10
7.947686927
 20
-7.7882202655
 11
9.6024204918
 21
-6.8655795577
  0
LINE
  5
265
100
AcDbEntity
  8
DRAFT
100
AcDbLine
 62
7
  6
CONTINUOUS
 10
10.8726742988
 20
8.9015597823
 11
10.0241461613
 21
8.9058349192
  0
LINE
  5
266
100
AcDbEntity
  8
0
100
AcDbLine
 62
253
  6
CONTINUOUS
 10
11.0702202993
 20
8.2801279162
 11
11.0702202993
 21
4.9025334216
  0
LINE
  5
267
100
AcDbEntity
  8
0
100
AcDbLine
 62
253
  6
CONTINUOUS
 10
11.0702202993
 20
-13.2231067232
 11
11.0702202993
 21
-9.8455122286
  0
LINE
  5
268
100
AcDbEntity
  8
0
100
AcDbLine
 62
7
  6
CONTINUOUS
 10
11.2262181263
 20
8.5314756552
 11
11.2262181263
 21
5.1598920718
  0
LINE
  5
269
100
AcDbEntity
  8
0
100
AcDbLine
 62
7
  6
CONTINUOUS
 10
11.2262181263
 20
-12.965748073
 11
11.2262181263
 21
-9.5941644896
  0
LINE
  5
26A
100
AcDbEntity
  8
RACCORDO
100
AcDbLine
 62
253
  6
CONTINUOUS
 10
-11.0141897871
 20
18.9263697895
 11
3.801585876
 21
10.3719266069
  0
LINE
  5
26B
100
AcDbEntity
  8
DRAFT
100
AcDbLine
 62
7
  6
CONTINUOUS
 10
9.6024204918
 20
8.5639545161
 11
9.743841848
 21
8.2611608595
  0
LINE
  5
26C
100
AcDbEntity
  8
DRAFT
100
AcDbLine
 62
7
  6
CONTINUOUS
 10
9.6024204918
 20
-9.4590547833
 11
10.0241461613
 21
-9.2198052256
  0
LINE
  5
26D
100
AcDbEntity
  8
DRAFT
100
AcDbLine
 62
7
  6
CONTINUOUS
 10
9.743841848
 20
-9.8644792853
 11
9.6024204918
 21
-9.9447091584
  0
LINE
  5
26E
100
AcDbEntity
  8
RACCORDO
100
AcDbLine
 62
7
  6
CONTINUOUS
 10
7.9713907885
 20
15.5901483448
 11
5.2945386165
 21
15.0733166464
  0
LINE
  5
26F
100
AcDbEntity
  8
RACCORDO
100
AcDbLine
 62
253
  6
CONTINUOUS
 10
-10.0216162886
 20
20.6858029905
 11
4.8175319496
 21
12.117864776
  0
LINE
  5
270
100
AcDbEntity
  8
0
100
AcDbLine
 62
7
  6
CONTINUOUS
 10
11.0211928732
 20
8.8158070188
 11
10.8726742988
 21
8.9015597823
  0
LINE
  5
271
100
AcDbEntity
  8
0
100
AcDbLine
 62
7
  6
CONTINUOUS
 10
11.0702202993
 20
-9.8455122286
 11
9.6024204918
 21
-10.8755467106
  0
LINE
  5
272
100
AcDbEntity
  8
RACCORDO
100
AcDbLine
 62
7
  6
CONTINUOUS
 10
5.1013534512
 20
15.0989254815
 11
2.7897790333
 21
16.4335995796
  0
LINE
  5
273
100
AcDbEntity
  8
RACCORDO
100
AcDbLine
 62
7
  6
CONTINUOUS
 10
-2.818242498
 20
19.6716009268
 11
-5.129816916
 21
21.0062750249
  0
LINE
  5
274
100
AcDbEntity
  8
0
100
AcDbLine
 62
7
  6
CONTINUOUS
 10
11.0702202993
 20
-13.2231067232
 11
9.6024204918
 21
-14.2861962799
  0
LINE
  5
275
100
AcDbEntity
  8
RACCORDO
100
AcDbLine
 62
7
  6
CONTINUOUS
 10
9.2491362258
 20
14.8523941432
 11
7.9713907885
 21
15.5901483448
  0
LINE
  5
276
100
AcDbEntity
  8
DRAFT
100
AcDbLine
 62
7
  6
CONTINUOUS
 10
3.455275602
 20
18.1976966533
 11
0.0517948392
 21
20.1628237901
  0
LINE
  5
277
100
AcDbEntity
  8
RACCORDO
100
AcDbLine
 62
7
  6
CONTINUOUS
 10
-4.4643203473
 20
22.7703720986
 11
-5.7420657846
 21
23.5081263002
  0
LINE
  5
278
100
AcDbEntity
  8
RACCORDO
100
AcDbLine
 62
7
  6
CONTINUOUS
 10
0.0517948392
 20
20.1628237901
 11
-2.6250573328
 21
19.6459920916
  0
LWPOLYLINE
  5
279
100
AcDbEntity
  8
RACCORDO
100
AcDbPolyline
 62
253
  6
CONTINUOUS
 90
55
 70
0
 10
4.5021714984
 20
-23.0751570474
 10
4.4916917026
 20
-23.0813155629
 10
4.4809331913
 20
-23.0872971536
 10
4.4699048662
 20
-23.0930968702
 10
4.4586158524
 20
-23.0987099139
 10
4.4470754906
 20
-23.1041316402
 10
4.4352933295
 20
-23.1093575633
 10
4.4232791179
 20
-23.114383359
 10
4.4110427967
 20
-23.119204869
 10
4.3985944903
 20
-23.1238181037
 10
4.3859444988
 20
-23.1282192462
 10
4.3731032889
 20
-23.1324046549
 10
4.3600814858
 20
-23.1363708666
 10
4.3468898639
 20
-23.1401145996
 10
4.3335393382
 20
-23.1436327564
 10
4.3200409552
 20
-23.1469224258
 10
4.3064058838
 20
-23.1499808861
 10
4.2926454058
 20
-23.1528056065
 10
4.2787709068
 20
-23.1553942498
 10
4.2647938671
 20
-23.1577446742
 10
4.2507258513
 20
-23.1598549348
 10
4.2365784997
 20
-23.1617232856
 10
4.222363518
 20
-23.1633481807
 10
4.208092668
 20
-23.1647282755
 10
4.1937777577
 20
-23.1658624283
 10
4.1794306314
 20
-23.1667497005
 10
4.1650631603
 20
-23.167389358
 10
4.1506872323
 20
-23.1677808716
 10
4.1363147423
 20
-23.1679239173
 10
4.1219575824
 20
-23.1678183767
 10
4.1076276319
 20
-23.1674643373
 10
4.0933367477
 20
-23.1668620918
 10
4.0790967545
 20
-23.1660121386
 10
4.0649194345
 20
-23.1649151811
 10
4.0508165185
 20
-23.1635721268
 10
4.0367996753
 20
-23.161984087
 10
4.0228805029
 20
-23.1601523756
 10
4.0090705182
 20
-23.1580785084
 10
3.9953811479
 20
-23.1557642011
 10
3.9818237187
 20
-23.1532113688
 10
3.9684094484
 20
-23.1504221237
 10
3.9551494363
 20
-23.1473987737
 10
3.9420546538
 20
-23.1441438203
 10
3.9291359358
 20
-23.1406599567
 10
3.9164039716
 20
-23.1369500656
 10
3.9038692958
 20
-23.1330172167
 10
3.8915422798
 20
-23.1288646639
 10
3.8794331233
 20
-23.1244958432
 10
3.8675518456
 20
-23.1199143696
 10
3.8559082775
 20
-23.1151240336
 10
3.844512053
 20
-23.1101287991
 10
3.8333726018
 20
-23.104932799
 10
3.8224991406
 20
-23.0995403328
 10
3.8119006665
 20
-23.0939558622
 10
3.8015859488
 20
-23.0881840079
  0
LINE
  5
27A
100
AcDbEntity
  8
RACCORDO
100
AcDbLine
 62
253
  6
CONTINUOUS
 10
5.1833634001
 20
-23.477231606
 11
9.6024204918
 21
-21.2760930922
  0
LINE
  5
27B
100
AcDbEntity
  8
RACCORDO
100
AcDbLine
 62
7
  6
CONTINUOUS
 10
5.0589609742
 20
-23.7171156823
 11
9.4897920563
 21
-21.5101125274
  0
ELLIPSE
  5
27C
100
AcDbEntity
  8
RACCORDO
100
AcDbEllipse
 62
7
  6
CONTINUOUS
 10
9.2488132451
 20
-21.0715513108
 30
0.0
 11
-0.2498600223
 21
0.43379745
 31
0.0
 40
0.5768037941
 41
-3.1764860618
 42
-2.355482613
  0
ELLIPSE
  5
27D
100
AcDbEntity
  8
0
100
AcDbEllipse
 62
7
  6
CONTINUOUS
 10
10.5262181263
 20
-12.969274881
 30
0.0
 11
0.6999930985
 21
0.005337181
 31
0.0
 40
0.5824033911
 41
-0.6851189833
 42
-0.004440575
  0
ELLIPSE
  5
27E
100
AcDbEntity
  8
RACCORDO
100
AcDbEllipse
 62
7
  6
CONTINUOUS
 10
7.8062440284
 20
-4.6110973028
 30
0.0
 11
-0.1000238792
 21
0.1731956925
 31
0.0
 40
0.5774195892
 41
-2.3562809449
 42
-0.7856369171
  0
ELLIPSE
  5
27F
100
AcDbEntity
  8
0
100
AcDbEllipse
 62
7
  6
CONTINUOUS
 10
10.5262181263
 20
-9.5906376816
 30
0.0
 11
0.6999935638
 21
-0.0052448313
 31
0.0
 40
0.5723275643
 41
-0.6763901644
 42
0.7896864073
  0
ELLIPSE
  5
280
100
AcDbEntity
  8
RACCORDO
100
AcDbEllipse
 62
7
  6
CONTINUOUS
 10
9.2488132451
 20
14.44378525
 30
0.0
 11
-0.2496303025
 21
0.4334023309
 31
0.0
 40
0.5778584463
 41
-2.3545649475
 42
-0.7846820092
  0
ELLIPSE
  5
281
100
AcDbEntity
  8
RACCORDO
100
AcDbEllipse
 62
7
  6
CONTINUOUS
 10
-5.7417428039
 20
23.0991444369
 30
0.0
 11
-0.2498600223
 21
0.43379745
 31
0.0
 40
0.5768037941
 41
-0.7837728977
 42
0.0348934082
  0
ELLIPSE
  5
282
100
AcDbEntity
  8
0
100
AcDbEllipse
 62
7
  6
CONTINUOUS
 10
10.5262181263
 20
5.1563652638
 30
0.0
 11
0.6999930985
 21
0.005337181
 31
0.0
 40
0.5824033911
 41
-0.6851189833
 42
-0.004440575
  0
ELLIPSE
  5
283
100
AcDbEntity
  8
RACCORDO
100
AcDbEllipse
 62
7
  6
CONTINUOUS
 10
-2.6768211418
 20
19.7618137243
 30
0.0
 11
0.1999154856
 21
0.0095814127
 31
0.0
 40
0.6067642562
 41
-2.385266879
 42
-1.3380693278
  0
ELLIPSE
  5
284
100
AcDbEntity
  8
RACCORDO
100
AcDbEllipse
 62
7
  6
CONTINUOUS
 10
5.2427748075
 20
15.189138279
 30
0.0
 11
0.1999154856
 21
0.0095814127
 31
0.0
 40
0.6067642562
 41
-2.385266879
 42
-1.3380693278
  0
ELLIPSE
  5
285
100
AcDbEntity
  8
RACCORDO
100
AcDbEllipse
 62
7
  6
CONTINUOUS
 10
7.8062440284
 20
-4.1069522444
 30
0.0
 11
-0.1000390991
 21
0.1732220807
 31
0.0
 40
0.5772437351
 41
-3.1546807062
 42
-2.3564331449
  0
ELLIPSE
  5
286
100
AcDbEntity
  8
RACCORDO
100
AcDbEllipse
 62
7
  6
CONTINUOUS
 10
-4.9883955598
 20
21.0964878224
 30
0.0
 11
0.1999154856
 21
0.0095814127
 31
0.0
 40
0.6067642562
 41
2.850720877
 42
3.8979184282
  0
ELLIPSE
  5
287
100
AcDbEntity
  8
RACCORDO
100
AcDbEllipse
 62
7
  6
CONTINUOUS
 10
2.9312003895
 20
16.5238123771
 30
0.0
 11
0.1999154856
 21
0.0095814127
 31
0.0
 40
0.6067642562
 41
2.850720877
 42
3.8979184282
  0
ELLIPSE
  5
288
100
AcDbEntity
  8
0
100
AcDbEllipse
 62
7
  6
CONTINUOUS
 10
10.5262181263
 20
8.5350024632
 30
0.0
 11
0.6999935638
 21
-0.0052448313
 31
0.0
 40
0.5723275643
 41
-0.6763901644
 42
0.7896864073
  0
ENDSEC
  0
SECTION
  2
OBJECTS
  0
DICTIONARY
  5
C
100
AcDbDictionary
280
0
281
1
  3
ACAD_GROUP
350
D
  3
ACAD_MLINESTYLE
350
17
  3
ACAD_LAYOUT
350
1A
  3
ACAD_PLOTSETTINGS
350
19
  3
ACAD_PLOTSTYLENAME
350
E
  0
DICTIONARY
  5
D
102
{ACAD_REACTORS
330
C
102
}
100
AcDbDictionary
280
0
281
1
  0
ACDBDICTIONARYWDFLT
  5
E
102
{ACAD_REACTORS
330
C
102
}
100
AcDbDictionary
281
1
  3
Normal
350
F
100
AcDbDictionaryWithDefault
340
F
  0
DICTIONARY
  5
17
102
{ACAD_REACTORS
330
C
102
}
100
AcDbDictionary
280
0
281
1
  3
Standard
350
18
  0
DICTIONARY
  5
19
102
{ACAD_REACTORS
330
C
102
}
100
AcDbDictionary
281
1
  0
DICTIONARY
  5
1A
102
{ACAD_REACTORS
330
C
102
}
100
AcDbDictionary
281
1
  3
Model
350
289
  3
Layout1
350
28A
  0
ACDBPLACEHOLDER
  5
F
102
{ACAD_REACTORS
330
E
102
}
  0
MLINESTYLE
  5
18
102
{ACAD_REACTORS
330
17
102
}
100
AcDbMlineStyle
  2
STANDARD
 70
0
  3

 62
256
 51
90.0
 52
90.0
 71
2
 49
0.5
 62
256
  6
BYLAYER
 49
-0.5
 62
256
  6
BYLAYER
  0
LAYOUT
  5
289
102
{ACAD_REACTORS
330
1A
102
}
100
AcDbPlotSettings
  1

  2
none_device
  4
ISO_A4_(297.00_x_210.00_MM)
  6

 40
0.0
 41
0.0
 42
0.0
 43
0.0
 44
297.0
 45
210.0
 46
0.0
 47
0.0
 48
0.0
 49
0.0
140
0.0
141
0.0
142
1.0
143
1.0
 70
1024
 72
1
 73
0
 74
0
  7

 75
0
147
1.0
148
0.0
149
0.0
100
AcDbLayout
  1
Model
 70
0
 71
0
 10
0.0
 20
0.0
 11
297.0
 21
210.0
 12
0.0
 22
0.0
 32
0.0
 14
0.0
 24
0.0
 34
0.0
 15
0.0
 25
0.0
 35
0.0
146
0.0
 13
0.0
 23
0.0
 33
0.0
 16
1.0
 26
0.0
 36
0.0
 17
0.0
 27
1.0
 37
0.0
 76
0
330
214
345
0
346
0
  0
LAYOUT
  5
28A
102
{ACAD_REACTORS
330
1A
102
}
100
AcDbPlotSettings
  1

  2
none_device
  4
ISO_A4_(297.00_x_210.00_MM)
  6

 40
0.0
 41
0.0
 42
0.0
 43
0.0
 44
297.0
 45
210.0
 46
0.0
 47
0.0
 48
0.0
 49
0.0
140
0.0
141
0.0
142
1.0
143
1.0
 70
0
 72
1
 73
0
 74
0
  7

 75
0
147
1.0
148
0.0
149
0.0
100
AcDbLayout
  1
Layout1
 70
0
 71
1
 10
0.0
 20
0.0
 11
297.0
 21
210.0
 12
0.0
 22
0.0
 32
0.0
 14
0.0
 24
0.0
 34
0.0
 15
0.0
 25
0.0
 35
0.0
146
0.0
 13
0.0
 23
0.0
 33
0.0
 16
1.0
 26
0.0
 36
0.0
 17
0.0
 27
1.0
 37
0.0
 76
0
330
215
345
0
346
0
  0
ENDSEC
  0
EOF
