  0
SECTION
  2
HEADER
  9
$ACADVER
  1
AC1021
  9
$DWGCODEPAGE
  3
ANSI_1252
  9
$EXTMAX
 10
297.0
 20
210.0
 30
0.0
  9
$EXTMIN
 10
0.0
 20
0.0
 30
0.0
  9
$LIMMIN
 10
0.0
 20
0.0
  9
$LIMMAX
 10
297.0
 20
210.0
  9
$VIEWCTR
 10
148.5
 20
105.0
  9
$VIEWSIZE
 40
210.0
  9
$CLAYER
  8
0
  9
$LTSCALE
 40
16.335
  9
$CELTYPE
  6
BYLAYER
  9
$DIMSCALE
 40
1.0
  9
$DIMASZ
 40
3.0
  9
$DIMEXO
 40
0.5
  9
$DIMDLI
 40
11.286
  9
$DIMEXE
 40
1.5
  9
$DIMCEN
 40
2.673
  9
$DIMLFAC
 40
1.0
  9
$DIMBLK
  1
_FILLED
  9
$DIMALT
 70
0
  9
$DIMALTF
 40
25.4
  9
$DIMTXT
 40
3.0
  9
$DIMTOL
 70
1
  9
$DIMLIM
 70
0
  9
$DIMTFAC
 40
1.0
  9
$DIMTP
 40
0.01
  9
$DIMTM
 40
0.01
  9
$DIMGAP
 40
0.625
  9
$DIMDSEP
 70
44
  9
$AUNITS
 70
0
  9
$PDMODE
 70
3
  9
$PDSIZE
 40
3.0
  9
$HANDSEED
  5
2DF
  9
$TILEMODE
 70
1
  9
$MEASUREMENT
 70
1
  9
$INSUNITS
 70
4
  0
ENDSEC
  0
SECTION
  2
CLASSES
  0
CLASS
  1
ACDBDICTIONARYWDFLT
  2
AcDbDictionaryWithDefault
  3
AutoCAD 2000
 90
0
 91
1
280
0
281
0
  0
CLASS
  1
ACDBPLACEHOLDER
  2
AcDbPlaceHolder
  3
AutoCAD 2000
 90
0
 91
1
280
0
281
0
  0
CLASS
  1
LAYOUT
  2
AcDbLayout
  3
AutoCAD 2000
 90
0
 91
0
280
0
281
0
  0
ENDSEC
  0
SECTION
  2
TABLES
  0
TABLE
  2
VPORT
  5
8
100
AcDbSymbolTable
 70
2
  0
VPORT
  5
1F4
100
AcDbSymbolTableRecord
100
AcDbViewportTableRecord
  2
*ACTIVE
 70
0
 10
0.0
 20
0.0
 11
1.0
 21
1.0
 12
148.5
 22
105.0
 13
0.0
 23
0.0
 14
1.0
 24
1.0
 15
0.0
 25
0.0
 16
0.0
 26
0.0
 36
1.0
 17
0.0
 27
0.0
 37
0.0
 40
210.0
 41
1.4142857143
 42
50.0
 43
0.0
 44
0.0
 50
0.0
 51
0.0
 71
0
 72
100
 73
1
 74
1
 75
0
 76
0
 77
0
 78
0
  0
ENDTAB
  0
TABLE
  2
LTYPE
  5
5
100
AcDbSymbolTable
 70
6
  0
LTYPE
  5
14
100
AcDbSymbolTableRecord
100
AcDbLinetypeTableRecord
  2
BYBLOCK
 70
0
  3

 72
65
 73
0
 40
0.0
  0
LTYPE
  5
15
100
AcDbSymbolTableRecord
100
AcDbLinetypeTableRecord
  2
BYLAYER
 70
0
  3

 72
65
 73
0
 40
0.0
  0
LTYPE
  5
16
100
AcDbSymbolTableRecord
100
AcDbLinetypeTableRecord
  2
CONTINUOUS
 70
64
  3
Solid line
 72
65
 73
0
 40
0.0
  0
LTYPE
  5
1F5
100
AcDbSymbolTableRecord
100
AcDbLinetypeTableRecord
  2
CENTER
 70
64
  3
____ _ ____ _ ____ _ ____ _ ____ _ ____ _ ____
 72
65
 73
4
 40
0.6
 49
0.375
 74
0
 49
-0.075
 74
0
 49
0.075
 74
0
 49
-0.075
 74
0
  0
LTYPE
  5
1F6
100
AcDbSymbolTableRecord
100
AcDbLinetypeTableRecord
  2
HIDDEN
 70
64
  3
- - - - - - - - - - - - - - - - - - - -
 72
65
 73
2
 40
0.2
 49
0.1
 74
0
 49
-0.1
 74
0
  0
LTYPE
  5
1F7
100
AcDbSymbolTableRecord
100
AcDbLinetypeTableRecord
  2
PHANTOM
 70
64
  3
_____ _ _ _____ _ _ _____ _ _ _____
 72
65
 73
6
 40
0.8
 49
0.45
 74
0
 49
-0.05
 74
0
 49
0.1
 74
0
 49
-0.05
 74
0
 49
0.1
 74
0
 49
-0.05
 74
0
  0
LTYPE
  5
1F8
100
AcDbSymbolTableRecord
100
AcDbLinetypeTableRecord
  2
DOT
 70
64
  3
. . . . . . . . . . . . . . . . . . . .
 72
65
 73
2
 40
0.2
 49
0.1
 74
0
 49
-0.1
 74
0
  0
LTYPE
  5
1F9
100
AcDbSymbolTableRecord
100
AcDbLinetypeTableRecord
  2
DASHED
 70
64
  3
- - - - - - - - - - - - - - - - - - - -
 72
65
 73
2
 40
0.2
 49
0.1
 74
0
 49
-0.1
 74
0
  0
ENDTAB
  0
TABLE
  2
LAYER
  5
2
100
AcDbSymbolTable
 70
36
  0
LAYER
  5
10
100
AcDbSymbolTableRecord
100
AcDbLayerTableRecord
  2
0
 70
0
 62
7
  6
CONTINUOUS
370
-3
390
F
  0
LAYER
  5
1FA
100
AcDbSymbolTableRecord
100
AcDbLayerTableRecord
  2
DEFAULT_1
 70
0
 62
7
  6
CENTER
370
-3
390
F
  0
LAYER
  5
1FB
100
AcDbSymbolTableRecord
100
AcDbLayerTableRecord
  2
DEFAULT_2
 70
0
 62
7
  6
HIDDEN
370
-3
390
F
  0
LAYER
  5
1FC
100
AcDbSymbolTableRecord
100
AcDbLayerTableRecord
  2
DEFAULT_3
 70
0
 62
7
  6
PHANTOM
370
-3
390
F
  0
LAYER
  5
1FD
100
AcDbSymbolTableRecord
100
AcDbLayerTableRecord
  2
ASSI
 70
0
 62
7
  6
CONTINUOUS
370
-3
390
F
  0
LAYER
  5
1FE
100
AcDbSymbolTableRecord
100
AcDbLayerTableRecord
  2
COORDINATE
 70
0
 62
7
  6
CONTINUOUS
370
-3
390
F
  0
LAYER
  5
1FF
100
AcDbSymbolTableRecord
100
AcDbLayerTableRecord
  2
COORD_ORIGINE
 70
0
 62
7
  6
CONTINUOUS
370
-3
390
F
  0
LAYER
  5
200
100
AcDbSymbolTableRecord
100
AcDbLayerTableRecord
  2
COPY_PUBLISH
 70
0
 62
7
  6
CONTINUOUS
370
-3
390
F
  0
LAYER
  5
201
100
AcDbSymbolTableRecord
100
AcDbLayerTableRecord
  2
COSMETIC
 70
0
 62
7
  6
CONTINUOUS
370
-3
390
F
  0
LAYER
  5
202
100
AcDbSymbolTableRecord
100
AcDbLayerTableRecord
  2
COSMETICI
 70
0
 62
7
  6
CONTINUOUS
370
-3
390
F
  0
LAYER
  5
203
100
AcDbSymbolTableRecord
100
AcDbLayerTableRecord
  2
CURVE
 70
0
 62
7
  6
CONTINUOUS
370
-3
390
F
  0
LAYER
  5
204
100
AcDbSymbolTableRecord
100
AcDbLayerTableRecord
  2
DRAFT
 70
0
 62
7
  6
CONTINUOUS
370
-3
390
F
  0
LAYER
  5
205
100
AcDbSymbolTableRecord
100
AcDbLayerTableRecord
  2
IGES
 70
0
 62
7
  6
CONTINUOUS
370
-3
390
F
  0
LAYER
  5
206
100
AcDbSymbolTableRecord
100
AcDbLayerTableRecord
  2
IMPORT_IGES
 70
0
 62
7
  6
CONTINUOUS
370
-3
390
F
  0
LAYER
  5
207
100
AcDbSymbolTableRecord
100
AcDbLayerTableRecord
  2
LIVELLO_1
 70
0
 62
7
  6
CONTINUOUS
370
-3
390
F
  0
LAYER
  5
208
100
AcDbSymbolTableRecord
100
AcDbLayerTableRecord
  2
NOTE
 70
0
 62
7
  6
CONTINUOUS
370
-3
390
F
  0
LAYER
  5
209
100
AcDbSymbolTableRecord
100
AcDbLayerTableRecord
  2
PIANI
 70
0
 62
7
  6
CONTINUOUS
370
-3
390
F
  0
LAYER
  5
20A
100
AcDbSymbolTableRecord
100
AcDbLayerTableRecord
  2
PIANI_ORIGINE
 70
0
 62
7
  6
CONTINUOUS
370
-3
390
F
  0
LAYER
  5
20B
100
AcDbSymbolTableRecord
100
AcDbLayerTableRecord
  2
PIANI_RIFERIMENTO
 70
0
 62
7
  6
CONTINUOUS
370
-3
390
F
  0
LAYER
  5
20C
100
AcDbSymbolTableRecord
100
AcDbLayerTableRecord
  2
PUNTI
 70
0
 62
7
  6
CONTINUOUS
370
-3
390
F
  0
LAYER
  5
20D
100
AcDbSymbolTableRecord
100
AcDbLayerTableRecord
  2
RACCORDO
 70
0
 62
7
  6
CONTINUOUS
370
-3
390
F
  0
LAYER
  5
20E
100
AcDbSymbolTableRecord
100
AcDbLayerTableRecord
  2
SIMBOLI
 70
0
 62
7
  6
CONTINUOUS
370
-3
390
F
  0
LAYER
  5
20F
100
AcDbSymbolTableRecord
100
AcDbLayerTableRecord
  2
SMUSSO
 70
0
 62
7
  6
CONTINUOUS
370
-3
390
F
  0
LAYER
  5
210
100
AcDbSymbolTableRecord
100
AcDbLayerTableRecord
  2
SNAPLINE
 70
0
 62
7
  6
CONTINUOUS
370
-3
390
F
  0
LAYER
  5
211
100
AcDbSymbolTableRecord
100
AcDbLayerTableRecord
  2
SUPERFICI
 70
0
 62
7
  6
CONTINUOUS
370
-3
390
F
  0
LAYER
  5
212
100
AcDbSymbolTableRecord
100
AcDbLayerTableRecord
  2
TRASH
 70
0
 62
7
  6
CONTINUOUS
370
-3
390
F
  0
LAYER
  5
213
100
AcDbSymbolTableRecord
100
AcDbLayerTableRecord
  2
WHITE
 70
0
 62
7
  6
CONTINUOUS
370
-3
390
F
  0
LAYER
  5
214
100
AcDbSymbolTableRecord
100
AcDbLayerTableRecord
  2
XSEC_DATUMS
 70
0
 62
7
  6
CONTINUOUS
370
-3
390
F
  0
ENDTAB
  0
TABLE
  2
STYLE
  5
3
100
AcDbSymbolTable
 70
1
  0
STYLE
  5
11
100
AcDbSymbolTableRecord
100
AcDbTextStyleTableRecord
  2
STANDARD
 70
0
 40
0.0
 41
0.8
 50
0.0
 71
0
 42
0.2
  3
txt
  4

  0
STYLE
  5
215
100
AcDbSymbolTableRecord
100
AcDbTextStyleTableRecord
  2
TEXTSTYLE_1
 70
0
 40
0.0
 41
0.8
 50
0.0
 71
0
 42
0.2
  3
gdt
  4

  0
ENDTAB
  0
TABLE
  2
VIEW
  5
6
100
AcDbSymbolTable
 70
0
  0
ENDTAB
  0
TABLE
  2
UCS
  5
7
100
AcDbSymbolTable
 70
0
  0
ENDTAB
  0
TABLE
  2
APPID
  5
9
100
AcDbSymbolTable
 70
1
  0
APPID
  5
216
100
AcDbSymbolTableRecord
100
AcDbRegAppTableRecord
  2
ACAD
 70
0
  0
ENDTAB
  0
TABLE
  2
BLOCK_RECORD
  5
1
100
AcDbSymbolTable
 70
0
  0
BLOCK_RECORD
  5
217
100
AcDbSymbolTableRecord
100
AcDbBlockTableRecord
  2
*Model_Space
  0
BLOCK_RECORD
  5
218
100
AcDbSymbolTableRecord
100
AcDbBlockTableRecord
  2
*Paper_Space
  0
ENDTAB
  0
TABLE
  2
DIMSTYLE
  5
A
100
AcDbSymbolTable
 70
1
100
AcDbDimStyleTable
 71
0
  0
DIMSTYLE
105
219
100
AcDbSymbolTableRecord
100
AcDbDimStyleTableRecord
  2
STANDARD
 70
0
  3

  4

 40
1.0
 41
3.0
 42
0.5
 43
0.38
 44
1.5
 45
0.0
 46
0.0
 47
0.01
 48
0.01
140
3.0
141
0.09
142
0.0
143
25.4
144
1.0
145
0.0
146
1.0
147
0.625
 71
1.0
 72
0.0
 73
0
 74
0
 75
0
 76
0
 77
1
 78
8
170
0
171
1
172
0
173
0
174
0
175
0
176
0
177
0
178
0
270
2
271
2
272
2
273
2
274
2
275
0
280
0
281
0
282
0
283
1
284
8
285
0
286
0
287
3
288
0
340
11
278
44
  0
ENDTAB
  0
ENDSEC
  0
SECTION
  2
BLOCKS
  0
BLOCK
  5
20
100
AcDbEntity
  8
0
100
AcDbBlockBegin
  2
*Model_Space
 70
0
 10
0.0
 20
0.0
 30
0.0
  3
*Model_Space
  1

  0
ENDBLK
  5
21
100
AcDbEntity
  8
0
100
AcDbBlockEnd
  0
BLOCK
  5
1C
100
AcDbEntity
  8
0
100
AcDbBlockBegin
  2
*Paper_Space
 70
0
 10
0.0
 20
0.0
 30
0.0
  3
*Paper_Space
  1

  0
ENDBLK
  5
1D
100
AcDbEntity
  8
0
100
AcDbBlockEnd
  0
ENDSEC
  0
SECTION
  2
ENTITIES
  0
LWPOLYLINE
  5
21A
100
AcDbEntity
  8
ASSI
100
AcDbPolyline
 62
7
  6
CONTINUOUS
 90
16
 70
0
 10
-9.1056448816
 20
21.3626052723
 10
-9.1565688308
 20
21.3275468238
 10
-9.2597616875
 20
21.2470151351
 10
-9.3577098962
 20
21.1578757261
 10
-9.4502337272
 20
21.0609123782
 10
-9.5370599801
 20
20.9568663415
 10
-9.6176929759
 20
20.8466757624
 10
-9.6917365708
 20
20.7311289264
 10
-9.7587774608
 20
20.6109750013
 10
-9.8182207696
 20
20.4872808417
 10
-9.8696465231
 20
20.3607922251
 10
-9.9125926414
 20
20.2322606336
 10
-9.9465217748
 20
20.1026014219
 10
-9.9709475514
 20
19.97243723
 10
-9.9852987741
 20
19.8423330494
 10
-9.9882021227
 20
19.7866963109
  0
LINE
  5
21B
100
AcDbEntity
  8
ASSI
100
AcDbLine
 62
7
  6
CONTINUOUS
 10
-9.105941774
 20
21.3624101545
 11
-6.2772050518
 21
23.2279354194
  0
LINE
  5
21C
100
AcDbEntity
  8
ASSI
100
AcDbLine
 62
253
  6
CONTINUOUS
 10
-8.8491603193
 20
21.342007606
 11
-6.0286885073
 21
23.2020822404
  0
LWPOLYLINE
  5
21D
100
AcDbEntity
  8
ASSI
100
AcDbPolyline
 62
253
  6
CONTINUOUS
 90
15
 70
0
 10
-9.1056449694
 20
21.3626054057
 10
-9.0908272732
 20
21.3711974697
 10
-9.0759168952
 20
21.3778363655
 10
-9.0601776398
 20
21.3830124084
 10
-9.0436627017
 20
21.3867081047
 10
-9.0264278974
 20
21.3889109639
 10
-9.0085314761
 20
21.3896135408
 10
-8.9900339233
 20
21.388813461
 10
-8.9709977562
 20
21.3865134284
 10
-8.9514873121
 20
21.3827212167
 10
-8.9315685316
 20
21.3774496425
 10
-8.9113087352
 20
21.3707165225
 10
-8.8907763959
 20
21.362544613
 10
-8.8700409079
 20
21.3529615328
 10
-8.8491723519
 20
21.3419996706
  0
LWPOLYLINE
  5
21E
100
AcDbEntity
  8
ASSI
100
AcDbPolyline
 62
7
  6
CONTINUOUS
 90
12
 70
0
 10
5.3887334434
 20
-23.2463451757
 10
5.4062476947
 20
-23.2562293416
 10
5.4907555483
 20
-23.2966939547
 10
5.5797986448
 20
-23.3278229861
 10
5.6726869558
 20
-23.3492902426
 10
5.7692306483
 20
-23.360872362
 10
5.8687080984
 20
-23.3622278682
 10
5.9703487797
 20
-23.3531170839
 10
6.0742372111
 20
-23.333218819
 10
6.1801368683
 20
-23.3020923761
 10
6.2872601616
 20
-23.2594488251
 10
6.3340749474
 20
-23.2372426445
  0
LINE
  5
21F
100
AcDbEntity
  8
ASSI
100
AcDbLine
 62
7
  6
CONTINUOUS
 10
5.390242225
 20
-23.2472197705
 11
-9.5356158996
 21
-14.6292163542
  0
LINE
  5
220
100
AcDbEntity
  8
ASSI
100
AcDbLine
 62
253
  6
CONTINUOUS
 10
5.0769108223
 20
-22.6083649207
 11
-9.841738941
 21
-13.9945235224
  0
LINE
  5
221
100
AcDbEntity
  8
ASSI
100
AcDbLine
 62
253
  6
CONTINUOUS
 10
-9.5397434997
 20
-14.6268061246
 11
-9.5693563659
 21
-14.607852906
  0
LWPOLYLINE
  5
222
100
AcDbEntity
  8
ASSI
100
AcDbPolyline
 62
253
  6
CONTINUOUS
 90
18
 70
0
 10
-9.5693563659
 20
-14.607852906
 10
-9.5976634308
 20
-14.5867401708
 10
-9.6246178829
 20
-14.5635031009
 10
-9.6501737682
 20
-14.538181354
 10
-9.6742877186
 20
-14.5108178366
 10
-9.6969203721
 20
-14.48145784
 10
-9.718033265
 20
-14.4501510465
 10
-9.7375903722
 20
-14.4169504611
 10
-9.7555597656
 20
-14.3819111125
 10
-9.7719111238
 20
-14.3450915202
 10
-9.7866161612
 20
-14.3065544014
 10
-9.7996502429
 20
-14.2663656462
 10
-9.8109912204
 20
-14.2245938318
 10
-9.8206200289
 20
-14.1813089404
 10
-9.8285210716
 20
-14.1365830244
 10
-9.8346811542
 20
-14.090491155
 10
-9.8390895976
 20
-14.0431113723
 10
-9.841738941
 20
-13.9945235224
  0
LINE
  5
223
100
AcDbEntity
  8
ASSI
100
AcDbLine
 62
7
  6
CONTINUOUS
 10
-4.0270980314
 20
22.0463889854
 11
-4.2072644778
 21
21.632363705
  0
LINE
  5
224
100
AcDbEntity
  8
CURVE
100
AcDbLine
 62
253
  6
CONTINUOUS
 10
-1.0985463177
 20
-14.2571955719
 11
-1.3079100915
 21
-14.1363115529
  0
LINE
  5
225
100
AcDbEntity
  8
CURVE
100
AcDbLine
 62
253
  6
CONTINUOUS
 10
-2.7197569029
 20
-13.3211288986
 11
-2.9290957725
 21
-13.2002592589
  0
LINE
  5
226
100
AcDbEntity
  8
CURVE
100
AcDbLine
 62
253
  6
CONTINUOUS
 10
-0.1642479024
 20
-13.7010583192
 11
-1.125484515
 21
-13.1460523462
  0
LINE
  5
227
100
AcDbEntity
  8
CURVE
100
AcDbLine
 62
253
  6
CONTINUOUS
 10
-1.7854335424
 20
-12.7650060488
 11
-2.7466951002
 21
-12.2099856728
  0
LWPOLYLINE
  5
228
100
AcDbEntity
  8
ASSI
100
AcDbPolyline
 62
7
  6
CONTINUOUS
 90
12
 70
0
 10
-9.9881631314
 20
-13.7916909072
 10
-9.9795816566
 20
-13.9030146273
 10
-9.961574634
 20
-14.0118649141
 10
-9.9348836055
 20
-14.1136967155
 10
-9.9002367044
 20
-14.2080238988
 10
-9.8581688315
 20
-14.295021533
 10
-9.8088625499
 20
-14.3751801346
 10
-9.7529235597
 20
-14.4480234056
 10
-9.6909846006
 20
-14.5132175663
 10
-9.6231003609
 20
-14.57095306
 10
-9.5497300488
 20
-14.6208773207
 10
-9.5342881153
 20
-14.6299801082
  0
LWPOLYLINE
  5
229
100
AcDbEntity
  8
ASSI
100
AcDbPolyline
 62
253
  6
CONTINUOUS
 90
15
 70
0
 10
-9.9881634063
 20
-13.7916909171
 10
-9.9879205922
 20
-13.7965921635
 10
-9.9860046972
 20
-13.813804547
 10
-9.9824425107
 20
-13.8308845117
 10
-9.9772458197
 20
-13.84777554
 10
-9.9704318201
 20
-13.8644217397
 10
-9.9620230594
 20
-13.8807680287
 10
-9.9520473621
 20
-13.8967603172
 10
-9.9405377378
 20
-13.9123456869
 10
-9.9275322715
 20
-13.9274725659
 10
-9.9130739984
 20
-13.9420908995
 10
-9.8972107608
 20
-13.9561523157
 10
-9.8799950499
 20
-13.9696102855
 10
-9.8614838324
 20
-13.9824202766
 10
-9.8417383618
 20
-13.9945399006
  0
LWPOLYLINE
  5
22A
100
AcDbEntity
  8
ASSI
100
AcDbPolyline
 62
7
  6
CONTINUOUS
 90
9
 70
0
 10
-10.2819829402
 20
3.1130261342
 10
-10.2808958311
 20
3.0877744803
 10
-10.2737287071
 20
3.0434134804
 10
-10.2596544494
 20
2.9994467355
 10
-10.2383505699
 20
2.9563764241
 10
-10.2100291729
 20
2.9155467697
 10
-10.1750422057
 20
2.8778242991
 10
-10.1335832544
 20
2.8436647235
 10
-10.0943303595
 20
2.8182837042
  0
LWPOLYLINE
  5
22B
100
AcDbEntity
  8
ASSI
100
AcDbPolyline
 62
253
  6
CONTINUOUS
 90
13
 70
0
 10
-9.8417389493
 20
-13.9945235177
 10
-9.8878962996
 20
-12.6479504214
 10
-9.9301132754
 20
-11.2988764926
 10
-9.9683896515
 20
-9.9473172077
 10
-10.0027250136
 20
-8.5932977357
 10
-10.0331195194
 20
-7.2368239737
 10
-10.0595736134
 20
-5.8778823724
 10
-10.0820874107
 20
-4.5164888979
 10
-10.1006602454
 20
-3.1526584645
 10
-10.1152909225
 20
-1.7863756651
 10
-10.1259786404
 20
-0.4176455289
 10
-10.1327233
 20
0.9535062946
 10
-10.1355245502
 20
2.3270644043
  0
LWPOLYLINE
  5
22C
100
AcDbEntity
  8
ASSI
100
AcDbPolyline
 62
253
  6
CONTINUOUS
 90
17
 70
0
 10
-10.2819829594
 20
3.1130298444
 10
-10.2819641221
 20
3.110793924
 10
-10.2810679878
 20
3.0959350566
 10
-10.27883392
 20
3.0811186748
 10
-10.2752679423
 20
3.0663842587
 10
-10.2703797077
 20
3.0517715937
 10
-10.2641823199
 20
3.0373198704
 10
-10.2566922153
 20
3.0230671825
 10
-10.2479290488
 20
3.0090513116
 10
-10.2379165079
 20
2.9953105456
 10
-10.2266824168
 20
2.9818827057
 10
-10.2142581123
 20
2.9688047224
 10
-10.2006763511
 20
2.9561106716
 10
-10.1859717168
 20
2.9438327379
 10
-10.170182674
 20
2.9320033757
 10
-10.1533519761
 20
2.9206550395
 10
-10.1355245484
 20
2.9098182682
  0
LWPOLYLINE
  5
22D
100
AcDbEntity
  8
ASSI
100
AcDbPolyline
 62
7
  6
CONTINUOUS
 90
10
 70
0
 10
-10.2819831511
 20
2.5317683311
 10
-10.2775755859
 20
0.7482613777
 10
-10.2660173048
 20
-1.0926762622
 10
-10.2473418675
 20
-2.929288721
 10
-10.2215496171
 20
-4.7615374571
 10
-10.1886409968
 20
-6.5893862676
 10
-10.1486165618
 20
-8.4127996637
 10
-10.1014769889
 20
-10.2317415758
 10
-10.0472231652
 20
-12.0461734555
 10
-9.9881644446
 20
-13.7916619606
  0
LWPOLYLINE
  5
22E
100
AcDbEntity
  8
ASSI
100
AcDbPolyline
 62
253
  6
CONTINUOUS
 90
13
 70
0
 10
-10.1355245503
 20
2.9098182613
 10
-10.1327233001
 20
4.286738197
 10
-10.1259786404
 20
5.6659641543
 10
-10.1152909225
 20
7.0474803267
 10
-10.1006602454
 20
8.4312599622
 10
-10.0820874107
 20
9.8172980939
 10
-10.0595736134
 20
11.2056117137
 10
-10.0331195194
 20
12.5961861259
 10
-10.0027250136
 20
13.98900451
 10
-9.9683896515
 20
15.3840809287
 10
-9.9301132754
 20
16.7814096675
 10
-9.8878962996
 20
18.1809650788
 10
-9.8417389493
 20
19.5827314259
  0
LWPOLYLINE
  5
22F
100
AcDbEntity
  8
ASSI
100
AcDbPolyline
 62
253
  6
CONTINUOUS
 90
22
 70
0
 10
-10.1355361982
 20
2.3270711297
 10
-10.1351522817
 20
2.3394339806
 10
-10.1339876475
 20
2.3521810444
 10
-10.1320487427
 20
2.3652417591
 10
-10.1293463002
 20
2.3785438268
 10
-10.1258952799
 20
2.3920136133
 10
-10.1217147852
 20
2.4055765553
 10
-10.1168279578
 20
2.4191575746
 10
-10.1112618491
 20
2.4326814933
 10
-10.1050472709
 20
2.4460734487
 10
-10.0982186246
 20
2.4592593093
 10
-10.0908137107
 20
2.4721660847
 10
-10.0828735196
 20
2.4847223289
 10
-10.0744420048
 20
2.4968585366
 10
-10.0655658395
 20
2.5085075281
 10
-10.0562941582
 20
2.5196048201
 10
-10.0466782846
 20
2.5300889839
 10
-10.0367714479
 20
2.5399019846
 10
-10.0266284875
 20
2.5489895027
 10
-10.0163055502
 20
2.5573012346
 10
-10.0058597787
 20
2.5647911713
 10
-9.9953489956
 20
2.5714178527
  0
LWPOLYLINE
  5
230
100
AcDbEntity
  8
ASSI
100
AcDbPolyline
 62
7
  6
CONTINUOUS
 90
10
 70
0
 10
-9.9881901084
 20
19.7870673452
 10
-10.0474121175
 20
17.9656279961
 10
-10.1016391999
 20
16.0865289426
 10
-10.1487533612
 20
14.2114025559
 10
-10.1887535421
 20
12.3402885318
 10
-10.2216388918
 20
10.473223862
 10
-10.2474086822
 20
8.6102448198
 10
-10.2660622969
 20
6.7513882462
 10
-10.2775992204
 20
4.8966932034
 10
-10.2819831518
 20
3.1134006693
  0
LWPOLYLINE
  5
231
100
AcDbEntity
  8
ASSI
100
AcDbPolyline
 62
253
  6
CONTINUOUS
 90
37
 70
0
 10
-9.8417389411
 20
19.5827314213
 10
-9.8390895976
 20
19.6344511905
 10
-9.8346811543
 20
19.6870415462
 10
-9.8285210717
 20
19.7404140271
 10
-9.820620029
 20
19.7944786957
 10
-9.8109912206
 20
19.8491448095
 10
-9.7996502431
 20
19.9043210016
 10
-9.7866161615
 20
19.9599155163
 10
-9.7719111241
 20
20.0158339581
 10
-9.7555597659
 20
20.0719799588
 10
-9.7375903725
 20
20.1282583528
 10
-9.7180332654
 20
20.1845753912
 10
-9.6969203725
 20
20.2408365023
 10
-9.674287719
 20
20.2969472884
 10
-9.6501737687
 20
20.3528134417
 10
-9.6246178834
 20
20.4083409186
 10
-9.5976634313
 20
20.4634369285
 10
-9.5693563665
 20
20.5180085508
 10
-9.5397435003
 20
20.5719626602
 10
-9.5088753471
 20
20.6252087795
 10
-9.4768044113
 20
20.6776575482
 10
-9.4435837759
 20
20.7292193671
 10
-9.409270369
 20
20.7798075065
 10
-9.3739223838
 20
20.8293375172
 10
-9.3375975955
 20
20.8777256933
 10
-9.3003579464
 20
20.9248909767
 10
-9.2622668087
 20
20.9707543516
 10
-9.2233863816
 20
21.0152381968
 10
-9.1837823178
 20
21.0582686611
 10
-9.1435226017
 20
21.09977296
 10
-9.1026748197
 20
21.1396788636
 10
-9.0613094035
 20
21.1779190541
 10
-9.0194960749
 20
21.2144304685
 10
-8.9773027055
 20
21.2491515266
 10
-8.934800043
 20
21.2820239992
 10
-8.8920616204
 20
21.3129932327
 10
-8.8491602472
 20
21.3420075643
  0
LINE
  5
232
100
AcDbEntity
  8
ASSI
100
AcDbLine
 62
253
  6
CONTINUOUS
 10
-10.079997532
 20
2.7200733303
 11
-10.0773302135
 21
2.7289917325
  0
LWPOLYLINE
  5
233
100
AcDbEntity
  8
ASSI
100
AcDbPolyline
 62
253
  6
CONTINUOUS
 90
7
 70
0
 10
-10.0773302135
 20
2.7289917325
 10
-10.0738685749
 20
2.7378456346
 10
-10.0696402827
 20
2.7465643421
 10
-10.0646389348
 20
2.7551470176
 10
-10.0588709333
 20
2.7635944985
 10
-10.0523831502
 20
2.7718386022
 10
-10.0451695306
 20
2.779877715
  0
LINE
  5
234
100
AcDbEntity
  8
CURVE
100
AcDbLine
 62
253
  6
CONTINUOUS
 10
-2.7516750525
 20
-11.9913063822
 11
-1.7904134947
 21
-12.5463267582
  0
LINE
  5
235
100
AcDbEntity
  8
CURVE
100
AcDbLine
 62
253
  6
CONTINUOUS
 10
-1.1304644673
 20
-12.9273730555
 11
-0.1692278547
 21
-13.4823790285
  0
LINE
  5
236
100
AcDbEntity
  8
CURVE
100
AcDbLine
 62
253
  6
CONTINUOUS
 10
-0.1138292318
 20
-12.7233200573
 11
-1.1478059171
 21
-12.126314878
  0
LINE
  5
237
100
AcDbEntity
  8
CURVE
100
AcDbLine
 62
253
  6
CONTINUOUS
 10
-1.7350398169
 20
-11.787253384
 11
-2.7690165023
 21
-11.1902482046
  0
LINE
  5
238
100
AcDbEntity
  8
CURVE
100
AcDbLine
 62
253
  6
CONTINUOUS
 10
-2.9828472167
 20
-10.8505326602
 11
-1.7395316618
 21
-11.5684074792
  0
LINE
  5
239
100
AcDbEntity
  8
CURVE
100
AcDbLine
 62
253
  6
CONTINUOUS
 10
-1.3616615357
 20
-11.7865849542
 11
-0.1183210766
 21
-12.5044741526
  0
LWPOLYLINE
  5
23A
100
AcDbEntity
  8
ASSI
100
AcDbPolyline
 62
253
  6
CONTINUOUS
 90
12
 70
0
 10
-10.1355361982
 20
2.9098249866
 10
-10.1351522826
 20
2.8979054893
 10
-10.1339876514
 20
2.8865033299
 10
-10.1320487514
 20
2.8756816253
 10
-10.1293463154
 20
2.8655002793
 10
-10.1258953028
 20
2.8560156511
 10
-10.1217148168
 20
2.8472802429
 10
-10.1168279986
 20
2.8393424098
 10
-10.1112618992
 20
2.8322460918
 10
-10.1050473299
 20
2.8260305708
 10
-10.0982186915
 20
2.8207302529
 10
-10.0943305857
 20
2.8182833137
  0
LWPOLYLINE
  5
23B
100
AcDbEntity
  8
ASSI
100
AcDbPolyline
 62
253
  6
CONTINUOUS
 90
15
 70
0
 10
-9.9882021227
 20
19.7866963109
 10
-9.9879203163
 20
19.7713365835
 10
-9.9860044111
 20
19.755421911
 10
-9.9824422158
 20
19.7395552276
 10
-9.9772455178
 20
19.7237890362
 10
-9.9704315127
 20
19.7081755068
 10
-9.9620227482
 20
19.6927663044
 10
-9.9520470486
 20
19.6776124179
 10
-9.9405374235
 20
19.6627639914
 10
-9.9275319581
 20
19.6482701581
 10
-9.9130736874
 20
19.634178878
 10
-9.8972104535
 20
19.620536779
 10
-9.8799947478
 20
19.6073890026
 10
-9.8614835368
 20
19.5947790546
 10
-9.8417380739
 20
19.5827486613
  0
LWPOLYLINE
  5
23C
100
AcDbEntity
  8
ASSI
100
AcDbPolyline
 62
7
  6
CONTINUOUS
 90
8
 70
0
 10
-10.1683496716
 20
2.7751379081
 10
-10.1988671902
 20
2.7442065957
 10
-10.2248735415
 20
2.7109261568
 10
-10.2461606572
 20
2.6756748346
 10
-10.2624445396
 20
2.6392124812
 10
-10.2737137705
 20
2.6022313267
 10
-10.2801491534
 20
2.5651649733
 10
-10.281982967
 20
2.5316132756
  0
LINE
  5
23D
100
AcDbEntity
  8
ASSI
100
AcDbLine
 62
253
  6
CONTINUOUS
 10
-10.0451695306
 20
2.779877715
 11
-10.0387672204
 21
2.7862012084
  0
LINE
  5
23E
100
AcDbEntity
  8
ASSI
100
AcDbLine
 62
7
  6
CONTINUOUS
 10
-10.1333942005
 20
2.8035334031
 11
-10.1683496716
 21
2.7751379081
  0
LINE
  5
23F
100
AcDbEntity
  8
ASSI
100
AcDbLine
 62
7
  6
CONTINUOUS
 10
-10.1017647449
 20
2.8245961516
 11
-10.1333942005
 21
2.8035334031
  0
LWPOLYLINE
  5
240
100
AcDbEntity
  8
ASSI
100
AcDbPolyline
 62
253
  6
CONTINUOUS
 90
37
 70
0
 10
6.0928622178
 20
12.7146710612
 10
6.0489477655
 20
12.686241669
 10
6.0052035251
 20
12.6558531823
 10
5.961702306
 20
12.6235572641
 10
5.9185160023
 20
12.5894095138
 10
5.8757170006
 20
12.5534672147
 10
5.8333780892
 20
12.5157891081
 10
5.7915690168
 20
12.4764382415
 10
5.7503601882
 20
12.4354819483
 10
5.7098240261
 20
12.392989666
 10
5.6700286257
 20
12.3490341148
 10
5.6310395288
 20
12.3036892104
 10
5.5929234379
 20
12.2570299734
 10
5.5557438286
 20
12.2091353602
 10
5.51956254
 20
12.1600864886
 10
5.4844415402
 20
12.1099646431
 10
5.4504391484
 20
12.0588542006
 10
5.4176121668
 20
12.0068419632
 10
5.3860174948
 20
11.9540153268
 10
5.3557077871
 20
11.900463565
 10
5.3267334076
 20
11.8462772417
 10
5.2991445338
 20
11.791547539
 10
5.2729872894
 20
11.7363672792
 10
5.2483048729
 20
11.6808293511
 10
5.2251395022
 20
11.6250261493
 10
5.2035298215
 20
11.5690518772
 10
5.1835116756
 20
11.5130010367
 10
5.1651193078
 20
11.4569668629
 10
5.1483832253
 20
11.4010429971
 10
5.1333315279
 20
11.3453247124
 10
5.1199906084
 20
11.2899073621
 10
5.1083828246
 20
11.2348852205
 10
5.0985270318
 20
11.1803501647
 10
5.0904399559
 20
11.1263929092
 10
5.0841351675
 20
11.0731039796
 10
5.0796229694
 20
11.0205735303
 10
5.0769108223
 20
10.9688900229
  0
LWPOLYLINE
  5
241
100
AcDbEntity
  8
ASSI
100
AcDbPolyline
 62
253
  6
CONTINUOUS
 90
37
 70
0
 10
6.4586825691
 20
12.1100024924
 10
6.4291664916
 20
12.0910926764
 10
6.3998590683
 20
12.070946794
 10
6.3707602992
 20
12.0495648451
 10
6.3418212867
 20
12.0269063751
 10
6.3130909283
 20
12.0030118386
 10
6.2847159174
 20
11.9780025998
 10
6.2566983762
 20
11.9518730773
 10
6.2290361825
 20
11.9246288523
 10
6.2018696619
 20
11.8964080332
 10
6.1752017464
 20
11.8672060665
 10
6.1490295042
 20
11.8370275055
 10
6.1234844654
 20
11.8060241192
 10
6.0985697492
 20
11.7741917544
 10
6.0742822364
 20
11.7415345642
 10
6.0507441001
 20
11.7082167761
 10
6.0279589705
 20
11.6742348244
 10
6.0059232173
 20
11.6395922749
 10
5.984748122
 20
11.6044640527
 10
5.9644380773
 20
11.5688477053
 10
5.9449886906
 20
11.5327456853
 10
5.9264980658
 20
11.4963402754
 10
5.9089711711
 20
11.4596302054
 10
5.8924030384
 20
11.4226167455
 10
5.8768768675
 20
11.3854859896
 10
5.8623978741
 20
11.3482373788
 10
5.8489608425
 20
11.3108714718
 10
5.8366333247
 20
11.2735760392
 10
5.8254208077
 20
11.2363508814
 10
5.8153178045
 20
11.1991961979
 10
5.8063754069
 20
11.1623003571
 10
5.7985995719
 20
11.1256640596
 10
5.7919843424
 20
11.0892866049
 10
5.7865629393
 20
11.05335426
 10
5.7823464364
 20
11.0179291141
 10
5.7793237599
 20
10.9829490781
 10
5.7774949098
 20
10.9484141521
  0
LINE
  5
242
100
AcDbEntity
  8
ASSI
100
AcDbLine
 62
253
  6
CONTINUOUS
 10
9.0135463498
 20
14.5168843574
 11
6.0928622898
 21
12.7146710196
  0
LINE
  5
243
100
AcDbEntity
  8
ASSI
100
AcDbLine
 62
253
  6
CONTINUOUS
 10
9.3981731445
 20
13.9238204242
 11
6.4586825691
 21
12.1100024924
  0
LWPOLYLINE
  5
244
100
AcDbEntity
  8
ASSI
100
AcDbPolyline
 62
253
  6
CONTINUOUS
 90
28
 70
0
 10
5.7774949098
 20
10.9484141521
 10
5.7562567233
 20
10.9382017322
 10
5.7339395044
 20
10.9287102798
 10
5.7106171006
 20
10.9199712019
 10
5.6863666855
 20
10.9120134163
 10
5.6612685035
 20
10.904863255
 10
5.6354056043
 20
10.8985443779
 10
5.6088635681
 20
10.8930776942
 10
5.5817302221
 20
10.8884812929
 10
5.5540953505
 20
10.8847703837
 10
5.5260503968
 20
10.8819572459
 10
5.4976881615
 20
10.880051188
 10
5.469102495
 20
10.8790585173
 10
5.4403879871
 20
10.8789825184
 10
5.4116396537
 20
10.8798234429
 10
5.382952623
 20
10.8815785082
 10
5.3544218201
 20
10.8842419067
 10
5.3261416531
 20
10.8878048252
 10
5.2982057009
 20
10.8922554742
 10
5.2707064033
 20
10.8975791265
 10
5.2437347554
 20
10.9037581661
 10
5.2173800059
 20
10.9107721466
 10
5.1917293627
 20
10.9185978589
 10
5.1668677034
 20
10.9272094076
 10
5.142877295
 20
10.9365782974
 10
5.1198375218
 20
10.9466735266
 10
5.0978246219
 20
10.9574616901
 10
5.0769114361
 20
10.96890709
  0
LWPOLYLINE
  5
245
100
AcDbEntity
  8
RACCORDO
100
AcDbPolyline
 62
253
  6
CONTINUOUS
 90
8
 70
0
 10
-2.4804113566
 20
-6.2503260151
 10
-2.3953771351
 20
-6.2832169923
 10
-2.312378645
 20
-6.3043407123
 10
-2.2324189436
 20
-6.3134455268
 10
-2.1564302306
 20
-6.3104307231
 10
-2.085271042
 20
-6.2953226524
 10
-2.0194039438
 20
-6.2680736908
 10
-1.9600985096
 20
-6.2290468588
  0
LWPOLYLINE
  5
246
100
AcDbEntity
  8
RACCORDO
100
AcDbPolyline
 62
7
  6
CONTINUOUS
 90
9
 70
0
 10
-2.4666762808
 20
-6.2846297433
 10
-2.3878776173
 20
-6.3175099442
 10
-2.3102849328
 20
-6.3415311571
 10
-2.2341659009
 20
-6.3566820447
 10
-2.160185528
 20
-6.3628803794
 10
-2.0894151811
 20
-6.3602130945
 10
-2.0225104467
 20
-6.3490292311
 10
-1.9597196659
 20
-6.3297111989
 10
-1.9014748357
 20
-6.3027141623
  0
LINE
  5
247
100
AcDbEntity
  8
RACCORDO
100
AcDbLine
 62
253
  6
CONTINUOUS
 10
-2.5664704543
 20
-6.2060579197
 11
-2.4804113566
 21
-6.2503260151
  0
LINE
  5
248
100
AcDbEntity
  8
RACCORDO
100
AcDbLine
 62
7
  6
CONTINUOUS
 10
-2.5462055283
 20
-6.2429590595
 11
-2.4666762808
 21
-6.2846297433
  0
LWPOLYLINE
  5
249
100
AcDbEntity
  8
CURVE
100
AcDbPolyline
 62
253
  6
CONTINUOUS
 90
89
 70
0
 10
-5.3025227277
 20
-10.6721946646
 10
-5.3012606615
 20
-10.7074228003
 10
-5.2990966913
 20
-10.7429187889
 10
-5.2960596408
 20
-10.7787411097
 10
-5.2921698348
 20
-10.814937264
 10
-5.2874136045
 20
-10.8515108417
 10
-5.2817687824
 20
-10.8884544547
 10
-5.2752161949
 20
-10.9257539003
 10
-5.2677486443
 20
-10.963367715
 10
-5.2593619268
 20
-11.0012476206
 10
-5.2500524659
 20
-11.0393506662
 10
-5.2398191958
 20
-11.0776552099
 10
-5.2286616777
 20
-11.116144937
 10
-5.2165798958
 20
-11.1547975633
 10
-5.2035755245
 20
-11.1935669258
 10
-5.1896506605
 20
-11.2324008919
 10
-5.1748074009
 20
-11.271247329
 10
-5.1590478425
 20
-11.3100541043
 10
-5.1423740822
 20
-11.3487690853
 10
-5.1247887965
 20
-11.3873425702
 10
-5.1062969797
 20
-11.4257345804
 10
-5.0869042057
 20
-11.4639075685
 10
-5.0666160484
 20
-11.5018239867
 10
-5.0454380816
 20
-11.5394462875
 10
-5.0233758793
 20
-11.5767369231
 10
-5.0004440308
 20
-11.6136501812
 10
-4.9766931877
 20
-11.650107689
 10
-4.9521830171
 20
-11.6860229093
 10
-4.9269732114
 20
-11.72130975
 10
-4.901123564
 20
-11.7558839015
 10
-4.8746938938
 20
-11.7896614994
 10
-4.8477339625
 20
-11.8225647472
 10
-4.8202533043
 20
-11.854540118
 10
-4.7922513961
 20
-11.8855401525
 10
-4.76373732
 20
-11.9155218294
 10
-4.7347585784
 20
-11.9444598796
 10
-4.7053722786
 20
-11.9723334717
 10
-4.6756352911
 20
-11.9991302591
 10
-4.6456035394
 20
-12.0248718338
 10
-4.6153327103
 20
-12.0495882723
 10
-4.5848802692
 20
-12.0733023973
 10
-4.5543107962
 20
-12.0960080163
 10
-4.5236906501
 20
-12.1176916832
 10
-4.4930760184
 20
-12.1383287678
 10
-4.4624824024
 20
-12.1578499048
 10
-4.431915132
 20
-12.1761745449
 10
-4.4013791963
 20
-12.1932478598
 10
-4.3708782206
 20
-12.2091179046
 10
-4.3404154893
 20
-12.2238584557
 10
-4.3100044683
 20
-12.2375217389
 10
-4.2796993485
 20
-12.2500737802
 10
-4.2495645025
 20
-12.2614590554
 10
-4.219663345
 20
-12.2716150382
 10
-4.1900554601
 20
-12.2804511933
 10
-4.1607994744
 20
-12.2878699833
 10
-4.1319536395
 20
-12.2937821135
 10
-4.1035747075
 20
-12.2981312596
 10
-4.0757190556
 20
-12.3008693402
 10
-4.0484327065
 20
-12.3019639428
 10
-4.0217202652
 20
-12.3014453308
 10
-3.9955759821
 20
-12.2993594363
 10
-3.9700048915
 20
-12.2957474227
 10
-3.9450551623
 20
-12.2906313771
 10
-3.9207857471
 20
-12.2840286177
 10
-3.8972560792
 20
-12.2759567115
 10
-3.8745275152
 20
-12.2664342215
 10
-3.8526618921
 20
-12.2554799593
 10
-3.8317105747
 20
-12.2431144266
 10
-3.8116830382
 20
-12.2293648834
 10
-3.7925782855
 20
-12.2142602798
 10
-3.7743953194
 20
-12.1978295655
 10
-3.7571331428
 20
-12.1801016905
 10
-3.7407907583
 20
-12.1611056047
 10
-3.7253687562
 20
-12.1408735435
 10
-3.7108740754
 20
-12.1194508848
 10
-3.6973152418
 20
-12.096886292
 10
-3.6847007818
 20
-12.0732284286
 10
-3.6730392213
 20
-12.048525958
 10
-3.6623390865
 20
-12.0228275436
 10
-3.6507749788
 20
-11.9907419398
 10
-3.6405921393
 20
-11.9573680687
 10
-3.6317751053
 20
-11.9227817468
 10
-3.6243084144
 20
-11.8870587902
 10
-3.6181766041
 20
-11.8502750154
 10
-3.6133626032
 20
-11.8124922918
 10
-3.6098429063
 20
-11.7737167011
 10
-3.6075923991
 20
-11.733940378
 10
-3.6065859676
 20
-11.6931554573
 10
-3.6067984976
 20
-11.6513540738
  0
LWPOLYLINE
  5
24A
100
AcDbEntity
  8
CURVE
100
AcDbPolyline
 62
253
  6
CONTINUOUS
 90
91
 70
0
 10
-5.5293226728
 20
-10.5412690728
 10
-5.5296793071
 20
-10.4982969592
 10
-5.5288095411
 20
-10.4563534206
 10
-5.526788411
 20
-10.4152874397
 10
-5.5236728404
 20
-10.374979686
 10
-5.5194473035
 20
-10.3354375749
 10
-5.5140781622
 20
-10.2967002085
 10
-5.5075302031
 20
-10.2588195335
 10
-5.4997619124
 20
-10.2218988747
 10
-5.4907302008
 20
-10.1860544017
 10
-5.4803974124
 20
-10.1513901921
 10
-5.4687476238
 20
-10.1179619547
 10
-5.4557703449
 20
-10.0858133062
 10
-5.4414646381
 20
-10.0549857445
 10
-5.4258677768
 20
-10.0255122916
 10
-5.409026587
 20
-9.9974238503
 10
-5.390983828
 20
-9.9707553752
 10
-5.371765992
 20
-9.9455580257
 10
-5.3513955043
 20
-9.9218870127
 10
-5.3298929712
 20
-9.8997935676
 10
-5.3072717219
 20
-9.8793130028
 10
-5.2835432667
 20
-9.8604766508
 10
-5.2587191157
 20
-9.8433158445
 10
-5.2328107791
 20
-9.8278619164
 10
-5.205829767
 20
-9.8141461994
 10
-5.1777974253
 20
-9.8021946555
 10
-5.1487744424
 20
-9.7920117639
 10
-5.1188313424
 20
-9.7835966334
 10
-5.0880386494
 20
-9.7769483727
 10
-5.0564668876
 20
-9.7720660905
 10
-5.0241865812
 20
-9.7689488954
 10
-4.9912603722
 20
-9.7675963515
 10
-4.9577193751
 20
-9.7680098438
 10
-4.9235868226
 20
-9.7701912126
 10
-4.8888859472
 20
-9.7741422985
 10
-4.8536399815
 20
-9.7798649418
 10
-4.8178721579
 20
-9.7873609828
 10
-4.7816144488
 20
-9.7966181789
 10
-4.7449337854
 20
-9.8075679557
 10
-4.7079058385
 20
-9.8201276556
 10
-4.670605939
 20
-9.8342163459
 10
-4.6331080578
 20
-9.8497599922
 10
-4.5954858259
 20
-9.866686285
 10
-4.5578017152
 20
-9.8849443287
 10
-4.5200735629
 20
-9.9045688842
 10
-4.4823080472
 20
-9.9256161262
 10
-4.4445123676
 20
-9.9481219676
 10
-4.4066958086
 20
-9.9720412721
 10
-4.3688681761
 20
-9.9973086416
 10
-4.3310494892
 20
-10.0238673367
 10
-4.2933006213
 20
-10.0516952532
 10
-4.2556926589
 20
-10.0807789458
 10
-4.2182971791
 20
-10.1111068122
 10
-4.1811877192
 20
-10.1426746216
 10
-4.144438307
 20
-10.1754799861
 10
-4.1081144639
 20
-10.2095164289
 10
-4.0722476871
 20
-10.2447611171
 10
-4.0368609677
 20
-10.2811871293
 10
-4.0019772968
 20
-10.3187675436
 10
-3.9676196655
 20
-10.3574754385
 10
-3.9338110648
 20
-10.3972838923
 10
-3.900582609
 20
-10.4381565969
 10
-3.8679979051
 20
-10.4800196992
 10
-3.836128683
 20
-10.5227899594
 10
-3.8050466729
 20
-10.5663841382
 10
-3.7748236049
 20
-10.6107189957
 10
-3.745531209
 20
-10.6557112925
 10
-3.717231638
 20
-10.7012851017
 10
-3.6899487351
 20
-10.747393747
 10
-3.6636967663
 20
-10.7939978648
 10
-3.6384899974
 20
-10.8410580916
 10
-3.6143426946
 20
-10.8885350638
 10
-3.5912691236
 20
-10.9363894178
 10
-3.5692863186
 20
-10.9845727002
 10
-3.548422386
 20
-11.0330000976
 10
-3.5287082004
 20
-11.0815777068
 10
-3.5101746363
 20
-11.1302116246
 10
-3.4928525684
 20
-11.1788079479
 10
-3.4767728711
 20
-11.2272727733
 10
-3.4619610349
 20
-11.2755245097
 10
-3.4484210127
 20
-11.3235308143
 10
-3.4361513733
 20
-11.3712716563
 10
-3.4251487774
 20
-11.4187183099
 10
-3.4154022535
 20
-11.4658072689
 10
-3.4068989221
 20
-11.5124663321
 10
-3.3996196566
 20
-11.558633734
 10
-3.3935203417
 20
-11.6042894524
 10
-3.3885506148
 20
-11.649423901
 10
-3.3846631751
 20
-11.694053496
 10
-3.3818229686
 20
-11.7382986647
 10
-3.379998003
 20
-11.7823058369
  0
LWPOLYLINE
  5
24B
100
AcDbEntity
  8
CURVE
100
AcDbPolyline
 62
253
  6
CONTINUOUS
 90
93
 70
0
 10
-5.0326309293
 20
10.4303360688
 10
-5.0310067984
 20
10.4745949935
 10
-5.0281493339
 20
10.5180610881
 10
-5.0240917604
 20
10.5608070422
 10
-5.0188673026
 20
10.6029055453
 10
-5.0124967544
 20
10.6443864372
 10
-5.0049511874
 20
10.6851081588
 10
-4.9961892423
 20
10.7248863007
 10
-4.9861695599
 20
10.7635364538
 10
-4.9748628202
 20
10.8008943019
 10
-4.962287859
 20
10.8368759001
 10
-4.9484755513
 20
10.8714173964
 10
-4.933456772
 20
10.9044549388
 10
-4.9172555795
 20
10.9359471724
 10
-4.8998687658
 20
10.9659427313
 10
-4.8812863062
 20
10.9945127466
 10
-4.8614981762
 20
11.0217283494
 10
-4.8404739335
 20
11.0476466201
 10
-4.8181014658
 20
11.0722684349
 10
-4.7942482428
 20
11.0955806195
 10
-4.7687817345
 20
11.1175699993
 10
-4.747153941
 20
11.1341871362
 10
-4.7243172033
 20
11.1498639352
 10
-4.700179899
 20
11.1645150854
 10
-4.6746504055
 20
11.1780552756
 10
-4.6476371005
 20
11.1903991948
 10
-4.623936949
 20
11.1997063329
 10
-4.5991527486
 20
11.2080495423
 10
-4.5732945015
 20
11.2153548815
 10
-4.5463452042
 20
11.2215457887
 10
-4.5181798285
 20
11.2265352187
 10
-4.4886463402
 20
11.2302335057
 10
-4.4576441453
 20
11.2325438272
 10
-4.425278409
 20
11.2333407335
 10
-4.3917057366
 20
11.2324916187
 10
-4.3570497461
 20
11.2298704084
 10
-4.3213021063
 20
11.2253771565
 10
-4.2844214983
 20
11.2189184484
 10
-4.2464066767
 20
11.2104221224
 10
-4.2074166875
 20
11.1999010253
 10
-4.1676506502
 20
11.1873892567
 10
-4.1273024455
 20
11.1729339545
 10
-4.0865450007
 20
11.156634412
 10
-4.0455460046
 20
11.1386029609
 10
-4.0044536416
 20
11.1189246558
 10
-3.9633380775
 20
11.0975754425
 10
-3.9222499734
 20
11.0745039897
 10
-3.8812387398
 20
11.0496867235
 10
-3.8403487843
 20
11.0232111005
 10
-3.7996232636
 20
10.9951923348
 10
-3.7591276947
 20
10.9657410676
 10
-3.7190170344
 20
10.9349496485
 10
-3.6794685999
 20
10.9029058542
 10
-3.6406563219
 20
10.86970951
 10
-3.6027405865
 20
10.8355086352
 10
-3.5658783932
 20
10.8004632974
 10
-3.5302049968
 20
10.7647330804
 10
-3.4957686713
 20
10.7284756309
 10
-3.4625959458
 20
10.6918481117
 10
-3.4307133494
 20
10.6550076854
 10
-3.4001474113
 20
10.6181115146
 10
-3.3709246604
 20
10.5813167621
 10
-3.3430564093
 20
10.5447548874
 10
-3.3164931047
 20
10.5084545377
 10
-3.2911699767
 20
10.4724186573
 10
-3.2670222553
 20
10.4366501903
 10
-3.2439851707
 20
10.4011520809
 10
-3.221993953
 20
10.3659272732
 10
-3.1969019914
 20
10.3240214382
 10
-3.1731597959
 20
10.2825126677
 10
-3.150704353
 20
10.2414002321
 10
-3.1294726491
 20
10.2006834017
 10
-3.1094016707
 20
10.1603614469
 10
-3.0858480547
 20
10.1104864429
 10
-3.0638795439
 20
10.0610654111
 10
-3.0433660689
 20
10.0119364703
 10
-3.0241775599
 20
9.9629377397
 10
-3.0062043607
 20
9.9139250631
 10
-2.9894184678
 20
9.8648251832
 10
-2.9738122911
 20
9.8155825675
 10
-2.9593782404
 20
9.7661416837
 10
-2.9461182446
 20
9.7164793332
 10
-2.9340723087
 20
9.6667016533
 10
-2.9232899567
 20
9.6169471151
 10
-2.9138207125
 20
9.56735419
 10
-2.9056988177
 20
9.5180580698
 10
-2.8988973843
 20
9.4691808294
 10
-2.8933742419
 20
9.4208412644
 10
-2.8890872201
 20
9.3731581702
 10
-2.8859922292
 20
9.326217496
 10
-2.884037502
 20
9.2799738037
 10
-2.8831693521
 20
9.234348809
 10
-2.883334093
 20
9.1892642274
  0
LWPOLYLINE
  5
24C
100
AcDbEntity
  8
RACCORDO
100
AcDbPolyline
 62
253
  6
CONTINUOUS
 90
42
 70
0
 10
-2.6525288578
 20
-4.336083286
 10
-2.7375626843
 20
-4.3031920807
 10
-2.8205610786
 20
-4.2820683054
 10
-2.9005211411
 20
-4.2729636994
 10
-2.9765105144
 20
-4.2759788843
 10
-3.0476701892
 20
-4.2910872358
 10
-3.1135373663
 20
-4.3183362429
 10
-3.1728427052
 20
-4.3573630199
 10
-3.2239845416
 20
-4.4067090153
 10
-3.2667704431
 20
-4.465249716
 10
-3.301119797
 20
-4.5317896623
 10
-3.3266414429
 20
-4.6035635094
 10
-3.3438534154
 20
-4.6782788108
 10
-3.3537281203
 20
-4.7550947801
 10
-3.3570411311
 20
-4.833192245
 10
-3.354495391
 20
-4.9114923047
 10
-3.3468090603
 20
-4.9890799951
 10
-3.3345953986
 20
-5.0657027631
 10
-3.3184536956
 20
-5.1407494111
 10
-3.2989837221
 20
-5.2136372923
 10
-3.2766068942
 20
-5.2843636821
 10
-3.2517964633
 20
-5.3525969812
 10
-3.2250256811
 20
-5.4180116613
 10
-3.1965682102
 20
-5.4807260797
 10
-3.1667888339
 20
-5.5405739082
 10
-3.13604181
 20
-5.5974107613
 10
-3.1044749888
 20
-5.6514406194
 10
-3.0723445028
 20
-5.7026241159
 10
-3.0399185891
 20
-5.7509004985
 10
-3.0072851504
 20
-5.7964604283
 10
-2.9746351061
 20
-5.8393169637
 10
-2.9421567675
 20
-5.8794845257
 10
-2.9098814066
 20
-5.9171571583
 10
-2.8779412663
 20
-5.9523861655
 10
-2.846471022
 20
-5.9852178159
 10
-2.81546908
 20
-6.0158298389
 10
-2.7850233377
 20
-6.0442932064
 10
-2.7552293371
 20
-6.0706693918
 10
-2.7260725694
 20
-6.0951098227
 10
-2.6976234826
 20
-6.1176824774
 10
-2.6699342633
 20
-6.1384679527
 10
-2.6429464074
 20
-6.1576205331
  0
LINE
  5
24D
100
AcDbEntity
  8
RACCORDO
100
AcDbLine
 62
253
  6
CONTINUOUS
 10
-2.5664704543
 20
-4.3803517823
 11
-2.6525288578
 21
-4.336083286
  0
LINE
  5
24E
100
AcDbEntity
  8
RACCORDO
100
AcDbLine
 62
7
  6
CONTINUOUS
 10
-2.6429295946
 20
-6.1807641655
 11
-2.5462055283
 21
-6.2429590595
  0
LWPOLYLINE
  5
24F
100
AcDbEntity
  8
RACCORDO
100
AcDbPolyline
 62
253
  6
CONTINUOUS
 90
4
 70
0
 10
-2.6429464074
 20
-6.1576205331
 10
-2.6166654674
 20
-6.1752341305
 10
-2.5911633256
 20
-6.1913551862
 10
-2.5664704543
 20
-6.2060579197
  0
LWPOLYLINE
  5
250
100
AcDbEntity
  8
CURVE
100
AcDbPolyline
 62
253
  6
CONTINUOUS
 90
89
 70
0
 10
-3.6067984976
 20
-11.6513540738
 10
-3.6085070576
 20
-11.6088945599
 10
-3.6114083837
 20
-11.5660484609
 10
-3.6155278036
 20
-11.522778512
 10
-3.6208906451
 20
-11.4790474485
 10
-3.6275222359
 20
-11.4348180058
 10
-3.6354454958
 20
-11.3900694947
 10
-3.6446737126
 20
-11.3448475294
 10
-3.6552177663
 20
-11.2992142997
 10
-3.6670885368
 20
-11.2532319954
 10
-3.680296904
 20
-11.2069628064
 10
-3.6923314407
 20
-11.1682331802
 10
-3.7052963524
 20
-11.12939738
 10
-3.7191855716
 20
-11.0905052699
 10
-3.7339930312
 20
-11.051606714
 10
-3.7497126639
 20
-11.0127515766
 10
-3.7663384024
 20
-10.9739897215
 10
-3.7838647354
 20
-10.9353689501
 10
-3.8022883748
 20
-10.8969288108
 10
-3.8216065883
 20
-10.8587067896
 10
-3.8418166437
 20
-10.8207403719
 10
-3.8629158088
 20
-10.7830670435
 10
-3.8849013513
 20
-10.7457242901
 10
-3.9077609309
 20
-10.7087580645
 10
-3.9314437751
 20
-10.6722481883
 10
-3.9558895032
 20
-10.6362829503
 10
-3.9810379305
 20
-10.600950149
 10
-4.0068296561
 20
-10.5663356217
 10
-4.0332054751
 20
-10.5325247154
 10
-4.060115964
 20
-10.4995959675
 10
-4.0875508254
 20
-10.4676006779
 10
-4.115509543
 20
-10.4365833371
 10
-4.1439822729
 20
-10.4065845005
 10
-4.1729218596
 20
-10.3776289837
 10
-4.2022718197
 20
-10.3497376672
 10
-4.2319758657
 20
-10.3229232921
 10
-4.2619784937
 20
-10.297166041
 10
-4.2922243956
 20
-10.2724379569
 10
-4.3226563788
 20
-10.2487180777
 10
-4.3532097123
 20
-10.2260134204
 10
-4.3838177805
 20
-10.2043379969
 10
-4.4144242801
 20
-10.1837158322
 10
-4.445014158
 20
-10.1642110041
 10
-4.4755826733
 20
-10.1458976038
 10
-4.5061253067
 20
-10.1288261173
 10
-4.5366384255
 20
-10.1129526125
 10
-4.5671186184
 20
-10.098209552
 10
-4.5975521742
 20
-10.0845502315
 10
-4.6278841824
 20
-10.0720112768
 10
-4.6580494325
 20
-10.0606501464
 10
-4.6879838962
 20
-10.0505304796
 10
-4.7176282752
 20
-10.0417406386
 10
-4.7469244533
 20
-10.0343751664
 10
-4.7758147559
 20
-10.0285203626
 10
-4.8042432739
 20
-10.0242295545
 10
-4.8321545393
 20
-10.0215478262
 10
-4.8595028877
 20
-10.0205057845
 10
-4.8862818675
 20
-10.0210761267
 10
-4.9124948305
 20
-10.0232170732
 10
-4.9381345412
 20
-10.0268909617
 10
-4.9631514151
 20
-10.0320766005
 10
-4.9874852808
 20
-10.0387569154
 10
-5.0110762642
 20
-10.0469134102
 10
-5.0338656808
 20
-10.0565219001
 10
-5.055795144
 20
-10.0675567779
 10
-5.0768155967
 20
-10.0799925169
 10
-5.0969153017
 20
-10.093803911
 10
-5.1160918517
 20
-10.1089658343
 10
-5.1343428394
 20
-10.1254531609
 10
-5.1516658575
 20
-10.1432407649
 10
-5.1680584986
 20
-10.1623035204
 10
-5.1835180173
 20
-10.1826109722
 10
-5.1980403156
 20
-10.2041113473
 10
-5.2116209574
 20
-10.2267475437
 10
-5.2242555065
 20
-10.250462459
 10
-5.2359395269
 20
-10.275198991
 10
-5.2466685824
 20
-10.3009000376
 10
-5.2564399108
 20
-10.3275153769
 10
-5.2652574459
 20
-10.355022308
 10
-5.2731267953
 20
-10.3834050107
 10
-5.2800533576
 20
-10.4126411069
 10
-5.2860416952
 20
-10.4426819883
 10
-5.2910961613
 20
-10.4734724888
 10
-5.2952244677
 20
-10.5049608832
 10
-5.2984477603
 20
-10.5371092089
 10
-5.3007905433
 20
-10.5698829438
 10
-5.3022677599
 20
-10.603269169
 10
-5.3028561089
 20
-10.6373413774
 10
-5.3025227277
 20
-10.6721946646
  0
LWPOLYLINE
  5
251
100
AcDbEntity
  8
CURVE
100
AcDbPolyline
 62
253
  6
CONTINUOUS
 90
91
 70
0
 10
-3.379998003
 20
-11.7823058369
 10
-3.3798309003
 20
-11.8252465575
 10
-3.3806904639
 20
-11.8672391101
 10
-3.3826025508
 20
-11.9083955502
 10
-3.3855972949
 20
-11.9487979736
 10
-3.3897219358
 20
-11.9884086376
 10
-3.3950279902
 20
-12.0271598397
 10
-3.4015612644
 20
-12.0649803894
 10
-3.4093447244
 20
-12.1017851424
 10
-3.4183956263
 20
-12.1374854661
 10
-3.428728293
 20
-12.1720035622
 10
-3.4403453165
 20
-12.2053049683
 10
-3.4532463558
 20
-12.2373660565
 10
-3.4674271621
 20
-12.2681577634
 10
-3.4828678564
 20
-12.2976292845
 10
-3.4995446517
 20
-12.3257243803
 10
-3.5174337614
 20
-12.3523868111
 10
-3.5365113986
 20
-12.3775603371
 10
-3.5567537765
 20
-12.4011887188
 10
-3.5781387455
 20
-12.4232206786
 10
-3.6006507053
 20
-12.4436247878
 10
-3.6242756928
 20
-12.4623745796
 10
-3.6489997449
 20
-12.4794435875
 10
-3.6748088984
 20
-12.4948053448
 10
-3.7016891902
 20
-12.5084333849
 10
-3.7296176434
 20
-12.5203053745
 10
-3.7585352256
 20
-12.5304155144
 10
-3.7883738906
 20
-12.5387621386
 10
-3.8190655923
 20
-12.5453435812
 10
-3.8505422845
 20
-12.5501581764
 10
-3.8827359209
 20
-12.5532042583
 10
-3.9155856596
 20
-12.5544805382
 10
-3.9490594751
 20
-12.553987237
 10
-3.9831325464
 20
-12.5517249524
 10
-4.0177800521
 20
-12.5476942825
 10
-4.0529771713
 20
-12.5418958252
 10
-4.0886990825
 20
-12.5343301786
 10
-4.1249126946
 20
-12.5250118161
 10
-4.1615518354
 20
-12.5140107134
 10
-4.1985420629
 20
-12.5014107218
 10
-4.2358092324
 20
-12.4872937059
 10
-4.27328039
 20
-12.471733584
 10
-4.3108828795
 20
-12.4548022877
 10
-4.3485550407
 20
-12.4365486344
 10
-4.3862791986
 20
-12.4169289848
 10
-4.4240486743
 20
-12.3958765854
 10
-4.4618561367
 20
-12.3733483772
 10
-4.4996916449
 20
-12.3493960799
 10
-4.5375446053
 20
-12.3240951078
 10
-4.5753944133
 20
-12.2975104894
 10
-4.6131804189
 20
-12.2696657102
 10
-4.6508319607
 20
-12.24057387
 10
-4.6882777605
 20
-12.2102463204
 10
-4.7254440727
 20
-12.1786874208
 10
-4.7622565347
 20
-12.1458997827
 10
-4.7986493524
 20
-12.1118897968
 10
-4.8345910044
 20
-12.0766789717
 10
-4.8700585374
 20
-12.0402925952
 10
-4.9050289984
 20
-12.0027559553
 10
-4.9394794343
 20
-11.96409434
 10
-4.9733868918
 20
-11.9243330372
 10
-5.0067199234
 20
-11.8835070745
 10
-5.0394131044
 20
-11.841690438
 10
-5.0713925155
 20
-11.7989668536
 10
-5.1025842374
 20
-11.755420047
 10
-5.1329143511
 20
-11.7111337441
 10
-5.1623089372
 20
-11.6661916707
 10
-5.1907044786
 20
-11.620670272
 10
-5.2180790659
 20
-11.574616871
 10
-5.2444211919
 20
-11.5280715103
 10
-5.2697193491
 20
-11.4810742323
 10
-5.2939620303
 20
-11.4336650795
 10
-5.3171377282
 20
-11.3858840944
 10
-5.3392318386
 20
-11.3377795558
 10
-5.3602173698
 20
-11.2894326881
 10
-5.3800642332
 20
-11.240932952
 10
-5.3987387678
 20
-11.1923705168
 10
-5.416193022
 20
-11.143838387
 10
-5.4323754717
 20
-11.0954302755
 10
-5.4472450259
 20
-11.0472286442
 10
-5.4608023255
 20
-10.9992709492
 10
-5.4730584443
 20
-10.9515833957
 10
-5.4840290643
 20
-10.9041991904
 10
-5.4937482993
 20
-10.8571795479
 10
-5.502254871
 20
-10.8105926845
 10
-5.5095865335
 20
-10.7644957189
 10
-5.5157771695
 20
-10.7189013782
 10
-5.5208596943
 20
-10.6738112918
 10
-5.5248497979
 20
-10.6292154677
 10
-5.5276942693
 20
-10.5850574278
 10
-5.5293226728
 20
-10.5412690728
  0
LINE
  5
252
100
AcDbEntity
  8
ASSI
100
AcDbLine
 62
253
  6
CONTINUOUS
 10
-4.2072644778
 20
21.632363705
 11
-4.2072644778
 21
21.5697599217
  0
LWPOLYLINE
  5
253
100
AcDbEntity
  8
CURVE
100
AcDbPolyline
 62
253
  6
CONTINUOUS
 90
89
 70
0
 10
-4.8058549918
 20
10.2993769016
 10
-4.8061911187
 20
10.263226307
 10
-4.8056137472
 20
10.2268145068
 10
-4.8041550805
 20
10.1900809111
 10
-4.801838112
 20
10.1529763501
 10
-4.7986489955
 20
10.1154973347
 10
-4.7945646751
 20
10.0776517956
 10
-4.789564803
 20
10.0394546134
 10
-4.7836398651
 20
10.0009484665
 10
-4.7767830558
 20
9.9621829828
 10
-4.7689885505
 20
9.9232023311
 10
-4.7602544498
 20
9.884028843
 10
-4.7505798353
 20
9.8446793911
 10
-4.7399639255
 20
9.8051769441
 10
-4.7284064856
 20
9.7655688552
 10
-4.7159074178
 20
9.7259085737
 10
-4.7024666242
 20
9.6862495491
 10
-4.6880840068
 20
9.6466452307
 10
-4.6727594678
 20
9.6071490679
 10
-4.6564935247
 20
9.5678120277
 10
-4.6392891569
 20
9.5286751477
 10
-4.6211499594
 20
9.4897769831
 10
-4.602079527
 20
9.4511560891
 10
-4.5820814548
 20
9.4128510208
 10
-4.5611593375
 20
9.3749003336
 10
-4.539325756
 20
9.3373508348
 10
-4.5166292345
 20
9.3002823411
 10
-4.4931272831
 20
9.2637829217
 10
-4.4688774301
 20
9.2279401924
 10
-4.4439372768
 20
9.1928399576
 10
-4.4183644428
 20
9.1585675684
 10
-4.3922064911
 20
9.1252022497
 10
-4.3654707589
 20
9.0927987203
 10
-4.3381545271
 20
9.0614055727
 10
-4.310265203
 20
9.0310666326
 10
-4.281850701
 20
9.0018066587
 10
-4.252969062
 20
8.9736456429
 10
-4.2236783763
 20
8.9465949184
 10
-4.1940369312
 20
8.9206311831
 10
-4.1641030631
 20
8.8957224761
 10
-4.1339365989
 20
8.8718442737
 10
-4.1036033271
 20
8.8490018022
 10
-4.0731705265
 20
8.8272077251
 10
-4.0426945633
 20
8.8064864616
 10
-4.0121881522
 20
8.7869094539
 10
-3.981653095
 20
8.7685598998
 10
-3.9510920107
 20
8.7514945855
 10
-3.920510786
 20
8.7356646511
 10
-3.8899161248
 20
8.7209948248
 10
-3.8593242286
 20
8.7074317239
 10
-3.8287892905
 20
8.6950095215
 10
-3.7983750011
 20
8.6837842794
 10
-3.7681437431
 20
8.6738192622
 10
-3.738152667
 20
8.6652065446
 10
-3.7084576151
 20
8.6580454039
 10
-3.679114366
 20
8.6524265411
 10
-3.6501784445
 20
8.6484063522
 10
-3.6217053116
 20
8.6460326567
 10
-3.5937404495
 20
8.6453372447
 10
-3.5662894252
 20
8.6462877869
 10
-3.5393478264
 20
8.6488359243
 10
-3.5129222473
 20
8.6529383461
 10
-3.4870633051
 20
8.6585719332
 10
-3.4618326234
 20
8.6657186146
 10
-3.4372924969
 20
8.6743603752
 10
-3.4135079066
 20
8.6844794219
 10
-3.3905445047
 20
8.6960580177
 10
-3.368456984
 20
8.7090762709
 10
-3.3472561981
 20
8.7235056727
 10
-3.3269420414
 20
8.7393155598
 10
-3.3075144078
 20
8.7564752689
 10
-3.2889731914
 20
8.7749541367
 10
-3.2713182865
 20
8.7947215
 10
-3.2545513799
 20
8.8157434034
 10
-3.2386813299
 20
8.8379727231
 10
-3.2237187875
 20
8.8613590431
 10
-3.2096744038
 20
8.8858519475
 10
-3.1965588298
 20
8.9114010204
 10
-3.1843827166
 20
8.9379558459
 10
-3.171021467
 20
8.9710799693
 10
-3.1590167907
 20
9.0055030097
 10
-3.1483571
 20
9.0411481995
 10
-3.1390308073
 20
9.0779387709
 10
-3.1310263248
 20
9.1157979561
 10
-3.1243295449
 20
9.1546631145
 10
-3.1189162799
 20
9.1945281128
 10
-3.1147598224
 20
9.2354009444
 10
-3.1118334647
 20
9.277289603
 10
-3.1101104994
 20
9.3202020823
  0
LWPOLYLINE
  5
254
100
AcDbEntity
  8
ASSI
100
AcDbPolyline
 62
253
  6
CONTINUOUS
 90
20
 70
0
 10
-3.5315382123
 20
-4.7720692442
 10
-3.531126969
 20
-4.728455409
 10
-3.5291230833
 20
-4.6856433195
 10
-3.5255106196
 20
-4.6437191324
 10
-3.5202732525
 20
-4.6027444369
 10
-3.5134018779
 20
-4.5628315096
 10
-3.5049045733
 20
-4.5241352955
 10
-3.4947854287
 20
-4.4867322625
 10
-3.4830523541
 20
-4.4506995997
 10
-3.4697415583
 20
-4.4161754822
 10
-3.4548773959
 20
-4.3832273615
 10
-3.4384835775
 20
-4.3519111476
 10
-3.4206153388
 20
-4.3223275193
 10
-3.4013228607
 20
-4.2945408275
 10
-3.380634457
 20
-4.2685744034
 10
-3.3585809379
 20
-4.244457138
 10
-3.3352088704
 20
-4.2222318948
 10
-3.3105583503
 20
-4.2019292151
 10
-3.284647911
 20
-4.183562787
 10
-3.2559529657
 20
-4.1662994921
  0
LWPOLYLINE
  5
255
100
AcDbEntity
  8
ASSI
100
AcDbPolyline
 62
253
  6
CONTINUOUS
 90
24
 70
0
 10
-3.6717118625
 20
-4.772096241
 10
-3.6712654992
 20
-4.725010964
 10
-3.6690770045
 20
-4.6789708905
 10
-3.6651463921
 20
-4.6339760293
 10
-3.6594728206
 20
-4.5899116167
 10
-3.6520571354
 20
-4.5468924201
 10
-3.6429019859
 20
-4.5052628068
 10
-3.6319848717
 20
-4.4650385478
 10
-3.61932853
 20
-4.4262040124
 10
-3.6050036721
 20
-4.3890565861
 10
-3.5889922335
 20
-4.3536212756
 10
-3.5713127064
 20
-4.319873326
 10
-3.5520908158
 20
-4.2880355854
 10
-3.5313287568
 20
-4.2581428346
 10
-3.5090249025
 20
-4.2301606267
 10
-3.4852993682
 20
-4.2042080397
 10
-3.460154229
 20
-4.180295109
 10
-3.4335880234
 20
-4.1584121595
 10
-3.4057156345
 20
-4.1386487453
 10
-3.3765237002
 20
-4.12100549
 10
-3.3460262031
 20
-4.105482134
 10
-3.3143791
 20
-4.0921669404
 10
-3.2815702848
 20
-4.0810716109
 10
-3.2476124794
 20
-4.0721848045
  0
LWPOLYLINE
  5
256
100
AcDbEntity
  8
ASSI
100
AcDbPolyline
 62
253
  6
CONTINUOUS
 90
24
 70
0
 10
-3.6717118625
 20
2.5776061906
 10
-3.6705080185
 20
2.6251049394
 10
-3.6675634067
 20
2.6715579263
 10
-3.6628780411
 20
2.716965143
 10
-3.6564492447
 20
2.7614423297
 10
-3.6482796987
 20
2.8048737422
 10
-3.6383775601
 20
2.8469120861
 10
-3.6267203857
 20
2.8875415733
 10
-3.6133308555
 20
2.9267778564
 10
-3.5982850158
 20
2.9643206853
 10
-3.5815650372
 20
3.0001449491
 10
-3.5631891765
 20
3.0342755158
 10
-3.5432877877
 20
3.0664870018
 10
-3.5218636178
 20
3.0967443384
 10
-3.4989144877
 20
3.1250822723
 10
-3.4745634854
 20
3.151380074
 10
-3.4488128569
 20
3.1756276041
 10
-3.4216609696
 20
3.1978346547
 10
-3.3932251664
 20
3.2179103519
 10
-3.3634919826
 20
3.2358541319
 10
-3.3324755031
 20
3.2516662076
 10
-3.3003344526
 20
3.2652568384
 10
-3.2670568025
 20
3.2766142939
 10
-3.2326551968
 20
3.2857499567
  0
LWPOLYLINE
  5
257
100
AcDbEntity
  8
ASSI
100
AcDbPolyline
 62
253
  6
CONTINUOUS
 90
20
 70
0
 10
-3.5315382123
 20
2.576163247
 10
-3.5303694441
 20
2.620191215
 10
-3.5276093993
 20
2.6634167127
 10
-3.5232421498
 20
2.705753622
 10
-3.5172495507
 20
2.7471413954
 10
-3.5096243308
 20
2.7874667846
 10
-3.5003800454
 20
2.8265718722
 10
-3.4895208057
 20
2.8643802201
 10
-3.4770544881
 20
2.9008146894
 10
-3.4630226781
 20
2.9357341793
 10
-3.4474499333
 20
2.969071166
 10
-3.4303597193
 20
3.0007698868
 10
-3.411811963
 20
3.0307270824
 10
-3.3918573668
 20
3.0588781481
 10
-3.3705236599
 20
3.0852000739
 10
-3.347844688
 20
3.1096622756
 10
-3.323867168
 20
3.1322218337
 10
-3.2986309908
 20
3.152848343
 10
-3.2721572073
 20
3.1715267425
 10
-3.2432132514
 20
3.188929466
  0
LINE
  5
258
100
AcDbEntity
  8
ASSI
100
AcDbLine
 62
7
  6
CONTINUOUS
 10
3.8924979179
 20
17.4737135402
 11
3.7123314715
 21
17.0596882598
  0
LWPOLYLINE
  5
259
100
AcDbEntity
  8
RACCORDO
100
AcDbPolyline
 62
7
  6
CONTINUOUS
 90
21
 70
0
 10
-3.1082936306
 20
3.1356551766
 10
-3.1735008758
 20
3.0880424909
 10
-3.2313776517
 20
3.0284684963
 10
-3.2808691425
 20
2.9573585637
 10
-3.3212406724
 20
2.8748093228
 10
-3.3514451181
 20
2.7817475585
 10
-3.3706142509
 20
2.6803204735
 10
-3.3786179456
 20
2.5716948769
 10
-3.3754143718
 20
2.4567766719
 10
-3.3611873852
 20
2.33799614
 10
-3.336450596
 20
2.2172124093
 10
-3.3016302283
 20
2.0953293679
 10
-3.2572522561
 20
1.9737033291
 10
-3.2039612646
 20
1.8537929454
 10
-3.1424253318
 20
1.7369060351
 10
-3.0733082103
 20
1.6242355926
 10
-2.9973956331
 20
1.5170809551
 10
-2.9155566757
 20
1.4167241061
 10
-2.8286002003
 20
1.3242655901
 10
-2.7373960193
 20
1.2408072988
 10
-2.6429295946
 20
1.1674683256
  0
LINE
  5
25A
100
AcDbEntity
  8
DRAFT
100
AcDbLine
 62
7
  6
CONTINUOUS
 10
-2.9481553276
 20
3.2327390847
 11
-3.1082937218
 21
3.1356551213
  0
LINE
  5
25B
100
AcDbEntity
  8
ASSI
100
AcDbLine
 62
7
  6
CONTINUOUS
 10
-3.2432132514
 20
3.188929466
 11
-3.2425704616
 21
3.1892831857
  0
LWPOLYLINE
  5
25C
100
AcDbEntity
  8
ASSI
100
AcDbPolyline
 62
7
  6
CONTINUOUS
 90
26
 70
0
 10
-3.2432186821
 20
3.1889255631
 10
-3.2316989446
 20
3.1950289072
 10
-3.1698986836
 20
3.2200452268
 10
-3.1023958938
 20
3.2350198883
 10
-3.0297508259
 20
3.2396166615
 10
-2.9524437914
 20
3.2336216027
 10
-2.8713508575
 20
3.216933583
 10
-2.7873733106
 20
3.189618174
 10
-2.7012253908
 20
3.1517817747
 10
-2.6138739783
 20
3.1037212961
 10
-2.5262879548
 20
3.0458810032
 10
-2.4390481401
 20
2.9785294228
 10
-2.3529308647
 20
2.902092006
 10
-2.2689729045
 20
2.8173361225
 10
-2.188034429
 20
2.7250211869
 10
-2.1109107166
 20
2.6259540889
 10
-2.0384130637
 20
2.5210905875
 10
-1.9713184395
 20
2.411505268
 10
-1.9102768414
 20
2.298241943
 10
-1.8558838868
 20
2.1824068966
 10
-1.8087006885
 20
2.0652475297
 10
-1.769135849
 20
1.9478950219
 10
-1.7375250262
 20
1.8315198014
 10
-1.7141404266
 20
1.7174732229
 10
-1.6990882266
 20
1.6069513645
 10
-1.6923427965
 20
1.5009322385
  0
LWPOLYLINE
  5
25D
100
AcDbEntity
  8
ASSI
100
AcDbPolyline
 62
253
  6
CONTINUOUS
 90
16
 70
0
 10
-3.2476124794
 20
-4.0721848045
 10
-3.2126989272
 20
-4.0655602471
 10
-3.1768286262
 20
-4.0612131097
 10
-3.1400031525
 20
-4.0591285573
 10
-3.102419638
 20
-4.0593153181
 10
-3.0640771049
 20
-4.0617850321
 10
-3.0249770192
 20
-4.066526345
 10
-2.9853201738
 20
-4.0735134916
 10
-2.9451030856
 20
-4.082757678
 10
-2.9043296091
 20
-4.0942479153
 10
-2.8632115235
 20
-4.1079251338
 10
-2.8217455376
 20
-4.1238014326
 10
-2.7799351753
 20
-4.1418648487
 10
-2.7380024064
 20
-4.1620202006
 10
-2.6959470012
 20
-4.18427864
 10
-2.6537692687
 20
-4.2086290617
  0
LWPOLYLINE
  5
25E
100
AcDbEntity
  8
RACCORDO
100
AcDbPolyline
 62
253
  6
CONTINUOUS
 90
6
 70
0
 10
-2.8533720405
 20
-4.152603665
 10
-2.8580194979
 20
-4.152074364
 10
-2.9400455602
 20
-4.1553248038
 10
-3.016858464
 20
-4.1716301028
 10
-3.0879576966
 20
-4.2010430126
 10
-3.1082936939
 20
-4.2125773529
  0
LWPOLYLINE
  5
25F
100
AcDbEntity
  8
ASSI
100
AcDbPolyline
 62
253
  6
CONTINUOUS
 90
19
 70
0
 10
4.8976730522
 20
-5.7507305898
 10
4.9209961727
 20
-5.7572556508
 10
4.9448711896
 20
-5.763081136
 10
4.9692320338
 20
-5.7681906538
 10
4.9940124231
 20
-5.7725705447
 10
5.0191468243
 20
-5.7762094037
 10
5.0445685005
 20
-5.7790973013
 10
5.070209595
 20
-5.7812266827
 10
5.0960010968
 20
-5.7825919136
 10
5.1218736751
 20
-5.7831889654
 10
5.1477579745
 20
-5.783016451
 10
5.1735846012
 20
-5.7820749955
 10
5.1992841194
 20
-5.7803667284
 10
5.2247873516
 20
-5.7778965155
 10
5.2500262281
 20
-5.7746711772
 10
5.2749337446
 20
-5.7706988058
 10
5.299444046
 20
-5.7659900711
 10
5.3234904281
 20
-5.7605579158
 10
5.3470063114
 20
-5.7544169417
  0
LINE
  5
260
100
AcDbEntity
  8
ASSI
100
AcDbLine
 62
253
  6
CONTINUOUS
 10
-2.6537692687
 20
-4.2086290617
 11
-2.6116919487
 21
-4.2349428768
  0
LWPOLYLINE
  5
261
100
AcDbEntity
  8
ASSI
100
AcDbPolyline
 62
253
  6
CONTINUOUS
 90
35
 70
0
 10
-2.6116919487
 20
-4.2349428768
 10
-2.5697151572
 20
-4.2632309529
 10
-2.5278386989
 20
-4.2934823762
 10
-2.4862848075
 20
-4.3255358639
 10
-2.4450566718
 20
-4.3593995269
 10
-2.4041508704
 20
-4.3950651184
 10
-2.3637796897
 20
-4.4323468
 10
-2.3239466121
 20
-4.4712513017
 10
-2.2846477838
 20
-4.5117716765
 10
-2.2460844667
 20
-4.5537015579
 10
-2.2082576366
 20
-4.5970507778
 10
-2.1711658295
 20
-4.6418092189
 10
-2.1350066441
 20
-4.6877405889
 10
-2.099780789
 20
-4.7348584487
 10
-2.0654869813
 20
-4.7831489013
 10
-2.0323198528
 20
-4.8323344792
 10
-2.0002912044
 20
-4.8824127601
 10
-1.9693886192
 20
-4.9333858056
 10
-1.939770447
 20
-4.9849829004
 10
-1.9114503984
 20
-5.0371882801
 10
-1.8844141426
 20
-5.0900173455
 10
-1.8587780242
 20
-5.1432461631
 10
-1.8345402891
 20
-5.19688535
 10
-1.8117020789
 20
-5.2509239295
 10
-1.7903841541
 20
-5.3051056191
 10
-1.7705835881
 20
-5.3594671277
 10
-1.7523027393
 20
-5.4139714124
 10
-1.7356704179
 20
-5.4682516346
 10
-1.7207039737
 20
-5.5223126985
 10
-1.7073856271
 20
-5.5761494466
 10
-1.6957916728
 20
-5.6293800523
 10
-1.6859445234
 20
-5.6819948545
 10
-1.6778215267
 20
-5.7340033724
 10
-1.6714315864
 20
-5.785052671
 10
-1.6667777081
 20
-5.8350251269
  0
LINE
  5
262
100
AcDbEntity
  8
ASSI
100
AcDbLine
 62
253
  6
CONTINUOUS
 10
-1.6667777081
 20
-5.8350251269
 11
-1.6638568809
 21
-5.884038359
  0
LINE
  5
263
100
AcDbEntity
  8
ASSI
100
AcDbLine
 62
7
  6
CONTINUOUS
 10
-4.0270980314
 20
22.0463889854
 11
-4.0059012997
 21
21.4301652716
  0
LINE
  5
264
100
AcDbEntity
  8
ASSI
100
AcDbLine
 62
253
  6
CONTINUOUS
 10
-1.6638568809
 20
-5.884038359
 11
-1.6626690905
 21
-5.9320923584
  0
LINE
  5
265
100
AcDbEntity
  8
CURVE
100
AcDbLine
 62
253
  6
CONTINUOUS
 10
-2.7466951002
 20
-12.2099856728
 11
-2.7197569036
 21
-13.3211288699
  0
LINE
  5
266
100
AcDbEntity
  8
ASSI
100
AcDbLine
 62
7
  6
CONTINUOUS
 10
-1.6929692259
 20
-5.8495955113
 11
-1.6919591311
 21
-5.8912315109
  0
LWPOLYLINE
  5
267
100
AcDbEntity
  8
CURVE
100
AcDbPolyline
 62
253
  6
CONTINUOUS
 90
3
 70
0
 10
-2.9290957725
 20
-13.2002592589
 10
-2.962703234
 20
-11.7951835158
 10
-2.9828472178
 20
-10.8505326065
  0
LWPOLYLINE
  5
268
100
AcDbEntity
  8
CURVE
100
AcDbPolyline
 62
253
  6
CONTINUOUS
 90
3
 70
0
 10
-1.3079100915
 20
-14.1363115529
 10
-1.341517553
 20
-12.7312358097
 10
-1.3616615368
 20
-11.7865849005
  0
LINE
  5
269
100
AcDbEntity
  8
CURVE
100
AcDbLine
 62
253
  6
CONTINUOUS
 10
-1.7904134947
 20
-12.5463267582
 11
-1.7854335424
 21
-12.7650060518
  0
LINE
  5
26A
100
AcDbEntity
  8
CURVE
100
AcDbLine
 62
253
  6
CONTINUOUS
 10
-2.7690165023
 20
-11.1902482046
 11
-2.7516750531
 21
-11.9913063544
  0
LINE
  5
26B
100
AcDbEntity
  8
CURVE
100
AcDbLine
 62
253
  6
CONTINUOUS
 10
-1.7395316618
 20
-11.5684074792
 11
-1.7350398171
 21
-11.7872533738
  0
LINE
  5
26C
100
AcDbEntity
  8
ASSI
100
AcDbLine
 62
253
  6
CONTINUOUS
 10
-1.663124381
 20
1.4660924067
 11
-1.6626690905
 21
1.4176100733
  0
LINE
  5
26D
100
AcDbEntity
  8
ASSI
100
AcDbLine
 62
7
  6
CONTINUOUS
 10
-1.6923427965
 20
1.5009322385
 11
-1.6919581708
 21
1.458527706
  0
LWPOLYLINE
  5
26E
100
AcDbEntity
  8
CURVE
100
AcDbPolyline
 62
253
  6
CONTINUOUS
 90
89
 70
0
 10
-3.1101104994
 20
9.3202020823
 10
-3.1099028028
 20
9.3637759002
 10
-3.1109009544
 20
9.4077270234
 10
-3.1131297382
 20
9.452093472
 10
-3.1166139377
 20
9.4969132662
 10
-3.1213783367
 20
9.5422244259
 10
-3.1274457968
 20
9.5880479622
 10
-3.134831491
 20
9.6343368495
 10
-3.1435486701
 20
9.6810270528
 10
-3.153610585
 20
9.7280545376
 10
-3.1650304864
 20
9.7753552689
 10
-3.1755921032
 20
9.8149327614
 10
-3.187102366
 20
9.8546045884
 10
-3.1995576726
 20
9.8943197983
 10
-3.2129544208
 20
9.9340274395
 10
-3.2272890085
 20
9.9736765606
 10
-3.2425578334
 20
10.0132162099
 10
-3.2587578067
 20
10.0525974647
 10
-3.2758878925
 20
10.091779517
 10
-3.2939475684
 20
10.1307235874
 10
-3.3129363119
 20
10.1693908968
 10
-3.3328536005
 20
10.2077426658
 10
-3.3536989117
 20
10.2457401152
 10
-3.3754619317
 20
10.2833361288
 10
-3.3980931814
 20
10.3204502429
 10
-3.4215333906
 20
10.3569936572
 10
-3.4457236333
 20
10.3928779759
 10
-3.4706063613
 20
10.4280164219
 10
-3.496124371
 20
10.4623226233
 10
-3.5222303647
 20
10.4957169064
 10
-3.5489166682
 20
10.5281463921
 10
-3.5761855136
 20
10.5595649002
 10
-3.6040292963
 20
10.5899304405
 10
-3.6324010665
 20
10.6192177853
 10
-3.661244038
 20
10.6474058972
 10
-3.6905011766
 20
10.6744821337
 10
-3.7201144568
 20
10.7004674321
 10
-3.750025605
 20
10.7253911242
 10
-3.7801747396
 20
10.7492754081
 10
-3.8104955474
 20
10.7721139456
 10
-3.840920107
 20
10.7938932644
 10
-3.8713915838
 20
10.8145895645
 10
-3.9018974884
 20
10.8341377345
 10
-3.9324364178
 20
10.8524623353
 10
-3.9630060808
 20
10.8695121486
 10
-3.9936006324
 20
10.8853328409
 10
-4.0242133391
 20
10.8999942995
 10
-4.0548279089
 20
10.9135451234
 10
-4.0853898141
 20
10.9259487582
 10
-4.1158349685
 20
10.9371473612
 10
-4.146100783
 20
10.9470767153
 10
-4.176130658
 20
10.955647106
 10
-4.2058694913
 20
10.9627624445
 10
-4.2352621691
 20
10.9683349341
 10
-4.2642535309
 20
10.9723099479
 10
-4.2927884048
 20
10.9746411509
 10
-4.3208210643
 20
10.9752970442
 10
-4.3483435649
 20
10.9743054723
 10
-4.3753574075
 20
10.9717091153
 10
-4.4018534032
 20
10.9675466239
 10
-4.4277796046
 20
10.96184053
 10
-4.4530733743
 20
10.9546093362
 10
-4.477672284
 20
10.9458729677
 10
-4.5015147408
 20
10.9356570411
 10
-4.5245393607
 20
10.923988596
 10
-4.5466944515
 20
10.9108945527
 10
-4.5679670882
 20
10.8964013552
 10
-4.5883540376
 20
10.880535328
 10
-4.6078520664
 20
10.8633227957
 10
-4.6264579414
 20
10.8447900831
 10
-4.6441684294
 20
10.8249635148
 10
-4.6609796132
 20
10.8038747618
 10
-4.6768848397
 20
10.7815768809
 10
-4.6918767718
 20
10.7581282755
 10
-4.7059480726
 20
10.7335873487
 10
-4.719091405
 20
10.7080125038
 10
-4.731299432
 20
10.681462144
 10
-4.7425668185
 20
10.6539875873
 10
-4.7528962375
 20
10.6256118106
 10
-4.7622923641
 20
10.5963507056
 10
-4.7707594522
 20
10.566226988
 10
-4.778300073
 20
10.5352906705
 10
-4.7849163763
 20
10.5035985899
 10
-4.79061407
 20
10.4712039417
 10
-4.7954130928
 20
10.4381453572
 10
-4.799336941
 20
10.4044578266
 10
-4.8024003182
 20
10.3701543194
 10
-4.8045827557
 20
10.3351597223
 10
-4.8058549918
 20
10.2993769016
  0
LWPOLYLINE
  5
26F
100
AcDbEntity
  8
CURVE
100
AcDbPolyline
 62
253
  6
CONTINUOUS
 90
3
 70
0
 10
-2.4861363152
 20
7.7403027665
 10
-2.4554761047
 20
9.1825744961
 10
-2.4324792777
 20
10.1520457176
  0
LINE
  5
270
100
AcDbEntity
  8
CURVE
100
AcDbLine
 62
253
  6
CONTINUOUS
 10
-2.2316270142
 20
9.6837474085
 11
-2.2768221824
 21
7.6194474822
  0
LINE
  5
271
100
AcDbEntity
  8
ASSI
100
AcDbLine
 62
253
  6
CONTINUOUS
 10
-1.6626690905
 20
1.4176100733
 11
-1.6638554801
 21
1.3700975143
  0
LINE
  5
272
100
AcDbEntity
  8
ASSI
100
AcDbLine
 62
7
  6
CONTINUOUS
 10
-1.6919587749
 20
1.4584383049
 11
-1.6946472636
 21
1.3867076031
  0
LWPOLYLINE
  5
273
100
AcDbEntity
  8
CURVE
100
AcDbPolyline
 62
253
  6
CONTINUOUS
 90
91
 70
0
 10
-2.883334093
 20
9.1892642274
 10
-2.8851561536
 20
9.1451812943
 10
-2.8879881376
 20
9.1020552071
 10
-2.8918618045
 20
9.0597706877
 10
-2.896811912
 20
9.0182431107
 10
-2.9028852091
 20
8.9775104624
 10
-2.910131443
 20
8.937641382
 10
-2.9185943343
 20
8.8987081859
 10
-2.9282934968
 20
8.860797898
 10
-2.9392425179
 20
8.8240012194
 10
-2.9514525606
 20
8.7883978637
 10
-2.9649250918
 20
8.7540235939
 10
-2.9796591542
 20
8.7209031856
 10
-2.9956494172
 20
8.6890669569
 10
-3.0128730568
 20
8.6585673959
 10
-3.0313028757
 20
8.6294625331
 10
-3.0509116767
 20
8.6018103991
 10
-3.0716722624
 20
8.5756690245
 10
-3.0935574357
 20
8.5510964398
 10
-3.1165419113
 20
8.5281455282
 10
-3.1406080534
 20
8.5068485826
 10
-3.1657401379
 20
8.4872327487
 10
-3.1919224412
 20
8.4693251722
 10
-3.2191392394
 20
8.4531529986
 10
-3.2473748087
 20
8.4387433735
 10
-3.2766044184
 20
8.4261194412
 10
-3.3067673105
 20
8.4152883409
 10
-3.3377937202
 20
8.4062532105
 10
-3.3696138826
 20
8.3990171879
 10
-3.4021580329
 20
8.3935834109
 10
-3.4353564063
 20
8.3899550175
 10
-3.4691466066
 20
8.3881345495
 10
-3.5034957128
 20
8.3881221643
 10
-3.5383781725
 20
8.3899174237
 10
-3.5737684333
 20
8.393519889
 10
-3.6096409429
 20
8.3989291218
 10
-3.645970149
 20
8.4061446835
 10
-3.6827226772
 20
8.4151521052
 10
-3.7198338651
 20
8.4258807953
 10
-3.7572312284
 20
8.4382461318
 10
-3.7948424741
 20
8.4521655509
 10
-3.8325960745
 20
8.4675647225
 10
-3.8704206932
 20
8.4843713747
 10
-3.9082552255
 20
8.5025366049
 10
-3.946079494
 20
8.5221049869
 10
-3.9838835532
 20
8.5431444638
 10
-4.0216578915
 20
8.5656986502
 10
-4.059394734
 20
8.5897138472
 10
-4.0970867395
 20
8.6151120272
 10
-4.1347158103
 20
8.6418262111
 10
-4.1722208213
 20
8.6698336118
 10
-4.2095298904
 20
8.6991224906
 10
-4.2465704358
 20
8.7296828725
 10
-4.2832670758
 20
8.7615118385
 10
-4.3195437288
 20
8.7946082336
 10
-4.3553332111
 20
8.8289668621
 10
-4.3906039304
 20
8.8645663659
 10
-4.4253331925
 20
8.9013813463
 10
-4.4594983028
 20
8.9393864044
 10
-4.4930765671
 20
8.9785561416
 10
-4.526045291
 20
9.018865159
 10
-4.558373536
 20
9.0602780622
 10
-4.5899973881
 20
9.1027194739
 10
-4.620844689
 20
9.1461040212
 10
-4.6508432805
 20
9.190346331
 10
-4.6799210045
 20
9.2353610304
 10
-4.7080057027
 20
9.2810627464
 10
-4.7350359853
 20
9.3273734588
 10
-4.7609935362
 20
9.3742445582
 10
-4.7858708074
 20
9.4216347882
 10
-4.8096602512
 20
9.4695028921
 10
-4.8323543196
 20
9.5178076134
 10
-4.8539454649
 20
9.5665076956
 10
-4.8744210785
 20
9.6155537947
 10
-4.893748309
 20
9.6648642178
 10
-4.9118892443
 20
9.7143491843
 10
-4.9288058765
 20
9.7639178095
 10
-4.9444598135
 20
9.8134747906
 10
-4.9588125677
 20
9.8629237206
 10
-4.9718337389
 20
9.9121798542
 10
-4.9835252791
 20
9.9612050941
 10
-4.9938972278
 20
10.0099730048
 10
-5.0029649392
 20
10.0584497244
 10
-5.010765025
 20
10.1065716852
 10
-5.0173394111
 20
10.1542678933
 10
-5.0227287553
 20
10.2014788088
 10
-5.0269686418
 20
10.2481907082
 10
-5.0300933865
 20
10.2944013219
 10
-5.032119194
 20
10.3401207255
 10
-5.0329898251
 20
10.3854083744
 10
-5.0326309293
 20
10.4303360688
  0
LWPOLYLINE
  5
274
100
AcDbEntity
  8
ASSI
100
AcDbPolyline
 62
253
  6
CONTINUOUS
 90
15
 70
0
 10
-1.6638554801
 20
1.3700975143
 10
-1.6667736297
 20
1.3236361472
 10
-1.671423553
 20
1.278225965
 10
-1.6778078374
 20
1.2337511956
 10
-1.6859238994
 20
1.1903276102
 10
-1.6957641024
 20
1.1483024556
 10
-1.7073511464
 20
1.1076913875
 10
-1.7206625682
 20
1.0684786172
 10
-1.7356231911
 20
1.0309641081
 10
-1.7522513116
 20
0.9951727331
 10
-1.770529061
 20
0.9610793776
 10
-1.7903271942
 20
0.9289089216
 10
-1.8116436154
 20
0.898696089
 10
-1.8344809887
 20
0.8704058339
 10
-1.8587173326
 20
0.8441583119
  0
LWPOLYLINE
  5
275
100
AcDbEntity
  8
ASSI
100
AcDbPolyline
 62
7
  6
CONTINUOUS
 90
10
 70
0
 10
-1.6946472636
 20
1.3867076031
 10
-1.7036057726
 20
1.3037692469
 10
-1.7186121039
 20
1.2265008531
 10
-1.7393936596
 20
1.1554535082
 10
-1.7656065172
 20
1.091116646
 10
-1.7968445846
 20
1.0338897594
 10
-1.8325761816
 20
0.9841408313
 10
-1.8724570533
 20
0.9418036882
 10
-1.9165412914
 20
0.9065500403
 10
-1.9356280586
 20
0.8942538912
  0
LWPOLYLINE
  5
276
100
AcDbEntity
  8
RACCORDO
100
AcDbPolyline
 62
253
  6
CONTINUOUS
 90
38
 70
0
 10
-1.9600985096
 20
1.1191856324
 10
-1.9089566306
 20
1.1685316523
 10
-1.8661708465
 20
1.2270722852
 10
-1.8318216626
 20
1.2936121334
 10
-1.8063001434
 20
1.3653859073
 10
-1.7890882077
 20
1.4401011874
 10
-1.7792134965
 20
1.5169171604
 10
-1.77590048
 20
1.5950146287
 10
-1.778446236
 20
1.6733146791
 10
-1.7861325832
 20
1.75090236
 10
-1.7983462436
 20
1.8275251287
 10
-1.8144879142
 20
1.9025717954
 10
-1.8339578374
 20
1.9754597057
 10
-1.8563346169
 20
2.0461861234
 10
-1.8811450093
 20
2.1144194447
 10
-1.9079157549
 20
2.179834146
 10
-1.9363731878
 20
2.2425485863
 10
-1.9661525223
 20
2.302396439
 10
-1.9968995029
 20
2.3592333171
 10
-2.0284662841
 20
2.4132631983
 10
-2.0605967357
 20
2.4644467146
 10
-2.0930226183
 20
2.5127231151
 10
-2.1256560276
 20
2.558283062
 10
-2.1583060436
 20
2.6011396137
 10
-2.1907843556
 20
2.641307191
 10
-2.2230596912
 20
2.6789798383
 10
-2.2549998059
 20
2.7142088603
 10
-2.2864700259
 20
2.7470405246
 10
-2.3174719488
 20
2.7776525587
 10
-2.3479176825
 20
2.8061159312
 10
-2.3777116795
 20
2.8324921186
 10
-2.4068684374
 20
2.8569325552
 10
-2.4353175002
 20
2.8795052238
 10
-2.4630066892
 20
2.9002907167
 10
-2.4899945212
 20
2.9194433108
 10
-2.5162754481
 20
2.9370569158
 10
-2.5417775832
 20
2.9531779753
 10
-2.5664704543
 20
2.9678807089
  0
LWPOLYLINE
  5
277
100
AcDbEntity
  8
ASSI
100
AcDbPolyline
 62
253
  6
CONTINUOUS
 90
61
 70
0
 10
-1.8587173326
 20
0.8441583119
 10
-1.8843510558
 20
0.8199632789
 10
-1.9113843632
 20
0.7978106307
 10
-1.9397010396
 20
0.7777906905
 10
-1.9693151713
 20
0.7599036637
 10
-2.0002132925
 20
0.7441489923
 10
-2.0322379172
 20
0.7306158225
 10
-2.0654017309
 20
0.7193155213
 10
-2.0996926638
 20
0.7102363713
 10
-2.1349161417
 20
0.7034328667
 10
-2.171073596
 20
0.6989199306
 10
-2.2081641694
 20
0.6966823128
 10
-2.2459898755
 20
0.6967292353
 10
-2.2845520809
 20
0.6990721133
 10
-2.3238499071
 20
0.7036992533
 10
-2.3636819956
 20
0.7105852167
 10
-2.4040521265
 20
0.7197410382
 10
-2.4449568911
 20
0.7311554714
 10
-2.4861841271
 20
0.7447696678
 10
-2.5277372752
 20
0.7605956402
 10
-2.5696131274
 20
0.7786212433
 10
-2.6115895162
 20
0.7987514096
 10
-2.6536666593
 20
0.8209972979
 10
-2.6958444183
 20
0.8453477042
 10
-2.7379000534
 20
0.87167404
 10
-2.7798332779
 20
0.8999872711
 10
-2.8216442993
 20
0.9302764768
 10
-2.8631110816
 20
0.9623802602
 10
-2.9042301199
 20
0.9963069147
 10
-2.9450046866
 20
1.0320482795
 10
-2.9852228791
 20
1.0694182945
 10
-3.0248807696
 20
1.1084239471
 10
-3.0639819147
 20
1.1490584616
 10
-3.102325618
 20
1.1911151453
 10
-3.139910318
 20
1.2346041681
 10
-3.1767370882
 20
1.2795156382
 10
-3.212609181
 20
1.3256127718
 10
-3.2475251681
 20
1.3729095455
 10
-3.2814859038
 20
1.4213923097
 10
-3.3142980842
 20
1.4707828303
 10
-3.3459492516
 20
1.521079064
 10
-3.3764512478
 20
1.5722834045
 10
-3.4056472641
 20
1.6241242468
 10
-3.4335230738
 20
1.6765861245
 10
-3.4600922832
 20
1.7296848566
 10
-3.4852398911
 20
1.783195734
 10
-3.5089669211
 20
1.8371297957
 10
-3.5312717367
 20
1.8914763505
 10
-3.5520354194
 20
1.9459780525
 10
-3.5712598634
 20
2.0006722068
 10
-3.5889426061
 20
2.0555218305
 10
-3.6049583153
 20
2.1101580768
 10
-3.619289004
 20
2.164586218
 10
-3.6319522293
 20
2.2188012249
 10
-3.6428761532
 20
2.2724186977
 10
-3.6520380752
 20
2.3254291417
 10
-3.6594604562
 20
2.3778421863
 10
-3.6651394061
 20
2.4293020018
 10
-3.669073666
 20
2.4796899564
 10
-3.6712644896
 20
2.5291246835
 10
-3.6717118625
 20
2.5776061906
  0
LWPOLYLINE
  5
278
100
AcDbEntity
  8
RACCORDO
100
AcDbPolyline
 62
253
  6
CONTINUOUS
 90
5
 70
0
 10
-1.9014749033
 20
1.0455182917
 10
-1.8429011174
 20
1.0847108748
 10
-1.7876972355
 20
1.1379766595
 10
-1.7415124551
 20
1.2011665838
 10
-1.7126886356
 20
1.2570011051
  0
LINE
  5
279
100
AcDbEntity
  8
ASSI
100
AcDbLine
 62
7
  6
CONTINUOUS
 10
-1.9348231979
 20
0.8947401951
 11
-1.9356388362
 21
0.8942469021
  0
LWPOLYLINE
  5
27A
100
AcDbEntity
  8
ASSI
100
AcDbPolyline
 62
253
  6
CONTINUOUS
 90
58
 70
0
 10
-1.9356388362
 20
0.8942469021
 10
-1.9493766146
 20
0.8862877243
 10
-1.9780811895
 20
0.8716588713
 10
-2.0078846259
 20
0.8590732793
 10
-2.038741079
 20
0.848553638
 10
-2.0705929671
 20
0.8401227473
 10
-2.103370202
 20
0.8338000226
 10
-2.137010436
 20
0.8295962882
 10
-2.1714588581
 20
0.8275171762
 10
-2.2066529351
 20
0.8275654769
 10
-2.2425281826
 20
0.8297398005
 10
-2.2790237433
 20
0.8340351706
 10
-2.3160808926
 20
0.8404439705
 10
-2.3536355971
 20
0.8489550322
 10
-2.3916210052
 20
0.859553133
 10
-2.4299731798
 20
0.8722203967
 10
-2.4686263733
 20
0.8869354689
 10
-2.5075112287
 20
0.9036723461
 10
-2.5465576005
 20
0.9224009218
 10
-2.5856964972
 20
0.9430880787
 10
-2.6248594529
 20
0.9656976633
 10
-2.6639768014
 20
0.9901894599
 10
-2.7029801342
 20
1.0165206124
 10
-2.7418003993
 20
1.0446445505
 10
-2.7803672744
 20
1.07451028
 10
-2.8186114646
 20
1.1060637649
 10
-2.8564671548
 20
1.1392503994
 10
-2.8938700419
 20
1.1740139677
 10
-2.9307532315
 20
1.2102924256
 10
-2.967052743
 20
1.248023038
 10
-3.0027096337
 20
1.2871455048
 10
-3.0376629094
 20
1.3275943764
 10
-3.0718482348
 20
1.3692967203
 10
-3.1052032566
 20
1.4121779183
 10
-3.1376731281
 20
1.4561691631
 10
-3.1691954749
 20
1.501187594
 10
-3.1997003658
 20
1.5471330478
 10
-3.229130418
 20
1.5939167071
 10
-3.2574394771
 20
1.6414625292
 10
-3.2845787298
 20
1.6896861642
 10
-3.3104927672
 20
1.7384857909
 10
-3.3351465301
 20
1.7877917053
 10
-3.3585211836
 20
1.8375678627
 10
-3.3805763109
 20
1.8877365491
 10
-3.4012659983
 20
1.9382019501
 10
-3.4205604722
 20
1.9889012185
 10
-3.4384313007
 20
2.0397788596
 10
-3.454828325
 20
2.0907121089
 10
-3.4696970817
 20
2.1415366357
 10
-3.4830137582
 20
2.1921705758
 10
-3.4947533456
 20
2.2425168189
 10
-3.5048792819
 20
2.292390995
 10
-3.5133833521
 20
2.3417074433
 10
-3.5202609766
 20
2.3903839496
 10
-3.5255035649
 20
2.4382493164
 10
-3.5291199462
 20
2.4851993497
 10
-3.531126262
 20
2.5311933254
 10
-3.5315382123
 20
2.576163247
  0
LINE
  5
27B
100
AcDbEntity
  8
DRAFT
100
AcDbLine
 62
7
  6
CONTINUOUS
 10
-1.7503719772
 20
1.1285083151
 11
-1.9014749099
 21
1.045518288
  0
LWPOLYLINE
  5
27C
100
AcDbEntity
  8
ASSI
100
AcDbPolyline
 62
7
  6
CONTINUOUS
 90
13
 70
0
 10
4.8140634375
 20
-5.7896365264
 10
4.857352317
 20
-5.8119102622
 10
4.9073390788
 20
-5.8318694089
 10
4.9593756033
 20
-5.8473211955
 10
5.0131314795
 20
-5.8584380663
 10
5.0681470159
 20
-5.8652678364
 10
5.1236461167
 20
-5.8678049139
 10
5.1791717899
 20
-5.8660705725
 10
5.2342684151
 20
-5.8600379448
 10
5.2881616076
 20
-5.8497021906
 10
5.3403933802
 20
-5.8350096526
 10
5.3906378512
 20
-5.8157833199
 10
5.4307761167
 20
-5.7960527961
  0
LWPOLYLINE
  5
27D
100
AcDbEntity
  8
ASSI
100
AcDbPolyline
 62
253
  6
CONTINUOUS
 90
7
 70
0
 10
4.7726738483
 20
-5.6979886424
 10
4.7914479932
 20
-5.7082851605
 10
4.8111184764
 20
-5.7180121488
 10
4.8316323988
 20
-5.7271436639
 10
4.8529336459
 20
-5.7356550749
 10
4.8749658884
 20
-5.7435241035
 10
4.8976730522
 20
-5.7507305898
  0
LINE
  5
27E
100
AcDbEntity
  8
ASSI
100
AcDbLine
 62
253
  6
CONTINUOUS
 10
4.7726738465
 20
-6.2807425063
 11
-10.1355245502
 21
2.3270644043
  0
LINE
  5
27F
100
AcDbEntity
  8
ASSI
100
AcDbLine
 62
253
  6
CONTINUOUS
 10
4.912872697
 20
-6.0364025088
 11
-9.9953489956
 21
2.5714178527
  0
LINE
  5
280
100
AcDbEntity
  8
ASSI
100
AcDbLine
 62
7
  6
CONTINUOUS
 10
-10.09411971
 20
2.8181610421
 11
4.8141019834
 21
-5.7896593198
  0
LINE
  5
281
100
AcDbEntity
  8
ASSI
100
AcDbLine
 62
253
  6
CONTINUOUS
 10
-10.1355245503
 20
2.9098182613
 11
4.7726738464
 21
-5.6979886494
  0
LWPOLYLINE
  5
282
100
AcDbEntity
  8
ASSI
100
AcDbPolyline
 62
253
  6
CONTINUOUS
 90
17
 70
0
 10
-10.1355245483
 20
2.3270643996
 10
-10.1533519756
 20
2.3379075405
 10
-10.1701826732
 20
2.3492741854
 10
-10.1859717159
 20
2.3611337869
 10
-10.2006763502
 20
2.3734539993
 10
-10.2142581116
 20
2.3862022299
 10
-10.2266824161
 20
2.3993459102
 10
-10.2379165074
 20
2.4128510252
 10
-10.2479290483
 20
2.4266805303
 10
-10.2566922149
 20
2.4407959517
 10
-10.2641823196
 20
2.4551590362
 10
-10.2703797074
 20
2.4697318894
 10
-10.2752679421
 20
2.4844755388
 10
-10.2788339199
 20
2.499350816
 10
-10.2810679877
 20
2.5143178139
 10
-10.2819641221
 20
2.5293359515
 10
-10.2819829909
 20
2.5316166617
  0
LWPOLYLINE
  5
283
100
AcDbEntity
  8
ASSI
100
AcDbPolyline
 62
253
  6
CONTINUOUS
 90
19
 70
0
 10
-9.9953489956
 20
2.5714178527
 10
-10.0060788523
 20
2.5779505264
 10
-10.0161621336
 20
2.5847630691
 10
-10.0255988395
 20
2.5918554808
 10
-10.034411266
 20
2.599248419
 10
-10.042577117
 20
2.6069212261
 10
-10.0500295054
 20
2.6148119296
 10
-10.0567624374
 20
2.6229222764
 10
-10.0627819066
 20
2.6312505196
 10
-10.0680390064
 20
2.6397294446
 10
-10.0725273651
 20
2.6483600196
 10
-10.0762533543
 20
2.6571412764
 10
-10.0791871816
 20
2.6660030965
 10
-10.0813225323
 20
2.6749462654
 10
-10.0826657211
 20
2.6839699976
 10
-10.0832059003
 20
2.6930018177
 10
-10.0829365573
 20
2.7020417633
 10
-10.0818642047
 20
2.7110897968
 10
-10.079997532
 20
2.7200733303
  0
LINE
  5
284
100
AcDbEntity
  8
ASSI
100
AcDbLine
 62
253
  6
CONTINUOUS
 10
-1.6653128007
 20
1.5155326441
 11
-1.663124381
 21
1.4660924067
  0
LINE
  5
285
100
AcDbEntity
  8
CURVE
100
AcDbLine
 62
253
  6
CONTINUOUS
 10
-1.125484515
 20
-13.1460523462
 11
-1.0985463184
 21
-14.2571955433
  0
LINE
  5
286
100
AcDbEntity
  8
CURVE
100
AcDbLine
 62
253
  6
CONTINUOUS
 10
-0.1692278547
 20
-13.4823790285
 11
-0.1642479023
 21
-13.7010583222
  0
LINE
  5
287
100
AcDbEntity
  8
CURVE
100
AcDbLine
 62
253
  6
CONTINUOUS
 10
-1.1478059171
 20
-12.126314878
 11
-1.130464468
 21
-12.9273730277
  0
LINE
  5
288
100
AcDbEntity
  8
CURVE
100
AcDbLine
 62
253
  6
CONTINUOUS
 10
-0.1183210766
 20
-12.5044741526
 11
-0.113829232
 21
-12.7233200472
  0
LINE
  5
289
100
AcDbEntity
  8
ASSI
100
AcDbLine
 62
253
  6
CONTINUOUS
 10
-1.6626690905
 20
-5.9320923584
 11
-1.6631233705
 21
-5.9791583183
  0
LINE
  5
28A
100
AcDbEntity
  8
ASSI
100
AcDbLine
 62
7
  6
CONTINUOUS
 10
-1.6919583117
 20
-5.8913288932
 11
-1.6935218216
 21
-5.9621245821
  0
LWPOLYLINE
  5
28B
100
AcDbEntity
  8
CURVE
100
AcDbPolyline
 62
253
  6
CONTINUOUS
 90
3
 70
0
 10
-0.7260816547
 20
9.1667930739
 10
-0.7596326633
 20
7.7229390975
 10
-0.779738692
 20
6.7550501229
  0
LINE
  5
28C
100
AcDbEntity
  8
CURVE
100
AcDbLine
 62
253
  6
CONTINUOUS
 10
-0.9816783435
 20
7.2430276562
 11
-0.9354213981
 21
9.2876631935
  0
LWPOLYLINE
  5
28D
100
AcDbEntity
  8
ASSI
100
AcDbPolyline
 62
253
  6
CONTINUOUS
 90
14
 70
0
 10
-1.6631233705
 20
-5.9791583183
 10
-1.6653094717
 20
-6.0251733508
 10
-1.669227408
 20
-6.0701374633
 10
-1.674877978
 20
-6.1141653118
 10
-1.6822603873
 20
-6.1571422416
 10
-1.6913723658
 20
-6.1987243569
 10
-1.7022366393
 20
-6.2388960331
 10
-1.714830719
 20
-6.277673033
 10
-1.7290847178
 20
-6.3147586628
 10
-1.7450171468
 20
-6.3501282054
 10
-1.7626099224
 20
-6.3838066286
 10
-1.781738445
 20
-6.4155718713
 10
-1.802401188
 20
-6.4453895696
 10
-1.8246002458
 20
-6.4732944211
  0
LWPOLYLINE
  5
28E
100
AcDbEntity
  8
ASSI
100
AcDbPolyline
 62
7
  6
CONTINUOUS
 90
10
 70
0
 10
-1.6935218216
 20
-5.9621245821
 10
-1.7010897983
 20
-6.0439545893
 10
-1.7146865897
 20
-6.120095216
 10
-1.7340378988
 20
-6.1900085058
 10
-1.7587963545
 20
-6.2532175805
 10
-1.7885492176
 20
-6.30933594
 10
-1.822749739
 20
-6.3580055111
 10
-1.8610570792
 20
-6.39934135
 10
-1.9035679888
 20
-6.4337375046
 10
-1.9232073004
 20
-6.4464483033
  0
LWPOLYLINE
  5
28F
100
AcDbEntity
  8
RACCORDO
100
AcDbPolyline
 62
7
  6
CONTINUOUS
 90
9
 70
0
 10
-2.4666762808
 20
1.0636027478
 10
-2.3878776173
 20
1.0307225469
 10
-2.3102849328
 20
1.0067013341
 10
-2.2341659009
 20
0.9915504464
 10
-2.160185528
 20
0.9853521117
 10
-2.0894151811
 20
0.9880193966
 10
-2.0225104467
 20
0.9992032601
 10
-1.9597196659
 20
1.0185212923
 10
-1.9014748357
 20
1.0455183288
  0
LINE
  5
290
100
AcDbEntity
  8
RACCORDO
100
AcDbLine
 62
253
  6
CONTINUOUS
 10
-2.5664704543
 20
1.1421745715
 11
-2.4804113566
 21
1.097906476
  0
LINE
  5
291
100
AcDbEntity
  8
RACCORDO
100
AcDbLine
 62
7
  6
CONTINUOUS
 10
-2.5462055283
 20
1.1052734316
 11
-2.4666762808
 21
1.0636027478
  0
LINE
  5
292
100
AcDbEntity
  8
RACCORDO
100
AcDbLine
 62
7
  6
CONTINUOUS
 10
-2.6429295946
 20
1.1674683256
 11
-2.5462055283
 21
1.1052734316
  0
LWPOLYLINE
  5
293
100
AcDbEntity
  8
RACCORDO
100
AcDbPolyline
 62
253
  6
CONTINUOUS
 90
4
 70
0
 10
-2.6429464074
 20
1.190611958
 10
-2.6166654674
 20
1.1729983606
 10
-2.5911633256
 20
1.1568773049
 10
-2.5664704543
 20
1.1421745715
  0
LWPOLYLINE
  5
294
100
AcDbEntity
  8
RACCORDO
100
AcDbPolyline
 62
7
  6
CONTINUOUS
 90
21
 70
0
 10
-3.1082936306
 20
-4.2125773146
 10
-3.1735008758
 20
-4.2601900002
 10
-3.2313776517
 20
-4.3197639948
 10
-3.2808691425
 20
-4.3908739274
 10
-3.3212406724
 20
-4.4734231683
 10
-3.3514451181
 20
-4.5664849326
 10
-3.3706142509
 20
-4.6679120176
 10
-3.3786179456
 20
-4.7765376143
 10
-3.3754143718
 20
-4.8914558193
 10
-3.3611873852
 20
-5.0102363512
 10
-3.336450596
 20
-5.1310200818
 10
-3.3016302283
 20
-5.2529031232
 10
-3.2572522561
 20
-5.3745291621
 10
-3.2039612646
 20
-5.4944395458
 10
-3.1424253318
 20
-5.611326456
 10
-3.0733082103
 20
-5.7239968986
 10
-2.9973956331
 20
-5.8311515361
 10
-2.9155566757
 20
-5.9315083851
 10
-2.8286002003
 20
-6.0239669011
 10
-2.7373960193
 20
-6.1074251923
 10
-2.6429295946
 20
-6.1807641655
  0
LWPOLYLINE
  5
295
100
AcDbEntity
  8
RACCORDO
100
AcDbPolyline
 62
253
  6
CONTINUOUS
 90
8
 70
0
 10
-2.4804113566
 20
1.097906476
 10
-2.3953771351
 20
1.0650154988
 10
-2.312378645
 20
1.0438917788
 10
-2.2324189436
 20
1.0347869644
 10
-2.1564302306
 20
1.037801768
 10
-2.085271042
 20
1.0529098387
 10
-2.0194039438
 20
1.0801588003
 10
-1.9600985096
 20
1.1191856324
  0
LINE
  5
296
100
AcDbEntity
  8
RACCORDO
100
AcDbLine
 62
253
  6
CONTINUOUS
 10
-2.5664704543
 20
2.9678807089
 11
-2.6525288578
 21
3.0121492051
  0
LINE
  5
297
100
AcDbEntity
  8
ASSI
100
AcDbLine
 62
253
  6
CONTINUOUS
 10
-2.6356901978
 20
3.1511532935
 11
-2.5936544204
 21
3.1248278481
  0
LWPOLYLINE
  5
298
100
AcDbEntity
  8
ASSI
100
AcDbPolyline
 62
253
  6
CONTINUOUS
 90
35
 70
0
 10
-2.5936544204
 20
3.1248278481
 10
-2.5517509409
 20
3.0965106453
 10
-2.5099793939
 20
3.0662126796
 10
-2.4685612965
 20
3.0340953581
 10
-2.4274999852
 20
3.0001504858
 10
-2.3867918911
 20
2.9643863888
 10
-2.3466481406
 20
2.9269892739
 10
-2.3070723428
 20
2.8879523279
 10
-2.2680605177
 20
2.8472825733
 10
-2.2298123875
 20
2.8051869826
 10
-2.1923290813
 20
2.7616556184
 10
-2.1556089823
 20
2.7166986932
 10
-2.11984769
 20
2.6705534066
 10
-2.0850461262
 20
2.6232060584
 10
-2.0512027953
 20
2.5746706727
 10
-2.0185096915
 20
2.5252260249
 10
-1.9869786813
 20
2.4748744815
 10
-1.9565972826
 20
2.4236140237
 10
-1.9275210122
 20
2.3717168237
 10
-1.8997634495
 20
2.3191986767
 10
-1.8733103951
 20
2.2660441383
 10
-1.8482757558
 20
2.2124784879
 10
-1.8246579337
 20
2.1584909989
 10
-1.8024579144
 20
2.1040927449
 10
-1.7817935523
 20
2.0495416652
 10
-1.7626624849
 20
1.994800764
 10
-1.7450665067
 20
1.9399073594
 10
-1.7291298298
 20
1.8852307923
 10
-1.7148700322
 20
1.8307660272
 10
-1.702269106
 20
1.776518344
 10
-1.6913980623
 20
1.722872456
 10
-1.6822793513
 20
1.6698379779
 10
-1.6748902831
 20
1.6174054319
 10
-1.6692343642
 20
1.5659307766
 10
-1.6653128007
 20
1.5155326441
  0
LWPOLYLINE
  5
299
100
AcDbEntity
  8
ASSI
100
AcDbPolyline
 62
253
  6
CONTINUOUS
 90
62
 70
0
 10
-1.8246002458
 20
-6.4732944211
 10
-1.8482165731
 20
-6.4991680306
 10
-1.8732487494
 20
-6.5230007355
 10
-1.8996988084
 20
-6.5448025593
 10
-1.9274529588
 20
-6.5644846787
 10
-1.9565251555
 20
-6.5820468129
 10
-1.9869020638
 20
-6.5974896083
 10
-2.0184290148
 20
-6.6107256657
 10
-2.0511187525
 20
-6.621743668
 10
-2.0849591483
 20
-6.6305552953
 10
-2.1197582692
 20
-6.6371076713
 10
-2.1555177585
 20
-6.6413860171
 10
-2.1922365466
 20
-6.6434054503
 10
-2.2297186516
 20
-6.6431579511
 10
-2.2679655952
 20
-6.6406322195
 10
-2.3069763435
 20
-6.6358398435
 10
-2.3465510777
 20
-6.6288071331
 10
-2.3866937047
 20
-6.619523156
 10
-2.4274006886
 20
-6.6079990636
 10
-2.468461026
 20
-6.5942942796
 10
-2.5098783048
 20
-6.5783969057
 10
-2.5516491696
 20
-6.5603189775
 10
-2.59355217
 20
-6.5401558002
 10
-2.6355876933
 20
-6.5178963351
 10
-2.6777554314
 20
-6.4935516677
 10
-2.7198328527
 20
-6.467250267
 10
-2.7618198441
 20
-6.4389812829
 10
-2.8037164396
 20
-6.4087555186
 10
-2.8453002894
 20
-6.3767339005
 10
-2.8865680568
 20
-6.3429082334
 10
-2.9275228463
 20
-6.3072865751
 10
-2.9679519377
 20
-6.2700542126
 10
-3.0078515572
 20
-6.2312042371
 10
-3.0472251076
 20
-6.1907433382
 10
-3.0858706133
 20
-6.1488771871
 10
-3.1237866945
 20
-6.1055957017
 10
-3.1609742432
 20
-6.0609086761
 10
-3.1972346881
 20
-6.0150515941
 10
-3.2325668369
 20
-5.9680105989
 10
-3.266971308
 20
-5.9197992086
 10
-3.3002522666
 20
-5.8706939808
 10
-3.3323973385
 20
-5.8206969888
 10
-3.3634182821
 20
-5.7698057963
 10
-3.3931555062
 20
-5.7182902227
 10
-3.4215946807
 20
-5.6661656299
 10
-3.4487495157
 20
-5.6134162907
 10
-3.4745025367
 20
-5.560265425
 10
-3.4988549246
 20
-5.5067020651
 10
-3.5218048861
 20
-5.4527368182
 10
-3.5432305588
 20
-5.3986253097
 10
-3.5631343831
 20
-5.3443305887
 10
-3.5815133504
 20
-5.2898892722
 10
-3.5982375461
 20
-5.2356674086
 10
-3.6132892317
 20
-5.1816598697
 10
-3.626685716
 20
-5.1278715318
 10
-3.6383498341
 20
-5.074683555
 10
-3.6482589551
 20
-5.0221054497
 10
-3.6564354704
 20
-4.9701275658
 10
-3.6628699532
 20
-4.9191024435
 10
-3.667559299
 20
-4.8691476189
 10
-3.670506607
 20
-4.820145554
 10
-3.6717118625
 20
-4.772096241
  0
LWPOLYLINE
  5
29A
100
AcDbEntity
  8
RACCORDO
100
AcDbPolyline
 62
253
  6
CONTINUOUS
 90
38
 70
0
 10
-1.9600985096
 20
-6.2290468588
 10
-1.9089566306
 20
-6.1797008388
 10
-1.8661708465
 20
-6.1211602059
 10
-1.8318216626
 20
-6.0546203578
 10
-1.8063001434
 20
-5.9828465838
 10
-1.7890882077
 20
-5.9081313037
 10
-1.7792134965
 20
-5.8313153307
 10
-1.77590048
 20
-5.7532178625
 10
-1.778446236
 20
-5.674917812
 10
-1.7861325832
 20
-5.5973301312
 10
-1.7983462436
 20
-5.5207073624
 10
-1.8144879142
 20
-5.4456606957
 10
-1.8339578374
 20
-5.3727727854
 10
-1.8563346169
 20
-5.3020463677
 10
-1.8811450093
 20
-5.2338130464
 10
-1.9079157549
 20
-5.1683983451
 10
-1.9363731878
 20
-5.1056839048
 10
-1.9661525223
 20
-5.0458360521
 10
-1.9968995029
 20
-4.988999174
 10
-2.0284662841
 20
-4.9349692929
 10
-2.0605967357
 20
-4.8837857765
 10
-2.0930226183
 20
-4.835509376
 10
-2.1256560276
 20
-4.7899494292
 10
-2.1583060436
 20
-4.7470928774
 10
-2.1907843556
 20
-4.7069253001
 10
-2.2230596912
 20
-4.6692526529
 10
-2.2549998059
 20
-4.6340236309
 10
-2.2864700259
 20
-4.6011919665
 10
-2.3174719488
 20
-4.5705799324
 10
-2.3479176825
 20
-4.5421165599
 10
-2.3777116795
 20
-4.5157403725
 10
-2.4068684374
 20
-4.491299936
 10
-2.4353175002
 20
-4.4687272673
 10
-2.4630066892
 20
-4.4479417745
 10
-2.4899945212
 20
-4.4287891803
 10
-2.5162754481
 20
-4.4111755753
 10
-2.5417775832
 20
-4.3950545158
 10
-2.5664704543
 20
-4.3803517823
  0
LINE
  5
29B
100
AcDbEntity
  8
DRAFT
100
AcDbLine
 62
7
  6
CONTINUOUS
 10
-2.9637354056
 20
-4.1249388347
 11
-3.1082937218
 21
-4.2125773699
  0
LINE
  5
29C
100
AcDbEntity
  8
ASSI
100
AcDbLine
 62
7
  6
CONTINUOUS
 10
-3.2559529657
 20
-4.1662994921
 11
-3.2556722368
 21
-4.1661451729
  0
LWPOLYLINE
  5
29D
100
AcDbEntity
  8
ASSI
100
AcDbPolyline
 62
7
  6
CONTINUOUS
 90
26
 70
0
 10
-3.2559585029
 20
-4.1663034611
 10
-3.2390185292
 20
-4.1575439243
 10
-3.1782531686
 20
-4.134331514
 10
-3.1116085897
 20
-4.1209461432
 10
-3.0396872049
 20
-4.1177632508
 10
-2.9630287338
 20
-4.1250055979
 10
-2.8825618106
 20
-4.1427480233
 10
-2.7991716631
 20
-4.1709038948
 10
-2.7135029137
 20
-4.2093828608
 10
-2.6264743831
 20
-4.2579168708
 10
-2.5390737122
 20
-4.3160612267
 10
-2.4518897502
 20
-4.3835473724
 10
-2.3656841503
 20
-4.4599643233
 10
-2.2814916436
 20
-4.5445537737
 10
-2.2001989552
 20
-4.6365345871
 10
-2.1226103078
 20
-4.7350893509
 10
-2.0495191658
 20
-4.8392893014
 10
-1.9816926373
 20
-4.948090114
 10
-1.9197808276
 20
-5.0604721051
 10
-1.8643914167
 20
-5.1753378554
 10
-1.8160999773
 20
-5.2914475229
 10
-1.7753208638
 20
-5.4076994571
 10
-1.7424080442
 20
-5.5229253005
 10
-1.7176597777
 20
-5.635737708
 10
-1.7011892634
 20
-5.7449413587
 10
-1.6929692259
 20
-5.8495955113
  0
LWPOLYLINE
  5
29E
100
AcDbEntity
  8
RACCORDO
100
AcDbPolyline
 62
253
  6
CONTINUOUS
 90
6
 70
0
 10
-2.7827439962
 20
3.1875849666
 10
-2.8580194979
 20
3.1961581271
 10
-2.9400455602
 20
3.1929076874
 10
-3.016858464
 20
3.1766023883
 10
-3.0879576966
 20
3.1471894786
 10
-3.1082936939
 20
3.1356551382
  0
LWPOLYLINE
  5
29F
100
AcDbEntity
  8
RACCORDO
100
AcDbPolyline
 62
253
  6
CONTINUOUS
 90
42
 70
0
 10
-2.6525288578
 20
3.0121492051
 10
-2.7375626843
 20
3.0450404104
 10
-2.8205610786
 20
3.0661641857
 10
-2.9005211411
 20
3.0752687917
 10
-2.9765105144
 20
3.0722536068
 10
-3.0476701892
 20
3.0571452554
 10
-3.1135373663
 20
3.0298962482
 10
-3.1728427052
 20
2.9908694712
 10
-3.2239845416
 20
2.9415234759
 10
-3.2667704431
 20
2.8829827752
 10
-3.301119797
 20
2.8164428288
 10
-3.3266414429
 20
2.7446689817
 10
-3.3438534154
 20
2.6699536804
 10
-3.3537281203
 20
2.5931377111
 10
-3.3570411311
 20
2.5150402461
 10
-3.354495391
 20
2.4367401865
 10
-3.3468090603
 20
2.359152496
 10
-3.3345953986
 20
2.2825297281
 10
-3.3184536956
 20
2.2074830801
 10
-3.2989837221
 20
2.1345951988
 10
-3.2766068942
 20
2.063868809
 10
-3.2517964633
 20
1.99563551
 10
-3.2250256811
 20
1.9302208298
 10
-3.1965682102
 20
1.8675064114
 10
-3.1667888339
 20
1.8076585829
 10
-3.13604181
 20
1.7508217298
 10
-3.1044749888
 20
1.6967918717
 10
-3.0723445028
 20
1.6456083752
 10
-3.0399185891
 20
1.5973319927
 10
-3.0072851504
 20
1.5517720628
 10
-2.9746351061
 20
1.5089155274
 10
-2.9421567675
 20
1.4687479655
 10
-2.9098814066
 20
1.4310753329
 10
-2.8779412663
 20
1.3958463256
 10
-2.846471022
 20
1.3630146753
 10
-2.81546908
 20
1.3324026522
 10
-2.7850233377
 20
1.3039392847
 10
-2.7552293371
 20
1.2775630994
 10
-2.7260725694
 20
1.2531226684
 10
-2.6976234826
 20
1.2305500137
 10
-2.6699342633
 20
1.2097645384
 10
-2.6429464074
 20
1.190611958
  0
LINE
  5
2A0
100
AcDbEntity
  8
ASSI
100
AcDbLine
 62
7
  6
CONTINUOUS
 10
9.7112899763
 20
-3.4517321078
 11
9.7989192788
 21
-3.5023281688
  0
LWPOLYLINE
  5
2A1
100
AcDbEntity
  8
ASSI
100
AcDbPolyline
 62
253
  6
CONTINUOUS
 90
37
 70
0
 10
5.7774949098
 20
-22.5952969689
 10
5.7793237598
 20
-22.6277924468
 10
5.7823464363
 20
-22.6594017353
 10
5.7865629392
 20
-22.6901248343
 10
5.7919843423
 20
-22.7200114843
 10
5.7985995717
 20
-22.7490119448
 10
5.8063754068
 20
-22.776976995
 10
5.8153178043
 20
-22.8039006926
 10
5.8254208075
 20
-22.8297889799
 10
5.8366333245
 20
-22.8545104635
 10
5.8489608422
 20
-22.8780588254
 10
5.8623978738
 20
-22.9004403837
 10
5.8768768672
 20
-22.9215426989
 10
5.8924030381
 20
-22.9413593957
 10
5.9089711708
 20
-22.9598968495
 10
5.9264980655
 20
-22.977061747
 10
5.9449886902
 20
-22.9928472777
 10
5.9644380769
 20
-23.0072602521
 10
5.9847481216
 20
-23.0202277884
 10
6.0059232168
 20
-23.0317425356
 10
6.02795897
 20
-23.0418118446
 10
6.0507440996
 20
-23.0503848863
 10
6.0742822359
 20
-23.0574540465
 10
6.0985697487
 20
-23.0630269394
 10
6.1234844649
 20
-23.0670755789
 10
6.1490295036
 20
-23.0695923338
 10
6.1752017459
 20
-23.0705848353
 10
6.2018696613
 20
-23.0700479911
 10
6.2290361819
 20
-23.0679739781
 10
6.2566983756
 20
-23.0643706194
 10
6.2847159168
 20
-23.0592562915
 10
6.3130909277
 20
-23.0526230464
 10
6.3418212859
 20
-23.0444788322
 10
6.3707602985
 20
-23.03486587
 10
6.3998590678
 20
-23.0237982336
 10
6.4291664913
 20
-23.0112618493
 10
6.4586825691
 20
-22.9972567171
  0
LWPOLYLINE
  5
2A2
100
AcDbEntity
  8
ASSI
100
AcDbPolyline
 62
253
  6
CONTINUOUS
 90
19
 70
0
 10
5.0769108223
 20
-22.6083649207
 10
5.0796229694
 20
-22.6569890325
 10
5.0841351674
 20
-22.7044287217
 10
5.0904399558
 20
-22.7506041424
 10
5.0985270317
 20
-22.7954374717
 10
5.1083828244
 20
-22.8388534209
 10
5.1199906081
 20
-22.880779286
 10
5.1333315277
 20
-22.9211452055
 10
5.1483832251
 20
-22.9598824815
 10
5.1651193075
 20
-22.9969242088
 10
5.1835116753
 20
-23.0322077776
 10
5.2035298211
 20
-23.0656745609
 10
5.2251395018
 20
-23.0972681936
 10
5.2483048724
 20
-23.1269357744
 10
5.2729872889
 20
-23.1546275171
 10
5.2991445332
 20
-23.1802964811
 10
5.3267334071
 20
-23.2038998582
 10
5.3557077865
 20
-23.2253978925
 10
5.3887383504
 20
-23.2463480427
  0
LINE
  5
2A3
100
AcDbEntity
  8
ASSI
100
AcDbLine
 62
7
  6
CONTINUOUS
 10
3.8924979179
 20
17.4737135402
 11
3.9136946495
 21
16.8574898263
  0
LWPOLYLINE
  5
2A4
100
AcDbEntity
  8
ASSI
100
AcDbPolyline
 62
253
  6
CONTINUOUS
 90
12
 70
0
 10
4.7726854944
 20
-5.6979953748
 10
4.7730694112
 20
-5.7099148884
 10
4.7742340456
 20
-5.7213170616
 10
4.7761729507
 20
-5.7321387775
 10
4.7788753933
 20
-5.7423201323
 10
4.7823264139
 20
-5.7518047669
 10
4.7865069087
 20
-5.7605401783
 10
4.7913937363
 20
-5.7684780118
 10
4.7969598451
 20
-5.7755743276
 10
4.8031744233
 20
-5.7817898438
 10
4.8100030696
 20
-5.7870901549
 10
4.8140632121
 20
-5.7896369164
  0
LWPOLYLINE
  5
2A5
100
AcDbEntity
  8
ASSI
100
AcDbPolyline
 62
253
  6
CONTINUOUS
 90
13
 70
0
 10
4.7726738465
 20
-6.2807425063
 10
4.7755850856
 20
-7.6543641223
 10
4.7825770402
 20
-9.0256587308
 10
4.793649359
 20
-10.3946109307
 10
4.8088010873
 20
-11.7611945785
 10
4.8280322791
 20
-13.1254051391
 10
4.8513443068
 20
-14.4872595019
 10
4.8787373598
 20
-15.8467432463
 10
4.910210698
 20
-17.2038399126
 10
4.9457647662
 20
-18.5585630502
 10
4.9853997225
 20
-19.9109067621
 10
5.0291151523
 20
-21.2608458794
 10
5.0769108304
 20
-22.6083649255
  0
LINE
  5
2A6
100
AcDbEntity
  8
ASSI
100
AcDbLine
 62
253
  6
CONTINUOUS
 10
3.7123314715
 20
17.0596882598
 11
3.7123314715
 21
16.9970844764
  0
LWPOLYLINE
  5
2A7
100
AcDbEntity
  8
ASSI
100
AcDbPolyline
 62
253
  6
CONTINUOUS
 90
22
 70
0
 10
4.7726854944
 20
-6.2807492317
 10
4.77306941
 20
-6.2683863983
 10
4.7742340412
 20
-6.2556393519
 10
4.7761729412
 20
-6.2425786542
 10
4.7788753772
 20
-6.2292766029
 10
4.7823263898
 20
-6.2158068318
 10
4.7865068758
 20
-6.2022439032
 10
4.791393694
 20
-6.1886628949
 10
4.7969597934
 20
-6.1751389848
 10
4.8031743628
 20
-6.161747035
 10
4.8100030011
 20
-6.1485611767
 10
4.8174079083
 20
-6.1356544007
 10
4.8253480945
 20
-6.1230981527
 10
4.8337796065
 20
-6.110961938
 10
4.8426557716
 20
-6.0993129369
 10
4.8519274554
 20
-6.0882156328
 10
4.8615433345
 20
-6.0777314549
 10
4.8714501798
 20
-6.0679184388
 10
4.8815931519
 20
-6.0588309045
 10
4.8919161041
 20
-6.0505191564
 10
4.9023618934
 20
-6.0430292042
 10
4.912872697
 20
-6.0364025088
  0
LWPOLYLINE
  5
2A8
100
AcDbEntity
  8
ASSI
100
AcDbPolyline
 62
253
  6
CONTINUOUS
 90
13
 70
0
 10
5.0769108304
 20
10.9688900182
 10
5.0291151523
 20
9.5680696208
 10
4.9853997225
 20
8.1693793979
 10
4.9457647662
 20
6.7728350861
 10
4.910210698
 20
5.3784623331
 10
4.8787373598
 20
3.9862668533
 10
4.8513443068
 20
2.5962345843
 10
4.8280322792
 20
1.2083818527
 10
4.8088010873
 20
-0.1772761519
 10
4.793649359
 20
-1.5607549389
 10
4.7825770401
 20
-2.9420490476
 10
4.7755850855
 20
-4.3211322199
 10
4.7726738464
 20
-5.6979886494
  0
LWPOLYLINE
  5
2A9
100
AcDbEntity
  8
RACCORDO
100
AcDbPolyline
 62
253
  6
CONTINUOUS
 90
5
 70
0
 10
-1.9014749033
 20
-6.3027141995
 10
-1.8429011174
 20
-6.2635216164
 10
-1.7876972355
 20
-6.2102558317
 10
-1.7415124551
 20
-6.1470659074
 10
-1.7078629578
 20
-6.0818835823
  0
LINE
  5
2AA
100
AcDbEntity
  8
ASSI
100
AcDbLine
 62
7
  6
CONTINUOUS
 10
-1.9223527291
 20
-6.4459320695
 11
-1.923218397
 21
-6.446455489
  0
LWPOLYLINE
  5
2AB
100
AcDbEntity
  8
ASSI
100
AcDbPolyline
 62
253
  6
CONTINUOUS
 90
58
 70
0
 10
-1.923218397
 20
-6.446455489
 10
-1.9365916317
 20
-6.4541956968
 10
-1.9647751573
 20
-6.4685125385
 10
-1.9940810163
 20
-6.4808008551
 10
-2.0244634671
 20
-6.4910380384
 10
-2.0558648996
 20
-6.4992012818
 10
-2.0882177831
 20
-6.5052727415
 10
-2.1214600367
 20
-6.5092417596
 10
-2.1555366777
 20
-6.5111025966
 10
-2.1903870763
 20
-6.5108536325
 10
-2.2259469675
 20
-6.5084963808
 10
-2.2621553882
 20
-6.5040357312
 10
-2.2989550355
 20
-6.4974801614
 10
-2.3362820751
 20
-6.4888409316
 10
-2.3740695868
 20
-6.4781331788
 10
-2.4122546593
 20
-6.4653753729
 10
-2.4507717696
 20
-6.4505889524
 10
-2.4895514806
 20
-6.4337998065
 10
-2.5285242203
 20
-6.4150383317
 10
-2.5676212446
 20
-6.3943377162
 10
-2.6067739929
 20
-6.3717339725
 10
-2.6459128595
 20
-6.3472672816
 10
-2.6849696843
 20
-6.3209805525
 10
-2.7238753198
 20
-6.2929201965
 10
-2.7625589867
 20
-6.2631368512
 10
-2.8009516253
 20
-6.2316845779
 10
-2.8389873302
 20
-6.1986178201
 10
-2.8766008486
 20
-6.1639921553
 10
-2.9137254983
 20
-6.1278696298
 10
-2.9502972171
 20
-6.090312819
 10
-2.9862556669
 20
-6.0513811472
 10
-3.0215400841
 20
-6.011140076
 10
-3.0560860161
 20
-5.9696623581
 10
-3.089829187
 20
-5.9270214583
 10
-3.122715026
 20
-5.8832862327
 10
-3.1546809778
 20
-5.8385393245
 10
-3.1856544983
 20
-5.7928793621
 10
-3.2155783193
 20
-5.7463951272
 10
-3.2444062468
 20
-5.6991625371
 10
-3.2720866187
 20
-5.6512642893
 10
-3.2985639489
 20
-5.6028020405
 10
-3.3238033111
 20
-5.5538455081
 10
-3.3477833399
 20
-5.5044293699
 10
-3.3704638088
 20
-5.4546313519
 10
-3.3917986685
 20
-5.4045471127
 10
-3.4117551389
 20
-5.3542378967
 10
-3.4303053675
 20
-5.3037594931
 10
-3.4473986791
 20
-5.2532342317
 10
-3.4629759658
 20
-5.2028237666
 10
-3.4770136737
 20
-5.152610061
 10
-3.4894865779
 20
-5.1026900021
 10
-3.5003527467
 20
-5.0532448327
 10
-3.5096040086
 20
-5.0043601919
 10
-3.5172357539
 20
-4.9561182202
 10
-3.5232338934
 20
-4.9086869461
 10
-3.5276054167
 20
-4.8621694963
 10
-3.5303682922
 20
-4.8166076069
 10
-3.5315382123
 20
-4.7720692442
  0
LINE
  5
2AC
100
AcDbEntity
  8
DRAFT
100
AcDbLine
 62
7
  6
CONTINUOUS
 10
-1.7443904869
 20
-6.2164389715
 11
-1.9014749099
 21
-6.3027142031
  0
LWPOLYLINE
  5
2AD
100
AcDbEntity
  8
ASSI
100
AcDbPolyline
 62
253
  6
CONTINUOUS
 90
16
 70
0
 10
-3.2326551968
 20
3.2857499567
 10
-3.1973254133
 20
3.2926087307
 10
-3.1610666847
 20
3.2971753311
 10
-3.1238803521
 20
3.2994647186
 10
-3.0859653763
 20
3.2994671535
 10
-3.0473209628
 20
3.2971709161
 10
-3.0079483938
 20
3.2925874508
 10
-2.9680497421
 20
3.2857417663
 10
-2.9276216785
 20
3.2766225967
 10
-2.8866679033
 20
3.2652409986
 10
-2.8454010123
 20
3.251655476
 10
-2.8038178821
 20
3.2358538626
 10
-2.7619218687
 20
3.2178481937
 10
-2.7199352556
 20
3.1977332933
 10
-2.6778579869
 20
3.1754979315
 10
-2.6356901978
 20
3.1511532935
  0
LWPOLYLINE
  5
2AE
100
AcDbEntity
  8
ASSI
100
AcDbPolyline
 62
253
  6
CONTINUOUS
 90
22
 70
0
 10
5.4735667749
 20
-6.2820647499
 10
5.4730845697
 20
-6.2696834663
 10
5.4718282466
 20
-6.256906953
 10
5.4698048305
 20
-6.2438066479
 10
5.467025635
 20
-6.2304557991
 10
5.4635062
 20
-6.2169290559
 10
5.459266204
 20
-6.2033020516
 10
5.4543293548
 20
-6.1896509795
 10
5.4487232562
 20
-6.1760521671
 10
5.4424792542
 20
-6.1625816504
 10
5.4356322615
 20
-6.1493147474
 10
5.4282205622
 20
-6.1363256377
 10
5.4202855981
 20
-6.1236869476
 10
5.4118717365
 20
-6.1114693441
 10
5.4030260222
 20
-6.0997411392
 10
5.393797915
 20
-6.088567909
 10
5.3842390123
 20
-6.0780121261
 10
5.3744027611
 20
-6.0681328107
 10
5.3643441593
 20
-6.0589852006
 10
5.3541194477
 20
-6.0506204423
 10
5.3437857958
 20
-6.0430853052
 10
5.3334009824
 20
-6.0364219198
  0
LWPOLYLINE
  5
2AF
100
AcDbEntity
  8
ASSI
100
AcDbPolyline
 62
253
  6
CONTINUOUS
 90
6
 70
0
 10
5.5794981652
 20
-15.8396171778
 10
5.6109422302
 20
-17.1955271129
 10
5.6464639296
 20
-18.5490516223
 10
5.6860632886
 20
-19.9001854969
 10
5.729740282
 20
-21.2489339458
 10
5.7774949098
 20
-22.5952969689
  0
LWPOLYLINE
  5
2B0
100
AcDbEntity
  8
ASSI
100
AcDbPolyline
 62
253
  6
CONTINUOUS
 90
7
 70
0
 10
5.4764721192
 20
-7.6544919737
 10
5.4834450137
 20
-9.0245710109
 10
5.494497415
 20
-10.3922950765
 10
5.5096299723
 20
-11.757669113
 10
5.5288420362
 20
-13.1206881778
 10
5.5521316588
 20
-14.4813374439
 10
5.5794981652
 20
-15.8396171778
  0
LINE
  5
2B1
100
AcDbEntity
  8
ASSI
100
AcDbLine
 62
253
  6
CONTINUOUS
 10
5.4735787313
 20
-6.2820579649
 11
5.4764721192
 21
-7.6544919737
  0
LWPOLYLINE
  5
2B2
100
AcDbEntity
  8
ASSI
100
AcDbPolyline
 62
253
  6
CONTINUOUS
 90
8
 70
0
 10
5.5794981652
 20
3.9719376593
 10
5.5521316588
 20
2.5831400785
 10
5.5288420362
 20
1.1965193155
 10
5.5096299723
 20
-0.1879241439
 10
5.494497415
 20
-1.5701732999
 10
5.4834450137
 20
-2.950222486
 10
5.4764721191
 20
-4.3280773689
 10
5.4735787312
 20
-5.7037379484
  0
LWPOLYLINE
  5
2B3
100
AcDbEntity
  8
ASSI
100
AcDbPolyline
 62
253
  6
CONTINUOUS
 90
6
 70
0
 10
5.7774949098
 20
10.9484141521
 10
5.729740282
 20
9.5487974033
 10
5.6860632886
 20
8.1513424159
 10
5.6464639296
 20
6.7560491896
 10
5.6109422302
 20
5.3629125439
 10
5.5794981652
 20
3.9719376593
  0
LWPOLYLINE
  5
2B4
100
AcDbEntity
  8
ASSI
100
AcDbPolyline
 62
253
  6
CONTINUOUS
 90
12
 70
0
 10
5.4735667749
 20
-5.7037444965
 10
5.4730845712
 20
-5.7157659019
 10
5.4718282519
 20
-5.7272556344
 10
5.4698048415
 20
-5.7381494511
 10
5.4670256536
 20
-5.7483864411
 10
5.4635062276
 20
-5.7579093663
 10
5.4592662416
 20
-5.7666649808
 10
5.4543294028
 20
-5.7746043292
 10
5.4487233146
 20
-5.78168302
 10
5.4424793225
 20
-5.787861474
 10
5.4356323387
 20
-5.7931051455
 10
5.4307763577
 20
-5.7960532356
  0
LINE
  5
2B5
100
AcDbEntity
  8
CURVE
100
AcDbLine
 62
253
  6
CONTINUOUS
 10
-0.7797386912
 20
6.7550501645
 11
-1.0414133698
 21
6.9061378444
  0
LINE
  5
2B6
100
AcDbEntity
  8
CURVE
100
AcDbLine
 62
253
  6
CONTINUOUS
 10
-2.2768221838
 20
7.6194474103
 11
-2.4861363152
 21
7.7403027665
  0
LWPOLYLINE
  5
2B7
100
AcDbEntity
  8
ASSI
100
AcDbPolyline
 62
253
  6
CONTINUOUS
 90
28
 70
0
 10
6.4586825691
 20
12.1100024924
 10
6.4570019297
 20
12.1334340731
 10
6.454153085
 20
12.1574883302
 10
6.4501456634
 20
12.1820839665
 10
6.4449932088
 20
12.2071378548
 10
6.4387131352
 20
12.2325653194
 10
6.4313266675
 20
12.2582804219
 10
6.4228587701
 20
12.2841962517
 10
6.4133380622
 20
12.3102252197
 10
6.4027967214
 20
12.3362793547
 10
6.3912703746
 20
12.3622706001
 10
6.3787979781
 20
12.388111112
 10
6.3654216852
 20
12.4137135559
 10
6.3511867045
 20
12.4389914019
 10
6.3361411465
 20
12.4638592171
 10
6.3203358616
 20
12.4882329544
 10
6.3038242676
 20
12.5120302367
 10
6.2866621694
 20
12.5351706349
 10
6.2689075709
 20
12.5575759401
 10
6.250620478
 20
12.579170428
 10
6.2318626966
 20
12.5998811145
 10
6.2126976234
 20
12.6196380024
 10
6.1931900316
 20
12.6383743184
 10
6.173405852
 20
12.6560267382
 10
6.1534119503
 20
12.6725356011
 10
6.1332759009
 20
12.6878451109
 10
6.1130657588
 20
12.7019035255
 10
6.0928498291
 20
12.7146633307
  0
LWPOLYLINE
  5
2B8
100
AcDbEntity
  8
ASSI
100
AcDbPolyline
 62
253
  6
CONTINUOUS
 90
16
 70
0
 10
6.4586825691
 20
-22.9972567171
 10
6.457001929
 20
-23.0212060762
 10
6.454153083
 20
-23.0443726234
 10
6.4501456595
 20
-23.0666780615
 10
6.4449932026
 20
-23.0880470037
 10
6.4387131264
 20
-23.1084072283
 10
6.4313266558
 20
-23.1276899228
 10
6.4228587554
 20
-23.1458299165
 10
6.4133380445
 20
-23.1627659009
 10
6.4027967007
 20
-23.1784406364
 10
6.3912703512
 20
-23.1928011463
 10
6.3787979522
 20
-23.2057988958
 10
6.3654216573
 20
-23.2173899557
 10
6.3511866749
 20
-23.227535151
 10
6.3361411158
 20
-23.2362001936
 10
6.3342801433
 20
-23.2371407934
  0
LINE
  5
2B9
100
AcDbEntity
  8
ASSI
100
AcDbLine
 62
253
  6
CONTINUOUS
 10
9.7989192788
 20
-3.5023281688
 11
5.3334009824
 21
-6.0364219198
  0
LINE
  5
2BA
100
AcDbEntity
  8
ASSI
100
AcDbLine
 62
253
  6
CONTINUOUS
 10
9.9403406359
 20
-3.7472584908
 11
5.4735787313
 21
-6.2820579649
  0
LINE
  5
2BB
100
AcDbEntity
  8
ASSI
100
AcDbLine
 62
253
  6
CONTINUOUS
 10
5.4735787312
 20
-5.7037379484
 11
9.9403406359
 21
-3.2574136297
  0
LINE
  5
2BC
100
AcDbEntity
  8
ASSI
100
AcDbLine
 62
7
  6
CONTINUOUS
 10
5.4307052887
 20
-5.7960922153
 11
9.8976196134
 21
-3.3496844204
  0
LWPOLYLINE
  5
2BD
100
AcDbEntity
  8
ASSI
100
AcDbPolyline
 62
253
  6
CONTINUOUS
 90
31
 70
0
 10
5.3334009824
 20
-6.0364219198
 10
5.3219064873
 20
-6.0426131827
 10
5.3099483839
 20
-6.0484254416
 10
5.2975266719
 20
-6.0538586963
 10
5.2846052875
 20
-6.0589257552
 10
5.2712202945
 20
-6.06361381
 10
5.2574798852
 20
-6.0678844362
 10
5.2433812364
 20
-6.0717341214
 10
5.2289271712
 20
-6.075166378
 10
5.2142343506
 20
-6.0781533187
 10
5.1993012817
 20
-6.0806912223
 10
5.1841294575
 20
-6.08278381
 10
5.168840018
 20
-6.0844143577
 10
5.153431825
 20
-6.0855791871
 10
5.1379060168
 20
-6.0862819766
 10
5.1223871487
 20
-6.0865170375
 10
5.106875229
 20
-6.0862805769
 10
5.0913702495
 20
-6.0855763879
 10
5.075996741
 20
-6.084410161
 10
5.0607559976
 20
-6.0827782118
 10
5.0456467253
 20
-6.0806842247
 10
5.0307895724
 20
-6.0781449437
 10
5.0161861459
 20
-6.0751566498
 10
5.0018348388
 20
-6.071723062
 10
4.9878514783
 20
-6.0678720813
 10
4.9742390125
 20
-6.063600202
 10
4.9609944935
 20
-6.0589109298
 10
4.9482249041
 20
-6.0538426826
 10
4.9359659054
 20
-6.0484082663
 10
4.9241818364
 20
-6.0425948751
 10
4.912872697
 20
-6.0364025088
  0
LWPOLYLINE
  5
2BE
100
AcDbEntity
  8
ASSI
100
AcDbPolyline
 62
253
  6
CONTINUOUS
 90
31
 70
0
 10
5.4735787311
 20
-6.2820580087
 10
5.4544961051
 20
-6.2922777207
 10
5.434534662
 20
-6.3019120061
 10
5.4137480811
 20
-6.3109354229
 10
5.392193224
 20
-6.3193240702
 10
5.369927082
 20
-6.3270560171
 10
5.3470063125
 20
-6.3341110612
 10
5.3234904292
 20
-6.3404708489
 10
5.2994440472
 20
-6.3461178939
 10
5.2749337459
 20
-6.3510359932
 10
5.2500262294
 20
-6.3552120777
 10
5.2247873528
 20
-6.3586354575
 10
5.1992841207
 20
-6.3612966022
 10
5.1735846025
 20
-6.3631885765
 10
5.1477579758
 20
-6.3643064953
 10
5.1218736764
 20
-6.3646469372
 10
5.0960010981
 20
-6.3642091556
 10
5.0702095964
 20
-6.3629945409
 10
5.0445685018
 20
-6.3610060206
 10
5.0191468256
 20
-6.3582491074
 10
4.9940124244
 20
-6.3547313784
 10
4.9692320351
 20
-6.3504618841
 10
4.9448711908
 20
-6.3454519168
 10
4.9209961739
 20
-6.3397151708
 10
4.8976730534
 20
-6.3332673849
 10
4.8749658897
 20
-6.3261265957
 10
4.8529336473
 20
-6.3183117469
 10
4.8316324001
 20
-6.3098426147
 10
4.8111184774
 20
-6.300741339
 10
4.7914479938
 20
-6.2910326594
 10
4.7726738484
 20
-6.280742511
  0
LWPOLYLINE
  5
2BF
100
AcDbEntity
  8
ASSI
100
AcDbPolyline
 62
253
  6
CONTINUOUS
 90
7
 70
0
 10
5.3470063114
 20
-5.7544169417
 10
5.3699270809
 20
-5.7475845622
 10
5.3921932227
 20
-5.7400790484
 10
5.4137480799
 20
-5.7319189863
 10
5.434534661
 20
-5.7231257148
 10
5.4544961046
 20
-5.713723567
 10
5.4735787311
 20
-5.7037379044
  0
LINE
  5
2C0
100
AcDbEntity
  8
CURVE
100
AcDbLine
 62
253
  6
CONTINUOUS
 10
-2.4324792787
 20
10.1520456758
 11
-2.1708302116
 21
10.0009727837
  0
LINE
  5
2C1
100
AcDbEntity
  8
CURVE
100
AcDbLine
 62
253
  6
CONTINUOUS
 10
-0.9354213975
 20
9.2876632178
 11
-0.7260816547
 21
9.1667930739
  0
LINE
  5
2C2
100
AcDbEntity
  8
ASSI
100
AcDbLine
 62
7
  6
CONTINUOUS
 10
9.9403406359
 20
-3.7472584908
 11
9.9403406359
 21
-14.1980966863
  0
LINE
  5
2C3
100
AcDbEntity
  8
ASSI
100
AcDbLine
 62
7
  6
CONTINUOUS
 10
9.9403406359
 20
-3.2574136297
 11
9.9403406359
 21
7.1934245657
  0
LINE
  5
2C4
100
AcDbEntity
  8
ASSI
100
AcDbLine
 62
7
  6
CONTINUOUS
 10
9.9403406359
 20
7.1934245657
 11
9.3981731445
 21
13.9238204242
  0
LINE
  5
2C5
100
AcDbEntity
  8
ASSI
100
AcDbLine
 62
7
  6
CONTINUOUS
 10
9.9403406359
 20
-14.1980966863
 11
9.3981731445
 21
-21.533092353
  0
LINE
  5
2C6
100
AcDbEntity
  8
ASSI
100
AcDbLine
 62
253
  6
CONTINUOUS
 10
-9.8417389411
 20
19.5827314213
 11
5.0769108223
 21
10.9688900229
  0
LINE
  5
2C7
100
AcDbEntity
  8
ASSI
100
AcDbLine
 62
7
  6
CONTINUOUS
 10
7.0119558738
 20
15.6725776124
 11
6.3395655418
 21
15.5427562345
  0
LINE
  5
2C8
100
AcDbEntity
  8
ASSI
100
AcDbLine
 62
253
  6
CONTINUOUS
 10
-8.8491603193
 20
21.342007606
 11
6.0928622898
 21
12.7146710196
  0
LINE
  5
2C9
100
AcDbEntity
  8
ASSI
100
AcDbLine
 62
7
  6
CONTINUOUS
 10
6.1463803766
 20
15.5683650697
 11
3.7640952805
 21
16.9438666271
  0
LINE
  5
2CA
100
AcDbEntity
  8
ASSI
100
AcDbLine
 62
7
  6
CONTINUOUS
 10
-1.7732155727
 20
20.141040515
 11
-4.1555006688
 21
21.5165420724
  0
LINE
  5
2CB
100
AcDbEntity
  8
ASSI
100
AcDbLine
 62
7
  6
CONTINUOUS
 10
9.0135463498
 20
14.5168843574
 11
7.0119558738
 21
15.6725776124
  0
LINE
  5
2CC
100
AcDbEntity
  8
ASSI
100
AcDbLine
 62
7
  6
CONTINUOUS
 10
3.8924979179
 20
17.4737135402
 11
-0.9076400755
 21
20.2452530577
  0
LINE
  5
2CD
100
AcDbEntity
  8
ASSI
100
AcDbLine
 62
7
  6
CONTINUOUS
 10
-4.0270980314
 20
22.0463889854
 11
-6.0286885073
 21
23.2020822404
  0
LINE
  5
2CE
100
AcDbEntity
  8
ASSI
100
AcDbLine
 62
7
  6
CONTINUOUS
 10
-0.9076400755
 20
20.2452530577
 11
-1.5800304075
 21
20.1154316798
  0
LWPOLYLINE
  5
2CF
100
AcDbEntity
  8
ASSI
100
AcDbPolyline
 62
253
  6
CONTINUOUS
 90
28
 70
0
 10
5.7774949098
 20
-22.5952969689
 10
5.7562567224
 20
-22.6074403628
 10
5.7339395042
 20
-22.6188563997
 10
5.7106171028
 20
-22.6295073042
 10
5.6863666917
 20
-22.6393578325
 10
5.6612685152
 20
-22.6483753893
 10
5.6354056229
 20
-22.6565301357
 10
5.6088635949
 20
-22.6637950876
 10
5.5817302585
 20
-22.6701462055
 10
5.5540953975
 20
-22.6755624735
 10
5.5260504553
 20
-22.6800259693
 10
5.4976882325
 20
-22.6835219232
 10
5.4691025793
 20
-22.6860387672
 10
5.4403880852
 20
-22.687568173
 10
5.4116397663
 20
-22.6881050798
 10
5.3829527503
 20
-22.6876477111
 10
5.3544219624
 20
-22.6861975802
 10
5.3261418105
 20
-22.6837594857
 10
5.2982058735
 20
-22.6803414951
 10
5.2707065909
 20
-22.6759549186
 10
5.2437349576
 20
-22.6706142712
 10
5.2173802225
 20
-22.6643372252
 10
5.1917295931
 20
-22.6571445512
 10
5.166867947
 20
-22.6490600496
 10
5.1428775511
 20
-22.640110472
 10
5.1198377894
 20
-22.6303254325
 10
5.0978249002
 20
-22.6197373097
 10
5.076911724
 20
-22.6083811395
  0
LINE
  5
2D0
100
AcDbEntity
  8
ASSI
100
AcDbLine
 62
253
  6
CONTINUOUS
 10
6.4586825691
 20
-22.9972567171
 11
9.3981731445
 21
-21.533092353
  0
LINE
  5
2D1
100
AcDbEntity
  8
ASSI
100
AcDbLine
 62
7
  6
CONTINUOUS
 10
6.3342801433
 20
-23.2371407934
 11
9.2625954715
 21
-21.7785428355
  0
ELLIPSE
  5
2D2
100
AcDbEntity
  8
ASSI
100
AcDbEllipse
 62
7
  6
CONTINUOUS
 10
9.0445945519
 20
-21.3285362989
 30
0.0
 11
-0.2148150744
 21
0.4515576038
 31
0.0
 40
0.6258090719
 41
-3.1302698991
 42
-2.3092664522
  0
ELLIPSE
  5
2D3
100
AcDbEntity
  8
ASSI
100
AcDbEllipse
 62
7
  6
CONTINUOUS
 10
9.7988977372
 20
-3.6656160043
 30
0.0
 11
-0.1000238792
 21
0.1731956925
 31
0.0
 40
0.5774195892
 41
-2.3562809449
 42
-0.7856369171
  0
ELLIPSE
  5
2D4
100
AcDbEntity
  8
ASSI
100
AcDbEllipse
 62
7
  6
CONTINUOUS
 10
-5.9980707275
 20
22.8130795122
 30
0.0
 11
-0.2805986523
 21
0.4138767202
 31
0.0
 40
0.5251497255
 41
-0.8253745819
 42
-0.0067082778
  0
ELLIPSE
  5
2D5
100
AcDbEntity
  8
ASSI
100
AcDbEllipse
 62
7
  6
CONTINUOUS
 10
9.0445945519
 20
14.1276331088
 30
0.0
 11
-0.2807400337
 21
0.4141474974
 31
0.0
 40
0.5245128892
 41
-2.3945640771
 42
-0.8246811388
  0
ELLIPSE
  5
2D6
100
AcDbEntity
  8
ASSI
100
AcDbEllipse
 62
7
  6
CONTINUOUS
 10
9.7988977372
 20
-3.1757214023
 30
0.0
 11
-0.1000390991
 21
0.1732220807
 31
0.0
 40
0.5772437351
 41
-3.1546807054
 42
-2.3564331449
  0
ELLIPSE
  5
2D7
100
AcDbEntity
  8
ASSI
100
AcDbEllipse
 62
7
  6
CONTINUOUS
 10
6.2878017328
 20
15.6585778672
 30
0.0
 11
0.1999154856
 21
0.0095814127
 31
0.0
 40
0.6067642562
 41
-2.385266879
 42
-1.3380693278
  0
ELLIPSE
  5
2D8
100
AcDbEntity
  8
ASSI
100
AcDbEllipse
 62
7
  6
CONTINUOUS
 10
-1.6317942165
 20
20.2312533124
 30
0.0
 11
0.1999154856
 21
0.0095814127
 31
0.0
 40
0.6067642562
 41
-2.385266879
 42
-1.3380693278
  0
ELLIPSE
  5
2D9
100
AcDbEntity
  8
ASSI
100
AcDbEllipse
 62
7
  6
CONTINUOUS
 10
3.9055166367
 20
17.0340794246
 30
0.0
 11
0.1999154856
 21
0.0095814127
 31
0.0
 40
0.6067642562
 41
2.850720877
 42
3.8979184282
  0
ELLIPSE
  5
2DA
100
AcDbEntity
  8
ASSI
100
AcDbEllipse
 62
7
  6
CONTINUOUS
 10
-4.0140793126
 20
21.6067548699
 30
0.0
 11
0.1999154856
 21
0.0095814127
 31
0.0
 40
0.6067642562
 41
2.850720877
 42
3.8979184282
  0
ELLIPSE
  5
2DB
100
AcDbEntity
  8
CURVE
100
AcDbEllipse
 62
253
  6
CONTINUOUS
 10
358.1059915808
 20
198.2748944017
 30
0.0
 11
-199.986650542
 21
571.676900101
 31
0.0
 40
0.6675835612
 41
-4.6147620032
 42
-4.609767639
  0
ELLIPSE
  5
2DC
100
AcDbEntity
  8
CURVE
100
AcDbEllipse
 62
253
  6
CONTINUOUS
 10
358.4319886615
 20
198.086667773
 30
0.0
 11
-204.2106893614
 21
572.5121396967
 31
0.0
 40
0.6655565581
 41
-4.6201202007
 42
-4.6151754128
  0
ENDSEC
  0
SECTION
  2
OBJECTS
  0
DICTIONARY
  5
C
100
AcDbDictionary
280
0
281
1
  3
ACAD_GROUP
350
D
  3
ACAD_MLINESTYLE
350
17
  3
ACAD_LAYOUT
350
1A
  3
ACAD_PLOTSETTINGS
350
19
  3
ACAD_PLOTSTYLENAME
350
E
  0
DICTIONARY
  5
D
102
{ACAD_REACTORS
330
C
102
}
100
AcDbDictionary
280
0
281
1
  0
ACDBDICTIONARYWDFLT
  5
E
102
{ACAD_REACTORS
330
C
102
}
100
AcDbDictionary
281
1
  3
Normal
350
F
100
AcDbDictionaryWithDefault
340
F
  0
DICTIONARY
  5
17
102
{ACAD_REACTORS
330
C
102
}
100
AcDbDictionary
280
0
281
1
  3
Standard
350
18
  0
DICTIONARY
  5
19
102
{ACAD_REACTORS
330
C
102
}
100
AcDbDictionary
281
1
  0
DICTIONARY
  5
1A
102
{ACAD_REACTORS
330
C
102
}
100
AcDbDictionary
281
1
  3
Model
350
2DD
  3
Layout1
350
2DE
  0
ACDBPLACEHOLDER
  5
F
102
{ACAD_REACTORS
330
E
102
}
  0
MLINESTYLE
  5
18
102
{ACAD_REACTORS
330
17
102
}
100
AcDbMlineStyle
  2
STANDARD
 70
0
  3

 62
256
 51
90.0
 52
90.0
 71
2
 49
0.5
 62
256
  6
BYLAYER
 49
-0.5
 62
256
  6
BYLAYER
  0
LAYOUT
  5
2DD
102
{ACAD_REACTORS
330
1A
102
}
100
AcDbPlotSettings
  1

  2
none_device
  4
ISO_A4_(297.00_x_210.00_MM)
  6

 40
0.0
 41
0.0
 42
0.0
 43
0.0
 44
297.0
 45
210.0
 46
0.0
 47
0.0
 48
0.0
 49
0.0
140
0.0
141
0.0
142
1.0
143
1.0
 70
1024
 72
1
 73
0
 74
0
  7

 75
0
147
1.0
148
0.0
149
0.0
100
AcDbLayout
  1
Model
 70
0
 71
0
 10
0.0
 20
0.0
 11
297.0
 21
210.0
 12
0.0
 22
0.0
 32
0.0
 14
0.0
 24
0.0
 34
0.0
 15
0.0
 25
0.0
 35
0.0
146
0.0
 13
0.0
 23
0.0
 33
0.0
 16
1.0
 26
0.0
 36
0.0
 17
0.0
 27
1.0
 37
0.0
 76
0
330
217
345
0
346
0
  0
LAYOUT
  5
2DE
102
{ACAD_REACTORS
330
1A
102
}
100
AcDbPlotSettings
  1

  2
none_device
  4
ISO_A4_(297.00_x_210.00_MM)
  6

 40
0.0
 41
0.0
 42
0.0
 43
0.0
 44
297.0
 45
210.0
 46
0.0
 47
0.0
 48
0.0
 49
0.0
140
0.0
141
0.0
142
1.0
143
1.0
 70
0
 72
1
 73
0
 74
0
  7

 75
0
147
1.0
148
0.0
149
0.0
100
AcDbLayout
  1
Layout1
 70
0
 71
1
 10
0.0
 20
0.0
 11
297.0
 21
210.0
 12
0.0
 22
0.0
 32
0.0
 14
0.0
 24
0.0
 34
0.0
 15
0.0
 25
0.0
 35
0.0
146
0.0
 13
0.0
 23
0.0
 33
0.0
 16
1.0
 26
0.0
 36
0.0
 17
0.0
 27
1.0
 37
0.0
 76
0
330
218
345
0
346
0
  0
ENDSEC
  0
EOF
