  0
SECTION
  2
HEADER
  9
$ACADVER
  1
AC1021
  9
$DWGCODEPAGE
  3
ANSI_1252
  9
$EXTMAX
 10
297.0
 20
210.0
 30
0.0
  9
$EXTMIN
 10
0.0
 20
0.0
 30
0.0
  9
$LIMMIN
 10
0.0
 20
0.0
  9
$LIMMAX
 10
297.0
 20
210.0
  9
$VIEWCTR
 10
148.5
 20
105.0
  9
$VIEWSIZE
 40
210.0
  9
$CLAYER
  8
0
  9
$LTSCALE
 40
16.335
  9
$CELTYPE
  6
BYLAYER
  9
$DIMSCALE
 40
1.0
  9
$DIMASZ
 40
3.0
  9
$DIMEXO
 40
0.5
  9
$DIMDLI
 40
11.286
  9
$DIMEXE
 40
1.5
  9
$DIMCEN
 40
2.673
  9
$DIMLFAC
 40
1.0
  9
$DIMBLK
  1
_FILLED
  9
$DIMALT
 70
0
  9
$DIMALTF
 40
25.4
  9
$DIMTXT
 40
3.0
  9
$DIMTOL
 70
1
  9
$DIMLIM
 70
0
  9
$DIMTFAC
 40
1.0
  9
$DIMTP
 40
0.01
  9
$DIMTM
 40
0.01
  9
$DIMGAP
 40
0.625
  9
$DIMDSEP
 70
44
  9
$AUNITS
 70
0
  9
$PDMODE
 70
3
  9
$PDSIZE
 40
3.0
  9
$HANDSEED
  5
2CB
  9
$TILEMODE
 70
1
  9
$MEASUREMENT
 70
1
  9
$INSUNITS
 70
4
  0
ENDSEC
  0
SECTION
  2
CLASSES
  0
CLASS
  1
ACDBDICTIONARYWDFLT
  2
AcDbDictionaryWithDefault
  3
AutoCAD 2000
 90
0
 91
1
280
0
281
0
  0
CLASS
  1
ACDBPLACEHOLDER
  2
AcDbPlaceHolder
  3
AutoCAD 2000
 90
0
 91
1
280
0
281
0
  0
CLASS
  1
LAYOUT
  2
AcDbLayout
  3
AutoCAD 2000
 90
0
 91
0
280
0
281
0
  0
ENDSEC
  0
SECTION
  2
TABLES
  0
TABLE
  2
VPORT
  5
8
100
AcDbSymbolTable
 70
2
  0
VPORT
  5
1F4
100
AcDbSymbolTableRecord
100
AcDbViewportTableRecord
  2
*ACTIVE
 70
0
 10
0.0
 20
0.0
 11
1.0
 21
1.0
 12
148.5
 22
105.0
 13
0.0
 23
0.0
 14
1.0
 24
1.0
 15
0.0
 25
0.0
 16
0.0
 26
0.0
 36
1.0
 17
0.0
 27
0.0
 37
0.0
 40
210.0
 41
1.4142857143
 42
50.0
 43
0.0
 44
0.0
 50
0.0
 51
0.0
 71
0
 72
100
 73
1
 74
1
 75
0
 76
0
 77
0
 78
0
  0
ENDTAB
  0
TABLE
  2
LTYPE
  5
5
100
AcDbSymbolTable
 70
6
  0
LTYPE
  5
14
100
AcDbSymbolTableRecord
100
AcDbLinetypeTableRecord
  2
BYBLOCK
 70
0
  3

 72
65
 73
0
 40
0.0
  0
LTYPE
  5
15
100
AcDbSymbolTableRecord
100
AcDbLinetypeTableRecord
  2
BYLAYER
 70
0
  3

 72
65
 73
0
 40
0.0
  0
LTYPE
  5
16
100
AcDbSymbolTableRecord
100
AcDbLinetypeTableRecord
  2
CONTINUOUS
 70
64
  3
Solid line
 72
65
 73
0
 40
0.0
  0
LTYPE
  5
1F5
100
AcDbSymbolTableRecord
100
AcDbLinetypeTableRecord
  2
CENTER
 70
64
  3
____ _ ____ _ ____ _ ____ _ ____ _ ____ _ ____
 72
65
 73
4
 40
0.6
 49
0.375
 74
0
 49
-0.075
 74
0
 49
0.075
 74
0
 49
-0.075
 74
0
  0
LTYPE
  5
1F6
100
AcDbSymbolTableRecord
100
AcDbLinetypeTableRecord
  2
HIDDEN
 70
64
  3
- - - - - - - - - - - - - - - - - - - -
 72
65
 73
2
 40
0.2
 49
0.1
 74
0
 49
-0.1
 74
0
  0
LTYPE
  5
1F7
100
AcDbSymbolTableRecord
100
AcDbLinetypeTableRecord
  2
PHANTOM
 70
64
  3
_____ _ _ _____ _ _ _____ _ _ _____
 72
65
 73
6
 40
0.8
 49
0.45
 74
0
 49
-0.05
 74
0
 49
0.1
 74
0
 49
-0.05
 74
0
 49
0.1
 74
0
 49
-0.05
 74
0
  0
LTYPE
  5
1F8
100
AcDbSymbolTableRecord
100
AcDbLinetypeTableRecord
  2
DOT
 70
64
  3
. . . . . . . . . . . . . . . . . . . .
 72
65
 73
2
 40
0.2
 49
0.1
 74
0
 49
-0.1
 74
0
  0
LTYPE
  5
1F9
100
AcDbSymbolTableRecord
100
AcDbLinetypeTableRecord
  2
DASHED
 70
64
  3
- - - - - - - - - - - - - - - - - - - -
 72
65
 73
2
 40
0.2
 49
0.1
 74
0
 49
-0.1
 74
0
  0
ENDTAB
  0
TABLE
  2
LAYER
  5
2
100
AcDbSymbolTable
 70
36
  0
LAYER
  5
10
100
AcDbSymbolTableRecord
100
AcDbLayerTableRecord
  2
0
 70
0
 62
7
  6
CONTINUOUS
370
-3
390
F
  0
LAYER
  5
1FA
100
AcDbSymbolTableRecord
100
AcDbLayerTableRecord
  2
DEFAULT_1
 70
0
 62
7
  6
CENTER
370
-3
390
F
  0
LAYER
  5
1FB
100
AcDbSymbolTableRecord
100
AcDbLayerTableRecord
  2
DEFAULT_2
 70
0
 62
7
  6
HIDDEN
370
-3
390
F
  0
LAYER
  5
1FC
100
AcDbSymbolTableRecord
100
AcDbLayerTableRecord
  2
DEFAULT_3
 70
0
 62
7
  6
PHANTOM
370
-3
390
F
  0
LAYER
  5
1FD
100
AcDbSymbolTableRecord
100
AcDbLayerTableRecord
  2
ASSI
 70
0
 62
7
  6
CONTINUOUS
370
-3
390
F
  0
LAYER
  5
1FE
100
AcDbSymbolTableRecord
100
AcDbLayerTableRecord
  2
COORDINATE
 70
0
 62
7
  6
CONTINUOUS
370
-3
390
F
  0
LAYER
  5
1FF
100
AcDbSymbolTableRecord
100
AcDbLayerTableRecord
  2
COORD_ORIGINE
 70
0
 62
7
  6
CONTINUOUS
370
-3
390
F
  0
LAYER
  5
200
100
AcDbSymbolTableRecord
100
AcDbLayerTableRecord
  2
COPY_PUBLISH
 70
0
 62
7
  6
CONTINUOUS
370
-3
390
F
  0
LAYER
  5
201
100
AcDbSymbolTableRecord
100
AcDbLayerTableRecord
  2
COSMETIC
 70
0
 62
7
  6
CONTINUOUS
370
-3
390
F
  0
LAYER
  5
202
100
AcDbSymbolTableRecord
100
AcDbLayerTableRecord
  2
COSMETICI
 70
0
 62
7
  6
CONTINUOUS
370
-3
390
F
  0
LAYER
  5
203
100
AcDbSymbolTableRecord
100
AcDbLayerTableRecord
  2
CURVE
 70
0
 62
7
  6
CONTINUOUS
370
-3
390
F
  0
LAYER
  5
204
100
AcDbSymbolTableRecord
100
AcDbLayerTableRecord
  2
DRAFT
 70
0
 62
7
  6
CONTINUOUS
370
-3
390
F
  0
LAYER
  5
205
100
AcDbSymbolTableRecord
100
AcDbLayerTableRecord
  2
IGES
 70
0
 62
7
  6
CONTINUOUS
370
-3
390
F
  0
LAYER
  5
206
100
AcDbSymbolTableRecord
100
AcDbLayerTableRecord
  2
IMPORT_IGES
 70
0
 62
7
  6
CONTINUOUS
370
-3
390
F
  0
LAYER
  5
207
100
AcDbSymbolTableRecord
100
AcDbLayerTableRecord
  2
LIVELLO_1
 70
0
 62
7
  6
CONTINUOUS
370
-3
390
F
  0
LAYER
  5
208
100
AcDbSymbolTableRecord
100
AcDbLayerTableRecord
  2
NOTE
 70
0
 62
7
  6
CONTINUOUS
370
-3
390
F
  0
LAYER
  5
209
100
AcDbSymbolTableRecord
100
AcDbLayerTableRecord
  2
PIANI
 70
0
 62
7
  6
CONTINUOUS
370
-3
390
F
  0
LAYER
  5
20A
100
AcDbSymbolTableRecord
100
AcDbLayerTableRecord
  2
PIANI_ORIGINE
 70
0
 62
7
  6
CONTINUOUS
370
-3
390
F
  0
LAYER
  5
20B
100
AcDbSymbolTableRecord
100
AcDbLayerTableRecord
  2
PIANI_RIFERIMENTO
 70
0
 62
7
  6
CONTINUOUS
370
-3
390
F
  0
LAYER
  5
20C
100
AcDbSymbolTableRecord
100
AcDbLayerTableRecord
  2
PUNTI
 70
0
 62
7
  6
CONTINUOUS
370
-3
390
F
  0
LAYER
  5
20D
100
AcDbSymbolTableRecord
100
AcDbLayerTableRecord
  2
RACCORDO
 70
0
 62
7
  6
CONTINUOUS
370
-3
390
F
  0
LAYER
  5
20E
100
AcDbSymbolTableRecord
100
AcDbLayerTableRecord
  2
SIMBOLI
 70
0
 62
7
  6
CONTINUOUS
370
-3
390
F
  0
LAYER
  5
20F
100
AcDbSymbolTableRecord
100
AcDbLayerTableRecord
  2
SMUSSO
 70
0
 62
7
  6
CONTINUOUS
370
-3
390
F
  0
LAYER
  5
210
100
AcDbSymbolTableRecord
100
AcDbLayerTableRecord
  2
SNAPLINE
 70
0
 62
7
  6
CONTINUOUS
370
-3
390
F
  0
LAYER
  5
211
100
AcDbSymbolTableRecord
100
AcDbLayerTableRecord
  2
SUPERFICI
 70
0
 62
7
  6
CONTINUOUS
370
-3
390
F
  0
LAYER
  5
212
100
AcDbSymbolTableRecord
100
AcDbLayerTableRecord
  2
TRASH
 70
0
 62
7
  6
CONTINUOUS
370
-3
390
F
  0
LAYER
  5
213
100
AcDbSymbolTableRecord
100
AcDbLayerTableRecord
  2
WHITE
 70
0
 62
7
  6
CONTINUOUS
370
-3
390
F
  0
LAYER
  5
214
100
AcDbSymbolTableRecord
100
AcDbLayerTableRecord
  2
XSEC_DATUMS
 70
0
 62
7
  6
CONTINUOUS
370
-3
390
F
  0
ENDTAB
  0
TABLE
  2
STYLE
  5
3
100
AcDbSymbolTable
 70
1
  0
STYLE
  5
11
100
AcDbSymbolTableRecord
100
AcDbTextStyleTableRecord
  2
STANDARD
 70
0
 40
0.0
 41
0.8
 50
0.0
 71
0
 42
0.2
  3
txt
  4

  0
STYLE
  5
215
100
AcDbSymbolTableRecord
100
AcDbTextStyleTableRecord
  2
TEXTSTYLE_1
 70
0
 40
0.0
 41
0.8
 50
0.0
 71
0
 42
0.2
  3
gdt
  4

  0
ENDTAB
  0
TABLE
  2
VIEW
  5
6
100
AcDbSymbolTable
 70
0
  0
ENDTAB
  0
TABLE
  2
UCS
  5
7
100
AcDbSymbolTable
 70
0
  0
ENDTAB
  0
TABLE
  2
APPID
  5
9
100
AcDbSymbolTable
 70
1
  0
APPID
  5
216
100
AcDbSymbolTableRecord
100
AcDbRegAppTableRecord
  2
ACAD
 70
0
  0
ENDTAB
  0
TABLE
  2
BLOCK_RECORD
  5
1
100
AcDbSymbolTable
 70
0
  0
BLOCK_RECORD
  5
217
100
AcDbSymbolTableRecord
100
AcDbBlockTableRecord
  2
*Model_Space
  0
BLOCK_RECORD
  5
218
100
AcDbSymbolTableRecord
100
AcDbBlockTableRecord
  2
*Paper_Space
  0
ENDTAB
  0
TABLE
  2
DIMSTYLE
  5
A
100
AcDbSymbolTable
 70
1
100
AcDbDimStyleTable
 71
0
  0
DIMSTYLE
105
219
100
AcDbSymbolTableRecord
100
AcDbDimStyleTableRecord
  2
STANDARD
 70
0
  3

  4

 40
1.0
 41
3.0
 42
0.5
 43
0.38
 44
1.5
 45
0.0
 46
0.0
 47
0.01
 48
0.01
140
3.0
141
0.09
142
0.0
143
25.4
144
1.0
145
0.0
146
1.0
147
0.625
 71
1.0
 72
0.0
 73
0
 74
0
 75
0
 76
0
 77
1
 78
8
170
0
171
1
172
0
173
0
174
0
175
0
176
0
177
0
178
0
270
2
271
2
272
2
273
2
274
2
275
0
280
0
281
0
282
0
283
1
284
8
285
0
286
0
287
3
288
0
340
11
278
44
  0
ENDTAB
  0
ENDSEC
  0
SECTION
  2
BLOCKS
  0
BLOCK
  5
20
100
AcDbEntity
  8
0
100
AcDbBlockBegin
  2
*Model_Space
 70
0
 10
0.0
 20
0.0
 30
0.0
  3
*Model_Space
  1

  0
ENDBLK
  5
21
100
AcDbEntity
  8
0
100
AcDbBlockEnd
  0
BLOCK
  5
1C
100
AcDbEntity
  8
0
100
AcDbBlockBegin
  2
*Paper_Space
 70
0
 10
0.0
 20
0.0
 30
0.0
  3
*Paper_Space
  1

  0
ENDBLK
  5
1D
100
AcDbEntity
  8
0
100
AcDbBlockEnd
  0
ENDSEC
  0
SECTION
  2
ENTITIES
  0
LWPOLYLINE
  5
21A
100
AcDbEntity
  8
ASSI
100
AcDbPolyline
 62
7
  6
CONTINUOUS
 90
16
 70
0
 10
-9.0459270861
 20
21.3227671328
 10
-9.0968510354
 20
21.2877086843
 10
-9.200043892
 20
21.2071769956
 10
-9.2979921007
 20
21.1180375866
 10
-9.3905159317
 20
21.0210742387
 10
-9.4773421846
 20
20.917028202
 10
-9.5579751804
 20
20.8068376229
 10
-9.6320187753
 20
20.6912907868
 10
-9.6990596654
 20
20.5711368617
 10
-9.7585029742
 20
20.4474427022
 10
-9.8099287277
 20
20.3209540856
 10
-9.8528748459
 20
20.1924224941
 10
-9.8868039794
 20
20.0627632823
 10
-9.9112297559
 20
19.9325990904
 10
-9.9255809786
 20
19.8024949099
 10
-9.9284843272
 20
19.7468581714
  0
LINE
  5
21B
100
AcDbEntity
  8
ASSI
100
AcDbLine
 62
7
  6
CONTINUOUS
 10
-9.0462239785
 20
21.3225720149
 11
-6.2174872564
 21
23.1880972799
  0
LINE
  5
21C
100
AcDbEntity
  8
ASSI
100
AcDbLine
 62
253
  6
CONTINUOUS
 10
-8.7894425238
 20
21.3021694665
 11
-5.9689707119
 21
23.1622441009
  0
LWPOLYLINE
  5
21D
100
AcDbEntity
  8
ASSI
100
AcDbPolyline
 62
253
  6
CONTINUOUS
 90
15
 70
0
 10
-9.045927174
 20
21.3227672662
 10
-9.0311094777
 20
21.3313593302
 10
-9.0161990997
 20
21.3379982259
 10
-9.0004598443
 20
21.3431742688
 10
-8.9839449063
 20
21.3468699652
 10
-8.9667101019
 20
21.3490728243
 10
-8.9488136806
 20
21.3497754013
 10
-8.9303161279
 20
21.3489753214
 10
-8.9112799607
 20
21.3466752889
 10
-8.8917695167
 20
21.3428830772
 10
-8.8718507362
 20
21.337611503
 10
-8.8515909397
 20
21.330878383
 10
-8.8310586004
 20
21.3227064734
 10
-8.8103231124
 20
21.3131233933
 10
-8.7894545565
 20
21.302161531
  0
LWPOLYLINE
  5
21E
100
AcDbEntity
  8
ASSI
100
AcDbPolyline
 62
7
  6
CONTINUOUS
 90
12
 70
0
 10
5.4484512389
 20
-23.2861833152
 10
5.4659654901
 20
-23.2960674811
 10
5.5504733438
 20
-23.3365320942
 10
5.6395164403
 20
-23.3676611256
 10
5.7324047512
 20
-23.3891283821
 10
5.8289484438
 20
-23.4007105015
 10
5.9284258938
 20
-23.4020660078
 10
6.0300665751
 20
-23.3929552234
 10
6.1339550065
 20
-23.3730569586
 10
6.2398546638
 20
-23.3419305156
 10
6.3469779571
 20
-23.2992869646
 10
6.3937927428
 20
-23.2770807841
  0
LINE
  5
21F
100
AcDbEntity
  8
ASSI
100
AcDbLine
 62
7
  6
CONTINUOUS
 10
5.4499600205
 20
-23.28705791
 11
-9.4758981041
 21
-14.6690544938
  0
LINE
  5
220
100
AcDbEntity
  8
ASSI
100
AcDbLine
 62
253
  6
CONTINUOUS
 10
5.1366286177
 20
-22.6482030603
 11
-9.7820211456
 21
-14.0343616619
  0
LINE
  5
221
100
AcDbEntity
  8
ASSI
100
AcDbLine
 62
253
  6
CONTINUOUS
 10
-9.4800257043
 20
-14.6666442642
 11
-9.5096385704
 21
-14.6476910455
  0
LWPOLYLINE
  5
222
100
AcDbEntity
  8
ASSI
100
AcDbPolyline
 62
253
  6
CONTINUOUS
 90
18
 70
0
 10
-9.5096385704
 20
-14.6476910455
 10
-9.5379456353
 20
-14.6265783103
 10
-9.5649000875
 20
-14.6033412404
 10
-9.5904559728
 20
-14.5780194936
 10
-9.6145699231
 20
-14.5506559762
 10
-9.6372025767
 20
-14.5212959796
 10
-9.6583154695
 20
-14.489989186
 10
-9.6778725767
 20
-14.4567886007
 10
-9.6958419701
 20
-14.421749252
 10
-9.7121933283
 20
-14.3849296598
 10
-9.7268983658
 20
-14.3463925409
 10
-9.7399324474
 20
-14.3062037857
 10
-9.7512734249
 20
-14.2644319713
 10
-9.7609022334
 20
-14.22114708
 10
-9.7688032762
 20
-14.1764211639
 10
-9.7749633587
 20
-14.1303292945
 10
-9.7793718021
 20
-14.0829495118
 10
-9.7820211456
 20
-14.0343616619
  0
LINE
  5
223
100
AcDbEntity
  8
ASSI
100
AcDbLine
 62
7
  6
CONTINUOUS
 10
-3.9673802359
 20
22.0065508459
 11
-4.1475466824
 21
21.5925255655
  0
LWPOLYLINE
  5
224
100
AcDbEntity
  8
CURVE
100
AcDbPolyline
 62
253
  6
CONTINUOUS
 90
79
 70
0
 10
-0.4646743602
 20
-12.6922030379
 10
-0.4624208611
 20
-12.6918220189
 10
-0.4602714741
 20
-12.6913417031
 10
-0.4582014008
 20
-12.6907605139
 10
-0.4561858429
 20
-12.6900768748
 10
-0.4535531611
 20
-12.6890047882
 10
-0.4509912596
 20
-12.6877531713
 10
-0.4485180885
 20
-12.6863274297
 10
-0.446730228
 20
-12.6851466023
 10
-0.444997891
 20
-12.6838701285
 10
-0.4433178825
 20
-12.6824978285
 10
-0.4416921658
 20
-12.681031772
 10
-0.4396129549
 20
-12.6789332657
 10
-0.4376337686
 20
-12.67666418
 10
-0.4357523304
 20
-12.6742159347
 10
-0.4339681921
 20
-12.6715809918
 10
-0.4322882196
 20
-12.6687559811
 10
-0.430721107
 20
-12.6657385747
 10
-0.4292753557
 20
-12.662528746
 10
-0.427958695
 20
-12.6591356759
 10
-0.4267786617
 20
-12.6555708466
 10
-0.425741799
 20
-12.6518478364
 10
-0.4248506767
 20
-12.647988607
 10
-0.424106871
 20
-12.6440172162
 10
-0.423511387
 20
-12.6399507713
 10
-0.4230629438
 20
-12.6357785795
 10
-0.4227596889
 20
-12.631482998
 10
-0.4226004188
 20
-12.6270515062
 10
-0.4225865255
 20
-12.6224920739
 10
-0.4227200494
 20
-12.6178177931
 10
-0.4230030314
 20
-12.6130417562
 10
-0.423437512
 20
-12.6081770552
 10
-0.4240255321
 20
-12.6032367824
 10
-0.4247680978
 20
-12.5982343556
 10
-0.4256620776
 20
-12.5931844946
 10
-0.4267033057
 20
-12.5881022451
 10
-0.4278876162
 20
-12.5830026527
 10
-0.4292108432
 20
-12.5779007628
 10
-0.4306688208
 20
-12.5728116211
 10
-0.4322594584
 20
-12.5677444725
 10
-0.4339889668
 20
-12.5626853598
 10
-0.4358656321
 20
-12.5576145253
 10
-0.4373735824
 20
-12.553795301
 10
-0.4389658355
 20
-12.549970912
 10
-0.4406392574
 20
-12.546153901
 10
-0.4423907142
 20
-12.5423568107
 10
-0.4442167092
 20
-12.5385918038
 10
-0.4461122934
 20
-12.5348695228
 10
-0.448072155
 20
-12.5312002304
 10
-0.4500909823
 20
-12.5275941894
 10
-0.4521637729
 20
-12.5240597744
 10
-0.454286763
 20
-12.5205978089
 10
-0.4564564981
 20
-12.5172072283
 10
-0.458669524
 20
-12.5138869681
 10
-0.4616836031
 20
-12.5095655356
 10
-0.4647723592
 20
-12.5053529046
 10
-0.467939649
 20
-12.5012347551
 10
-0.4711865741
 20
-12.4972004589
 10
-0.4745032149
 20
-12.4932541547
 10
-0.4778768965
 20
-12.4894036729
 10
-0.4812959064
 20
-12.4856561603
 10
-0.484752382
 20
-12.4820160294
 10
-0.4882394228
 20
-12.4784870089
 10
-0.4917501284
 20
-12.4750728275
 10
-0.4952775986
 20
-12.4717772142
 10
-0.498814933
 20
-12.4686038976
 10
-0.5023570055
 20
-12.4655561512
 10
-0.505905787
 20
-12.4626354267
 10
-0.5094650227
 20
-12.4598427205
 10
-0.5130377951
 20
-12.4571799836
 10
-0.5166245355
 20
-12.4546529852
 10
-0.5202250124
 20
-12.4522684492
 10
-0.5238360166
 20
-12.4500343119
 10
-0.5274424275
 20
-12.4479633592
 10
-0.5310261467
 20
-12.4460695892
 10
-0.5336927346
 20
-12.4447724477
 10
-0.536356206
 20
-12.4435796846
 10
-0.539036389
 20
-12.4424881389
 10
-0.5417531115
 20
-12.4414946496
  0
LWPOLYLINE
  5
225
100
AcDbEntity
  8
ASSI
100
AcDbPolyline
 62
7
  6
CONTINUOUS
 90
12
 70
0
 10
-9.928445336
 20
-13.8315290468
 10
-9.9198638612
 20
-13.9428527668
 10
-9.9018568386
 20
-14.0517030536
 10
-9.87516581
 20
-14.153534855
 10
-9.840518909
 20
-14.2478620384
 10
-9.798451036
 20
-14.3348596725
 10
-9.7491447545
 20
-14.4150182742
 10
-9.6932057642
 20
-14.4878615451
 10
-9.6312668051
 20
-14.5530557058
 10
-9.5633825655
 20
-14.6107911995
 10
-9.4900122533
 20
-14.6607154602
 10
-9.4745703199
 20
-14.6698182477
  0
LWPOLYLINE
  5
226
100
AcDbEntity
  8
ASSI
100
AcDbPolyline
 62
253
  6
CONTINUOUS
 90
15
 70
0
 10
-9.9284456109
 20
-13.8315290566
 10
-9.9282027967
 20
-13.836430303
 10
-9.9262869018
 20
-13.8536426866
 10
-9.9227247152
 20
-13.8707226512
 10
-9.9175280242
 20
-13.8876136795
 10
-9.9107140246
 20
-13.9042598793
 10
-9.902305264
 20
-13.9206061682
 10
-9.8923295667
 20
-13.9365984568
 10
-9.8808199423
 20
-13.9521838264
 10
-9.8678144761
 20
-13.9673107054
 10
-9.853356203
 20
-13.981929039
 10
-9.8374929653
 20
-13.9959904553
 10
-9.8202772544
 20
-14.0094484251
 10
-9.801766037
 20
-14.0222584161
 10
-9.7820205664
 20
-14.0343780402
  0
LWPOLYLINE
  5
227
100
AcDbEntity
  8
ASSI
100
AcDbPolyline
 62
7
  6
CONTINUOUS
 90
9
 70
0
 10
-10.2222651448
 20
3.0731879946
 10
-10.2211780356
 20
3.0479363408
 10
-10.2140109116
 20
3.0035753408
 10
-10.1999366539
 20
2.9596085959
 10
-10.1786327745
 20
2.9165382845
 10
-10.1503113775
 20
2.8757086302
 10
-10.1153244103
 20
2.8379861596
 10
-10.0738654589
 20
2.8038265839
 10
-10.034612564
 20
2.7784455646
  0
LWPOLYLINE
  5
228
100
AcDbEntity
  8
ASSI
100
AcDbPolyline
 62
253
  6
CONTINUOUS
 90
13
 70
0
 10
-9.7820211539
 20
-14.0343616573
 10
-9.8281785041
 20
-12.687788561
 10
-9.8703954799
 20
-11.3387146321
 10
-9.908671856
 20
-9.9871553472
 10
-9.9430072181
 20
-8.6331358752
 10
-9.973401724
 20
-7.2766621132
 10
-9.9998558179
 20
-5.917720512
 10
-10.0223696152
 20
-4.5563270374
 10
-10.0409424499
 20
-3.192496604
 10
-10.055573127
 20
-1.8262138046
 10
-10.0662608449
 20
-0.4574836684
 10
-10.0730055046
 20
0.913668155
 10
-10.0758067547
 20
2.2872262648
  0
LWPOLYLINE
  5
229
100
AcDbEntity
  8
ASSI
100
AcDbPolyline
 62
253
  6
CONTINUOUS
 90
17
 70
0
 10
-10.2222651639
 20
3.0731917049
 10
-10.2222463266
 20
3.0709557844
 10
-10.2213501923
 20
3.0560969171
 10
-10.2191161245
 20
3.0412805353
 10
-10.2155501469
 20
3.0265461192
 10
-10.2106619123
 20
3.0119334541
 10
-10.2044645245
 20
2.9974817309
 10
-10.1969744198
 20
2.983229043
 10
-10.1882112533
 20
2.9692131721
 10
-10.1781987125
 20
2.955472406
 10
-10.1669646213
 20
2.9420445661
 10
-10.1545403169
 20
2.9289665829
 10
-10.1409585557
 20
2.9162725321
 10
-10.1262539214
 20
2.9039945983
 10
-10.1104648786
 20
2.8921652362
 10
-10.0936341807
 20
2.8808168999
 10
-10.0758067529
 20
2.8699801287
  0
LWPOLYLINE
  5
22A
100
AcDbEntity
  8
ASSI
100
AcDbPolyline
 62
7
  6
CONTINUOUS
 90
10
 70
0
 10
-10.2222653556
 20
2.4919301916
 10
-10.2178577905
 20
0.7084232381
 10
-10.2062995093
 20
-1.1325144018
 10
-10.187624072
 20
-2.9691268605
 10
-10.1618318216
 20
-4.8013755966
 10
-10.1289232014
 20
-6.6292244071
 10
-10.0888987663
 20
-8.4526378032
 10
-10.0417591934
 20
-10.2715797153
 10
-9.9875053697
 20
-12.086011595
 10
-9.9284466491
 20
-13.8315001001
  0
LWPOLYLINE
  5
22B
100
AcDbEntity
  8
ASSI
100
AcDbPolyline
 62
253
  6
CONTINUOUS
 90
13
 70
0
 10
-10.0758067548
 20
2.8699801217
 10
-10.0730055046
 20
4.2469000574
 10
-10.066260845
 20
5.6261260148
 10
-10.055573127
 20
7.0076421872
 10
-10.0409424499
 20
8.3914218226
 10
-10.0223696152
 20
9.7774599544
 10
-9.9998558179
 20
11.1657735742
 10
-9.973401724
 20
12.5563479864
 10
-9.9430072181
 20
13.9491663705
 10
-9.908671856
 20
15.3442427891
 10
-9.8703954799
 20
16.741571528
 10
-9.8281785041
 20
18.1411269393
 10
-9.7820211539
 20
19.5428932864
  0
LWPOLYLINE
  5
22C
100
AcDbEntity
  8
ASSI
100
AcDbPolyline
 62
253
  6
CONTINUOUS
 90
22
 70
0
 10
-10.0758184027
 20
2.2872329902
 10
-10.0754344862
 20
2.2995958411
 10
-10.074269852
 20
2.3123429048
 10
-10.0723309472
 20
2.3254036195
 10
-10.0696285048
 20
2.3387056873
 10
-10.0661774844
 20
2.3521754737
 10
-10.0619969897
 20
2.3657384158
 10
-10.0571101623
 20
2.3793194351
 10
-10.0515440536
 20
2.3928433537
 10
-10.0453294755
 20
2.4062353091
 10
-10.0385008292
 20
2.4194211698
 10
-10.0310959152
 20
2.4323279452
 10
-10.0231557241
 20
2.4448841893
 10
-10.0147242094
 20
2.4570203971
 10
-10.005848044
 20
2.4686693886
 10
-9.9965763627
 20
2.4797666806
 10
-9.9869604892
 20
2.4902508444
 10
-9.9770536524
 20
2.5000638451
 10
-9.9669106921
 20
2.5091513632
 10
-9.9565877548
 20
2.5174630951
 10
-9.9461419832
 20
2.5249530317
 10
-9.9356312002
 20
2.5315797131
  0
LWPOLYLINE
  5
22D
100
AcDbEntity
  8
ASSI
100
AcDbPolyline
 62
7
  6
CONTINUOUS
 90
10
 70
0
 10
-9.9284723129
 20
19.7472292057
 10
-9.9876943221
 20
17.9257898565
 10
-10.0419214044
 20
16.0466908031
 10
-10.0890355657
 20
14.1715644164
 10
-10.1290357466
 20
12.3004503923
 10
-10.1619210963
 20
10.4333857224
 10
-10.1876908867
 20
8.5704066803
 10
-10.2063445014
 20
6.7115501067
 10
-10.217881425
 20
4.8568550639
 10
-10.2222653563
 20
3.0735625298
  0
LWPOLYLINE
  5
22E
100
AcDbEntity
  8
ASSI
100
AcDbPolyline
 62
253
  6
CONTINUOUS
 90
37
 70
0
 10
-9.7820211456
 20
19.5428932817
 10
-9.7793718022
 20
19.5946130509
 10
-9.7749633588
 20
19.6472034067
 10
-9.7688032763
 20
19.7005758876
 10
-9.7609022335
 20
19.7546405562
 10
-9.7512734251
 20
19.8093066699
 10
-9.7399324476
 20
19.8644828621
 10
-9.726898366
 20
19.9200773768
 10
-9.7121933286
 20
19.9759958185
 10
-9.6958419704
 20
20.0321418193
 10
-9.6778725771
 20
20.0884202133
 10
-9.6583154699
 20
20.1447372517
 10
-9.6372025771
 20
20.2009983628
 10
-9.6145699235
 20
20.2571091488
 10
-9.5904559733
 20
20.3129753021
 10
-9.564900088
 20
20.3685027791
 10
-9.5379456359
 20
20.423598789
 10
-9.509638571
 20
20.4781704113
 10
-9.4800257049
 20
20.5321245207
 10
-9.4491575516
 20
20.5853706399
 10
-9.4170866158
 20
20.6378194087
 10
-9.3838659805
 20
20.6893812276
 10
-9.3495525736
 20
20.739969367
 10
-9.3142045884
 20
20.7894993776
 10
-9.2778798001
 20
20.8378875537
 10
-9.2406401509
 20
20.8850528372
 10
-9.2025490132
 20
20.930916212
 10
-9.1636685861
 20
20.9754000573
 10
-9.1240645224
 20
21.0184305216
 10
-9.0838048063
 20
21.0599348204
 10
-9.0429570243
 20
21.0998407241
 10
-9.001591608
 20
21.1380809145
 10
-8.9597782794
 20
21.1745923289
 10
-8.91758491
 20
21.2093133871
 10
-8.8750822475
 20
21.2421858596
 10
-8.8323438249
 20
21.2731550931
 10
-8.7894424518
 20
21.3021694248
  0
LINE
  5
22F
100
AcDbEntity
  8
ASSI
100
AcDbLine
 62
253
  6
CONTINUOUS
 10
-10.0202797365
 20
2.6802351908
 11
-10.017612418
 21
2.689153593
  0
LWPOLYLINE
  5
230
100
AcDbEntity
  8
ASSI
100
AcDbPolyline
 62
253
  6
CONTINUOUS
 90
7
 70
0
 10
-10.017612418
 20
2.689153593
 10
-10.0141507795
 20
2.698007495
 10
-10.0099224872
 20
2.7067262025
 10
-10.0049211393
 20
2.7153088781
 10
-9.9991531378
 20
2.723756359
 10
-9.9926653548
 20
2.7320004627
 10
-9.9854517352
 20
2.7400395754
  0
LINE
  5
231
100
AcDbEntity
  8
CURVE
100
AcDbLine
 62
253
  6
CONTINUOUS
 10
-4.2858250377
 20
-10.5021369217
 11
-0.7672360534
 21
-12.5337261029
  0
LINE
  5
232
100
AcDbEntity
  8
CURVE
100
AcDbLine
 62
253
  6
CONTINUOUS
 10
-0.5417531115
 20
-12.4414946496
 11
-4.52115554
 21
-10.143837561
  0
LWPOLYLINE
  5
233
100
AcDbEntity
  8
CURVE
100
AcDbPolyline
 62
253
  6
CONTINUOUS
 90
78
 70
0
 10
-4.52115554
 20
-10.143837561
 10
-4.5238504268
 20
-10.1417181078
 10
-4.5264901863
 20
-10.1397394196
 10
-4.5291040526
 20
-10.1378763324
 10
-4.5317212603
 20
-10.1361036821
 10
-4.5352510985
 20
-10.133850083
 10
-4.5388151574
 20
-10.1317293674
 10
-4.5423897455
 20
-10.1297583781
 10
-4.5450659373
 20
-10.1283866263
 10
-4.5477402875
 20
-10.1271042771
 10
-4.5504165571
 20
-10.125908169
 10
-4.5530913013
 20
-10.1247996659
 10
-4.556649537
 20
-10.1234614472
 10
-4.5602033989
 20
-10.1222845138
 10
-4.5637605508
 20
-10.1212699733
 10
-4.5673259628
 20
-10.1204204614
 10
-4.5708938288
 20
-10.1197447263
 10
-4.574455649
 20
-10.1192530443
 10
-4.5780017785
 20
-10.1189545738
 10
-4.5815179929
 20
-10.1188540007
 10
-4.5849889229
 20
-10.1189548929
 10
-4.5883990298
 20
-10.1192589944
 10
-4.591732098
 20
-10.1197607538
 10
-4.5949717427
 20
-10.1204527962
 10
-4.5981065252
 20
-10.1213297856
 10
-4.6011447917
 20
-10.1223945437
 10
-4.6040998344
 20
-10.1236519314
 10
-4.6069809718
 20
-10.1251054848
 10
-4.6097816273
 20
-10.1267534417
 10
-4.6124912502
 20
-10.1285927151
 10
-4.6150992902
 20
-10.1306202178
 10
-4.6175951968
 20
-10.1328328629
 10
-4.6199684193
 20
-10.1352275634
 10
-4.6222094156
 20
-10.1378000729
 10
-4.6243126762
 20
-10.1405415075
 10
-4.6262736998
 20
-10.1434418241
 10
-4.6280879851
 20
-10.1464909795
 10
-4.629751031
 20
-10.1496789305
 10
-4.6312583361
 20
-10.152995634
 10
-4.6326065544
 20
-10.1564355285
 10
-4.633796961
 20
-10.1600109797
 10
-4.6348319864
 20
-10.163738835
 10
-4.6355068115
 20
-10.1666423502
 10
-4.6360910057
 20
-10.1696330189
 10
-4.636579973
 20
-10.1727027908
 10
-4.6369691174
 20
-10.1758436154
 10
-4.6372545353
 20
-10.1790471907
 10
-4.6374350923
 20
-10.1823042078
 10
-4.6375103465
 20
-10.1856051062
 10
-4.6374798559
 20
-10.1889403256
 10
-4.6373441082
 20
-10.1923012671
 10
-4.637107309
 20
-10.1956831788
 10
-4.6367745937
 20
-10.1990822704
 10
-4.6363510975
 20
-10.2024947516
 10
-4.6356529211
 20
-10.2070621746
 10
-4.6348076042
 20
-10.2116567032
 10
-4.6338202649
 20
-10.2162883775
 10
-4.6326967543
 20
-10.2209631839
 10
-4.6314458535
 20
-10.2256708943
 10
-4.6300770766
 20
-10.2303972268
 10
-4.6282910442
 20
-10.2360752219
 10
-4.6263576146
 20
-10.2417463286
 10
-4.6242854322
 20
-10.2473974082
 10
-4.6220831414
 20
-10.2530153223
 10
-4.6197593866
 20
-10.2585869321
 10
-4.6177347318
 20
-10.2631867504
 10
-4.6156268684
 20
-10.2677476475
 10
-4.6134309348
 20
-10.2722719822
 10
-4.6111421953
 20
-10.276761276
 10
-4.6087564172
 20
-10.2812137021
 10
-4.6062694939
 20
-10.2856265968
 10
-4.6036798375
 20
-10.2899938901
 10
-4.6009959368
 20
-10.2942958881
 10
-4.5982287993
 20
-10.2985094907
 10
-4.5961014267
 20
-10.3016027551
 10
-4.5939139663
 20
-10.3046533671
 10
-4.5916469591
 20
-10.3076813903
 10
-4.5892809463
 20
-10.3107068886
  0
LWPOLYLINE
  5
234
100
AcDbEntity
  8
ASSI
100
AcDbPolyline
 62
253
  6
CONTINUOUS
 90
12
 70
0
 10
-10.0758184027
 20
2.8699868471
 10
-10.0754344872
 20
2.8580673497
 10
-10.0742698559
 20
2.8466651903
 10
-10.0723309559
 20
2.8358434857
 10
-10.0696285199
 20
2.8256621398
 10
-10.0661775074
 20
2.8161775115
 10
-10.0619970214
 20
2.8074421033
 10
-10.0571102031
 20
2.7995042702
 10
-10.0515441037
 20
2.7924079523
 10
-10.0453295344
 20
2.7861924313
 10
-10.0385008961
 20
2.7808921134
 10
-10.0346127902
 20
2.7784451742
  0
LWPOLYLINE
  5
235
100
AcDbEntity
  8
ASSI
100
AcDbPolyline
 62
253
  6
CONTINUOUS
 90
15
 70
0
 10
-9.9284843272
 20
19.7468581714
 10
-9.9282025208
 20
19.731498444
 10
-9.9262866156
 20
19.7155837714
 10
-9.9227244204
 20
19.6997170881
 10
-9.9175277223
 20
19.6839508966
 10
-9.9107137173
 20
19.6683373672
 10
-9.9023049527
 20
19.6529281648
 10
-9.8923292531
 20
19.6377742784
 10
-9.8808196281
 20
19.6229258519
 10
-9.8678141627
 20
19.6084320186
 10
-9.8533558919
 20
19.5943407385
 10
-9.837492658
 20
19.5806986395
 10
-9.8202769523
 20
19.567550863
 10
-9.8017657413
 20
19.5549409151
 10
-9.7820202785
 20
19.5429105217
  0
LWPOLYLINE
  5
236
100
AcDbEntity
  8
ASSI
100
AcDbPolyline
 62
7
  6
CONTINUOUS
 90
8
 70
0
 10
-10.1086318762
 20
2.7352997685
 10
-10.1391493947
 20
2.7043684562
 10
-10.165155746
 20
2.6710880172
 10
-10.1864428618
 20
2.6358366951
 10
-10.2027267442
 20
2.5993743417
 10
-10.2139959751
 20
2.5623931872
 10
-10.220431358
 20
2.5253268338
 10
-10.2222651716
 20
2.491775136
  0
LINE
  5
237
100
AcDbEntity
  8
ASSI
100
AcDbLine
 62
253
  6
CONTINUOUS
 10
-9.9854517352
 20
2.7400395754
 11
-9.979049425
 21
2.7463630688
  0
LINE
  5
238
100
AcDbEntity
  8
ASSI
100
AcDbLine
 62
7
  6
CONTINUOUS
 10
-10.073676405
 20
2.7636952635
 11
-10.1086318762
 21
2.7352997685
  0
LINE
  5
239
100
AcDbEntity
  8
ASSI
100
AcDbLine
 62
7
  6
CONTINUOUS
 10
-10.0420469495
 20
2.7847580121
 11
-10.073676405
 21
2.7636952635
  0
LWPOLYLINE
  5
23A
100
AcDbEntity
  8
ASSI
100
AcDbPolyline
 62
253
  6
CONTINUOUS
 90
37
 70
0
 10
6.1525800132
 20
12.6748329216
 10
6.108665561
 20
12.6464035295
 10
6.0649213206
 20
12.6160150428
 10
6.0214201014
 20
12.5837191245
 10
5.9782337977
 20
12.5495713743
 10
5.935434796
 20
12.5136290751
 10
5.8930958846
 20
12.4759509686
 10
5.8512868122
 20
12.436600102
 10
5.8100779837
 20
12.3956438088
 10
5.7695418215
 20
12.3531515264
 10
5.7297464211
 20
12.3091959753
 10
5.6907573243
 20
12.2638510708
 10
5.6526412333
 20
12.2171918339
 10
5.6154616241
 20
12.1692972207
 10
5.5792803354
 20
12.120248349
 10
5.5441593357
 20
12.0701265036
 10
5.5101569439
 20
12.0190160611
 10
5.4773299623
 20
11.9670038237
 10
5.4457352902
 20
11.9141771872
 10
5.4154255825
 20
11.8606254255
 10
5.3864512031
 20
11.8064391022
 10
5.3588623292
 20
11.7517093994
 10
5.3327050849
 20
11.6965291396
 10
5.3080226684
 20
11.6409912116
 10
5.2848572976
 20
11.5851880098
 10
5.263247617
 20
11.5292137377
 10
5.2432294711
 20
11.4731628972
 10
5.2248371033
 20
11.4171287234
 10
5.2081010208
 20
11.3612048576
 10
5.1930493234
 20
11.3054865729
 10
5.1797084038
 20
11.2500692226
 10
5.16810062
 20
11.195047081
 10
5.1582448273
 20
11.1405120251
 10
5.1501577513
 20
11.0865547697
 10
5.143852963
 20
11.03326584
 10
5.1393407649
 20
10.9807353908
 10
5.1366286178
 20
10.9290518834
  0
LWPOLYLINE
  5
23B
100
AcDbEntity
  8
ASSI
100
AcDbPolyline
 62
253
  6
CONTINUOUS
 90
37
 70
0
 10
6.5184003646
 20
12.0701643529
 10
6.4888842871
 20
12.0512545369
 10
6.4595768637
 20
12.0311086545
 10
6.4304780947
 20
12.0097267056
 10
6.4015390821
 20
11.9870682356
 10
6.3728087238
 20
11.9631736991
 10
6.3444337129
 20
11.9381644603
 10
6.3164161717
 20
11.9120349377
 10
6.2887539779
 20
11.8847907128
 10
6.2615874574
 20
11.8565698937
 10
6.2349195419
 20
11.8273679269
 10
6.2087472997
 20
11.797189366
 10
6.1832022609
 20
11.7661859796
 10
6.1582875447
 20
11.7343536148
 10
6.1340000319
 20
11.7016964246
 10
6.1104618955
 20
11.6683786366
 10
6.0876767659
 20
11.6343966849
 10
6.0656410127
 20
11.5997541354
 10
6.0444659175
 20
11.5646259132
 10
6.0241558728
 20
11.5290095658
 10
6.004706486
 20
11.4929075457
 10
5.9862158613
 20
11.4565021359
 10
5.9686889666
 20
11.4197920658
 10
5.9521208339
 20
11.382778606
 10
5.9365946629
 20
11.3456478501
 10
5.9221156696
 20
11.3083992392
 10
5.9086786379
 20
11.2710333323
 10
5.8963511202
 20
11.2337378996
 10
5.8851386032
 20
11.1965127419
 10
5.8750356
 20
11.1593580584
 10
5.8660932024
 20
11.1224622176
 10
5.8583173673
 20
11.0858259201
 10
5.8517021378
 20
11.0494484653
 10
5.8462807348
 20
11.0135161205
 10
5.8420642318
 20
10.9780909746
 10
5.8390415553
 20
10.9431109386
 10
5.8372127053
 20
10.9085760125
  0
LINE
  5
23C
100
AcDbEntity
  8
ASSI
100
AcDbLine
 62
253
  6
CONTINUOUS
 10
9.0732641453
 20
14.4770462179
 11
6.1525800853
 21
12.6748328801
  0
LINE
  5
23D
100
AcDbEntity
  8
ASSI
100
AcDbLine
 62
253
  6
CONTINUOUS
 10
9.45789094
 20
13.8839822847
 11
6.5184003646
 21
12.0701643529
  0
LWPOLYLINE
  5
23E
100
AcDbEntity
  8
ASSI
100
AcDbPolyline
 62
253
  6
CONTINUOUS
 90
28
 70
0
 10
5.8372127053
 20
10.9085760125
 10
5.8159745188
 20
10.8983635926
 10
5.7936572999
 20
10.8888721402
 10
5.7703348961
 20
10.8801330624
 10
5.7460844809
 20
10.8721752767
 10
5.7209862989
 20
10.8650251155
 10
5.6951233998
 20
10.8587062384
 10
5.6685813635
 20
10.8532395546
 10
5.6414480176
 20
10.8486431534
 10
5.613813146
 20
10.8449322442
 10
5.5857681923
 20
10.8421191063
 10
5.557405957
 20
10.8402130485
 10
5.5288202905
 20
10.8392203777
 10
5.5001057825
 20
10.8391443789
 10
5.4713574492
 20
10.8399853034
 10
5.4426704185
 20
10.8417403686
 10
5.4141396156
 20
10.8444037671
 10
5.3858594486
 20
10.8479666857
 10
5.3579234964
 20
10.8524173347
 10
5.3304241988
 20
10.857740987
 10
5.3034525508
 20
10.8639200265
 10
5.2770978014
 20
10.8709340071
 10
5.2514471581
 20
10.8787597193
 10
5.2265854988
 20
10.8873712681
 10
5.2025950905
 20
10.8967401579
 10
5.1795553172
 20
10.906835387
 10
5.1575424174
 20
10.9176235505
 10
5.1366292316
 20
10.9290689505
  0
LWPOLYLINE
  5
23F
100
AcDbEntity
  8
RACCORDO
100
AcDbPolyline
 62
253
  6
CONTINUOUS
 90
8
 70
0
 10
-2.4206935612
 20
-6.2901641546
 10
-2.3356593397
 20
-6.3230551319
 10
-2.2526608496
 20
-6.3441788518
 10
-2.1727011482
 20
-6.3532836663
 10
-2.0967124351
 20
-6.3502688627
 10
-2.0255532465
 20
-6.3351607919
 10
-1.9596861483
 20
-6.3079118303
 10
-1.9003807142
 20
-6.2688849983
  0
LWPOLYLINE
  5
240
100
AcDbEntity
  8
RACCORDO
100
AcDbPolyline
 62
7
  6
CONTINUOUS
 90
9
 70
0
 10
-2.4069584853
 20
-6.3244678829
 10
-2.3281598219
 20
-6.3573480838
 10
-2.2505671373
 20
-6.3813692966
 10
-2.1744481054
 20
-6.3965201842
 10
-2.1004677326
 20
-6.4027185189
 10
-2.0296973856
 20
-6.400051234
 10
-1.9627926513
 20
-6.3888673706
 10
-1.9000018704
 20
-6.3695493384
 10
-1.8417570402
 20
-6.3425523019
  0
LINE
  5
241
100
AcDbEntity
  8
RACCORDO
100
AcDbLine
 62
253
  6
CONTINUOUS
 10
-2.5067526589
 20
-6.2458960592
 11
-2.4206935612
 21
-6.2901641546
  0
LINE
  5
242
100
AcDbEntity
  8
RACCORDO
100
AcDbLine
 62
7
  6
CONTINUOUS
 10
-2.4864877328
 20
-6.2827971991
 11
-2.4069584853
 21
-6.3244678829
  0
LWPOLYLINE
  5
243
100
AcDbEntity
  8
CURVE
100
AcDbPolyline
 62
253
  6
CONTINUOUS
 90
60
 70
0
 10
-2.5573585744
 20
-13.5774555425
 10
-2.5554476436
 20
-13.5813668112
 10
-2.5534846117
 20
-13.5852124833
 10
-2.5514657333
 20
-13.5890037518
 10
-2.5493872633
 20
-13.5927518097
 10
-2.5472454564
 20
-13.5964678499
 10
-2.5450365672
 20
-13.6001630654
 10
-2.5422931397
 20
-13.6045816152
 10
-2.5394476176
 20
-13.6089817571
 10
-2.5364998979
 20
-13.6133589532
 10
-2.5334498774
 20
-13.6177086654
 10
-2.5302974533
 20
-13.6220263557
 10
-2.5275929767
 20
-13.6255957639
 10
-2.5248223124
 20
-13.6291315662
 10
-2.5219904581
 20
-13.6326255453
 10
-2.5191024111
 20
-13.6360694842
 10
-2.5161631692
 20
-13.6394551657
 10
-2.5131777299
 20
-13.6427743727
 10
-2.5101503387
 20
-13.6460196564
 10
-2.5070822339
 20
-13.6491866417
 10
-2.5039739015
 20
-13.6522717216
 10
-2.5008258277
 20
-13.6552712893
 10
-2.4976384987
 20
-13.658181738
 10
-2.4944124007
 20
-13.6609994609
 10
-2.491148958
 20
-13.6637199102
 10
-2.4878533476
 20
-13.666334774
 10
-2.4845316847
 20
-13.6688347997
 10
-2.4811900845
 20
-13.6712107344
 10
-2.4778346623
 20
-13.6734533255
 10
-2.4744715331
 20
-13.6755533202
 10
-2.4711063485
 20
-13.677503124
 10
-2.4677429044
 20
-13.679301776
 10
-2.4643845331
 20
-13.6809499736
 10
-2.4610345669
 20
-13.682448414
 10
-2.457696338
 20
-13.6837977947
 10
-2.4543731788
 20
-13.6849988131
 10
-2.4510686268
 20
-13.6860521705
 10
-2.4477870418
 20
-13.6869585849
 10
-2.4445329887
 20
-13.6877187785
 10
-2.4413110327
 20
-13.6883334732
 10
-2.4381257388
 20
-13.6888033913
 10
-2.4349816721
 20
-13.6891292546
 10
-2.4318838403
 20
-13.6893122711
 10
-2.4288390223
 20
-13.6893555913
 10
-2.4258544396
 20
-13.6892628515
 10
-2.4229373138
 20
-13.689037688
 10
-2.4200948663
 20
-13.6886837371
 10
-2.4173343188
 20
-13.688204635
 10
-2.4146614099
 20
-13.6876039545
 10
-2.4120759472
 20
-13.6868850139
 10
-2.4095762556
 20
-13.6860510679
 10
-2.4071606598
 20
-13.6851053711
 10
-2.4048274846
 20
-13.6840511784
 10
-2.4025750549
 20
-13.6828917444
 10
-2.4004014385
 20
-13.6816283653
 10
-2.3983036751
 20
-13.6802545037
 10
-2.3962785477
 20
-13.6787616635
 10
-2.3943228389
 20
-13.6771413486
 10
-2.3924333316
 20
-13.6753850632
 10
-2.3906068087
 20
-13.6734843111
  0
LWPOLYLINE
  5
244
100
AcDbEntity
  8
RACCORDO
100
AcDbPolyline
 62
253
  6
CONTINUOUS
 90
42
 70
0
 10
-2.5928110623
 20
-4.3759214255
 10
-2.6778448888
 20
-4.3430302202
 10
-2.7608432831
 20
-4.3219064449
 10
-2.8408033456
 20
-4.312801839
 10
-2.916792719
 20
-4.3158170238
 10
-2.9879523938
 20
-4.3309253753
 10
-3.0538195708
 20
-4.3581743824
 10
-3.1131249098
 20
-4.3972011595
 10
-3.1642667462
 20
-4.4465471548
 10
-3.2070526476
 20
-4.5050878555
 10
-3.2414020016
 20
-4.5716278018
 10
-3.2669236474
 20
-4.6434016489
 10
-3.28413562
 20
-4.7181169503
 10
-3.2940103248
 20
-4.7949329196
 10
-3.2973233356
 20
-4.8730303846
 10
-3.2947775955
 20
-4.9513304442
 10
-3.2870912649
 20
-5.0289181347
 10
-3.2748776031
 20
-5.1055409026
 10
-3.2587359001
 20
-5.1805875506
 10
-3.2392659266
 20
-5.2534754319
 10
-3.2168890988
 20
-5.3242018217
 10
-3.1920786679
 20
-5.3924351207
 10
-3.1653078857
 20
-5.4578498008
 10
-3.1368504148
 20
-5.5205642192
 10
-3.1070710384
 20
-5.5804120477
 10
-3.0763240145
 20
-5.6372489009
 10
-3.0447571934
 20
-5.691278759
 10
-3.0126267074
 20
-5.7424622555
 10
-2.9802007937
 20
-5.790738638
 10
-2.9475673549
 20
-5.8362985678
 10
-2.9149173107
 20
-5.8791551033
 10
-2.8824389721
 20
-5.9193226652
 10
-2.8501636112
 20
-5.9569952978
 10
-2.8182234709
 20
-5.992224305
 10
-2.7867532266
 20
-6.0250559554
 10
-2.7557512846
 20
-6.0556679784
 10
-2.7253055422
 20
-6.0841313459
 10
-2.6955115416
 20
-6.1105075313
 10
-2.6663547739
 20
-6.1349479622
 10
-2.6379056872
 20
-6.157520617
 10
-2.6102164678
 20
-6.1783060923
 10
-2.5832286119
 20
-6.1974586727
  0
LINE
  5
245
100
AcDbEntity
  8
RACCORDO
100
AcDbLine
 62
253
  6
CONTINUOUS
 10
-2.5067526589
 20
-4.4201899218
 11
-2.5928110623
 21
-4.3759214255
  0
LINE
  5
246
100
AcDbEntity
  8
RACCORDO
100
AcDbLine
 62
7
  6
CONTINUOUS
 10
-2.5832117991
 20
-6.2206023051
 11
-2.4864877328
 21
-6.2827971991
  0
LWPOLYLINE
  5
247
100
AcDbEntity
  8
RACCORDO
100
AcDbPolyline
 62
253
  6
CONTINUOUS
 90
4
 70
0
 10
-2.5832286119
 20
-6.1974586727
 10
-2.5569476719
 20
-6.2150722701
 10
-2.5314455302
 20
-6.2311933258
 10
-2.5067526589
 20
-6.2458960592
  0
LINE
  5
248
100
AcDbEntity
  8
ASSI
100
AcDbLine
 62
253
  6
CONTINUOUS
 10
-4.1475466824
 20
21.5925255655
 11
-4.1475466824
 21
21.5299217822
  0
LWPOLYLINE
  5
249
100
AcDbEntity
  8
ASSI
100
AcDbPolyline
 62
253
  6
CONTINUOUS
 90
20
 70
0
 10
-3.4718204169
 20
-4.8119073837
 10
-3.4714091735
 20
-4.7682935486
 10
-3.4694052878
 20
-4.725481459
 10
-3.4657928241
 20
-4.683557272
 10
-3.460555457
 20
-4.6425825764
 10
-3.4536840824
 20
-4.6026696492
 10
-3.4451867779
 20
-4.563973435
 10
-3.4350676333
 20
-4.526570402
 10
-3.4233345587
 20
-4.4905377392
 10
-3.4100237628
 20
-4.4560136217
 10
-3.3951596005
 20
-4.4230655011
 10
-3.378765782
 20
-4.3917492871
 10
-3.3608975433
 20
-4.3621656588
 10
-3.3416050652
 20
-4.334378967
 10
-3.3209166616
 20
-4.3084125429
 10
-3.2988631424
 20
-4.2842952776
 10
-3.2754910749
 20
-4.2620700344
 10
-3.2508405549
 20
-4.2417673546
 10
-3.2249301155
 20
-4.2234009265
 10
-3.1962351703
 20
-4.2061376317
  0
LWPOLYLINE
  5
24A
100
AcDbEntity
  8
ASSI
100
AcDbPolyline
 62
253
  6
CONTINUOUS
 90
24
 70
0
 10
-3.611994067
 20
-4.8119343806
 10
-3.6115477038
 20
-4.7648491035
 10
-3.6093592091
 20
-4.71880903
 10
-3.6054285966
 20
-4.6738141689
 10
-3.5997550251
 20
-4.6297497563
 10
-3.59233934
 20
-4.5867305596
 10
-3.5831841905
 20
-4.5451009463
 10
-3.5722670762
 20
-4.5048766873
 10
-3.5596107345
 20
-4.466042152
 10
-3.5452858766
 20
-4.4288947256
 10
-3.5292744381
 20
-4.3934594151
 10
-3.5115949109
 20
-4.3597114656
 10
-3.4923730203
 20
-4.3278737249
 10
-3.4716109614
 20
-4.2979809741
 10
-3.449307107
 20
-4.2699987662
 10
-3.4255815727
 20
-4.2440461792
 10
-3.4004364336
 20
-4.2201332486
 10
-3.373870228
 20
-4.198250299
 10
-3.345997839
 20
-4.1784868849
 10
-3.3168059047
 20
-4.1608436295
 10
-3.2863084077
 20
-4.1453202735
 10
-3.2546613045
 20
-4.1320050799
 10
-3.2218524894
 20
-4.1209097504
 10
-3.1878946839
 20
-4.1120229441
  0
LWPOLYLINE
  5
24B
100
AcDbEntity
  8
ASSI
100
AcDbPolyline
 62
253
  6
CONTINUOUS
 90
24
 70
0
 10
-3.611994067
 20
2.5377680511
 10
-3.610790223
 20
2.5852667998
 10
-3.6078456112
 20
2.6317197868
 10
-3.6031602456
 20
2.6771270035
 10
-3.5967314492
 20
2.7216041901
 10
-3.5885619033
 20
2.7650356027
 10
-3.5786597646
 20
2.8070739466
 10
-3.5670025902
 20
2.8477034338
 10
-3.5536130601
 20
2.8869397169
 10
-3.5385672203
 20
2.9244825458
 10
-3.5218472417
 20
2.9603068096
 10
-3.5034713811
 20
2.9944373763
 10
-3.4835699922
 20
3.0266488623
 10
-3.4621458223
 20
3.0569061989
 10
-3.4391966922
 20
3.0852441328
 10
-3.4148456899
 20
3.1115419344
 10
-3.3890950615
 20
3.1357894646
 10
-3.3619431742
 20
3.1579965152
 10
-3.3335073709
 20
3.1780722124
 10
-3.3037741871
 20
3.1960159923
 10
-3.2727577077
 20
3.211828068
 10
-3.2406166571
 20
3.2254186988
 10
-3.2073390071
 20
3.2367761543
 10
-3.1729374013
 20
3.2459118172
  0
LWPOLYLINE
  5
24C
100
AcDbEntity
  8
ASSI
100
AcDbPolyline
 62
253
  6
CONTINUOUS
 90
20
 70
0
 10
-3.4718204169
 20
2.5363251074
 10
-3.4706516487
 20
2.5803530755
 10
-3.4678916038
 20
2.6235785732
 10
-3.4635243544
 20
2.6659154824
 10
-3.4575317552
 20
2.7073032559
 10
-3.4499065353
 20
2.7476286451
 10
-3.4406622499
 20
2.7867337327
 10
-3.4298030102
 20
2.8245420806
 10
-3.4173366926
 20
2.8609765499
 10
-3.4033048826
 20
2.8958960398
 10
-3.3877321379
 20
2.9292330264
 10
-3.3706419239
 20
2.9609317473
 10
-3.3520941675
 20
2.9908889428
 10
-3.3321395714
 20
3.0190400086
 10
-3.3108058645
 20
3.0453619344
 10
-3.2881268926
 20
3.0698241361
 10
-3.2641493725
 20
3.0923836941
 10
-3.2389131953
 20
3.1130102035
 10
-3.2124394118
 20
3.131688603
 10
-3.183495456
 20
3.1490913264
  0
LINE
  5
24D
100
AcDbEntity
  8
ASSI
100
AcDbLine
 62
7
  6
CONTINUOUS
 10
3.9522157134
 20
17.4338754006
 11
3.7720492669
 21
17.0198501202
  0
LWPOLYLINE
  5
24E
100
AcDbEntity
  8
RACCORDO
100
AcDbPolyline
 62
7
  6
CONTINUOUS
 90
21
 70
0
 10
-3.0485758352
 20
3.095817037
 10
-3.1137830803
 20
3.0482043514
 10
-3.1716598562
 20
2.9886303568
 10
-3.221151347
 20
2.9175204242
 10
-3.2615228769
 20
2.8349711833
 10
-3.2917273226
 20
2.741909419
 10
-3.3108964554
 20
2.640482334
 10
-3.3189001502
 20
2.5318567373
 10
-3.3156965763
 20
2.4169385323
 10
-3.3014695897
 20
2.2981580004
 10
-3.2767328006
 20
2.1773742698
 10
-3.2419124328
 20
2.0554912284
 10
-3.1975344606
 20
1.9338651895
 10
-3.1442434691
 20
1.8139548058
 10
-3.0827075363
 20
1.6970678956
 10
-3.0135904149
 20
1.584397453
 10
-2.9376778376
 20
1.4772428155
 10
-2.8558388803
 20
1.3768859665
 10
-2.7688824049
 20
1.2844274506
 10
-2.6776782238
 20
1.2009691593
 10
-2.5832117991
 20
1.1276301861
  0
LINE
  5
24F
100
AcDbEntity
  8
DRAFT
100
AcDbLine
 62
7
  6
CONTINUOUS
 10
-2.8884375321
 20
3.1929009452
 11
-3.0485759264
 21
3.0958169817
  0
LINE
  5
250
100
AcDbEntity
  8
ASSI
100
AcDbLine
 62
7
  6
CONTINUOUS
 10
-3.183495456
 20
3.1490913264
 11
-3.1828526661
 21
3.1494450462
  0
LWPOLYLINE
  5
251
100
AcDbEntity
  8
ASSI
100
AcDbPolyline
 62
7
  6
CONTINUOUS
 90
26
 70
0
 10
-3.1835008866
 20
3.1490874236
 10
-3.1719811491
 20
3.1551907676
 10
-3.1101808881
 20
3.1802070872
 10
-3.0426780984
 20
3.1951817487
 10
-2.9700330304
 20
3.199778522
 10
-2.892725996
 20
3.1937834632
 10
-2.811633062
 20
3.1770954435
 10
-2.7276555151
 20
3.1497800344
 10
-2.6415075954
 20
3.1119436351
 10
-2.5541561829
 20
3.0638831566
 10
-2.4665701594
 20
3.0060428637
 10
-2.3793303446
 20
2.9386912833
 10
-2.2932130692
 20
2.8622538665
 10
-2.209255109
 20
2.7774979829
 10
-2.1283166336
 20
2.6851830473
 10
-2.0511929211
 20
2.5861159493
 10
-1.9786952682
 20
2.481252448
 10
-1.9116006441
 20
2.3716671284
 10
-1.8505590459
 20
2.2584038034
 10
-1.7961660913
 20
2.142568757
 10
-1.748982893
 20
2.0254093901
 10
-1.7094180536
 20
1.9080568824
 10
-1.6778072307
 20
1.7916816619
 10
-1.6544226312
 20
1.6776350833
 10
-1.6393704311
 20
1.5671132249
 10
-1.632625001
 20
1.461094099
  0
LWPOLYLINE
  5
252
100
AcDbEntity
  8
ASSI
100
AcDbPolyline
 62
253
  6
CONTINUOUS
 90
16
 70
0
 10
-3.1878946839
 20
-4.1120229441
 10
-3.1529811318
 20
-4.1053983866
 10
-3.1171108307
 20
-4.1010512492
 10
-3.0802853571
 20
-4.0989666968
 10
-3.0427018425
 20
-4.0991534577
 10
-3.0043593095
 20
-4.1016231717
 10
-2.9652592237
 20
-4.1063644845
 10
-2.9256023783
 20
-4.1133516311
 10
-2.8853852901
 20
-4.1225958175
 10
-2.8446118136
 20
-4.1340860548
 10
-2.8034937281
 20
-4.1477632734
 10
-2.7620277422
 20
-4.1636395721
 10
-2.7202173798
 20
-4.1817029882
 10
-2.6782846109
 20
-4.2018583401
 10
-2.6362292057
 20
-4.2241167795
 10
-2.5940514733
 20
-4.2484672012
  0
LWPOLYLINE
  5
253
100
AcDbEntity
  8
RACCORDO
100
AcDbPolyline
 62
253
  6
CONTINUOUS
 90
6
 70
0
 10
-2.793654245
 20
-4.1924418045
 10
-2.7983017025
 20
-4.1919125035
 10
-2.8803277648
 20
-4.1951629433
 10
-2.9571406685
 20
-4.2114682424
 10
-3.0282399011
 20
-4.2408811521
 10
-3.0485758985
 20
-4.2524154925
  0
LWPOLYLINE
  5
254
100
AcDbEntity
  8
ASSI
100
AcDbPolyline
 62
253
  6
CONTINUOUS
 90
19
 70
0
 10
4.9573908477
 20
-5.7905687293
 10
4.9807139681
 20
-5.7970937903
 10
5.0045889851
 20
-5.8029192755
 10
5.0289498293
 20
-5.8080287933
 10
5.0537302186
 20
-5.8124086842
 10
5.0788646198
 20
-5.8160475433
 10
5.1042862959
 20
-5.8189354408
 10
5.1299273905
 20
-5.8210648223
 10
5.1557188922
 20
-5.8224300531
 10
5.1815914705
 20
-5.823027105
 10
5.20747577
 20
-5.8228545906
 10
5.2333023967
 20
-5.821913135
 10
5.2590019149
 20
-5.8202048679
 10
5.284505147
 20
-5.817734655
 10
5.3097440236
 20
-5.8145093168
 10
5.3346515401
 20
-5.8105369453
 10
5.3591618415
 20
-5.8058282107
 10
5.3832082236
 20
-5.8003960554
 10
5.4067241068
 20
-5.7942550812
  0
LINE
  5
255
100
AcDbEntity
  8
ASSI
100
AcDbLine
 62
253
  6
CONTINUOUS
 10
-2.5940514733
 20
-4.2484672012
 11
-2.5519741532
 21
-4.2747810164
  0
LWPOLYLINE
  5
256
100
AcDbEntity
  8
ASSI
100
AcDbPolyline
 62
253
  6
CONTINUOUS
 90
35
 70
0
 10
-2.5519741532
 20
-4.2747810164
 10
-2.5099973618
 20
-4.3030690925
 10
-2.4681209035
 20
-4.3333205158
 10
-2.4265670121
 20
-4.3653740035
 10
-2.3853388764
 20
-4.3992376665
 10
-2.3444330749
 20
-4.4349032579
 10
-2.3040618942
 20
-4.4721849395
 10
-2.2642288166
 20
-4.5110894413
 10
-2.2249299884
 20
-4.551609816
 10
-2.1863666713
 20
-4.5935396974
 10
-2.1485398411
 20
-4.6368889174
 10
-2.1114480341
 20
-4.6816473584
 10
-2.0752888487
 20
-4.7275787284
 10
-2.0400629935
 20
-4.7746965882
 10
-2.0057691858
 20
-4.8229870408
 10
-1.9726020573
 20
-4.8721726188
 10
-1.9405734089
 20
-4.9222508997
 10
-1.9096708238
 20
-4.9732239451
 10
-1.8800526515
 20
-5.0248210399
 10
-1.851732603
 20
-5.0770264197
 10
-1.8246963471
 20
-5.1298554851
 10
-1.7990602287
 20
-5.1830843026
 10
-1.7748224937
 20
-5.2367234895
 10
-1.7519842834
 20
-5.290762069
 10
-1.7306663586
 20
-5.3449437586
 10
-1.7108657926
 20
-5.3993052672
 10
-1.6925849438
 20
-5.4538095519
 10
-1.6759526224
 20
-5.5080897741
 10
-1.6609861782
 20
-5.562150838
 10
-1.6476678316
 20
-5.6159875861
 10
-1.6360738774
 20
-5.6692181918
 10
-1.6262267279
 20
-5.721832994
 10
-1.6181037313
 20
-5.773841512
 10
-1.611713791
 20
-5.8248908105
 10
-1.6070599126
 20
-5.8748632664
  0
LINE
  5
257
100
AcDbEntity
  8
ASSI
100
AcDbLine
 62
253
  6
CONTINUOUS
 10
-1.6070599126
 20
-5.8748632664
 11
-1.6041390854
 21
-5.9238764986
  0
LINE
  5
258
100
AcDbEntity
  8
ASSI
100
AcDbLine
 62
7
  6
CONTINUOUS
 10
-3.9673802359
 20
22.0065508459
 11
-3.9461835043
 21
21.3903271321
  0
LINE
  5
259
100
AcDbEntity
  8
ASSI
100
AcDbLine
 62
253
  6
CONTINUOUS
 10
-1.6041390854
 20
-5.9238764986
 11
-1.602951295
 21
-5.9719304979
  0
LINE
  5
25A
100
AcDbEntity
  8
ASSI
100
AcDbLine
 62
7
  6
CONTINUOUS
 10
-1.6332514305
 20
-5.8894336508
 11
-1.6322413356
 21
-5.9310696504
  0
LINE
  5
25B
100
AcDbEntity
  8
ASSI
100
AcDbLine
 62
253
  6
CONTINUOUS
 10
-1.6034065855
 20
1.4262542671
 11
-1.602951295
 21
1.3777719337
  0
LINE
  5
25C
100
AcDbEntity
  8
ASSI
100
AcDbLine
 62
7
  6
CONTINUOUS
 10
-1.632625001
 20
1.461094099
 11
-1.6322403753
 21
1.4186895664
  0
LINE
  5
25D
100
AcDbEntity
  8
ASSI
100
AcDbLine
 62
253
  6
CONTINUOUS
 10
-1.602951295
 20
1.3777719337
 11
-1.6041376847
 21
1.3302593747
  0
LINE
  5
25E
100
AcDbEntity
  8
ASSI
100
AcDbLine
 62
7
  6
CONTINUOUS
 10
-1.6322409795
 20
1.4186001653
 11
-1.6349294681
 21
1.3468694635
  0
LWPOLYLINE
  5
25F
100
AcDbEntity
  8
ASSI
100
AcDbPolyline
 62
253
  6
CONTINUOUS
 90
15
 70
0
 10
-1.6041376847
 20
1.3302593747
 10
-1.6070558343
 20
1.2837980077
 10
-1.6117057575
 20
1.2383878254
 10
-1.6180900419
 20
1.1939130561
 10
-1.626206104
 20
1.1504894706
 10
-1.636046307
 20
1.108464316
 10
-1.6476333509
 20
1.067853248
 10
-1.6609447727
 20
1.0286404777
 10
-1.6759053957
 20
0.9911259685
 10
-1.6925335162
 20
0.9553345936
 10
-1.7108112655
 20
0.921241238
 10
-1.7306093988
 20
0.8890707821
 10
-1.75192582
 20
0.8588579495
 10
-1.7747631933
 20
0.8305676944
 10
-1.7989995371
 20
0.8043201724
  0
LWPOLYLINE
  5
260
100
AcDbEntity
  8
ASSI
100
AcDbPolyline
 62
7
  6
CONTINUOUS
 90
10
 70
0
 10
-1.6349294681
 20
1.3468694635
 10
-1.6438879771
 20
1.2639311073
 10
-1.6588943085
 20
1.1866627136
 10
-1.6796758641
 20
1.1156153687
 10
-1.7058887218
 20
1.0512785064
 10
-1.7371267891
 20
0.9940516198
 10
-1.7728583862
 20
0.9443026918
 10
-1.8127392578
 20
0.9019655487
 10
-1.8568234959
 20
0.8667119008
 10
-1.8759102632
 20
0.8544157516
  0
LWPOLYLINE
  5
261
100
AcDbEntity
  8
RACCORDO
100
AcDbPolyline
 62
253
  6
CONTINUOUS
 90
38
 70
0
 10
-1.9003807142
 20
1.0793474928
 10
-1.8492388351
 20
1.1286935128
 10
-1.8064530511
 20
1.1872341457
 10
-1.7721038671
 20
1.2537739938
 10
-1.746582348
 20
1.3255477678
 10
-1.7293704123
 20
1.4002630479
 10
-1.719495701
 20
1.4770790209
 10
-1.7161826845
 20
1.5551764891
 10
-1.7187284405
 20
1.6334765396
 10
-1.7264147878
 20
1.7110642204
 10
-1.7386284481
 20
1.7876869892
 10
-1.7547701188
 20
1.8627336559
 10
-1.774240042
 20
1.9356215662
 10
-1.7966168215
 20
2.0063479839
 10
-1.8214272138
 20
2.0745813052
 10
-1.8481979594
 20
2.1399960065
 10
-1.8766553924
 20
2.2027104468
 10
-1.9064347268
 20
2.2625582995
 10
-1.9371817074
 20
2.3193951776
 10
-1.9687484887
 20
2.3734250587
 10
-2.0008789402
 20
2.4246085751
 10
-2.0333048229
 20
2.4728849756
 10
-2.0659382322
 20
2.5184449224
 10
-2.0985882482
 20
2.5613014742
 10
-2.1310665601
 20
2.6014690515
 10
-2.1633418957
 20
2.6391416987
 10
-2.1952820104
 20
2.6743707207
 10
-2.2267522304
 20
2.7072023851
 10
-2.2577541533
 20
2.7378144192
 10
-2.288199887
 20
2.7662777917
 10
-2.3179938841
 20
2.7926539791
 10
-2.347150642
 20
2.8170944157
 10
-2.3755997047
 20
2.8396670843
 10
-2.4032888937
 20
2.8604525771
 10
-2.4302767257
 20
2.8796051713
 10
-2.4565576526
 20
2.8972187763
 10
-2.4820597877
 20
2.9133398358
 10
-2.5067526589
 20
2.9280425693
  0
LWPOLYLINE
  5
262
100
AcDbEntity
  8
ASSI
100
AcDbPolyline
 62
253
  6
CONTINUOUS
 90
61
 70
0
 10
-1.7989995371
 20
0.8043201724
 10
-1.8246332604
 20
0.7801251394
 10
-1.8516665677
 20
0.7579724911
 10
-1.8799832441
 20
0.737952551
 10
-1.9095973758
 20
0.7200655242
 10
-1.9404954971
 20
0.7043108527
 10
-1.9725201217
 20
0.6907776829
 10
-2.0056839354
 20
0.6794773817
 10
-2.0399748683
 20
0.6703982318
 10
-2.0751983462
 20
0.6635947271
 10
-2.1113558005
 20
0.6590817911
 10
-2.148446374
 20
0.6568441733
 10
-2.18627208
 20
0.6568910958
 10
-2.2248342855
 20
0.6592339737
 10
-2.2641321117
 20
0.6638611138
 10
-2.3039642001
 20
0.6707470772
 10
-2.344334331
 20
0.6799028987
 10
-2.3852390956
 20
0.6913173318
 10
-2.4264663316
 20
0.7049315283
 10
-2.4680194797
 20
0.7207575007
 10
-2.5098953319
 20
0.7387831037
 10
-2.5518717207
 20
0.7589132701
 10
-2.5939488638
 20
0.7811591583
 10
-2.6361266228
 20
0.8055095647
 10
-2.678182258
 20
0.8318359004
 10
-2.7201154824
 20
0.8601491316
 10
-2.7619265038
 20
0.8904383373
 10
-2.8033932861
 20
0.9225421207
 10
-2.8445123244
 20
0.9564687752
 10
-2.8852868911
 20
0.9922101399
 10
-2.9255050836
 20
1.029580155
 10
-2.9651629742
 20
1.0685858076
 10
-3.0042641192
 20
1.1092203221
 10
-3.0426078226
 20
1.1512770057
 10
-3.0801925225
 20
1.1947660286
 10
-3.1170192927
 20
1.2396774986
 10
-3.1528913855
 20
1.2857746323
 10
-3.1878073727
 20
1.333071406
 10
-3.2217681083
 20
1.3815541702
 10
-3.2545802887
 20
1.4309446907
 10
-3.2862314561
 20
1.4812409244
 10
-3.3167334523
 20
1.5324452649
 10
-3.3459294686
 20
1.5842861073
 10
-3.3738052783
 20
1.636747985
 10
-3.4003744878
 20
1.6898467171
 10
-3.4255220957
 20
1.7433575945
 10
-3.4492491256
 20
1.7972916562
 10
-3.4715539413
 20
1.851638211
 10
-3.492317624
 20
1.906139913
 10
-3.511542068
 20
1.9608340673
 10
-3.5292248107
 20
2.0156836909
 10
-3.5452405198
 20
2.0703199373
 10
-3.5595712085
 20
2.1247480784
 10
-3.5722344339
 20
2.1789630853
 10
-3.5831583578
 20
2.2325805582
 10
-3.5923202797
 20
2.2855910022
 10
-3.5997426607
 20
2.3380040468
 10
-3.6054216107
 20
2.3894638623
 10
-3.6093558705
 20
2.4398518169
 10
-3.6115466941
 20
2.489286544
 10
-3.611994067
 20
2.5377680511
  0
LWPOLYLINE
  5
263
100
AcDbEntity
  8
RACCORDO
100
AcDbPolyline
 62
253
  6
CONTINUOUS
 90
5
 70
0
 10
-1.8417571078
 20
1.0056801521
 10
-1.7831833219
 20
1.0448727352
 10
-1.72797944
 20
1.0981385199
 10
-1.6817946596
 20
1.1613284442
 10
-1.6529708401
 20
1.2171629655
  0
LINE
  5
264
100
AcDbEntity
  8
ASSI
100
AcDbLine
 62
7
  6
CONTINUOUS
 10
-1.8751054025
 20
0.8549020555
 11
-1.8759210408
 21
0.8544087626
  0
LWPOLYLINE
  5
265
100
AcDbEntity
  8
ASSI
100
AcDbPolyline
 62
253
  6
CONTINUOUS
 90
58
 70
0
 10
-1.8759210408
 20
0.8544087626
 10
-1.8896588192
 20
0.8464495848
 10
-1.9183633941
 20
0.8318207318
 10
-1.9481668305
 20
0.8192351398
 10
-1.9790232835
 20
0.8087154985
 10
-2.0108751716
 20
0.8002846078
 10
-2.0436524066
 20
0.7939618831
 10
-2.0772926405
 20
0.7897581487
 10
-2.1117410627
 20
0.7876790367
 10
-2.1469351396
 20
0.7877273374
 10
-2.1828103871
 20
0.7899016609
 10
-2.2193059478
 20
0.7941970311
 10
-2.2563630972
 20
0.800605831
 10
-2.2939178016
 20
0.8091168926
 10
-2.3319032097
 20
0.8197149935
 10
-2.3702553843
 20
0.8323822572
 10
-2.4089085778
 20
0.8470973294
 10
-2.4477934332
 20
0.8638342066
 10
-2.486839805
 20
0.8825627823
 10
-2.5259787017
 20
0.9032499392
 10
-2.5651416574
 20
0.9258595237
 10
-2.6042590059
 20
0.9503513204
 10
-2.6432623387
 20
0.9766824729
 10
-2.6820826038
 20
1.004806411
 10
-2.7206494789
 20
1.0346721405
 10
-2.7588936691
 20
1.0662256254
 10
-2.7967493593
 20
1.0994122599
 10
-2.8341522464
 20
1.1341758282
 10
-2.871035436
 20
1.1704542861
 10
-2.9073349476
 20
1.2081848985
 10
-2.9429918382
 20
1.2473073653
 10
-2.9779451139
 20
1.2877562369
 10
-3.0121304394
 20
1.3294585807
 10
-3.0454854611
 20
1.3723397788
 10
-3.0779553327
 20
1.4163310235
 10
-3.1094776795
 20
1.4613494545
 10
-3.1399825703
 20
1.5072949082
 10
-3.1694126226
 20
1.5540785676
 10
-3.1977216816
 20
1.6016243897
 10
-3.2248609344
 20
1.6498480247
 10
-3.2507749718
 20
1.6986476513
 10
-3.2754287346
 20
1.7479535658
 10
-3.2988033881
 20
1.7977297232
 10
-3.3208585154
 20
1.8478984095
 10
-3.3415482028
 20
1.8983638105
 10
-3.3608426767
 20
1.949063079
 10
-3.3787135052
 20
1.9999407201
 10
-3.3951105295
 20
2.0508739693
 10
-3.4099792862
 20
2.1016984962
 10
-3.4232959628
 20
2.1523324363
 10
-3.4350355502
 20
2.2026786794
 10
-3.4451614864
 20
2.2525528555
 10
-3.4536655566
 20
2.3018693038
 10
-3.4605431811
 20
2.3505458101
 10
-3.4657857695
 20
2.3984111769
 10
-3.4694021507
 20
2.4453612101
 10
-3.4714084665
 20
2.4913551859
 10
-3.4718204169
 20
2.5363251074
  0
LINE
  5
266
100
AcDbEntity
  8
DRAFT
100
AcDbLine
 62
7
  6
CONTINUOUS
 10
-1.6906541818
 20
1.0886701756
 11
-1.8417571144
 21
1.0056801485
  0
LWPOLYLINE
  5
267
100
AcDbEntity
  8
ASSI
100
AcDbPolyline
 62
7
  6
CONTINUOUS
 90
13
 70
0
 10
4.8737812329
 20
-5.829474666
 10
4.9170701125
 20
-5.8517484017
 10
4.9670568743
 20
-5.8717075485
 10
5.0190933987
 20
-5.8871593351
 10
5.0728492749
 20
-5.8982762058
 10
5.1278648114
 20
-5.9051059759
 10
5.1833639122
 20
-5.9076430534
 10
5.2388895854
 20
-5.905908712
 10
5.2939862105
 20
-5.8998760843
 10
5.3478794031
 20
-5.8895403301
 10
5.4001111756
 20
-5.8748477921
 10
5.4503556466
 20
-5.8556214595
 10
5.4904939122
 20
-5.8358909357
  0
LWPOLYLINE
  5
268
100
AcDbEntity
  8
ASSI
100
AcDbPolyline
 62
253
  6
CONTINUOUS
 90
7
 70
0
 10
4.8323916438
 20
-5.737826782
 10
4.8511657887
 20
-5.7481233
 10
4.8708362718
 20
-5.7578502883
 10
4.8913501942
 20
-5.7669818035
 10
4.9126514413
 20
-5.7754932144
 10
4.9346836839
 20
-5.7833622431
 10
4.9573908477
 20
-5.7905687293
  0
LINE
  5
269
100
AcDbEntity
  8
ASSI
100
AcDbLine
 62
253
  6
CONTINUOUS
 10
4.832391642
 20
-6.3205806459
 11
-10.0758067547
 21
2.2872262648
  0
LINE
  5
26A
100
AcDbEntity
  8
ASSI
100
AcDbLine
 62
253
  6
CONTINUOUS
 10
4.9725904925
 20
-6.0762406483
 11
-9.9356312002
 21
2.5315797131
  0
LINE
  5
26B
100
AcDbEntity
  8
ASSI
100
AcDbLine
 62
7
  6
CONTINUOUS
 10
-10.0344019146
 20
2.7783229026
 11
4.8738197789
 21
-5.8294974593
  0
LINE
  5
26C
100
AcDbEntity
  8
ASSI
100
AcDbLine
 62
253
  6
CONTINUOUS
 10
-10.0758067548
 20
2.8699801217
 11
4.8323916419
 21
-5.7378267889
  0
LWPOLYLINE
  5
26D
100
AcDbEntity
  8
ASSI
100
AcDbPolyline
 62
253
  6
CONTINUOUS
 90
17
 70
0
 10
-10.0758067528
 20
2.2872262601
 10
-10.0936341801
 20
2.298069401
 10
-10.1104648777
 20
2.3094360459
 10
-10.1262539204
 20
2.3212956473
 10
-10.1409585548
 20
2.3336158598
 10
-10.1545403161
 20
2.3463640904
 10
-10.1669646207
 20
2.3595077707
 10
-10.1781987119
 20
2.3730128857
 10
-10.1882112528
 20
2.3868423907
 10
-10.1969744194
 20
2.4009578122
 10
-10.2044645241
 20
2.4153208966
 10
-10.210661912
 20
2.4298937499
 10
-10.2155501466
 20
2.4446373992
 10
-10.2191161244
 20
2.4595126765
 10
-10.2213501923
 20
2.4744796743
 10
-10.2222463266
 20
2.4894978119
 10
-10.2222651954
 20
2.4917785221
  0
LWPOLYLINE
  5
26E
100
AcDbEntity
  8
ASSI
100
AcDbPolyline
 62
253
  6
CONTINUOUS
 90
19
 70
0
 10
-9.9356312002
 20
2.5315797131
 10
-9.9463610568
 20
2.5381123869
 10
-9.9564443381
 20
2.5449249296
 10
-9.9658810441
 20
2.5520173412
 10
-9.9746934705
 20
2.5594102794
 10
-9.9828593216
 20
2.5670830866
 10
-9.9903117099
 20
2.57497379
 10
-9.9970446419
 20
2.5830841369
 10
-10.0030641112
 20
2.5914123801
 10
-10.0083212109
 20
2.5998913051
 10
-10.0128095696
 20
2.60852188
 10
-10.0165355588
 20
2.6173031369
 10
-10.0194693861
 20
2.6261649569
 10
-10.0216047368
 20
2.6351081259
 10
-10.0229479256
 20
2.644131858
 10
-10.0234881048
 20
2.6531636781
 10
-10.0232187619
 20
2.6622036238
 10
-10.0221464092
 20
2.6712516573
 10
-10.0202797365
 20
2.6802351908
  0
LINE
  5
26F
100
AcDbEntity
  8
ASSI
100
AcDbLine
 62
253
  6
CONTINUOUS
 10
-1.6055950052
 20
1.4756945046
 11
-1.6034065855
 21
1.4262542671
  0
LINE
  5
270
100
AcDbEntity
  8
ASSI
100
AcDbLine
 62
253
  6
CONTINUOUS
 10
-1.602951295
 20
-5.9719304979
 11
-1.6034055751
 21
-6.0189964578
  0
LINE
  5
271
100
AcDbEntity
  8
ASSI
100
AcDbLine
 62
7
  6
CONTINUOUS
 10
-1.6322405163
 20
-5.9311670327
 11
-1.6338040261
 21
-6.0019627216
  0
LWPOLYLINE
  5
272
100
AcDbEntity
  8
ASSI
100
AcDbPolyline
 62
253
  6
CONTINUOUS
 90
14
 70
0
 10
-1.6034055751
 20
-6.0189964578
 10
-1.6055916763
 20
-6.0650114903
 10
-1.6095096125
 20
-6.1099756029
 10
-1.6151601825
 20
-6.1540034513
 10
-1.6225425918
 20
-6.1969803811
 10
-1.6316545704
 20
-6.2385624964
 10
-1.6425188439
 20
-6.2787341726
 10
-1.6551129235
 20
-6.3175111725
 10
-1.6693669223
 20
-6.3545968024
 10
-1.6852993513
 20
-6.389966345
 10
-1.702892127
 20
-6.4236447681
 10
-1.7220206495
 20
-6.4554100109
 10
-1.7426833925
 20
-6.4852277091
 10
-1.7648824503
 20
-6.5131325607
  0
LWPOLYLINE
  5
273
100
AcDbEntity
  8
ASSI
100
AcDbPolyline
 62
7
  6
CONTINUOUS
 90
10
 70
0
 10
-1.6338040261
 20
-6.0019627216
 10
-1.6413720029
 20
-6.0837927288
 10
-1.6549687943
 20
-6.1599333556
 10
-1.6743201033
 20
-6.2298466454
 10
-1.6990785591
 20
-6.29305572
 10
-1.7288314221
 20
-6.3491740795
 10
-1.7630319436
 20
-6.3978436507
 10
-1.8013392838
 20
-6.4391794896
 10
-1.8438501933
 20
-6.4735756441
 10
-1.8634895049
 20
-6.4862864428
  0
LWPOLYLINE
  5
274
100
AcDbEntity
  8
RACCORDO
100
AcDbPolyline
 62
7
  6
CONTINUOUS
 90
9
 70
0
 10
-2.4069584853
 20
1.0237646083
 10
-2.3281598219
 20
0.9908844074
 10
-2.2505671373
 20
0.9668631946
 10
-2.1744481054
 20
0.9517123069
 10
-2.1004677326
 20
0.9455139722
 10
-2.0296973856
 20
0.9481812571
 10
-1.9627926513
 20
0.9593651205
 10
-1.9000018704
 20
0.9786831527
 10
-1.8417570402
 20
1.0056801893
  0
LINE
  5
275
100
AcDbEntity
  8
RACCORDO
100
AcDbLine
 62
253
  6
CONTINUOUS
 10
-2.5067526589
 20
1.1023364319
 11
-2.4206935612
 21
1.0580683365
  0
LINE
  5
276
100
AcDbEntity
  8
RACCORDO
100
AcDbLine
 62
7
  6
CONTINUOUS
 10
-2.4864877328
 20
1.0654352921
 11
-2.4069584853
 21
1.0237646083
  0
LINE
  5
277
100
AcDbEntity
  8
RACCORDO
100
AcDbLine
 62
7
  6
CONTINUOUS
 10
-2.5832117991
 20
1.1276301861
 11
-2.4864877328
 21
1.0654352921
  0
LWPOLYLINE
  5
278
100
AcDbEntity
  8
RACCORDO
100
AcDbPolyline
 62
253
  6
CONTINUOUS
 90
4
 70
0
 10
-2.5832286119
 20
1.1507738185
 10
-2.5569476719
 20
1.1331602211
 10
-2.5314455302
 20
1.1170391654
 10
-2.5067526589
 20
1.1023364319
  0
LWPOLYLINE
  5
279
100
AcDbEntity
  8
RACCORDO
100
AcDbPolyline
 62
7
  6
CONTINUOUS
 90
21
 70
0
 10
-3.0485758352
 20
-4.2524154541
 10
-3.1137830803
 20
-4.3000281397
 10
-3.1716598562
 20
-4.3596021344
 10
-3.221151347
 20
-4.430712067
 10
-3.2615228769
 20
-4.5132613079
 10
-3.2917273226
 20
-4.6063230722
 10
-3.3108964554
 20
-4.7077501572
 10
-3.3189001502
 20
-4.8163757538
 10
-3.3156965763
 20
-4.9312939588
 10
-3.3014695897
 20
-5.0500744907
 10
-3.2767328006
 20
-5.1708582213
 10
-3.2419124328
 20
-5.2927412627
 10
-3.1975344606
 20
-5.4143673016
 10
-3.1442434691
 20
-5.5342776853
 10
-3.0827075363
 20
-5.6511645955
 10
-3.0135904149
 20
-5.7638350381
 10
-2.9376778376
 20
-5.8709896756
 10
-2.8558388803
 20
-5.9713465246
 10
-2.7688824049
 20
-6.0638050406
 10
-2.6776782238
 20
-6.1472633319
 10
-2.5832117991
 20
-6.2206023051
  0
LWPOLYLINE
  5
27A
100
AcDbEntity
  8
RACCORDO
100
AcDbPolyline
 62
253
  6
CONTINUOUS
 90
8
 70
0
 10
-2.4206935612
 20
1.0580683365
 10
-2.3356593397
 20
1.0251773593
 10
-2.2526608496
 20
1.0040536393
 10
-2.1727011482
 20
0.9949488248
 10
-2.0967124351
 20
0.9979636285
 10
-2.0255532465
 20
1.0130716992
 10
-1.9596861483
 20
1.0403206608
 10
-1.9003807142
 20
1.0793474928
  0
LINE
  5
27B
100
AcDbEntity
  8
RACCORDO
100
AcDbLine
 62
253
  6
CONTINUOUS
 10
-2.5067526589
 20
2.9280425693
 11
-2.5928110623
 21
2.9723110656
  0
LINE
  5
27C
100
AcDbEntity
  8
ASSI
100
AcDbLine
 62
253
  6
CONTINUOUS
 10
-2.5759724023
 20
3.111315154
 11
-2.533936625
 21
3.0849897086
  0
LWPOLYLINE
  5
27D
100
AcDbEntity
  8
ASSI
100
AcDbPolyline
 62
253
  6
CONTINUOUS
 90
35
 70
0
 10
-2.533936625
 20
3.0849897086
 10
-2.4920331454
 20
3.0566725058
 10
-2.4502615985
 20
3.0263745401
 10
-2.408843501
 20
2.9942572186
 10
-2.3677821898
 20
2.9603123463
 10
-2.3270740956
 20
2.9245482492
 10
-2.2869303452
 20
2.8871511344
 10
-2.2473545474
 20
2.8481141883
 10
-2.2083427222
 20
2.8074444338
 10
-2.170094592
 20
2.765348843
 10
-2.1326112858
 20
2.7218174788
 10
-2.0958911868
 20
2.6768605536
 10
-2.0601298946
 20
2.6307152671
 10
-2.0253283307
 20
2.5833679189
 10
-1.9914849998
 20
2.5348325332
 10
-1.958791896
 20
2.4853878854
 10
-1.9272608858
 20
2.4350363419
 10
-1.8968794871
 20
2.3837758842
 10
-1.8678032168
 20
2.3318786841
 10
-1.840045654
 20
2.2793605372
 10
-1.8135925996
 20
2.2262059987
 10
-1.7885579604
 20
2.1726403484
 10
-1.7649401383
 20
2.1186528594
 10
-1.7427401189
 20
2.0642546053
 10
-1.7220757568
 20
2.0097035256
 10
-1.7029446895
 20
1.9549626245
 10
-1.6853487113
 20
1.9000692199
 10
-1.6694120343
 20
1.8453926528
 10
-1.6551522367
 20
1.7909278877
 10
-1.6425513106
 20
1.7366802045
 10
-1.6316802669
 20
1.6830343165
 10
-1.6225615559
 20
1.6299998384
 10
-1.6151724877
 20
1.5775672924
 10
-1.6095165687
 20
1.5260926371
 10
-1.6055950052
 20
1.4756945046
  0
LWPOLYLINE
  5
27E
100
AcDbEntity
  8
ASSI
100
AcDbPolyline
 62
253
  6
CONTINUOUS
 90
62
 70
0
 10
-1.7648824503
 20
-6.5131325607
 10
-1.7884987776
 20
-6.5390061702
 10
-1.8135309539
 20
-6.562838875
 10
-1.839981013
 20
-6.5846406988
 10
-1.8677351633
 20
-6.6043228182
 10
-1.89680736
 20
-6.6218849525
 10
-1.9271842683
 20
-6.6373277478
 10
-1.9587112193
 20
-6.6505638052
 10
-1.991400957
 20
-6.6615818075
 10
-2.0252413529
 20
-6.6703934348
 10
-2.0600404738
 20
-6.6769458108
 10
-2.095799963
 20
-6.6812241567
 10
-2.1325187511
 20
-6.6832435899
 10
-2.1700008562
 20
-6.6829960906
 10
-2.2082477998
 20
-6.680470359
 10
-2.2472585481
 20
-6.6756779831
 10
-2.2868332823
 20
-6.6686452726
 10
-2.3269759092
 20
-6.6593612955
 10
-2.3676828931
 20
-6.6478372032
 10
-2.4087432305
 20
-6.6341324192
 10
-2.4501605093
 20
-6.6182350453
 10
-2.4919313742
 20
-6.6001571171
 10
-2.5338343745
 20
-6.5799939397
 10
-2.5758698978
 20
-6.5577344746
 10
-2.618037636
 20
-6.5333898073
 10
-2.6601150572
 20
-6.5070884065
 10
-2.7021020487
 20
-6.4788194224
 10
-2.7439986441
 20
-6.4485936581
 10
-2.7855824939
 20
-6.41657204
 10
-2.8268502614
 20
-6.3827463729
 10
-2.8678050508
 20
-6.3471247147
 10
-2.9082341422
 20
-6.3098923521
 10
-2.9481337617
 20
-6.2710423767
 10
-2.9875073122
 20
-6.2305814777
 10
-3.0261528179
 20
-6.1887153266
 10
-3.064068899
 20
-6.1454338412
 10
-3.1012564477
 20
-6.1007468157
 10
-3.1375168926
 20
-6.0548897336
 10
-3.1728490414
 20
-6.0078487385
 10
-3.2072535126
 20
-5.9596373482
 10
-3.2405344711
 20
-5.9105321203
 10
-3.272679543
 20
-5.8605351284
 10
-3.3037004867
 20
-5.8096439358
 10
-3.3334377107
 20
-5.7581283622
 10
-3.3618768853
 20
-5.7060037694
 10
-3.3890317202
 20
-5.6532544302
 10
-3.4147847412
 20
-5.6001035645
 10
-3.4391371291
 20
-5.5465402046
 10
-3.4620870907
 20
-5.4925749578
 10
-3.4835127633
 20
-5.4384634492
 10
-3.5034165876
 20
-5.3841687282
 10
-3.5217955549
 20
-5.3297274117
 10
-3.5385197507
 20
-5.2755055481
 10
-3.5535714362
 20
-5.2214980092
 10
-3.5669679205
 20
-5.1677096713
 10
-3.5786320386
 20
-5.1145216945
 10
-3.5885411597
 20
-5.0619435893
 10
-3.5967176749
 20
-5.0099657053
 10
-3.6031521578
 20
-4.9589405831
 10
-3.6078415036
 20
-4.9089857584
 10
-3.6107888115
 20
-4.8599836936
 10
-3.611994067
 20
-4.8119343806
  0
LWPOLYLINE
  5
27F
100
AcDbEntity
  8
RACCORDO
100
AcDbPolyline
 62
253
  6
CONTINUOUS
 90
38
 70
0
 10
-1.9003807142
 20
-6.2688849983
 10
-1.8492388351
 20
-6.2195389784
 10
-1.8064530511
 20
-6.1609983455
 10
-1.7721038671
 20
-6.0944584973
 10
-1.746582348
 20
-6.0226847234
 10
-1.7293704123
 20
-5.9479694433
 10
-1.719495701
 20
-5.8711534703
 10
-1.7161826845
 20
-5.793056002
 10
-1.7187284405
 20
-5.7147559515
 10
-1.7264147878
 20
-5.6371682707
 10
-1.7386284481
 20
-5.5605455019
 10
-1.7547701188
 20
-5.4854988353
 10
-1.774240042
 20
-5.412610925
 10
-1.7966168215
 20
-5.3418845072
 10
-1.8214272138
 20
-5.2736511859
 10
-1.8481979594
 20
-5.2082364846
 10
-1.8766553924
 20
-5.1455220444
 10
-1.9064347268
 20
-5.0856741916
 10
-1.9371817074
 20
-5.0288373135
 10
-1.9687484887
 20
-4.9748074324
 10
-2.0008789402
 20
-4.923623916
 10
-2.0333048229
 20
-4.8753475155
 10
-2.0659382322
 20
-4.8297875687
 10
-2.0985882482
 20
-4.786931017
 10
-2.1310665601
 20
-4.7467634396
 10
-2.1633418957
 20
-4.7090907924
 10
-2.1952820104
 20
-4.6738617704
 10
-2.2267522304
 20
-4.641030106
 10
-2.2577541533
 20
-4.610418072
 10
-2.288199887
 20
-4.5819546994
 10
-2.3179938841
 20
-4.555578512
 10
-2.347150642
 20
-4.5311380755
 10
-2.3755997047
 20
-4.5085654068
 10
-2.4032888937
 20
-4.487779914
 10
-2.4302767257
 20
-4.4686273198
 10
-2.4565576526
 20
-4.4510137149
 10
-2.4820597877
 20
-4.4348926553
 10
-2.5067526589
 20
-4.4201899218
  0
LINE
  5
280
100
AcDbEntity
  8
DRAFT
100
AcDbLine
 62
7
  6
CONTINUOUS
 10
-2.9040176101
 20
-4.1647769742
 11
-3.0485759264
 21
-4.2524155094
  0
LINE
  5
281
100
AcDbEntity
  8
ASSI
100
AcDbLine
 62
7
  6
CONTINUOUS
 10
-3.1962351703
 20
-4.2061376317
 11
-3.1959544414
 21
-4.2059833124
  0
LWPOLYLINE
  5
282
100
AcDbEntity
  8
ASSI
100
AcDbPolyline
 62
7
  6
CONTINUOUS
 90
26
 70
0
 10
-3.1962407075
 20
-4.2061416006
 10
-3.1793007337
 20
-4.1973820638
 10
-3.1185353731
 20
-4.1741696536
 10
-3.0518907943
 20
-4.1607842827
 10
-2.9799694094
 20
-4.1576013903
 10
-2.9033109383
 20
-4.1648437374
 10
-2.8228440151
 20
-4.1825861628
 10
-2.7394538676
 20
-4.2107420343
 10
-2.6537851183
 20
-4.2492210003
 10
-2.5667565876
 20
-4.2977550103
 10
-2.4793559167
 20
-4.3558993662
 10
-2.3921719548
 20
-4.4233855119
 10
-2.3059663549
 20
-4.4998024628
 10
-2.2217738481
 20
-4.5843919133
 10
-2.1404811598
 20
-4.6763727266
 10
-2.0628925124
 20
-4.7749274904
 10
-1.9898013703
 20
-4.8791274409
 10
-1.9219748418
 20
-4.9879282535
 10
-1.8600630321
 20
-5.1003102446
 10
-1.8046736212
 20
-5.215175995
 10
-1.7563821818
 20
-5.3312856624
 10
-1.7156030684
 20
-5.4475375966
 10
-1.6826902488
 20
-5.56276344
 10
-1.6579419822
 20
-5.6755758476
 10
-1.6414714679
 20
-5.7847794982
 10
-1.6332514305
 20
-5.8894336508
  0
LWPOLYLINE
  5
283
100
AcDbEntity
  8
RACCORDO
100
AcDbPolyline
 62
253
  6
CONTINUOUS
 90
6
 70
0
 10
-2.7230262008
 20
3.1477468271
 10
-2.7983017025
 20
3.1563199876
 10
-2.8803277648
 20
3.1530695479
 10
-2.9571406685
 20
3.1367642488
 10
-3.0282399011
 20
3.107351339
 10
-3.0485758985
 20
3.0958169987
  0
LWPOLYLINE
  5
284
100
AcDbEntity
  8
RACCORDO
100
AcDbPolyline
 62
253
  6
CONTINUOUS
 90
42
 70
0
 10
-2.5928110623
 20
2.9723110656
 10
-2.6778448888
 20
3.0052022709
 10
-2.7608432831
 20
3.0263260462
 10
-2.8408033456
 20
3.0354306522
 10
-2.916792719
 20
3.0324154673
 10
-2.9879523938
 20
3.0173071158
 10
-3.0538195708
 20
2.9900581087
 10
-3.1131249098
 20
2.9510313317
 10
-3.1642667462
 20
2.9016853363
 10
-3.2070526476
 20
2.8431446356
 10
-3.2414020016
 20
2.7766046893
 10
-3.2669236474
 20
2.7048308422
 10
-3.28413562
 20
2.6301155408
 10
-3.2940103248
 20
2.5532995715
 10
-3.2973233356
 20
2.4752021066
 10
-3.2947775955
 20
2.3969020469
 10
-3.2870912649
 20
2.3193143565
 10
-3.2748776031
 20
2.2426915885
 10
-3.2587359001
 20
2.1676449405
 10
-3.2392659266
 20
2.0947570593
 10
-3.2168890988
 20
2.0240306695
 10
-3.1920786679
 20
1.9557973704
 10
-3.1653078857
 20
1.8903826903
 10
-3.1368504148
 20
1.8276682719
 10
-3.1070710384
 20
1.7678204434
 10
-3.0763240145
 20
1.7109835903
 10
-3.0447571934
 20
1.6569537322
 10
-3.0126267074
 20
1.6057702357
 10
-2.9802007937
 20
1.5574938531
 10
-2.9475673549
 20
1.5119339233
 10
-2.9149173107
 20
1.4690773879
 10
-2.8824389721
 20
1.4289098259
 10
-2.8501636112
 20
1.3912371933
 10
-2.8182234709
 20
1.3560081861
 10
-2.7867532266
 20
1.3231765357
 10
-2.7557512846
 20
1.2925645127
 10
-2.7253055422
 20
1.2641011452
 10
-2.6955115416
 20
1.2377249598
 10
-2.6663547739
 20
1.2132845289
 10
-2.6379056872
 20
1.1907118742
 10
-2.6102164678
 20
1.1699263989
 10
-2.5832286119
 20
1.1507738185
  0
LINE
  5
285
100
AcDbEntity
  8
ASSI
100
AcDbLine
 62
7
  6
CONTINUOUS
 10
9.7710077717
 20
-3.4915702473
 11
9.8586370743
 21
-3.5421663084
  0
LWPOLYLINE
  5
286
100
AcDbEntity
  8
CURVE
100
AcDbPolyline
 62
253
  6
CONTINUOUS
 90
60
 70
0
 10
-2.381136118
 20
10.3029122476
 10
-2.3828997835
 20
10.3069085454
 10
-2.3847205339
 20
10.3108363691
 10
-2.3866016432
 20
10.3147071837
 10
-2.3885463853
 20
10.3185324544
 10
-2.3905580343
 20
10.3223236462
 10
-2.3926398641
 20
10.3260922242
 10
-2.3952344234
 20
10.3305967286
 10
-2.3979351049
 20
10.3350804996
 10
-2.4007422562
 20
10.3395388582
 10
-2.4036562246
 20
10.3439671251
 10
-2.4066773575
 20
10.3483606213
 10
-2.4092762613
 20
10.351990986
 10
-2.4119451112
 20
10.3555855746
 10
-2.4146791923
 20
10.3591360068
 10
-2.4174737895
 20
10.3626339024
 10
-2.4203241879
 20
10.366070881
 10
-2.4232256726
 20
10.3694385624
 10
-2.4261742629
 20
10.3727293447
 10
-2.4291689153
 20
10.3759387405
 10
-2.4322093208
 20
10.3790630405
 10
-2.43529517
 20
10.3820985359
 10
-2.438426154
 20
10.3850415176
 10
-2.4416019635
 20
10.3878882764
 10
-2.4448213722
 20
10.3906341504
 10
-2.4480794844
 20
10.3932706652
 10
-2.4513704872
 20
10.3957883936
 10
-2.454688568
 20
10.3981779082
 10
-2.4580279137
 20
10.4004297816
 10
-2.4613827116
 20
10.4025345866
 10
-2.4647475391
 20
10.4044845967
 10
-2.4681185349
 20
10.4062788885
 10
-2.4714922279
 20
10.4079182394
 10
-2.4748651471
 20
10.4094034271
 10
-2.4782338214
 20
10.410735229
 10
-2.4815947798
 20
10.4119144226
 10
-2.4849443391
 20
10.4129417933
 10
-2.4882779674
 20
10.4138181587
 10
-2.4915909207
 20
10.414544344
 10
-2.4948784548
 20
10.4151211747
 10
-2.4981358258
 20
10.4155494764
 10
-2.5013582897
 20
10.4158300742
 10
-2.5045406205
 20
10.415964302
 10
-2.5076756654
 20
10.4159555263
 10
-2.5107557897
 20
10.415807622
 10
-2.5137733588
 20
10.4155244638
 10
-2.516720738
 20
10.4151099266
 10
-2.5195902926
 20
10.4145678852
 10
-2.5223759194
 20
10.4139021228
 10
-2.5250776401
 20
10.4131160563
 10
-2.5276970081
 20
10.4122130106
 10
-2.5302355765
 20
10.411196311
 10
-2.5326948986
 20
10.4100692826
 10
-2.5350765276
 20
10.4088352505
 10
-2.537382384
 20
10.4074955178
 10
-2.539615858
 20
10.4060432985
 10
-2.541780707
 20
10.4044697849
 10
-2.5438806884
 20
10.4027661688
 10
-2.5459195596
 20
10.4009236425
 10
-2.5479010781
 20
10.3989333979
  0
LWPOLYLINE
  5
287
100
AcDbEntity
  8
ASSI
100
AcDbPolyline
 62
253
  6
CONTINUOUS
 90
37
 70
0
 10
5.8372127053
 20
-22.6351351085
 10
5.8390415553
 20
-22.6676305864
 10
5.8420642318
 20
-22.6992398748
 10
5.8462807347
 20
-22.7299629739
 10
5.8517021377
 20
-22.7598496238
 10
5.8583173672
 20
-22.7888500843
 10
5.8660932022
 20
-22.8168151346
 10
5.8750355998
 20
-22.8437388321
 10
5.885138603
 20
-22.8696271194
 10
5.89635112
 20
-22.894348603
 10
5.9086786377
 20
-22.9178969649
 10
5.9221156693
 20
-22.9402785232
 10
5.9365946626
 20
-22.9613808384
 10
5.9521208336
 20
-22.9811975353
 10
5.9686889663
 20
-22.9997349891
 10
5.9862158609
 20
-23.0168998865
 10
6.0047064857
 20
-23.0326854173
 10
6.0241558724
 20
-23.0470983917
 10
6.0444659171
 20
-23.0600659279
 10
6.0656410123
 20
-23.0715806751
 10
6.0876767655
 20
-23.0816499841
 10
6.110461895
 20
-23.0902230259
 10
6.1340000314
 20
-23.097292186
 10
6.1582875441
 20
-23.1028650789
 10
6.1832022603
 20
-23.1069137184
 10
6.2087472991
 20
-23.1094304733
 10
6.2349195413
 20
-23.1104229748
 10
6.2615874568
 20
-23.1098861306
 10
6.2887539773
 20
-23.1078121176
 10
6.3164161711
 20
-23.1042087589
 10
6.3444337122
 20
-23.0990944311
 10
6.3728087231
 20
-23.0924611859
 10
6.4015390814
 20
-23.0843169717
 10
6.430478094
 20
-23.0747040095
 10
6.4595768632
 20
-23.0636363731
 10
6.4888842868
 20
-23.0510999888
 10
6.5184003646
 20
-23.0370948566
  0
LWPOLYLINE
  5
288
100
AcDbEntity
  8
ASSI
100
AcDbPolyline
 62
253
  6
CONTINUOUS
 90
19
 70
0
 10
5.1366286177
 20
-22.6482030603
 10
5.1393407648
 20
-22.6968271721
 10
5.1438529629
 20
-22.7442668613
 10
5.1501577512
 20
-22.7904422819
 10
5.1582448272
 20
-22.8352756112
 10
5.1681006199
 20
-22.8786915604
 10
5.1797084036
 20
-22.9206174255
 10
5.1930493232
 20
-22.9609833451
 10
5.2081010205
 20
-22.9997206211
 10
5.224837103
 20
-23.0367623483
 10
5.2432294707
 20
-23.0720459171
 10
5.2632476166
 20
-23.1055127004
 10
5.2848572972
 20
-23.1371063331
 10
5.3080226679
 20
-23.1667739139
 10
5.3327050844
 20
-23.1944656566
 10
5.3588623287
 20
-23.2201346207
 10
5.3864512025
 20
-23.2437379977
 10
5.4154255819
 20
-23.2652360321
 10
5.4484561459
 20
-23.2861861823
  0
LINE
  5
289
100
AcDbEntity
  8
ASSI
100
AcDbLine
 62
7
  6
CONTINUOUS
 10
3.9522157134
 20
17.4338754006
 11
3.973412445
 21
16.8176516868
  0
LWPOLYLINE
  5
28A
100
AcDbEntity
  8
ASSI
100
AcDbPolyline
 62
253
  6
CONTINUOUS
 90
12
 70
0
 10
4.8324032899
 20
-5.7378335143
 10
4.8327872067
 20
-5.7497530279
 10
4.8339518411
 20
-5.7611552011
 10
4.8358907461
 20
-5.771976917
 10
4.8385931888
 20
-5.7821582719
 10
4.8420442093
 20
-5.7916429064
 10
4.8462247042
 20
-5.8003783178
 10
4.8511115317
 20
-5.8083161513
 10
4.8566776405
 20
-5.8154124671
 10
4.8628922188
 20
-5.8216279834
 10
4.8697208651
 20
-5.8269282944
 10
4.8737810076
 20
-5.8294750559
  0
LWPOLYLINE
  5
28B
100
AcDbEntity
  8
ASSI
100
AcDbPolyline
 62
253
  6
CONTINUOUS
 90
13
 70
0
 10
4.832391642
 20
-6.3205806459
 10
4.8353028811
 20
-7.6942022618
 10
4.8422948356
 20
-9.0654968703
 10
4.8533671544
 20
-10.4344490702
 10
4.8685188827
 20
-11.801032718
 10
4.8877500746
 20
-13.1652432786
 10
4.9110621023
 20
-14.5270976414
 10
4.9384551553
 20
-15.8865813858
 10
4.9699284935
 20
-17.2436780522
 10
5.0054825617
 20
-18.5984011897
 10
5.0451175179
 20
-19.9507449017
 10
5.0888329477
 20
-21.300684019
 10
5.1366286258
 20
-22.648203065
  0
LINE
  5
28C
100
AcDbEntity
  8
ASSI
100
AcDbLine
 62
253
  6
CONTINUOUS
 10
3.7720492669
 20
17.0198501202
 11
3.7720492669
 21
16.9572463369
  0
LWPOLYLINE
  5
28D
100
AcDbEntity
  8
ASSI
100
AcDbPolyline
 62
253
  6
CONTINUOUS
 90
22
 70
0
 10
4.8324032899
 20
-6.3205873712
 10
4.8327872055
 20
-6.3082245378
 10
4.8339518367
 20
-6.2954774914
 10
4.8358907367
 20
-6.2824167937
 10
4.8385931727
 20
-6.2691147424
 10
4.8420441852
 20
-6.2556449714
 10
4.8462246712
 20
-6.2420820427
 10
4.8511114895
 20
-6.2285010344
 10
4.8566775889
 20
-6.2149771244
 10
4.8628921582
 20
-6.2015851745
 10
4.8697207965
 20
-6.1883993163
 10
4.8771257038
 20
-6.1754925402
 10
4.88506589
 20
-6.1629362922
 10
4.893497402
 20
-6.1508000775
 10
4.902373567
 20
-6.1391510764
 10
4.9116452509
 20
-6.1280537723
 10
4.9212611299
 20
-6.1175695945
 10
4.9311679753
 20
-6.1077565783
 10
4.9413109474
 20
-6.0986690441
 10
4.9516338995
 20
-6.0903572959
 10
4.9620796889
 20
-6.0828673437
 10
4.9725904925
 20
-6.0762406483
  0
LWPOLYLINE
  5
28E
100
AcDbEntity
  8
ASSI
100
AcDbPolyline
 62
253
  6
CONTINUOUS
 90
13
 70
0
 10
5.1366286258
 20
10.9290518786
 10
5.0888329477
 20
9.5282314813
 10
5.0451175179
 20
8.1295412584
 10
5.0054825617
 20
6.7329969466
 10
4.9699284935
 20
5.3386241936
 10
4.9384551553
 20
3.9464287137
 10
4.9110621023
 20
2.5563964447
 10
4.8877500746
 20
1.1685437132
 10
4.8685188828
 20
-0.2171142914
 10
4.8533671544
 20
-1.6005930784
 10
4.8422948356
 20
-2.9818871871
 10
4.835302881
 20
-4.3609703594
 10
4.8323916419
 20
-5.7378267889
  0
LWPOLYLINE
  5
28F
100
AcDbEntity
  8
RACCORDO
100
AcDbPolyline
 62
253
  6
CONTINUOUS
 90
5
 70
0
 10
-1.8417571078
 20
-6.342552339
 10
-1.7831833219
 20
-6.3033597559
 10
-1.72797944
 20
-6.2500939712
 10
-1.6817946596
 20
-6.1869040469
 10
-1.6481451623
 20
-6.1217217219
  0
LINE
  5
290
100
AcDbEntity
  8
ASSI
100
AcDbLine
 62
7
  6
CONTINUOUS
 10
-1.8626349336
 20
-6.485770209
 11
-1.8635006015
 21
-6.4862936285
  0
LWPOLYLINE
  5
291
100
AcDbEntity
  8
ASSI
100
AcDbPolyline
 62
253
  6
CONTINUOUS
 90
58
 70
0
 10
-1.8635006015
 20
-6.4862936285
 10
-1.8768738362
 20
-6.4940338363
 10
-1.9050573618
 20
-6.508350678
 10
-1.9343632209
 20
-6.5206389946
 10
-1.9647456716
 20
-6.530876178
 10
-1.9961471042
 20
-6.5390394213
 10
-2.0284999876
 20
-6.545110881
 10
-2.0617422412
 20
-6.5490798992
 10
-2.0958188822
 20
-6.5509407361
 10
-2.1306692808
 20
-6.550691772
 10
-2.166229172
 20
-6.5483345204
 10
-2.2024375927
 20
-6.5438738707
 10
-2.2392372401
 20
-6.5373183009
 10
-2.2765642796
 20
-6.5286790711
 10
-2.3143517914
 20
-6.5179713184
 10
-2.3525368639
 20
-6.5052135125
 10
-2.3910539741
 20
-6.490427092
 10
-2.4298336852
 20
-6.4736379461
 10
-2.4688064248
 20
-6.4548764712
 10
-2.5079034492
 20
-6.4341758557
 10
-2.5470561974
 20
-6.411572112
 10
-2.5861950641
 20
-6.3871054211
 10
-2.6252518889
 20
-6.360818692
 10
-2.6641575244
 20
-6.332758336
 10
-2.7028411913
 20
-6.3029749907
 10
-2.7412338299
 20
-6.2715227174
 10
-2.7792695347
 20
-6.2384559597
 10
-2.8168830531
 20
-6.2038302948
 10
-2.8540077028
 20
-6.1677077693
 10
-2.8905794217
 20
-6.1301509586
 10
-2.9265378714
 20
-6.0912192867
 10
-2.9618222886
 20
-6.0509782156
 10
-2.9963682207
 20
-6.0095004976
 10
-3.0301113916
 20
-5.9668595978
 10
-3.0629972305
 20
-5.9231243722
 10
-3.0949631823
 20
-5.8783774641
 10
-3.1259367028
 20
-5.8327175017
 10
-3.1558605238
 20
-5.7862332668
 10
-3.1846884513
 20
-5.7390006767
 10
-3.2123688232
 20
-5.6911024288
 10
-3.2388461535
 20
-5.64264018
 10
-3.2640855156
 20
-5.5936836476
 10
-3.2880655444
 20
-5.5442675094
 10
-3.3107460134
 20
-5.4944694914
 10
-3.332080873
 20
-5.4443852522
 10
-3.3520373434
 20
-5.3940760362
 10
-3.370587572
 20
-5.3435976327
 10
-3.3876808836
 20
-5.2930723712
 10
-3.4032581703
 20
-5.2426619062
 10
-3.4172958782
 20
-5.1924482005
 10
-3.4297687825
 20
-5.1425281417
 10
-3.4406349512
 20
-5.0930829722
 10
-3.4498862132
 20
-5.0441983314
 10
-3.4575179584
 20
-4.9959563597
 10
-3.463516098
 20
-4.9485250856
 10
-3.4678876212
 20
-4.9020076358
 10
-3.4706504967
 20
-4.8564457464
 10
-3.4718204169
 20
-4.8119073837
  0
LINE
  5
292
100
AcDbEntity
  8
DRAFT
100
AcDbLine
 62
7
  6
CONTINUOUS
 10
-1.6846726914
 20
-6.256277111
 11
-1.8417571144
 21
-6.3425523426
  0
LWPOLYLINE
  5
293
100
AcDbEntity
  8
ASSI
100
AcDbPolyline
 62
253
  6
CONTINUOUS
 90
16
 70
0
 10
-3.1729374013
 20
3.2459118172
 10
-3.1376076178
 20
3.2527705911
 10
-3.1013488892
 20
3.2573371915
 10
-3.0641625566
 20
3.2596265791
 10
-3.0262475809
 20
3.259629014
 10
-2.9876031673
 20
3.2573327766
 10
-2.9482305984
 20
3.2527493113
 10
-2.9083319467
 20
3.2459036268
 10
-2.8679038831
 20
3.2367844572
 10
-2.8269501078
 20
3.2254028591
 10
-2.7856832169
 20
3.2118173365
 10
-2.7441000867
 20
3.1960157231
 10
-2.7022040733
 20
3.1780100541
 10
-2.6602174602
 20
3.1578951537
 10
-2.6181401915
 20
3.1356597919
 10
-2.5759724023
 20
3.111315154
  0
LWPOLYLINE
  5
294
100
AcDbEntity
  8
CURVE
100
AcDbPolyline
 62
253
  6
CONTINUOUS
 90
78
 70
0
 10
-0.525726851
 20
6.8067125674
 10
-0.5230555459
 20
6.8045794984
 10
-0.520434808
 20
6.8025898274
 10
-0.5178357502
 20
6.8007181899
 10
-0.5152294855
 20
6.7989392213
 10
-0.5117086655
 20
6.7966804152
 10
-0.5081472375
 20
6.7945581805
 10
-0.5045687606
 20
6.7925894365
 10
-0.5018853109
 20
6.7912218754
 10
-0.499200006
 20
6.7899458513
 10
-0.496509126
 20
6.7887581791
 10
-0.4938161414
 20
6.7876602076
 10
-0.4902279291
 20
6.7863392972
 10
-0.4866374429
 20
6.7851835102
 10
-0.4830367855
 20
6.7841940892
 10
-0.4794207544
 20
6.7833738041
 10
-0.4757949265
 20
6.7827315354
 10
-0.4721675735
 20
6.7822776913
 10
-0.4685481864
 20
6.7820215188
 10
-0.4649511327
 20
6.7819676213
 10
-0.4613919992
 20
6.7821194411
 10
-0.4578866224
 20
6.7824785502
 10
-0.4544518385
 20
6.7830390391
 10
-0.4511047336
 20
6.7837931276
 10
-0.4478572421
 20
6.7847351938
 10
-0.444700692
 20
6.7858682473
 10
-0.4416212596
 20
6.787197456
 10
-0.4386092467
 20
6.7887265754
 10
-0.4356714574
 20
6.7904537116
 10
-0.4328188215
 20
6.7923755588
 10
-0.4300622688
 20
6.794488811
 10
-0.4274127289
 20
6.7967901621
 10
-0.4248811315
 20
6.7992763062
 10
-0.4224774232
 20
6.8019427635
 10
-0.4202076178
 20
6.804780359
 10
-0.4180767456
 20
6.8077787441
 10
-0.4160898373
 20
6.8109275698
 10
-0.4142519232
 20
6.8142164875
 10
-0.412568034
 20
6.8176351485
 10
-0.4110418279
 20
6.8211778109
 10
-0.4096714737
 20
6.8248571616
 10
-0.4084537684
 20
6.828690494
 10
-0.4076398046
 20
6.8316743461
 10
-0.4069149509
 20
6.8347462299
 10
-0.4062842543
 20
6.8378978345
 10
-0.4057527618
 20
6.8411208491
 10
-0.4053248224
 20
6.8444067145
 10
-0.4050019926
 20
6.8477458781
 10
-0.4047851309
 20
6.851128539
 10
-0.4046750957
 20
6.8545448962
 10
-0.4046717527
 20
6.8579861469
 10
-0.4047709963
 20
6.8614474815
 10
-0.4049677281
 20
6.8649250882
 10
-0.4052568497
 20
6.8684151557
 10
-0.4057783203
 20
6.8730846064
 10
-0.4064493083
 20
6.8777797904
 10
-0.4072641466
 20
6.8825110645
 10
-0.4082165895
 20
6.8872846433
 10
-0.4092980772
 20
6.8920901706
 10
-0.4104994715
 20
6.8969131478
 10
-0.4120878044
 20
6.9027052921
 10
-0.4138273526
 20
6.9084883434
 10
-0.4157098252
 20
6.9142489592
 10
-0.417726931
 20
6.9199737967
 10
-0.4198703792
 20
6.9256495133
 10
-0.4217487298
 20
6.9303338058
 10
-0.4237139455
 20
6.934977066
 10
-0.4257709112
 20
6.939581639
 10
-0.4279244186
 20
6.944149014
 10
-0.4301788866
 20
6.948677257
 10
-0.4325386405
 20
6.9531635777
 10
-0.4350055707
 20
6.9576017316
 10
-0.4375718255
 20
6.9619716569
 10
-0.4402271181
 20
6.9662498373
 10
-0.4422747341
 20
6.9693891522
 10
-0.4443857306
 20
6.9724839134
 10
-0.4465791906
 20
6.9755544019
 10
-0.4488741972
 20
6.9786208982
  0
LWPOLYLINE
  5
295
100
AcDbEntity
  8
ASSI
100
AcDbPolyline
 62
253
  6
CONTINUOUS
 90
22
 70
0
 10
5.5332845704
 20
-6.3219028894
 10
5.5328023651
 20
-6.3095216059
 10
5.5315460421
 20
-6.2967450925
 10
5.5295226259
 20
-6.2836447874
 10
5.5267434305
 20
-6.2702939386
 10
5.5232239954
 20
-6.2567671954
 10
5.5189839995
 20
-6.2431401912
 10
5.5140471503
 20
-6.229489119
 10
5.5084410516
 20
-6.2158903066
 10
5.5021970497
 20
-6.2024197899
 10
5.495350057
 20
-6.189152887
 10
5.4879383577
 20
-6.1761637772
 10
5.4800033936
 20
-6.1635250872
 10
5.471589532
 20
-6.1513074836
 10
5.4627438177
 20
-6.1395792788
 10
5.4535157104
 20
-6.1284060485
 10
5.4439568077
 20
-6.1178502656
 10
5.4341205566
 20
-6.1079709502
 10
5.4240619547
 20
-6.0988233401
 10
5.4138372431
 20
-6.0904585819
 10
5.4035035913
 20
-6.0829234447
 10
5.3931187778
 20
-6.0762600593
  0
LWPOLYLINE
  5
296
100
AcDbEntity
  8
ASSI
100
AcDbPolyline
 62
253
  6
CONTINUOUS
 90
6
 70
0
 10
5.6392159607
 20
-15.8794553174
 10
5.6706600257
 20
-17.2353652525
 10
5.706181725
 20
-18.5888897618
 10
5.7457810841
 20
-19.9400236365
 10
5.7894580775
 20
-21.2887720853
 10
5.8372127053
 20
-22.6351351085
  0
LWPOLYLINE
  5
297
100
AcDbEntity
  8
ASSI
100
AcDbPolyline
 62
253
  6
CONTINUOUS
 90
7
 70
0
 10
5.5361899146
 20
-7.6943301132
 10
5.5431628092
 20
-9.0644091504
 10
5.5542152105
 20
-10.432133216
 10
5.5693477677
 20
-11.7975072525
 10
5.5885598317
 20
-13.1605263174
 10
5.6118494542
 20
-14.5211755835
 10
5.6392159607
 20
-15.8794553174
  0
LINE
  5
298
100
AcDbEntity
  8
ASSI
100
AcDbLine
 62
253
  6
CONTINUOUS
 10
5.5332965267
 20
-6.3218961045
 11
5.5361899146
 21
-7.6943301132
  0
LWPOLYLINE
  5
299
100
AcDbEntity
  8
ASSI
100
AcDbPolyline
 62
253
  6
CONTINUOUS
 90
8
 70
0
 10
5.6392159607
 20
3.9320995198
 10
5.6118494542
 20
2.5433019389
 10
5.5885598317
 20
1.1566811759
 10
5.5693477677
 20
-0.2277622834
 10
5.5542152105
 20
-1.6100114394
 10
5.5431628092
 20
-2.9900606256
 10
5.5361899146
 20
-4.3679155084
 10
5.5332965267
 20
-5.7435760879
  0
LWPOLYLINE
  5
29A
100
AcDbEntity
  8
ASSI
100
AcDbPolyline
 62
253
  6
CONTINUOUS
 90
6
 70
0
 10
5.8372127053
 20
10.9085760125
 10
5.7894580775
 20
9.5089592638
 10
5.7457810841
 20
8.1115042763
 10
5.706181725
 20
6.7162110501
 10
5.6706600257
 20
5.3230744043
 10
5.6392159607
 20
3.9320995198
  0
LWPOLYLINE
  5
29B
100
AcDbEntity
  8
ASSI
100
AcDbPolyline
 62
253
  6
CONTINUOUS
 90
12
 70
0
 10
5.5332845704
 20
-5.743582636
 10
5.5328023666
 20
-5.7556040415
 10
5.5315460473
 20
-5.7670937739
 10
5.529522637
 20
-5.7779875906
 10
5.5267434491
 20
-5.7882245807
 10
5.523224023
 20
-5.7977475058
 10
5.518984037
 20
-5.8065031203
 10
5.5140471982
 20
-5.8144424687
 10
5.5084411101
 20
-5.8215211595
 10
5.502197118
 20
-5.8276996135
 10
5.4953501342
 20
-5.832943285
 10
5.4904941531
 20
-5.8358913751
  0
LINE
  5
29C
100
AcDbEntity
  8
CURVE
100
AcDbLine
 62
253
  6
CONTINUOUS
 10
-4.5051292795
 20
9.1043696559
 11
-0.525726851
 21
6.8067125674
  0
LINE
  5
29D
100
AcDbEntity
  8
CURVE
100
AcDbLine
 62
253
  6
CONTINUOUS
 10
-0.7516354518
 20
7.170452016
 11
-4.270224436
 21
9.2020411972
  0
LWPOLYLINE
  5
29E
100
AcDbEntity
  8
ASSI
100
AcDbPolyline
 62
253
  6
CONTINUOUS
 90
28
 70
0
 10
6.5184003646
 20
12.0701643529
 10
6.5167197252
 20
12.0935959336
 10
6.5138708805
 20
12.1176501907
 10
6.5098634588
 20
12.1422458269
 10
6.5047110043
 20
12.1672997153
 10
6.4984309307
 20
12.1927271799
 10
6.491044463
 20
12.2184422823
 10
6.4825765656
 20
12.2443581121
 10
6.4730558577
 20
12.2703870802
 10
6.4625145169
 20
12.2964412152
 10
6.4509881701
 20
12.3224324606
 10
6.4385157735
 20
12.3482729725
 10
6.4251394806
 20
12.3738754164
 10
6.4109044999
 20
12.3991532624
 10
6.395858942
 20
12.4240210776
 10
6.3800536571
 20
12.4483948149
 10
6.363542063
 20
12.4721920971
 10
6.3463799649
 20
12.4953324953
 10
6.3286253664
 20
12.5177378006
 10
6.3103382735
 20
12.5393322885
 10
6.2915804921
 20
12.5600429749
 10
6.2724154189
 20
12.5797998629
 10
6.2529078271
 20
12.5985361788
 10
6.2331236474
 20
12.6161885987
 10
6.2131297457
 20
12.6326974615
 10
6.1929936964
 20
12.6480069714
 10
6.1727835543
 20
12.6620653859
 10
6.1525676246
 20
12.6748251912
  0
LWPOLYLINE
  5
29F
100
AcDbEntity
  8
ASSI
100
AcDbPolyline
 62
253
  6
CONTINUOUS
 90
16
 70
0
 10
6.5184003646
 20
-23.0370948566
 10
6.5167197245
 20
-23.0610442157
 10
6.5138708785
 20
-23.0842107629
 10
6.509863455
 20
-23.106516201
 10
6.5047109981
 20
-23.1278851432
 10
6.4984309218
 20
-23.1482453678
 10
6.4910444512
 20
-23.1675280623
 10
6.4825765508
 20
-23.1856680561
 10
6.4730558399
 20
-23.2026040404
 10
6.4625144962
 20
-23.2182787759
 10
6.4509881467
 20
-23.2326392859
 10
6.4385157477
 20
-23.2456370353
 10
6.4251394527
 20
-23.2572280952
 10
6.4109044704
 20
-23.2673732906
 10
6.3958589113
 20
-23.2760383332
 10
6.3939979387
 20
-23.2769789329
  0
LINE
  5
2A0
100
AcDbEntity
  8
ASSI
100
AcDbLine
 62
253
  6
CONTINUOUS
 10
9.8586370743
 20
-3.5421663084
 11
5.3931187778
 21
-6.0762600593
  0
LINE
  5
2A1
100
AcDbEntity
  8
ASSI
100
AcDbLine
 62
253
  6
CONTINUOUS
 10
10.0000584313
 20
-3.7870966303
 11
5.5332965267
 21
-6.3218961045
  0
LINE
  5
2A2
100
AcDbEntity
  8
ASSI
100
AcDbLine
 62
253
  6
CONTINUOUS
 10
5.5332965267
 20
-5.7435760879
 11
10.0000584313
 21
-3.2972517693
  0
LINE
  5
2A3
100
AcDbEntity
  8
ASSI
100
AcDbLine
 62
7
  6
CONTINUOUS
 10
5.4904230842
 20
-5.8359303548
 11
9.9573374088
 21
-3.3895225599
  0
LWPOLYLINE
  5
2A4
100
AcDbEntity
  8
ASSI
100
AcDbPolyline
 62
253
  6
CONTINUOUS
 90
31
 70
0
 10
5.3931187778
 20
-6.0762600593
 10
5.3816242828
 20
-6.0824513222
 10
5.3696661793
 20
-6.0882635811
 10
5.3572444674
 20
-6.0936968359
 10
5.3443230829
 20
-6.0987638947
 10
5.33093809
 20
-6.1034519496
 10
5.3171976807
 20
-6.1077225758
 10
5.3030990319
 20
-6.111572261
 10
5.2886449666
 20
-6.1150045176
 10
5.2739521461
 20
-6.1179914582
 10
5.2590190772
 20
-6.1205293618
 10
5.2438472529
 20
-6.1226219495
 10
5.2285578135
 20
-6.1242524973
 10
5.2131496205
 20
-6.1254173266
 10
5.1976238122
 20
-6.1261201161
 10
5.1821049442
 20
-6.1263551771
 10
5.1665930245
 20
-6.1261187165
 10
5.1510880449
 20
-6.1254145274
 10
5.1357145364
 20
-6.1242483005
 10
5.1204737931
 20
-6.1226163513
 10
5.1053645208
 20
-6.1205223642
 10
5.0905073679
 20
-6.1179830832
 10
5.0759039413
 20
-6.1149947893
 10
5.0615526342
 20
-6.1115612015
 10
5.0475692737
 20
-6.1077102208
 10
5.033956808
 20
-6.1034383415
 10
5.0207122889
 20
-6.0987490693
 10
5.0079426995
 20
-6.0936808221
 10
4.9956837008
 20
-6.0882464059
 10
4.9838996318
 20
-6.0824330146
 10
4.9725904925
 20
-6.0762406483
  0
LWPOLYLINE
  5
2A5
100
AcDbEntity
  8
ASSI
100
AcDbPolyline
 62
253
  6
CONTINUOUS
 90
31
 70
0
 10
5.5332965266
 20
-6.3218961482
 10
5.5142139006
 20
-6.3321158602
 10
5.4942524574
 20
-6.3417501456
 10
5.4734658766
 20
-6.3507735625
 10
5.4519110195
 20
-6.3591622097
 10
5.4296448775
 20
-6.3668941566
 10
5.4067241079
 20
-6.3739492007
 10
5.3832082247
 20
-6.3803089885
 10
5.3591618427
 20
-6.3859560334
 10
5.3346515413
 20
-6.3908741327
 10
5.3097440248
 20
-6.3950502172
 10
5.2845051483
 20
-6.398473597
 10
5.2590019162
 20
-6.4011347418
 10
5.233302398
 20
-6.4030267161
 10
5.2074757713
 20
-6.4041446349
 10
5.1815914719
 20
-6.4044850767
 10
5.1557188936
 20
-6.4040472951
 10
5.1299273918
 20
-6.4028326804
 10
5.1042862973
 20
-6.4008441602
 10
5.0788646211
 20
-6.3980872469
 10
5.0537302199
 20
-6.3945695179
 10
5.0289498306
 20
-6.3903000236
 10
5.0045889863
 20
-6.3852900564
 10
4.9807139693
 20
-6.3795533103
 10
4.9573908489
 20
-6.3731055244
 10
4.9346836852
 20
-6.3659647352
 10
4.9126514427
 20
-6.3581498864
 10
4.8913501956
 20
-6.3496807542
 10
4.8708362729
 20
-6.3405794786
 10
4.8511657893
 20
-6.330870799
 10
4.8323916439
 20
-6.3205806506
  0
LWPOLYLINE
  5
2A6
100
AcDbEntity
  8
ASSI
100
AcDbPolyline
 62
253
  6
CONTINUOUS
 90
7
 70
0
 10
5.4067241068
 20
-5.7942550812
 10
5.4296448763
 20
-5.7874227017
 10
5.4519110182
 20
-5.7799171879
 10
5.4734658753
 20
-5.7717571259
 10
5.4942524565
 20
-5.7629638543
 10
5.5142139
 20
-5.7535617066
 10
5.5332965265
 20
-5.7435760439
  0
LINE
  5
2A7
100
AcDbEntity
  8
ASSI
100
AcDbLine
 62
7
  6
CONTINUOUS
 10
10.0000584313
 20
-3.7870966303
 11
10.0000584313
 21
-14.2379348258
  0
LINE
  5
2A8
100
AcDbEntity
  8
ASSI
100
AcDbLine
 62
7
  6
CONTINUOUS
 10
10.0000584313
 20
-3.2972517693
 11
10.0000584313
 21
7.1535864262
  0
LWPOLYLINE
  5
2A9
100
AcDbEntity
  8
CURVE
100
AcDbPolyline
 62
253
  6
CONTINUOUS
 90
79
 70
0
 10
-4.5734807833
 20
9.3601170476
 10
-4.575806263
 20
9.3596944679
 10
-4.5780292939
 20
9.3591716311
 10
-4.5801753528
 20
9.3585465687
 10
-4.5822699165
 20
9.3578173126
 10
-4.5850134288
 20
9.3566812339
 10
-4.5876920569
 20
9.3553622205
 10
-4.5902871714
 20
9.3538660704
 10
-4.5921695755
 20
9.3526306546
 10
-4.5939991491
 20
9.3512980376
 10
-4.5957791717
 20
9.3498679907
 10
-4.5975075415
 20
9.3483426636
 10
-4.5997275382
 20
9.3461628693
 10
-4.6018522726
 20
9.343809746
 10
-4.6038844377
 20
9.3412744729
 10
-4.6058248086
 20
9.3385493232
 10
-4.6076664876
 20
9.3356309453
 10
-4.6094006588
 20
9.3325170812
 10
-4.6110186064
 20
9.3292078287
 10
-4.6125120139
 20
9.3257127071
 10
-4.6138726644
 20
9.3220435917
 10
-4.6150932711
 20
9.31821449
 10
-4.6161702653
 20
9.3142479406
 10
-4.617101008
 20
9.3101686146
 10
-4.6178837407
 20
9.3059940546
 10
-4.6185202268
 20
9.3017132893
 10
-4.6190131101
 20
9.2973082187
 10
-4.6193641528
 20
9.2927659998
 10
-4.6195715903
 20
9.2880948175
 10
-4.6196327763
 20
9.2833081137
 10
-4.6195450644
 20
9.2784193302
 10
-4.6193058084
 20
9.273441909
 10
-4.6189123619
 20
9.2683892919
 10
-4.6183631259
 20
9.2632752389
 10
-4.6176606897
 20
9.2581147831
 10
-4.6168086902
 20
9.2529232754
 10
-4.6158107638
 20
9.2477160671
 10
-4.6146705475
 20
9.2425085092
 10
-4.6133916777
 20
9.2373159528
 10
-4.61197591
 20
9.2321478365
 10
-4.6104174754
 20
9.2269899479
 10
-4.6087087237
 20
9.2218221622
 10
-4.6073248974
 20
9.2179312702
 10
-4.6058548986
 20
9.2140362932
 10
-4.6043014115
 20
9.2101500334
 10
-4.6026671201
 20
9.2062852933
 10
-4.6009550967
 20
9.2024544805
 10
-4.599169966
 20
9.1986684251
 10
-4.5973167408
 20
9.1949375622
 10
-4.5954004339
 20
9.1912723272
 10
-4.5934258203
 20
9.187681226
 10
-4.5913967237
 20
9.1841650476
 10
-4.5893167299
 20
9.1807226515
 10
-4.5871894247
 20
9.1773528972
 10
-4.584283646
 20
9.1729689333
 10
-4.5812967883
 20
9.1686974675
 10
-4.5782255065
 20
9.1645238842
 10
-4.5750691229
 20
9.1604373105
 10
-4.5718376276
 20
9.1564418444
 10
-4.5685436776
 20
9.1525453266
 10
-4.5651989727
 20
9.1487549112
 10
-4.5618113839
 20
9.1450750059
 10
-4.5583878248
 20
9.1415093319
 10
-4.5549352088
 20
9.1380616102
 10
-4.5514604498
 20
9.1347355621
 10
-4.5479704611
 20
9.1315349087
 10
-4.5444703583
 20
9.1284629296
 10
-4.5409580635
 20
9.1255211381
 10
-4.5374297008
 20
9.1227106062
 10
-4.5338820328
 20
9.1200333744
 10
-4.5303143774
 20
9.1174953565
 10
-4.5267266912
 20
9.1151034353
 10
-4.5231219298
 20
9.1128656935
 10
-4.5195150442
 20
9.1107950148
 10
-4.5159239844
 20
9.1089054833
 10
-4.5132472484
 20
9.1076142011
 10
-4.5105693359
 20
9.1064297761
 10
-4.5078700714
 20
9.1053492478
 10
-4.5051292795
 20
9.1043696559
  0
LINE
  5
2AA
100
AcDbEntity
  8
ASSI
100
AcDbLine
 62
7
  6
CONTINUOUS
 10
10.0000584313
 20
7.1535864262
 11
9.45789094
 21
13.8839822847
  0
LINE
  5
2AB
100
AcDbEntity
  8
ASSI
100
AcDbLine
 62
7
  6
CONTINUOUS
 10
10.0000584313
 20
-14.2379348258
 11
9.45789094
 21
-21.5729304925
  0
LINE
  5
2AC
100
AcDbEntity
  8
ASSI
100
AcDbLine
 62
253
  6
CONTINUOUS
 10
-9.7820211456
 20
19.5428932817
 11
5.1366286178
 21
10.9290518834
  0
LINE
  5
2AD
100
AcDbEntity
  8
ASSI
100
AcDbLine
 62
7
  6
CONTINUOUS
 10
7.0716736693
 20
15.6327394729
 11
6.3992833373
 21
15.502918095
  0
LINE
  5
2AE
100
AcDbEntity
  8
ASSI
100
AcDbLine
 62
253
  6
CONTINUOUS
 10
-8.7894425238
 20
21.3021694665
 11
6.1525800853
 21
12.6748328801
  0
LINE
  5
2AF
100
AcDbEntity
  8
ASSI
100
AcDbLine
 62
7
  6
CONTINUOUS
 10
6.206098172
 20
15.5285269302
 11
3.8238130759
 21
16.9040284876
  0
LINE
  5
2B0
100
AcDbEntity
  8
ASSI
100
AcDbLine
 62
7
  6
CONTINUOUS
 10
-1.7134977773
 20
20.1012023754
 11
-4.0957828734
 21
21.4767039329
  0
LINE
  5
2B1
100
AcDbEntity
  8
ASSI
100
AcDbLine
 62
7
  6
CONTINUOUS
 10
9.0732641453
 20
14.4770462179
 11
7.0716736693
 21
15.6327394729
  0
LINE
  5
2B2
100
AcDbEntity
  8
ASSI
100
AcDbLine
 62
7
  6
CONTINUOUS
 10
3.9522157134
 20
17.4338754006
 11
-0.84792228
 21
20.2054149181
  0
LINE
  5
2B3
100
AcDbEntity
  8
ASSI
100
AcDbLine
 62
7
  6
CONTINUOUS
 10
-3.9673802359
 20
22.0065508459
 11
-5.9689707119
 21
23.1622441009
  0
LINE
  5
2B4
100
AcDbEntity
  8
ASSI
100
AcDbLine
 62
7
  6
CONTINUOUS
 10
-0.84792228
 20
20.2054149181
 11
-1.520312612
 21
20.0755935403
  0
LWPOLYLINE
  5
2B5
100
AcDbEntity
  8
ASSI
100
AcDbPolyline
 62
253
  6
CONTINUOUS
 90
28
 70
0
 10
5.8372127053
 20
-22.6351351085
 10
5.8159745178
 20
-22.6472785023
 10
5.7936572997
 20
-22.6586945392
 10
5.7703348982
 20
-22.6693454437
 10
5.7460844871
 20
-22.679195972
 10
5.7209863106
 20
-22.6882135289
 10
5.6951234184
 20
-22.6963682752
 10
5.6685813904
 20
-22.7036332272
 10
5.6414480539
 20
-22.709984345
 10
5.6138131929
 20
-22.7154006131
 10
5.5857682508
 20
-22.7198641089
 10
5.557406028
 20
-22.7233600628
 10
5.5288203747
 20
-22.7258769067
 10
5.5001058807
 20
-22.7274063125
 10
5.4713575617
 20
-22.7279432194
 10
5.4426705458
 20
-22.7274858506
 10
5.4141397578
 20
-22.7260357198
 10
5.385859606
 20
-22.7235976252
 10
5.3579236689
 20
-22.7201796347
 10
5.3304243864
 20
-22.7157930581
 10
5.3034527531
 20
-22.7104524108
 10
5.277098018
 20
-22.7041753647
 10
5.2514473886
 20
-22.6969826907
 10
5.2265857424
 20
-22.6888981891
 10
5.2025953466
 20
-22.6799486116
 10
5.1795555849
 20
-22.6701635721
 10
5.1575426957
 20
-22.6595754492
 10
5.1366295194
 20
-22.648219279
  0
LINE
  5
2B6
100
AcDbEntity
  8
ASSI
100
AcDbLine
 62
253
  6
CONTINUOUS
 10
6.5184003646
 20
-23.0370948566
 11
9.45789094
 21
-21.5729304925
  0
LINE
  5
2B7
100
AcDbEntity
  8
ASSI
100
AcDbLine
 62
7
  6
CONTINUOUS
 10
6.3939979387
 20
-23.2769789329
 11
9.3223132669
 21
-21.818380975
  0
ELLIPSE
  5
2B8
100
AcDbEntity
  8
ASSI
100
AcDbEllipse
 62
7
  6
CONTINUOUS
 10
9.1043123474
 20
-21.3683744385
 30
0.0
 11
-0.2148150744
 21
0.4515576038
 31
0.0
 40
0.6258090719
 41
-3.1302698991
 42
-2.3092664522
  0
ELLIPSE
  5
2B9
100
AcDbEntity
  8
ASSI
100
AcDbEllipse
 62
7
  6
CONTINUOUS
 10
9.8586155327
 20
-3.7054541438
 30
0.0
 11
-0.1000238792
 21
0.1731956925
 31
0.0
 40
0.5774195892
 41
-2.3562809449
 42
-0.7856369171
  0
ELLIPSE
  5
2BA
100
AcDbEntity
  8
CURVE
100
AcDbEllipse
 62
253
  6
CONTINUOUS
 10
362.0250308388
 20
196.0067324183
 30
0.0
 11
515.3433323941
 21
279.7362045896
 31
0.0
 40
0.0255142971
 41
-2.3699825863
 42
-2.3647121008
  0
ELLIPSE
  5
2BB
100
AcDbEntity
  8
CURVE
100
AcDbEllipse
 62
253
  6
CONTINUOUS
 10
361.7373754596
 20
196.1728210291
 30
0.0
 11
515.342940754
 21
279.736434371
 31
0.0
 40
0.0255136747
 41
-2.3694387065
 42
-2.3647532279
  0
ELLIPSE
  5
2BC
100
AcDbEntity
  8
CURVE
100
AcDbEllipse
 62
253
  6
CONTINUOUS
 10
340.0810203546
 20
208.6769290489
 30
0.0
 11
-381.3238241378
 21
622.4174407693
 31
0.0
 40
0.5591694327
 41
-4.702806472
 42
-4.6981209933
  0
ELLIPSE
  5
2BD
100
AcDbEntity
  8
CURVE
100
AcDbEllipse
 62
253
  6
CONTINUOUS
 10
339.7944603961
 20
208.8423851775
 30
0.0
 11
-381.2622784321
 21
622.3942917036
 31
0.0
 40
0.5592097475
 41
-4.7028172872
 42
-4.6975461665
  0
ELLIPSE
  5
2BE
100
AcDbEntity
  8
ASSI
100
AcDbEllipse
 62
7
  6
CONTINUOUS
 10
-5.938352932
 20
22.7732413727
 30
0.0
 11
-0.2805986523
 21
0.4138767202
 31
0.0
 40
0.5251497255
 41
-0.8253745819
 42
-0.0067082778
  0
ELLIPSE
  5
2BF
100
AcDbEntity
  8
ASSI
100
AcDbEllipse
 62
7
  6
CONTINUOUS
 10
9.1043123474
 20
14.0877949693
 30
0.0
 11
-0.2807400337
 21
0.4141474974
 31
0.0
 40
0.5245128892
 41
-2.3945640771
 42
-0.8246811388
  0
ELLIPSE
  5
2C0
100
AcDbEntity
  8
ASSI
100
AcDbEllipse
 62
7
  6
CONTINUOUS
 10
9.8586155327
 20
-3.2155595418
 30
0.0
 11
-0.1000390991
 21
0.1732220807
 31
0.0
 40
0.5772437351
 41
-3.1546807054
 42
-2.3564331449
  0
ELLIPSE
  5
2C1
100
AcDbEntity
  8
ASSI
100
AcDbEllipse
 62
7
  6
CONTINUOUS
 10
6.3475195283
 20
15.6187397276
 30
0.0
 11
0.1999154856
 21
0.0095814127
 31
0.0
 40
0.6067642562
 41
-2.385266879
 42
-1.3380693278
  0
ELLIPSE
  5
2C2
100
AcDbEntity
  8
ASSI
100
AcDbEllipse
 62
7
  6
CONTINUOUS
 10
-1.572076421
 20
20.1914151729
 30
0.0
 11
0.1999154856
 21
0.0095814127
 31
0.0
 40
0.6067642562
 41
-2.385266879
 42
-1.3380693278
  0
ELLIPSE
  5
2C3
100
AcDbEntity
  8
ASSI
100
AcDbEllipse
 62
7
  6
CONTINUOUS
 10
3.9652344322
 20
16.9942412851
 30
0.0
 11
0.1999154856
 21
0.0095814127
 31
0.0
 40
0.6067642562
 41
2.850720877
 42
3.8979184282
  0
ELLIPSE
  5
2C4
100
AcDbEntity
  8
ASSI
100
AcDbEllipse
 62
7
  6
CONTINUOUS
 10
-3.9543615171
 20
21.5669167303
 30
0.0
 11
0.1999154856
 21
0.0095814127
 31
0.0
 40
0.6067642562
 41
2.850720877
 42
3.8979184282
  0
ELLIPSE
  5
2C5
100
AcDbEntity
  8
CURVE
100
AcDbEllipse
 62
253
  6
CONTINUOUS
 10
339.838155122
 20
208.8171563904
 30
0.0
 11
515.3433323941
 21
279.7362045896
 31
0.0
 40
0.0255142971
 41
-2.3165000509
 42
-2.3112295654
  0
ELLIPSE
  5
2C6
100
AcDbEntity
  8
CURVE
100
AcDbEllipse
 62
253
  6
CONTINUOUS
 10
340.1258105013
 20
208.6510677796
 30
0.0
 11
515.342940754
 21
279.736434371
 31
0.0
 40
0.0255136747
 41
-2.3164597332
 42
-2.3117742545
  0
ELLIPSE
  5
2C7
100
AcDbEntity
  8
CURVE
100
AcDbEllipse
 62
253
  6
CONTINUOUS
 10
361.7821656063
 20
196.1469597598
 30
0.0
 11
-381.3238241378
 21
622.4174407693
 31
0.0
 40
0.5591694327
 41
1.5273998618
 42
1.5320853405
  0
ELLIPSE
  5
2C8
100
AcDbEntity
  8
CURVE
100
AcDbEllipse
 62
253
  6
CONTINUOUS
 10
362.0687255648
 20
195.9815036312
 30
0.0
 11
-381.2622784321
 21
622.3942917036
 31
0.0
 40
0.5592097475
 41
1.5268848493
 42
1.53215597
  0
ENDSEC
  0
SECTION
  2
OBJECTS
  0
DICTIONARY
  5
C
100
AcDbDictionary
280
0
281
1
  3
ACAD_GROUP
350
D
  3
ACAD_MLINESTYLE
350
17
  3
ACAD_LAYOUT
350
1A
  3
ACAD_PLOTSETTINGS
350
19
  3
ACAD_PLOTSTYLENAME
350
E
  0
DICTIONARY
  5
D
102
{ACAD_REACTORS
330
C
102
}
100
AcDbDictionary
280
0
281
1
  0
ACDBDICTIONARYWDFLT
  5
E
102
{ACAD_REACTORS
330
C
102
}
100
AcDbDictionary
281
1
  3
Normal
350
F
100
AcDbDictionaryWithDefault
340
F
  0
DICTIONARY
  5
17
102
{ACAD_REACTORS
330
C
102
}
100
AcDbDictionary
280
0
281
1
  3
Standard
350
18
  0
DICTIONARY
  5
19
102
{ACAD_REACTORS
330
C
102
}
100
AcDbDictionary
281
1
  0
DICTIONARY
  5
1A
102
{ACAD_REACTORS
330
C
102
}
100
AcDbDictionary
281
1
  3
Model
350
2C9
  3
Layout1
350
2CA
  0
ACDBPLACEHOLDER
  5
F
102
{ACAD_REACTORS
330
E
102
}
  0
MLINESTYLE
  5
18
102
{ACAD_REACTORS
330
17
102
}
100
AcDbMlineStyle
  2
STANDARD
 70
0
  3

 62
256
 51
90.0
 52
90.0
 71
2
 49
0.5
 62
256
  6
BYLAYER
 49
-0.5
 62
256
  6
BYLAYER
  0
LAYOUT
  5
2C9
102
{ACAD_REACTORS
330
1A
102
}
100
AcDbPlotSettings
  1

  2
none_device
  4
ISO_A4_(297.00_x_210.00_MM)
  6

 40
0.0
 41
0.0
 42
0.0
 43
0.0
 44
297.0
 45
210.0
 46
0.0
 47
0.0
 48
0.0
 49
0.0
140
0.0
141
0.0
142
1.0
143
1.0
 70
1024
 72
1
 73
0
 74
0
  7

 75
0
147
1.0
148
0.0
149
0.0
100
AcDbLayout
  1
Model
 70
0
 71
0
 10
0.0
 20
0.0
 11
297.0
 21
210.0
 12
0.0
 22
0.0
 32
0.0
 14
0.0
 24
0.0
 34
0.0
 15
0.0
 25
0.0
 35
0.0
146
0.0
 13
0.0
 23
0.0
 33
0.0
 16
1.0
 26
0.0
 36
0.0
 17
0.0
 27
1.0
 37
0.0
 76
0
330
217
345
0
346
0
  0
LAYOUT
  5
2CA
102
{ACAD_REACTORS
330
1A
102
}
100
AcDbPlotSettings
  1

  2
none_device
  4
ISO_A4_(297.00_x_210.00_MM)
  6

 40
0.0
 41
0.0
 42
0.0
 43
0.0
 44
297.0
 45
210.0
 46
0.0
 47
0.0
 48
0.0
 49
0.0
140
0.0
141
0.0
142
1.0
143
1.0
 70
0
 72
1
 73
0
 74
0
  7

 75
0
147
1.0
148
0.0
149
0.0
100
AcDbLayout
  1
Layout1
 70
0
 71
1
 10
0.0
 20
0.0
 11
297.0
 21
210.0
 12
0.0
 22
0.0
 32
0.0
 14
0.0
 24
0.0
 34
0.0
 15
0.0
 25
0.0
 35
0.0
146
0.0
 13
0.0
 23
0.0
 33
0.0
 16
1.0
 26
0.0
 36
0.0
 17
0.0
 27
1.0
 37
0.0
 76
0
330
218
345
0
346
0
  0
ENDSEC
  0
EOF
