  0
SECTION
  2
HEADER
  9
$ACADVER
  1
AC1021
  9
$DWGCODEPAGE
  3
ANSI_1252
  9
$EXTMAX
 10
297.0
 20
210.0
 30
0.0
  9
$EXTMIN
 10
0.0
 20
0.0
 30
0.0
  9
$LIMMIN
 10
0.0
 20
0.0
  9
$LIMMAX
 10
297.0
 20
210.0
  9
$VIEWCTR
 10
148.5
 20
105.0
  9
$VIEWSIZE
 40
210.0
  9
$CLAYER
  8
0
  9
$LTSCALE
 40
16.335
  9
$CELTYPE
  6
BYLAYER
  9
$DIMSCALE
 40
1.0
  9
$DIMASZ
 40
3.0
  9
$DIMEXO
 40
0.5
  9
$DIMDLI
 40
11.286
  9
$DIMEXE
 40
1.5
  9
$DIMCEN
 40
2.673
  9
$DIMLFAC
 40
1.0
  9
$DIMBLK
  1
_FILLED
  9
$DIMALT
 70
0
  9
$DIMALTF
 40
25.4
  9
$DIMTXT
 40
3.0
  9
$DIMTOL
 70
1
  9
$DIMLIM
 70
0
  9
$DIMTFAC
 40
1.0
  9
$DIMTP
 40
0.01
  9
$DIMTM
 40
0.01
  9
$DIMGAP
 40
0.625
  9
$DIMDSEP
 70
44
  9
$AUNITS
 70
0
  9
$PDMODE
 70
3
  9
$PDSIZE
 40
3.0
  9
$HANDSEED
  5
301
  9
$TILEMODE
 70
1
  9
$MEASUREMENT
 70
1
  9
$INSUNITS
 70
4
  0
ENDSEC
  0
SECTION
  2
CLASSES
  0
CLASS
  1
ACDBDICTIONARYWDFLT
  2
AcDbDictionaryWithDefault
  3
AutoCAD 2000
 90
0
 91
1
280
0
281
0
  0
CLASS
  1
ACDBPLACEHOLDER
  2
AcDbPlaceHolder
  3
AutoCAD 2000
 90
0
 91
1
280
0
281
0
  0
CLASS
  1
LAYOUT
  2
AcDbLayout
  3
AutoCAD 2000
 90
0
 91
0
280
0
281
0
  0
ENDSEC
  0
SECTION
  2
TABLES
  0
TABLE
  2
VPORT
  5
8
100
AcDbSymbolTable
 70
2
  0
VPORT
  5
1F4
100
AcDbSymbolTableRecord
100
AcDbViewportTableRecord
  2
*ACTIVE
 70
0
 10
0.0
 20
0.0
 11
1.0
 21
1.0
 12
148.5
 22
105.0
 13
0.0
 23
0.0
 14
1.0
 24
1.0
 15
0.0
 25
0.0
 16
0.0
 26
0.0
 36
1.0
 17
0.0
 27
0.0
 37
0.0
 40
210.0
 41
1.4142857143
 42
50.0
 43
0.0
 44
0.0
 50
0.0
 51
0.0
 71
0
 72
100
 73
1
 74
1
 75
0
 76
0
 77
0
 78
0
  0
ENDTAB
  0
TABLE
  2
LTYPE
  5
5
100
AcDbSymbolTable
 70
6
  0
LTYPE
  5
14
100
AcDbSymbolTableRecord
100
AcDbLinetypeTableRecord
  2
BYBLOCK
 70
0
  3

 72
65
 73
0
 40
0.0
  0
LTYPE
  5
15
100
AcDbSymbolTableRecord
100
AcDbLinetypeTableRecord
  2
BYLAYER
 70
0
  3

 72
65
 73
0
 40
0.0
  0
LTYPE
  5
16
100
AcDbSymbolTableRecord
100
AcDbLinetypeTableRecord
  2
CONTINUOUS
 70
64
  3
Solid line
 72
65
 73
0
 40
0.0
  0
LTYPE
  5
1F5
100
AcDbSymbolTableRecord
100
AcDbLinetypeTableRecord
  2
CENTER
 70
64
  3
____ _ ____ _ ____ _ ____ _ ____ _ ____ _ ____
 72
65
 73
4
 40
0.6
 49
0.375
 74
0
 49
-0.075
 74
0
 49
0.075
 74
0
 49
-0.075
 74
0
  0
LTYPE
  5
1F6
100
AcDbSymbolTableRecord
100
AcDbLinetypeTableRecord
  2
HIDDEN
 70
64
  3
- - - - - - - - - - - - - - - - - - - -
 72
65
 73
2
 40
0.2
 49
0.1
 74
0
 49
-0.1
 74
0
  0
LTYPE
  5
1F7
100
AcDbSymbolTableRecord
100
AcDbLinetypeTableRecord
  2
PHANTOM
 70
64
  3
_____ _ _ _____ _ _ _____ _ _ _____
 72
65
 73
6
 40
0.8
 49
0.45
 74
0
 49
-0.05
 74
0
 49
0.1
 74
0
 49
-0.05
 74
0
 49
0.1
 74
0
 49
-0.05
 74
0
  0
LTYPE
  5
1F8
100
AcDbSymbolTableRecord
100
AcDbLinetypeTableRecord
  2
DOT
 70
64
  3
. . . . . . . . . . . . . . . . . . . .
 72
65
 73
2
 40
0.2
 49
0.1
 74
0
 49
-0.1
 74
0
  0
LTYPE
  5
1F9
100
AcDbSymbolTableRecord
100
AcDbLinetypeTableRecord
  2
DASHED
 70
64
  3
- - - - - - - - - - - - - - - - - - - -
 72
65
 73
2
 40
0.2
 49
0.1
 74
0
 49
-0.1
 74
0
  0
ENDTAB
  0
TABLE
  2
LAYER
  5
2
100
AcDbSymbolTable
 70
36
  0
LAYER
  5
10
100
AcDbSymbolTableRecord
100
AcDbLayerTableRecord
  2
0
 70
0
 62
7
  6
CONTINUOUS
370
-3
390
F
  0
LAYER
  5
1FA
100
AcDbSymbolTableRecord
100
AcDbLayerTableRecord
  2
DEFAULT_1
 70
0
 62
7
  6
CENTER
370
-3
390
F
  0
LAYER
  5
1FB
100
AcDbSymbolTableRecord
100
AcDbLayerTableRecord
  2
DEFAULT_2
 70
0
 62
7
  6
HIDDEN
370
-3
390
F
  0
LAYER
  5
1FC
100
AcDbSymbolTableRecord
100
AcDbLayerTableRecord
  2
DEFAULT_3
 70
0
 62
7
  6
PHANTOM
370
-3
390
F
  0
LAYER
  5
1FD
100
AcDbSymbolTableRecord
100
AcDbLayerTableRecord
  2
ASSI
 70
0
 62
7
  6
CONTINUOUS
370
-3
390
F
  0
LAYER
  5
1FE
100
AcDbSymbolTableRecord
100
AcDbLayerTableRecord
  2
COORDINATE
 70
0
 62
7
  6
CONTINUOUS
370
-3
390
F
  0
LAYER
  5
1FF
100
AcDbSymbolTableRecord
100
AcDbLayerTableRecord
  2
COORD_ORIGINE
 70
0
 62
7
  6
CONTINUOUS
370
-3
390
F
  0
LAYER
  5
200
100
AcDbSymbolTableRecord
100
AcDbLayerTableRecord
  2
COPY_PUBLISH
 70
0
 62
7
  6
CONTINUOUS
370
-3
390
F
  0
LAYER
  5
201
100
AcDbSymbolTableRecord
100
AcDbLayerTableRecord
  2
COSMETIC
 70
0
 62
7
  6
CONTINUOUS
370
-3
390
F
  0
LAYER
  5
202
100
AcDbSymbolTableRecord
100
AcDbLayerTableRecord
  2
COSMETICI
 70
0
 62
7
  6
CONTINUOUS
370
-3
390
F
  0
LAYER
  5
203
100
AcDbSymbolTableRecord
100
AcDbLayerTableRecord
  2
CURVE
 70
0
 62
7
  6
CONTINUOUS
370
-3
390
F
  0
LAYER
  5
204
100
AcDbSymbolTableRecord
100
AcDbLayerTableRecord
  2
DRAFT
 70
0
 62
7
  6
CONTINUOUS
370
-3
390
F
  0
LAYER
  5
205
100
AcDbSymbolTableRecord
100
AcDbLayerTableRecord
  2
IGES
 70
0
 62
7
  6
CONTINUOUS
370
-3
390
F
  0
LAYER
  5
206
100
AcDbSymbolTableRecord
100
AcDbLayerTableRecord
  2
IMPORT_IGES
 70
0
 62
7
  6
CONTINUOUS
370
-3
390
F
  0
LAYER
  5
207
100
AcDbSymbolTableRecord
100
AcDbLayerTableRecord
  2
LIVELLO_1
 70
0
 62
7
  6
CONTINUOUS
370
-3
390
F
  0
LAYER
  5
208
100
AcDbSymbolTableRecord
100
AcDbLayerTableRecord
  2
NOTE
 70
0
 62
7
  6
CONTINUOUS
370
-3
390
F
  0
LAYER
  5
209
100
AcDbSymbolTableRecord
100
AcDbLayerTableRecord
  2
PIANI
 70
0
 62
7
  6
CONTINUOUS
370
-3
390
F
  0
LAYER
  5
20A
100
AcDbSymbolTableRecord
100
AcDbLayerTableRecord
  2
PIANI_ORIGINE
 70
0
 62
7
  6
CONTINUOUS
370
-3
390
F
  0
LAYER
  5
20B
100
AcDbSymbolTableRecord
100
AcDbLayerTableRecord
  2
PIANI_RIFERIMENTO
 70
0
 62
7
  6
CONTINUOUS
370
-3
390
F
  0
LAYER
  5
20C
100
AcDbSymbolTableRecord
100
AcDbLayerTableRecord
  2
PUNTI
 70
0
 62
7
  6
CONTINUOUS
370
-3
390
F
  0
LAYER
  5
20D
100
AcDbSymbolTableRecord
100
AcDbLayerTableRecord
  2
RACCORDO
 70
0
 62
7
  6
CONTINUOUS
370
-3
390
F
  0
LAYER
  5
20E
100
AcDbSymbolTableRecord
100
AcDbLayerTableRecord
  2
SIMBOLI
 70
0
 62
7
  6
CONTINUOUS
370
-3
390
F
  0
LAYER
  5
20F
100
AcDbSymbolTableRecord
100
AcDbLayerTableRecord
  2
SMUSSO
 70
0
 62
7
  6
CONTINUOUS
370
-3
390
F
  0
LAYER
  5
210
100
AcDbSymbolTableRecord
100
AcDbLayerTableRecord
  2
SNAPLINE
 70
0
 62
7
  6
CONTINUOUS
370
-3
390
F
  0
LAYER
  5
211
100
AcDbSymbolTableRecord
100
AcDbLayerTableRecord
  2
SUPERFICI
 70
0
 62
7
  6
CONTINUOUS
370
-3
390
F
  0
LAYER
  5
212
100
AcDbSymbolTableRecord
100
AcDbLayerTableRecord
  2
TRASH
 70
0
 62
7
  6
CONTINUOUS
370
-3
390
F
  0
LAYER
  5
213
100
AcDbSymbolTableRecord
100
AcDbLayerTableRecord
  2
WHITE
 70
0
 62
7
  6
CONTINUOUS
370
-3
390
F
  0
LAYER
  5
214
100
AcDbSymbolTableRecord
100
AcDbLayerTableRecord
  2
XSEC_DATUMS
 70
0
 62
7
  6
CONTINUOUS
370
-3
390
F
  0
ENDTAB
  0
TABLE
  2
STYLE
  5
3
100
AcDbSymbolTable
 70
1
  0
STYLE
  5
11
100
AcDbSymbolTableRecord
100
AcDbTextStyleTableRecord
  2
STANDARD
 70
0
 40
0.0
 41
0.8
 50
0.0
 71
0
 42
0.2
  3
txt
  4

  0
STYLE
  5
215
100
AcDbSymbolTableRecord
100
AcDbTextStyleTableRecord
  2
TEXTSTYLE_1
 70
0
 40
0.0
 41
0.8
 50
0.0
 71
0
 42
0.2
  3
gdt
  4

  0
ENDTAB
  0
TABLE
  2
VIEW
  5
6
100
AcDbSymbolTable
 70
0
  0
ENDTAB
  0
TABLE
  2
UCS
  5
7
100
AcDbSymbolTable
 70
0
  0
ENDTAB
  0
TABLE
  2
APPID
  5
9
100
AcDbSymbolTable
 70
1
  0
APPID
  5
216
100
AcDbSymbolTableRecord
100
AcDbRegAppTableRecord
  2
ACAD
 70
0
  0
ENDTAB
  0
TABLE
  2
BLOCK_RECORD
  5
1
100
AcDbSymbolTable
 70
0
  0
BLOCK_RECORD
  5
217
100
AcDbSymbolTableRecord
100
AcDbBlockTableRecord
  2
*Model_Space
  0
BLOCK_RECORD
  5
218
100
AcDbSymbolTableRecord
100
AcDbBlockTableRecord
  2
*Paper_Space
  0
ENDTAB
  0
TABLE
  2
DIMSTYLE
  5
A
100
AcDbSymbolTable
 70
1
100
AcDbDimStyleTable
 71
0
  0
DIMSTYLE
105
219
100
AcDbSymbolTableRecord
100
AcDbDimStyleTableRecord
  2
STANDARD
 70
0
  3

  4

 40
1.0
 41
3.0
 42
0.5
 43
0.38
 44
1.5
 45
0.0
 46
0.0
 47
0.01
 48
0.01
140
3.0
141
0.09
142
0.0
143
25.4
144
1.0
145
0.0
146
1.0
147
0.625
 71
1.0
 72
0.0
 73
0
 74
0
 75
0
 76
0
 77
1
 78
8
170
0
171
1
172
0
173
0
174
0
175
0
176
0
177
0
178
0
270
2
271
2
272
2
273
2
274
2
275
0
280
0
281
0
282
0
283
1
284
8
285
0
286
0
287
3
288
0
340
11
278
44
  0
ENDTAB
  0
ENDSEC
  0
SECTION
  2
BLOCKS
  0
BLOCK
  5
20
100
AcDbEntity
  8
0
100
AcDbBlockBegin
  2
*Model_Space
 70
0
 10
0.0
 20
0.0
 30
0.0
  3
*Model_Space
  1

  0
ENDBLK
  5
21
100
AcDbEntity
  8
0
100
AcDbBlockEnd
  0
BLOCK
  5
1C
100
AcDbEntity
  8
0
100
AcDbBlockBegin
  2
*Paper_Space
 70
0
 10
0.0
 20
0.0
 30
0.0
  3
*Paper_Space
  1

  0
ENDBLK
  5
1D
100
AcDbEntity
  8
0
100
AcDbBlockEnd
  0
ENDSEC
  0
SECTION
  2
ENTITIES
  0
LWPOLYLINE
  5
21A
100
AcDbEntity
  8
ASSI
100
AcDbPolyline
 62
7
  6
CONTINUOUS
 90
16
 70
0
 10
-9.0884600279
 20
21.3777650544
 10
-9.1393839772
 20
21.342706606
 10
-9.2425768338
 20
21.2621749173
 10
-9.3405250425
 20
21.1730355082
 10
-9.4330488735
 20
21.0760721604
 10
-9.5198751264
 20
20.9720261237
 10
-9.6005081223
 20
20.8618355445
 10
-9.6745517171
 20
20.7462887085
 10
-9.7415926072
 20
20.6261347834
 10
-9.801035916
 20
20.5024406239
 10
-9.8524616695
 20
20.3759520073
 10
-9.8954077877
 20
20.2474204158
 10
-9.9293369212
 20
20.117761204
 10
-9.9537626977
 20
19.9875970121
 10
-9.9681139204
 20
19.8574928316
 10
-9.971017269
 20
19.801856093
  0
LINE
  5
21B
100
AcDbEntity
  8
ASSI
100
AcDbLine
 62
7
  6
CONTINUOUS
 10
-9.0887569203
 20
21.3775699366
 11
-6.2600201982
 21
23.2430952016
  0
LINE
  5
21C
100
AcDbEntity
  8
ASSI
100
AcDbLine
 62
253
  6
CONTINUOUS
 10
-8.8319754657
 20
21.3571673881
 11
-6.0115036537
 21
23.2172420226
  0
LWPOLYLINE
  5
21D
100
AcDbEntity
  8
ASSI
100
AcDbPolyline
 62
253
  6
CONTINUOUS
 90
15
 70
0
 10
-9.0884601158
 20
21.3777651879
 10
-9.0736424195
 20
21.3863572518
 10
-9.0587320415
 20
21.3929961476
 10
-9.0429927861
 20
21.3981721905
 10
-9.0264778481
 20
21.4018678868
 10
-9.0092430437
 20
21.404070746
 10
-8.9913466225
 20
21.404773323
 10
-8.9728490697
 20
21.4039732431
 10
-8.9538129025
 20
21.4016732106
 10
-8.9343024585
 20
21.3978809988
 10
-8.914383678
 20
21.3926094247
 10
-8.8941238815
 20
21.3858763047
 10
-8.8735915422
 20
21.3777043951
 10
-8.8528560542
 20
21.368121315
 10
-8.8319874983
 20
21.3571594527
  0
LWPOLYLINE
  5
21E
100
AcDbEntity
  8
ASSI
100
AcDbPolyline
 62
7
  6
CONTINUOUS
 90
12
 70
0
 10
5.4059182971
 20
-23.2311853935
 10
5.4234325483
 20
-23.2410695595
 10
5.507940402
 20
-23.2815341726
 10
5.5969834985
 20
-23.3126632039
 10
5.6898718094
 20
-23.3341304604
 10
5.786415502
 20
-23.3457125798
 10
5.885892952
 20
-23.3470680861
 10
5.9875336333
 20
-23.3379573017
 10
6.0914220647
 20
-23.3180590369
 10
6.197321722
 20
-23.2869325939
 10
6.3044450152
 20
-23.2442890429
 10
6.351259801
 20
-23.2220828624
  0
LINE
  5
21F
100
AcDbEntity
  8
ASSI
100
AcDbLine
 62
7
  6
CONTINUOUS
 10
5.4074270787
 20
-23.2320599883
 11
-9.518431046
 21
-14.6140565721
  0
LINE
  5
220
100
AcDbEntity
  8
ASSI
100
AcDbLine
 62
253
  6
CONTINUOUS
 10
5.0940956759
 20
-22.5932051386
 11
-9.8245540874
 21
-13.9793637402
  0
LINE
  5
221
100
AcDbEntity
  8
ASSI
100
AcDbLine
 62
253
  6
CONTINUOUS
 10
-9.5225586461
 20
-14.6116463425
 11
-9.5521715122
 21
-14.5926931239
  0
LWPOLYLINE
  5
222
100
AcDbEntity
  8
ASSI
100
AcDbPolyline
 62
253
  6
CONTINUOUS
 90
18
 70
0
 10
-9.5521715122
 20
-14.5926931239
 10
-9.5804785771
 20
-14.5715803886
 10
-9.6074330293
 20
-14.5483433187
 10
-9.6329889146
 20
-14.5230215719
 10
-9.6571028649
 20
-14.4956580545
 10
-9.6797355185
 20
-14.4662980579
 10
-9.7008484113
 20
-14.4349912643
 10
-9.7204055186
 20
-14.401790679
 10
-9.7383749119
 20
-14.3667513303
 10
-9.7547262701
 20
-14.3299317381
 10
-9.7694313076
 20
-14.2913946192
 10
-9.7824653892
 20
-14.2512058641
 10
-9.7938063667
 20
-14.2094340496
 10
-9.8034351752
 20
-14.1661491583
 10
-9.811336218
 20
-14.1214232422
 10
-9.8174963006
 20
-14.0753313728
 10
-9.821904744
 20
-14.0279515902
 10
-9.8245540874
 20
-13.9793637402
  0
LINE
  5
223
100
AcDbEntity
  8
ASSI
100
AcDbLine
 62
7
  6
CONTINUOUS
 10
-4.0099131777
 20
22.0615487676
 11
-4.1900796242
 21
21.6475234872
  0
LWPOLYLINE
  5
224
100
AcDbEntity
  8
CURVE
100
AcDbPolyline
 62
253
  6
CONTINUOUS
 90
73
 70
0
 10
-1.8456530442
 20
-12.0319140867
 10
-1.8484952992
 20
-12.0322363992
 10
-1.8512225228
 20
-12.0327098468
 10
-1.8538460072
 20
-12.0333313766
 10
-1.8563770448
 20
-12.0340979355
 10
-1.858826928
 20
-12.0350064705
 10
-1.8612069492
 20
-12.0360539287
 10
-1.863526032
 20
-12.037238253
 10
-1.865783625
 20
-12.0385613709
 10
-1.8679768079
 20
-12.0400262059
 10
-1.8701026606
 20
-12.0416356815
 10
-1.872158263
 20
-12.0433927212
 10
-1.8741406948
 20
-12.0453002484
 10
-1.8760462922
 20
-12.0473601481
 10
-1.8778684164
 20
-12.0495701508
 10
-1.8795996849
 20
-12.0519269484
 10
-1.8812327153
 20
-12.054427233
 10
-1.8827601251
 20
-12.0570676964
 10
-1.8841745318
 20
-12.0598450307
 10
-1.8854693237
 20
-12.0627562042
 10
-1.8866409721
 20
-12.0657992912
 10
-1.8876867191
 20
-12.0689726422
 10
-1.8886038066
 20
-12.0722746079
 10
-1.8893894767
 20
-12.075703539
 10
-1.8900409715
 20
-12.079257786
 10
-1.8905560474
 20
-12.0829345934
 10
-1.8909345187
 20
-12.0867267808
 10
-1.8911767141
 20
-12.0906260613
 10
-1.8912829623
 20
-12.0946241483
 10
-1.891253592
 20
-12.0987127551
 10
-1.8910889319
 20
-12.1028835951
 10
-1.8907895714
 20
-12.1071282798
 10
-1.8903571424
 20
-12.111438014
 10
-1.8897935377
 20
-12.115803901
 10
-1.8891006498
 20
-12.1202170439
 10
-1.8882803716
 20
-12.1246685458
 10
-1.8873345957
 20
-12.12914951
 10
-1.8862650299
 20
-12.1336516857
 10
-1.8850726431
 20
-12.138169407
 10
-1.883758219
 20
-12.1426976541
 10
-1.8823225417
 20
-12.1472314072
 10
-1.880766395
 20
-12.1517656464
 10
-1.8790905629
 20
-12.156295352
 10
-1.8772964082
 20
-12.1608152501
 10
-1.8753876091
 20
-12.165319051
 10
-1.8733684226
 20
-12.1698002108
 10
-1.8712431058
 20
-12.1742521856
 10
-1.8690159158
 20
-12.1786684318
 10
-1.8666911097
 20
-12.1830424053
 10
-1.8642728144
 20
-12.1873679172
 10
-1.8617646368
 20
-12.1916401977
 10
-1.8591700537
 20
-12.1958548315
 10
-1.8564925418
 20
-12.2000074036
 10
-1.853735578
 20
-12.2040934988
 10
-1.8509026389
 20
-12.2081087021
 10
-1.8479980263
 20
-12.2120480034
 10
-1.8450293413
 20
-12.2159040125
 10
-1.8420050099
 20
-12.2196687444
 10
-1.8389334583
 20
-12.2233342139
 10
-1.8358231125
 20
-12.2268924359
 10
-1.8326823984
 20
-12.2303354255
 10
-1.8295187116
 20
-12.233656727
 10
-1.8263353242
 20
-12.2368560033
 10
-1.823134478
 20
-12.2399344471
 10
-1.8199184147
 20
-12.2428932508
 10
-1.816689376
 20
-12.2457336071
 10
-1.8134496033
 20
-12.2484567083
 10
-1.8101991931
 20
-12.251063962
 10
-1.8069296599
 20
-12.2535576355
 10
-1.803630373
 20
-12.255940211
 10
-1.8002907014
 20
-12.2582141708
 10
-1.7969000143
 20
-12.2603819971
 10
-1.793447681
 20
-12.2624461722
  0
LWPOLYLINE
  5
225
100
AcDbEntity
  8
CURVE
100
AcDbPolyline
 62
253
  6
CONTINUOUS
 90
73
 70
0
 10
-3.6293031695
 20
-12.1777425846
 10
-3.6321408045
 20
-12.1780559953
 10
-3.6348625051
 20
-12.178521094
 10
-3.6374798089
 20
-12.1791348142
 10
-3.6400042539
 20
-12.1798940893
 10
-3.6424473775
 20
-12.1807958527
 10
-3.6448207176
 20
-12.1818370379
 10
-3.6471333832
 20
-12.1830155967
 10
-3.6493847683
 20
-12.1843335552
 10
-3.6515718381
 20
-12.1857939577
 10
-3.653691558
 20
-12.1873998488
 10
-3.6557408933
 20
-12.1891542728
 10
-3.6577168093
 20
-12.1910602742
 10
-3.6596155186
 20
-12.1931198394
 10
-3.6614302231
 20
-12.1953307225
 10
-3.6631533721
 20
-12.1976896194
 10
-3.6647774147
 20
-12.2001932264
 10
-3.6662948001
 20
-12.2028382394
 10
-3.6676979776
 20
-12.2056213544
 10
-3.6689801782
 20
-12.2085395803
 10
-3.6701377599
 20
-12.2115911766
 10
-3.6711678628
 20
-12.2147747156
 10
-3.6720676267
 20
-12.2180887696
 10
-3.6728341916
 20
-12.2215319111
 10
-3.6734646973
 20
-12.2251027122
 10
-3.6739568262
 20
-12.2287985494
 10
-3.6743104291
 20
-12.2326120151
 10
-3.6745258993
 20
-12.2365345058
 10
-3.6746036302
 20
-12.2405574182
 10
-3.6745440149
 20
-12.2446721488
 10
-3.6743474467
 20
-12.248870094
 10
-3.6740146165
 20
-12.2531425431
 10
-3.6735474059
 20
-12.2574803562
 10
-3.672947994
 20
-12.2618742863
 10
-3.6722185599
 20
-12.266315086
 10
-3.6713612829
 20
-12.2707935083
 10
-3.6703783421
 20
-12.2753003059
 10
-3.66927173
 20
-12.2798269321
 10
-3.6680426923
 20
-12.2843676416
 10
-3.6666922878
 20
-12.2889173894
 10
-3.6652215755
 20
-12.2934711305
 10
-3.6636316144
 20
-12.2980238201
 10
-3.6619234635
 20
-12.3025704131
 10
-3.6600987305
 20
-12.3071055734
 10
-3.6581612184
 20
-12.3116228004
 10
-3.6561152794
 20
-12.3161153022
 10
-3.6539652652
 20
-12.3205762868
 10
-3.6517155278
 20
-12.3249989624
 10
-3.6493704191
 20
-12.3293765371
 10
-3.646934112
 20
-12.3337026094
 10
-3.6444100626
 20
-12.3379723388
 10
-3.6418015479
 20
-12.3421812755
 10
-3.6391118452
 20
-12.3463249693
 10
-3.6363442313
 20
-12.3503989703
 10
-3.6335019835
 20
-12.3543988283
 10
-3.6305892958
 20
-12.3583195105
 10
-3.6276140314
 20
-12.3621536523
 10
-3.6245849702
 20
-12.3658933063
 10
-3.6215108923
 20
-12.3695305252
 10
-3.6184005778
 20
-12.3730573614
 10
-3.6152628069
 20
-12.3764658676
 10
-3.6121052835
 20
-12.3797497251
 10
-3.6089314066
 20
-12.3829091307
 10
-3.6057434992
 20
-12.3859459098
 10
-3.6025438843
 20
-12.388861888
 10
-3.5993348847
 20
-12.3916588907
 10
-3.5961188236
 20
-12.3943387435
 10
-3.5928957942
 20
-12.3969035219
 10
-3.5896569725
 20
-12.3993563016
 10
-3.5863913046
 20
-12.4017004082
 10
-3.5830877368
 20
-12.4039391675
 10
-3.5797352155
 20
-12.4060759052
 10
-3.5763226869
 20
-12.408113947
  0
LWPOLYLINE
  5
226
100
AcDbEntity
  8
CURVE
100
AcDbPolyline
 62
253
  6
CONTINUOUS
 90
86
 70
0
 10
-3.2459994716
 20
-12.3979368807
 10
-3.243133086
 20
-12.3976220494
 10
-3.2403843647
 20
-12.3971515044
 10
-3.2377417221
 20
-12.3965284772
 10
-3.2351935722
 20
-12.3957561995
 10
-3.2327283292
 20
-12.3948379028
 10
-3.2303344072
 20
-12.3937768187
 10
-3.2275437087
 20
-12.3923177311
 10
-3.2248440711
 20
-12.3906521239
 10
-3.2222405366
 20
-12.3887744377
 10
-3.2197381475
 20
-12.3866791134
 10
-3.217341946
 20
-12.3843605916
 10
-3.2154306665
 20
-12.3822551274
 10
-3.213604359
 20
-12.3799944634
 10
-3.2118707526
 20
-12.3775822585
 10
-3.2102375765
 20
-12.3750221716
 10
-3.2087125596
 20
-12.3723178618
 10
-3.207303431
 20
-12.369472988
 10
-3.2060170985
 20
-12.366490954
 10
-3.2048571836
 20
-12.363374143
 10
-3.2038264867
 20
-12.360124683
 10
-3.2029278081
 20
-12.3567447022
 10
-3.2021639479
 20
-12.3532363285
 10
-3.2015377065
 20
-12.34960169
 10
-3.2010514753
 20
-12.3458438899
 10
-3.200706011
 20
-12.3419699316
 10
-3.2005016614
 20
-12.3379877937
 10
-3.2004387743
 20
-12.3339054547
 10
-3.2005176976
 20
-12.3297308932
 10
-3.2007387791
 20
-12.3254720877
 10
-3.2011022943
 20
-12.321136751
 10
-3.2016082294
 20
-12.3167315322
 10
-3.2022564981
 20
-12.312262815
 10
-3.2030470142
 20
-12.3077369828
 10
-3.2039796915
 20
-12.3031604191
 10
-3.2050544439
 20
-12.2985395073
 10
-3.2062711137
 20
-12.2938808681
 10
-3.2076292583
 20
-12.2891920704
 10
-3.2091283637
 20
-12.2844809204
 10
-3.2107679159
 20
-12.2797552242
 10
-3.2125474008
 20
-12.275022788
 10
-3.2144663044
 20
-12.270291418
 10
-3.2165228723
 20
-12.26556914
 10
-3.2187103882
 20
-12.2608648595
 10
-3.2210208953
 20
-12.2561877019
 10
-3.2234464369
 20
-12.2515467924
 10
-3.2259790562
 20
-12.2469512563
 10
-3.2286107966
 20
-12.2424102189
 10
-3.2313343933
 20
-12.2379317963
 10
-3.2341453498
 20
-12.2335200682
 10
-3.2370398616
 20
-12.2291781049
 10
-3.2400141242
 20
-12.224908977
 10
-3.2430643332
 20
-12.2207157548
 10
-3.2461866841
 20
-12.2166015089
 10
-3.2493764919
 20
-12.2125703331
 10
-3.2526255491
 20
-12.2086304153
 10
-3.2559247678
 20
-12.2047909669
 10
-3.25926506
 20
-12.2010611992
 10
-3.2626373378
 20
-12.1974503235
 10
-3.2660325132
 20
-12.1939675512
 10
-3.2694446487
 20
-12.1906191004
 10
-3.2728804084
 20
-12.1873992164
 10
-3.2763496068
 20
-12.1842991514
 10
-3.2798580365
 20
-12.1813141876
 10
-3.2833954031
 20
-12.1784557278
 10
-3.2869473903
 20
-12.1757392048
 10
-3.2905001657
 20
-12.173178826
 10
-3.2940418316
 20
-12.1707838951
 10
-3.2975609743
 20
-12.1685624902
 10
-3.3010474466
 20
-12.1665206308
 10
-3.304496167
 20
-12.1646561013
 10
-3.3079033206
 20
-12.1629646275
 10
-3.3112667257
 20
-12.1614415784
 10
-3.3145907331
 20
-12.1600808959
 10
-3.3178813265
 20
-12.1588761653
 10
-3.3203299608
 20
-12.1580716045
 10
-3.3227597939
 20
-12.1573514674
 10
-3.3251686661
 20
-12.1567159349
 10
-3.3275592662
 20
-12.1561646746
 10
-3.3307208346
 20
-12.1555599818
 10
-3.3338407964
 20
-12.1551033557
 10
-3.3369030941
 20
-12.1547938645
 10
-3.3391567348
 20
-12.15465818
 10
-3.3413886481
 20
-12.154606964
 10
-3.3436185749
 20
-12.1546424459
 10
-3.3458662562
 20
-12.1547668551
  0
LWPOLYLINE
  5
227
100
AcDbEntity
  8
CURVE
100
AcDbPolyline
 62
253
  6
CONTINUOUS
 90
88
 70
0
 10
-1.462344803
 20
-12.252079499
 10
-1.4601228759
 20
-12.2518382712
 10
-1.4579940862
 20
-12.2515054217
 10
-1.4559368091
 20
-12.2510814821
 10
-1.4539294197
 20
-12.2505669841
 10
-1.4513040062
 20
-12.2497415775
 10
-1.4487428495
 20
-12.2487606263
 10
-1.4462599615
 20
-12.2476286336
 10
-1.4438667406
 20
-12.2463499603
 10
-1.4415641333
 20
-12.2449283996
 10
-1.4393504733
 20
-12.2433676025
 10
-1.4372240341
 20
-12.2416695621
 10
-1.4351828496
 20
-12.2398296393
 10
-1.4332248937
 20
-12.237841537
 10
-1.4313496982
 20
-12.2357007077
 10
-1.4295630261
 20
-12.2334096026
 10
-1.4278721982
 20
-12.2309724222
 10
-1.4262845352
 20
-12.2283933673
 10
-1.4248073581
 20
-12.2256766387
 10
-1.4234479875
 20
-12.222826437
 10
-1.4222128355
 20
-12.2198465774
 10
-1.4211046778
 20
-12.2167393336
 10
-1.4201253815
 20
-12.2135065935
 10
-1.4192768135
 20
-12.2101502452
 10
-1.4185608408
 20
-12.2066721768
 10
-1.4179793303
 20
-12.2030742762
 10
-1.4175337343
 20
-12.1993593796
 10
-1.4172238466
 20
-12.1955341156
 10
-1.4170490463
 20
-12.1916060606
 10
-1.4170087124
 20
-12.1875827913
 10
-1.4171022241
 20
-12.1834718841
 10
-1.4173289605
 20
-12.1792809158
 10
-1.41768834
 20
-12.1750171193
 10
-1.4181799387
 20
-12.1706863536
 10
-1.4188033719
 20
-12.1662941342
 10
-1.4195582553
 20
-12.1618459766
 10
-1.420444204
 20
-12.1573473962
 10
-1.4214608336
 20
-12.1528039086
 10
-1.4226077063
 20
-12.1482214084
 10
-1.4238841715
 20
-12.1436073071
 10
-1.4252895253
 20
-12.1389693956
 10
-1.4268230639
 20
-12.1343154646
 10
-1.4284840835
 20
-12.1296533047
 10
-1.4302718802
 20
-12.1249907069
 10
-1.4321852831
 20
-12.1203351442
 10
-1.4342212526
 20
-12.1156928196
 10
-1.4363762821
 20
-12.1110696183
 10
-1.4386468649
 20
-12.1064714257
 10
-1.4410294943
 20
-12.1019041272
 10
-1.4435206636
 20
-12.097373608
 10
-1.4461167883
 20
-12.0928859546
 10
-1.4488139721
 20
-12.0884480581
 10
-1.4516082406
 20
-12.0840670107
 10
-1.4544956197
 20
-12.0797499046
 10
-1.457472135
 20
-12.075503832
 10
-1.4605338124
 20
-12.0713358852
 10
-1.4636758903
 20
-12.067253404
 10
-1.4668904588
 20
-12.063264719
 10
-1.4701688202
 20
-12.0593784086
 10
-1.4735022774
 20
-12.0556030511
 10
-1.476882133
 20
-12.0519472248
 10
-1.4802996895
 20
-12.048419508
 10
-1.4837496011
 20
-12.0450253099
 10
-1.4872399279
 20
-12.0417573636
 10
-1.4907820814
 20
-12.0386052329
 10
-1.4943824081
 20
-12.0355633423
 10
-1.4980269945
 20
-12.0326455593
 10
-1.5016968622
 20
-12.0298706119
 10
-1.5053735877
 20
-12.0272554729
 10
-1.5090409675
 20
-12.0248100945
 10
-1.5126833532
 20
-12.0225426735
 10
-1.5162868519
 20
-12.0204592661
 10
-1.519844593
 20
-12.0185573654
 10
-1.5233514617
 20
-12.0168323238
 10
-1.5268046688
 20
-12.0152790172
 10
-1.5302107279
 20
-12.0138904156
 10
-1.5335784785
 20
-12.0126590128
 10
-1.536083072
 20
-12.0118348111
 10
-1.5385664363
 20
-12.0110958711
 10
-1.5410254504
 20
-12.0104430509
 10
-1.5434631214
 20
-12.009876402
 10
-1.5466830383
 20
-12.0092546825
 10
-1.5498541046
 20
-12.0087857012
 10
-1.5529573438
 20
-12.0084692701
 10
-1.55523397
 20
-12.0083324875
 10
-1.5574845062
 20
-12.0082845854
 10
-1.5597316893
 20
-12.0083287402
 10
-1.5619982563
 20
-12.0084681288
  0
LWPOLYLINE
  5
228
100
AcDbEntity
  8
CURVE
100
AcDbPolyline
 62
253
  6
CONTINUOUS
 90
73
 70
0
 10
-1.4782355687
 20
-13.6195231539
 10
-1.4749859412
 20
-13.6213275187
 10
-1.4717896777
 20
-13.6229600063
 10
-1.4686370986
 20
-13.6244303951
 10
-1.4655185245
 20
-13.6257484638
 10
-1.4624242758
 20
-13.626923991
 10
-1.4593446729
 20
-13.6279667551
 10
-1.4562719903
 20
-13.6288845341
 10
-1.4532063181
 20
-13.6296771024
 10
-1.4501497004
 20
-13.6303422337
 10
-1.4471041813
 20
-13.6308777017
 10
-1.4440718049
 20
-13.6312812802
 10
-1.4410546151
 20
-13.6315507429
 10
-1.4380555458
 20
-13.6316840717
 10
-1.4350810885
 20
-13.6316800823
 10
-1.4321386248
 20
-13.6315377983
 10
-1.429235536
 20
-13.6312562436
 10
-1.4263792033
 20
-13.6308344421
 10
-1.4235770082
 20
-13.6302714174
 10
-1.4208356524
 20
-13.6295658723
 10
-1.4181591194
 20
-13.6287152245
 10
-1.4155507129
 20
-13.6277165707
 10
-1.4130137369
 20
-13.6265670075
 10
-1.4105514952
 20
-13.6252636315
 10
-1.4081672917
 20
-13.6238035394
 10
-1.4058652817
 20
-13.6221843121
 10
-1.403653027
 20
-13.6204054684
 10
-1.401538941
 20
-13.6184670115
 10
-1.3995314371
 20
-13.6163689445
 10
-1.3976389285
 20
-13.6141112707
 10
-1.3958698286
 20
-13.611693993
 10
-1.3942312349
 20
-13.6091180076
 10
-1.3927249816
 20
-13.6063877812
 10
-1.391351587
 20
-13.6035086736
 10
-1.3901115694
 20
-13.6004860443
 10
-1.3890054472
 20
-13.597325253
 10
-1.3880337385
 20
-13.5940316593
 10
-1.3871969937
 20
-13.5906107815
 10
-1.38649589
 20
-13.5870687725
 10
-1.3859311367
 20
-13.5834119437
 10
-1.3855034429
 20
-13.5796466065
 10
-1.3852135179
 20
-13.5757790724
 10
-1.3850620708
 20
-13.5718156529
 10
-1.385049631
 20
-13.5677628936
 10
-1.3851760085
 20
-13.5636282764
 10
-1.3854408338
 20
-13.5594195175
 10
-1.385843737
 20
-13.5551443332
 10
-1.3863843485
 20
-13.5508104395
 10
-1.3870622985
 20
-13.5464255527
 10
-1.3878768349
 20
-13.5419970823
 10
-1.3888256769
 20
-13.537531212
 10
-1.389906161
 20
-13.5330338186
 10
-1.3911156239
 20
-13.5285107791
 10
-1.3924514022
 20
-13.5239679707
 10
-1.3939108327
 20
-13.5194112701
 10
-1.3954903525
 20
-13.5148477612
 10
-1.3971828011
 20
-13.5102893552
 10
-1.3989801184
 20
-13.5057491699
 10
-1.4008742444
 20
-13.5012403233
 10
-1.402857119
 20
-13.4967759332
 10
-1.4049206822
 20
-13.4923691176
 10
-1.4070577816
 20
-13.4880308144
 10
-1.409264896
 20
-13.4837632423
 10
-1.4115394114
 20
-13.47956644
 10
-1.4138787144
 20
-13.475440446
 10
-1.4162801911
 20
-13.4713852992
 10
-1.4187412278
 20
-13.4674010381
 10
-1.4212615971
 20
-13.4634860626
 10
-1.4238506161
 20
-13.4596322174
 10
-1.4265199883
 20
-13.4558297084
 10
-1.4292814171
 20
-13.4520687413
 10
-1.4321466058
 20
-13.4483395221
 10
-1.4351272578
 20
-13.4446322565
  0
LWPOLYLINE
  5
229
100
AcDbEntity
  8
CURVE
100
AcDbPolyline
 62
253
  6
CONTINUOUS
 90
54
 70
0
 10
-2.5098983753
 20
-13.7032125999
 10
-2.5072670982
 20
-13.7046894761
 10
-2.5046718662
 20
-13.7060618061
 10
-2.5021073293
 20
-13.7073342488
 10
-2.4995681376
 20
-13.708511463
 10
-2.4970489412
 20
-13.7095981075
 10
-2.49454439
 20
-13.7105988411
 10
-2.492049134
 20
-13.7115183226
 10
-2.4891442246
 20
-13.7124928683
 10
-2.4862458603
 20
-13.7133603337
 10
-2.4833552162
 20
-13.7141178905
 10
-2.4804734674
 20
-13.7147627104
 10
-2.4776017889
 20
-13.7152919652
 10
-2.474741356
 20
-13.7157028265
 10
-2.4718944569
 20
-13.7159925209
 10
-2.4690678334
 20
-13.716158494
 10
-2.4662693405
 20
-13.7161982461
 10
-2.4635068331
 20
-13.7161092777
 10
-2.4607881663
 20
-13.7158890892
 10
-2.4581211949
 20
-13.7155351809
 10
-2.455881881
 20
-13.7151236312
 10
-2.4536886363
 20
-13.7146111781
 10
-2.4515437786
 20
-13.7139969976
 10
-2.4494496258
 20
-13.713280266
 10
-2.4474084956
 20
-13.7124601592
 10
-2.445422706
 20
-13.7115358535
 10
-2.4434945746
 20
-13.7105065248
 10
-2.4416262542
 20
-13.7093718752
 10
-2.4398192366
 20
-13.7081337102
 10
-2.4380748485
 20
-13.706794361
 10
-2.4363944167
 20
-13.7053561589
 10
-2.4347792678
 20
-13.7038214353
 10
-2.4332307286
 20
-13.7021925214
 10
-2.4317501257
 20
-13.7004717486
 10
-2.4303387412
 20
-13.6986619724
 10
-2.4289976787
 20
-13.6967681452
 10
-2.4277279971
 20
-13.6947957435
 10
-2.4265307555
 20
-13.6927502439
 10
-2.4254070127
 20
-13.6906371229
 10
-2.4243578277
 20
-13.6884618571
 10
-2.4233842594
 20
-13.6862299232
 10
-2.4223447751
 20
-13.6835605886
 10
-2.4214075049
 20
-13.6808236998
 10
-2.4205702985
 20
-13.6780213799
 10
-2.4198310061
 20
-13.6751557521
 10
-2.4191874773
 20
-13.6722289397
 10
-2.4186375622
 20
-13.6692430658
 10
-2.4182395854
 20
-13.6666369644
 10
-2.4179104521
 20
-13.6639820736
 10
-2.4176518085
 20
-13.6612714362
 10
-2.4174653003
 20
-13.6584980949
 10
-2.4173525736
 20
-13.6556550925
 10
-2.4173152742
 20
-13.6527354718
 10
-2.4173550481
 20
-13.6497322756
  0
LWPOLYLINE
  5
22A
100
AcDbEntity
  8
CURVE
100
AcDbPolyline
 62
253
  6
CONTINUOUS
 90
29
 70
0
 10
-3.5763226869
 20
-12.408113947
 10
-3.5744916609
 20
-12.4091502804
 10
-3.5726721918
 20
-12.4101386545
 10
-3.5708642365
 20
-12.4110797988
 10
-3.5690677521
 20
-12.4119744429
 10
-3.5672826956
 20
-12.4128233161
 10
-3.5655090237
 20
-12.413627148
 10
-3.5637466936
 20
-12.4143866681
 10
-3.5619956622
 20
-12.4151026059
 10
-3.5602558863
 20
-12.4157756909
 10
-3.5585273231
 20
-12.4164066525
 10
-3.5568099294
 20
-12.4169962204
 10
-3.5551036622
 20
-12.4175451238
 10
-3.5534084784
 20
-12.4180540925
 10
-3.5517243351
 20
-12.4185238558
 10
-3.5500512085
 20
-12.418954957
 10
-3.5483891529
 20
-12.4193471946
 10
-3.5467382418
 20
-12.4197001807
 10
-3.5450985488
 20
-12.4200135276
 10
-3.5434701476
 20
-12.4202868475
 10
-3.5418531116
 20
-12.4205197526
 10
-3.5402475144
 20
-12.4207118551
 10
-3.5386534298
 20
-12.4208627672
 10
-3.5370709311
 20
-12.4209721011
 10
-3.5355000921
 20
-12.421039469
 10
-3.5339409862
 20
-12.4210644832
 10
-3.5323936872
 20
-12.4210467558
 10
-3.5308582685
 20
-12.4209858991
 10
-3.5293348037
 20
-12.4208815253
  0
LWPOLYLINE
  5
22B
100
AcDbEntity
  8
ASSI
100
AcDbPolyline
 62
7
  6
CONTINUOUS
 90
12
 70
0
 10
-9.9709782778
 20
-13.7765311251
 10
-9.962396803
 20
-13.8878548452
 10
-9.9443897804
 20
-13.996705132
 10
-9.9176987518
 20
-14.0985369333
 10
-9.8830518508
 20
-14.1928641167
 10
-9.8409839779
 20
-14.2798617508
 10
-9.7916776963
 20
-14.3600203525
 10
-9.7357387061
 20
-14.4328636235
 10
-9.6737997469
 20
-14.4980577841
 10
-9.6059155073
 20
-14.5557932778
 10
-9.5325451952
 20
-14.6057175385
 10
-9.5171032617
 20
-14.614820326
  0
LWPOLYLINE
  5
22C
100
AcDbEntity
  8
ASSI
100
AcDbPolyline
 62
253
  6
CONTINUOUS
 90
15
 70
0
 10
-9.9709785527
 20
-13.776531135
 10
-9.9707357385
 20
-13.7814323814
 10
-9.9688198436
 20
-13.7986447649
 10
-9.965257657
 20
-13.8157247295
 10
-9.960060966
 20
-13.8326157579
 10
-9.9532469665
 20
-13.8492619576
 10
-9.9448382058
 20
-13.8656082466
 10
-9.9348625085
 20
-13.8816005351
 10
-9.9233528841
 20
-13.8971859048
 10
-9.9103474179
 20
-13.9123127838
 10
-9.8958891448
 20
-13.9269311173
 10
-9.8800259072
 20
-13.9409925336
 10
-9.8628101963
 20
-13.9544505034
 10
-9.8442989788
 20
-13.9672604944
 10
-9.8245535082
 20
-13.9793801185
  0
LWPOLYLINE
  5
22D
100
AcDbEntity
  8
ASSI
100
AcDbPolyline
 62
7
  6
CONTINUOUS
 90
9
 70
0
 10
-10.2647980866
 20
3.1281859163
 10
-10.2637109774
 20
3.1029342625
 10
-10.2565438534
 20
3.0585732625
 10
-10.2424695958
 20
3.0146065176
 10
-10.2211657163
 20
2.9715362062
 10
-10.1928443193
 20
2.9307065519
 10
-10.1578573521
 20
2.8929840813
 10
-10.1163984007
 20
2.8588245056
 10
-10.0771455059
 20
2.8334434863
  0
LWPOLYLINE
  5
22E
100
AcDbEntity
  8
ASSI
100
AcDbPolyline
 62
253
  6
CONTINUOUS
 90
13
 70
0
 10
-9.8245540957
 20
-13.9793637356
 10
-9.8707114459
 20
-12.6327906393
 10
-9.9129284217
 20
-11.2837167104
 10
-9.9512047978
 20
-9.9321574255
 10
-9.9855401599
 20
-8.5781379536
 10
-10.0159346658
 20
-7.2216641915
 10
-10.0423887597
 20
-5.8627225903
 10
-10.064902557
 20
-4.5013291157
 10
-10.0834753917
 20
-3.1374986823
 10
-10.0981060688
 20
-1.7712158829
 10
-10.1087937867
 20
-0.4024857467
 10
-10.1155384464
 20
0.9686660767
 10
-10.1183396965
 20
2.3422241865
  0
LWPOLYLINE
  5
22F
100
AcDbEntity
  8
ASSI
100
AcDbPolyline
 62
253
  6
CONTINUOUS
 90
17
 70
0
 10
-10.2647981057
 20
3.1281896266
 10
-10.2647792684
 20
3.1259537061
 10
-10.2638831342
 20
3.1110948388
 10
-10.2616490664
 20
3.096278457
 10
-10.2580830887
 20
3.0815440409
 10
-10.2531948541
 20
3.0669313758
 10
-10.2469974663
 20
3.0524796526
 10
-10.2395073617
 20
3.0382269647
 10
-10.2307441951
 20
3.0242110938
 10
-10.2207316543
 20
3.0104703277
 10
-10.2094975631
 20
2.9970424878
 10
-10.1970732587
 20
2.9839645046
 10
-10.1834914975
 20
2.9712704538
 10
-10.1687868632
 20
2.95899252
 10
-10.1529978204
 20
2.9471631579
 10
-10.1361671225
 20
2.9358148216
 10
-10.1183396947
 20
2.9249780503
  0
LWPOLYLINE
  5
230
100
AcDbEntity
  8
ASSI
100
AcDbPolyline
 62
7
  6
CONTINUOUS
 90
10
 70
0
 10
-10.2647982974
 20
2.5469281133
 10
-10.2603907323
 20
0.7634211598
 10
-10.2488324511
 20
-1.0775164801
 10
-10.2301570138
 20
-2.9141289388
 10
-10.2043647634
 20
-4.746377675
 10
-10.1714561432
 20
-6.5742264854
 10
-10.1314317081
 20
-8.3976398815
 10
-10.0842921352
 20
-10.2165817936
 10
-10.0300383116
 20
-12.0310136734
 10
-9.9709795909
 20
-13.7765021784
  0
LWPOLYLINE
  5
231
100
AcDbEntity
  8
ASSI
100
AcDbPolyline
 62
253
  6
CONTINUOUS
 90
13
 70
0
 10
-10.1183396966
 20
2.9249780434
 10
-10.1155384464
 20
4.3018979791
 10
-10.1087937868
 20
5.6811239365
 10
-10.0981060688
 20
7.0626401089
 10
-10.0834753917
 20
8.4464197443
 10
-10.064902557
 20
9.8324578761
 10
-10.0423887597
 20
11.2207714958
 10
-10.0159346658
 20
12.6113459081
 10
-9.9855401599
 20
14.0041642922
 10
-9.9512047978
 20
15.3992407108
 10
-9.9129284217
 20
16.7965694497
 10
-9.8707114459
 20
18.196124861
 10
-9.8245540957
 20
19.5978912081
  0
LWPOLYLINE
  5
232
100
AcDbEntity
  8
ASSI
100
AcDbPolyline
 62
253
  6
CONTINUOUS
 90
22
 70
0
 10
-10.1183513446
 20
2.3422309119
 10
-10.117967428
 20
2.3545937628
 10
-10.1168027938
 20
2.3673408265
 10
-10.114863889
 20
2.3804015412
 10
-10.1121614466
 20
2.393703609
 10
-10.1087104262
 20
2.4071733954
 10
-10.1045299316
 20
2.4207363374
 10
-10.0996431041
 20
2.4343173568
 10
-10.0940769954
 20
2.4478412754
 10
-10.0878624173
 20
2.4612332308
 10
-10.081033771
 20
2.4744190915
 10
-10.073628857
 20
2.4873258668
 10
-10.0656886659
 20
2.499882111
 10
-10.0572571512
 20
2.5120183188
 10
-10.0483809859
 20
2.5236673102
 10
-10.0391093045
 20
2.5347646023
 10
-10.029493431
 20
2.5452487661
 10
-10.0195865942
 20
2.5550617668
 10
-10.0094436339
 20
2.5641492849
 10
-9.9991206966
 20
2.5724610168
 10
-9.9886749251
 20
2.5799509534
 10
-9.978164142
 20
2.5865776348
  0
LWPOLYLINE
  5
233
100
AcDbEntity
  8
ASSI
100
AcDbPolyline
 62
7
  6
CONTINUOUS
 90
10
 70
0
 10
-9.9710052547
 20
19.8022271273
 10
-10.0302272639
 20
17.9807877782
 10
-10.0844543462
 20
16.1016887248
 10
-10.1315685076
 20
14.2265623381
 10
-10.1715686884
 20
12.355448314
 10
-10.2044540381
 20
10.4883836441
 10
-10.2302238285
 20
8.625404602
 10
-10.2488774433
 20
6.7665480283
 10
-10.2604143668
 20
4.9118529856
 10
-10.2647982982
 20
3.1285604515
  0
LWPOLYLINE
  5
234
100
AcDbEntity
  8
ASSI
100
AcDbPolyline
 62
253
  6
CONTINUOUS
 90
37
 70
0
 10
-9.8245540874
 20
19.5978912034
 10
-9.821904744
 20
19.6496109726
 10
-9.8174963006
 20
19.7022013284
 10
-9.8113362181
 20
19.7555738092
 10
-9.8034351754
 20
19.8096384779
 10
-9.7938063669
 20
19.8643045916
 10
-9.7824653895
 20
19.9194807838
 10
-9.7694313078
 20
19.9750752985
 10
-9.7547262704
 20
20.0309937402
 10
-9.7383749122
 20
20.087139741
 10
-9.7204055189
 20
20.1434181349
 10
-9.7008484117
 20
20.1997351734
 10
-9.6797355189
 20
20.2559962845
 10
-9.6571028654
 20
20.3121070705
 10
-9.6329889151
 20
20.3679732238
 10
-9.6074330298
 20
20.4235007008
 10
-9.5804785777
 20
20.4785967107
 10
-9.5521715128
 20
20.533168333
 10
-9.5225586467
 20
20.5871224424
 10
-9.4916904934
 20
20.6403685616
 10
-9.4596195576
 20
20.6928173304
 10
-9.4263989223
 20
20.7443791493
 10
-9.3920855154
 20
20.7949672887
 10
-9.3567375302
 20
20.8444972993
 10
-9.3204127419
 20
20.8928854754
 10
-9.2831730927
 20
20.9400507589
 10
-9.245081955
 20
20.9859141337
 10
-9.2062015279
 20
21.030397979
 10
-9.1665974642
 20
21.0734284432
 10
-9.1263377481
 20
21.1149327421
 10
-9.0854899661
 20
21.1548386458
 10
-9.0441245499
 20
21.1930788362
 10
-9.0023112212
 20
21.2295902506
 10
-8.9601178518
 20
21.2643113088
 10
-8.9176151893
 20
21.2971837813
 10
-8.8748767668
 20
21.3281530148
 10
-8.8319753936
 20
21.3571673464
  0
LINE
  5
235
100
AcDbEntity
  8
ASSI
100
AcDbLine
 62
253
  6
CONTINUOUS
 10
-10.0628126783
 20
2.7352331124
 11
-10.0601453599
 21
2.7441515146
  0
LWPOLYLINE
  5
236
100
AcDbEntity
  8
ASSI
100
AcDbPolyline
 62
253
  6
CONTINUOUS
 90
7
 70
0
 10
-10.0601453599
 20
2.7441515146
 10
-10.0566837213
 20
2.7530054167
 10
-10.052455429
 20
2.7617241242
 10
-10.0474540811
 20
2.7703067997
 10
-10.0416860796
 20
2.7787542806
 10
-10.0351982966
 20
2.7869983843
 10
-10.027984677
 20
2.7950374971
  0
LWPOLYLINE
  5
237
100
AcDbEntity
  8
CURVE
100
AcDbPolyline
 62
253
  6
CONTINUOUS
 90
54
 70
0
 10
-2.5658309359
 20
-11.3212471625
 10
-2.5631956925
 20
-11.3227260056
 10
-2.5605962084
 20
-11.3240998372
 10
-2.5580271532
 20
-11.3253733288
 10
-2.5554831964
 20
-11.326551152
 10
-2.5529590075
 20
-11.3276379782
 10
-2.5504492561
 20
-11.3286384791
 10
-2.5479486116
 20
-11.329557326
 10
-2.545037194
 20
-11.3305306396
 10
-2.5421320646
 20
-11.3313963572
 10
-2.5392343714
 20
-11.3321516647
 10
-2.5363452624
 20
-11.3327937476
 10
-2.5334658856
 20
-11.3333197917
 10
-2.5305973888
 20
-11.3337269825
 10
-2.5277420412
 20
-11.3340125608
 10
-2.5249065959
 20
-11.3341739864
 10
-2.522098927
 20
-11.3342087744
 10
-2.5193269086
 20
-11.3341144396
 10
-2.5165984149
 20
-11.3338884969
 10
-2.51392132
 20
-11.3335284612
 10
-2.5116731061
 20
-11.3331113814
 10
-2.5094707631
 20
-11.332593192
 10
-2.5073166146
 20
-11.3319731265
 10
-2.5052129839
 20
-11.3312504182
 10
-2.5031621946
 20
-11.3304243006
 10
-2.50116657
 20
-11.3294940072
 10
-2.4992284338
 20
-11.3284587714
 10
-2.4973499385
 20
-11.3273183462
 10
-2.4955325541
 20
-11.3260745619
 10
-2.4937775798
 20
-11.3247297685
 10
-2.4920863146
 20
-11.3232863158
 10
-2.4904600579
 20
-11.3217465538
 10
-2.4889001086
 20
-11.3201128323
 10
-2.487407766
 20
-11.3183875013
 10
-2.4859842947
 20
-11.316573431
 10
-2.4846308217
 20
-11.3146755738
 10
-2.4833484391
 20
-11.3126994023
 10
-2.4821382393
 20
-11.3106503891
 10
-2.4810013146
 20
-11.308534007
 10
-2.4799387574
 20
-11.3063557287
 10
-2.47895166
 20
-11.3041210267
 10
-2.47789623
 20
-11.3014487688
 10
-2.4769428525
 20
-11.2987092898
 10
-2.4760893839
 20
-11.2959047187
 10
-2.4753336808
 20
-11.2930371842
 10
-2.4746735996
 20
-11.2901088151
 10
-2.4741069968
 20
-11.2871217403
 10
-2.4736946059
 20
-11.2845148966
 10
-2.4733509214
 20
-11.2818595315
 10
-2.4730775467
 20
-11.2791486904
 10
-2.472876085
 20
-11.2763754185
 10
-2.4727481395
 20
-11.2735327612
 10
-2.4726953135
 20
-11.2706137639
 10
-2.4727192104
 20
-11.2676114718
  0
LWPOLYLINE
  5
238
100
AcDbEntity
  8
CURVE
100
AcDbPolyline
 62
253
  6
CONTINUOUS
 90
75
 70
0
 10
-3.3165728341
 20
-11.3830127981
 10
-3.3139159364
 20
-11.3845050241
 10
-3.3113255575
 20
-11.3858761755
 10
-3.3087761381
 20
-11.3871425089
 10
-3.3062421185
 20
-11.3883202809
 10
-3.3028567358
 20
-11.3897729349
 10
-3.2994738965
 20
-11.3910873145
 10
-3.2961142058
 20
-11.3922536869
 10
-3.2936197772
 20
-11.3930266321
 10
-3.2911451706
 20
-11.3937136468
 10
-3.2886871444
 20
-11.3943168806
 10
-3.2862486479
 20
-11.3948358894
 10
-3.2830326395
 20
-11.3953951497
 10
-3.2798530129
 20
-11.3958010675
 10
-3.2767034353
 20
-11.3960519762
 10
-3.2735795942
 20
-11.396145174
 10
-3.2704852557
 20
-11.3960738178
 10
-3.2674262064
 20
-11.3958300294
 10
-3.2644104432
 20
-11.3954077607
 10
-3.2614548065
 20
-11.3948082845
 10
-3.2585783474
 20
-11.3940347037
 10
-3.2557972876
 20
-11.3930899075
 10
-3.2531165305
 20
-11.3919759309
 10
-3.25053815
 20
-11.3906945956
 10
-3.24806422
 20
-11.389247723
 10
-3.2456968143
 20
-11.3876371347
 10
-3.2434380068
 20
-11.385864652
 10
-3.2412899833
 20
-11.3839322777
 10
-3.2392553769
 20
-11.3818427387
 10
-3.2373369324
 20
-11.3795989431
 10
-3.2355373949
 20
-11.3772037989
 10
-3.2338595092
 20
-11.3746602142
 10
-3.2323060202
 20
-11.3719710971
 10
-3.2308792173
 20
-11.3691402659
 10
-3.2295795678
 20
-11.3661751797
 10
-3.228407083
 20
-11.363084208
 10
-3.2273617748
 20
-11.3598757203
 10
-3.2264436545
 20
-11.3565580859
 10
-3.225652734
 20
-11.3531396743
 10
-3.224988956
 20
-11.3496281263
 10
-3.224451989
 20
-11.346028168
 10
-3.2240414328
 20
-11.3423437971
 10
-3.2237568872
 20
-11.3385790111
 10
-3.2235979518
 20
-11.3347378076
 10
-3.2235642266
 20
-11.3308241841
 10
-3.2236554592
 20
-11.326842411
 10
-3.2238719898
 20
-11.3227978497
 10
-3.2242143067
 20
-11.3186961343
 10
-3.224682898
 20
-11.3145428992
 10
-3.2252782519
 20
-11.3103437785
 10
-3.2260008566
 20
-11.3061044064
 10
-3.2268506238
 20
-11.3018303694
 10
-3.2278251593
 20
-11.2975270632
 10
-3.2289214924
 20
-11.2931998358
 10
-3.2301366522
 20
-11.2888540353
 10
-3.2314676683
 20
-11.2844950097
 10
-3.2329115697
 20
-11.280128107
 10
-3.2344648441
 20
-11.2757594191
 10
-3.2361218119
 20
-11.2713980142
 10
-3.2378762518
 20
-11.2670537041
 10
-3.2397219424
 20
-11.262736301
 10
-3.2416526625
 20
-11.2584556166
 10
-3.2436621906
 20
-11.2542214632
 10
-3.2457448933
 20
-11.2500422588
 10
-3.2478974882
 20
-11.2459208472
 10
-3.2501172808
 20
-11.2418586779
 10
-3.2524015766
 20
-11.237857201
 10
-3.2547476809
 20
-11.2339178661
 10
-3.2571528993
 20
-11.2300421231
 10
-3.2596167905
 20
-11.2262296849
 10
-3.262147927
 20
-11.2224733168
 10
-3.2647571343
 20
-11.2187640472
 10
-3.2674552383
 20
-11.2150929045
 10
-3.2702530647
 20
-11.2114509171
 10
-3.2731614391
 20
-11.2078291133
  0
LWPOLYLINE
  5
239
100
AcDbEntity
  8
CURVE
100
AcDbPolyline
 62
253
  6
CONTINUOUS
 90
29
 70
0
 10
-1.793447681
 20
-12.2624461722
 10
-1.791608866
 20
-12.2634870395
 10
-1.7897814476
 20
-12.2644801187
 10
-1.7879653913
 20
-12.2654261424
 10
-1.7861606628
 20
-12.2663258433
 10
-1.7843672276
 20
-12.2671799539
 10
-1.7825850513
 20
-12.2679892067
 10
-1.7808140996
 20
-12.2687543345
 10
-1.7790543381
 20
-12.2694760698
 10
-1.7773057322
 20
-12.2701551451
 10
-1.7755682477
 20
-12.2707922931
 10
-1.7738418501
 20
-12.2713882463
 10
-1.772126505
 20
-12.2719437373
 10
-1.770422178
 20
-12.2724594988
 10
-1.7687288348
 20
-12.2729362633
 10
-1.7670464549
 20
-12.2733745843
 10
-1.765375075
 20
-12.2737742994
 10
-1.7637147455
 20
-12.2741350669
 10
-1.7620655171
 20
-12.2744565453
 10
-1.7604274403
 20
-12.2747383929
 10
-1.7588005658
 20
-12.2749802683
 10
-1.757184944
 20
-12.2751818299
 10
-1.7555806256
 20
-12.275342736
 10
-1.7539876611
 20
-12.275462645
 10
-1.7524061012
 20
-12.2755412155
 10
-1.7508359965
 20
-12.2755781059
 10
-1.7492773974
 20
-12.2755729745
 10
-1.7477303546
 20
-12.2755254797
 10
-1.7461949188
 20
-12.2754352801
  0
LWPOLYLINE
  5
23A
100
AcDbEntity
  8
ASSI
100
AcDbPolyline
 62
253
  6
CONTINUOUS
 90
12
 70
0
 10
-10.1183513446
 20
2.9249847688
 10
-10.117967429
 20
2.9130652714
 10
-10.1168027978
 20
2.901663112
 10
-10.1148638978
 20
2.8908414074
 10
-10.1121614618
 20
2.8806600615
 10
-10.1087104492
 20
2.8711754332
 10
-10.1045299632
 20
2.862440025
 10
-10.099643145
 20
2.8545021919
 10
-10.0940770455
 20
2.8474058739
 10
-10.0878624762
 20
2.841190353
 10
-10.0810338379
 20
2.8358900351
 10
-10.077145732
 20
2.8334430958
  0
LWPOLYLINE
  5
23B
100
AcDbEntity
  8
ASSI
100
AcDbPolyline
 62
253
  6
CONTINUOUS
 90
15
 70
0
 10
-9.971017269
 20
19.801856093
 10
-9.9707354626
 20
19.7864963657
 10
-9.9688195574
 20
19.7705816931
 10
-9.9652573622
 20
19.7547150098
 10
-9.9600606641
 20
19.7389488183
 10
-9.9532466591
 20
19.7233352889
 10
-9.9448378945
 20
19.7079260865
 10
-9.934862195
 20
19.6927722001
 10
-9.9233525699
 20
19.6779237735
 10
-9.9103471045
 20
19.6634299403
 10
-9.8958888337
 20
19.6493386602
 10
-9.8800255998
 20
19.6356965611
 10
-9.8628098941
 20
19.6225487847
 10
-9.8442986831
 20
19.6099388368
 10
-9.8245532203
 20
19.5979084434
  0
LWPOLYLINE
  5
23C
100
AcDbEntity
  8
ASSI
100
AcDbPolyline
 62
7
  6
CONTINUOUS
 90
8
 70
0
 10
-10.151164818
 20
2.7902976902
 10
-10.1816823365
 20
2.7593663779
 10
-10.2076886879
 20
2.7260859389
 10
-10.2289758036
 20
2.6908346168
 10
-10.245259686
 20
2.6543722633
 10
-10.2565289169
 20
2.6173911088
 10
-10.2629642998
 20
2.5803247555
 10
-10.2647981134
 20
2.5467730577
  0
LINE
  5
23D
100
AcDbEntity
  8
ASSI
100
AcDbLine
 62
253
  6
CONTINUOUS
 10
-10.027984677
 20
2.7950374971
 11
-10.0215823668
 21
2.8013609905
  0
LINE
  5
23E
100
AcDbEntity
  8
ASSI
100
AcDbLine
 62
7
  6
CONTINUOUS
 10
-10.1162093468
 20
2.8186931852
 11
-10.151164818
 21
2.7902976902
  0
LWPOLYLINE
  5
23F
100
AcDbEntity
  8
CURVE
100
AcDbPolyline
 62
253
  6
CONTINUOUS
 90
84
 70
0
 10
-1.2033496879
 20
9.5898435186
 10
-1.2008922888
 20
9.591375416
 10
-1.1985689831
 20
9.5930377296
 10
-1.1963685417
 20
9.5948316443
 10
-1.1942797355
 20
9.5967583447
 10
-1.1922913355
 20
9.5988190156
 10
-1.1903921124
 20
9.6010148416
 10
-1.188573259
 20
9.6033473171
 10
-1.1868356548
 20
9.6058191752
 10
-1.1851826012
 20
9.6084334585
 10
-1.1836173995
 20
9.6111932098
 10
-1.182143351
 20
9.6141014718
 10
-1.1807637571
 20
9.6171612872
 10
-1.1794825189
 20
9.6203739147
 10
-1.1783059372
 20
9.6237334778
 10
-1.1772409128
 20
9.6272323158
 10
-1.1762943463
 20
9.6308627681
 10
-1.1754731383
 20
9.6346171743
 10
-1.1747841897
 20
9.6384878738
 10
-1.1742334613
 20
9.6424674645
 10
-1.1738231553
 20
9.6465495792
 10
-1.1735545343
 20
9.650728109
 10
-1.1734288607
 20
9.6549969452
 10
-1.173447397
 20
9.659349979
 10
-1.1736114058
 20
9.6637811016
 10
-1.1739215821
 20
9.6682840044
 10
-1.1743763507
 20
9.6728515789
 10
-1.1749735694
 20
9.6774765169
 10
-1.1757110955
 20
9.68215151
 10
-1.1765867867
 20
9.6868692501
 10
-1.1775985003
 20
9.6916224287
 10
-1.1787441981
 20
9.696403768
 10
-1.1800222584
 20
9.7012061115
 10
-1.1814311638
 20
9.7060223331
 10
-1.1829693967
 20
9.7108453068
 10
-1.1846354398
 20
9.7156679065
 10
-1.1864277755
 20
9.720483006
 10
-1.1883447111
 20
9.7252832725
 10
-1.1903838521
 20
9.7300605458
 10
-1.1925426291
 20
9.7348064588
 10
-1.1948184722
 20
9.7395126445
 10
-1.1972088119
 20
9.7441707358
 10
-1.1997110785
 20
9.7487723657
 10
-1.2023222956
 20
9.753309632
 10
-1.2050378591
 20
9.7577764923
 10
-1.2078527583
 20
9.762167369
 10
-1.2107619825
 20
9.7664766847
 10
-1.2137605207
 20
9.7706988617
 10
-1.2168433623
 20
9.7748283225
 10
-1.2200053327
 20
9.7788593246
 10
-1.2232406032
 20
9.7827854654
 10
-1.2265431813
 20
9.7866001774
 10
-1.2299070744
 20
9.7902968929
 10
-1.23332629
 20
9.7938690444
 10
-1.2367948357
 20
9.7973100643
 10
-1.2403066045
 20
9.8006134597
 10
-1.2438550315
 20
9.8037730364
 10
-1.2474334375
 20
9.806782675
 10
-1.2510351432
 20
9.8096362558
 10
-1.2546534693
 20
9.8123276593
 10
-1.2582817365
 20
9.8148507661
 10
-1.2619136211
 20
9.8172004786
 10
-1.2655442217
 20
9.8193757864
 10
-1.2691689927
 20
9.8213767014
 10
-1.2727833882
 20
9.8232032351
 10
-1.2763828624
 20
9.8248553993
 10
-1.2799628697
 20
9.8263332056
 10
-1.2835179866
 20
9.8276370689
 10
-1.2870392791
 20
9.8287690166
 10
-1.2905169356
 20
9.829731479
 10
-1.2939411446
 20
9.8305268868
 10
-1.2973020944
 20
9.8311576704
 10
-1.3005899735
 20
9.8316262603
 10
-1.3044283317
 20
9.8319786094
 10
-1.3081494136
 20
9.8321093874
 10
-1.3117552936
 20
9.8320270824
 10
-1.3152480461
 20
9.8317401822
 10
-1.3186297455
 20
9.8312571749
 10
-1.321365482
 20
9.8307087912
 10
-1.3240326762
 20
9.8300218459
 10
-1.3266384654
 20
9.8291880684
 10
-1.3291899869
 20
9.8281991883
 10
-1.3316943783
 20
9.8270469351
 10
-1.3341587767
 20
9.8257230381
  0
LWPOLYLINE
  5
240
100
AcDbEntity
  8
CURVE
100
AcDbPolyline
 62
253
  6
CONTINUOUS
 90
84
 70
0
 10
-3.2132545259
 20
8.4298273417
 10
-3.2108013152
 20
8.4313540767
 10
-3.20848448
 20
8.4330114246
 10
-3.2062928741
 20
8.4348000983
 10
-3.2042153513
 20
8.4367208105
 10
-3.2022407654
 20
8.438774274
 10
-3.2003579703
 20
8.4409612018
 10
-3.1982082141
 20
8.4437629033
 10
-3.1961800936
 20
8.4467603222
 10
-3.1942791164
 20
8.4499559611
 10
-3.1925107904
 20
8.4533523224
 10
-3.1908806231
 20
8.4569519087
 10
-3.1896320611
 20
8.4601072999
 10
-3.1884888511
 20
8.4633991415
 10
-3.1874565767
 20
8.4668210175
 10
-3.1865408215
 20
8.4703665119
 10
-3.1857471691
 20
8.4740292088
 10
-3.1850812032
 20
8.4778026923
 10
-3.1845479166
 20
8.4816810577
 10
-3.1841499384
 20
8.4856604456
 10
-3.1838893072
 20
8.4897375081
 10
-3.1837680613
 20
8.4939088971
 10
-3.1837882392
 20
8.4981712647
 10
-3.1839518791
 20
8.5025212629
 10
-3.1842603573
 20
8.5069546277
 10
-3.1847124004
 20
8.5114634326
 10
-3.1853060725
 20
8.5160388349
 10
-3.1860394382
 20
8.520671992
 10
-3.1869105615
 20
8.5253540615
 10
-3.1879175069
 20
8.5300762007
 10
-3.1890586183
 20
8.5348302703
 10
-3.1903333593
 20
8.5396109435
 10
-3.1917414728
 20
8.5444135965
 10
-3.1932827021
 20
8.5492336058
 10
-3.1949567902
 20
8.5540663477
 10
-3.1967634803
 20
8.5589071984
 10
-3.1987020471
 20
8.5637503702
 10
-3.2007698916
 20
8.5685854184
 10
-3.2029639465
 20
8.5734007342
 10
-3.2052811443
 20
8.5781847086
 10
-3.2077184176
 20
8.582925733
 10
-3.210272699
 20
8.5876121984
 10
-3.212940058
 20
8.5922329931
 10
-3.2157131122
 20
8.5967789942
 10
-3.218583616
 20
8.6012415759
 10
-3.2215433237
 20
8.6056121122
 10
-3.2245839899
 20
8.6098819773
 10
-3.2276973689
 20
8.6140425455
 10
-3.2308759425
 20
8.61808619
 10
-3.2341151021
 20
8.6220092811
 10
-3.237410966
 20
8.625809188
 10
-3.2407596529
 20
8.6294832802
 10
-3.2441572814
 20
8.633028927
 10
-3.2475999701
 20
8.6364434977
 10
-3.2510836006
 20
8.6397238485
 10
-3.2546031075
 20
8.6428647822
 10
-3.2581531882
 20
8.6458605886
 10
-3.2617285406
 20
8.6487055574
 10
-3.265323862
 20
8.6513939781
 10
-3.2689338503
 20
8.6539201406
 10
-3.2725531601
 20
8.6562790964
 10
-3.2761762757
 20
8.6584689453
 10
-3.2797976382
 20
8.660488549
 10
-3.2834116892
 20
8.6623367694
 10
-3.2870128698
 20
8.6640124682
 10
-3.2905956215
 20
8.665514507
 10
-3.294153692
 20
8.6668423103
 10
-3.297678054
 20
8.6679975522
 10
-3.3011589871
 20
8.6689824697
 10
-3.3045867705
 20
8.6697992995
 10
-3.3079516835
 20
8.6704502785
 10
-3.3112440053
 20
8.6709376434
 10
-3.3144557996
 20
8.6712640201
 10
-3.3175862663
 20
8.67143359
 10
-3.3206363897
 20
8.6714509232
 10
-3.3236071541
 20
8.6713205903
 10
-3.3264995438
 20
8.6710471614
 10
-3.329314543
 20
8.670635207
 10
-3.3320540959
 20
8.6700870599
 10
-3.3347239869
 20
8.6693961038
 10
-3.3373309602
 20
8.6685534849
 10
-3.3398817602
 20
8.6675503494
 10
-3.3423831311
 20
8.6663778436
 10
-3.3448418172
 20
8.6650271136
  0
LWPOLYLINE
  5
241
100
AcDbEntity
  8
CURVE
100
AcDbPolyline
 62
253
  6
CONTINUOUS
 90
68
 70
0
 10
-3.8333526761
 20
8.3834235679
 10
-3.8354876056
 20
8.3821009003
 10
-3.8375247521
 20
8.3806730214
 10
-3.8394713955
 20
8.379139033
 10
-3.8413348158
 20
8.377498037
 10
-3.843122293
 20
8.3757491351
 10
-3.844841107
 20
8.3738914292
 10
-3.8468206116
 20
8.3715170516
 10
-3.8487081823
 20
8.3689816835
 10
-3.8505002771
 20
8.3662823055
 10
-3.8521933539
 20
8.3634158984
 10
-3.8537838707
 20
8.3603794427
 10
-3.8552676498
 20
8.3571719083
 10
-3.8566379715
 20
8.3538002215
 10
-3.8578874801
 20
8.3502732976
 10
-3.8590088203
 20
8.346600052
 10
-3.8599946366
 20
8.3427894002
 10
-3.8607076355
 20
8.3395149541
 10
-3.8613190598
 20
8.3361542073
 10
-3.8618265565
 20
8.3327100887
 10
-3.8622277726
 20
8.3291855274
 10
-3.8625203553
 20
8.3255834523
 10
-3.8627019517
 20
8.3219067926
 10
-3.8627707271
 20
8.318158848
 10
-3.8627269199
 20
8.3143444015
 10
-3.8625712865
 20
8.310468607
 10
-3.8623045835
 20
8.3065366182
 10
-3.8619275675
 20
8.302553589
 10
-3.861440995
 20
8.2985246732
 10
-3.8608455841
 20
8.2944547282
 10
-3.8601418993
 20
8.2903474268
 10
-3.8593304667
 20
8.2862061452
 10
-3.8584118123
 20
8.2820342597
 10
-3.8573864621
 20
8.2778351466
 10
-3.8562549423
 20
8.2736121824
 10
-3.8550179796
 20
8.2693694349
 10
-3.853677104
 20
8.2651137391
 10
-3.8522340463
 20
8.2608526218
 10
-3.8506905369
 20
8.2565936095
 10
-3.8490483068
 20
8.2523442289
 10
-3.8473090865
 20
8.2481120067
 10
-3.8454749406
 20
8.2439043751
 10
-3.8435492692
 20
8.239728388
 10
-3.8415358059
 20
8.2355910049
 10
-3.8394382848
 20
8.2314991855
 10
-3.8372604396
 20
8.2274598893
 10
-3.8350060042
 20
8.2234800757
 10
-3.83267872
 20
8.2195658686
 10
-3.830282359
 20
8.2157200496
 10
-3.8278207008
 20
8.2119445643
 10
-3.8252975247
 20
8.2082413585
 10
-3.8227166106
 20
8.2046123781
 10
-3.8200817378
 20
8.2010595688
 10
-3.8168552049
 20
8.1969007895
 10
-3.8135702546
 20
8.1928656993
 10
-3.8102407274
 20
8.1889654987
 10
-3.8068804637
 20
8.1852113883
 10
-3.803503304
 20
8.1816145688
 10
-3.8001210635
 20
8.1781837413
 10
-3.7967374565
 20
8.1749176087
 10
-3.7933541721
 20
8.1718123742
 10
-3.7899728993
 20
8.1688642412
 10
-3.7865953272
 20
8.166069413
 10
-3.7832204863
 20
8.1634238691
 10
-3.7798367735
 20
8.1609226937
 10
-3.7764299269
 20
8.1585607472
 10
-3.772985685
 20
8.1563328898
 10
-3.7694897859
 20
8.154233982
  0
LWPOLYLINE
  5
242
100
AcDbEntity
  8
CURVE
100
AcDbPolyline
 62
253
  6
CONTINUOUS
 90
68
 70
0
 10
-1.8251145891
 20
9.5424773586
 10
-1.8272690022
 20
9.5411428517
 10
-1.8293252489
 20
9.5397022849
 10
-1.8312905989
 20
9.5381548443
 10
-1.8331723221
 20
9.5364997163
 10
-1.8349776882
 20
9.5347360871
 10
-1.8367139669
 20
9.5328631429
 10
-1.8387138747
 20
9.5304699146
 10
-1.840621325
 20
9.5279151713
 10
-1.8424328777
 20
9.5251959834
 10
-1.8441450927
 20
9.5223094212
 10
-1.8457545301
 20
9.519252555
 10
-1.8472571055
 20
9.5160244431
 10
-1.8486461581
 20
9.5126320951
 10
-1.8499143831
 20
9.5090845089
 10
-1.8510544753
 20
9.5053906821
 10
-1.85205913
 20
9.5015596124
 10
-1.8527879391
 20
9.4982683437
 10
-1.853415352
 20
9.4948910411
 10
-1.8539390992
 20
9.4914307294
 10
-1.8543569113
 20
9.487890434
 10
-1.8546665189
 20
9.48427318
 10
-1.8548656524
 20
9.4805819924
 10
-1.8549525441
 20
9.4768202517
 10
-1.8549274324
 20
9.4729927604
 10
-1.8547910574
 20
9.469104676
 10
-1.854544159
 20
9.4651611563
 10
-1.8541874775
 20
9.461167359
 10
-1.8537217527
 20
9.4571284417
 10
-1.8531476704
 20
9.4530492529
 10
-1.8524656988
 20
9.4489334038
 10
-1.8516762515
 20
9.4447841964
 10
-1.8507797422
 20
9.4406049326
 10
-1.8497765849
 20
9.4363989144
 10
-1.8486671931
 20
9.4321694438
 10
-1.8474521822
 20
9.4279205456
 10
-1.8461329741
 20
9.4236591358
 10
-1.8447111921
 20
9.4193928534
 10
-1.8431884596
 20
9.4151293372
 10
-1.8415664001
 20
9.4108762261
 10
-1.8398466369
 20
9.4066411591
 10
-1.8380311476
 20
9.4024316764
 10
-1.8361233262
 20
9.3982549235
 10
-1.8341269209
 20
9.3941179474
 10
-1.8320456797
 20
9.3900277949
 10
-1.8298833508
 20
9.3859915129
 10
-1.8276436825
 20
9.3820161484
 10
-1.8253304376
 20
9.3781078681
 10
-1.8229474385
 20
9.3742693182
 10
-1.8204985224
 20
9.3705022647
 10
-1.8179875266
 20
9.3668084738
 10
-1.8154182881
 20
9.3631897116
 10
-1.8127946441
 20
9.3596477441
 10
-1.809581072
 20
9.3555025718
 10
-1.8063085902
 20
9.3514815777
 10
-1.8029911073
 20
9.3475958121
 10
-1.799642532
 20
9.3438563256
 10
-1.7962767727
 20
9.3402741687
 10
-1.79290572
 20
9.3368578994
 10
-1.7895331913
 20
9.3336061058
 10
-1.786160986
 20
9.3305148834
 10
-1.7827909036
 20
9.3275803276
 10
-1.7794247433
 20
9.3247985341
 10
-1.7760615902
 20
9.3221653461
 10
-1.7726896712
 20
9.3196755986
 10
-1.7692944993
 20
9.317323874
 10
-1.765861587
 20
9.3151047551
 10
-1.762376447
 20
9.3130128246
  0
LINE
  5
243
100
AcDbEntity
  8
CURVE
100
AcDbLine
 62
253
  6
CONTINUOUS
 10
-1.6940740731
 20
9.3066450469
 11
-1.2033496879
 21
9.5898435186
  0
LINE
  5
244
100
AcDbEntity
  8
CURVE
100
AcDbLine
 62
253
  6
CONTINUOUS
 10
-1.3341587767
 20
9.8257230381
 11
-1.8251145891
 21
9.5424773586
  0
LINE
  5
245
100
AcDbEntity
  8
CURVE
100
AcDbLine
 62
253
  6
CONTINUOUS
 10
-3.7015636046
 20
8.1480522661
 11
-3.2132545259
 21
8.4298273417
  0
LINE
  5
246
100
AcDbEntity
  8
CURVE
100
AcDbLine
 62
253
  6
CONTINUOUS
 10
-3.3448418172
 20
8.6650271136
 11
-3.8333526761
 21
8.3834235679
  0
LWPOLYLINE
  5
247
100
AcDbEntity
  8
CURVE
100
AcDbPolyline
 62
253
  6
CONTINUOUS
 90
84
 70
0
 10
-3.5651441137
 20
-10.851876816
 10
-3.5684631654
 20
-10.8479229356
 10
-3.5717748725
 20
-10.8441586613
 10
-3.5750878722
 20
-10.840567883
 10
-3.5784108015
 20
-10.837134491
 10
-3.5817522977
 20
-10.8338423752
 10
-3.5851209979
 20
-10.8306754257
 10
-3.5885236526
 20
-10.8276211647
 10
-3.5919594662
 20
-10.8246816419
 10
-3.5954257562
 20
-10.8218625394
 10
-3.5989198403
 20
-10.8191695389
 10
-3.6024390363
 20
-10.8166083225
 10
-3.6059806616
 20
-10.8141845719
 10
-3.6095411927
 20
-10.8119037205
 10
-3.6131137402
 20
-10.8097702072
 10
-3.6166905736
 20
-10.8077882224
 10
-3.6202639621
 20
-10.8059619564
 10
-3.6238261753
 20
-10.8042955997
 10
-3.6273694824
 20
-10.8027933425
 10
-3.6308868266
 20
-10.8014586667
 10
-3.6343738466
 20
-10.8002922201
 10
-3.6378268546
 20
-10.7992939422
 10
-3.6412421632
 20
-10.7984637721
 10
-3.6446160847
 20
-10.7978016493
 10
-3.6479449314
 20
-10.7973075132
 10
-3.6512247947
 20
-10.796981365
 10
-3.654450881
 20
-10.796823455
 10
-3.6576181756
 20
-10.7968340953
 10
-3.6607216638
 20
-10.797013598
 10
-3.6637563309
 20
-10.7973622754
 10
-3.6667171623
 20
-10.7978804395
 10
-3.6695993874
 20
-10.7985682777
 10
-3.6723992123
 20
-10.7994254772
 10
-3.6751130871
 20
-10.8004516004
 10
-3.6777374621
 20
-10.8016462095
 10
-3.6802687876
 20
-10.803008867
 10
-3.6827035137
 20
-10.8045391352
 10
-3.6850378537
 20
-10.8062363867
 10
-3.6872670736
 20
-10.8080992363
 10
-3.6893862024
 20
-10.8101261088
 10
-3.691390269
 20
-10.8123154291
 10
-3.6932743025
 20
-10.8146656224
 10
-3.6950333319
 20
-10.8171751135
 10
-3.6966631569
 20
-10.8198412822
 10
-3.6981626603
 20
-10.8226573272
 10
-3.6995314956
 20
-10.8256154022
 10
-3.7007693164
 20
-10.8287076606
 10
-3.7018757762
 20
-10.8319262561
 10
-3.7028505285
 20
-10.8352633422
 10
-3.7036933242
 20
-10.8387115699
 10
-3.704404303
 20
-10.8422655798
 10
-3.7049837021
 20
-10.8459205102
 10
-3.7054317586
 20
-10.849671499
 10
-3.7057487097
 20
-10.8535136844
 10
-3.7059347924
 20
-10.8574422045
 10
-3.7059900221
 20
-10.8614521705
 10
-3.7059135276
 20
-10.8655385854
 10
-3.7057042159
 20
-10.8696964253
 10
-3.7053609939
 20
-10.8739206662
 10
-3.7048827686
 20
-10.8782062844
 10
-3.704268447
 20
-10.8825482559
 10
-3.7035174771
 20
-10.8869412696
 10
-3.7026314711
 20
-10.8913788652
 10
-3.7016125819
 20
-10.8958542956
 10
-3.7004629629
 20
-10.9003608132
 10
-3.699184767
 20
-10.9048916708
 10
-3.6977801473
 20
-10.9094401209
 10
-3.6962521213
 20
-10.9139985791
 10
-3.6946071625
 20
-10.9185561121
 10
-3.6928526089
 20
-10.9231009495
 10
-3.6909957984
 20
-10.927621321
 10
-3.6890440688
 20
-10.9321054562
 10
-3.6870047582
 20
-10.9365415846
 10
-3.6844509934
 20
-10.9417880518
 10
-3.6817864581
 20
-10.9469464278
 10
-3.679015932
 20
-10.9520147005
 10
-3.676144195
 20
-10.9569908577
 10
-3.6731760267
 20
-10.9618728874
 10
-3.6706298605
 20
-10.9658696922
 10
-3.6680079443
 20
-10.9698093781
 10
-3.6652981748
 20
-10.9737015898
 10
-3.6624884488
 20
-10.977555972
 10
-3.6595666632
 20
-10.9813821695
 10
-3.6565207147
 20
-10.985189827
  0
LWPOLYLINE
  5
248
100
AcDbEntity
  8
CURVE
100
AcDbPolyline
 62
253
  6
CONTINUOUS
 90
29
 70
0
 10
-1.5261889464
 20
-13.577472838
 10
-1.5245571718
 20
-13.5794207611
 10
-1.5229182172
 20
-13.5813333548
 10
-1.5212722503
 20
-13.5832109986
 10
-1.5196194387
 20
-13.585054072
 10
-1.5179599502
 20
-13.5868629546
 10
-1.5162939526
 20
-13.5886380256
 10
-1.5146216134
 20
-13.5903796648
 10
-1.5129431005
 20
-13.5920882515
 10
-1.5112585815
 20
-13.5937641652
 10
-1.5095682242
 20
-13.5954077854
 10
-1.5078721962
 20
-13.5970194917
 10
-1.5061706653
 20
-13.5985996635
 10
-1.5044637992
 20
-13.6001486802
 10
-1.5027517656
 20
-13.6016669215
 10
-1.5010346961
 20
-13.6031546281
 10
-1.4993125779
 20
-13.6046114868
 10
-1.4975853622
 20
-13.6060370456
 10
-1.495853
 20
-13.6074308526
 10
-1.4941154424
 20
-13.6087924559
 10
-1.4923726407
 20
-13.6101214037
 10
-1.4906245458
 20
-13.6114172439
 10
-1.488871109
 20
-13.6126795246
 10
-1.4871122813
 20
-13.6139077941
 10
-1.4853480138
 20
-13.6151016002
 10
-1.4835782577
 20
-13.6162604912
 10
-1.4818029641
 20
-13.6173840151
 10
-1.480022084
 20
-13.6184717199
 10
-1.4782355687
 20
-13.6195231539
  0
LWPOLYLINE
  5
249
100
AcDbEntity
  8
CURVE
100
AcDbPolyline
 62
253
  6
CONTINUOUS
 90
29
 70
0
 10
-3.3646889765
 20
-11.3408247631
 10
-3.3630537318
 20
-11.3427770251
 10
-3.3614111674
 20
-11.344694038
 10
-3.3597614465
 20
-11.3465761774
 10
-3.358104732
 20
-11.3484238186
 10
-3.3564411869
 20
-11.3502373369
 10
-3.3547709743
 20
-11.3520171079
 10
-3.3530942572
 20
-11.353763507
 10
-3.3514111987
 20
-11.3554769095
 10
-3.3497219616
 20
-11.3571576908
 10
-3.3480267092
 20
-11.3588062264
 10
-3.3463256043
 20
-11.3604228917
 10
-3.34461881
 20
-11.362008062
 10
-3.3429064894
 20
-11.3635621129
 10
-3.3411888054
 20
-11.3650854196
 10
-3.3394658859
 20
-11.3665782189
 10
-3.337737718
 20
-11.3680401917
 10
-3.3360042537
 20
-11.3694708803
 10
-3.3342654448
 20
-11.3708698272
 10
-3.3325212434
 20
-11.3722365745
 10
-3.3307716013
 20
-11.3735706646
 10
-3.3290164706
 20
-11.3748716397
 10
-3.327255803
 20
-11.3761390421
 10
-3.3254895507
 20
-11.3773724141
 10
-3.3237176654
 20
-11.3785712979
 10
-3.3219400992
 20
-11.379735236
 10
-3.3201568039
 20
-11.3808637705
 10
-3.3183677316
 20
-11.3819564438
 10
-3.3165728341
 20
-11.3830127981
  0
LWPOLYLINE
  5
24A
100
AcDbEntity
  8
CURVE
100
AcDbPolyline
 62
253
  6
CONTINUOUS
 90
85
 70
0
 10
-1.7276207742
 20
-13.0892616394
 10
-1.730032231
 20
-13.0863727794
 10
-1.7324153028
 20
-13.0836102719
 10
-1.7347943711
 20
-13.0809437596
 10
-1.7371938177
 20
-13.0783428849
 10
-1.740454068
 20
-13.0749406274
 10
-1.7437745697
 20
-13.0716247856
 10
-1.7471360008
 20
-13.0684190552
 10
-1.7496745139
 20
-13.066098793
 10
-1.7522302493
 20
-13.0638489177
 10
-1.7548066267
 20
-13.0616661704
 10
-1.7574004724
 20
-13.0595537753
 10
-1.7608813702
 20
-13.0568529149
 10
-1.76439491
 20
-13.0542843598
 10
-1.7679512508
 20
-13.0518467322
 10
-1.7715579375
 20
-13.0495408158
 10
-1.775212056
 20
-13.0473760409
 10
-1.7789080774
 20
-13.0453639991
 10
-1.7826384062
 20
-13.0435156577
 10
-1.7863871791
 20
-13.0418394862
 10
-1.7901364663
 20
-13.0403433298
 10
-1.7938679367
 20
-13.0390337637
 10
-1.7975616551
 20
-13.0379122828
 10
-1.8011972854
 20
-13.0369791122
 10
-1.8047596489
 20
-13.0362335437
 10
-1.8082541973
 20
-13.035671137
 10
-1.8116915401
 20
-13.0352865186
 10
-1.8150793492
 20
-13.0350751464
 10
-1.818413548
 20
-13.0350358044
 10
-1.8216871223
 20
-13.035168108
 10
-1.8248930582
 20
-13.0354716727
 10
-1.8280243415
 20
-13.0359461139
 10
-1.8310739583
 20
-13.0365910471
 10
-1.8340352639
 20
-13.0374060771
 10
-1.8369030911
 20
-13.0383907668
 10
-1.8396726422
 20
-13.0395446685
 10
-1.8423391193
 20
-13.0408673346
 10
-1.8448977246
 20
-13.0423583173
 10
-1.8473436603
 20
-13.0440171691
 10
-1.849672208
 20
-13.045843197
 10
-1.8518789661
 20
-13.0478347274
 10
-1.8539596124
 20
-13.0499898411
 10
-1.8559098248
 20
-13.0523066193
 10
-1.8577252811
 20
-13.0547831431
 10
-1.8594016591
 20
-13.0574174934
 10
-1.8609354984
 20
-13.0602067825
 10
-1.8623267856
 20
-13.063144247
 10
-1.8635763692
 20
-13.0662221551
 10
-1.8646850976
 20
-13.0694327745
 10
-1.8656538192
 20
-13.0727683732
 10
-1.8664833824
 20
-13.076221219
 10
-1.8671745842
 20
-13.079783877
 10
-1.8677280157
 20
-13.0834500993
 10
-1.8681442167
 20
-13.0872139355
 10
-1.8684237266
 20
-13.0910694348
 10
-1.8685670853
 20
-13.0950106466
 10
-1.8685748324
 20
-13.0990316201
 10
-1.8684476168
 20
-13.1031260659
 10
-1.8681865248
 20
-13.107286338
 10
-1.867792752
 20
-13.1115044516
 10
-1.8672674938
 20
-13.1157724222
 10
-1.8666119459
 20
-13.1200822647
 10
-1.8658273037
 20
-13.1244259946
 10
-1.8649151324
 20
-13.12879611
 10
-1.8638784761
 20
-13.1331870418
 10
-1.8627207483
 20
-13.1375937035
 10
-1.8614453626
 20
-13.1420110091
 10
-1.8600557328
 20
-13.1464338723
 10
-1.8585552723
 20
-13.1508572068
 10
-1.8566143737
 20
-13.15615681
 10
-1.8545315574
 20
-13.1614298242
 10
-1.8523195861
 20
-13.1666563058
 10
-1.8499912224
 20
-13.1718163113
 10
-1.8475592292
 20
-13.1768898971
 10
-1.8450349767
 20
-13.181860465
 10
-1.8424242656
 20
-13.1867247981
 10
-1.8397315043
 20
-13.191483025
 10
-1.836961101
 20
-13.196135274
 10
-1.8341174641
 20
-13.2006816737
 10
-1.8316928425
 20
-13.2043911205
 10
-1.829210003
 20
-13.2080364931
 10
-1.8266585232
 20
-13.2116271347
 10
-1.8240279805
 20
-13.2151723883
 10
-1.8213079526
 20
-13.2186815969
 10
-1.818488017
 20
-13.2221641037
  0
LINE
  5
24B
100
AcDbEntity
  8
ASSI
100
AcDbLine
 62
7
  6
CONTINUOUS
 10
-10.0845798913
 20
2.8397559338
 11
-10.1162093468
 21
2.8186931852
  0
LWPOLYLINE
  5
24C
100
AcDbEntity
  8
ASSI
100
AcDbPolyline
 62
253
  6
CONTINUOUS
 90
37
 70
0
 10
6.1100470714
 20
12.7298308433
 10
6.0661326192
 20
12.7014014511
 10
6.0223883787
 20
12.6710129645
 10
5.9788871596
 20
12.6387170462
 10
5.9357008559
 20
12.604569296
 10
5.8929018542
 20
12.5686269968
 10
5.8505629428
 20
12.5309488903
 10
5.8087538704
 20
12.4915980237
 10
5.7675450418
 20
12.4506417305
 10
5.7270088797
 20
12.4081494481
 10
5.6872134793
 20
12.364193897
 10
5.6482243824
 20
12.3188489925
 10
5.6101082915
 20
12.2721897556
 10
5.5729286823
 20
12.2242951423
 10
5.5367473936
 20
12.1752462707
 10
5.5016263939
 20
12.1251244253
 10
5.467624002
 20
12.0740139828
 10
5.4347970205
 20
12.0220017454
 10
5.4032023484
 20
11.9691751089
 10
5.3728926407
 20
11.9156233471
 10
5.3439182613
 20
11.8614370239
 10
5.3163293874
 20
11.8067073211
 10
5.2901721431
 20
11.7515270613
 10
5.2654897265
 20
11.6959891333
 10
5.2423243558
 20
11.6401859315
 10
5.2207146752
 20
11.5842116594
 10
5.2006965293
 20
11.5281608189
 10
5.1823041615
 20
11.472126645
 10
5.165568079
 20
11.4162027792
 10
5.1505163816
 20
11.3604844946
 10
5.137175462
 20
11.3050671443
 10
5.1255676782
 20
11.2500450027
 10
5.1157118855
 20
11.1955099468
 10
5.1076248095
 20
11.1415526914
 10
5.1013200212
 20
11.0882637617
 10
5.096807823
 20
11.0357333125
 10
5.0940956759
 20
10.9840498051
  0
LWPOLYLINE
  5
24D
100
AcDbEntity
  8
ASSI
100
AcDbPolyline
 62
253
  6
CONTINUOUS
 90
37
 70
0
 10
6.4758674228
 20
12.1251622745
 10
6.4463513452
 20
12.1062524586
 10
6.4170439219
 20
12.0861065761
 10
6.3879451529
 20
12.0647246273
 10
6.3590061403
 20
12.0420661573
 10
6.330275782
 20
12.0181716208
 10
6.301900771
 20
11.993162382
 10
6.2738832299
 20
11.9670328594
 10
6.2462210361
 20
11.9397886345
 10
6.2190545155
 20
11.9115678154
 10
6.1923866001
 20
11.8823658486
 10
6.1662143578
 20
11.8521872877
 10
6.1406693191
 20
11.8211839013
 10
6.1157546028
 20
11.7893515365
 10
6.0914670901
 20
11.7566943463
 10
6.0679289537
 20
11.7233765583
 10
6.0451438241
 20
11.6893946066
 10
6.0231080709
 20
11.6547520571
 10
6.0019329757
 20
11.6196238349
 10
5.981622931
 20
11.5840074875
 10
5.9621735442
 20
11.5479054674
 10
5.9436829195
 20
11.5115000575
 10
5.9261560248
 20
11.4747899875
 10
5.9095878921
 20
11.4377765277
 10
5.8940617211
 20
11.4006457718
 10
5.8795827277
 20
11.3633971609
 10
5.8661456961
 20
11.326031254
 10
5.8538181784
 20
11.2887358213
 10
5.8426056613
 20
11.2515106635
 10
5.8325026582
 20
11.21435598
 10
5.8235602606
 20
11.1774601393
 10
5.8157844255
 20
11.1408238418
 10
5.809169196
 20
11.104446387
 10
5.803747793
 20
11.0685140422
 10
5.79953129
 20
11.0330888963
 10
5.7965086135
 20
10.9981088603
 10
5.7946797635
 20
10.9635739342
  0
LINE
  5
24E
100
AcDbEntity
  8
ASSI
100
AcDbLine
 62
253
  6
CONTINUOUS
 10
9.0307312034
 20
14.5320441395
 11
6.1100471435
 21
12.7298308018
  0
LINE
  5
24F
100
AcDbEntity
  8
ASSI
100
AcDbLine
 62
253
  6
CONTINUOUS
 10
9.4153579982
 20
13.9389802064
 11
6.4758674228
 21
12.1251622745
  0
LWPOLYLINE
  5
250
100
AcDbEntity
  8
ASSI
100
AcDbPolyline
 62
253
  6
CONTINUOUS
 90
28
 70
0
 10
5.7946797635
 20
10.9635739342
 10
5.773441577
 20
10.9533615143
 10
5.7511243581
 20
10.9438700619
 10
5.7278019542
 20
10.9351309841
 10
5.7035515391
 20
10.9271731984
 10
5.6784533571
 20
10.9200230371
 10
5.652590458
 20
10.9137041601
 10
5.6260484217
 20
10.9082374763
 10
5.5989150758
 20
10.9036410751
 10
5.5712802042
 20
10.8999301659
 10
5.5432352505
 20
10.897117028
 10
5.5148730151
 20
10.8952109701
 10
5.4862873487
 20
10.8942182994
 10
5.4575728407
 20
10.8941423006
 10
5.4288245074
 20
10.8949832251
 10
5.4001374767
 20
10.8967382903
 10
5.3716066737
 20
10.8994016888
 10
5.3433265067
 20
10.9029646074
 10
5.3153905546
 20
10.9074152564
 10
5.287891257
 20
10.9127389086
 10
5.260919609
 20
10.9189179482
 10
5.2345648596
 20
10.9259319287
 10
5.2089142163
 20
10.933757641
 10
5.184052557
 20
10.9423691898
 10
5.1600621487
 20
10.9517380795
 10
5.1370223754
 20
10.9618333087
 10
5.1150094756
 20
10.9726214722
 10
5.0940962897
 20
10.9840668722
  0
LWPOLYLINE
  5
251
100
AcDbEntity
  8
RACCORDO
100
AcDbPolyline
 62
253
  6
CONTINUOUS
 90
8
 70
0
 10
-2.463226503
 20
-6.2351662329
 10
-2.3781922815
 20
-6.2680572102
 10
-2.2951937914
 20
-6.2891809302
 10
-2.21523409
 20
-6.2982857446
 10
-2.1392453769
 20
-6.295270941
 10
-2.0680861883
 20
-6.2801628703
 10
-2.0022190901
 20
-6.2529139087
 10
-1.942913656
 20
-6.2138870766
  0
LWPOLYLINE
  5
252
100
AcDbEntity
  8
RACCORDO
100
AcDbPolyline
 62
7
  6
CONTINUOUS
 90
9
 70
0
 10
-2.4494914271
 20
-6.2694699612
 10
-2.3706927637
 20
-6.3023501621
 10
-2.2931000791
 20
-6.3263713749
 10
-2.2169810472
 20
-6.3415222625
 10
-2.1430006744
 20
-6.3477205973
 10
-2.0722303274
 20
-6.3450533124
 10
-2.0053255931
 20
-6.3338694489
 10
-1.9425348122
 20
-6.3145514167
 10
-1.884289982
 20
-6.2875543802
  0
LINE
  5
253
100
AcDbEntity
  8
RACCORDO
100
AcDbLine
 62
253
  6
CONTINUOUS
 10
-2.5492856007
 20
-6.1908981375
 11
-2.463226503
 21
-6.2351662329
  0
LINE
  5
254
100
AcDbEntity
  8
RACCORDO
100
AcDbLine
 62
7
  6
CONTINUOUS
 10
-2.5290206746
 20
-6.2277992774
 11
-2.4494914271
 21
-6.2694699612
  0
LWPOLYLINE
  5
255
100
AcDbEntity
  8
RACCORDO
100
AcDbPolyline
 62
253
  6
CONTINUOUS
 90
42
 70
0
 10
-2.6353440041
 20
-4.3209235039
 10
-2.7203778307
 20
-4.2880322986
 10
-2.8033762249
 20
-4.2669085232
 10
-2.8833362874
 20
-4.2578039173
 10
-2.9593256608
 20
-4.2608191021
 10
-3.0304853356
 20
-4.2759274536
 10
-3.0963525126
 20
-4.3031764607
 10
-3.1556578516
 20
-4.3422032378
 10
-3.206799688
 20
-4.3915492331
 10
-3.2495855894
 20
-4.4500899338
 10
-3.2839349434
 20
-4.5166298801
 10
-3.3094565893
 20
-4.5884037272
 10
-3.3266685618
 20
-4.6631190286
 10
-3.3365432666
 20
-4.7399349979
 10
-3.3398562774
 20
-4.8180324629
 10
-3.3373105373
 20
-4.8963325225
 10
-3.3296242067
 20
-4.973920213
 10
-3.3174105449
 20
-5.0505429809
 10
-3.301268842
 20
-5.1255896289
 10
-3.2817988685
 20
-5.1984775102
 10
-3.2594220406
 20
-5.2692039
 10
-3.2346116097
 20
-5.337437199
 10
-3.2078408275
 20
-5.4028518792
 10
-3.1793833566
 20
-5.4655662975
 10
-3.1496039802
 20
-5.5254141261
 10
-3.1188569563
 20
-5.5822509792
 10
-3.0872901352
 20
-5.6362808373
 10
-3.0551596492
 20
-5.6874643338
 10
-3.0227337355
 20
-5.7357407163
 10
-2.9901002967
 20
-5.7813006461
 10
-2.9574502525
 20
-5.8241571816
 10
-2.9249719139
 20
-5.8643247435
 10
-2.892696553
 20
-5.9019973761
 10
-2.8607564127
 20
-5.9372263834
 10
-2.8292861684
 20
-5.9700580337
 10
-2.7982842264
 20
-6.0006700568
 10
-2.767838484
 20
-6.0291334242
 10
-2.7380444834
 20
-6.0555096096
 10
-2.7088877158
 20
-6.0799500405
 10
-2.680438629
 20
-6.1025226953
 10
-2.6527494096
 20
-6.1233081706
 10
-2.6257615538
 20
-6.142460751
  0
LINE
  5
256
100
AcDbEntity
  8
RACCORDO
100
AcDbLine
 62
253
  6
CONTINUOUS
 10
-2.5492856007
 20
-4.3651920001
 11
-2.6353440041
 21
-4.3209235039
  0
LINE
  5
257
100
AcDbEntity
  8
RACCORDO
100
AcDbLine
 62
7
  6
CONTINUOUS
 10
-2.6257447409
 20
-6.1656043834
 11
-2.5290206746
 21
-6.2277992774
  0
LWPOLYLINE
  5
258
100
AcDbEntity
  8
RACCORDO
100
AcDbPolyline
 62
253
  6
CONTINUOUS
 90
4
 70
0
 10
-2.6257615538
 20
-6.142460751
 10
-2.5994806137
 20
-6.1600743484
 10
-2.573978472
 20
-6.1761954041
 10
-2.5492856007
 20
-6.1908981375
  0
LINE
  5
259
100
AcDbEntity
  8
ASSI
100
AcDbLine
 62
253
  6
CONTINUOUS
 10
-4.1900796242
 20
21.6475234872
 11
-4.1900796242
 21
21.5849197038
  0
LWPOLYLINE
  5
25A
100
AcDbEntity
  8
ASSI
100
AcDbPolyline
 62
253
  6
CONTINUOUS
 90
20
 70
0
 10
-3.5143533587
 20
-4.756909462
 10
-3.5139421153
 20
-4.7132956269
 10
-3.5119382296
 20
-4.6704835373
 10
-3.508325766
 20
-4.6285593503
 10
-3.5030883988
 20
-4.5875846547
 10
-3.4962170242
 20
-4.5476717275
 10
-3.4877197197
 20
-4.5089755133
 10
-3.4776005751
 20
-4.4715724803
 10
-3.4658675005
 20
-4.4355398175
 10
-3.4525567047
 20
-4.4010157001
 10
-3.4376925423
 20
-4.3680675794
 10
-3.4212987239
 20
-4.3367513654
 10
-3.4034304851
 20
-4.3071677371
 10
-3.384138007
 20
-4.2793810453
 10
-3.3634496034
 20
-4.2534146213
 10
-3.3413960842
 20
-4.2292973559
 10
-3.3180240167
 20
-4.2070721127
 10
-3.2933734967
 20
-4.1867694329
 10
-3.2674630573
 20
-4.1684030048
 10
-3.2387681121
 20
-4.15113971
  0
LWPOLYLINE
  5
25B
100
AcDbEntity
  8
ASSI
100
AcDbPolyline
 62
253
  6
CONTINUOUS
 90
24
 70
0
 10
-3.6545270089
 20
-4.7569364589
 10
-3.6540806456
 20
-4.7098511818
 10
-3.6518921509
 20
-4.6638111084
 10
-3.6479615384
 20
-4.6188162472
 10
-3.642287967
 20
-4.5747518346
 10
-3.6348722818
 20
-4.5317326379
 10
-3.6257171323
 20
-4.4901030246
 10
-3.614800018
 20
-4.4498787656
 10
-3.6021436763
 20
-4.4110442303
 10
-3.5878188184
 20
-4.373896804
 10
-3.5718073799
 20
-4.3384614935
 10
-3.5541278527
 20
-4.3047135439
 10
-3.5349059622
 20
-4.2728758032
 10
-3.5141439032
 20
-4.2429830524
 10
-3.4918400489
 20
-4.2150008445
 10
-3.4681145146
 20
-4.1890482575
 10
-3.4429693754
 20
-4.1651353269
 10
-3.4164031698
 20
-4.1432523773
 10
-3.3885307808
 20
-4.1234889632
 10
-3.3593388466
 20
-4.1058457079
 10
-3.3288413495
 20
-4.0903223518
 10
-3.2971942464
 20
-4.0770071582
 10
-3.2643854312
 20
-4.0659118287
 10
-3.2304276258
 20
-4.0570250224
  0
LWPOLYLINE
  5
25C
100
AcDbEntity
  8
ASSI
100
AcDbPolyline
 62
253
  6
CONTINUOUS
 90
24
 70
0
 10
-3.6545270089
 20
2.5927659727
 10
-3.6533231648
 20
2.6402647215
 10
-3.650378553
 20
2.6867177085
 10
-3.6456931874
 20
2.7321249252
 10
-3.639264391
 20
2.7766021118
 10
-3.6310948451
 20
2.8200335244
 10
-3.6211927064
 20
2.8620718683
 10
-3.609535532
 20
2.9027013555
 10
-3.5961460019
 20
2.9419376386
 10
-3.5811001621
 20
2.9794804674
 10
-3.5643801836
 20
3.0153047313
 10
-3.5460043229
 20
3.049435298
 10
-3.5261029341
 20
3.081646784
 10
-3.5046787641
 20
3.1119041206
 10
-3.481729634
 20
3.1402420545
 10
-3.4573786318
 20
3.1665398561
 10
-3.4316280033
 20
3.1907873863
 10
-3.404476116
 20
3.2129944369
 10
-3.3760403128
 20
3.2330701341
 10
-3.346307129
 20
3.251013914
 10
-3.3152906495
 20
3.2668259897
 10
-3.283149599
 20
3.2804166205
 10
-3.2498719489
 20
3.291774076
 10
-3.2154703432
 20
3.3009097389
  0
LWPOLYLINE
  5
25D
100
AcDbEntity
  8
ASSI
100
AcDbPolyline
 62
253
  6
CONTINUOUS
 90
20
 70
0
 10
-3.5143533587
 20
2.5913230291
 10
-3.5131845905
 20
2.6353509972
 10
-3.5104245456
 20
2.6785764949
 10
-3.5060572962
 20
2.7209134041
 10
-3.500064697
 20
2.7623011776
 10
-3.4924394771
 20
2.8026265668
 10
-3.4831951917
 20
2.8417316544
 10
-3.4723359521
 20
2.8795400023
 10
-3.4598696344
 20
2.9159744716
 10
-3.4458378245
 20
2.9508939615
 10
-3.4302650797
 20
2.9842309481
 10
-3.4131748657
 20
3.015929669
 10
-3.3946271093
 20
3.0458868645
 10
-3.3746725132
 20
3.0740379303
 10
-3.3533388063
 20
3.1003598561
 10
-3.3306598344
 20
3.1248220578
 10
-3.3066823144
 20
3.1473816158
 10
-3.2814461372
 20
3.1680081251
 10
-3.2549723537
 20
3.1866865247
 10
-3.2260283978
 20
3.2040892481
  0
LINE
  5
25E
100
AcDbEntity
  8
ASSI
100
AcDbLine
 62
7
  6
CONTINUOUS
 10
3.9096827716
 20
17.4888733223
 11
3.7295163251
 21
17.0748480419
  0
LWPOLYLINE
  5
25F
100
AcDbEntity
  8
RACCORDO
100
AcDbPolyline
 62
7
  6
CONTINUOUS
 90
21
 70
0
 10
-3.091108777
 20
3.1508149587
 10
-3.1563160221
 20
3.1032022731
 10
-3.214192798
 20
3.0436282785
 10
-3.2636842888
 20
2.9725183459
 10
-3.3040558188
 20
2.8899691049
 10
-3.3342602644
 20
2.7969073407
 10
-3.3534293973
 20
2.6954802556
 10
-3.361433092
 20
2.586854659
 10
-3.3582295181
 20
2.471936454
 10
-3.3440025316
 20
2.3531559221
 10
-3.3192657424
 20
2.2323721915
 10
-3.2844453746
 20
2.1104891501
 10
-3.2400674024
 20
1.9888631112
 10
-3.1867764109
 20
1.8689527275
 10
-3.1252404782
 20
1.7520658173
 10
-3.0561233567
 20
1.6393953747
 10
-2.9802107795
 20
1.5322407372
 10
-2.8983718221
 20
1.4318838882
 10
-2.8114153467
 20
1.3394253722
 10
-2.7202111657
 20
1.2559670809
 10
-2.6257447409
 20
1.1826281077
  0
LINE
  5
260
100
AcDbEntity
  8
DRAFT
100
AcDbLine
 62
7
  6
CONTINUOUS
 10
-2.9309704739
 20
3.2478988669
 11
-3.0911088682
 21
3.1508149034
  0
LINE
  5
261
100
AcDbEntity
  8
ASSI
100
AcDbLine
 62
7
  6
CONTINUOUS
 10
-3.2260283978
 20
3.2040892481
 11
-3.225385608
 21
3.2044429679
  0
LWPOLYLINE
  5
262
100
AcDbEntity
  8
ASSI
100
AcDbPolyline
 62
7
  6
CONTINUOUS
 90
26
 70
0
 10
-3.2260338285
 20
3.2040853453
 10
-3.2145140909
 20
3.2101886893
 10
-3.1527138299
 20
3.2352050089
 10
-3.0852110402
 20
3.2501796704
 10
-3.0125659723
 20
3.2547764437
 10
-2.9352589378
 20
3.2487813848
 10
-2.8541660039
 20
3.2320933652
 10
-2.7701884569
 20
3.2047779561
 10
-2.6840405372
 20
3.1669415568
 10
-2.5966891247
 20
3.1188810783
 10
-2.5091031012
 20
3.0610407853
 10
-2.4218632865
 20
2.9936892049
 10
-2.335746011
 20
2.9172517882
 10
-2.2517880509
 20
2.8324959046
 10
-2.1708495754
 20
2.740180969
 10
-2.0937258629
 20
2.641113871
 10
-2.02122821
 20
2.5362503696
 10
-1.9541335859
 20
2.4266650501
 10
-1.8930919877
 20
2.3134017251
 10
-1.8386990331
 20
2.1975666787
 10
-1.7915158348
 20
2.0804073118
 10
-1.7519509954
 20
1.963054804
 10
-1.7203401725
 20
1.8466795836
 10
-1.696955573
 20
1.732633005
 10
-1.6819033729
 20
1.6221111466
 10
-1.6751579428
 20
1.5160920207
  0
LWPOLYLINE
  5
263
100
AcDbEntity
  8
ASSI
100
AcDbPolyline
 62
253
  6
CONTINUOUS
 90
16
 70
0
 10
-3.2304276258
 20
-4.0570250224
 10
-3.1955140736
 20
-4.050400465
 10
-3.1596437725
 20
-4.0460533276
 10
-3.1228182989
 20
-4.0439687751
 10
-3.0852347843
 20
-4.044155536
 10
-3.0468922513
 20
-4.04662525
 10
-3.0077921655
 20
-4.0513665628
 10
-2.9681353201
 20
-4.0583537094
 10
-2.9279182319
 20
-4.0675978958
 10
-2.8871447555
 20
-4.0790881331
 10
-2.8460266699
 20
-4.0927653517
 10
-2.804560684
 20
-4.1086416505
 10
-2.7627503217
 20
-4.1267050665
 10
-2.7208175527
 20
-4.1468604185
 10
-2.6787621475
 20
-4.1691188579
 10
-2.6365844151
 20
-4.1934692795
  0
LWPOLYLINE
  5
264
100
AcDbEntity
  8
RACCORDO
100
AcDbPolyline
 62
253
  6
CONTINUOUS
 90
6
 70
0
 10
-2.8361871868
 20
-4.1374438829
 10
-2.8408346443
 20
-4.1369145818
 10
-2.9228607066
 20
-4.1401650216
 10
-2.9996736103
 20
-4.1564703207
 10
-3.0707728429
 20
-4.1858832304
 10
-3.0911088403
 20
-4.1974175708
  0
LWPOLYLINE
  5
265
100
AcDbEntity
  8
ASSI
100
AcDbPolyline
 62
253
  6
CONTINUOUS
 90
19
 70
0
 10
4.9148579059
 20
-5.7355708076
 10
4.9381810263
 20
-5.7420958686
 10
4.9620560432
 20
-5.7479213538
 10
4.9864168875
 20
-5.7530308716
 10
5.0111972767
 20
-5.7574107625
 10
5.0363316779
 20
-5.7610496216
 10
5.0617533541
 20
-5.7639375192
 10
5.0873944487
 20
-5.7660669006
 10
5.1131859504
 20
-5.7674321314
 10
5.1390585287
 20
-5.7680291833
 10
5.1649428281
 20
-5.7678566689
 10
5.1907694549
 20
-5.7669152133
 10
5.2164689731
 20
-5.7652069462
 10
5.2419722052
 20
-5.7627367333
 10
5.2672110818
 20
-5.7595113951
 10
5.2921185983
 20
-5.7555390236
 10
5.3166288997
 20
-5.750830289
 10
5.3406752818
 20
-5.7453981337
 10
5.364191165
 20
-5.7392571595
  0
LINE
  5
266
100
AcDbEntity
  8
ASSI
100
AcDbLine
 62
253
  6
CONTINUOUS
 10
-2.6365844151
 20
-4.1934692795
 11
-2.594507095
 21
-4.2197830947
  0
LWPOLYLINE
  5
267
100
AcDbEntity
  8
ASSI
100
AcDbPolyline
 62
253
  6
CONTINUOUS
 90
35
 70
0
 10
-2.594507095
 20
-4.2197830947
 10
-2.5525303036
 20
-4.2480711708
 10
-2.5106538453
 20
-4.2783225941
 10
-2.4690999539
 20
-4.3103760818
 10
-2.4278718182
 20
-4.3442397448
 10
-2.3869660168
 20
-4.3799053363
 10
-2.346594836
 20
-4.4171870178
 10
-2.3067617584
 20
-4.4560915196
 10
-2.2674629302
 20
-4.4966118943
 10
-2.2288996131
 20
-4.5385417758
 10
-2.1910727829
 20
-4.5818909957
 10
-2.1539809759
 20
-4.6266494367
 10
-2.1178217905
 20
-4.6725808067
 10
-2.0825959353
 20
-4.7196986665
 10
-2.0483021277
 20
-4.7679891191
 10
-2.0151349991
 20
-4.8171746971
 10
-1.9831063508
 20
-4.867252978
 10
-1.9522037656
 20
-4.9182260234
 10
-1.9225855933
 20
-4.9698231182
 10
-1.8942655448
 20
-5.022028498
 10
-1.8672292889
 20
-5.0748575634
 10
-1.8415931705
 20
-5.1280863809
 10
-1.8173554355
 20
-5.1817255679
 10
-1.7945172252
 20
-5.2357641473
 10
-1.7731993005
 20
-5.2899458369
 10
-1.7533987344
 20
-5.3443073455
 10
-1.7351178856
 20
-5.3988116302
 10
-1.7184855643
 20
-5.4530918524
 10
-1.70351912
 20
-5.5071529163
 10
-1.6902007735
 20
-5.5609896644
 10
-1.6786068192
 20
-5.6142202702
 10
-1.6687596697
 20
-5.6668350723
 10
-1.6606366731
 20
-5.7188435903
 10
-1.6542467328
 20
-5.7698928889
 10
-1.6495928544
 20
-5.8198653447
  0
LINE
  5
268
100
AcDbEntity
  8
ASSI
100
AcDbLine
 62
253
  6
CONTINUOUS
 10
-1.6495928544
 20
-5.8198653447
 11
-1.6466720272
 21
-5.8688785769
  0
LWPOLYLINE
  5
269
100
AcDbEntity
  8
CURVE
100
AcDbPolyline
 62
253
  6
CONTINUOUS
 90
85
 70
0
 10
-2.4269831589
 20
-13.2715456334
 10
-2.4271468447
 20
-13.2675792955
 10
-2.4274369252
 20
-13.2636139854
 10
-2.4278502046
 20
-13.2596381019
 10
-2.4283834868
 20
-13.2556400442
 10
-2.4290335761
 20
-13.2516082112
 10
-2.4297972766
 20
-13.247531002
 10
-2.4306722404
 20
-13.2433990318
 10
-2.4316595124
 20
-13.2392117815
 10
-2.4327609856
 20
-13.2349709482
 10
-2.4339785527
 20
-13.2306782289
 10
-2.4353141067
 20
-13.2263353207
 10
-2.4367695404
 20
-13.2219439208
 10
-2.4383460603
 20
-13.2175074328
 10
-2.4400421259
 20
-13.2130360868
 10
-2.4418555104
 20
-13.2085418195
 10
-2.4437839868
 20
-13.2040365676
 10
-2.4458253282
 20
-13.1995322676
 10
-2.4479773078
 20
-13.1950408564
 10
-2.450237834
 20
-13.1905731796
 10
-2.4526053577
 20
-13.1861357189
 10
-2.455078465
 20
-13.1817338652
 10
-2.4576557421
 20
-13.1773730092
 10
-2.4603357754
 20
-13.1730585418
 10
-2.463117151
 20
-13.1687958536
 10
-2.4659976675
 20
-13.164590614
 10
-2.4689719723
 20
-13.1604496055
 10
-2.4720339252
 20
-13.156379889
 10
-2.475177386
 20
-13.1523885257
 10
-2.4783962144
 20
-13.1484825766
 10
-2.4816842704
 20
-13.1446691025
 10
-2.485035928
 20
-13.1409547315
 10
-2.4884476195
 20
-13.1373443593
 10
-2.4919162914
 20
-13.1338424487
 10
-2.4954388905
 20
-13.1304534621
 10
-2.4990123633
 20
-13.1271818625
 10
-2.5026336565
 20
-13.1240321124
 10
-2.50629887
 20
-13.1210093761
 10
-2.5100007164
 20
-13.1181216241
 10
-2.5137310619
 20
-13.1153775284
 10
-2.5174817725
 20
-13.1127857612
 10
-2.521244714
 20
-13.1103549946
 10
-2.5250117527
 20
-13.1080939005
 10
-2.5287747969
 20
-13.106009835
 10
-2.5325259247
 20
-13.1041048906
 10
-2.5362572568
 20
-13.1023798435
 10
-2.5399609137
 20
-13.10083547
 10
-2.543629016
 20
-13.0994725464
 10
-2.5472536844
 20
-13.0982918492
 10
-2.5508278191
 20
-13.0972938591
 10
-2.5543474398
 20
-13.0964778752
 10
-2.5578093457
 20
-13.0958429011
 10
-2.5612103362
 20
-13.0953879404
 10
-2.5645472107
 20
-13.0951119967
 10
-2.5678167684
 20
-13.0950140736
 10
-2.5710154699
 20
-13.0950934807
 10
-2.5741384204
 20
-13.0953507517
 10
-2.5771803865
 20
-13.0957867266
 10
-2.5801361345
 20
-13.0964022451
 10
-2.583000431
 20
-13.0971981469
 10
-2.5857680423
 20
-13.098175272
 10
-2.5884341321
 20
-13.0993335984
 10
-2.590995453
 20
-13.100669658
 10
-2.5934491547
 20
-13.1021791211
 10
-2.5957923868
 20
-13.1038576577
 10
-2.598022299
 20
-13.1057009381
 10
-2.600136041
 20
-13.1077046324
 10
-2.6021309661
 20
-13.1098630446
 10
-2.6040052412
 20
-13.1121650127
 10
-2.6057572369
 20
-13.1145980086
 10
-2.6073853237
 20
-13.1171495042
 10
-2.6088878722
 20
-13.1198069713
 10
-2.6102632528
 20
-13.1225578816
 10
-2.6115107017
 20
-13.1253911784
 10
-2.6126329182
 20
-13.1283016906
 10
-2.6136334669
 20
-13.1312857184
 10
-2.6145159128
 20
-13.134339562
 10
-2.6152838206
 20
-13.1374595217
 10
-2.6159407552
 20
-13.1406418976
 10
-2.6164891827
 20
-13.1438862106
 10
-2.616927175
 20
-13.1472048643
 10
-2.6172517052
 20
-13.1506134826
 10
-2.6174597464
 20
-13.1541276897
 10
-2.6175482719
 20
-13.1577631097
 10
-2.6175142547
 20
-13.1615353666
  0
LWPOLYLINE
  5
26A
100
AcDbEntity
  8
CURVE
100
AcDbPolyline
 62
253
  6
CONTINUOUS
 90
54
 70
0
 10
-2.6078861439
 20
-13.5397220088
 10
-2.6077703405
 20
-13.5427505469
 10
-2.6075805045
 20
-13.5457834528
 10
-2.6073179112
 20
-13.5488259158
 10
-2.6069838363
 20
-13.5518831252
 10
-2.6065795552
 20
-13.5549602706
 10
-2.6061063436
 20
-13.5580625413
 10
-2.6055654768
 20
-13.5611951267
 10
-2.6048500103
 20
-13.5648936504
 10
-2.6040423283
 20
-13.5686403584
 10
-2.6031405653
 20
-13.5724351102
 10
-2.6021428557
 20
-13.5762777651
 10
-2.601047334
 20
-13.5801681823
 10
-2.5998521346
 20
-13.5841062213
 10
-2.5985560484
 20
-13.588090084
 10
-2.5971604912
 20
-13.5921113422
 10
-2.5956675352
 20
-13.5961599104
 10
-2.5940792528
 20
-13.6002257031
 10
-2.5923977163
 20
-13.6042986346
 10
-2.5906249977
 20
-13.6083686194
 10
-2.589034412
 20
-13.6118477465
 10
-2.5873790031
 20
-13.6153143017
 10
-2.5856594158
 20
-13.6187652877
 10
-2.5838762954
 20
-13.6221977075
 10
-2.5820302867
 20
-13.6256085637
 10
-2.5801220349
 20
-13.6289948592
 10
-2.578152185
 20
-13.6323535967
 10
-2.5761217374
 20
-13.6356817683
 10
-2.5740331134
 20
-13.6389763221
 10
-2.5718890898
 20
-13.6422341958
 10
-2.5696924432
 20
-13.6454523266
 10
-2.5674459505
 20
-13.648627652
 10
-2.5651523884
 20
-13.6517571095
 10
-2.5628145334
 20
-13.6548376365
 10
-2.5604356041
 20
-13.6578659308
 10
-2.5580205859
 20
-13.6608377314
 10
-2.5555749058
 20
-13.6637485376
 10
-2.5531039909
 20
-13.6665938488
 10
-2.5506132683
 20
-13.6693691642
 10
-2.548108165
 20
-13.6720699833
 10
-2.5455941083
 20
-13.6746918054
 10
-2.5426556533
 20
-13.6776462659
 10
-2.5397131396
 20
-13.6804890256
 10
-2.5367673084
 20
-13.6832220333
 10
-2.5338189008
 20
-13.685847238
 10
-2.530868658
 20
-13.6883665884
 10
-2.5279173211
 20
-13.6907820334
 10
-2.5253863343
 20
-13.6927712232
 10
-2.5228497919
 20
-13.694686922
 10
-2.5203023976
 20
-13.6965305453
 10
-2.5177388551
 20
-13.6983035091
 10
-2.5151538681
 20
-13.7000072289
 10
-2.5125421403
 20
-13.7016431206
 10
-2.5098983753
 20
-13.7032125999
  0
LWPOLYLINE
  5
26B
100
AcDbEntity
  8
CURVE
100
AcDbPolyline
 62
253
  6
CONTINUOUS
 90
85
 70
0
 10
-2.4803828249
 20
-10.8881465377
 10
-2.4805244861
 20
-10.8841983503
 10
-2.4807911893
 20
-10.880250095
 10
-2.4811800297
 20
-10.8762893151
 10
-2.4816881027
 20
-10.8723035536
 10
-2.4823125037
 20
-10.8682803538
 10
-2.4830503281
 20
-10.864207259
 10
-2.4838996709
 20
-10.860073912
 10
-2.4848626263
 20
-10.8558783554
 10
-2.4859422879
 20
-10.8516207313
 10
-2.4871417498
 20
-10.8473011821
 10
-2.4884641055
 20
-10.8429198499
 10
-2.4899124491
 20
-10.838476877
 10
-2.4914889532
 20
-10.8339748247
 10
-2.4931921062
 20
-10.8294259309
 10
-2.4950194754
 20
-10.8248448524
 10
-2.4969686281
 20
-10.8202462462
 10
-2.4990371317
 20
-10.8156447691
 10
-2.5012225535
 20
-10.8110550781
 10
-2.5035223143
 20
-10.8064906301
 10
-2.5059332486
 20
-10.8019600816
 10
-2.5084520448
 20
-10.7974708894
 10
-2.5110753909
 20
-10.7930305101
 10
-2.513799975
 20
-10.7886464003
 10
-2.5166224853
 20
-10.7843260166
 10
-2.5195392699
 20
-10.7800764572
 10
-2.5225453171
 20
-10.7759033865
 10
-2.5256352748
 20
-10.7718121106
 10
-2.5288037913
 20
-10.7678079353
 10
-2.5320455147
 20
-10.7638961668
 10
-2.5353550932
 20
-10.760082111
 10
-2.5387272344
 20
-10.7563711346
 10
-2.5421568844
 20
-10.752768847
 10
-2.5456390489
 20
-10.7492809184
 10
-2.5491687335
 20
-10.7459130189
 10
-2.5527409439
 20
-10.7426708186
 10
-2.5563506855
 20
-10.7395599878
 10
-2.5599927648
 20
-10.7365862452
 10
-2.5636611906
 20
-10.7337555046
 10
-2.5673497722
 20
-10.7310737284
 10
-2.5710523191
 20
-10.728546879
 10
-2.5747626407
 20
-10.726180919
 10
-2.5784745465
 20
-10.7239818106
 10
-2.5821820377
 20
-10.7219546623
 10
-2.5858798822
 20
-10.7201011657
 10
-2.5895630399
 20
-10.7184221582
 10
-2.5932264706
 20
-10.7169184776
 10
-2.596865134
 20
-10.7155909611
 10
-2.6004739899
 20
-10.7144404465
 10
-2.6040477796
 20
-10.7134677873
 10
-2.60758037
 20
-10.7126739019
 10
-2.6110654095
 20
-10.712059725
 10
-2.6144965466
 20
-10.7116261911
 10
-2.6178674296
 20
-10.7113742347
 10
-2.6211717072
 20
-10.7113047904
 10
-2.6244030433
 20
-10.7114185227
 10
-2.6275551655
 20
-10.7117150162
 10
-2.630621817
 20
-10.7121935853
 10
-2.6335967409
 20
-10.7128535444
 10
-2.6364736804
 20
-10.7136942082
 10
-2.6392463789
 20
-10.714714891
 10
-2.6419094479
 20
-10.7159142465
 10
-2.6444609733
 20
-10.7172882852
 10
-2.6468999095
 20
-10.7188323569
 10
-2.6492252107
 20
-10.7205418113
 10
-2.6514358314
 20
-10.722411998
 10
-2.6535307258
 20
-10.7244382669
 10
-2.6555087431
 20
-10.7266147291
 10
-2.6573683116
 20
-10.7289305422
 10
-2.659107754
 20
-10.7313736254
 10
-2.6607253935
 20
-10.7339318978
 10
-2.6622195529
 20
-10.7365932785
 10
-2.6635885554
 20
-10.7393456866
 10
-2.6648315882
 20
-10.7421784111
 10
-2.6659512969
 20
-10.74508622
 10
-2.6669511914
 20
-10.7480652514
 10
-2.6678347818
 20
-10.751111643
 10
-2.6686055779
 20
-10.7542215329
 10
-2.6692670898
 20
-10.757391059
 10
-2.6698217911
 20
-10.7606195628
 10
-2.6702680106
 20
-10.7639192
 10
-2.6706030408
 20
-10.7673053301
 10
-2.6708241742
 20
-10.7707933123
 10
-2.6709287034
 20
-10.7743985061
 10
-2.6709139207
 20
-10.7781362709
  0
LINE
  5
26C
100
AcDbEntity
  8
ASSI
100
AcDbLine
 62
7
  6
CONTINUOUS
 10
-4.0099131777
 20
22.0615487676
 11
-3.9887164461
 21
21.4453250538
  0
LWPOLYLINE
  5
26D
100
AcDbEntity
  8
CURVE
100
AcDbPolyline
 62
253
  6
CONTINUOUS
 90
54
 70
0
 10
-2.6632503062
 20
-11.1576012049
 10
-2.6631503547
 20
-11.1606303149
 10
-2.6629762258
 20
-11.1636638832
 10
-2.6627292214
 20
-11.1667071082
 10
-2.6624106433
 20
-11.1697651885
 10
-2.6620217933
 20
-11.1728433225
 10
-2.6615639733
 20
-11.1759467086
 10
-2.6610384851
 20
-11.1790805454
 10
-2.6603409713
 20
-11.1827807093
 10
-2.6595512572
 20
-11.1865292472
 10
-2.6586674746
 20
-11.1903260107
 10
-2.6576877552
 20
-11.1941708515
 10
-2.6566102309
 20
-11.1980636212
 10
-2.6554330332
 20
-11.2020041714
 10
-2.6541549438
 20
-11.2059906967
 10
-2.6527773436
 20
-11.2100147633
 10
-2.6513022632
 20
-11.2140662802
 10
-2.6497317333
 20
-11.2181351566
 10
-2.6480677846
 20
-11.2222113016
 10
-2.6463124478
 20
-11.2262846244
 10
-2.6447365621
 20
-11.229766712
 10
-2.6430956262
 20
-11.2332363396
 10
-2.6413902406
 20
-11.2366905341
 10
-2.6396210054
 20
-11.2401263226
 10
-2.6377885209
 20
-11.2435407323
 10
-2.6358933875
 20
-11.2469307902
 10
-2.6339362053
 20
-11.2502935235
 10
-2.631917937
 20
-11.2536259355
 10
-2.6298409943
 20
-11.2569249355
 10
-2.6277081512
 20
-11.2601874087
 10
-2.6255221817
 20
-11.2634102406
 10
-2.6232858599
 20
-11.2665903167
 10
-2.6210019597
 20
-11.2697245223
 10
-2.6186732552
 20
-11.2728097429
 10
-2.616302963
 20
-11.2758426306
 10
-2.6138960691
 20
-11.278818904
 10
-2.6114580026
 20
-11.2817340486
 10
-2.6089941921
 20
-11.2845835498
 10
-2.6065100663
 20
-11.2873628929
 10
-2.6040110542
 20
-11.2900675634
 10
-2.6015025843
 20
-11.2926930466
 10
-2.5985700109
 20
-11.295651526
 10
-2.5956326886
 20
-11.2984980445
 10
-2.5926913522
 20
-11.3012345687
 10
-2.5897467365
 20
-11.3038630651
 10
-2.5867995764
 20
-11.3063855004
 10
-2.5838506068
 20
-11.3088038412
 10
-2.5813210761
 20
-11.3107953714
 10
-2.5787854633
 20
-11.3127132669
 10
-2.5762384762
 20
-11.3145589261
 10
-2.5736748223
 20
-11.3163337471
 10
-2.5710892092
 20
-11.318039128
 10
-2.5684763446
 20
-11.3196764671
 10
-2.5658309359
 20
-11.3212471625
  0
LINE
  5
26E
100
AcDbEntity
  8
CURVE
100
AcDbLine
 62
253
  6
CONTINUOUS
 10
-2.6175142547
 20
-13.1615353666
 11
-2.6078861442
 21
-13.5397219971
  0
LINE
  5
26F
100
AcDbEntity
  8
CURVE
100
AcDbLine
 62
253
  6
CONTINUOUS
 10
-2.4173550481
 20
-13.6497322756
 11
-2.4269831586
 21
-13.271545645
  0
LINE
  5
270
100
AcDbEntity
  8
ASSI
100
AcDbLine
 62
253
  6
CONTINUOUS
 10
-1.6466720272
 20
-5.8688785769
 11
-1.6454842368
 21
-5.9169325762
  0
LINE
  5
271
100
AcDbEntity
  8
ASSI
100
AcDbLine
 62
7
  6
CONTINUOUS
 10
-1.6757843723
 20
-5.8344357291
 11
-1.6747742774
 21
-5.8760717288
  0
LINE
  5
272
100
AcDbEntity
  8
CURVE
100
AcDbLine
 62
253
  6
CONTINUOUS
 10
-2.6709139207
 20
-10.7781362709
 11
-2.6632503062
 21
-11.1576012031
  0
LINE
  5
273
100
AcDbEntity
  8
CURVE
100
AcDbLine
 62
253
  6
CONTINUOUS
 10
-2.4727192104
 20
-11.2676114718
 11
-2.4803828248
 21
-10.8881465395
  0
LINE
  5
274
100
AcDbEntity
  8
ASSI
100
AcDbLine
 62
253
  6
CONTINUOUS
 10
-1.6459395273
 20
1.4812521888
 11
-1.6454842368
 21
1.4327698554
  0
LINE
  5
275
100
AcDbEntity
  8
ASSI
100
AcDbLine
 62
7
  6
CONTINUOUS
 10
-1.6751579428
 20
1.5160920207
 11
-1.6747733171
 21
1.4736874881
  0
LWPOLYLINE
  5
276
100
AcDbEntity
  8
CURVE
100
AcDbPolyline
 62
253
  6
CONTINUOUS
 90
88
 70
0
 10
-2.1949565473
 20
-12.4178187751
 10
-2.1948486224
 20
-12.4319111867
 10
-2.1951740343
 20
-12.4455414797
 10
-2.1959249775
 20
-12.4587485392
 10
-2.1970936467
 20
-12.4715712499
 10
-2.1986722365
 20
-12.4840484967
 10
-2.2006548457
 20
-12.4962111972
 10
-2.2030431884
 20
-12.5080584
 10
-2.2058408831
 20
-12.5195811863
 10
-2.2090515482
 20
-12.5307706374
 10
-2.2126788019
 20
-12.5416178346
 10
-2.2167243481
 20
-12.5521115143
 10
-2.2211822332
 20
-12.5622310336
 10
-2.2260445892
 20
-12.571953405
 10
-2.2313035478
 20
-12.5812556406
 10
-2.2369512411
 20
-12.590114753
 10
-2.2429795963
 20
-12.5985102188
 10
-2.2493797218
 20
-12.6064313733
 10
-2.2561425214
 20
-12.613870016
 10
-2.2632588989
 20
-12.6208179466
 10
-2.2707197579
 20
-12.6272669647
 10
-2.2785159193
 20
-12.6332092859
 10
-2.286637872
 20
-12.6386387896
 10
-2.2950760217
 20
-12.6435497713
 10
-2.3038207745
 20
-12.6479365263
 10
-2.3128625362
 20
-12.65179335
 10
-2.3221911319
 20
-12.6551150213
 10
-2.3317940637
 20
-12.6578982528
 10
-2.3416582532
 20
-12.6601402405
 10
-2.3517706217
 20
-12.6618381805
 10
-2.3621180906
 20
-12.6629892688
 10
-2.3738752233
 20
-12.6636244126
 10
-2.38588922
 20
-12.6635827408
 10
-2.3981428436
 20
-12.6628660249
 10
-2.4106188572
 20
-12.6614760364
 10
-2.4233000237
 20
-12.6594145471
 10
-2.436169106
 20
-12.6566833282
 10
-2.4492088672
 20
-12.6532841515
 10
-2.4624020703
 20
-12.6492187885
 10
-2.4757314781
 20
-12.6444890107
 10
-2.4891787737
 20
-12.6390986549
 10
-2.5027213197
 20
-12.6330598194
 10
-2.5163353988
 20
-12.6263866676
 10
-2.5299972935
 20
-12.6190933631
 10
-2.5436832866
 20
-12.6111940694
 10
-2.5573696607
 20
-12.6027029498
 10
-2.5710326984
 20
-12.5936341681
 10
-2.5846486824
 20
-12.5840018875
 10
-2.5981938952
 20
-12.5738202718
 10
-2.6116459061
 20
-12.5631038357
 10
-2.6249874304
 20
-12.5518684997
 10
-2.6382024698
 20
-12.540130536
 10
-2.6512750261
 20
-12.5279062163
 10
-2.6641891013
 20
-12.5152118128
 10
-2.676928697
 20
-12.5020635972
 10
-2.6894778152
 20
-12.4884778417
 10
-2.7018204576
 20
-12.4744708181
 10
-2.713940626
 20
-12.4600587984
 10
-2.7246446793
 20
-12.4467564486
 10
-2.7351399447
 20
-12.4331588399
 10
-2.7454107965
 20
-12.41928558
 10
-2.7554416091
 20
-12.4051562763
 10
-2.7652167571
 20
-12.3907905365
 10
-2.7747213714
 20
-12.3762079555
 10
-2.7839436094
 20
-12.3614280766
 10
-2.7928723847
 20
-12.3464704304
 10
-2.8014966115
 20
-12.3313545475
 10
-2.8098052033
 20
-12.3160999586
 10
-2.817787501
 20
-12.3007258145
 10
-2.8254345525
 20
-12.2852497475
 10
-2.8327378327
 20
-12.2696890104
 10
-2.8396888163
 20
-12.2540608557
 10
-2.8462789782
 20
-12.2383825363
 10
-2.8524996769
 20
-12.222673827
 10
-2.8583418058
 20
-12.2069645921
 10
-2.8637961421
 20
-12.1912872181
 10
-2.8688534628
 20
-12.1756740917
 10
-2.8735045451
 20
-12.1601575994
 10
-2.8777422174
 20
-12.1447656295
 10
-2.8815675131
 20
-12.1295080779
 10
-2.8849835167
 20
-12.1143903422
 10
-2.8879933131
 20
-12.09941782
 10
-2.8905999868
 20
-12.0845959089
 10
-2.8928050625
 20
-12.0699239655
 10
-2.8946038252
 20
-12.0553771812
 10
-2.89599
 20
-12.0409247065
 10
-2.8969573118
 20
-12.0265356917
 10
-2.8974994858
 20
-12.0121792873
  0
LWPOLYLINE
  5
277
100
AcDbEntity
  8
CURVE
100
AcDbPolyline
 62
253
  6
CONTINUOUS
 90
88
 70
0
 10
-2.8974994858
 20
-12.0121792873
 10
-2.8976069793
 20
-11.9980867984
 10
-2.8972802953
 20
-11.9844559197
 10
-2.8965272591
 20
-11.9712477794
 10
-2.8953556958
 20
-11.9584235061
 10
-2.893773431
 20
-11.9459442281
 10
-2.8917863854
 20
-11.933779041
 10
-2.8893928624
 20
-11.9219289087
 10
-2.8865892606
 20
-11.9104027621
 10
-2.883371979
 20
-11.8992095323
 10
-2.8797374163
 20
-11.8883581502
 10
-2.8756838911
 20
-11.8778598936
 10
-2.8712174006
 20
-11.867735427
 10
-2.866345862
 20
-11.8580077617
 10
-2.8610771922
 20
-11.8486999091
 10
-2.8554193082
 20
-11.8398348805
 10
-2.8493803327
 20
-11.8314332243
 10
-2.8429692101
 20
-11.8235056375
 10
-2.8361950906
 20
-11.8160603543
 10
-2.8290671241
 20
-11.8091056087
 10
-2.8215944608
 20
-11.8026496347
 10
-2.8137863345
 20
-11.7967002512
 10
-2.8056523144
 20
-11.791263615
 10
-2.7972020537
 20
-11.7863454675
 10
-2.7884452052
 20
-11.7819515502
 10
-2.7793914222
 20
-11.7780876047
 10
-2.7700509379
 20
-11.7747588888
 10
-2.7604363069
 20
-11.7719687268
 10
-2.7505606644
 20
-11.7697199594
 10
-2.7404371452
 20
-11.7680154274
 10
-2.7300788843
 20
-11.7668579716
 10
-2.7183102461
 20
-11.7662160581
 10
-2.7062853125
 20
-11.7662513169
 10
-2.6940213765
 20
-11.7669620105
 10
-2.6815357312
 20
-11.7683464014
 10
-2.6688456697
 20
-11.7704027522
 10
-2.6559684849
 20
-11.7731293254
 10
-2.6429214701
 20
-11.7765243835
 10
-2.6297219182
 20
-11.7805861891
 10
-2.6163871224
 20
-11.7853130047
 10
-2.6029354468
 20
-11.7907010215
 10
-2.5893895406
 20
-11.7967381448
 10
-2.5757731239
 20
-11.8034102089
 10
-2.562109917
 20
-11.8107030478
 10
-2.5484236401
 20
-11.8186024955
 10
-2.5347380133
 20
-11.8270943862
 10
-2.5210767569
 20
-11.8361645538
 10
-2.5074635912
 20
-11.8457988326
 10
-2.4939222362
 20
-11.8559830564
 10
-2.4804751169
 20
-11.8667027026
 10
-2.4671394769
 20
-11.8779418204
 10
-2.4539312643
 20
-11.8896841025
 10
-2.4408664273
 20
-11.9019132412
 10
-2.4279609142
 20
-11.914612929
 10
-2.4152306731
 20
-11.9277668585
 10
-2.4026916522
 20
-11.941358722
 10
-2.3903597998
 20
-11.9553722122
 10
-2.378251064
 20
-11.9697910214
 10
-2.3675578034
 20
-11.9830997272
 10
-2.357073746
 20
-11.9967038918
 10
-2.3468144527
 20
-12.0105838744
 10
-2.3367954841
 20
-12.0247200344
 10
-2.3270324009
 20
-12.0390927312
 10
-2.317540008
 20
-12.0536823361
 10
-2.3083300873
 20
-12.0684692684
 10
-2.2994136644
 20
-12.0834339596
 10
-2.2908017655
 20
-12.098556841
 10
-2.2825054162
 20
-12.1138183439
 10
-2.2745352158
 20
-12.1291992809
 10
-2.2669000566
 20
-12.1446819896
 10
-2.2596084041
 20
-12.1602491887
 10
-2.2526687238
 20
-12.1758835971
 10
-2.2460894814
 20
-12.1915679335
 10
-2.2398792598
 20
-12.2072823957
 10
-2.234047112
 20
-12.2229970968
 10
-2.2286022085
 20
-12.2386796289
 10
-2.2235537199
 20
-12.2542975843
 10
-2.2189108165
 20
-12.2698185549
 10
-2.2146806242
 20
-12.2852146321
 10
-2.2108620897
 20
-12.3004759041
 10
-2.207452115
 20
-12.315596958
 10
-2.2044476023
 20
-12.3305723812
 10
-2.2018454536
 20
-12.345396761
 10
-2.1996441293
 20
-12.3600707263
 10
-2.1978483239
 20
-12.374619073
 10
-2.1964642899
 20
-12.3890726383
 10
-2.1954982801
 20
-12.4034622599
 10
-2.1949565473
 20
-12.4178187751
  0
LWPOLYLINE
  5
278
100
AcDbEntity
  8
CURVE
100
AcDbPolyline
 62
253
  6
CONTINUOUS
 90
85
 70
0
 10
-2.4506049952
 20
7.7068087737
 10
-2.4505907738
 20
7.7108767637
 10
-2.450706113
 20
7.7149417124
 10
-2.4509472212
 20
7.7190155879
 10
-2.4513103071
 20
7.7231103582
 10
-2.4517915793
 20
7.7272379915
 10
-2.4523872463
 20
7.7314104558
 10
-2.4530944884
 20
7.7356374322
 10
-2.4539143719
 20
7.7399194535
 10
-2.4548489345
 20
7.7442547655
 10
-2.4559002143
 20
7.7486416139
 10
-2.4570702491
 20
7.7530782446
 10
-2.4583610768
 20
7.7575629033
 10
-2.4597741083
 20
7.7620920909
 10
-2.4613082465
 20
7.7666553289
 10
-2.4629617676
 20
7.7712403939
 10
-2.4647329475
 20
7.7758350627
 10
-2.4666200622
 20
7.7804271117
 10
-2.4686213879
 20
7.7850043177
 10
-2.4707352854
 20
7.7895555744
 10
-2.4729604559
 20
7.794074244
 10
-2.4752956855
 20
7.7985548061
 10
-2.4777397603
 20
7.8029917399
 10
-2.4802914663
 20
7.807379525
 10
-2.4829495897
 20
7.8117126407
 10
-2.4857121211
 20
7.815985292
 10
-2.4885738694
 20
7.820190586
 10
-2.4915288482
 20
7.8243213556
 10
-2.4945710709
 20
7.8283704334
 10
-2.4976945511
 20
7.8323306523
 10
-2.5008933023
 20
7.8361948448
 10
-2.5041618557
 20
7.8399562813
 10
-2.5074968128
 20
7.8436099816
 10
-2.5108952929
 20
7.847151403
 10
-2.5143544153
 20
7.8505760029
 10
-2.5178712994
 20
7.8538792386
 10
-2.5214430643
 20
7.8570565674
 10
-2.5250659742
 20
7.8601027234
 10
-2.5287328724
 20
7.8630095471
 10
-2.5324357473
 20
7.8657681559
 10
-2.536166587
 20
7.868369667
 10
-2.5399173798
 20
7.8708051978
 10
-2.5436801139
 20
7.8730658656
 10
-2.5474467605
 20
7.8751441714
 10
-2.5512092231
 20
7.8770381509
 10
-2.554959388
 20
7.8787472235
 10
-2.5586891414
 20
7.8802708087
 10
-2.5623903699
 20
7.881608326
 10
-2.5660549596
 20
7.8827591947
 10
-2.5696756156
 20
7.883723128
 10
-2.5732483171
 20
7.884501014
 10
-2.5767698617
 20
7.8850940345
 10
-2.5802370474
 20
7.8855033714
 10
-2.5836466718
 20
7.8857302065
 10
-2.5869955327
 20
7.8857757215
 10
-2.5902800772
 20
7.8856407905
 10
-2.5934953495
 20
7.8853250557
 10
-2.5966360431
 20
7.8848278514
 10
-2.5996968515
 20
7.8841485121
 10
-2.6026724682
 20
7.8832863721
 10
-2.6055575866
 20
7.8822407659
 10
-2.6083472705
 20
7.8810118791
 10
-2.6110380644
 20
7.8796033029
 10
-2.6136268828
 20
7.8780194798
 10
-2.6161106404
 20
7.8762648522
 10
-2.6184862518
 20
7.8743438626
 10
-2.6207506318
 20
7.8722609535
 10
-2.6229008203
 20
7.8700219313
 10
-2.6249343591
 20
7.8676380579
 10
-2.6268489153
 20
7.8651219591
 10
-2.6286421563
 20
7.8624862609
 10
-2.630311749
 20
7.859743589
 10
-2.6318553606
 20
7.8569065694
 10
-2.6332716095
 20
7.8539863371
 10
-2.6345629181
 20
7.8509880644
 10
-2.6357326599
 20
7.8479154328
 10
-2.6367842085
 20
7.8447721238
 10
-2.6377209375
 20
7.841561819
 10
-2.6385462204
 20
7.8382882
 10
-2.6392624567
 20
7.8349516888
 10
-2.6398681503
 20
7.8315396706
 10
-2.6403608307
 20
7.8280362709
 10
-2.6407380279
 20
7.8244256156
 10
-2.6409972714
 20
7.8206918302
 10
-2.6411360911
 20
7.8168190405
  0
LWPOLYLINE
  5
279
100
AcDbEntity
  8
CURVE
100
AcDbPolyline
 62
253
  6
CONTINUOUS
 90
54
 70
0
 10
-2.6560263286
 20
7.0287766668
 10
-2.6560437542
 20
7.0256865544
 10
-2.6559852953
 20
7.0225923779
 10
-2.6558524924
 20
7.0194888325
 10
-2.655646886
 20
7.0163706135
 10
-2.6553700167
 20
7.013232416
 10
-2.6550234248
 20
7.0100689351
 10
-2.6546086509
 20
7.006874866
 10
-2.6540399032
 20
7.003104147
 10
-2.6533785428
 20
6.9992847422
 10
-2.6526226634
 20
6.99541682
 10
-2.6517703589
 20
6.991500549
 10
-2.650819723
 20
6.9875360977
 10
-2.6497688496
 20
6.9835236346
 10
-2.6486164357
 20
6.9794650157
 10
-2.6473635915
 20
6.9753688475
 10
-2.6460120305
 20
6.9712454238
 10
-2.644563466
 20
6.9671050386
 10
-2.6430196117
 20
6.9629579858
 10
-2.6413821809
 20
6.9588145593
 10
-2.6399053854
 20
6.9552731581
 10
-2.6383615603
 20
6.9517449743
 10
-2.6367511672
 20
6.9482329984
 10
-2.6350746676
 20
6.9447402207
 10
-2.6333325231
 20
6.9412696315
 10
-2.6315251953
 20
6.9378242213
 10
-2.6296531457
 20
6.9344069802
 10
-2.6277172122
 20
6.93102094
 10
-2.625719737
 20
6.9276692974
 10
-2.6236634387
 20
6.9243552903
 10
-2.6215510358
 20
6.9210821566
 10
-2.6193852467
 20
6.9178531344
 10
-2.6171687901
 20
6.9146714616
 10
-2.6149043843
 20
6.911540376
 10
-2.6125951958
 20
6.9084633396
 10
-2.6102461817
 20
6.9054447093
 10
-2.607862747
 20
6.9024890659
 10
-2.6054502969
 20
6.8996009902
 10
-2.6030142362
 20
6.896785063
 10
-2.6005599701
 20
6.8940458651
 10
-2.5980929035
 20
6.8913879774
 10
-2.5952043917
 20
6.8883944307
 10
-2.5923065964
 20
6.8855157303
 10
-2.5894003003
 20
6.8827498152
 10
-2.586486286
 20
6.8800946245
 10
-2.5835653361
 20
6.8775480974
 10
-2.5806382332
 20
6.8751081728
 10
-2.5781240127
 20
6.8731000869
 10
-2.5756005128
 20
6.8711674683
 10
-2.5730623999
 20
6.8693089782
 10
-2.5705043403
 20
6.8675232776
 10
-2.5679210003
 20
6.8658090278
 10
-2.5653070461
 20
6.8641648898
 10
-2.562657144
 20
6.8625895249
  0
LWPOLYLINE
  5
27A
100
AcDbEntity
  8
CURVE
100
AcDbPolyline
 62
253
  6
CONTINUOUS
 90
85
 70
0
 10
-2.3760219656
 20
10.9472928343
 10
-2.375980412
 20
10.9513756448
 10
-2.3760683774
 20
10.9554550556
 10
-2.3762820239
 20
10.959543118
 10
-2.3766175138
 20
10.9636518829
 10
-2.3770710094
 20
10.9677934016
 10
-2.377638673
 20
10.9719797253
 10
-2.3783176551
 20
10.9762206077
 10
-2.37910906
 20
10.9805166133
 10
-2.3800149803
 20
10.9848660091
 10
-2.3810375086
 20
10.9892670621
 10
-2.3821787376
 20
10.9937180395
 10
-2.3834407599
 20
10.9982172082
 10
-2.38482505
 20
11.0027610788
 10
-2.3863306107
 20
11.0073391356
 10
-2.3879558266
 20
11.0119391065
 10
-2.3896990824
 20
11.0165487193
 10
-2.3915587627
 20
11.0211557019
 10
-2.3935332521
 20
11.0257477822
 10
-2.3956210122
 20
11.0303138085
 10
-2.397820811
 20
11.0348471116
 10
-2.4001314934
 20
11.0393421429
 10
-2.4025519044
 20
11.0437933535
 10
-2.4050808887
 20
11.0481951949
 10
-2.4077172913
 20
11.0525421182
 10
-2.4104591552
 20
11.0568283016
 10
-2.4133013159
 20
11.0610468294
 10
-2.4162378067
 20
11.0651905127
 10
-2.4192626612
 20
11.0692521628
 10
-2.422369913
 20
11.0732245907
 10
-2.4255535956
 20
11.0771006075
 10
-2.4288082592
 20
11.0808734623
 10
-2.432130521
 20
11.0845381553
 10
-2.4355175151
 20
11.0880901249
 10
-2.4389663753
 20
11.0915248091
 10
-2.4424742357
 20
11.0948376462
 10
-2.4460382301
 20
11.0980240744
 10
-2.4496546406
 20
11.1010788046
 10
-2.4533163409
 20
11.103993638
 10
-2.4570153527
 20
11.1067596486
 10
-2.4607436977
 20
11.1093679104
 10
-2.4644933978
 20
11.1118094973
 10
-2.4682564747
 20
11.1140754831
 10
-2.4720249264
 20
11.116158331
 10
-2.4757906564
 20
11.1180560598
 10
-2.4795455444
 20
11.1197680774
 10
-2.4832814704
 20
11.1212937917
 10
-2.486990314
 20
11.1226326108
 10
-2.490663955
 20
11.1237839424
 10
-2.4942950807
 20
11.1247474883
 10
-2.4978796073
 20
11.1255241248
 10
-2.5014142585
 20
11.1261150222
 10
-2.5048957579
 20
11.1265213505
 10
-2.5083208292
 20
11.1267442798
 10
-2.511686196
 20
11.1267849803
 10
-2.5149882409
 20
11.1266443078
 10
-2.5182219816
 20
11.1263218612
 10
-2.521382095
 20
11.125816925
 10
-2.5244632575
 20
11.1251287837
 10
-2.527460146
 20
11.1242567219
 10
-2.5303674371
 20
11.1232000241
 10
-2.5331801616
 20
11.1219588384
 10
-2.5358947671
 20
11.1205367672
 10
-2.5385080552
 20
11.1189382763
 10
-2.5410168276
 20
11.1171678318
 10
-2.5434178859
 20
11.1152298995
 10
-2.5457080318
 20
11.1131289452
 10
-2.547884198
 20
11.1108708257
 10
-2.5499438413
 20
11.1084669598
 10
-2.5518845498
 20
11.1059301575
 10
-2.5537039113
 20
11.1032732284
 10
-2.5553995136
 20
11.1005089822
 10
-2.5569689449
 20
11.0976502286
 10
-2.5584107639
 20
11.0947082585
 10
-2.5597274146
 20
11.0916882866
 10
-2.5609223118
 20
11.0885940086
 10
-2.5619988702
 20
11.0854291206
 10
-2.5629605047
 20
11.0821973181
 10
-2.5638106303
 20
11.0789022972
 10
-2.5645516994
 20
11.0755444736
 10
-2.5651823152
 20
11.0721111441
 10
-2.5657001184
 20
11.0685863253
 10
-2.56610275
 20
11.0649540341
 10
-2.5663878507
 20
11.0611982871
 10
-2.5665530614
 20
11.0573031011
  0
LWPOLYLINE
  5
27B
100
AcDbEntity
  8
CURVE
100
AcDbPolyline
 62
253
  6
CONTINUOUS
 90
54
 70
0
 10
-2.5867322088
 20
10.2663509934
 10
-2.5867702292
 20
10.2632484114
 10
-2.5867320367
 20
10.2601418885
 10
-2.5866192172
 20
10.2570261067
 10
-2.5864333569
 20
10.2538957483
 10
-2.5861760418
 20
10.2507454953
 10
-2.5858488579
 20
10.2475700299
 10
-2.5854533912
 20
10.2443640344
 10
-2.5849070895
 20
10.2405794602
 10
-2.5842680954
 20
10.2367462602
 10
-2.5835344983
 20
10.2328646019
 10
-2.5827043875
 20
10.2289346527
 10
-2.5817758522
 20
10.2249565801
 10
-2.5807469818
 20
10.2209305516
 10
-2.5796164604
 20
10.2168584291
 10
-2.578385351
 20
10.2127488525
 10
-2.5770553117
 20
10.2086121562
 10
-2.5756280006
 20
10.2044586746
 10
-2.5741050755
 20
10.2002987421
 10
-2.5724881944
 20
10.196142693
 10
-2.5710286733
 20
10.192590706
 10
-2.5695017944
 20
10.1890521696
 10
-2.5679080106
 20
10.1855300883
 10
-2.5662477749
 20
10.1820274671
 10
-2.5645215401
 20
10.1785473106
 10
-2.5627297592
 20
10.1750926235
 10
-2.5608728851
 20
10.1716664106
 10
-2.5589517462
 20
10.1682717155
 10
-2.556968672
 20
10.1649117374
 10
-2.5549263674
 20
10.1615897144
 10
-2.5528275375
 20
10.1583088847
 10
-2.5506748871
 20
10.1550724864
 10
-2.5484711213
 20
10.1518837575
 10
-2.546218945
 20
10.1487459362
 10
-2.5439215113
 20
10.1456624857
 10
-2.5415837661
 20
10.1426377689
 10
-2.5392111036
 20
10.139676374
 10
-2.5368089178
 20
10.1367828892
 10
-2.5343826029
 20
10.1339619024
 10
-2.5319375529
 20
10.1312180018
 10
-2.5294791619
 20
10.1285557754
 10
-2.5266000788
 20
10.1255576329
 10
-2.5237109738
 20
10.122674829
 10
-2.5208126415
 20
10.1199052897
 10
-2.5179058766
 20
10.117246941
 10
-2.5149914736
 20
10.1146977089
 10
-2.5120702272
 20
10.1122555194
 10
-2.5095604841
 20
10.110245835
 10
-2.5070409578
 20
10.1083119396
 10
-2.5045063092
 20
10.1064525026
 10
-2.5019511993
 20
10.1046661933
 10
-2.4993702889
 20
10.102951681
 10
-2.4967582388
 20
10.101307635
 10
-2.4941097099
 20
10.0997327246
  0
LINE
  5
27C
100
AcDbEntity
  8
CURVE
100
AcDbLine
 62
253
  6
CONTINUOUS
 10
-2.6411360911
 20
7.8168190405
 11
-2.656026329
 21
7.0287766463
  0
LINE
  5
27D
100
AcDbEntity
  8
CURVE
100
AcDbLine
 62
253
  6
CONTINUOUS
 10
-2.4654952328
 20
6.9187664
 11
-2.4506049948
 21
7.7068087942
  0
LINE
  5
27E
100
AcDbEntity
  8
ASSI
100
AcDbLine
 62
253
  6
CONTINUOUS
 10
-1.6454842368
 20
1.4327698554
 11
-1.6466706265
 21
1.3852572964
  0
LINE
  5
27F
100
AcDbEntity
  8
CURVE
100
AcDbLine
 62
253
  6
CONTINUOUS
 10
-2.5665530614
 20
11.0573031011
 11
-2.5867322085
 21
10.2663510081
  0
LINE
  5
280
100
AcDbEntity
  8
CURVE
100
AcDbLine
 62
253
  6
CONTINUOUS
 10
-2.396201113
 20
10.1563407266
 11
-2.376021966
 21
10.9472928196
  0
LINE
  5
281
100
AcDbEntity
  8
ASSI
100
AcDbLine
 62
7
  6
CONTINUOUS
 10
-1.6747739213
 20
1.473598087
 11
-1.67746241
 21
1.4018673852
  0
LWPOLYLINE
  5
282
100
AcDbEntity
  8
ASSI
100
AcDbPolyline
 62
253
  6
CONTINUOUS
 90
15
 70
0
 10
-1.6466706265
 20
1.3852572964
 10
-1.6495887761
 20
1.3387959294
 10
-1.6542386993
 20
1.2933857471
 10
-1.6606229837
 20
1.2489109778
 10
-1.6687390458
 20
1.2054873923
 10
-1.6785792488
 20
1.1634622377
 10
-1.6901662927
 20
1.1228511697
 10
-1.7034777145
 20
1.0836383993
 10
-1.7184383375
 20
1.0461238902
 10
-1.735066458
 20
1.0103325153
 10
-1.7533442073
 20
0.9762391597
 10
-1.7731423406
 20
0.9440687037
 10
-1.7944587618
 20
0.9138558712
 10
-1.8172961351
 20
0.8855656161
 10
-1.8415324789
 20
0.859318094
  0
LWPOLYLINE
  5
283
100
AcDbEntity
  8
ASSI
100
AcDbPolyline
 62
7
  6
CONTINUOUS
 90
10
 70
0
 10
-1.67746241
 20
1.4018673852
 10
-1.686420919
 20
1.318929029
 10
-1.7014272503
 20
1.2416606353
 10
-1.7222088059
 20
1.1706132904
 10
-1.7484216636
 20
1.1062764281
 10
-1.779659731
 20
1.0490495415
 10
-1.815391328
 20
0.9993006135
 10
-1.8552721996
 20
0.9569634704
 10
-1.8993564377
 20
0.9217098224
 10
-1.918443205
 20
0.9094136733
  0
LWPOLYLINE
  5
284
100
AcDbEntity
  8
RACCORDO
100
AcDbPolyline
 62
253
  6
CONTINUOUS
 90
38
 70
0
 10
-1.942913656
 20
1.1343454145
 10
-1.8917717769
 20
1.1836914344
 10
-1.8489859929
 20
1.2422320673
 10
-1.8146368089
 20
1.3087719155
 10
-1.7891152898
 20
1.3805456895
 10
-1.7719033541
 20
1.4552609696
 10
-1.7620286429
 20
1.5320769426
 10
-1.7587156263
 20
1.6101744108
 10
-1.7612613823
 20
1.6884744613
 10
-1.7689477296
 20
1.7660621421
 10
-1.78116139
 20
1.8426849109
 10
-1.7973030606
 20
1.9177315776
 10
-1.8167729838
 20
1.9906194879
 10
-1.8391497633
 20
2.0613459056
 10
-1.8639601556
 20
2.1295792269
 10
-1.8907309012
 20
2.1949939282
 10
-1.9191883342
 20
2.2577083685
 10
-1.9489676686
 20
2.3175562212
 10
-1.9797146493
 20
2.3743930993
 10
-2.0112814305
 20
2.4284229804
 10
-2.0434118821
 20
2.4796064968
 10
-2.0758377647
 20
2.5278828973
 10
-2.108471174
 20
2.5734428441
 10
-2.14112119
 20
2.6162993959
 10
-2.173599502
 20
2.6564669732
 10
-2.2058748375
 20
2.6941396204
 10
-2.2378149523
 20
2.7293686424
 10
-2.2692851723
 20
2.7622003068
 10
-2.3002870951
 20
2.7928123409
 10
-2.3307328288
 20
2.8212757134
 10
-2.3605268259
 20
2.8476519008
 10
-2.3896835838
 20
2.8720923373
 10
-2.4181326465
 20
2.894665006
 10
-2.4458218355
 20
2.9154504988
 10
-2.4728096675
 20
2.934603093
 10
-2.4990905945
 20
2.952216698
 10
-2.5245927295
 20
2.9683377575
 10
-2.5492856007
 20
2.983040491
  0
LWPOLYLINE
  5
285
100
AcDbEntity
  8
ASSI
100
AcDbPolyline
 62
253
  6
CONTINUOUS
 90
61
 70
0
 10
-1.8415324789
 20
0.859318094
 10
-1.8671662022
 20
0.8351230611
 10
-1.8941995096
 20
0.8129704128
 10
-1.9225161859
 20
0.7929504727
 10
-1.9521303176
 20
0.7750634458
 10
-1.9830284389
 20
0.7593087744
 10
-2.0150530636
 20
0.7457756046
 10
-2.0482168773
 20
0.7344753034
 10
-2.0825078101
 20
0.7253961535
 10
-2.117731288
 20
0.7185926488
 10
-2.1538887423
 20
0.7140797127
 10
-2.1909793158
 20
0.711842095
 10
-2.2288050219
 20
0.7118890175
 10
-2.2673672273
 20
0.7142318954
 10
-2.3066650535
 20
0.7188590354
 10
-2.3464971419
 20
0.7257449989
 10
-2.3868672728
 20
0.7349008203
 10
-2.4277720374
 20
0.7463152535
 10
-2.4689992734
 20
0.75992945
 10
-2.5105524215
 20
0.7757554224
 10
-2.5524282738
 20
0.7937810254
 10
-2.5944046625
 20
0.8139111918
 10
-2.6364818056
 20
0.83615708
 10
-2.6786595646
 20
0.8605074863
 10
-2.7207151998
 20
0.8868338221
 10
-2.7626484242
 20
0.9151470532
 10
-2.8044594456
 20
0.945436259
 10
-2.8459262279
 20
0.9775400424
 10
-2.8870452663
 20
1.0114666969
 10
-2.9278198329
 20
1.0472080616
 10
-2.9680380255
 20
1.0845780766
 10
-3.007695916
 20
1.1235837292
 10
-3.0467970611
 20
1.1642182438
 10
-3.0851407644
 20
1.2062749274
 10
-3.1227254643
 20
1.2497639503
 10
-3.1595522345
 20
1.2946754203
 10
-3.1954243273
 20
1.340772554
 10
-3.2303403145
 20
1.3880693277
 10
-3.2643010501
 20
1.4365520919
 10
-3.2971132306
 20
1.4859426124
 10
-3.3287643979
 20
1.5362388461
 10
-3.3592663941
 20
1.5874431866
 10
-3.3884624104
 20
1.639284029
 10
-3.4163382201
 20
1.6917459067
 10
-3.4429074296
 20
1.7448446388
 10
-3.4680550375
 20
1.7983555162
 10
-3.4917820674
 20
1.8522895779
 10
-3.5140868831
 20
1.9066361326
 10
-3.5348505658
 20
1.9611378347
 10
-3.5540750098
 20
2.0158319889
 10
-3.5717577525
 20
2.0706816126
 10
-3.5877734616
 20
2.125317859
 10
-3.6021041504
 20
2.1797460001
 10
-3.6147673757
 20
2.233961007
 10
-3.6256912996
 20
2.2875784799
 10
-3.6348532215
 20
2.3405889238
 10
-3.6422756026
 20
2.3930019685
 10
-3.6479545525
 20
2.444461784
 10
-3.6518888123
 20
2.4948497386
 10
-3.6540796359
 20
2.5442844657
 10
-3.6545270089
 20
2.5927659727
  0
LWPOLYLINE
  5
286
100
AcDbEntity
  8
RACCORDO
100
AcDbPolyline
 62
253
  6
CONTINUOUS
 90
5
 70
0
 10
-1.8842900496
 20
1.0606780738
 10
-1.8257162638
 20
1.0998706569
 10
-1.7705123819
 20
1.1531364416
 10
-1.7243276014
 20
1.2163263659
 10
-1.6955037819
 20
1.2721608872
  0
LINE
  5
287
100
AcDbEntity
  8
ASSI
100
AcDbLine
 62
7
  6
CONTINUOUS
 10
-1.9176383443
 20
0.9098999772
 11
-1.9184539826
 21
0.9094066843
  0
LWPOLYLINE
  5
288
100
AcDbEntity
  8
ASSI
100
AcDbPolyline
 62
253
  6
CONTINUOUS
 90
58
 70
0
 10
-1.9184539826
 20
0.9094066843
 10
-1.932191761
 20
0.9014475065
 10
-1.9608963359
 20
0.8868186535
 10
-1.9906997723
 20
0.8742330615
 10
-2.0215562253
 20
0.8637134202
 10
-2.0534081134
 20
0.8552825295
 10
-2.0861853484
 20
0.8489598048
 10
-2.1198255823
 20
0.8447560704
 10
-2.1542740045
 20
0.8426769584
 10
-2.1894680815
 20
0.8427252591
 10
-2.2253433289
 20
0.8448995826
 10
-2.2618388896
 20
0.8491949528
 10
-2.298896039
 20
0.8556037527
 10
-2.3364507434
 20
0.8641148143
 10
-2.3744361515
 20
0.8747129152
 10
-2.4127883261
 20
0.8873801789
 10
-2.4514415196
 20
0.9020952511
 10
-2.490326375
 20
0.9188321283
 10
-2.5293727469
 20
0.937560704
 10
-2.5685116436
 20
0.9582478609
 10
-2.6076745992
 20
0.9808574454
 10
-2.6467919478
 20
1.005349242
 10
-2.6857952805
 20
1.0316803946
 10
-2.7246155456
 20
1.0598043327
 10
-2.7631824207
 20
1.0896700621
 10
-2.8014266109
 20
1.1212235471
 10
-2.8392823011
 20
1.1544101815
 10
-2.8766851882
 20
1.1891737499
 10
-2.9135683778
 20
1.2254522078
 10
-2.9498678894
 20
1.2631828202
 10
-2.98552478
 20
1.302305287
 10
-3.0204780558
 20
1.3427541586
 10
-3.0546633812
 20
1.3844565024
 10
-3.0880184029
 20
1.4273377005
 10
-3.1204882745
 20
1.4713289452
 10
-3.1520106213
 20
1.5163473762
 10
-3.1825155121
 20
1.5622928299
 10
-3.2119455644
 20
1.6090764893
 10
-3.2402546235
 20
1.6566223113
 10
-3.2673938762
 20
1.7048459463
 10
-3.2933079136
 20
1.753645573
 10
-3.3179616764
 20
1.8029514875
 10
-3.3413363299
 20
1.8527276449
 10
-3.3633914572
 20
1.9028963312
 10
-3.3840811446
 20
1.9533617322
 10
-3.4033756185
 20
2.0040610007
 10
-3.4212464471
 20
2.0549386418
 10
-3.4376434713
 20
2.105871891
 10
-3.452512228
 20
2.1566964179
 10
-3.4658289046
 20
2.207330358
 10
-3.477568492
 20
2.257676601
 10
-3.4876944282
 20
2.3075507771
 10
-3.4961984984
 20
2.3568672255
 10
-3.503076123
 20
2.4055437317
 10
-3.5083187113
 20
2.4534090985
 10
-3.5119350926
 20
2.5003591318
 10
-3.5139414084
 20
2.5463531076
 10
-3.5143533587
 20
2.5913230291
  0
LINE
  5
289
100
AcDbEntity
  8
DRAFT
100
AcDbLine
 62
7
  6
CONTINUOUS
 10
-1.7331871236
 20
1.1436680972
 11
-1.8842900562
 21
1.0606780702
  0
LWPOLYLINE
  5
28A
100
AcDbEntity
  8
ASSI
100
AcDbPolyline
 62
7
  6
CONTINUOUS
 90
13
 70
0
 10
4.8312482911
 20
-5.7744767443
 10
4.8745371707
 20
-5.79675048
 10
4.9245239325
 20
-5.8167096268
 10
4.9765604569
 20
-5.8321614134
 10
5.0303163331
 20
-5.8432782842
 10
5.0853318696
 20
-5.8501080543
 10
5.1408309703
 20
-5.8526451318
 10
5.1963566435
 20
-5.8509107904
 10
5.2514532687
 20
-5.8448781626
 10
5.3053464613
 20
-5.8345424084
 10
5.3575782338
 20
-5.8198498704
 10
5.4078227048
 20
-5.8006235378
 10
5.4479609704
 20
-5.780893014
  0
LWPOLYLINE
  5
28B
100
AcDbEntity
  8
ASSI
100
AcDbPolyline
 62
253
  6
CONTINUOUS
 90
7
 70
0
 10
4.789858702
 20
-5.6828288603
 10
4.8086328468
 20
-5.6931253784
 10
4.82830333
 20
-5.7028523667
 10
4.8488172524
 20
-5.7119838818
 10
4.8701184995
 20
-5.7204952927
 10
4.8921507421
 20
-5.7283643214
 10
4.9148579059
 20
-5.7355708076
  0
LINE
  5
28C
100
AcDbEntity
  8
ASSI
100
AcDbLine
 62
253
  6
CONTINUOUS
 10
4.7898587002
 20
-6.2655827242
 11
-10.1183396965
 21
2.3422241865
  0
LINE
  5
28D
100
AcDbEntity
  8
ASSI
100
AcDbLine
 62
253
  6
CONTINUOUS
 10
4.9300575507
 20
-6.0212427266
 11
-9.978164142
 21
2.5865776348
  0
LINE
  5
28E
100
AcDbEntity
  8
ASSI
100
AcDbLine
 62
7
  6
CONTINUOUS
 10
-10.0769348564
 20
2.8333208243
 11
4.8312868371
 21
-5.7744995376
  0
LINE
  5
28F
100
AcDbEntity
  8
ASSI
100
AcDbLine
 62
253
  6
CONTINUOUS
 10
-10.1183396966
 20
2.9249780434
 11
4.7898587001
 21
-5.6828288672
  0
LWPOLYLINE
  5
290
100
AcDbEntity
  8
ASSI
100
AcDbPolyline
 62
253
  6
CONTINUOUS
 90
17
 70
0
 10
-10.1183396946
 20
2.3422241818
 10
-10.1361671219
 20
2.3530673227
 10
-10.1529978196
 20
2.3644339676
 10
-10.1687868622
 20
2.376293569
 10
-10.1834914966
 20
2.3886137815
 10
-10.1970732579
 20
2.4013620121
 10
-10.2094975625
 20
2.4145056923
 10
-10.2207316537
 20
2.4280108073
 10
-10.2307441946
 20
2.4418403124
 10
-10.2395073612
 20
2.4559557338
 10
-10.2469974659
 20
2.4703188183
 10
-10.2531948538
 20
2.4848916716
 10
-10.2580830884
 20
2.4996353209
 10
-10.2616490662
 20
2.5145105981
 10
-10.2638831341
 20
2.529477596
 10
-10.2647792684
 20
2.5444957336
 10
-10.2647981372
 20
2.5467764438
  0
LWPOLYLINE
  5
291
100
AcDbEntity
  8
ASSI
100
AcDbPolyline
 62
253
  6
CONTINUOUS
 90
19
 70
0
 10
-9.978164142
 20
2.5865776348
 10
-9.9888939986
 20
2.5931103086
 10
-9.9989772799
 20
2.5999228513
 10
-10.0084139859
 20
2.6070152629
 10
-10.0172264123
 20
2.6144082011
 10
-10.0253922634
 20
2.6220810083
 10
-10.0328446517
 20
2.6299717117
 10
-10.0395775837
 20
2.6380820586
 10
-10.045597053
 20
2.6464103017
 10
-10.0508541527
 20
2.6548892268
 10
-10.0553425114
 20
2.6635198017
 10
-10.0590685006
 20
2.6723010585
 10
-10.062002328
 20
2.6811628786
 10
-10.0641376786
 20
2.6901060475
 10
-10.0654808674
 20
2.6991297797
 10
-10.0660210466
 20
2.7081615998
 10
-10.0657517037
 20
2.7172015454
 10
-10.0646793511
 20
2.726249579
 10
-10.0628126783
 20
2.7352331124
  0
LINE
  5
292
100
AcDbEntity
  8
ASSI
100
AcDbLine
 62
253
  6
CONTINUOUS
 10
-1.6481279471
 20
1.5306924263
 11
-1.6459395273
 21
1.4812521888
  0
LINE
  5
293
100
AcDbEntity
  8
ASSI
100
AcDbLine
 62
253
  6
CONTINUOUS
 10
-1.6454842368
 20
-5.9169325762
 11
-1.6459385169
 21
-5.9639985361
  0
LINE
  5
294
100
AcDbEntity
  8
ASSI
100
AcDbLine
 62
7
  6
CONTINUOUS
 10
-1.6747734581
 20
-5.876169111
 11
-1.676336968
 21
-5.9469647999
  0
LWPOLYLINE
  5
295
100
AcDbEntity
  8
ASSI
100
AcDbPolyline
 62
253
  6
CONTINUOUS
 90
14
 70
0
 10
-1.6459385169
 20
-5.9639985361
 10
-1.6481246181
 20
-6.0100135686
 10
-1.6520425543
 20
-6.0549776812
 10
-1.6576931243
 20
-6.0990055296
 10
-1.6650755337
 20
-6.1419824594
 10
-1.6741875122
 20
-6.1835645747
 10
-1.6850517857
 20
-6.2237362509
 10
-1.6976458654
 20
-6.2625132509
 10
-1.7118998641
 20
-6.2995988807
 10
-1.7278322931
 20
-6.3349684233
 10
-1.7454250688
 20
-6.3686468465
 10
-1.7645535913
 20
-6.4004120892
 10
-1.7852163343
 20
-6.4302297874
 10
-1.8074153922
 20
-6.458134639
  0
LWPOLYLINE
  5
296
100
AcDbEntity
  8
ASSI
100
AcDbPolyline
 62
7
  6
CONTINUOUS
 90
10
 70
0
 10
-1.676336968
 20
-5.9469647999
 10
-1.6839049447
 20
-6.0287948071
 10
-1.6975017361
 20
-6.1049354339
 10
-1.7168530452
 20
-6.1748487237
 10
-1.7416115009
 20
-6.2380577983
 10
-1.7713643639
 20
-6.2941761578
 10
-1.8055648854
 20
-6.342845729
 10
-1.8438722256
 20
-6.3841815679
 10
-1.8863831351
 20
-6.4185777224
 10
-1.9060224467
 20
-6.4312885211
  0
LWPOLYLINE
  5
297
100
AcDbEntity
  8
RACCORDO
100
AcDbPolyline
 62
7
  6
CONTINUOUS
 90
9
 70
0
 10
-2.4494914271
 20
1.07876253
 10
-2.3706927637
 20
1.0458823291
 10
-2.2931000791
 20
1.0218611162
 10
-2.2169810472
 20
1.0067102286
 10
-2.1430006744
 20
1.0005118939
 10
-2.0722303274
 20
1.0031791788
 10
-2.0053255931
 20
1.0143630422
 10
-1.9425348122
 20
1.0336810744
 10
-1.884289982
 20
1.0606781109
  0
LINE
  5
298
100
AcDbEntity
  8
RACCORDO
100
AcDbLine
 62
253
  6
CONTINUOUS
 10
-2.5492856007
 20
1.1573343536
 11
-2.463226503
 21
1.1130662582
  0
LINE
  5
299
100
AcDbEntity
  8
RACCORDO
100
AcDbLine
 62
7
  6
CONTINUOUS
 10
-2.5290206746
 20
1.1204332138
 11
-2.4494914271
 21
1.07876253
  0
LINE
  5
29A
100
AcDbEntity
  8
RACCORDO
100
AcDbLine
 62
7
  6
CONTINUOUS
 10
-2.6257447409
 20
1.1826281077
 11
-2.5290206746
 21
1.1204332138
  0
LWPOLYLINE
  5
29B
100
AcDbEntity
  8
RACCORDO
100
AcDbPolyline
 62
253
  6
CONTINUOUS
 90
4
 70
0
 10
-2.6257615538
 20
1.2057717401
 10
-2.5994806137
 20
1.1881581427
 10
-2.573978472
 20
1.1720370871
 10
-2.5492856007
 20
1.1573343536
  0
LWPOLYLINE
  5
29C
100
AcDbEntity
  8
RACCORDO
100
AcDbPolyline
 62
7
  6
CONTINUOUS
 90
21
 70
0
 10
-3.091108777
 20
-4.1974175324
 10
-3.1563160221
 20
-4.2450302181
 10
-3.214192798
 20
-4.3046042127
 10
-3.2636842888
 20
-4.3757141453
 10
-3.3040558188
 20
-4.4582633862
 10
-3.3342602644
 20
-4.5513251505
 10
-3.3534293973
 20
-4.6527522355
 10
-3.361433092
 20
-4.7613778321
 10
-3.3582295181
 20
-4.8762960371
 10
-3.3440025316
 20
-4.995076569
 10
-3.3192657424
 20
-5.1158602996
 10
-3.2844453746
 20
-5.2377433411
 10
-3.2400674024
 20
-5.3593693799
 10
-3.1867764109
 20
-5.4792797636
 10
-3.1252404782
 20
-5.5961666738
 10
-3.0561233567
 20
-5.7088371164
 10
-2.9802107795
 20
-5.8159917539
 10
-2.8983718221
 20
-5.9163486029
 10
-2.8114153467
 20
-6.0088071189
 10
-2.7202111657
 20
-6.0922654102
 10
-2.6257447409
 20
-6.1656043834
  0
LWPOLYLINE
  5
29D
100
AcDbEntity
  8
RACCORDO
100
AcDbPolyline
 62
253
  6
CONTINUOUS
 90
8
 70
0
 10
-2.463226503
 20
1.1130662582
 10
-2.3781922815
 20
1.080175281
 10
-2.2951937914
 20
1.059051561
 10
-2.21523409
 20
1.0499467465
 10
-2.1392453769
 20
1.0529615501
 10
-2.0680861883
 20
1.0680696209
 10
-2.0022190901
 20
1.0953185825
 10
-1.942913656
 20
1.1343454145
  0
LINE
  5
29E
100
AcDbEntity
  8
RACCORDO
100
AcDbLine
 62
253
  6
CONTINUOUS
 10
-2.5492856007
 20
2.983040491
 11
-2.6353440041
 21
3.0273089873
  0
LINE
  5
29F
100
AcDbEntity
  8
ASSI
100
AcDbLine
 62
253
  6
CONTINUOUS
 10
-2.6185053442
 20
3.1663130757
 11
-2.5764695668
 21
3.1399876303
  0
LWPOLYLINE
  5
2A0
100
AcDbEntity
  8
ASSI
100
AcDbPolyline
 62
253
  6
CONTINUOUS
 90
35
 70
0
 10
-2.5764695668
 20
3.1399876303
 10
-2.5345660872
 20
3.1116704274
 10
-2.4927945403
 20
3.0813724617
 10
-2.4513764429
 20
3.0492551403
 10
-2.4103151316
 20
3.015310268
 10
-2.3696070375
 20
2.9795461709
 10
-2.329463287
 20
2.9421490561
 10
-2.2898874892
 20
2.90311211
 10
-2.2508756641
 20
2.8624423554
 10
-2.2126275338
 20
2.8203467647
 10
-2.1751442276
 20
2.7768154005
 10
-2.1384241286
 20
2.7318584753
 10
-2.1026628364
 20
2.6857131888
 10
-2.0678612725
 20
2.6383658405
 10
-2.0340179416
 20
2.5898304549
 10
-2.0013248379
 20
2.5403858071
 10
-1.9697938276
 20
2.4900342636
 10
-1.9394124289
 20
2.4387738058
 10
-1.9103361586
 20
2.3868766058
 10
-1.8825785958
 20
2.3343584589
 10
-1.8561255414
 20
2.2812039204
 10
-1.8310909022
 20
2.2276382701
 10
-1.8074730801
 20
2.1736507811
 10
-1.7852730607
 20
2.119252527
 10
-1.7646086987
 20
2.0647014473
 10
-1.7454776313
 20
2.0099605462
 10
-1.7278816531
 20
1.9550671415
 10
-1.7119449761
 20
1.9003905745
 10
-1.6976851785
 20
1.8459258094
 10
-1.6850842524
 20
1.7916781262
 10
-1.6742132087
 20
1.7380322382
 10
-1.6650944977
 20
1.6849977601
 10
-1.6577054295
 20
1.6325652141
 10
-1.6520495105
 20
1.5810905588
 10
-1.6481279471
 20
1.5306924263
  0
LWPOLYLINE
  5
2A1
100
AcDbEntity
  8
ASSI
100
AcDbPolyline
 62
253
  6
CONTINUOUS
 90
62
 70
0
 10
-1.8074153922
 20
-6.458134639
 10
-1.8310317194
 20
-6.4840082485
 10
-1.8560638957
 20
-6.5078409534
 10
-1.8825139548
 20
-6.5296427771
 10
-1.9102681052
 20
-6.5493248965
 10
-1.9393403019
 20
-6.5668870308
 10
-1.9697172101
 20
-6.5823298261
 10
-2.0012441611
 20
-6.5955658835
 10
-2.0339338989
 20
-6.6065838858
 10
-2.0677742947
 20
-6.6153955131
 10
-2.1025734156
 20
-6.6219478891
 10
-2.1383329049
 20
-6.626226235
 10
-2.175051693
 20
-6.6282456682
 10
-2.212533798
 20
-6.627998169
 10
-2.2507807416
 20
-6.6254724374
 10
-2.2897914899
 20
-6.6206800614
 10
-2.3293662241
 20
-6.613647351
 10
-2.369508851
 20
-6.6043633738
 10
-2.4102158349
 20
-6.5928392815
 10
-2.4512761723
 20
-6.5791344975
 10
-2.4926934512
 20
-6.5632371236
 10
-2.534464316
 20
-6.5451591954
 10
-2.5763673164
 20
-6.5249960181
 10
-2.6184028397
 20
-6.502736553
 10
-2.6605705778
 20
-6.4783918856
 10
-2.7026479991
 20
-6.4520904849
 10
-2.7446349905
 20
-6.4238215007
 10
-2.7865315859
 20
-6.3935957365
 10
-2.8281154357
 20
-6.3615741184
 10
-2.8693832032
 20
-6.3277484513
 10
-2.9103379926
 20
-6.292126793
 10
-2.9507670841
 20
-6.2548944304
 10
-2.9906667035
 20
-6.216044455
 10
-3.030040254
 20
-6.175583556
 10
-3.0686857597
 20
-6.1337174049
 10
-3.1066018408
 20
-6.0904359195
 10
-3.1437893895
 20
-6.045748894
 10
-3.1800498345
 20
-5.9998918119
 10
-3.2153819832
 20
-5.9528508168
 10
-3.2497864544
 20
-5.9046394265
 10
-3.2830674129
 20
-5.8555341986
 10
-3.3152124848
 20
-5.8055372067
 10
-3.3462334285
 20
-5.7546460141
 10
-3.3759706525
 20
-5.7031304405
 10
-3.4044098271
 20
-5.6510058477
 10
-3.431564662
 20
-5.5982565085
 10
-3.4573176831
 20
-5.5451056428
 10
-3.4816700709
 20
-5.4915422829
 10
-3.5046200325
 20
-5.4375770361
 10
-3.5260457051
 20
-5.3834655275
 10
-3.5459495294
 20
-5.3291708066
 10
-3.5643284967
 20
-5.27472949
 10
-3.5810526925
 20
-5.2205076264
 10
-3.596104378
 20
-5.1665000875
 10
-3.6095008623
 20
-5.1127117496
 10
-3.6211649804
 20
-5.0595237728
 10
-3.6310741015
 20
-5.0069456676
 10
-3.6392506167
 20
-4.9549677837
 10
-3.6456850996
 20
-4.9039426614
 10
-3.6503744454
 20
-4.8539878368
 10
-3.6533217533
 20
-4.8049857719
 10
-3.6545270089
 20
-4.7569364589
  0
LWPOLYLINE
  5
2A2
100
AcDbEntity
  8
RACCORDO
100
AcDbPolyline
 62
253
  6
CONTINUOUS
 90
38
 70
0
 10
-1.942913656
 20
-6.2138870766
 10
-1.8917717769
 20
-6.1645410567
 10
-1.8489859929
 20
-6.1060004238
 10
-1.8146368089
 20
-6.0394605756
 10
-1.7891152898
 20
-5.9676868017
 10
-1.7719033541
 20
-5.8929715216
 10
-1.7620286429
 20
-5.8161555486
 10
-1.7587156263
 20
-5.7380580803
 10
-1.7612613823
 20
-5.6597580299
 10
-1.7689477296
 20
-5.582170349
 10
-1.78116139
 20
-5.5055475802
 10
-1.7973030606
 20
-5.4305009136
 10
-1.8167729838
 20
-5.3576130033
 10
-1.8391497633
 20
-5.2868865856
 10
-1.8639601556
 20
-5.2186532642
 10
-1.8907309012
 20
-5.153238563
 10
-1.9191883342
 20
-5.0905241227
 10
-1.9489676686
 20
-5.03067627
 10
-1.9797146493
 20
-4.9738393919
 10
-2.0112814305
 20
-4.9198095107
 10
-2.0434118821
 20
-4.8686259944
 10
-2.0758377647
 20
-4.8203495939
 10
-2.108471174
 20
-4.774789647
 10
-2.14112119
 20
-4.7319330953
 10
-2.173599502
 20
-4.691765518
 10
-2.2058748375
 20
-4.6540928707
 10
-2.2378149523
 20
-4.6188638487
 10
-2.2692851723
 20
-4.5860321843
 10
-2.3002870951
 20
-4.5554201503
 10
-2.3307328288
 20
-4.5269567777
 10
-2.3605268259
 20
-4.5005805903
 10
-2.3896835838
 20
-4.4761401538
 10
-2.4181326465
 20
-4.4535674852
 10
-2.4458218355
 20
-4.4327819923
 10
-2.4728096675
 20
-4.4136293982
 10
-2.4990905945
 20
-4.3960157932
 10
-2.5245927295
 20
-4.3798947337
 10
-2.5492856007
 20
-4.3651920001
  0
LINE
  5
2A3
100
AcDbEntity
  8
DRAFT
100
AcDbLine
 62
7
  6
CONTINUOUS
 10
-2.9465505519
 20
-4.1097790526
 11
-3.0911088682
 21
-4.1974175877
  0
LINE
  5
2A4
100
AcDbEntity
  8
ASSI
100
AcDbLine
 62
7
  6
CONTINUOUS
 10
-3.2387681121
 20
-4.15113971
 11
-3.2384873832
 21
-4.1509853908
  0
LWPOLYLINE
  5
2A5
100
AcDbEntity
  8
ASSI
100
AcDbPolyline
 62
7
  6
CONTINUOUS
 90
26
 70
0
 10
-3.2387736493
 20
-4.151143679
 10
-3.2218336755
 20
-4.1423841421
 10
-3.1610683149
 20
-4.1191717319
 10
-3.0944237361
 20
-4.105786361
 10
-3.0225023512
 20
-4.1026034686
 10
-2.9458438801
 20
-4.1098458157
 10
-2.8653769569
 20
-4.1275882411
 10
-2.7819868094
 20
-4.1557441127
 10
-2.6963180601
 20
-4.1942230787
 10
-2.6092895294
 20
-4.2427570886
 10
-2.5218888585
 20
-4.3009014446
 10
-2.4347048966
 20
-4.3683875902
 10
-2.3484992967
 20
-4.4448045412
 10
-2.2643067899
 20
-4.5293939916
 10
-2.1830141016
 20
-4.6213748049
 10
-2.1054254542
 20
-4.7199295687
 10
-2.0323343121
 20
-4.8241295192
 10
-1.9645077837
 20
-4.9329303318
 10
-1.9025959739
 20
-5.0453123229
 10
-1.8472065631
 20
-5.1601780733
 10
-1.7989151236
 20
-5.2762877408
 10
-1.7581360102
 20
-5.3925396749
 10
-1.7252231906
 20
-5.5077655183
 10
-1.700474924
 20
-5.6205779259
 10
-1.6840044097
 20
-5.7297815765
 10
-1.6757843723
 20
-5.8344357291
  0
LWPOLYLINE
  5
2A6
100
AcDbEntity
  8
RACCORDO
100
AcDbPolyline
 62
253
  6
CONTINUOUS
 90
6
 70
0
 10
-2.7655591426
 20
3.2027447488
 10
-2.8408346443
 20
3.2113179093
 10
-2.9228607066
 20
3.2080674695
 10
-2.9996736103
 20
3.1917621704
 10
-3.0707728429
 20
3.1623492607
 10
-3.0911088403
 20
3.1508149203
  0
LWPOLYLINE
  5
2A7
100
AcDbEntity
  8
RACCORDO
100
AcDbPolyline
 62
253
  6
CONTINUOUS
 90
42
 70
0
 10
-2.6353440041
 20
3.0273089873
 10
-2.7203778307
 20
3.0602001926
 10
-2.8033762249
 20
3.0813239679
 10
-2.8833362874
 20
3.0904285738
 10
-2.9593256608
 20
3.087413389
 10
-3.0304853356
 20
3.0723050375
 10
-3.0963525126
 20
3.0450560304
 10
-3.1556578516
 20
3.0060292533
 10
-3.206799688
 20
2.956683258
 10
-3.2495855894
 20
2.8981425573
 10
-3.2839349434
 20
2.831602611
 10
-3.3094565893
 20
2.7598287639
 10
-3.3266685618
 20
2.6851134625
 10
-3.3365432666
 20
2.6082974932
 10
-3.3398562774
 20
2.5302000282
 10
-3.3373105373
 20
2.4518999686
 10
-3.3296242067
 20
2.3743122782
 10
-3.3174105449
 20
2.2976895102
 10
-3.301268842
 20
2.2226428622
 10
-3.2817988685
 20
2.149754981
 10
-3.2594220406
 20
2.0790285912
 10
-3.2346116097
 20
2.0107952921
 10
-3.2078408275
 20
1.945380612
 10
-3.1793833566
 20
1.8826661936
 10
-3.1496039802
 20
1.8228183651
 10
-3.1188569563
 20
1.765981512
 10
-3.0872901352
 20
1.7119516539
 10
-3.0551596492
 20
1.6607681574
 10
-3.0227337355
 20
1.6124917748
 10
-2.9901002967
 20
1.566931845
 10
-2.9574502525
 20
1.5240753096
 10
-2.9249719139
 20
1.4839077476
 10
-2.892696553
 20
1.446235115
 10
-2.8607564127
 20
1.4110061078
 10
-2.8292861684
 20
1.3781744574
 10
-2.7982842264
 20
1.3475624344
 10
-2.767838484
 20
1.3190990669
 10
-2.7380444834
 20
1.2927228815
 10
-2.7088877158
 20
1.2682824506
 10
-2.680438629
 20
1.2457097959
 10
-2.6527494096
 20
1.2249243205
 10
-2.6257615538
 20
1.2057717401
  0
LINE
  5
2A8
100
AcDbEntity
  8
ASSI
100
AcDbLine
 62
7
  6
CONTINUOUS
 10
9.7284748299
 20
-3.4365723256
 11
9.8161041325
 21
-3.4871683867
  0
LWPOLYLINE
  5
2A9
100
AcDbEntity
  8
CURVE
100
AcDbPolyline
 62
253
  6
CONTINUOUS
 90
37
 70
0
 10
-1.4011712773
 20
6.819834567
 10
-1.3997229531
 20
6.8173035615
 10
-1.398249031
 20
6.814809469
 10
-1.3967482269
 20
6.8123484961
 10
-1.3952192564
 20
6.809916849
 10
-1.3936608356
 20
6.8075107343
 10
-1.3920716802
 20
6.8051263583
 10
-1.3904507741
 20
6.8027606632
 10
-1.3887981741
 20
6.8004135341
 10
-1.3871142048
 20
6.7980855918
 10
-1.3853991908
 20
6.7957774573
 10
-1.3836534571
 20
6.7934897513
 10
-1.3818773282
 20
6.7912230946
 10
-1.3800713976
 20
6.7889784194
 10
-1.3782373341
 20
6.7867579022
 10
-1.3763770748
 20
6.7845640308
 10
-1.3744925572
 20
6.7823992932
 10
-1.3725857186
 20
6.7802661772
 10
-1.3706584963
 20
6.7781671705
 10
-1.3687128549
 20
6.7761046924
 10
-1.366750867
 20
6.7740808881
 10
-1.3647746324
 20
6.7720978341
 10
-1.3627862508
 20
6.7701576068
 10
-1.360787822
 20
6.7682622828
 10
-1.3587814458
 20
6.7664139386
 10
-1.3567689527
 20
6.7646143844
 10
-1.3547510964
 20
6.7628643652
 10
-1.3527283611
 20
6.7611643595
 10
-1.3507012313
 20
6.7595148459
 10
-1.3486701914
 20
6.7579163031
 10
-1.3466357256
 20
6.7563692096
 10
-1.3445977851
 20
6.754873924
 10
-1.342554187
 20
6.7534303248
 10
-1.3405022151
 20
6.7520381703
 10
-1.3384391531
 20
6.750697219
 10
-1.336362285
 20
6.7494072294
 10
-1.3342688944
 20
6.7481679597
  0
LWPOLYLINE
  5
2AA
100
AcDbEntity
  8
CURVE
100
AcDbPolyline
 62
253
  6
CONTINUOUS
 90
84
 70
0
 10
-3.6345943452
 20
11.1542326117
 10
-3.6370153331
 20
11.1584676826
 10
-3.6394847091
 20
11.1625693704
 10
-3.6420086042
 20
11.1665543175
 10
-3.6445931495
 20
11.1704391665
 10
-3.6472444762
 20
11.17424056
 10
-3.6499687152
 20
11.1779751404
 10
-3.6527711545
 20
11.1816562202
 10
-3.6556537089
 20
11.1852837905
 10
-3.6586174501
 20
11.1888545125
 10
-3.6616634498
 20
11.1923650473
 10
-3.6647927798
 20
11.195812056
 10
-3.6680065116
 20
11.1991921995
 10
-3.671303933
 20
11.2025004566
 10
-3.6746771948
 20
11.2057250759
 10
-3.678116664
 20
11.2088526235
 10
-3.6816127074
 20
11.2118696656
 10
-3.6851556921
 20
11.2147627683
 10
-3.6887359847
 20
11.2175184977
 10
-3.6923445976
 20
11.2201249043
 10
-3.6959751242
 20
11.2225759749
 10
-3.6996218031
 20
11.2248671807
 10
-3.7032788731
 20
11.2269939929
 10
-3.7069405729
 20
11.2289518824
 10
-3.7106011412
 20
11.2307363205
 10
-3.7142549135
 20
11.2323434913
 10
-3.7178966121
 20
11.2337724307
 10
-3.7215210563
 20
11.2350228874
 10
-3.7251230652
 20
11.2360946105
 10
-3.728697458
 20
11.2369873488
 10
-3.7322390539
 20
11.2377008511
 10
-3.7357426432
 20
11.2382347288
 10
-3.7392029013
 20
11.2385880431
 10
-3.7426144746
 20
11.2387597175
 10
-3.7459720099
 20
11.2387486757
 10
-3.7492701536
 20
11.2385538412
 10
-3.7525035522
 20
11.2381741378
 10
-3.7556667688
 20
11.2376086425
 10
-3.7587540324
 20
11.2368570473
 10
-3.7617594882
 20
11.2359191974
 10
-3.7646772818
 20
11.2347949383
 10
-3.7675015585
 20
11.2334841153
 10
-3.7702264637
 20
11.2319865739
 10
-3.7728467272
 20
11.2303029904
 10
-3.7753594157
 20
11.2284373649
 10
-3.7777621804
 20
11.2263945287
 10
-3.7800526726
 20
11.2241793128
 10
-3.7822285433
 20
11.2217965485
 10
-3.7842874438
 20
11.219251067
 10
-3.7862269825
 20
11.2165478293
 10
-3.7880445974
 20
11.2136923174
 10
-3.7897376839
 20
11.2106901429
 10
-3.7913036372
 20
11.2075469176
 10
-3.7927398526
 20
11.2042682535
 10
-3.7940437255
 20
11.2008597621
 10
-3.7952127535
 20
11.197327253
 10
-3.7962448432
 20
11.193677326
 10
-3.7971380034
 20
11.1899167787
 10
-3.7978902431
 20
11.1860524084
 10
-3.7984995712
 20
11.1820910127
 10
-3.7989639967
 20
11.1780393891
 10
-3.7992821964
 20
11.1739042798
 10
-3.7994555196
 20
11.1696922062
 10
-3.7994859836
 20
11.1654096341
 10
-3.7993756056
 20
11.1610630298
 10
-3.799126403
 20
11.1566588592
 10
-3.7987403931
 20
11.1522035884
 10
-3.7982203137
 20
11.1477051049
 10
-3.7975717855
 20
11.1431769825
 10
-3.7968011498
 20
11.1386342162
 10
-3.7959147479
 20
11.1340918013
 10
-3.794918921
 20
11.1295647328
 10
-3.7938200104
 20
11.1250680059
 10
-3.7923733545
 20
11.1197289333
 10
-3.7907934203
 20
11.1144560705
 10
-3.7890862383
 20
11.1092503421
 10
-3.7872578392
 20
11.1041126729
 10
-3.7853142538
 20
11.0990439876
 10
-3.7836086903
 20
11.0948710637
 10
-3.7818171925
 20
11.0907329258
 10
-3.7799296287
 20
11.0866158126
 10
-3.7779358673
 20
11.0825059623
 10
-3.7758257763
 20
11.0783896134
 10
-3.7735892243
 20
11.0742530044
  0
LWPOLYLINE
  5
2AB
100
AcDbEntity
  8
CURVE
100
AcDbPolyline
 62
253
  6
CONTINUOUS
 90
84
 70
0
 10
-1.7292937822
 20
7.7322299258
 10
-1.7316958887
 20
7.7364513188
 10
-1.7341475662
 20
7.7405390198
 10
-1.7366548717
 20
7.7445099027
 10
-1.7392238618
 20
7.7483808415
 10
-1.7418605933
 20
7.7521687104
 10
-1.744571123
 20
7.7558903831
 10
-1.7473606541
 20
7.7595593566
 10
-1.7502309755
 20
7.7631756182
 10
-1.7531830224
 20
7.7667357783
 10
-1.7562177302
 20
7.7702364471
 10
-1.7593360342
 20
7.7736742348
 10
-1.7625388697
 20
7.7770457517
 10
-1.7658254042
 20
7.7803459445
 10
-1.7691877348
 20
7.7835631059
 10
-1.7726161906
 20
7.7866838649
 10
-1.7761011007
 20
7.7896948506
 10
-1.7796327944
 20
7.7925826923
 10
-1.7832016009
 20
7.795334019
 10
-1.7867985078
 20
7.797936911
 10
-1.7904171359
 20
7.8003852534
 10
-1.7940517646
 20
7.8026743825
 10
-1.7976966732
 20
7.8047996346
 10
-1.801346141
 20
7.8067563459
 10
-1.8049944472
 20
7.8085398528
 10
-1.8086359651
 20
7.8101462342
 10
-1.8122654436
 20
7.8115745402
 10
-1.8158777256
 20
7.8128245635
 10
-1.8194676538
 20
7.8138960968
 10
-1.823030071
 20
7.8147889329
 10
-1.8265598201
 20
7.8155028647
 10
-1.8300517269
 20
7.8160375635
 10
-1.8335005494
 20
7.816392216
 10
-1.8369010283
 20
7.8165658877
 10
-1.8402479045
 20
7.8165576441
 10
-1.843535919
 20
7.8163665505
 10
-1.8467598127
 20
7.8159916723
 10
-1.8499142304
 20
7.8154322228
 10
-1.8529934332
 20
7.814688006
 10
-1.8559915863
 20
7.8137589738
 10
-1.8589028547
 20
7.8126450778
 10
-1.8617214035
 20
7.81134627
 10
-1.864441398
 20
7.8098625021
 10
-1.8670575647
 20
7.8081944799
 10
-1.8695668772
 20
7.8063459249
 10
-1.8719668706
 20
7.8043213124
 10
-1.8742550797
 20
7.8021251178
 10
-1.8764290398
 20
7.7997618166
 10
-1.8784862859
 20
7.7972358842
 10
-1.8804242949
 20
7.7945519753
 10
-1.8822403111
 20
7.7917154627
 10
-1.8839315209
 20
7.7887318984
 10
-1.8854951104
 20
7.7856068346
 10
-1.8869282659
 20
7.7823458233
 10
-1.8882281736
 20
7.7789544166
 10
-1.8893921438
 20
7.7754383717
 10
-1.8904179824
 20
7.771804266
 10
-1.8913036195
 20
7.7680588823
 10
-1.8920469852
 20
7.7642090029
 10
-1.8926460094
 20
7.7602614106
 10
-1.8930986223
 20
7.756222888
 10
-1.8934034535
 20
7.7521001689
 10
-1.8935619318
 20
7.7478997929
 10
-1.893576186
 20
7.7436282509
 10
-1.8934483444
 20
7.7392920338
 10
-1.8931805356
 20
7.7348976324
 10
-1.8927748882
 20
7.7304515378
 10
-1.8922342762
 20
7.7259616923
 10
-1.8915645548
 20
7.7214418443
 10
-1.890772325
 20
7.7169071938
 10
-1.8898641874
 20
7.7123729409
 10
-1.8888467428
 20
7.7078542855
 10
-1.887726592
 20
7.7033664276
 10
-1.8862552701
 20
7.6980388292
 10
-1.8846517866
 20
7.6927783939
 10
-1.8829223716
 20
7.6875860487
 10
-1.8810732555
 20
7.6824627203
 10
-1.8791106684
 20
7.6774093355
 10
-1.87739068
 20
7.6732498441
 10
-1.8755859355
 20
7.6691254932
 10
-1.8736861516
 20
7.6650222078
 10
-1.8716810447
 20
7.6609259129
 10
-1.8695603317
 20
7.6568225334
 10
-1.867313729
 20
7.6526979941
  0
LWPOLYLINE
  5
2AC
100
AcDbEntity
  8
CURVE
100
AcDbPolyline
 62
253
  6
CONTINUOUS
 90
37
 70
0
 10
-3.3098715597
 20
10.2395862649
 10
-3.3084399505
 20
10.2370480087
 10
-3.3069816089
 20
10.2345478152
 10
-3.3054953789
 20
10.232081882
 10
-3.3039801043
 20
10.2296464069
 10
-3.3024346291
 20
10.2272375874
 10
-3.3008577971
 20
10.2248516214
 10
-3.2992487127
 20
10.2224854422
 10
-3.2976075218
 20
10.2201389261
 10
-3.2959346309
 20
10.217812685
 10
-3.2942304463
 20
10.2155073309
 10
-3.2924953744
 20
10.2132234759
 10
-3.2907298217
 20
10.2109617318
 10
-3.2889344461
 20
10.2087230018
 10
-3.2871109123
 20
10.2065093543
 10
-3.2852611365
 20
10.2043231488
 10
-3.2833870349
 20
10.2021667446
 10
-3.2814905237
 20
10.2000425015
 10
-3.2795735192
 20
10.1979527788
 10
-3.2776379647
 20
10.1958998745
 10
-3.2756859117
 20
10.193885841
 10
-3.2737194388
 20
10.1919126688
 10
-3.2717406245
 20
10.1899823486
 10
-3.2697515476
 20
10.1880968711
 10
-3.2677542866
 20
10.186258227
 10
-3.2657506663
 20
10.1844681544
 10
-3.2637414968
 20
10.1827273812
 10
-3.2617273344
 20
10.1810363829
 10
-3.2597087352
 20
10.1793956349
 10
-3.2576862556
 20
10.1778056125
 10
-3.2556604519
 20
10.176266791
 10
-3.2536313172
 20
10.1747795072
 10
-3.2515965931
 20
10.1733435422
 10
-3.2495534579
 20
10.1719585385
 10
-3.2474990899
 20
10.1706241385
 10
-3.2454306676
 20
10.1693399847
 10
-3.2433453694
 20
10.1681057194
  0
LWPOLYLINE
  5
2AD
100
AcDbEntity
  8
ASSI
100
AcDbPolyline
 62
253
  6
CONTINUOUS
 90
37
 70
0
 10
5.7946797635
 20
-22.5801371868
 10
5.7965086135
 20
-22.6126326647
 10
5.79953129
 20
-22.6442419531
 10
5.8037477929
 20
-22.6749650522
 10
5.8091691959
 20
-22.7048517021
 10
5.8157844254
 20
-22.7338521626
 10
5.8235602604
 20
-22.7618172129
 10
5.832502658
 20
-22.7887409104
 10
5.8426056611
 20
-22.8146291977
 10
5.8538181782
 20
-22.8393506813
 10
5.8661456959
 20
-22.8628990433
 10
5.8795827275
 20
-22.8852806015
 10
5.8940617208
 20
-22.9063829168
 10
5.9095878918
 20
-22.9261996136
 10
5.9261560245
 20
-22.9447370674
 10
5.9436829191
 20
-22.9619019649
 10
5.9621735439
 20
-22.9776874956
 10
5.9816229306
 20
-22.99210047
 10
6.0019329753
 20
-23.0050680062
 10
6.0231080705
 20
-23.0165827534
 10
6.0451438237
 20
-23.0266520624
 10
6.0679289532
 20
-23.0352251042
 10
6.0914670896
 20
-23.0422942643
 10
6.1157546023
 20
-23.0478671572
 10
6.1406693185
 20
-23.0519157967
 10
6.1662143573
 20
-23.0544325516
 10
6.1923865995
 20
-23.0554250531
 10
6.2190545149
 20
-23.0548882089
 10
6.2462210355
 20
-23.0528141959
 10
6.2738832293
 20
-23.0492108372
 10
6.3019007704
 20
-23.0440965094
 10
6.3302757813
 20
-23.0374632642
 10
6.3590061396
 20
-23.02931905
 10
6.3879451522
 20
-23.0197060878
 10
6.4170439214
 20
-23.0086384515
 10
6.4463513449
 20
-22.9961020672
 10
6.4758674228
 20
-22.9820969349
  0
LWPOLYLINE
  5
2AE
100
AcDbEntity
  8
ASSI
100
AcDbPolyline
 62
253
  6
CONTINUOUS
 90
19
 70
0
 10
5.0940956759
 20
-22.5932051386
 10
5.096807823
 20
-22.6418292504
 10
5.1013200211
 20
-22.6892689396
 10
5.1076248094
 20
-22.7354443602
 10
5.1157118853
 20
-22.7802776895
 10
5.125567678
 20
-22.8236936387
 10
5.1371754618
 20
-22.8656195038
 10
5.1505163813
 20
-22.9059854234
 10
5.1655680787
 20
-22.9447226994
 10
5.1823041612
 20
-22.9817644266
 10
5.2006965289
 20
-23.0170479954
 10
5.2207146748
 20
-23.0505147788
 10
5.2423243554
 20
-23.0821084114
 10
5.2654897261
 20
-23.1117759922
 10
5.2901721426
 20
-23.1394677349
 10
5.3163293869
 20
-23.165136699
 10
5.3439182607
 20
-23.1887400761
 10
5.3728926401
 20
-23.2102381104
 10
5.4059232041
 20
-23.2311882606
  0
LINE
  5
2AF
100
AcDbEntity
  8
ASSI
100
AcDbLine
 62
7
  6
CONTINUOUS
 10
3.9096827716
 20
17.4888733223
 11
3.9308795032
 21
16.8726496085
  0
LWPOLYLINE
  5
2B0
100
AcDbEntity
  8
ASSI
100
AcDbPolyline
 62
253
  6
CONTINUOUS
 90
12
 70
0
 10
4.7898703481
 20
-5.6828355926
 10
4.7902542649
 20
-5.6947551062
 10
4.7914188993
 20
-5.7061572794
 10
4.7933578043
 20
-5.7169789953
 10
4.796060247
 20
-5.7271603502
 10
4.7995112675
 20
-5.7366449847
 10
4.8036917624
 20
-5.7453803962
 10
4.8085785899
 20
-5.7533182296
 10
4.8141446987
 20
-5.7604145454
 10
4.8203592769
 20
-5.7666300617
 10
4.8271879233
 20
-5.7719303727
 10
4.8312480658
 20
-5.7744771342
  0
LWPOLYLINE
  5
2B1
100
AcDbEntity
  8
ASSI
100
AcDbPolyline
 62
253
  6
CONTINUOUS
 90
13
 70
0
 10
4.7898587002
 20
-6.2655827242
 10
4.7927699393
 20
-7.6392043402
 10
4.7997618938
 20
-9.0104989486
 10
4.8108342126
 20
-10.3794511485
 10
4.8259859409
 20
-11.7460347963
 10
4.8452171328
 20
-13.1102453569
 10
4.8685291604
 20
-14.4720997197
 10
4.8959222135
 20
-15.8315834642
 10
4.9273955517
 20
-17.1886801305
 10
4.9629496198
 20
-18.543403268
 10
5.0025845761
 20
-19.89574698
 10
5.0463000059
 20
-21.2456860973
 10
5.094095684
 20
-22.5932051434
  0
LINE
  5
2B2
100
AcDbEntity
  8
ASSI
100
AcDbLine
 62
253
  6
CONTINUOUS
 10
3.7295163251
 20
17.0748480419
 11
3.7295163251
 21
17.0122442586
  0
LWPOLYLINE
  5
2B3
100
AcDbEntity
  8
ASSI
100
AcDbPolyline
 62
253
  6
CONTINUOUS
 90
22
 70
0
 10
4.7898703481
 20
-6.2655894495
 10
4.7902542636
 20
-6.2532266161
 10
4.7914188949
 20
-6.2404795698
 10
4.7933577949
 20
-6.227418872
 10
4.7960602309
 20
-6.2141168208
 10
4.7995112434
 20
-6.2006470497
 10
4.8036917294
 20
-6.187084121
 10
4.8085785477
 20
-6.1735031127
 10
4.8141446471
 20
-6.1599792027
 10
4.8203592164
 20
-6.1465872528
 10
4.8271878547
 20
-6.1334013946
 10
4.834592762
 20
-6.1204946186
 10
4.8425329482
 20
-6.1079383705
 10
4.8509644602
 20
-6.0958021558
 10
4.8598406252
 20
-6.0841531547
 10
4.8691123091
 20
-6.0730558506
 10
4.8787281881
 20
-6.0625716728
 10
4.8886350335
 20
-6.0527586566
 10
4.8987780056
 20
-6.0436711224
 10
4.9091009577
 20
-6.0353593742
 10
4.9195467471
 20
-6.027869422
 10
4.9300575507
 20
-6.0212427266
  0
LWPOLYLINE
  5
2B4
100
AcDbEntity
  8
ASSI
100
AcDbPolyline
 62
253
  6
CONTINUOUS
 90
13
 70
0
 10
5.094095684
 20
10.9840498003
 10
5.0463000059
 20
9.5832294029
 10
5.0025845761
 20
8.1845391801
 10
4.9629496198
 20
6.7879948683
 10
4.9273955517
 20
5.3936221153
 10
4.8959222135
 20
4.0014266354
 10
4.8685291604
 20
2.6113943664
 10
4.8452171328
 20
1.2235416349
 10
4.8259859409
 20
-0.1621163697
 10
4.8108342126
 20
-1.5455951567
 10
4.7997618938
 20
-2.9268892654
 10
4.7927699392
 20
-4.3059724378
 10
4.7898587001
 20
-5.6828288672
  0
LWPOLYLINE
  5
2B5
100
AcDbEntity
  8
RACCORDO
100
AcDbPolyline
 62
253
  6
CONTINUOUS
 90
5
 70
0
 10
-1.8842900496
 20
-6.2875544173
 10
-1.8257162638
 20
-6.2483618342
 10
-1.7705123819
 20
-6.1950960495
 10
-1.7243276014
 20
-6.1319061252
 10
-1.6906781041
 20
-6.0667238002
  0
LINE
  5
2B6
100
AcDbEntity
  8
ASSI
100
AcDbLine
 62
7
  6
CONTINUOUS
 10
-1.9051678754
 20
-6.4307722873
 11
-1.9060335433
 21
-6.4312957068
  0
LWPOLYLINE
  5
2B7
100
AcDbEntity
  8
ASSI
100
AcDbPolyline
 62
253
  6
CONTINUOUS
 90
58
 70
0
 10
-1.9060335433
 20
-6.4312957068
 10
-1.9194067781
 20
-6.4390359146
 10
-1.9475903036
 20
-6.4533527563
 10
-1.9768961627
 20
-6.4656410729
 10
-2.0072786134
 20
-6.4758782563
 10
-2.038680046
 20
-6.4840414996
 10
-2.0710329294
 20
-6.4901129593
 10
-2.104275183
 20
-6.4940819775
 10
-2.138351824
 20
-6.4959428144
 10
-2.1732022226
 20
-6.4956938503
 10
-2.2087621138
 20
-6.4933365987
 10
-2.2449705345
 20
-6.4888759491
 10
-2.2817701819
 20
-6.4823203792
 10
-2.3190972214
 20
-6.4736811494
 10
-2.3568847332
 20
-6.4629733967
 10
-2.3950698057
 20
-6.4502155908
 10
-2.4335869159
 20
-6.4354291703
 10
-2.472366627
 20
-6.4186400244
 10
-2.5113393666
 20
-6.3998785495
 10
-2.550436391
 20
-6.379177934
 10
-2.5895891393
 20
-6.3565741903
 10
-2.6287280059
 20
-6.3321074994
 10
-2.6677848307
 20
-6.3058207703
 10
-2.7066904662
 20
-6.2777604143
 10
-2.7453741331
 20
-6.2479770691
 10
-2.7837667717
 20
-6.2165247958
 10
-2.8218024765
 20
-6.183458038
 10
-2.8594159949
 20
-6.1488323731
 10
-2.8965406446
 20
-6.1127098477
 10
-2.9331123635
 20
-6.0751530369
 10
-2.9690708132
 20
-6.036221365
 10
-3.0043552305
 20
-5.9959802939
 10
-3.0389011625
 20
-5.9545025759
 10
-3.0726443334
 20
-5.9118616761
 10
-3.1055301723
 20
-5.8681264505
 10
-3.1374961242
 20
-5.8233795424
 10
-3.1684696446
 20
-5.77771958
 10
-3.1983934657
 20
-5.7312353451
 10
-3.2272213931
 20
-5.684002755
 10
-3.254901765
 20
-5.6361045072
 10
-3.2813790953
 20
-5.5876422583
 10
-3.3066184575
 20
-5.5386857259
 10
-3.3305984862
 20
-5.4892695877
 10
-3.3532789552
 20
-5.4394715697
 10
-3.3746138148
 20
-5.3893873305
 10
-3.3945702852
 20
-5.3390781145
 10
-3.4131205138
 20
-5.288599711
 10
-3.4302138254
 20
-5.2380744495
 10
-3.4457911121
 20
-5.1876639845
 10
-3.4598288201
 20
-5.1374502789
 10
-3.4723017243
 20
-5.08753022
 10
-3.483167893
 20
-5.0380850505
 10
-3.492419155
 20
-4.9892004097
 10
-3.5000509002
 20
-4.940958438
 10
-3.5060490398
 20
-4.8935271639
 10
-3.5104205631
 20
-4.8470097142
 10
-3.5131834385
 20
-4.8014478247
 10
-3.5143533587
 20
-4.756909462
  0
LINE
  5
2B8
100
AcDbEntity
  8
DRAFT
100
AcDbLine
 62
7
  6
CONTINUOUS
 10
-1.7272056332
 20
-6.2012791893
 11
-1.8842900562
 21
-6.2875544209
  0
LWPOLYLINE
  5
2B9
100
AcDbEntity
  8
ASSI
100
AcDbPolyline
 62
253
  6
CONTINUOUS
 90
16
 70
0
 10
-3.2154703432
 20
3.3009097389
 10
-3.1801405597
 20
3.3077685128
 10
-3.1438818311
 20
3.3123351132
 10
-3.1066954985
 20
3.3146245008
 10
-3.0687805227
 20
3.3146269357
 10
-3.0301361091
 20
3.3123306983
 10
-2.9907635402
 20
3.307747233
 10
-2.9508648885
 20
3.3009015485
 10
-2.9104368249
 20
3.2917823789
 10
-2.8694830496
 20
3.2804007808
 10
-2.8282161587
 20
3.2668152582
 10
-2.7866330285
 20
3.2510136448
 10
-2.7447370151
 20
3.2330079758
 10
-2.702750402
 20
3.2128930754
 10
-2.6606731333
 20
3.1906577136
 10
-2.6185053442
 20
3.1663130757
  0
LWPOLYLINE
  5
2BA
100
AcDbEntity
  8
CURVE
100
AcDbPolyline
 62
253
  6
CONTINUOUS
 90
54
 70
0
 10
-2.562657144
 20
6.8625895249
 10
-2.5600291574
 20
6.8611167807
 10
-2.557433347
 20
6.8597507517
 10
-2.5548644615
 20
6.8584867448
 10
-2.5523172494
 20
6.8573200667
 10
-2.5497864594
 20
6.8562460242
 10
-2.5472668401
 20
6.8552599241
 10
-2.5447531401
 20
6.8543570731
 10
-2.5418225326
 20
6.8534044214
 10
-2.5388938965
 20
6.852561549
 10
-2.5359682941
 20
6.8518313117
 10
-2.5330467879
 20
6.8512165656
 10
-2.5301304399
 20
6.8507201665
 10
-2.5272203125
 20
6.8503449705
 10
-2.5243186124
 20
6.8500937596
 10
-2.5214321232
 20
6.8499690214
 10
-2.5185687731
 20
6.8499731696
 10
-2.5157364901
 20
6.8501086178
 10
-2.5129432022
 20
6.8503777798
 10
-2.5101968376
 20
6.8507830692
 10
-2.5078857237
 20
6.851240513
 10
-2.5056172388
 20
6.8518005237
 10
-2.5033937128
 20
6.8524638825
 10
-2.5012174758
 20
6.853231371
 10
-2.4990908578
 20
6.8541037707
 10
-2.4970161888
 20
6.8550818629
 10
-2.4949957988
 20
6.856166429
 10
-2.4930318736
 20
6.8573577204
 10
-2.4911260215
 20
6.8586538669
 10
-2.4892797068
 20
6.8600524686
 10
-2.4874943936
 20
6.861551125
 10
-2.485771546
 20
6.8631474362
 10
-2.4841126282
 20
6.8648390018
 10
-2.4825191044
 20
6.8666234217
 10
-2.4809924176
 20
6.8684977593
 10
-2.4795339275
 20
6.8704569327
 10
-2.4781449726
 20
6.8724953234
 10
-2.4768268916
 20
6.8746073132
 10
-2.475581023
 20
6.8767872835
 10
-2.4744087054
 20
6.8790296161
 10
-2.4733112775
 20
6.8813286926
 10
-2.4721266773
 20
6.884076304
 10
-2.4710437244
 20
6.8868913794
 10
-2.4700603111
 20
6.8897717951
 10
-2.4691743296
 20
6.8927154276
 10
-2.4683836724
 20
6.8957201532
 10
-2.4676862315
 20
6.8987838485
 10
-2.4671614694
 20
6.9014566005
 10
-2.4667050131
 20
6.9041781925
 10
-2.4663182317
 20
6.9069557002
 10
-2.4660024941
 20
6.9097961992
 10
-2.4657591691
 20
6.912706765
 10
-2.4655896257
 20
6.9156944734
 10
-2.4654952328
 20
6.9187664
  0
LWPOLYLINE
  5
2BB
100
AcDbEntity
  8
ASSI
100
AcDbPolyline
 62
253
  6
CONTINUOUS
 90
22
 70
0
 10
5.4907516286
 20
-6.2669049678
 10
5.4902694233
 20
-6.2545236842
 10
5.4890131002
 20
-6.2417471709
 10
5.4869896841
 20
-6.2286468658
 10
5.4842104887
 20
-6.2152960169
 10
5.4806910536
 20
-6.2017692737
 10
5.4764510577
 20
-6.1881422695
 10
5.4715142085
 20
-6.1744911973
 10
5.4659081098
 20
-6.1608923849
 10
5.4596641078
 20
-6.1474218682
 10
5.4528171152
 20
-6.1341549653
 10
5.4454054159
 20
-6.1211658555
 10
5.4374704518
 20
-6.1085271655
 10
5.4290565902
 20
-6.096309562
 10
5.4202108759
 20
-6.0845813571
 10
5.4109827686
 20
-6.0734081269
 10
5.4014238659
 20
-6.062852344
 10
5.3915876147
 20
-6.0529730285
 10
5.3815290129
 20
-6.0438254184
 10
5.3713043013
 20
-6.0354606602
 10
5.3609706495
 20
-6.0279255231
 10
5.350585836
 20
-6.0212621376
  0
LWPOLYLINE
  5
2BC
100
AcDbEntity
  8
ASSI
100
AcDbPolyline
 62
253
  6
CONTINUOUS
 90
6
 70
0
 10
5.5966830189
 20
-15.8244573957
 10
5.6281270838
 20
-17.1803673308
 10
5.6636487832
 20
-18.5338918401
 10
5.7032481423
 20
-19.8850257148
 10
5.7469251357
 20
-21.2337741637
 10
5.7946797635
 20
-22.5801371868
  0
LWPOLYLINE
  5
2BD
100
AcDbEntity
  8
ASSI
100
AcDbPolyline
 62
253
  6
CONTINUOUS
 90
7
 70
0
 10
5.4936569728
 20
-7.6393321915
 10
5.5006298674
 20
-9.0094112287
 10
5.5116822686
 20
-10.3771352943
 10
5.5268148259
 20
-11.7425093308
 10
5.5460268899
 20
-13.1055283957
 10
5.5693165124
 20
-14.4661776618
 10
5.5966830189
 20
-15.8244573957
  0
LINE
  5
2BE
100
AcDbEntity
  8
ASSI
100
AcDbLine
 62
253
  6
CONTINUOUS
 10
5.4907635849
 20
-6.2668981828
 11
5.4936569728
 21
-7.6393321915
  0
LWPOLYLINE
  5
2BF
100
AcDbEntity
  8
ASSI
100
AcDbPolyline
 62
253
  6
CONTINUOUS
 90
8
 70
0
 10
5.5966830189
 20
3.9870974415
 10
5.5693165124
 20
2.5982998606
 10
5.5460268899
 20
1.2116790976
 10
5.5268148259
 20
-0.1727643617
 10
5.5116822686
 20
-1.5550135177
 10
5.5006298674
 20
-2.9350627039
 10
5.4936569728
 20
-4.3129175867
 10
5.4907635849
 20
-5.6885781662
  0
LWPOLYLINE
  5
2C0
100
AcDbEntity
  8
ASSI
100
AcDbPolyline
 62
253
  6
CONTINUOUS
 90
6
 70
0
 10
5.7946797635
 20
10.9635739342
 10
5.7469251357
 20
9.5639571855
 10
5.7032481423
 20
8.166502198
 10
5.6636487832
 20
6.7712089718
 10
5.6281270838
 20
5.378072326
 10
5.5966830189
 20
3.9870974415
  0
LWPOLYLINE
  5
2C1
100
AcDbEntity
  8
ASSI
100
AcDbPolyline
 62
253
  6
CONTINUOUS
 90
12
 70
0
 10
5.4907516286
 20
-5.6885847143
 10
5.4902694248
 20
-5.7006061198
 10
5.4890131055
 20
-5.7120958522
 10
5.4869896951
 20
-5.7229896689
 10
5.4842105073
 20
-5.733226659
 10
5.4806910812
 20
-5.7427495841
 10
5.4764510952
 20
-5.7515051986
 10
5.4715142564
 20
-5.759444547
 10
5.4659081682
 20
-5.7665232378
 10
5.4596641762
 20
-5.7727016919
 10
5.4528171924
 20
-5.7779453634
 10
5.4479612113
 20
-5.7808934534
  0
LWPOLYLINE
  5
2C2
100
AcDbEntity
  8
CURVE
100
AcDbPolyline
 62
253
  6
CONTINUOUS
 90
85
 70
0
 10
-0.8005501445
 20
7.8796440939
 10
-0.7970983027
 20
7.8777285289
 10
-0.7937092464
 20
7.8760013824
 10
-0.7903710494
 20
7.874451563
 10
-0.7870717855
 20
7.8730679794
 10
-0.7837995284
 20
7.8718395402
 10
-0.7805423521
 20
7.8707551541
 10
-0.7772907284
 20
7.8698061999
 10
-0.7740447223
 20
7.8689939367
 10
-0.7708067968
 20
7.8683220938
 10
-0.7675794151
 20
7.8677944003
 10
-0.7643650401
 20
7.8674145854
 10
-0.761166135
 20
7.8671863785
 10
-0.7579863392
 20
7.8671134153
 10
-0.7548339978
 20
7.8671989571
 10
-0.7517186321
 20
7.8674461721
 10
-0.7486497636
 20
7.8678582281
 10
-0.7456369136
 20
7.8684382933
 10
-0.7426896037
 20
7.8691895355
 10
-0.7398164507
 20
7.870114744
 10
-0.7370224541
 20
7.8712151925
 10
-0.7343117089
 20
7.872491776
 10
-0.7316883101
 20
7.8739453896
 10
-0.7291563526
 20
7.8755769282
 10
-0.7267199316
 20
7.8773872867
 10
-0.7243830134
 20
7.8793763295
 10
-0.7221490503
 20
7.8815397975
 10
-0.7200213659
 20
7.8838724008
 10
-0.7180032841
 20
7.8863688497
 10
-0.7160981284
 20
7.8890238543
 10
-0.7143092226
 20
7.8918321249
 10
-0.7126397482
 20
7.8947889011
 10
-0.7110923174
 20
7.8978915407
 10
-0.7096694003
 20
7.9011379312
 10
-0.7083734671
 20
7.9045259597
 10
-0.7072069878
 20
7.9080535136
 10
-0.7061724325
 20
7.9117184802
 10
-0.7052724795
 20
7.9155178649
 10
-0.7045106399
 20
7.9194451457
 10
-0.703890633
 20
7.9234929186
 10
-0.7034161783
 20
7.9276537796
 10
-0.7030909951
 20
7.9319203247
 10
-0.7029188027
 20
7.9362851499
 10
-0.7029021717
 20
7.9407401977
 10
-0.7030390777
 20
7.9452747958
 10
-0.7033263475
 20
7.9498776182
 10
-0.7037608079
 20
7.9545373392
 10
-0.7043392858
 20
7.9592426329
 10
-0.7050586078
 20
7.9639821733
 10
-0.7059157253
 20
7.9687456498
 10
-0.7069080866
 20
7.9735268131
 10
-0.7080332646
 20
7.978320429
 10
-0.7092888322
 20
7.9831212632
 10
-0.7106723622
 20
7.9879240817
 10
-0.7121814274
 20
7.9927236503
 10
-0.7138136949
 20
7.9975143792
 10
-0.7155672081
 20
8.0022892565
 10
-0.7174401046
 20
8.0070409145
 10
-0.7194305219
 20
8.0117619855
 10
-0.7215365977
 20
8.0164451019
 10
-0.7237564695
 20
8.0210828962
 10
-0.7260877149
 20
8.0256681514
 10
-0.7285256721
 20
8.0301942536
 10
-0.7310651193
 20
8.0346547397
 10
-0.7337008346
 20
8.0390431465
 10
-0.7364275962
 20
8.0433530109
 10
-0.7392401823
 20
8.0475778696
 10
-0.7421322635
 20
8.0517107999
 10
-0.7450930809
 20
8.0557430396
 10
-0.748110768
 20
8.0596653673
 10
-0.7511734581
 20
8.0634685611
 10
-0.7542692848
 20
8.0671433995
 10
-0.7573863817
 20
8.0706806606
 10
-0.7605145962
 20
8.0740731942
 10
-0.7636506331
 20
8.0773221346
 10
-0.766792911
 20
8.0804306877
 10
-0.7699398485
 20
8.0834020592
 10
-0.7730898645
 20
8.0862394548
 10
-0.7762413775
 20
8.0889460803
 10
-0.7793951399
 20
8.0915252705
 10
-0.782561238
 20
8.0939808761
 10
-0.7857520915
 20
8.0963168769
 10
-0.7889801204
 20
8.0985372529
 10
-0.7922577444
 20
8.1006459837
 10
-0.7955973834
 20
8.1026470492
  0
LWPOLYLINE
  5
2C3
100
AcDbEntity
  8
CURVE
100
AcDbPolyline
 62
253
  6
CONTINUOUS
 90
85
 70
0
 10
-3.5696868842
 20
9.478508942
 10
-3.566233713
 20
9.4765927686
 10
-3.5628434181
 20
9.4748653672
 10
-3.559504082
 20
9.473315626
 10
-3.5562037873
 20
9.4719324331
 10
-3.5529306166
 20
9.4707046766
 10
-3.5496726524
 20
9.4696212446
 10
-3.5464203738
 20
9.4686734959
 10
-3.5431738453
 20
9.4678626716
 10
-3.5399355282
 20
9.4671924832
 10
-3.5367078834
 20
9.4666666424
 10
-3.5334933721
 20
9.466288861
 10
-3.5302944553
 20
9.4660628504
 10
-3.5271147701
 20
9.4659922283
 10
-3.5239626572
 20
9.4660802358
 10
-3.5208476333
 20
9.4663300197
 10
-3.5177792151
 20
9.466744727
 10
-3.5147669194
 20
9.4673275047
 10
-3.5118202628
 20
9.4680814997
 10
-3.5089478573
 20
9.4690094776
 10
-3.5061546961
 20
9.4701126785
 10
-3.5034448678
 20
9.4713919614
 10
-3.5008224609
 20
9.4728481851
 10
-3.498291564
 20
9.4744822084
 10
-3.4958562656
 20
9.4762948902
 10
-3.4935205251
 20
9.4782860656
 10
-3.4912877861
 20
9.4804514749
 10
-3.4891613631
 20
9.4827858345
 10
-3.4871445704
 20
9.485283861
 10
-3.4852407227
 20
9.4879402709
 10
-3.4834531342
 20
9.4907497807
 10
-3.4817849794
 20
9.4937076375
 10
-3.4802388726
 20
9.4968112097
 10
-3.4788172878
 20
9.5000583967
 10
-3.4775226992
 20
9.5034470975
 10
-3.4763575809
 20
9.5069752111
 10
-3.475324407
 20
9.5106406368
 10
-3.4744258591
 20
9.5144403895
 10
-3.4736654488
 20
9.5183679474
 10
-3.4730468949
 20
9.5224159048
 10
-3.4725739165
 20
9.5265768558
 10
-3.4722502324
 20
9.5308433946
 10
-3.4720795618
 20
9.5352081153
 10
-3.4720644709
 20
9.539662955
 10
-3.472202916
 20
9.5441972232
 10
-3.4724917009
 20
9.5487995719
 10
-3.4729276292
 20
9.5534586536
 10
-3.4735075046
 20
9.5581631204
 10
-3.474228131
 20
9.5629016247
 10
-3.4750864394
 20
9.5676638428
 10
-3.476079871
 20
9.5724435469
 10
-3.4772059946
 20
9.5772355335
 10
-3.4784623788
 20
9.5820345989
 10
-3.4798465923
 20
9.5868355395
 10
-3.4813562038
 20
9.5916331516
 10
-3.4829888741
 20
9.5964218708
 10
-3.4847426332
 20
9.6011946901
 10
-3.4866156031
 20
9.6059442416
 10
-3.4886059057
 20
9.6106631576
 10
-3.4907116631
 20
9.6153440701
 10
-3.4929309974
 20
9.6199796115
 10
-3.4952614755
 20
9.624562569
 10
-3.4976984443
 20
9.6290863506
 10
-3.5002366958
 20
9.6335445192
 10
-3.5028710218
 20
9.637930638
 10
-3.5055962141
 20
9.6422382698
 10
-3.5084070647
 20
9.6464609779
 10
-3.5112972627
 20
9.6505918635
 10
-3.5142560863
 20
9.6546221812
 10
-3.5172717113
 20
9.658542724
 10
-3.5203323133
 20
9.6623442849
 10
-3.5234260677
 20
9.6660176566
 10
-3.5265411502
 20
9.6695536322
 10
-3.5296674432
 20
9.6729450688
 10
-3.5328016566
 20
9.6761930804
 10
-3.5359422071
 20
9.6793008449
 10
-3.5390875114
 20
9.6822715407
 10
-3.5422359861
 20
9.6851083457
 10
-3.545386048
 20
9.6878144381
 10
-3.5485384426
 20
9.6903931252
 10
-3.5517032311
 20
9.6928482308
 10
-3.5548928034
 20
9.6951837079
 10
-3.5581195495
 20
9.6974035093
 10
-3.5613958594
 20
9.6995115881
 10
-3.5647341232
 20
9.7015118972
  0
LWPOLYLINE
  5
2C4
100
AcDbEntity
  8
CURVE
100
AcDbPolyline
 62
253
  6
CONTINUOUS
 90
85
 70
0
 10
-4.2398747502
 20
10.0913296338
 10
-4.2433291402
 20
10.0932463811
 10
-4.2467206621
 20
10.0949741124
 10
-4.2500612292
 20
10.0965239537
 10
-4.2533627547
 20
10.0979070311
 10
-4.2566371519
 20
10.0991344704
 10
-4.2598963341
 20
10.1002173979
 10
-4.2631498189
 20
10.1011644677
 10
-4.2663975415
 20
10.1019744476
 10
-4.2696370414
 20
10.1026436336
 10
-4.2728658579
 20
10.1031683216
 10
-4.2760815306
 20
10.1035448077
 10
-4.279281599
 20
10.1037693877
 10
-4.2824624253
 20
10.1038384524
 10
-4.2856156631
 20
10.1037487709
 10
-4.2887317888
 20
10.1034972068
 10
-4.2918012788
 20
10.1030806241
 10
-4.2948146096
 20
10.1024958864
 10
-4.2977622574
 20
10.1017398575
 10
-4.3006356037
 20
10.1008097849
 10
-4.30342965
 20
10.0997044507
 10
-4.3061403025
 20
10.0984230211
 10
-4.3087634677
 20
10.0969646618
 10
-4.3112950521
 20
10.0953285389
 10
-4.313730962
 20
10.0935138182
 10
-4.3160672346
 20
10.091520686
 10
-4.3183004302
 20
10.0893534089
 10
-4.32042724
 20
10.0870172739
 10
-4.3224443549
 20
10.0845175677
 10
-4.3243484662
 20
10.0818595775
 10
-4.3261362649
 20
10.0790485899
 10
-4.3278045811
 20
10.0760893626
 10
-4.3293508013
 20
10.0729845351
 10
-4.3307724508
 20
10.0697362176
 10
-4.3320670552
 20
10.0663465203
 10
-4.3332321399
 20
10.0628175534
 10
-4.3342652304
 20
10.0591514272
 10
-4.3351636446
 20
10.0553511334
 10
-4.3359238708
 20
10.0514231906
 10
-4.3365421901
 20
10.047374999
 10
-4.3370148832
 20
10.0432139586
 10
-4.3373382311
 20
10.0389474698
 10
-4.3375085147
 20
10.0345829326
 10
-4.337523167
 20
10.0301284036
 10
-4.33738423
 20
10.0255945641
 10
-4.337094898
 20
10.0209927522
 10
-4.336658365
 20
10.0163343055
 10
-4.3360778254
 20
10.0116305619
 10
-4.3353564732
 20
10.0068928592
 10
-4.3344973766
 20
10.0021315129
 10
-4.3335030991
 20
9.9973527486
 10
-4.3323760782
 20
9.9925617698
 10
-4.3311187514
 20
9.98776378
 10
-4.3297335562
 20
9.9829639824
 10
-4.32822293
 20
9.9781675806
 10
-4.3265892182
 20
9.9733801377
 10
-4.3248343967
 20
9.9686086567
 10
-4.3229603495
 20
9.9638605005
 10
-4.3209689603
 20
9.9591430318
 10
-4.3188621132
 20
9.9544636135
 10
-4.3166416918
 20
9.9498296084
 10
-4.3143101354
 20
9.9452482237
 10
-4.311872104
 20
9.9407260437
 10
-4.3093328128
 20
9.9362694972
 10
-4.3066974774
 20
9.9318850129
 10
-4.3039713129
 20
9.9275790196
 10
-4.3011595347
 20
9.923357946
 10
-4.2982684602
 20
9.9192286822
 10
-4.2953088156
 20
9.9151999637
 10
-4.292292429
 20
9.9112809875
 10
-4.2892311286
 20
9.9074809503
 10
-4.2861367426
 20
9.903809049
 10
-4.2830210992
 20
9.9002744806
 10
-4.2798943192
 20
9.8968843791
 10
-4.2767596943
 20
9.8936376274
 10
-4.2736188088
 20
9.8905310457
 10
-4.270473247
 20
9.8875614539
 10
-4.2673245932
 20
9.8847256722
 10
-4.2641744317
 20
9.8820205207
 10
-4.2610220181
 20
9.8794426894
 10
-4.2578572928
 20
9.8769883481
 10
-4.2546678677
 20
9.8746535367
 10
-4.2514413545
 20
9.8724342947
 10
-4.2481653651
 20
9.8703266621
 10
-4.2448275112
 20
9.8683266785
  0
LWPOLYLINE
  5
2C5
100
AcDbEntity
  8
CURVE
100
AcDbPolyline
 62
253
  6
CONTINUOUS
 90
85
 70
0
 10
-1.4704885589
 20
8.4923207555
 10
-1.4739406671
 20
8.4942369061
 10
-1.4773303104
 20
8.4959656353
 10
-1.4806694247
 20
8.4975179629
 10
-1.4839699465
 20
8.4989049085
 10
-1.4872438117
 20
8.5001374918
 10
-1.4905029567
 20
8.5012267326
 10
-1.4937569195
 20
8.5021811836
 10
-1.4970056456
 20
8.5029995296
 10
-1.5002466826
 20
8.5036779883
 10
-1.5034775778
 20
8.5042127775
 10
-1.5066958786
 20
8.5046001149
 10
-1.5098991326
 20
8.5048362185
 10
-1.513083703
 20
8.5049173965
 10
-1.516241216
 20
8.50484032
 10
-1.5193621137
 20
8.5046017508
 10
-1.5224368382
 20
8.5041984507
 10
-1.5254558315
 20
8.5036271813
 10
-1.5284095356
 20
8.5028847044
 10
-1.5312892971
 20
8.5019681641
 10
-1.5340900802
 20
8.5008762338
 10
-1.5368077535
 20
8.4996079693
 10
-1.5394381856
 20
8.4981624266
 10
-1.5419772451
 20
8.4965386613
 10
-1.5444208008
 20
8.4947357294
 10
-1.5467648548
 20
8.4927537273
 10
-1.5490059439
 20
8.4905969146
 10
-1.5511407387
 20
8.4882705915
 10
-1.5531659095
 20
8.4857800581
 10
-1.5550781269
 20
8.4831306147
 10
-1.5568740612
 20
8.4803275614
 10
-1.5585505249
 20
8.4773756695
 10
-1.5601048978
 20
8.4742775938
 10
-1.5615347015
 20
8.4710354601
 10
-1.5628374578
 20
8.4676513942
 10
-1.5640106885
 20
8.4641275219
 10
-1.5650519152
 20
8.460465969
 10
-1.5659584461
 20
8.4566697354
 10
-1.5667267348
 20
8.4527453168
 10
-1.5673530214
 20
8.4487000828
 10
-1.5678335461
 20
8.4445414031
 10
-1.5681645488
 20
8.4402766476
 10
-1.5683422696
 20
8.4359131859
 10
-1.5683640959
 20
8.4314590354
 10
-1.5682320031
 20
8.4269248046
 10
-1.5679491143
 20
8.4223217496
 10
-1.5675185522
 20
8.4176611266
 10
-1.5669434397
 20
8.4129541918
 10
-1.5662268996
 20
8.4082122013
 10
-1.5653719412
 20
8.4034454246
 10
-1.5643811193
 20
8.398660184
 10
-1.5632568755
 20
8.3938618153
 10
-1.562001651
 20
8.389055654
 10
-1.5606178872
 20
8.3842470359
 10
-1.5591080256
 20
8.3794412966
 10
-1.5574743993
 20
8.3746441036
 10
-1.5557189089
 20
8.3698624516
 10
-1.5538433466
 20
8.3651036672
 10
-1.5518495048
 20
8.3603750768
 10
-1.5497391759
 20
8.355684007
 10
-1.5475141522
 20
8.3510377844
 10
-1.5451768073
 20
8.3464436164
 10
-1.5427318398
 20
8.341908234
 10
-1.5401845299
 20
8.337438249
 10
-1.5375401574
 20
8.3330402734
 10
-1.5348040023
 20
8.3287209189
 10
-1.5319813446
 20
8.3244867977
 10
-1.5290785896
 20
8.3203449646
 10
-1.5261066436
 20
8.3163042482
 10
-1.5230775383
 20
8.31237392
 10
-1.5200033054
 20
8.3085632515
 10
-1.5168959764
 20
8.3048815144
 10
-1.5137675832
 20
8.3013379803
 10
-1.5106284123
 20
8.2979398227
 10
-1.50748177
 20
8.2946858233
 10
-1.5043292177
 20
8.2915726657
 10
-1.5011723168
 20
8.2885970334
 10
-1.4980126285
 20
8.2857556102
 10
-1.4948517143
 20
8.2830450795
 10
-1.4916887899
 20
8.2804619995
 10
-1.4885136901
 20
8.2780024259
 10
-1.485313904
 20
8.2756622889
 10
-1.4820769208
 20
8.2734375188
 10
-1.4787902297
 20
8.2713240459
 10
-1.4754413199
 20
8.2693178002
  0
LWPOLYLINE
  5
2C6
100
AcDbEntity
  8
CURVE
100
AcDbPolyline
 62
253
  6
CONTINUOUS
 90
69
 70
0
 10
-1.3342688944
 20
6.7481679597
 10
-1.331283399
 20
6.7465022742
 10
-1.3283354242
 20
6.7449729536
 10
-1.3254168146
 20
6.7435730338
 10
-1.322519415
 20
6.742295551
 10
-1.3196350698
 20
6.7411335411
 10
-1.3167556236
 20
6.7400800402
 10
-1.313297932
 20
6.7389520956
 10
-1.309837418
 20
6.7379753216
 10
-1.3063759482
 20
6.7371546638
 10
-1.3029153894
 20
6.736495068
 10
-1.2994576083
 20
6.7360014798
 10
-1.296006338
 20
6.7356787538
 10
-1.2925727769
 20
6.7355313791
 10
-1.28916999
 20
6.7355637535
 10
-1.2858110422
 20
6.7357802749
 10
-1.2825089985
 20
6.7361853413
 10
-1.2798096387
 20
6.7366699231
 10
-1.277163125
 20
6.7372899959
 10
-1.2745737142
 20
6.7380470626
 10
-1.2720456628
 20
6.7389426261
 10
-1.2695832274
 20
6.7399781893
 10
-1.2671906647
 20
6.7411552552
 10
-1.2648719102
 20
6.7424746359
 10
-1.2626296147
 20
6.7439343805
 10
-1.2604661079
 20
6.7455318474
 10
-1.2583837196
 20
6.7472643947
 10
-1.2563847794
 20
6.749129381
 10
-1.2544716171
 20
6.7511241644
 10
-1.2526464193
 20
6.7532461949
 10
-1.2509108002
 20
6.7554932889
 10
-1.2492662311
 20
6.7578633544
 10
-1.2477141832
 20
6.7603542993
 10
-1.2462561277
 20
6.7629640317
 10
-1.2448935357
 20
6.7656904595
 10
-1.243628045
 20
6.7685310924
 10
-1.242461959
 20
6.771481847
 10
-1.2413977474
 20
6.7745382417
 10
-1.2404378802
 20
6.7776957949
 10
-1.2395848271
 20
6.7809500248
 10
-1.2388410581
 20
6.7842964497
 10
-1.2382087259
 20
6.7877304031
 10
-1.2376887153
 20
6.7912464775
 10
-1.2372815942
 20
6.7948390808
 10
-1.2369879303
 20
6.7985026205
 10
-1.2368082914
 20
6.8022315045
 10
-1.2367432452
 20
6.8060201405
 10
-1.2367928595
 20
6.809863015
 10
-1.2369552012
 20
6.8137549308
 10
-1.2372278373
 20
6.8176907697
 10
-1.2376083344
 20
6.8216654133
 10
-1.2380942596
 20
6.8256737434
 10
-1.2386831797
 20
6.8297106416
 10
-1.2395218223
 20
6.8345837557
 10
-1.2404975355
 20
6.8394717899
 10
-1.241602581
 20
6.8443558965
 10
-1.2428292205
 20
6.8492172278
 10
-1.2441697157
 20
6.8540369361
 10
-1.2456169719
 20
6.8587993135
 10
-1.2471664689
 20
6.8635012111
 10
-1.2488143303
 20
6.8681426196
 10
-1.2505566794
 20
6.8727235299
 10
-1.2523896397
 20
6.8772439329
 10
-1.2539850453
 20
6.8809662794
 10
-1.2556475509
 20
6.8846560247
 10
-1.2573840241
 20
6.8883225928
 10
-1.2592013327
 20
6.8919754081
 10
-1.2611063442
 20
6.8956238945
 10
-1.2631059263
 20
6.8992774763
  0
LWPOLYLINE
  5
2C7
100
AcDbEntity
  8
CURVE
100
AcDbPolyline
 62
253
  6
CONTINUOUS
 90
37
 70
0
 10
-3.7694897859
 20
8.154233982
 10
-3.7674326724
 20
8.1530757177
 10
-3.7653880824
 20
8.1519829151
 10
-3.7633532682
 20
8.1509528724
 10
-3.7613254823
 20
8.1499828879
 10
-3.759301977
 20
8.1490702596
 10
-3.7572800049
 20
8.1482122858
 10
-3.7552573606
 20
8.1474067602
 10
-3.7532340075
 20
8.1466534586
 10
-3.7512104514
 20
8.1459526522
 10
-3.7491871979
 20
8.1453046124
 10
-3.7471647528
 20
8.1447096105
 10
-3.7451436217
 20
8.1441679177
 10
-3.7431245918
 20
8.1436798528
 10
-3.7411095758
 20
8.1432459242
 10
-3.7391007682
 20
8.1428666878
 10
-3.7371003632
 20
8.1425426996
 10
-3.7351105551
 20
8.1422745154
 10
-3.7331335382
 20
8.1420626912
 10
-3.7311714774
 20
8.1419076872
 10
-3.7292264202
 20
8.1418095816
 10
-3.7273003846
 20
8.1417683567
 10
-3.7253953886
 20
8.1417839951
 10
-3.7235134502
 20
8.1418564791
 10
-3.7216565875
 20
8.1419857913
 10
-3.7198265643
 20
8.1421719116
 10
-3.7180241271
 20
8.1424148107
 10
-3.7162497682
 20
8.1427144564
 10
-3.7145039798
 20
8.143070817
 10
-3.7127872543
 20
8.1434838604
 10
-3.7111000839
 20
8.1439535547
 10
-3.7094426754
 20
8.144480297
 10
-3.7078140932
 20
8.1450662004
 10
-3.7062131161
 20
8.1457138069
 10
-3.7046385231
 20
8.1464256587
 10
-3.7030890929
 20
8.1472042977
 10
-3.7015636046
 20
8.1480522661
  0
LINE
  5
2C8
100
AcDbEntity
  8
CURVE
100
AcDbLine
 62
253
  6
CONTINUOUS
 10
-4.2448275112
 20
9.8683266785
 11
-3.5696868842
 21
9.478508942
  0
LINE
  5
2C9
100
AcDbEntity
  8
CURVE
100
AcDbLine
 62
253
  6
CONTINUOUS
 10
-1.4754413199
 20
8.2693178002
 11
-0.8005501445
 21
7.8796440939
  0
LINE
  5
2CA
100
AcDbEntity
  8
CURVE
100
AcDbLine
 62
253
  6
CONTINUOUS
 10
-0.7955973834
 20
8.1026470492
 11
-1.4704885589
 21
8.4923207555
  0
LINE
  5
2CB
100
AcDbEntity
  8
CURVE
100
AcDbLine
 62
253
  6
CONTINUOUS
 10
-3.5647341232
 20
9.7015118972
 11
-4.2398747502
 21
10.0913296338
  0
LWPOLYLINE
  5
2CC
100
AcDbEntity
  8
CURVE
100
AcDbPolyline
 62
253
  6
CONTINUOUS
 90
81
 70
0
 10
-2.5331572057
 20
8.3864894336
 10
-2.5533410423
 20
8.3986047786
 10
-2.5732162689
 20
8.4114478654
 10
-2.5928426402
 20
8.42504142
 10
-2.6122799105
 20
8.4394081684
 10
-2.6315755838
 20
8.4545673317
 10
-2.650728161
 20
8.4705241115
 10
-2.6697238924
 20
8.4872802046
 10
-2.6885490283
 20
8.5048373079
 10
-2.7071847096
 20
8.5231895383
 10
-2.7255916407
 20
8.5423006943
 10
-2.7437254164
 20
8.5621269947
 10
-2.7615416318
 20
8.5826246581
 10
-2.7790000682
 20
8.6037527059
 10
-2.7960772532
 20
8.6254813697
 10
-2.812753901
 20
8.6477836838
 10
-2.8290107254
 20
8.6706326824
 10
-2.8448261034
 20
8.6939991727
 10
-2.8601690633
 20
8.7178450538
 10
-2.8750062965
 20
8.7421299979
 10
-2.889304494
 20
8.766813677
 10
-2.9030324104
 20
8.7918540726
 10
-2.9161670524
 20
8.8172024039
 10
-2.9286874902
 20
8.8428081994
 10
-2.9405727937
 20
8.8686209876
 10
-2.95180326
 20
8.8945932934
 10
-2.9623640944
 20
8.9206896269
 10
-2.9722417292
 20
8.9468774946
 10
-2.9814225965
 20
8.9731244031
 10
-2.9898927422
 20
8.9993983055
 10
-2.9976366656
 20
9.0256689417
 10
-3.0046384795
 20
9.0519064984
 10
-3.0108822966
 20
9.0780811622
 10
-3.0163540564
 20
9.104160181
 10
-3.0210470045
 20
9.1300990473
 10
-3.0249562133
 20
9.1558503148
 10
-3.028076755
 20
9.1813665372
 10
-3.0304037021
 20
9.2066002682
 10
-3.0319321268
 20
9.2315040616
 10
-3.0326571013
 20
9.256030471
 10
-3.0325736982
 20
9.2801320503
 10
-3.0316789741
 20
9.3037628922
 10
-3.0299779239
 20
9.3268832465
 10
-3.0274775271
 20
9.349454902
 10
-3.0241847631
 20
9.3714396476
 10
-3.0201066113
 20
9.3927992722
 10
-3.0152500511
 20
9.4134955646
 10
-3.009622062
 20
9.4334903138
 10
-3.0032296232
 20
9.4527453086
 10
-2.996081184
 20
9.4712265709
 10
-2.9881910719
 20
9.4889170549
 10
-2.9795750842
 20
9.5058039479
 10
-2.9702490181
 20
9.5218744371
 10
-2.960227985
 20
9.5371153723
 10
-2.9495243523
 20
9.5515122536
 10
-2.9381498015
 20
9.5650502435
 10
-2.9261160142
 20
9.5777145046
 10
-2.9134366791
 20
9.5894876864
 10
-2.9001335129
 20
9.6003423874
 10
-2.8862302396
 20
9.6102486929
 10
-2.8717505833
 20
9.6191766882
 10
-2.8567204879
 20
9.6271010751
 10
-2.8411747769
 20
9.6340150196
 10
-2.8251504938
 20
9.639916304
 10
-2.808684682
 20
9.6448027106
 10
-2.791811166
 20
9.648671756
 10
-2.7745508937
 20
9.6515198929
 10
-2.7569215938
 20
9.6533433084
 10
-2.7389409953
 20
9.6541381894
 10
-2.7206311657
 20
9.6539023555
 10
-2.7020315286
 20
9.6526401569
 10
-2.6831858461
 20
9.650357576
 10
-2.6641378807
 20
9.6470605956
 10
-2.6449265304
 20
9.6427569624
 10
-2.6255712366
 20
9.6374614803
 10
-2.6060865765
 20
9.6311907169
 10
-2.5864871273
 20
9.6239612403
 10
-2.566775061
 20
9.6157788833
 10
-2.5469029289
 20
9.6066065398
 10
-2.5268108772
 20
9.5963963688
 10
-2.506439052
 20
9.585100529
  0
LWPOLYLINE
  5
2CD
100
AcDbEntity
  8
ASSI
100
AcDbPolyline
 62
253
  6
CONTINUOUS
 90
28
 70
0
 10
6.4758674228
 20
12.1251622745
 10
6.4741867833
 20
12.1485938552
 10
6.4713379387
 20
12.1726481124
 10
6.467330517
 20
12.1972437486
 10
6.4621780625
 20
12.2222976369
 10
6.4558979888
 20
12.2477251016
 10
6.4485115212
 20
12.273440204
 10
6.4400436237
 20
12.2993560338
 10
6.4305229159
 20
12.3253850019
 10
6.419981575
 20
12.3514391368
 10
6.4084552283
 20
12.3774303823
 10
6.3959828317
 20
12.4032708942
 10
6.3826065388
 20
12.4288733381
 10
6.3683715581
 20
12.454151184
 10
6.3533260002
 20
12.4790189992
 10
6.3375207153
 20
12.5033927366
 10
6.3210091212
 20
12.5271900188
 10
6.3038470231
 20
12.550330417
 10
6.2860924245
 20
12.5727357223
 10
6.2678053317
 20
12.5943302102
 10
6.2490475503
 20
12.6150408966
 10
6.2298824771
 20
12.6347977846
 10
6.2103748853
 20
12.6535341005
 10
6.1905907056
 20
12.6711865204
 10
6.1705968039
 20
12.6876953832
 10
6.1504607546
 20
12.7030048931
 10
6.1302506125
 20
12.7170633076
 10
6.1100346828
 20
12.7298231129
  0
LWPOLYLINE
  5
2CE
100
AcDbEntity
  8
ASSI
100
AcDbPolyline
 62
253
  6
CONTINUOUS
 90
16
 70
0
 10
6.4758674228
 20
-22.9820969349
 10
6.4741867827
 20
-23.006046294
 10
6.4713379367
 20
-23.0292128412
 10
6.4673305132
 20
-23.0515182793
 10
6.4621780563
 20
-23.0728872215
 10
6.45589798
 20
-23.0932474461
 10
6.4485115094
 20
-23.1125301406
 10
6.440043609
 20
-23.1306701344
 10
6.4305228981
 20
-23.1476061187
 10
6.4199815544
 20
-23.1632808542
 10
6.4084552049
 20
-23.1776413642
 10
6.3959828059
 20
-23.1906391137
 10
6.3826065109
 20
-23.2022301735
 10
6.3683715286
 20
-23.2123753689
 10
6.3533259695
 20
-23.2210404115
 10
6.3514649969
 20
-23.2219810112
  0
LINE
  5
2CF
100
AcDbEntity
  8
ASSI
100
AcDbLine
 62
253
  6
CONTINUOUS
 10
9.8161041325
 20
-3.4871683867
 11
5.350585836
 21
-6.0212621376
  0
LINE
  5
2D0
100
AcDbEntity
  8
ASSI
100
AcDbLine
 62
253
  6
CONTINUOUS
 10
9.9575254895
 20
-3.7320987087
 11
5.4907635849
 21
-6.2668981828
  0
LINE
  5
2D1
100
AcDbEntity
  8
ASSI
100
AcDbLine
 62
253
  6
CONTINUOUS
 10
5.4907635849
 20
-5.6885781662
 11
9.9575254895
 21
-3.2422538476
  0
LINE
  5
2D2
100
AcDbEntity
  8
ASSI
100
AcDbLine
 62
7
  6
CONTINUOUS
 10
5.4478901424
 20
-5.7809324332
 11
9.914804467
 21
-3.3345246382
  0
LWPOLYLINE
  5
2D3
100
AcDbEntity
  8
ASSI
100
AcDbPolyline
 62
253
  6
CONTINUOUS
 90
31
 70
0
 10
5.350585836
 20
-6.0212621376
 10
5.339091341
 20
-6.0274534005
 10
5.3271332375
 20
-6.0332656594
 10
5.3147115255
 20
-6.0386989142
 10
5.3017901411
 20
-6.0437659731
 10
5.2884051482
 20
-6.0484540279
 10
5.2746647389
 20
-6.0527246541
 10
5.26056609
 20
-6.0565743393
 10
5.2461120248
 20
-6.0600065959
 10
5.2314192042
 20
-6.0629935365
 10
5.2164861353
 20
-6.0655314402
 10
5.2013143111
 20
-6.0676240278
 10
5.1860248717
 20
-6.0692545756
 10
5.1706166786
 20
-6.070419405
 10
5.1550908704
 20
-6.0711221944
 10
5.1395720024
 20
-6.0713572554
 10
5.1240600827
 20
-6.0711207948
 10
5.1085551031
 20
-6.0704166057
 10
5.0931815946
 20
-6.0692503788
 10
5.0779408513
 20
-6.0676184296
 10
5.062831579
 20
-6.0655244425
 10
5.047974426
 20
-6.0629851616
 10
5.0333709995
 20
-6.0599968677
 10
5.0190196924
 20
-6.0565632798
 10
5.0050363319
 20
-6.0527122991
 10
4.9914238662
 20
-6.0484404198
 10
4.9781793471
 20
-6.0437511476
 10
4.9654097577
 20
-6.0386829004
 10
4.953150759
 20
-6.0332484842
 10
4.94136669
 20
-6.0274350929
 10
4.9300575507
 20
-6.0212427266
  0
LWPOLYLINE
  5
2D4
100
AcDbEntity
  8
ASSI
100
AcDbPolyline
 62
253
  6
CONTINUOUS
 90
31
 70
0
 10
5.4907635847
 20
-6.2668982265
 10
5.4716809588
 20
-6.2771179385
 10
5.4517195156
 20
-6.286752224
 10
5.4309329348
 20
-6.2957756408
 10
5.4093780777
 20
-6.3041642881
 10
5.3871119357
 20
-6.3118962349
 10
5.3641911661
 20
-6.318951279
 10
5.3406752829
 20
-6.3253110668
 10
5.3166289009
 20
-6.3309581117
 10
5.2921185995
 20
-6.3358762111
 10
5.267211083
 20
-6.3400522955
 10
5.2419722065
 20
-6.3434756753
 10
5.2164689744
 20
-6.3461368201
 10
5.1907694562
 20
-6.3480287944
 10
5.1649428295
 20
-6.3491467132
 10
5.13905853
 20
-6.349487155
 10
5.1131859517
 20
-6.3490493735
 10
5.08739445
 20
-6.3478347587
 10
5.0617533554
 20
-6.3458462385
 10
5.0363316793
 20
-6.3430893252
 10
5.011197278
 20
-6.3395715962
 10
4.9864168888
 20
-6.335302102
 10
4.9620560445
 20
-6.3302921347
 10
4.9381810275
 20
-6.3245553886
 10
4.914857907
 20
-6.3181076027
 10
4.8921507434
 20
-6.3109668136
 10
4.8701185009
 20
-6.3031519648
 10
4.8488172538
 20
-6.2946828326
 10
4.8283033311
 20
-6.2855815569
 10
4.8086328475
 20
-6.2758728773
 10
4.7898587021
 20
-6.2655827289
  0
LWPOLYLINE
  5
2D5
100
AcDbEntity
  8
ASSI
100
AcDbPolyline
 62
253
  6
CONTINUOUS
 90
7
 70
0
 10
5.364191165
 20
-5.7392571595
 10
5.3871119345
 20
-5.73242478
 10
5.4093780764
 20
-5.7249192663
 10
5.4309329335
 20
-5.7167592042
 10
5.4517195146
 20
-5.7079659327
 10
5.4716809582
 20
-5.6985637849
 10
5.4907635847
 20
-5.6885781222
  0
LWPOLYLINE
  5
2D6
100
AcDbEntity
  8
CURVE
100
AcDbPolyline
 62
253
  6
CONTINUOUS
 90
70
 70
0
 10
-3.2433453694
 20
10.1681057194
 10
-3.2403710384
 20
10.1664459972
 10
-3.2374332262
 20
10.1649211706
 10
-3.2345237454
 20
10.1635243698
 10
-3.2316344086
 20
10.1622487251
 10
-3.2287570286
 20
10.1610873667
 10
-3.2258834178
 20
10.1600334249
 10
-3.2224312088
 20
10.158903626
 10
-3.2189745464
 20
10.1579236278
 10
-3.2155153393
 20
10.1570984435
 10
-3.2120554961
 20
10.1564330863
 10
-3.2085969256
 20
10.1559325696
 10
-3.2051433748
 20
10.1556018751
 10
-3.2017059447
 20
10.1554458588
 10
-3.1982975746
 20
10.1554693453
 10
-3.1949312041
 20
10.1556771593
 10
-3.1916197725
 20
10.1560741253
 10
-3.1889110713
 20
10.1565526162
 10
-3.1862541329
 20
10.1571668902
 10
-3.1836535822
 20
10.1579180243
 10
-3.1811140441
 20
10.1588070955
 10
-3.1786401435
 20
10.1598351809
 10
-3.1762365055
 20
10.1610033575
 10
-3.173907169
 20
10.1623124406
 10
-3.1716538292
 20
10.1637621982
 10
-3.1694775955
 20
10.1653521365
 10
-3.1673795771
 20
10.1670817615
 10
-3.1653608834
 20
10.1689505796
 10
-3.1634226236
 20
10.1709580968
 10
-3.1615670289
 20
10.1731017952
 10
-3.1598008182
 20
10.1753710596
 10
-3.1581318324
 20
10.1777532508
 10
-3.1565657836
 20
10.1802391701
 10
-3.1550998688
 20
10.1828333824
 10
-3.1537291562
 20
10.1855438928
 10
-3.1524501766
 20
10.188376418
 10
-3.1512653108
 20
10.191327519
 10
-3.1501784021
 20
10.194391468
 10
-3.1491932939
 20
10.1975625372
 10
-3.1483138293
 20
10.2008349988
 10
-3.1475438517
 20
10.204203125
 10
-3.1468865909
 20
10.2076607483
 10
-3.1463428229
 20
10.2111999424
 10
-3.14591271
 20
10.2148123416
 10
-3.1455964148
 20
10.2184895798
 10
-3.1453940996
 20
10.2222232911
 10
-3.1453059268
 20
10.2260051098
 10
-3.1453317613
 20
10.229829945
 10
-3.1454702771
 20
10.2337058071
 10
-3.1457198505
 20
10.2376439817
 10
-3.1460786404
 20
10.2416502304
 10
-3.1465439362
 20
10.24570822
 10
-3.1471128097
 20
10.2497960933
 10
-3.147782098
 20
10.2538943681
 10
-3.1485476985
 20
10.2579930627
 10
-3.149405274
 20
10.2620845707
 10
-3.150350487
 20
10.2661612854
 10
-3.1513790002
 20
10.2702156003
 10
-3.1524864762
 20
10.2742399087
 10
-3.1539141663
 20
10.279020691
 10
-3.1554453922
 20
10.2837457508
 10
-3.1570762287
 20
10.2884135283
 10
-3.1588027511
 20
10.293022464
 10
-3.1606210343
 20
10.2975709979
 10
-3.1622050541
 20
10.3013159519
 10
-3.163856922
 20
10.3050276211
 10
-3.1655834888
 20
10.3087157498
 10
-3.1673916056
 20
10.312390082
 10
-3.1692881232
 20
10.3160603618
 10
-3.1712798925
 20
10.3197363333
  0
LWPOLYLINE
  5
2D7
100
AcDbEntity
  8
CURVE
100
AcDbPolyline
 62
253
  6
CONTINUOUS
 90
54
 70
0
 10
-2.4941097099
 20
10.0997327246
 10
-2.4914815739
 20
10.098260258
 10
-2.4888850086
 20
10.0968948744
 10
-2.4863147784
 20
10.0956318747
 10
-2.4837656483
 20
10.09446656
 10
-2.4812323828
 20
10.0933942312
 10
-2.4787097467
 20
10.092410189
 10
-2.4761925046
 20
10.0915097346
 10
-2.4732571147
 20
10.090560301
 10
-2.4703229837
 20
10.0897211031
 10
-2.4673911546
 20
10.0889950002
 10
-2.46446267
 20
10.0883848518
 10
-2.4615385729
 20
10.0878935175
 10
-2.4586199061
 20
10.0875238565
 10
-2.4557088625
 20
10.0872786516
 10
-2.4528122348
 20
10.087160378
 10
-2.4499379658
 20
10.0871714339
 10
-2.4470939983
 20
10.0873142177
 10
-2.4442882752
 20
10.0875911278
 10
-2.4415287392
 20
10.0880045624
 10
-2.4392057596
 20
10.0884692926
 10
-2.4369248806
 20
10.0890368629
 10
-2.434688434
 20
10.0897080475
 10
-2.4324987515
 20
10.0904836206
 10
-2.4303581647
 20
10.0913643566
 10
-2.4282690053
 20
10.0923510297
 10
-2.4262336052
 20
10.0934444142
 10
-2.4242541554
 20
10.0946447536
 10
-2.4223322849
 20
10.0959501692
 10
-2.4204694821
 20
10.0973582514
 10
-2.4186672353
 20
10.0988665907
 10
-2.4169270329
 20
10.1004727777
 10
-2.4152503633
 20
10.1021744028
 10
-2.4136387149
 20
10.1039690565
 10
-2.4120935585
 20
10.1058537906
 10
-2.4106162949
 20
10.1078235008
 10
-2.4092083075
 20
10.1098725445
 10
-2.4078709796
 20
10.1119952786
 10
-2.4066056944
 20
10.1141860603
 10
-2.4054138352
 20
10.1164392466
 10
-2.4042967853
 20
10.1187491948
 10
-2.4030892401
 20
10.1215094871
 10
-2.4019832989
 20
10.1243372399
 10
-2.400976859
 20
10.127230335
 10
-2.4000678178
 20
10.1301866545
 10
-2.3992540726
 20
10.1332040803
 10
-2.3985335208
 20
10.1362804944
 10
-2.3979889274
 20
10.1389641691
 10
-2.3975125855
 20
10.1416967168
 10
-2.3971058225
 20
10.1444852282
 10
-2.3967699662
 20
10.1473367941
 10
-2.3965063441
 20
10.1502585053
 10
-2.3963162838
 20
10.1532574526
 10
-2.396201113
 20
10.1563407266
  0
LWPOLYLINE
  5
2D8
100
AcDbEntity
  8
CURVE
100
AcDbPolyline
 62
253
  6
CONTINUOUS
 90
37
 70
0
 10
-1.762376447
 20
9.3130128246
 10
-1.7603226503
 20
9.3118559939
 10
-1.7582805487
 20
9.3107632476
 10
-1.7562473527
 20
9.3097319546
 10
-1.7542202725
 20
9.3087594842
 10
-1.7521965185
 20
9.3078432055
 10
-1.750173301
 20
9.3069804877
 10
-1.7481483749
 20
9.3061691989
 10
-1.7461216732
 20
9.3054092037
 10
-1.744093673
 20
9.3047008655
 10
-1.7420648519
 20
9.3040445479
 10
-1.7400356871
 20
9.3034406145
 10
-1.7380066561
 20
9.3028894288
 10
-1.7359785403
 20
9.3023914075
 10
-1.733953337
 20
9.3019471804
 10
-1.7319333479
 20
9.3015574306
 10
-1.7299208744
 20
9.3012228409
 10
-1.727918218
 20
9.3009440944
 10
-1.7259276802
 20
9.3007218742
 10
-1.723951529
 20
9.3005567584
 10
-1.7219918989
 20
9.3004489068
 10
-1.7200508908
 20
9.3003983743
 10
-1.7181306057
 20
9.3004052158
 10
-1.7162331447
 20
9.3004694864
 10
-1.7143606087
 20
9.300591241
 10
-1.7125148288
 20
9.3007705326
 10
-1.7106965562
 20
9.3010074057
 10
-1.7089062725
 20
9.3013019032
 10
-1.7071444589
 20
9.3016540676
 10
-1.7054115969
 20
9.3020639417
 10
-1.7037081678
 20
9.302531568
 10
-1.7020343819
 20
9.3030574178
 10
-1.7003893648
 20
9.3036436756
 10
-1.6987719709
 20
9.3042929544
 10
-1.6971810547
 20
9.3050078672
 10
-1.6956154707
 20
9.305791027
 10
-1.6940740731
 20
9.3066450469
  0
LWPOLYLINE
  5
2D9
100
AcDbEntity
  8
CURVE
100
AcDbPolyline
 62
253
  6
CONTINUOUS
 90
81
 70
0
 10
-2.506439052
 20
9.585100529
 10
-2.4862680856
 20
9.5729957853
 10
-2.4664077417
 20
9.5601616562
 10
-2.4467980859
 20
9.5465755844
 10
-2.4273791838
 20
9.5322150125
 10
-2.4081034023
 20
9.5170608699
 10
-2.3889723135
 20
9.5011080336
 10
-2.369999791
 20
9.4843548677
 10
-2.3511997084
 20
9.466799736
 10
-2.33259098
 20
9.4484485406
 10
-2.3142126847
 20
9.4293373349
 10
-2.2961089419
 20
9.4095097103
 10
-2.2783238712
 20
9.3890092584
 10
-2.2608974052
 20
9.3678767937
 10
-2.2438527268
 20
9.3461420233
 10
-2.2272088319
 20
9.3238318774
 10
-2.2109847166
 20
9.3009732862
 10
-2.1952017467
 20
9.2775954469
 10
-2.1798907695
 20
9.2537366247
 10
-2.1650850022
 20
9.2294373515
 10
-2.150817662
 20
9.2047381594
 10
-2.137119865
 20
9.179681171
 10
-2.1240143214
 20
9.1543148704
 10
-2.1115216403
 20
9.1286893321
 10
-2.0996624306
 20
9.1028546309
 10
-2.0884561462
 20
9.0768580155
 10
-2.0779176199
 20
9.0507354313
 10
-2.0680605292
 20
9.0245199981
 10
-2.0588985519
 20
8.9982448353
 10
-2.0504457113
 20
8.9719425183
 10
-2.0427174137
 20
8.9456434445
 10
-2.0357294111
 20
8.9193774668
 10
-2.0294974555
 20
8.8931744383
 10
-2.0240354917
 20
8.8670672066
 10
-2.0193502352
 20
8.8411005974
 10
-2.0154465942
 20
8.8153224314
 10
-2.0123294769
 20
8.789780529
 10
-2.0100037914
 20
8.7645227107
 10
-2.0084744461
 20
8.739596797
 10
-2.0077463491
 20
8.7150506083
 10
-2.0078244086
 20
8.6909319651
 10
-2.0087115616
 20
8.6672870743
 10
-2.0104028602
 20
8.6441556877
 10
-2.0128913853
 20
8.6215759438
 10
-2.0161702177
 20
8.5995859808
 10
-2.0202324384
 20
8.578223937
 10
-2.0250711283
 20
8.5575279507
 10
-2.0306793681
 20
8.5375361603
 10
-2.0370502389
 20
8.518286704
 10
-2.0441753589
 20
8.4998134568
 10
-2.0520404967
 20
8.4821332407
 10
-2.0606299582
 20
8.4652586141
 10
-2.0699280495
 20
8.4492021357
 10
-2.0799197675
 20
8.4339767196
 10
-2.0905928733
 20
8.419596703
 10
-2.1019358193
 20
8.4060767783
 10
-2.1139370575
 20
8.3934316382
 10
-2.1265830584
 20
8.3816784911
 10
-2.1398523653
 20
8.3708446091
 10
-2.1537215395
 20
8.3609597802
 10
-2.1681671425
 20
8.3520537922
 10
-2.18316349
 20
8.3441518035
 10
-2.1986759151
 20
8.3372604549
 10
-2.214667505
 20
8.3313817578
 10
-2.2311013469
 20
8.3265177233
 10
-2.247943771
 20
8.3226706308
 10
-2.2651740789
 20
8.319843832
 10
-2.2827748152
 20
8.3180409463
 10
-2.3007285244
 20
8.3172655936
 10
-2.3190134552
 20
8.3175198228
 10
-2.3375906736
 20
8.3187994004
 10
-2.3564169494
 20
8.3210985219
 10
-2.3754490527
 20
8.3244113833
 10
-2.3946485066
 20
8.3287304094
 10
-2.4139958471
 20
8.3340409411
 10
-2.433476363
 20
8.3403265488
 10
-2.4530753432
 20
8.3475708024
 10
-2.4727905067
 20
8.3557679558
 10
-2.4926692923
 20
8.3649549975
 10
-2.5127715691
 20
8.3751795994
 10
-2.5331572057
 20
8.3864894336
  0
LINE
  5
2DA
100
AcDbEntity
  8
ASSI
100
AcDbLine
 62
7
  6
CONTINUOUS
 10
9.9575254895
 20
-3.7320987087
 11
9.9575254895
 21
-14.1829369041
  0
LINE
  5
2DB
100
AcDbEntity
  8
ASSI
100
AcDbLine
 62
7
  6
CONTINUOUS
 10
9.9575254895
 20
-3.2422538476
 11
9.9575254895
 21
7.2085843479
  0
LINE
  5
2DC
100
AcDbEntity
  8
ASSI
100
AcDbLine
 62
7
  6
CONTINUOUS
 10
9.9575254895
 20
7.2085843479
 11
9.4153579982
 21
13.9389802064
  0
LINE
  5
2DD
100
AcDbEntity
  8
ASSI
100
AcDbLine
 62
7
  6
CONTINUOUS
 10
9.9575254895
 20
-14.1829369041
 11
9.4153579982
 21
-21.5179325709
  0
LINE
  5
2DE
100
AcDbEntity
  8
ASSI
100
AcDbLine
 62
253
  6
CONTINUOUS
 10
-9.8245540874
 20
19.5978912034
 11
5.0940956759
 21
10.9840498051
  0
LINE
  5
2DF
100
AcDbEntity
  8
ASSI
100
AcDbLine
 62
7
  6
CONTINUOUS
 10
7.0291407275
 20
15.6877373945
 11
6.3567503955
 21
15.5579160167
  0
LINE
  5
2E0
100
AcDbEntity
  8
ASSI
100
AcDbLine
 62
253
  6
CONTINUOUS
 10
-8.8319754657
 20
21.3571673881
 11
6.1100471435
 21
12.7298308018
  0
LINE
  5
2E1
100
AcDbEntity
  8
ASSI
100
AcDbLine
 62
7
  6
CONTINUOUS
 10
6.1635652302
 20
15.5835248518
 11
3.7812801341
 21
16.9590264093
  0
LINE
  5
2E2
100
AcDbEntity
  8
ASSI
100
AcDbLine
 62
7
  6
CONTINUOUS
 10
-1.7560307191
 20
20.1562002971
 11
-4.1383158152
 21
21.5317018545
  0
LINE
  5
2E3
100
AcDbEntity
  8
ASSI
100
AcDbLine
 62
7
  6
CONTINUOUS
 10
9.0307312034
 20
14.5320441395
 11
7.0291407275
 21
15.6877373945
  0
LINE
  5
2E4
100
AcDbEntity
  8
ASSI
100
AcDbLine
 62
7
  6
CONTINUOUS
 10
3.9096827716
 20
17.4888733223
 11
-0.8904552218
 21
20.2604128398
  0
LINE
  5
2E5
100
AcDbEntity
  8
ASSI
100
AcDbLine
 62
7
  6
CONTINUOUS
 10
-4.0099131777
 20
22.0615487676
 11
-6.0115036537
 21
23.2172420226
  0
LINE
  5
2E6
100
AcDbEntity
  8
ASSI
100
AcDbLine
 62
7
  6
CONTINUOUS
 10
-0.8904552218
 20
20.2604128398
 11
-1.5628455538
 21
20.1305914619
  0
LWPOLYLINE
  5
2E7
100
AcDbEntity
  8
ASSI
100
AcDbPolyline
 62
253
  6
CONTINUOUS
 90
28
 70
0
 10
5.7946797635
 20
-22.5801371868
 10
5.773441576
 20
-22.5922805806
 10
5.7511243578
 20
-22.6036966176
 10
5.7278019564
 20
-22.614347522
 10
5.7035515453
 20
-22.6241980503
 10
5.6784533688
 20
-22.6332156072
 10
5.6525904766
 20
-22.6413703535
 10
5.6260484486
 20
-22.6486353055
 10
5.5989151121
 20
-22.6549864234
 10
5.5712802511
 20
-22.6604026914
 10
5.543235309
 20
-22.6648661872
 10
5.5148730862
 20
-22.6683621411
 10
5.4862874329
 20
-22.670878985
 10
5.4575729388
 20
-22.6724083908
 10
5.4288246199
 20
-22.6729452977
 10
5.400137604
 20
-22.672487929
 10
5.371606816
 20
-22.6710377981
 10
5.3433266642
 20
-22.6685997036
 10
5.3153907271
 20
-22.665181713
 10
5.2878914445
 20
-22.6607951364
 10
5.2609198113
 20
-22.6554544891
 10
5.2345650762
 20
-22.649177443
 10
5.2089144467
 20
-22.641984769
 10
5.1840528006
 20
-22.6339002674
 10
5.1600624048
 20
-22.6249506899
 10
5.1370226431
 20
-22.6151656504
 10
5.1150097539
 20
-22.6045775275
 10
5.0940965776
 20
-22.5932213573
  0
LINE
  5
2E8
100
AcDbEntity
  8
ASSI
100
AcDbLine
 62
253
  6
CONTINUOUS
 10
6.4758674228
 20
-22.9820969349
 11
9.4153579982
 21
-21.5179325709
  0
LINE
  5
2E9
100
AcDbEntity
  8
ASSI
100
AcDbLine
 62
7
  6
CONTINUOUS
 10
6.3514649969
 20
-23.2219810112
 11
9.2797803251
 21
-21.7633830534
  0
ELLIPSE
  5
2EA
100
AcDbEntity
  8
ASSI
100
AcDbEllipse
 62
7
  6
CONTINUOUS
 10
9.0617794055
 20
-21.3133765168
 30
0.0
 11
-0.2148150744
 21
0.4515576038
 31
0.0
 40
0.6258090719
 41
-3.1302698991
 42
-2.3092664522
  0
ELLIPSE
  5
2EB
100
AcDbEntity
  8
ASSI
100
AcDbEllipse
 62
7
  6
CONTINUOUS
 10
9.8160825909
 20
-3.6504562221
 30
0.0
 11
-0.1000238792
 21
0.1731956925
 31
0.0
 40
0.5774195892
 41
-2.3562809449
 42
-0.7856369171
  0
ELLIPSE
  5
2EC
100
AcDbEntity
  8
CURVE
100
AcDbEllipse
 62
253
  6
CONTINUOUS
 10
335.1334242308
 20
211.564048977
 30
0.0
 11
-638.5153799302
 21
744.3777330562
 31
0.0
 40
0.410361248
 41
1.5210107066
 42
1.5214804988
  0
ELLIPSE
  5
2ED
100
AcDbEntity
  8
CURVE
100
AcDbEllipse
 62
253
  6
CONTINUOUS
 10
334.7805788451
 20
211.7677774805
 30
0.0
 11
-637.4431017284
 21
743.7999490345
 31
0.0
 40
0.4108687833
 41
1.5215719691
 42
1.5220421202
  0
ELLIPSE
  5
2EE
100
AcDbEntity
  8
CURVE
100
AcDbEllipse
 62
253
  6
CONTINUOUS
 10
367.0092970406
 20
193.1593195151
 30
0.0
 11
706.6736177001
 21
155.7240625393
 31
0.0
 40
0.2020654789
 41
-2.1666272048
 42
-2.1661570537
  0
ELLIPSE
  5
2EF
100
AcDbEntity
  8
CURVE
100
AcDbEllipse
 62
253
  6
CONTINUOUS
 10
366.629090927
 20
193.37884576
 30
0.0
 11
706.7178015534
 21
155.6931595796
 31
0.0
 40
0.2020846964
 41
-2.1661166177
 42
-2.1656464726
  0
ELLIPSE
  5
2F0
100
AcDbEntity
  8
CURVE
100
AcDbEllipse
 62
253
  6
CONTINUOUS
 10
334.7808182411
 20
211.7676392562
 30
0.0
 11
-637.4009860941
 21
743.7772625277
 31
0.0
 40
0.4108887376
 41
1.518617775
 42
1.5190879602
  0
ELLIPSE
  5
2F1
100
AcDbEntity
  8
CURVE
100
AcDbEllipse
 62
253
  6
CONTINUOUS
 10
335.1616600879
 20
211.547745947
 30
0.0
 11
-637.4219884007
 21
743.7885758129
 31
0.0
 40
0.4108787866
 41
1.5181486337
 42
1.5186191664
  0
ELLIPSE
  5
2F2
100
AcDbEntity
  8
CURVE
100
AcDbEllipse
 62
253
  6
CONTINUOUS
 10
366.6116667484
 20
193.3889062624
 30
0.0
 11
706.1320685525
 21
156.1027738251
 31
0.0
 40
0.2018293736
 41
-2.1637324759
 42
-2.163262296
  0
ELLIPSE
  5
2F3
100
AcDbEntity
  8
CURVE
100
AcDbEllipse
 62
253
  6
CONTINUOUS
 10
366.9985886585
 20
193.1655024007
 30
0.0
 11
706.3221293155
 21
155.9698743963
 31
0.0
 40
0.2019123551
 41
-2.1640138395
 42
-2.163543372
  0
ELLIPSE
  5
2F4
100
AcDbEntity
  8
ASSI
100
AcDbEllipse
 62
7
  6
CONTINUOUS
 10
-5.9808858738
 20
22.8282392944
 30
0.0
 11
-0.2805986523
 21
0.4138767202
 31
0.0
 40
0.5251497255
 41
-0.8253745819
 42
-0.0067082778
  0
ELLIPSE
  5
2F5
100
AcDbEntity
  8
ASSI
100
AcDbEllipse
 62
7
  6
CONTINUOUS
 10
9.0617794055
 20
14.142792891
 30
0.0
 11
-0.2807400337
 21
0.4141474974
 31
0.0
 40
0.5245128892
 41
-2.3945640771
 42
-0.8246811388
  0
ELLIPSE
  5
2F6
100
AcDbEntity
  8
ASSI
100
AcDbEllipse
 62
7
  6
CONTINUOUS
 10
9.8160825909
 20
-3.1605616201
 30
0.0
 11
-0.1000390991
 21
0.1732220807
 31
0.0
 40
0.5772437351
 41
-3.1546807054
 42
-2.3564331449
  0
ELLIPSE
  5
2F7
100
AcDbEntity
  8
ASSI
100
AcDbEllipse
 62
7
  6
CONTINUOUS
 10
6.3049865864
 20
15.6737376493
 30
0.0
 11
0.1999154856
 21
0.0095814127
 31
0.0
 40
0.6067642562
 41
-2.385266879
 42
-1.3380693278
  0
ELLIPSE
  5
2F8
100
AcDbEntity
  8
ASSI
100
AcDbEllipse
 62
7
  6
CONTINUOUS
 10
-1.6146093628
 20
20.2464130946
 30
0.0
 11
0.1999154856
 21
0.0095814127
 31
0.0
 40
0.6067642562
 41
-2.385266879
 42
-1.3380693278
  0
ELLIPSE
  5
2F9
100
AcDbEntity
  8
ASSI
100
AcDbEllipse
 62
7
  6
CONTINUOUS
 10
3.9227014904
 20
17.0492392068
 30
0.0
 11
0.1999154856
 21
0.0095814127
 31
0.0
 40
0.6067642562
 41
2.850720877
 42
3.8979184282
  0
ELLIPSE
  5
2FA
100
AcDbEntity
  8
ASSI
100
AcDbEllipse
 62
7
  6
CONTINUOUS
 10
-3.9968944589
 20
21.621914652
 30
0.0
 11
0.1999154856
 21
0.0095814127
 31
0.0
 40
0.6067642562
 41
2.850720877
 42
3.8979184282
  0
ELLIPSE
  5
2FB
100
AcDbEntity
  8
CURVE
100
AcDbEllipse
 62
253
  6
CONTINUOUS
 10
359.9606238434
 20
197.2291350785
 30
0.0
 11
-353.5448371896
 21
612.3773631081
 31
0.0
 40
0.5773595762
 41
1.5415935408
 42
1.5429442426
  0
ELLIPSE
  5
2FC
100
AcDbEntity
  8
CURVE
100
AcDbEllipse
 62
253
  6
CONTINUOUS
 10
360.2282671789
 20
197.074601171
 30
0.0
 11
-353.4524254743
 21
612.3453544071
 31
0.0
 40
0.5774199378
 41
1.5412643862
 42
1.5426147498
  0
ELLIPSE
  5
2FD
100
AcDbEntity
  8
CURVE
100
AcDbEllipse
 62
253
  6
CONTINUOUS
 10
359.9587732665
 20
197.2302035785
 30
0.0
 11
-353.4524254088
 21
612.3453543844
 31
0.0
 40
0.5774199379
 41
1.5471863906
 42
1.5485365465
  0
ELLIPSE
  5
2FE
100
AcDbEntity
  8
CURVE
100
AcDbEllipse
 62
253
  6
CONTINUOUS
 10
360.234455129
 20
197.0710283262
 30
0.0
 11
-353.7758721714
 21
612.4574278343
 31
0.0
 40
0.5772086601
 41
1.5466224376
 42
1.5479722526
  0
ENDSEC
  0
SECTION
  2
OBJECTS
  0
DICTIONARY
  5
C
100
AcDbDictionary
280
0
281
1
  3
ACAD_GROUP
350
D
  3
ACAD_MLINESTYLE
350
17
  3
ACAD_LAYOUT
350
1A
  3
ACAD_PLOTSETTINGS
350
19
  3
ACAD_PLOTSTYLENAME
350
E
  0
DICTIONARY
  5
D
102
{ACAD_REACTORS
330
C
102
}
100
AcDbDictionary
280
0
281
1
  0
ACDBDICTIONARYWDFLT
  5
E
102
{ACAD_REACTORS
330
C
102
}
100
AcDbDictionary
281
1
  3
Normal
350
F
100
AcDbDictionaryWithDefault
340
F
  0
DICTIONARY
  5
17
102
{ACAD_REACTORS
330
C
102
}
100
AcDbDictionary
280
0
281
1
  3
Standard
350
18
  0
DICTIONARY
  5
19
102
{ACAD_REACTORS
330
C
102
}
100
AcDbDictionary
281
1
  0
DICTIONARY
  5
1A
102
{ACAD_REACTORS
330
C
102
}
100
AcDbDictionary
281
1
  3
Model
350
2FF
  3
Layout1
350
300
  0
ACDBPLACEHOLDER
  5
F
102
{ACAD_REACTORS
330
E
102
}
  0
MLINESTYLE
  5
18
102
{ACAD_REACTORS
330
17
102
}
100
AcDbMlineStyle
  2
STANDARD
 70
0
  3

 62
256
 51
90.0
 52
90.0
 71
2
 49
0.5
 62
256
  6
BYLAYER
 49
-0.5
 62
256
  6
BYLAYER
  0
LAYOUT
  5
2FF
102
{ACAD_REACTORS
330
1A
102
}
100
AcDbPlotSettings
  1

  2
none_device
  4
ISO_A4_(297.00_x_210.00_MM)
  6

 40
0.0
 41
0.0
 42
0.0
 43
0.0
 44
297.0
 45
210.0
 46
0.0
 47
0.0
 48
0.0
 49
0.0
140
0.0
141
0.0
142
1.0
143
1.0
 70
1024
 72
1
 73
0
 74
0
  7

 75
0
147
1.0
148
0.0
149
0.0
100
AcDbLayout
  1
Model
 70
0
 71
0
 10
0.0
 20
0.0
 11
297.0
 21
210.0
 12
0.0
 22
0.0
 32
0.0
 14
0.0
 24
0.0
 34
0.0
 15
0.0
 25
0.0
 35
0.0
146
0.0
 13
0.0
 23
0.0
 33
0.0
 16
1.0
 26
0.0
 36
0.0
 17
0.0
 27
1.0
 37
0.0
 76
0
330
217
345
0
346
0
  0
LAYOUT
  5
300
102
{ACAD_REACTORS
330
1A
102
}
100
AcDbPlotSettings
  1

  2
none_device
  4
ISO_A4_(297.00_x_210.00_MM)
  6

 40
0.0
 41
0.0
 42
0.0
 43
0.0
 44
297.0
 45
210.0
 46
0.0
 47
0.0
 48
0.0
 49
0.0
140
0.0
141
0.0
142
1.0
143
1.0
 70
0
 72
1
 73
0
 74
0
  7

 75
0
147
1.0
148
0.0
149
0.0
100
AcDbLayout
  1
Layout1
 70
0
 71
1
 10
0.0
 20
0.0
 11
297.0
 21
210.0
 12
0.0
 22
0.0
 32
0.0
 14
0.0
 24
0.0
 34
0.0
 15
0.0
 25
0.0
 35
0.0
146
0.0
 13
0.0
 23
0.0
 33
0.0
 16
1.0
 26
0.0
 36
0.0
 17
0.0
 27
1.0
 37
0.0
 76
0
330
218
345
0
346
0
  0
ENDSEC
  0
EOF
