  0
SECTION
  2
HEADER
  9
$ACADVER
  1
AC1021
  9
$DWGCODEPAGE
  3
ANSI_1252
  9
$EXTMAX
 10
297.0
 20
210.0
 30
0.0
  9
$EXTMIN
 10
0.0
 20
0.0
 30
0.0
  9
$LIMMIN
 10
0.0
 20
0.0
  9
$LIMMAX
 10
297.0
 20
210.0
  9
$VIEWCTR
 10
148.5
 20
105.0
  9
$VIEWSIZE
 40
210.0
  9
$CLAYER
  8
0
  9
$LTSCALE
 40
16.335
  9
$CELTYPE
  6
BYLAYER
  9
$DIMSCALE
 40
1.0
  9
$DIMASZ
 40
3.0
  9
$DIMEXO
 40
0.5
  9
$DIMDLI
 40
11.286
  9
$DIMEXE
 40
1.5
  9
$DIMCEN
 40
2.673
  9
$DIMLFAC
 40
1.0
  9
$DIMBLK
  1
_FILLED
  9
$DIMALT
 70
0
  9
$DIMALTF
 40
25.4
  9
$DIMTXT
 40
3.0
  9
$DIMTOL
 70
1
  9
$DIMLIM
 70
0
  9
$DIMTFAC
 40
1.0
  9
$DIMTP
 40
0.01
  9
$DIMTM
 40
0.01
  9
$DIMGAP
 40
0.625
  9
$DIMDSEP
 70
44
  9
$AUNITS
 70
0
  9
$PDMODE
 70
3
  9
$PDSIZE
 40
3.0
  9
$HANDSEED
  5
34F
  9
$TILEMODE
 70
1
  9
$MEASUREMENT
 70
1
  9
$INSUNITS
 70
4
  0
ENDSEC
  0
SECTION
  2
CLASSES
  0
CLASS
  1
ACDBDICTIONARYWDFLT
  2
AcDbDictionaryWithDefault
  3
AutoCAD 2000
 90
0
 91
1
280
0
281
0
  0
CLASS
  1
ACDBPLACEHOLDER
  2
AcDbPlaceHolder
  3
AutoCAD 2000
 90
0
 91
1
280
0
281
0
  0
CLASS
  1
LAYOUT
  2
AcDbLayout
  3
AutoCAD 2000
 90
0
 91
0
280
0
281
0
  0
ENDSEC
  0
SECTION
  2
TABLES
  0
TABLE
  2
VPORT
  5
8
100
AcDbSymbolTable
 70
2
  0
VPORT
  5
1F4
100
AcDbSymbolTableRecord
100
AcDbViewportTableRecord
  2
*ACTIVE
 70
0
 10
0.0
 20
0.0
 11
1.0
 21
1.0
 12
148.5
 22
105.0
 13
0.0
 23
0.0
 14
1.0
 24
1.0
 15
0.0
 25
0.0
 16
0.0
 26
0.0
 36
1.0
 17
0.0
 27
0.0
 37
0.0
 40
210.0
 41
1.4142857143
 42
50.0
 43
0.0
 44
0.0
 50
0.0
 51
0.0
 71
0
 72
100
 73
1
 74
1
 75
0
 76
0
 77
0
 78
0
  0
ENDTAB
  0
TABLE
  2
LTYPE
  5
5
100
AcDbSymbolTable
 70
6
  0
LTYPE
  5
14
100
AcDbSymbolTableRecord
100
AcDbLinetypeTableRecord
  2
BYBLOCK
 70
0
  3

 72
65
 73
0
 40
0.0
  0
LTYPE
  5
15
100
AcDbSymbolTableRecord
100
AcDbLinetypeTableRecord
  2
BYLAYER
 70
0
  3

 72
65
 73
0
 40
0.0
  0
LTYPE
  5
16
100
AcDbSymbolTableRecord
100
AcDbLinetypeTableRecord
  2
CONTINUOUS
 70
64
  3
Solid line
 72
65
 73
0
 40
0.0
  0
LTYPE
  5
1F5
100
AcDbSymbolTableRecord
100
AcDbLinetypeTableRecord
  2
CENTER
 70
64
  3
____ _ ____ _ ____ _ ____ _ ____ _ ____ _ ____
 72
65
 73
4
 40
0.6
 49
0.375
 74
0
 49
-0.075
 74
0
 49
0.075
 74
0
 49
-0.075
 74
0
  0
LTYPE
  5
1F6
100
AcDbSymbolTableRecord
100
AcDbLinetypeTableRecord
  2
HIDDEN
 70
64
  3
- - - - - - - - - - - - - - - - - - - -
 72
65
 73
2
 40
0.2
 49
0.1
 74
0
 49
-0.1
 74
0
  0
LTYPE
  5
1F7
100
AcDbSymbolTableRecord
100
AcDbLinetypeTableRecord
  2
PHANTOM
 70
64
  3
_____ _ _ _____ _ _ _____ _ _ _____
 72
65
 73
6
 40
0.8
 49
0.45
 74
0
 49
-0.05
 74
0
 49
0.1
 74
0
 49
-0.05
 74
0
 49
0.1
 74
0
 49
-0.05
 74
0
  0
LTYPE
  5
1F8
100
AcDbSymbolTableRecord
100
AcDbLinetypeTableRecord
  2
DOT
 70
64
  3
. . . . . . . . . . . . . . . . . . . .
 72
65
 73
2
 40
0.2
 49
0.1
 74
0
 49
-0.1
 74
0
  0
LTYPE
  5
1F9
100
AcDbSymbolTableRecord
100
AcDbLinetypeTableRecord
  2
DASHED
 70
64
  3
- - - - - - - - - - - - - - - - - - - -
 72
65
 73
2
 40
0.2
 49
0.1
 74
0
 49
-0.1
 74
0
  0
ENDTAB
  0
TABLE
  2
LAYER
  5
2
100
AcDbSymbolTable
 70
36
  0
LAYER
  5
10
100
AcDbSymbolTableRecord
100
AcDbLayerTableRecord
  2
0
 70
0
 62
7
  6
CONTINUOUS
370
-3
390
F
  0
LAYER
  5
1FA
100
AcDbSymbolTableRecord
100
AcDbLayerTableRecord
  2
DEFAULT_1
 70
0
 62
7
  6
CENTER
370
-3
390
F
  0
LAYER
  5
1FB
100
AcDbSymbolTableRecord
100
AcDbLayerTableRecord
  2
DEFAULT_2
 70
0
 62
7
  6
HIDDEN
370
-3
390
F
  0
LAYER
  5
1FC
100
AcDbSymbolTableRecord
100
AcDbLayerTableRecord
  2
DEFAULT_3
 70
0
 62
7
  6
PHANTOM
370
-3
390
F
  0
LAYER
  5
1FD
100
AcDbSymbolTableRecord
100
AcDbLayerTableRecord
  2
ASSI
 70
0
 62
7
  6
CONTINUOUS
370
-3
390
F
  0
LAYER
  5
1FE
100
AcDbSymbolTableRecord
100
AcDbLayerTableRecord
  2
COORDINATE
 70
0
 62
7
  6
CONTINUOUS
370
-3
390
F
  0
LAYER
  5
1FF
100
AcDbSymbolTableRecord
100
AcDbLayerTableRecord
  2
COORD_ORIGINE
 70
0
 62
7
  6
CONTINUOUS
370
-3
390
F
  0
LAYER
  5
200
100
AcDbSymbolTableRecord
100
AcDbLayerTableRecord
  2
COPY_PUBLISH
 70
0
 62
7
  6
CONTINUOUS
370
-3
390
F
  0
LAYER
  5
201
100
AcDbSymbolTableRecord
100
AcDbLayerTableRecord
  2
COSMETIC
 70
0
 62
7
  6
CONTINUOUS
370
-3
390
F
  0
LAYER
  5
202
100
AcDbSymbolTableRecord
100
AcDbLayerTableRecord
  2
COSMETICI
 70
0
 62
7
  6
CONTINUOUS
370
-3
390
F
  0
LAYER
  5
203
100
AcDbSymbolTableRecord
100
AcDbLayerTableRecord
  2
CURVE
 70
0
 62
7
  6
CONTINUOUS
370
-3
390
F
  0
LAYER
  5
204
100
AcDbSymbolTableRecord
100
AcDbLayerTableRecord
  2
DRAFT
 70
0
 62
7
  6
CONTINUOUS
370
-3
390
F
  0
LAYER
  5
205
100
AcDbSymbolTableRecord
100
AcDbLayerTableRecord
  2
IGES
 70
0
 62
7
  6
CONTINUOUS
370
-3
390
F
  0
LAYER
  5
206
100
AcDbSymbolTableRecord
100
AcDbLayerTableRecord
  2
IMPORT_IGES
 70
0
 62
7
  6
CONTINUOUS
370
-3
390
F
  0
LAYER
  5
207
100
AcDbSymbolTableRecord
100
AcDbLayerTableRecord
  2
LIVELLO_1
 70
0
 62
7
  6
CONTINUOUS
370
-3
390
F
  0
LAYER
  5
208
100
AcDbSymbolTableRecord
100
AcDbLayerTableRecord
  2
NOTE
 70
0
 62
7
  6
CONTINUOUS
370
-3
390
F
  0
LAYER
  5
209
100
AcDbSymbolTableRecord
100
AcDbLayerTableRecord
  2
PIANI
 70
0
 62
7
  6
CONTINUOUS
370
-3
390
F
  0
LAYER
  5
20A
100
AcDbSymbolTableRecord
100
AcDbLayerTableRecord
  2
PIANI_ORIGINE
 70
0
 62
7
  6
CONTINUOUS
370
-3
390
F
  0
LAYER
  5
20B
100
AcDbSymbolTableRecord
100
AcDbLayerTableRecord
  2
PIANI_RIFERIMENTO
 70
0
 62
7
  6
CONTINUOUS
370
-3
390
F
  0
LAYER
  5
20C
100
AcDbSymbolTableRecord
100
AcDbLayerTableRecord
  2
PUNTI
 70
0
 62
7
  6
CONTINUOUS
370
-3
390
F
  0
LAYER
  5
20D
100
AcDbSymbolTableRecord
100
AcDbLayerTableRecord
  2
RACCORDO
 70
0
 62
7
  6
CONTINUOUS
370
-3
390
F
  0
LAYER
  5
20E
100
AcDbSymbolTableRecord
100
AcDbLayerTableRecord
  2
SIMBOLI
 70
0
 62
7
  6
CONTINUOUS
370
-3
390
F
  0
LAYER
  5
20F
100
AcDbSymbolTableRecord
100
AcDbLayerTableRecord
  2
SMUSSO
 70
0
 62
7
  6
CONTINUOUS
370
-3
390
F
  0
LAYER
  5
210
100
AcDbSymbolTableRecord
100
AcDbLayerTableRecord
  2
SNAPLINE
 70
0
 62
7
  6
CONTINUOUS
370
-3
390
F
  0
LAYER
  5
211
100
AcDbSymbolTableRecord
100
AcDbLayerTableRecord
  2
SUPERFICI
 70
0
 62
7
  6
CONTINUOUS
370
-3
390
F
  0
LAYER
  5
212
100
AcDbSymbolTableRecord
100
AcDbLayerTableRecord
  2
TRASH
 70
0
 62
7
  6
CONTINUOUS
370
-3
390
F
  0
LAYER
  5
213
100
AcDbSymbolTableRecord
100
AcDbLayerTableRecord
  2
WHITE
 70
0
 62
7
  6
CONTINUOUS
370
-3
390
F
  0
LAYER
  5
214
100
AcDbSymbolTableRecord
100
AcDbLayerTableRecord
  2
XSEC_DATUMS
 70
0
 62
7
  6
CONTINUOUS
370
-3
390
F
  0
ENDTAB
  0
TABLE
  2
STYLE
  5
3
100
AcDbSymbolTable
 70
1
  0
STYLE
  5
11
100
AcDbSymbolTableRecord
100
AcDbTextStyleTableRecord
  2
STANDARD
 70
0
 40
0.0
 41
0.8
 50
0.0
 71
0
 42
0.2
  3
txt
  4

  0
STYLE
  5
215
100
AcDbSymbolTableRecord
100
AcDbTextStyleTableRecord
  2
TEXTSTYLE_1
 70
0
 40
0.0
 41
0.8
 50
0.0
 71
0
 42
0.2
  3
gdt
  4

  0
ENDTAB
  0
TABLE
  2
VIEW
  5
6
100
AcDbSymbolTable
 70
0
  0
ENDTAB
  0
TABLE
  2
UCS
  5
7
100
AcDbSymbolTable
 70
0
  0
ENDTAB
  0
TABLE
  2
APPID
  5
9
100
AcDbSymbolTable
 70
1
  0
APPID
  5
216
100
AcDbSymbolTableRecord
100
AcDbRegAppTableRecord
  2
ACAD
 70
0
  0
ENDTAB
  0
TABLE
  2
BLOCK_RECORD
  5
1
100
AcDbSymbolTable
 70
0
  0
BLOCK_RECORD
  5
217
100
AcDbSymbolTableRecord
100
AcDbBlockTableRecord
  2
*Model_Space
  0
BLOCK_RECORD
  5
218
100
AcDbSymbolTableRecord
100
AcDbBlockTableRecord
  2
*Paper_Space
  0
ENDTAB
  0
TABLE
  2
DIMSTYLE
  5
A
100
AcDbSymbolTable
 70
1
100
AcDbDimStyleTable
 71
0
  0
DIMSTYLE
105
219
100
AcDbSymbolTableRecord
100
AcDbDimStyleTableRecord
  2
STANDARD
 70
0
  3

  4

 40
1.0
 41
3.0
 42
0.5
 43
0.38
 44
1.5
 45
0.0
 46
0.0
 47
0.01
 48
0.01
140
3.0
141
0.09
142
0.0
143
25.4
144
1.0
145
0.0
146
1.0
147
0.625
 71
1.0
 72
0.0
 73
0
 74
0
 75
0
 76
0
 77
1
 78
8
170
0
171
1
172
0
173
0
174
0
175
0
176
0
177
0
178
0
270
2
271
2
272
2
273
2
274
2
275
0
280
0
281
0
282
0
283
1
284
8
285
0
286
0
287
3
288
0
340
11
278
44
  0
ENDTAB
  0
ENDSEC
  0
SECTION
  2
BLOCKS
  0
BLOCK
  5
20
100
AcDbEntity
  8
0
100
AcDbBlockBegin
  2
*Model_Space
 70
0
 10
0.0
 20
0.0
 30
0.0
  3
*Model_Space
  1

  0
ENDBLK
  5
21
100
AcDbEntity
  8
0
100
AcDbBlockEnd
  0
BLOCK
  5
1C
100
AcDbEntity
  8
0
100
AcDbBlockBegin
  2
*Paper_Space
 70
0
 10
0.0
 20
0.0
 30
0.0
  3
*Paper_Space
  1

  0
ENDBLK
  5
1D
100
AcDbEntity
  8
0
100
AcDbBlockEnd
  0
ENDSEC
  0
SECTION
  2
ENTITIES
  0
LWPOLYLINE
  5
21A
100
AcDbEntity
  8
ASSI
100
AcDbPolyline
 62
7
  6
CONTINUOUS
 90
16
 70
0
 10
-9.0420912444
 20
21.4103613294
 10
-9.0930151937
 20
21.375302881
 10
-9.1962080504
 20
21.2947711923
 10
-9.2941562591
 20
21.2056317832
 10
-9.3866800901
 20
21.1086684354
 10
-9.4735063429
 20
21.0046223987
 10
-9.5541393388
 20
20.8944318195
 10
-9.6281829336
 20
20.7788849835
 10
-9.6952238237
 20
20.6587310584
 10
-9.7546671325
 20
20.5350368989
 10
-9.806092886
 20
20.4085482823
 10
-9.8490390043
 20
20.2800166907
 10
-9.8829681377
 20
20.150357479
 10
-9.9073939142
 20
20.0201932871
 10
-9.9217451369
 20
19.8900891066
 10
-9.9246484856
 20
19.834452368
  0
LINE
  5
21B
100
AcDbEntity
  8
ASSI
100
AcDbLine
 62
7
  6
CONTINUOUS
 10
-9.0423881368
 20
21.4101662116
 11
-6.2136514147
 21
23.2756914766
  0
LINE
  5
21C
100
AcDbEntity
  8
ASSI
100
AcDbLine
 62
253
  6
CONTINUOUS
 10
-8.7856066822
 20
21.3897636631
 11
-5.9651348702
 21
23.2498382976
  0
LWPOLYLINE
  5
21D
100
AcDbEntity
  8
ASSI
100
AcDbPolyline
 62
253
  6
CONTINUOUS
 90
15
 70
0
 10
-9.0420913323
 20
21.4103614629
 10
-9.0272736361
 20
21.4189535268
 10
-9.0123632581
 20
21.4255924226
 10
-8.9966240027
 20
21.4307684655
 10
-8.9801090646
 20
21.4344641618
 10
-8.9628742603
 20
21.436667021
 10
-8.944977839
 20
21.4373695979
 10
-8.9264802862
 20
21.4365695181
 10
-8.907444119
 20
21.4342694856
 10
-8.887933675
 20
21.4304772738
 10
-8.8680148945
 20
21.4252056997
 10
-8.8477550981
 20
21.4184725797
 10
-8.8272227588
 20
21.4103006701
 10
-8.8064872708
 20
21.40071759
 10
-8.7856187148
 20
21.3897557277
  0
LWPOLYLINE
  5
21E
100
AcDbEntity
  8
ASSI
100
AcDbPolyline
 62
7
  6
CONTINUOUS
 90
12
 70
0
 10
5.4522870806
 20
-23.1985891185
 10
5.4698013318
 20
-23.2084732845
 10
5.5543091854
 20
-23.2489378976
 10
5.6433522819
 20
-23.2800669289
 10
5.7362405929
 20
-23.3015341854
 10
5.8327842855
 20
-23.3131163048
 10
5.9322617355
 20
-23.3144718111
 10
6.0339024168
 20
-23.3053610267
 10
6.1377908482
 20
-23.2854627619
 10
6.2436905054
 20
-23.2543363189
 10
6.3508137987
 20
-23.211692768
 10
6.3976285845
 20
-23.1894865874
  0
LINE
  5
21F
100
AcDbEntity
  8
ASSI
100
AcDbLine
 62
7
  6
CONTINUOUS
 10
5.4537958622
 20
-23.1994637133
 11
-9.4720622625
 21
-14.5814602971
  0
LINE
  5
220
100
AcDbEntity
  8
ASSI
100
AcDbLine
 62
253
  6
CONTINUOUS
 10
5.1404644594
 20
-22.5606088636
 11
-9.7781853039
 21
-13.9467674652
  0
LINE
  5
221
100
AcDbEntity
  8
ASSI
100
AcDbLine
 62
253
  6
CONTINUOUS
 10
-9.4761898626
 20
-14.5790500675
 11
-9.5058027288
 21
-14.5600968489
  0
LWPOLYLINE
  5
222
100
AcDbEntity
  8
ASSI
100
AcDbPolyline
 62
253
  6
CONTINUOUS
 90
18
 70
0
 10
-9.5058027288
 20
-14.5600968489
 10
-9.5341097937
 20
-14.5389841136
 10
-9.5610642458
 20
-14.5157470437
 10
-9.5866201311
 20
-14.4904252969
 10
-9.6107340814
 20
-14.4630617795
 10
-9.633366735
 20
-14.4337017829
 10
-9.6544796279
 20
-14.4023949893
 10
-9.6740367351
 20
-14.369194404
 10
-9.6920061285
 20
-14.3341550553
 10
-9.7083574867
 20
-14.2973354631
 10
-9.7230625241
 20
-14.2587983442
 10
-9.7360966058
 20
-14.2186095891
 10
-9.7474375833
 20
-14.1768377746
 10
-9.7570663917
 20
-14.1335528833
 10
-9.7649674345
 20
-14.0888269672
 10
-9.7711275171
 20
-14.0427350978
 10
-9.7755359605
 20
-13.9953553152
 10
-9.7781853039
 20
-13.9467674652
  0
LWPOLYLINE
  5
223
100
AcDbEntity
  8
CURVE
100
AcDbPolyline
 62
253
  6
CONTINUOUS
 90
29
 70
0
 10
-0.331372143
 20
-14.7303352362
 10
-0.3298020871
 20
-14.7300748161
 10
-0.3282489447
 20
-14.7297495299
 10
-0.3267121147
 20
-14.7293602322
 10
-0.3251909961
 20
-14.7289077779
 10
-0.323684988
 20
-14.7283930217
 10
-0.3221934894
 20
-14.7278168184
 10
-0.3207158993
 20
-14.7271800229
 10
-0.3192516167
 20
-14.7264834898
 10
-0.3178000407
 20
-14.725728074
 10
-0.3163605701
 20
-14.7249146303
 10
-0.3149326042
 20
-14.7240440134
 10
-0.3133744185
 20
-14.7230217365
 10
-0.3118286643
 20
-14.7219349509
 10
-0.31029458
 20
-14.7207872932
 10
-0.3087714036
 20
-14.7195824
 10
-0.3072583735
 20
-14.7183239077
 10
-0.3057547278
 20
-14.717015453
 10
-0.3042597048
 20
-14.7156606724
 10
-0.3027725427
 20
-14.7142632024
 10
-0.3012924798
 20
-14.7128266797
 10
-0.2998187542
 20
-14.7113547408
 10
-0.2977226371
 20
-14.7091963852
 10
-0.2956340102
 20
-14.7069756219
 10
-0.2935489846
 20
-14.7046948996
 10
-0.2914636719
 20
-14.7023566672
 10
-0.2893741832
 20
-14.6999633734
 10
-0.28727663
 20
-14.6975174668
 10
-0.2851671236
 20
-14.6950213964
  0
LINE
  5
224
100
AcDbEntity
  8
ASSI
100
AcDbLine
 62
7
  6
CONTINUOUS
 10
-3.9635443943
 20
22.0941450426
 11
-4.1437108407
 21
21.6801197622
  0
LWPOLYLINE
  5
225
100
AcDbEntity
  8
CURVE
100
AcDbPolyline
 62
253
  6
CONTINUOUS
 90
26
 70
0
 10
-1.1525071089
 20
-12.5726363944
 10
-1.1437995247
 20
-12.5746016018
 10
-1.1351452149
 20
-12.5763599409
 10
-1.1265435087
 20
-12.5779129609
 10
-1.1179937348
 20
-12.5792622109
 10
-1.1094952224
 20
-12.58040924
 10
-1.1010473004
 20
-12.5813555972
 10
-1.0926492978
 20
-12.5821028319
 10
-1.0843005435
 20
-12.5826524929
 10
-1.0760003667
 20
-12.5830061295
 10
-1.0677480961
 20
-12.5831652909
 10
-1.0595430609
 20
-12.5831315259
 10
-1.05138459
 20
-12.582906384
 10
-1.0438947452
 20
-12.5825294135
 10
-1.036445291
 20
-12.5819881618
 10
-1.0290375141
 20
-12.5812800944
 10
-1.0216727008
 20
-12.5804026771
 10
-1.0143521375
 20
-12.5793533754
 10
-1.0070771106
 20
-12.578129655
 10
-0.9998489066
 20
-12.5767289816
 10
-0.9926688119
 20
-12.5751488207
 10
-0.9855381129
 20
-12.5733866381
 10
-0.9784580961
 20
-12.5714398993
 10
-0.9714300477
 20
-12.5693060701
 10
-0.9644552543
 20
-12.566982616
 10
-0.9575350024
 20
-12.5644670027
  0
LINE
  5
226
100
AcDbEntity
  8
CURVE
100
AcDbLine
 62
253
  6
CONTINUOUS
 10
-1.3027852161
 20
-12.511253106
 11
-1.2731306231
 21
-12.5259042235
  0
LWPOLYLINE
  5
227
100
AcDbEntity
  8
CURVE
100
AcDbPolyline
 62
253
  6
CONTINUOUS
 90
82
 70
0
 10
-4.4689960017
 20
-12.6675600073
 10
-4.407803809
 20
-12.7014866846
 10
-4.3472131643
 20
-12.7322700727
 10
-4.2871758925
 20
-12.7599321575
 10
-4.2276438184
 20
-12.7844949247
 10
-4.1685687671
 20
-12.8059803603
 10
-4.1196723914
 20
-12.8215427717
 10
-4.0711429096
 20
-12.8349526962
 10
-4.0230632936
 20
-12.8461794146
 10
-3.9755165152
 20
-12.8551922078
 10
-3.9285855465
 20
-12.8619603568
 10
-3.8823533593
 20
-12.8664531425
 10
-3.8368983039
 20
-12.8686477581
 10
-3.7922802446
 20
-12.8685530458
 10
-3.7485544241
 20
-12.8661857601
 10
-3.7057760849
 20
-12.8615626557
 10
-3.6640004699
 20
-12.854700487
 10
-3.6232828216
 20
-12.8456160086
 10
-3.5758887314
 20
-12.8318025956
 10
-3.5301498619
 20
-12.8148290526
 10
-3.4861184123
 20
-12.7947112488
 10
-3.4438465816
 20
-12.7714650537
 10
-3.4033865692
 20
-12.7451063366
 10
-3.3647965022
 20
-12.7156634208
 10
-3.3281582202
 20
-12.6832144449
 10
-3.2935594908
 20
-12.6478500013
 10
-3.2610880816
 20
-12.6096606824
 10
-3.2308317604
 20
-12.5687370806
 10
-3.2028679395
 20
-12.5251599573
 10
-3.1772326104
 20
-12.4789707485
 10
-3.1539514091
 20
-12.4302010594
 10
-3.133049972
 20
-12.3788824951
 10
-3.1145539353
 20
-12.3250466604
 10
-3.0984882858
 20
-12.2687493388
 10
-3.0848754142
 20
-12.2101430262
 10
-3.0737370617
 20
-12.1494043971
 10
-3.0650949696
 20
-12.0867101258
 10
-3.0589708793
 20
-12.0222368867
 10
-3.0553825634
 20
-11.9561392119
 10
-3.0543319198
 20
-11.8884830648
 10
-3.055816878
 20
-11.8193122669
 10
-3.0598353673
 20
-11.7486706393
 10
-3.0663853169
 20
-11.6766020033
 10
-3.0737738057
 20
-11.6155024656
 10
-3.0829052379
 20
-11.5535644602
 10
-3.0937660365
 20
-11.4909100658
 10
-3.1063426241
 20
-11.4276613614
 10
-3.1206214236
 20
-11.3639404257
 10
-3.1365888578
 20
-11.2998693376
 10
-3.1542304031
 20
-11.2355557108
 10
-3.1735277494
 20
-11.1710492989
 10
-3.1944616405
 20
-11.1063853903
 10
-3.21701282
 20
-11.0415992735
 10
-3.2411620313
 20
-10.9767262368
 10
-3.2668900183
 20
-10.9118015688
 10
-3.2998107604
 20
-10.8338981485
 10
-3.3348856578
 20
-10.7561800639
 10
-3.3720231582
 20
-10.6788561845
 10
-3.4111317093
 20
-10.6021353797
 10
-3.4521197588
 20
-10.526226519
 10
-3.494901707
 20
-10.4513152674
 10
-3.5394157636
 20
-10.3774944718
 10
-3.585606091
 20
-10.3048337747
 10
-3.6334168515
 20
-10.2334028186
 10
-3.6827922074
 20
-10.1632712459
 10
-3.7250887531
 20
-10.1058792701
 10
-3.7683738706
 20
-10.0495273489
 10
-3.8125883835
 20
-9.9943048247
 10
-3.8576731152
 20
-9.9403010396
 10
-3.9035688891
 20
-9.8876053359
 10
-3.9502165287
 20
-9.8363070558
 10
-3.9975532994
 20
-9.7864908711
 10
-4.0455022344
 20
-9.7382227711
 10
-4.093982809
 20
-9.6915640747
 10
-4.1429144982
 20
-9.6465761007
 10
-4.1922167772
 20
-9.6033201679
 10
-4.2418091213
 20
-9.5618575951
 10
-4.3016203839
 20
-9.5145337872
 10
-4.361779894
 20
-9.4698529195
 10
-4.4223341615
 20
-9.4277871945
 10
-4.483329696
 20
-9.3883088146
 10
-4.5448130073
 20
-9.3513899825
  0
LINE
  5
228
100
AcDbEntity
  8
CURVE
100
AcDbLine
 62
253
  6
CONTINUOUS
 10
-1.7921978579
 20
-13.150908395
 11
-1.2495914644
 21
-13.4662194846
  0
LINE
  5
229
100
AcDbEntity
  8
CURVE
100
AcDbLine
 62
253
  6
CONTINUOUS
 10
-1.2445615559
 20
-13.2499419032
 11
-1.7340667628
 21
-12.9649532757
  0
LWPOLYLINE
  5
22A
100
AcDbEntity
  8
CURVE
100
AcDbPolyline
 62
253
  6
CONTINUOUS
 90
31
 70
0
 10
-0.4111581948
 20
-14.7038671405
 10
-0.409208948
 20
-14.7052155082
 10
-0.4072426857
 20
-14.7065144099
 10
-0.4052593514
 20
-14.7077647883
 10
-0.4032588887
 20
-14.7089675862
 10
-0.4012412414
 20
-14.7101237462
 10
-0.3992063529
 20
-14.7112342111
 10
-0.3971541668
 20
-14.7122999235
 10
-0.3950846269
 20
-14.7133218261
 10
-0.3929976767
 20
-14.7143008617
 10
-0.3906291348
 20
-14.7153523042
 10
-0.3882393545
 20
-14.7163525873
 10
-0.3858292039
 20
-14.7173036121
 10
-0.383399551
 20
-14.7182072797
 10
-0.3809510325
 20
-14.7190656773
 10
-0.3784833615
 20
-14.7198816358
 10
-0.3759960198
 20
-14.7206581718
 10
-0.3734884891
 20
-14.7213983024
 10
-0.3709606117
 20
-14.7221051396
 10
-0.3684136705
 20
-14.722782176
 10
-0.3658493086
 20
-14.7234329996
 10
-0.3632691693
 20
-14.7240611982
 10
-0.3598073347
 20
-14.7248685806
 10
-0.3563245905
 20
-14.725643287
 10
-0.3528251547
 20
-14.7263864851
 10
-0.3493114335
 20
-14.7270997665
 10
-0.3457785858
 20
-14.7277864192
 10
-0.3422199591
 20
-14.7284501552
 10
-0.3386307251
 20
-14.7290944735
 10
-0.3350133546
 20
-14.7297220222
 10
-0.331372143
 20
-14.7303352362
  0
LWPOLYLINE
  5
22B
100
AcDbEntity
  8
CURVE
100
AcDbPolyline
 62
253
  6
CONTINUOUS
 90
26
 70
0
 10
-1.2495914644
 20
-13.4662194846
 10
-1.2441366124
 20
-13.4700486272
 10
-1.2386773259
 20
-13.4739807683
 10
-1.2332134618
 20
-13.4780170079
 10
-1.2277448775
 20
-13.4821584456
 10
-1.2222714301
 20
-13.4864061813
 10
-1.2167929768
 20
-13.4907613147
 10
-1.2113093748
 20
-13.4952249457
 10
-1.2058204813
 20
-13.4997981741
 10
-1.2003261535
 20
-13.5044820997
 10
-1.1948262485
 20
-13.5092778222
 10
-1.1893206236
 20
-13.5141864414
 10
-1.183809136
 20
-13.5192090573
 10
-1.1787163906
 20
-13.5239473945
 10
-1.1736190689
 20
-13.5287843367
 10
-1.1685177115
 20
-13.5337204185
 10
-1.1634128593
 20
-13.5387561747
 10
-1.1583050529
 20
-13.54389214
 10
-1.1531948332
 20
-13.5491288489
 10
-1.1480827409
 20
-13.5544668363
 10
-1.1429693168
 20
-13.5599066368
 10
-1.1378551016
 20
-13.5654487851
 10
-1.1327406362
 20
-13.5710938159
 10
-1.1276264611
 20
-13.5768422639
 10
-1.1225131173
 20
-13.5826946638
 10
-1.1174011455
 20
-13.5886515502
  0
LWPOLYLINE
  5
22C
100
AcDbEntity
  8
ASSI
100
AcDbPolyline
 62
7
  6
CONTINUOUS
 90
12
 70
0
 10
-9.9246094943
 20
-13.7439348501
 10
-9.9160280195
 20
-13.8552585702
 10
-9.8980209969
 20
-13.964108857
 10
-9.8713299683
 20
-14.0659406583
 10
-9.8366830673
 20
-14.1602678417
 10
-9.7946151944
 20
-14.2472654758
 10
-9.7453089128
 20
-14.3274240775
 10
-9.6893699226
 20
-14.4002673485
 10
-9.6274309635
 20
-14.4654615092
 10
-9.5595467238
 20
-14.5231970028
 10
-9.4861764117
 20
-14.5731212635
 10
-9.4707344782
 20
-14.5822240511
  0
LWPOLYLINE
  5
22D
100
AcDbEntity
  8
ASSI
100
AcDbPolyline
 62
253
  6
CONTINUOUS
 90
15
 70
0
 10
-9.9246097692
 20
-13.74393486
 10
-9.9243669551
 20
-13.7488361064
 10
-9.9224510601
 20
-13.7660484899
 10
-9.9188888735
 20
-13.7831284545
 10
-9.9136921826
 20
-13.8000194829
 10
-9.906878183
 20
-13.8166656826
 10
-9.8984694223
 20
-13.8330119716
 10
-9.888493725
 20
-13.8490042601
 10
-9.8769841007
 20
-13.8645896298
 10
-9.8639786344
 20
-13.8797165088
 10
-9.8495203613
 20
-13.8943348424
 10
-9.8336571237
 20
-13.9083962586
 10
-9.8164414128
 20
-13.9218542284
 10
-9.7979301953
 20
-13.9346642194
 10
-9.7781847247
 20
-13.9467838435
  0
LWPOLYLINE
  5
22E
100
AcDbEntity
  8
ASSI
100
AcDbPolyline
 62
7
  6
CONTINUOUS
 90
9
 70
0
 10
-10.2184293031
 20
3.1607821913
 10
-10.2173421939
 20
3.1355305375
 10
-10.21017507
 20
3.0911695375
 10
-10.1961008123
 20
3.0472027926
 10
-10.1747969328
 20
3.0041324812
 10
-10.1464755358
 20
2.9633028269
 10
-10.1114885686
 20
2.9255803563
 10
-10.0700296173
 20
2.8914207806
 10
-10.0307767224
 20
2.8660397613
  0
LWPOLYLINE
  5
22F
100
AcDbEntity
  8
ASSI
100
AcDbPolyline
 62
253
  6
CONTINUOUS
 90
13
 70
0
 10
-9.7781853122
 20
-13.9467674606
 10
-9.8243426625
 20
-12.6001943643
 10
-9.8665596382
 20
-11.2511204354
 10
-9.9048360144
 20
-9.8995611505
 10
-9.9391713764
 20
-8.5455416786
 10
-9.9695658823
 20
-7.1890679165
 10
-9.9960199763
 20
-5.8301263153
 10
-10.0185337735
 20
-4.4687328407
 10
-10.0371066082
 20
-3.1049024073
 10
-10.0517372854
 20
-1.7386196079
 10
-10.0624250033
 20
-0.3698894718
 10
-10.0691696629
 20
1.0012623517
 10
-10.0719709131
 20
2.3748204614
  0
LWPOLYLINE
  5
230
100
AcDbEntity
  8
ASSI
100
AcDbPolyline
 62
253
  6
CONTINUOUS
 90
17
 70
0
 10
-10.2184293222
 20
3.1607859016
 10
-10.218410485
 20
3.1585499811
 10
-10.2175143507
 20
3.1436911138
 10
-10.2152802829
 20
3.1288747319
 10
-10.2117143052
 20
3.1141403159
 10
-10.2068260706
 20
3.0995276508
 10
-10.2006286828
 20
3.0850759276
 10
-10.1931385782
 20
3.0708232396
 10
-10.1843754116
 20
3.0568073687
 10
-10.1743628708
 20
3.0430666027
 10
-10.1631287796
 20
3.0296387628
 10
-10.1507044752
 20
3.0165607795
 10
-10.137122714
 20
3.0038667288
 10
-10.1224180797
 20
2.991588795
 10
-10.1066290369
 20
2.9797594329
 10
-10.089798339
 20
2.9684110966
 10
-10.0719709112
 20
2.9575743253
  0
LWPOLYLINE
  5
231
100
AcDbEntity
  8
ASSI
100
AcDbPolyline
 62
7
  6
CONTINUOUS
 90
10
 70
0
 10
-10.218429514
 20
2.5795243883
 10
-10.2140219488
 20
0.7960174348
 10
-10.2024636676
 20
-1.0449202051
 10
-10.1837882303
 20
-2.8815326638
 10
-10.15799598
 20
-4.7137814
 10
-10.1250873597
 20
-6.5416302105
 10
-10.0850629246
 20
-8.3650436065
 10
-10.0379233517
 20
-10.1839855186
 10
-9.9836695281
 20
-11.9984173984
 10
-9.9246108074
 20
-13.7439059034
  0
LWPOLYLINE
  5
232
100
AcDbEntity
  8
ASSI
100
AcDbPolyline
 62
253
  6
CONTINUOUS
 90
13
 70
0
 10
-10.0719709132
 20
2.9575743184
 10
-10.069169663
 20
4.3344942541
 10
-10.0624250033
 20
5.7137202114
 10
-10.0517372854
 20
7.0952363839
 10
-10.0371066082
 20
8.4790160193
 10
-10.0185337735
 20
9.8650541511
 10
-9.9960199763
 20
11.2533677708
 10
-9.9695658823
 20
12.6439421831
 10
-9.9391713764
 20
14.0367605671
 10
-9.9048360144
 20
15.4318369858
 10
-9.8665596382
 20
16.8291657246
 10
-9.8243426625
 20
18.2287211359
 10
-9.7781853122
 20
19.6304874831
  0
LWPOLYLINE
  5
233
100
AcDbEntity
  8
ASSI
100
AcDbPolyline
 62
253
  6
CONTINUOUS
 90
22
 70
0
 10
-10.0719825611
 20
2.3748271869
 10
-10.0715986446
 20
2.3871900378
 10
-10.0704340104
 20
2.3999371015
 10
-10.0684951056
 20
2.4129978162
 10
-10.0657926631
 20
2.4262998839
 10
-10.0623416428
 20
2.4397696704
 10
-10.0581611481
 20
2.4533326124
 10
-10.0532743207
 20
2.4669136318
 10
-10.047708212
 20
2.4804375504
 10
-10.0414936338
 20
2.4938295058
 10
-10.0346649875
 20
2.5070153664
 10
-10.0272600735
 20
2.5199221418
 10
-10.0193198825
 20
2.532478386
 10
-10.0108883677
 20
2.5446145938
 10
-10.0020122024
 20
2.5562635852
 10
-9.992740521
 20
2.5673608773
 10
-9.9831246475
 20
2.577845041
 10
-9.9732178107
 20
2.5876580418
 10
-9.9630748504
 20
2.5967455598
 10
-9.9527519131
 20
2.6050572917
 10
-9.9423061416
 20
2.6125472284
 10
-9.9317953585
 20
2.6191739098
  0
LWPOLYLINE
  5
234
100
AcDbEntity
  8
ASSI
100
AcDbPolyline
 62
7
  6
CONTINUOUS
 90
10
 70
0
 10
-9.9246364712
 20
19.8348234023
 10
-9.9838584804
 20
18.0133840532
 10
-10.0380855628
 20
16.1342849997
 10
-10.0851997241
 20
14.2591586131
 10
-10.125199905
 20
12.388044589
 10
-10.1580852547
 20
10.5209799191
 10
-10.1838550451
 20
8.6580008769
 10
-10.2025086598
 20
6.7991443033
 10
-10.2140455833
 20
4.9444492605
 10
-10.2184295147
 20
3.1611567265
  0
LWPOLYLINE
  5
235
100
AcDbEntity
  8
ASSI
100
AcDbPolyline
 62
253
  6
CONTINUOUS
 90
37
 70
0
 10
-9.7781853039
 20
19.6304874784
 10
-9.7755359605
 20
19.6822072476
 10
-9.7711275172
 20
19.7347976034
 10
-9.7649674346
 20
19.7881700842
 10
-9.7570663919
 20
19.8422347529
 10
-9.7474375834
 20
19.8969008666
 10
-9.736096606
 20
19.9520770588
 10
-9.7230625244
 20
20.0076715735
 10
-9.708357487
 20
20.0635900152
 10
-9.6920061288
 20
20.119736016
 10
-9.6740367354
 20
20.1760144099
 10
-9.6544796283
 20
20.2323314484
 10
-9.6333667354
 20
20.2885925595
 10
-9.6107340819
 20
20.3447033455
 10
-9.5866201316
 20
20.4005694988
 10
-9.5610642463
 20
20.4560969758
 10
-9.5341097942
 20
20.5111929857
 10
-9.5058027293
 20
20.565764608
 10
-9.4761898632
 20
20.6197187173
 10
-9.4453217099
 20
20.6729648366
 10
-9.4132507742
 20
20.7254136053
 10
-9.3800301388
 20
20.7769754242
 10
-9.3457167319
 20
20.8275635636
 10
-9.3103687467
 20
20.8770935743
 10
-9.2740439584
 20
20.9254817504
 10
-9.2368043093
 20
20.9726470339
 10
-9.1987131716
 20
21.0185104087
 10
-9.1598327444
 20
21.0629942539
 10
-9.1202286807
 20
21.1060247182
 10
-9.0799689646
 20
21.1475290171
 10
-9.0391211826
 20
21.1874349208
 10
-8.9977557664
 20
21.2256751112
 10
-8.9559424377
 20
21.2621865256
 10
-8.9137490683
 20
21.2969075838
 10
-8.8712464059
 20
21.3297800563
 10
-8.8285079833
 20
21.3607492898
 10
-8.7856066101
 20
21.3897636214
  0
LINE
  5
236
100
AcDbEntity
  8
ASSI
100
AcDbLine
 62
253
  6
CONTINUOUS
 10
-10.0164438949
 20
2.7678293874
 11
-10.0137765764
 21
2.7767477896
  0
LWPOLYLINE
  5
237
100
AcDbEntity
  8
ASSI
100
AcDbPolyline
 62
253
  6
CONTINUOUS
 90
7
 70
0
 10
-10.0137765764
 20
2.7767477896
 10
-10.0103149378
 20
2.7856016917
 10
-10.0060866455
 20
2.7943203992
 10
-10.0010852977
 20
2.8029030747
 10
-9.9953172961
 20
2.8113505556
 10
-9.9888295131
 20
2.8195946593
 10
-9.9816158935
 20
2.8276337721
  0
LWPOLYLINE
  5
238
100
AcDbEntity
  8
CURVE
100
AcDbPolyline
 62
253
  6
CONTINUOUS
 90
25
 70
0
 10
-3.4154002695
 20
10.2665433107
 10
-3.4197686848
 20
10.2649381633
 10
-3.4241929207
 20
10.2634529798
 10
-3.428677669
 20
10.2620865648
 10
-3.4332276219
 20
10.2608377226
 10
-3.4378474713
 20
10.2597052575
 10
-3.442541909
 20
10.258687974
 10
-3.4473146128
 20
10.2577852232
 10
-3.4521652026
 20
10.2569985426
 10
-3.4570922839
 20
10.2563300166
 10
-3.4620944625
 20
10.2557817294
 10
-3.4671703439
 20
10.2553557655
 10
-3.4723185336
 20
10.255054209
 10
-3.4775376193
 20
10.2548790332
 10
-3.4828261162
 20
10.2548317666
 10
-3.4881825214
 20
10.2549138267
 10
-3.4936053322
 20
10.2551266309
 10
-3.4990930458
 20
10.2554715967
 10
-3.5046441592
 20
10.2559501414
 10
-3.5102580321
 20
10.2565632884
 10
-3.5159374736
 20
10.257310485
 10
-3.5216861552
 20
10.2581907842
 10
-3.5275077484
 20
10.259203239
 10
-3.5334059246
 20
10.2603469025
 10
-3.5393843553
 20
10.2616208278
  0
LWPOLYLINE
  5
239
100
AcDbEntity
  8
CURVE
100
AcDbPolyline
 62
253
  6
CONTINUOUS
 90
30
 70
0
 10
-1.8914387006
 20
-11.9713887803
 10
-1.8930081492
 20
-11.9716528269
 10
-1.8945653473
 20
-11.9719783617
 10
-1.8961107354
 20
-11.97236497
 10
-1.8976447543
 20
-11.9728122372
 10
-1.8991678445
 20
-11.9733197485
 10
-1.9006804467
 20
-11.9738870895
 10
-1.9021830016
 20
-11.9745138454
 10
-1.9036759497
 20
-11.9751996016
 10
-1.9051597318
 20
-11.9759439433
 10
-1.9066347885
 20
-11.9767464561
 10
-1.9081015603
 20
-11.9776067251
 10
-1.909705948
 20
-11.97861876
 10
-1.9113013203
 20
-11.9796967783
 10
-1.9128881536
 20
-11.9808373799
 10
-1.914466924
 20
-11.9820371648
 10
-1.9160381076
 20
-11.983292733
 10
-1.9176021806
 20
-11.9846006843
 10
-1.9191596192
 20
-11.9859576188
 10
-1.9207108996
 20
-11.9873601365
 10
-1.9222564979
 20
-11.9888048372
 10
-1.9237968903
 20
-11.990288321
 10
-1.9257160862
 20
-11.992192845
 10
-1.927630627
 20
-11.9941508767
 10
-1.9295432479
 20
-11.996160638
 10
-1.9314566838
 20
-11.9982203506
 10
-1.9333736699
 20
-12.0003282362
 10
-1.9352969412
 20
-12.0024825167
 10
-1.937229233
 20
-12.0046814138
 10
-1.9391732802
 20
-12.0069231493
  0
LWPOLYLINE
  5
23A
100
AcDbEntity
  8
CURVE
100
AcDbPolyline
 62
253
  6
CONTINUOUS
 90
82
 70
0
 10
-4.5448130073
 20
-9.3513899825
 10
-4.6061687703
 20
-9.3173810358
 10
-4.6669387123
 20
-9.2865453842
 10
-4.7271714053
 20
-9.2588596639
 10
-4.7869154212
 20
-9.2343005109
 10
-4.8462193319
 20
-9.2128445613
 10
-4.8953193172
 20
-9.1973259183
 10
-4.9440627658
 20
-9.1839785427
 10
-4.9923650393
 20
-9.1728349246
 10
-5.040141499
 20
-9.1639275539
 10
-5.0873075063
 20
-9.1572889206
 10
-5.1337784226
 20
-9.1529515148
 10
-5.1794745036
 20
-9.150938726
 10
-5.2243355814
 20
-9.1512375412
 10
-5.2683063824
 20
-9.1538258469
 10
-5.3113316329
 20
-9.1586815295
 10
-5.3533560594
 20
-9.1657824757
 10
-5.3943243881
 20
-9.1751065718
 10
-5.4420205649
 20
-9.1892039274
 10
-5.4880571937
 20
-9.2064626727
 10
-5.5323751011
 20
-9.2268747049
 10
-5.5749151138
 20
-9.2504319211
 10
-5.6156180585
 20
-9.2771262186
 10
-5.6544209447
 20
-9.3069335275
 10
-5.6912455132
 20
-9.3397659097
 10
-5.7260096876
 20
-9.3755194602
 10
-5.7586313913
 20
-9.4140902738
 10
-5.7890285481
 20
-9.4553744455
 10
-5.8126056482
 20
-9.4917833767
 10
-5.83456137
 20
-9.5299905762
 10
-5.8548761572
 20
-9.5699821923
 10
-5.8735304533
 20
-9.6117443733
 10
-5.8905047019
 20
-9.6552632676
 10
-5.9057793467
 20
-9.7005250232
 10
-5.9193366512
 20
-9.7475001832
 10
-5.9311661588
 20
-9.7960968689
 10
-5.9412592328
 20
-9.8462075961
 10
-5.9496072367
 20
-9.8977248809
 10
-5.9562015337
 20
-9.9505412391
 10
-5.9610334874
 20
-10.0045491867
 10
-5.9644956031
 20
-10.0708042657
 10
-5.9654059339
 20
-10.1385786124
 10
-5.963762906
 20
-10.2078303828
 10
-5.9595649459
 20
-10.2785177332
 10
-5.9528104798
 20
-10.3505988195
 10
-5.9435035436
 20
-10.4240035963
 10
-5.9316706121
 20
-10.4985492129
 10
-5.9173437693
 20
-10.574024617
 10
-5.9005550995
 20
-10.6502187564
 10
-5.8813366869
 20
-10.7269205786
 10
-5.8597198487
 20
-10.803944274
 10
-5.8357328342
 20
-10.8812050022
 10
-5.8094031256
 20
-10.9586431651
 10
-5.7807582053
 20
-11.0361991649
 10
-5.7498255553
 20
-11.1138134036
 10
-5.7166445788
 20
-11.1914025587
 10
-5.6813023616
 20
-11.2687884095
 10
-5.6438979104
 20
-11.3457690107
 10
-5.6045302318
 20
-11.4221424173
 10
-5.5632983324
 20
-11.4977066839
 10
-5.5202933544
 20
-11.5722814693
 10
-5.4755749819
 20
-11.6457728483
 10
-5.4291950349
 20
-11.7181084995
 10
-5.3812053331
 20
-11.7892161018
 10
-5.3316576963
 20
-11.8590233337
 10
-5.2892205079
 20
-11.9161431638
 10
-5.2457986716
 20
-11.9722237923
 10
-5.2014534529
 20
-12.0271792757
 10
-5.1562461172
 20
-12.0809236705
 10
-5.11023793
 20
-12.133371033
 10
-5.0634901567
 20
-12.1844354197
 10
-5.0160673948
 20
-12.234034711
 10
-4.9680475698
 20
-12.2821020823
 10
-4.9195119392
 20
-12.3285745329
 10
-4.8705417604
 20
-12.3733890623
 10
-4.821218291
 20
-12.4164826696
 10
-4.7716227884
 20
-12.4577923544
 10
-4.7118323801
 20
-12.504943693
 10
-4.651720876
 20
-12.5494657948
 10
-4.5912418975
 20
-12.5913889926
 10
-4.5303490656
 20
-12.6307436192
 10
-4.4689960017
 20
-12.6675600073
  0
LINE
  5
23B
100
AcDbEntity
  8
CURVE
100
AcDbLine
 62
253
  6
CONTINUOUS
 10
-1.750316964
 20
-12.2521518759
 11
-1.3027852161
 21
-12.511253106
  0
LINE
  5
23C
100
AcDbEntity
  8
CURVE
100
AcDbLine
 62
253
  6
CONTINUOUS
 10
-1.3074186569
 20
-12.2881972968
 11
-1.8158667421
 21
-11.9938952417
  0
LWPOLYLINE
  5
23D
100
AcDbEntity
  8
ASSI
100
AcDbPolyline
 62
253
  6
CONTINUOUS
 90
12
 70
0
 10
-10.0719825611
 20
2.9575810438
 10
-10.0715986455
 20
2.9456615464
 10
-10.0704340143
 20
2.934259387
 10
-10.0684951143
 20
2.9234376824
 10
-10.0657926783
 20
2.9132563365
 10
-10.0623416657
 20
2.9037717082
 10
-10.0581611797
 20
2.8950363
 10
-10.0532743615
 20
2.8870984669
 10
-10.0477082621
 20
2.8800021489
 10
-10.0414936928
 20
2.8737866279
 10
-10.0346650544
 20
2.8684863101
 10
-10.0307769486
 20
2.8660393708
  0
LWPOLYLINE
  5
23E
100
AcDbEntity
  8
ASSI
100
AcDbPolyline
 62
253
  6
CONTINUOUS
 90
15
 70
0
 10
-9.9246484856
 20
19.834452368
 10
-9.9243666791
 20
19.8190926407
 10
-9.9224507739
 20
19.8031779681
 10
-9.9188885787
 20
19.7873112848
 10
-9.9136918806
 20
19.7715450933
 10
-9.9068778756
 20
19.7559315639
 10
-9.8984691111
 20
19.7405223615
 10
-9.8884934115
 20
19.725368475
 10
-9.8769837864
 20
19.7105200485
 10
-9.863978321
 20
19.6960262153
 10
-9.8495200502
 20
19.6819349352
 10
-9.8336568164
 20
19.6682928361
 10
-9.8164411106
 20
19.6551450597
 10
-9.7979298997
 20
19.6425351117
 10
-9.7781844368
 20
19.6305047184
  0
LWPOLYLINE
  5
23F
100
AcDbEntity
  8
ASSI
100
AcDbPolyline
 62
7
  6
CONTINUOUS
 90
8
 70
0
 10
-10.1047960345
 20
2.8228939652
 10
-10.135313553
 20
2.7919626529
 10
-10.1613199044
 20
2.7586822139
 10
-10.1826070201
 20
2.7234308917
 10
-10.1988909025
 20
2.6869685383
 10
-10.2101601334
 20
2.6499873838
 10
-10.2165955163
 20
2.6129210305
 10
-10.2184293299
 20
2.5793693327
  0
LINE
  5
240
100
AcDbEntity
  8
ASSI
100
AcDbLine
 62
253
  6
CONTINUOUS
 10
-9.9816158935
 20
2.8276337721
 11
-9.9752135833
 21
2.8339572655
  0
LINE
  5
241
100
AcDbEntity
  8
ASSI
100
AcDbLine
 62
7
  6
CONTINUOUS
 10
-10.0698405633
 20
2.8512894602
 11
-10.1047960345
 21
2.8228939652
  0
LWPOLYLINE
  5
242
100
AcDbEntity
  8
CURVE
100
AcDbPolyline
 62
253
  6
CONTINUOUS
 90
28
 70
0
 10
-0.4299228745
 20
-12.0379333023
 10
-0.4318130827
 20
-12.0363963612
 10
-0.4337254527
 20
-12.0349000272
 10
-0.4356600387
 20
-12.0334432576
 10
-0.4376168947
 20
-12.0320250094
 10
-0.4395960749
 20
-12.03064424
 10
-0.4415976332
 20
-12.0292999065
 10
-0.4436216237
 20
-12.0279909661
 10
-0.4456681005
 20
-12.026716376
 10
-0.4477371176
 20
-12.0254750934
 10
-0.4498287291
 20
-12.0242660754
 10
-0.451942989
 20
-12.0230882793
 10
-0.4542946536
 20
-12.0218273785
 10
-0.4566723913
 20
-12.0206007563
 10
-0.4590748051
 20
-12.0194061745
 10
-0.4615004982
 20
-12.0182413951
 10
-0.4639480735
 20
-12.01710418
 10
-0.4664161341
 20
-12.015992291
 10
-0.4689032832
 20
-12.0149034901
 10
-0.4714081237
 20
-12.0138355392
 10
-0.4739292587
 20
-12.0127862002
 10
-0.4764652914
 20
-12.0117532349
 10
-0.4801123717
 20
-12.0103018985
 10
-0.4837895513
 20
-12.0088750557
 10
-0.4874993772
 20
-12.0074683518
 10
-0.4912443964
 20
-12.0060774322
 10
-0.4950271558
 20
-12.0046979422
 10
-0.5027160833
 20
-12.0019558319
  0
LWPOLYLINE
  5
243
100
AcDbEntity
  8
CURVE
100
AcDbPolyline
 62
253
  6
CONTINUOUS
 90
28
 70
0
 10
0.4223434886
 20
-13.2566794455
 10
0.4209577565
 20
-13.2555468786
 10
0.4195655779
 20
-13.2544523133
 10
0.4181671477
 20
-13.2533943371
 10
0.4167626606
 20
-13.2523715375
 10
0.4153523115
 20
-13.2513825021
 10
0.4139362954
 20
-13.2504258183
 10
0.412514807
 20
-13.2495000735
 10
0.4110880412
 20
-13.2486038553
 10
0.4096561929
 20
-13.2477357512
 10
0.4080396403
 20
-13.2467910325
 10
0.406417835
 20
-13.2458784091
 10
0.4047917104
 20
-13.244996182
 10
0.4031621998
 20
-13.2441426523
 10
0.4015300847
 20
-13.2433160163
 10
0.3998955398
 20
-13.2425140517
 10
0.398258588
 20
-13.2417344312
 10
0.3966192523
 20
-13.2409748276
 10
0.3944297448
 20
-13.2399891797
 10
0.3922357473
 20
-13.2390297148
 10
0.3900369673
 20
-13.2380911675
 10
0.3867297674
 20
-13.2367137543
 10
0.383413625
 20
-13.2353700196
 10
0.3807547935
 20
-13.2343176836
 10
0.3780862315
 20
-13.2332817528
 10
0.3754023468
 20
-13.2322580628
 10
0.3726975469
 20
-13.2312424495
 10
0.3699662397
 20
-13.2302307486
  0
LWPOLYLINE
  5
244
100
AcDbEntity
  8
CURVE
100
AcDbPolyline
 62
253
  6
CONTINUOUS
 90
27
 70
0
 10
0.3958962054
 20
-14.4410103262
 10
0.3973855537
 20
-14.4424884993
 10
0.3988892506
 20
-14.4439317236
 10
0.4004068356
 20
-14.445341179
 10
0.4019378484
 20
-14.4467180457
 10
0.4034818286
 20
-14.4480635037
 10
0.4050383158
 20
-14.4493787331
 10
0.4066068496
 20
-14.450664914
 10
0.4081869696
 20
-14.4519232265
 10
0.4097782155
 20
-14.4531548505
 10
0.4113801269
 20
-14.4543609663
 10
0.4129922433
 20
-14.4555427538
 10
0.4149758193
 20
-14.4569558605
 10
0.4169732565
 20
-14.4583366439
 10
0.4189838593
 20
-14.4596873598
 10
0.4210069321
 20
-14.4610102643
 10
0.4230417793
 20
-14.4623076133
 10
0.4250877053
 20
-14.4635816628
 10
0.4271440144
 20
-14.4648346687
 10
0.429210011
 20
-14.4660688871
 10
0.4312849995
 20
-14.4672865739
 10
0.4344134326
 20
-14.4690866618
 10
0.4375618585
 20
-14.4708599606
 10
0.4407316032
 20
-14.4726118014
 10
0.443923993
 20
-14.4743475151
 10
0.4471403541
 20
-14.4760724328
 10
0.4503820125
 20
-14.4777918856
  0
LWPOLYLINE
  5
245
100
AcDbEntity
  8
CURVE
100
AcDbPolyline
 62
253
  6
CONTINUOUS
 90
3
 70
0
 10
-0.4194677305
 20
-12.0495481692
 10
-0.4229173184
 20
-12.0456951333
 10
-0.4299228745
 20
-12.0379333023
  0
LWPOLYLINE
  5
246
100
AcDbEntity
  8
CURVE
100
AcDbPolyline
 62
253
  6
CONTINUOUS
 90
25
 70
0
 10
-1.0292066696
 20
-13.4461451748
 10
-1.0373097617
 20
-13.4367377596
 10
-1.0454908568
 20
-13.4274435453
 10
-1.0537495322
 20
-13.4182611438
 10
-1.0620853651
 20
-13.4091891671
 10
-1.0704979326
 20
-13.400226227
 10
-1.078986812
 20
-13.3913709355
 10
-1.0875515804
 20
-13.3826219043
 10
-1.096191815
 20
-13.3739777456
 10
-1.104907093
 20
-13.3654370711
 10
-1.1136969915
 20
-13.3569984928
 10
-1.1225610879
 20
-13.3486606225
 10
-1.1314989592
 20
-13.3404220723
 10
-1.1405103028
 20
-13.332282114
 10
-1.1495952965
 20
-13.3242426605
 10
-1.1587542384
 20
-13.3163062845
 10
-1.1679874265
 20
-13.3084755588
 10
-1.1772951589
 20
-13.3007530563
 10
-1.1866777334
 20
-13.2931413498
 10
-1.1961354481
 20
-13.285643012
 10
-1.2056686011
 20
-13.2782606158
 10
-1.2152774904
 20
-13.270996734
 10
-1.2249624139
 20
-13.2638539394
 10
-1.2347236698
 20
-13.2568348049
 10
-1.2445615559
 20
-13.2499419032
  0
LINE
  5
247
100
AcDbEntity
  8
CURVE
100
AcDbLine
 62
253
  6
CONTINUOUS
 10
-1.8575343875
 20
-13.0972759113
 11
-1.8508105226
 21
-13.1061688167
  0
LINE
  5
248
100
AcDbEntity
  8
ASSI
100
AcDbLine
 62
7
  6
CONTINUOUS
 10
-10.0382111078
 20
2.8723522088
 11
-10.0698405633
 21
2.8512894602
  0
LWPOLYLINE
  5
249
100
AcDbEntity
  8
ASSI
100
AcDbPolyline
 62
253
  6
CONTINUOUS
 90
37
 70
0
 10
6.1564158549
 20
12.7624271183
 10
6.1125014026
 20
12.7339977261
 10
6.0687571622
 20
12.7036092395
 10
6.0252559431
 20
12.6713133212
 10
5.9820696394
 20
12.637165571
 10
5.9392706377
 20
12.6012232718
 10
5.8969317263
 20
12.5635451653
 10
5.8551226539
 20
12.5241942987
 10
5.8139138253
 20
12.4832380055
 10
5.7733776632
 20
12.4407457231
 10
5.7335822628
 20
12.396790172
 10
5.6945931659
 20
12.3514452675
 10
5.656477075
 20
12.3047860305
 10
5.6192974658
 20
12.2568914173
 10
5.5831161771
 20
12.2078425457
 10
5.5479951773
 20
12.1577207002
 10
5.5139927855
 20
12.1066102577
 10
5.4811658039
 20
12.0545980204
 10
5.4495711319
 20
12.0017713839
 10
5.4192614242
 20
11.9482196221
 10
5.3902870447
 20
11.8940332989
 10
5.3626981709
 20
11.8393035961
 10
5.3365409265
 20
11.7841233363
 10
5.31185851
 20
11.7285854083
 10
5.2886931393
 20
11.6727822064
 10
5.2670834587
 20
11.6168079344
 10
5.2470653127
 20
11.5607570939
 10
5.228672945
 20
11.50472292
 10
5.2119368625
 20
11.4487990542
 10
5.1968851651
 20
11.3930807696
 10
5.1835442455
 20
11.3376634193
 10
5.1719364617
 20
11.2826412777
 10
5.162080669
 20
11.2281062218
 10
5.153993593
 20
11.1741489664
 10
5.1476888046
 20
11.1208600367
 10
5.1431766065
 20
11.0683295874
 10
5.1404644594
 20
11.0166460801
  0
LWPOLYLINE
  5
24A
100
AcDbEntity
  8
CURVE
100
AcDbPolyline
 62
253
  6
CONTINUOUS
 90
62
 70
0
 10
-1.807394603
 20
8.1182984919
 10
-1.7937760218
 20
8.1270218714
 10
-1.7808198316
 20
8.1364488649
 10
-1.7685002452
 20
8.1465453288
 10
-1.7567914755
 20
8.1572771194
 10
-1.7456677352
 20
8.1686100933
 10
-1.7351032372
 20
8.1805101066
 10
-1.7250721944
 20
8.192943016
 10
-1.7155488195
 20
8.2058746778
 10
-1.7052595432
 20
8.2212206914
 10
-1.6955973262
 20
8.2371228975
 10
-1.6865598324
 20
8.2535306525
 10
-1.6781447259
 20
8.2703933128
 10
-1.6703496706
 20
8.2876602348
 10
-1.6631723305
 20
8.3052807752
 10
-1.6566103695
 20
8.3232042902
 10
-1.6506594794
 20
8.3413837641
 10
-1.6453074629
 20
8.359786692
 10
-1.6405401505
 20
8.3783841967
 10
-1.6363433727
 20
8.3971474009
 10
-1.6327029599
 20
8.4160474275
 10
-1.6296047428
 20
8.4350553993
 10
-1.6270345517
 20
8.4541424391
 10
-1.6246815681
 20
8.4764698639
 10
-1.6229881597
 20
8.4988065705
 10
-1.6219144858
 20
8.5210935255
 10
-1.6214207057
 20
8.5432716955
 10
-1.6214669788
 20
8.5652820471
 10
-1.6220134644
 20
8.5870655468
 10
-1.6230221923
 20
8.6085735755
 10
-1.624462675
 20
8.6297991706
 10
-1.6263062952
 20
8.650745784
 10
-1.628524436
 20
8.6714168673
 10
-1.6310884801
 20
8.6918158723
 10
-1.6339698105
 20
8.7119462507
 10
-1.6378115597
 20
8.7357544547
 10
-1.6420533078
 20
8.7591956327
 10
-1.6466793704
 20
8.7822846104
 10
-1.6516740628
 20
8.8050362136
 10
-1.6570217005
 20
8.8274652681
 10
-1.6627103677
 20
8.8495888757
 10
-1.6687432249
 20
8.8714332431
 10
-1.6751272014
 20
8.893026853
 10
-1.6818692265
 20
8.9143981882
 10
-1.6889762296
 20
8.9355757315
 10
-1.6964568176
 20
8.9565855394
 10
-1.7043263086
 20
8.9774439636
 10
-1.712601698
 20
8.9981649293
 10
-1.7212999817
 20
9.0187623619
 10
-1.7304381553
 20
9.0392501868
 10
-1.7400244955
 20
9.0596387737
 10
-1.750032404
 20
9.0799242692
 10
-1.7604265636
 20
9.1000992646
 10
-1.771171657
 20
9.1201563508
 10
-1.782232367
 20
9.1400881189
 10
-1.7964489906
 20
9.1648161047
 10
-1.8110388252
 20
9.1893269806
 10
-1.8259371142
 20
9.213611023
 10
-1.8410791008
 20
9.237658508
 10
-1.8615511033
 20
9.2693603549
 10
-1.8822808879
 20
9.3007412307
 10
-1.9032081198
 20
9.3319179974
  0
LWPOLYLINE
  5
24B
100
AcDbEntity
  8
ASSI
100
AcDbPolyline
 62
253
  6
CONTINUOUS
 90
37
 70
0
 10
6.5222362063
 20
12.1577585495
 10
6.4927201287
 20
12.1388487336
 10
6.4634127054
 20
12.1187028511
 10
6.4343139363
 20
12.0973209023
 10
6.4053749238
 20
12.0746624322
 10
6.3766445655
 20
12.0507678958
 10
6.3482695545
 20
12.0257586569
 10
6.3202520134
 20
11.9996291344
 10
6.2925898196
 20
11.9723849095
 10
6.265423299
 20
11.9441640904
 10
6.2387553835
 20
11.9149621236
 10
6.2125831413
 20
11.8847835627
 10
6.1870381025
 20
11.8537801763
 10
6.1621233863
 20
11.8219478115
 10
6.1378358736
 20
11.7892906213
 10
6.1142977372
 20
11.7559728333
 10
6.0915126076
 20
11.7219908816
 10
6.0694768544
 20
11.687348332
 10
6.0483017591
 20
11.6522201099
 10
6.0279917144
 20
11.6166037625
 10
6.0085423277
 20
11.5805017424
 10
5.9900517029
 20
11.5440963325
 10
5.9725248083
 20
11.5073862625
 10
5.9559566755
 20
11.4703728027
 10
5.9404305046
 20
11.4332420468
 10
5.9259515112
 20
11.3959934359
 10
5.9125144796
 20
11.358627529
 10
5.9001869619
 20
11.3213320963
 10
5.8889744448
 20
11.2841069385
 10
5.8788714416
 20
11.246952255
 10
5.869929044
 20
11.2100564143
 10
5.862153209
 20
11.1734201168
 10
5.8555379795
 20
11.137042662
 10
5.8501165764
 20
11.1011103172
 10
5.8459000735
 20
11.0656851713
 10
5.842877397
 20
11.0307051353
 10
5.8410485469
 20
10.9961702092
  0
LWPOLYLINE
  5
24C
100
AcDbEntity
  8
CURVE
100
AcDbPolyline
 62
253
  6
CONTINUOUS
 90
62
 70
0
 10
-1.2056428733
 20
7.0739867058
 10
-1.1807704415
 20
7.0898264921
 10
-1.1564833736
 20
7.1064553429
 10
-1.1328392521
 20
7.1240546103
 10
-1.1098870219
 20
7.1427742771
 10
-1.0876410779
 20
7.1626388495
 10
-1.0661071771
 20
7.1836414644
 10
-1.045289668
 20
7.2057653554
 10
-1.025187265
 20
7.2289541425
 10
-1.005797274
 20
7.2531415424
 10
-0.9871175937
 20
7.2782679342
 10
-0.9691484953
 20
7.3043003475
 10
-0.9518908431
 20
7.3312124742
 10
-0.9321249327
 20
7.364632551
 10
-0.9134039218
 20
7.3992441391
 10
-0.8957469831
 20
7.4350098461
 10
-0.8791732893
 20
7.4718922793
 10
-0.8637020131
 20
7.5098540464
 10
-0.8493495768
 20
7.5488637545
 10
-0.8361214016
 20
7.5889140099
 10
-0.8240201582
 20
7.6300034188
 10
-0.8130485174
 20
7.6721305872
 10
-0.8032091501
 20
7.7152941213
 10
-0.7945058494
 20
7.7595031734
 10
-0.7869468978
 20
7.8048090818
 10
-0.7805417002
 20
7.8512737311
 10
-0.7752996614
 20
7.8989590059
 10
-0.7712301864
 20
7.9479267908
 10
-0.7683514021
 20
7.9982354926
 10
-0.7667163238
 20
8.0499296072
 10
-0.7663866889
 20
8.1030501526
 10
-0.7674242348
 20
8.157638147
 10
-0.7698906989
 20
8.2137346086
 10
-0.773083813
 20
8.2616602441
 10
-0.7773577448
 20
8.3106657917
 10
-0.7827581345
 20
8.360755132
 10
-0.7893306221
 20
8.4119321455
 10
-0.7971208479
 20
8.4642007131
 10
-0.8061744521
 20
8.5175647152
 10
-0.8165392728
 20
8.5720351033
 10
-0.8282719405
 20
8.6276511121
 10
-0.8414312838
 20
8.6844590468
 10
-0.8522762266
 20
8.7278865542
 10
-0.8640043263
 20
8.7720990984
 10
-0.8766631439
 20
8.8171852109
 10
-0.8903002403
 20
8.8632334234
 10
-0.9049580611
 20
8.910302094
 10
-0.920658591
 20
8.958328887
 10
-0.9374186993
 20
9.0072212931
 10
-0.9552552552
 20
9.056886803
 10
-0.9742004951
 20
9.107237609
 10
-0.9943481231
 20
9.1582047101
 10
-1.0158124199
 20
9.2097272364
 10
-1.0387285049
 20
9.2617580374
 10
-1.063223477
 20
9.3142502377
 10
-1.0893715171
 20
9.3671443432
 10
-1.1172086053
 20
9.4203924137
 10
-1.1466708382
 20
9.4740053432
 10
-1.1776542655
 20
9.527983922
 10
-1.2099946342
 20
9.5822296914
 10
-1.2435775599
 20
9.6367301674
 10
-1.2785484362
 20
9.6919160141
  0
LINE
  5
24D
100
AcDbEntity
  8
ASSI
100
AcDbLine
 62
253
  6
CONTINUOUS
 10
9.0770999869
 20
14.5646404145
 11
6.1564159269
 21
12.7624270768
  0
LINE
  5
24E
100
AcDbEntity
  8
ASSI
100
AcDbLine
 62
253
  6
CONTINUOUS
 10
9.4617267816
 20
13.9715764814
 11
6.5222362063
 21
12.1577585495
  0
LINE
  5
24F
100
AcDbEntity
  8
CURVE
100
AcDbLine
 62
253
  6
CONTINUOUS
 10
-1.2937869984
 20
7.0228149752
 11
-1.2056428733
 21
7.0739867058
  0
LWPOLYLINE
  5
250
100
AcDbEntity
  8
ASSI
100
AcDbPolyline
 62
253
  6
CONTINUOUS
 90
28
 70
0
 10
5.8410485469
 20
10.9961702092
 10
5.8198103605
 20
10.9859577893
 10
5.7974931416
 20
10.9764663369
 10
5.7741707377
 20
10.9677272591
 10
5.7499203226
 20
10.9597694734
 10
5.7248221406
 20
10.9526193121
 10
5.6989592414
 20
10.9463004351
 10
5.6724172052
 20
10.9408337513
 10
5.6452838592
 20
10.9362373501
 10
5.6176489876
 20
10.9325264409
 10
5.5896040339
 20
10.929713303
 10
5.5612417986
 20
10.9278072451
 10
5.5326561321
 20
10.9268145744
 10
5.5039416242
 20
10.9267385756
 10
5.4751932909
 20
10.9275795001
 10
5.4465062602
 20
10.9293345653
 10
5.4179754572
 20
10.9319979638
 10
5.3896952902
 20
10.9355608824
 10
5.361759338
 20
10.9400115314
 10
5.3342600405
 20
10.9453351836
 10
5.3072883925
 20
10.9515142232
 10
5.280933643
 20
10.9585282037
 10
5.2552829998
 20
10.966353916
 10
5.2304213405
 20
10.9749654648
 10
5.2064309322
 20
10.9843343545
 10
5.1833911589
 20
10.9944295837
 10
5.1613782591
 20
11.0052177472
 10
5.1404650732
 20
11.0166631472
  0
LWPOLYLINE
  5
251
100
AcDbEntity
  8
RACCORDO
100
AcDbPolyline
 62
253
  6
CONTINUOUS
 90
8
 70
0
 10
-2.4168577195
 20
-6.202569958
 10
-2.331823498
 20
-6.2354609352
 10
-2.2488250079
 20
-6.2565846552
 10
-2.1688653065
 20
-6.2656894696
 10
-2.0928765934
 20
-6.262674666
 10
-2.0217174048
 20
-6.2475665953
 10
-1.9558503067
 20
-6.2203176337
 10
-1.8965448725
 20
-6.1812908016
  0
LWPOLYLINE
  5
252
100
AcDbEntity
  8
RACCORDO
100
AcDbPolyline
 62
7
  6
CONTINUOUS
 90
9
 70
0
 10
-2.4031226437
 20
-6.2368736862
 10
-2.3243239802
 20
-6.2697538871
 10
-2.2467312957
 20
-6.2937750999
 10
-2.1706122637
 20
-6.3089259876
 10
-2.0966318909
 20
-6.3151243223
 10
-2.025861544
 20
-6.3124570374
 10
-1.9589568096
 20
-6.3012731739
 10
-1.8961660288
 20
-6.2819551417
 10
-1.8379211986
 20
-6.2549581052
  0
LINE
  5
253
100
AcDbEntity
  8
RACCORDO
100
AcDbLine
 62
253
  6
CONTINUOUS
 10
-2.5029168172
 20
-6.1583018625
 11
-2.4168577195
 21
-6.202569958
  0
LINE
  5
254
100
AcDbEntity
  8
RACCORDO
100
AcDbLine
 62
7
  6
CONTINUOUS
 10
-2.4826518912
 20
-6.1952030024
 11
-2.4031226437
 21
-6.2368736862
  0
LINE
  5
255
100
AcDbEntity
  8
CURVE
100
AcDbLine
 62
253
  6
CONTINUOUS
 10
-0.4126901879
 20
-12.0571907418
 11
-0.4194677305
 21
-12.0495481692
  0
LINE
  5
256
100
AcDbEntity
  8
CURVE
100
AcDbLine
 62
253
  6
CONTINUOUS
 10
-0.4060483203
 20
-12.0647891941
 11
-0.4126901879
 21
-12.0571907418
  0
LINE
  5
257
100
AcDbEntity
  8
CURVE
100
AcDbLine
 62
253
  6
CONTINUOUS
 10
-0.3995392847
 20
-12.0723559101
 11
-0.4060483203
 21
-12.0647891941
  0
LWPOLYLINE
  5
258
100
AcDbEntity
  8
CURVE
100
AcDbPolyline
 62
253
  6
CONTINUOUS
 90
26
 70
0
 10
-1.9073323996
 20
-13.0193505729
 10
-1.9062565172
 20
-13.0217650667
 10
-1.9051323663
 20
-13.0241919544
 10
-1.9039602671
 20
-13.0266316417
 10
-1.9027405397
 20
-13.0290845339
 10
-1.901473504
 20
-13.0315510367
 10
-1.9001594802
 20
-13.0340315557
 10
-1.8987987885
 20
-13.0365264963
 10
-1.8973917488
 20
-13.0390362641
 10
-1.8959386812
 20
-13.0415612646
 10
-1.894439906
 20
-13.0441019034
 10
-1.892895743
 20
-13.0466585861
 10
-1.8911455218
 20
-13.0494896987
 10
-1.8893435874
 20
-13.052339737
 10
-1.8874927584
 20
-13.055207723
 10
-1.8855958535
 20
-13.0580926787
 10
-1.8836556913
 20
-13.0609936262
 10
-1.8816750903
 20
-13.0639095873
 10
-1.8796568693
 20
-13.066839584
 10
-1.8776038468
 20
-13.0697826384
 10
-1.8755188414
 20
-13.0727377725
 10
-1.8734046717
 20
-13.0757040082
 10
-1.8703380602
 20
-13.0799599935
 10
-1.8672177041
 20
-13.0842409078
 10
-1.8640436253
 20
-13.0885510199
 10
-1.8575343875
 20
-13.0972759113
  0
LWPOLYLINE
  5
259
100
AcDbEntity
  8
CURVE
100
AcDbPolyline
 62
253
  6
CONTINUOUS
 90
89
 70
0
 10
-5.7621556833
 20
-10.2881407085
 10
-5.762552371
 20
-10.2413828091
 10
-5.761592097
 20
-10.1958912767
 10
-5.7592933172
 20
-10.151552726
 10
-5.7556744871
 20
-10.1082537721
 10
-5.7507497235
 20
-10.065904165
 10
-5.7445157869
 20
-10.0245061958
 10
-5.7369650991
 20
-9.9840852907
 10
-5.7280900814
 20
-9.9446668759
 10
-5.7178873558
 20
-9.9062839828
 10
-5.7063703449
 20
-9.8690000632
 10
-5.6935566718
 20
-9.832886174
 10
-5.6794639594
 20
-9.7980133722
 10
-5.6641100527
 20
-9.7644463704
 10
-5.6475136843
 20
-9.7322245027
 10
-5.6296938091
 20
-9.701380759
 10
-5.6106693818
 20
-9.6719481292
 10
-5.587478157
 20
-9.640078907
 10
-5.5627764379
 20
-9.6101322372
 10
-5.5366022656
 20
-9.5821444958
 10
-5.5089936812
 20
-9.5561520589
 10
-5.4799887258
 20
-9.5321913026
 10
-5.4496254404
 20
-9.510298603
 10
-5.4179418662
 20
-9.4905103361
 10
-5.3849783494
 20
-9.4728594679
 10
-5.3507844573
 20
-9.4573653234
 10
-5.3154120623
 20
-9.4440438171
 10
-5.2789130369
 20
-9.4329108639
 10
-5.2413392534
 20
-9.4239823785
 10
-5.2027425843
 20
-9.4172742756
 10
-5.163174902
 20
-9.4128024699
 10
-5.1226895025
 20
-9.4105791938
 10
-5.081345375
 20
-9.4106019504
 10
-5.0392029326
 20
-9.4128645602
 10
-4.9963225881
 20
-9.417360844
 10
-4.9527647544
 20
-9.4240846223
 10
-4.9085898443
 20
-9.433029716
 10
-4.8638582707
 20
-9.4441899456
 10
-4.8186312308
 20
-9.4575555411
 10
-4.7729730594
 20
-9.47310237
 10
-4.7269488753
 20
-9.4908027091
 10
-4.6806237977
 20
-9.510628835
 10
-4.6340629456
 20
-9.5325530247
 10
-4.5873314378
 20
-9.5565475549
 10
-4.5404943936
 20
-9.5825847023
 10
-4.4936169808
 20
-9.6106334481
 10
-4.4467645627
 20
-9.6406495905
 10
-4.4000025519
 20
-9.6725856322
 10
-4.3533963606
 20
-9.7063940758
 10
-4.3070114013
 20
-9.7420274239
 10
-4.2609130861
 20
-9.7794381791
 10
-4.2151668276
 20
-9.8185788441
 10
-4.1698373409
 20
-9.8593991532
 10
-4.1249865529
 20
-9.9018377676
 10
-4.0806756934
 20
-9.9458305803
 10
-4.036965992
 20
-9.9913134843
 10
-3.9939186785
 20
-10.0382223725
 10
-3.9515949827
 20
-10.086493138
 10
-3.9100561343
 20
-10.1360616737
 10
-3.8693619925
 20
-10.1868618307
 10
-3.8295669341
 20
-10.2388192931
 10
-3.7907239655
 20
-10.2918577029
 10
-3.752886093
 20
-10.3459007022
 10
-3.716106323
 20
-10.4008719333
 10
-3.6804376616
 20
-10.4566950381
 10
-3.6459331154
 20
-10.513293659
 10
-3.6126435294
 20
-10.5705905161
 10
-3.5806111046
 20
-10.6285046432
 10
-3.5498758806
 20
-10.6869541518
 10
-3.5204778974
 20
-10.7458571539
 10
-3.4924571945
 20
-10.8051317611
 10
-3.4658538119
 20
-10.8646960853
 10
-3.4407077893
 20
-10.9244682382
 10
-3.4199308416
 20
-10.9768750362
 10
-3.4003202944
 20
-11.0293237265
 10
-3.3818961012
 20
-11.0817597784
 10
-3.3646782158
 20
-11.134128661
 10
-3.3486867685
 20
-11.1863696535
 10
-3.3339425958
 20
-11.2383972749
 10
-3.3204667109
 20
-11.2901198543
 10
-3.3082801269
 20
-11.3414457205
 10
-3.2973993671
 20
-11.3922953874
 10
-3.2878229944
 20
-11.4426381088
 10
-3.2795450821
 20
-11.492455323
 10
-3.2725597031
 20
-11.5417284686
 10
-3.2668642445
 20
-11.5904578783
 10
-3.2624693494
 20
-11.6387194616
 10
-3.2593889746
 20
-11.6866080218
 10
-3.2576370772
 20
-11.7342183627
  0
LWPOLYLINE
  5
25A
100
AcDbEntity
  8
CURVE
100
AcDbPolyline
 62
253
  6
CONTINUOUS
 90
3
 70
0
 10
-5.2750851528
 20
9.1889833574
 10
-5.2451522276
 20
10.6308557833
 10
-5.211102006
 20
12.0675692876
  0
LWPOLYLINE
  5
25B
100
AcDbEntity
  8
CURVE
100
AcDbPolyline
 62
253
  6
CONTINUOUS
 90
3
 70
0
 10
-5.4135818347
 20
12.1844786656
 10
-5.4477988476
 20
10.7402612684
 10
-5.4775649819
 20
9.3058927352
  0
LWPOLYLINE
  5
25C
100
AcDbEntity
  8
CURVE
100
AcDbPolyline
 62
253
  6
CONTINUOUS
 90
18
 70
0
 10
-2.0184974531
 20
9.3232585995
 10
-2.0190746742
 20
9.3221932953
 10
-2.0195967787
 20
9.321058545
 10
-2.0200670482
 20
9.3198580267
 10
-2.0204887647
 20
9.318595419
 10
-2.0208652098
 20
9.3172744003
 10
-2.0211996653
 20
9.3158986489
 10
-2.0215504395
 20
9.3141810479
 10
-2.0218525445
 20
9.3123984964
 10
-2.0221130501
 20
9.3105595621
 10
-2.0223390262
 20
9.3086728125
 10
-2.0225375428
 20
9.3067468152
 10
-2.0228213676
 20
9.3034650253
 10
-2.0230499825
 20
9.3000905932
 10
-2.0232248153
 20
9.2966160992
 10
-2.0233481779
 20
9.2930351102
 10
-2.0234259186
 20
9.2893451397
 10
-2.0234647696
 20
9.2855446881
  0
LINE
  5
25D
100
AcDbEntity
  8
CURVE
100
AcDbLine
 62
253
  6
CONTINUOUS
 10
-0.8113928767
 20
6.2117805224
 11
-0.8627945197
 21
6.1729726466
  0
LWPOLYLINE
  5
25E
100
AcDbEntity
  8
CURVE
100
AcDbPolyline
 62
253
  6
CONTINUOUS
 90
59
 70
0
 10
-0.7012794617
 20
5.9701424936
 10
-0.6485558505
 20
6.001700231
 10
-0.5961384603
 20
6.0340811644
 10
-0.5615571859
 20
6.0565209762
 10
-0.5274844263
 20
6.07991246
 10
-0.4941348461
 20
6.1044843544
 10
-0.4616955606
 20
6.1304214718
 10
-0.4302434892
 20
6.1577329205
 10
-0.3998280024
 20
6.1863838828
 10
-0.3704731379
 20
6.2163401704
 10
-0.3421016026
 20
6.2475701135
 10
-0.3146107709
 20
6.2800426718
 10
-0.2878892356
 20
6.3137722171
 10
-0.2617904639
 20
6.3489547707
 10
-0.2361591414
 20
6.3858317658
 10
-0.2108608736
 20
6.4246573553
 10
-0.1858449447
 20
6.4657365699
 10
-0.1610815588
 20
6.5093871598
 10
-0.1426630499
 20
6.5440098845
 10
-0.1243946065
 20
6.5804288173
 10
-0.1063009988
 20
6.6188150333
 10
-0.0884069971
 20
6.6593396075
 10
-0.0707518765
 20
6.7021601285
 10
-0.0534329316
 20
6.7473802395
 10
-0.0365619618
 20
6.795090097
 10
-0.0202507665
 20
6.8453798579
 10
-0.0046176274
 20
6.8983099429
 10
0.0101932442
 20
6.9538218288
 10
0.0240311547
 20
7.0118272569
 10
0.0367454105
 20
7.072237968
 10
0.0481990555
 20
7.1349682829
 10
0.0583100831
 20
7.1999428408
 10
0.0670102241
 20
7.2670888604
 10
0.0742312094
 20
7.3363335606
 10
0.0799048148
 20
7.4076224964
 10
0.0839629954
 20
7.4809745677
 10
0.0863377514
 20
7.5564270107
 10
0.0869610831
 20
7.6340170613
 10
0.0857572041
 20
7.7137827311
 10
0.0826191827
 20
7.7957651329
 10
0.0774323006
 20
7.8800061548
 10
0.0700818398
 20
7.9665476849
 10
0.060464933
 20
8.055388658
 10
0.0485261174
 20
8.1463561961
 10
0.034221781
 20
8.2392344676
 10
0.0175083119
 20
8.3338076413
 10
-0.0016448622
 20
8.4298527828
 10
-0.0232161557
 20
8.5271185459
 10
-0.0471709434
 20
8.6253464815
 10
-0.0734745999
 20
8.7242781407
 10
-0.1020729022
 20
8.8236250659
 10
-0.132833236
 20
8.9229787665
 10
-0.1656033889
 20
9.0219007434
 10
-0.2002311488
 20
9.1199524977
 10
-0.2291914335
 20
9.1975207089
 10
-0.2593025573
 20
9.2743150633
 10
-0.2906239066
 20
9.3503992861
 10
-0.3232148677
 20
9.4258371022
 10
-0.3571348271
 20
9.5006922367
  0
LWPOLYLINE
  5
25F
100
AcDbEntity
  8
RACCORDO
100
AcDbPolyline
 62
253
  6
CONTINUOUS
 90
42
 70
0
 10
-2.5889752207
 20
-4.2883272289
 10
-2.6740090472
 20
-4.2554360236
 10
-2.7570074415
 20
-4.2343122483
 10
-2.836967504
 20
-4.2252076423
 10
-2.9129568773
 20
-4.2282228272
 10
-2.9841165521
 20
-4.2433311786
 10
-3.0499837292
 20
-4.2705801858
 10
-3.1092890681
 20
-4.3096069628
 10
-3.1604309045
 20
-4.3589529581
 10
-3.203216806
 20
-4.4174936588
 10
-3.2375661599
 20
-4.4840336052
 10
-3.2630878058
 20
-4.5558074523
 10
-3.2802997783
 20
-4.6305227536
 10
-3.2901744831
 20
-4.7073387229
 10
-3.2934874939
 20
-4.7854361879
 10
-3.2909417538
 20
-4.8637362475
 10
-3.2832554232
 20
-4.941323938
 10
-3.2710417615
 20
-5.0179467059
 10
-3.2549000585
 20
-5.0929933539
 10
-3.235430085
 20
-5.1658812352
 10
-3.2130532571
 20
-5.236607625
 10
-3.1882428262
 20
-5.304840924
 10
-3.161472044
 20
-5.3702556042
 10
-3.1330145731
 20
-5.4329700226
 10
-3.1032351968
 20
-5.4928178511
 10
-3.0724881729
 20
-5.5496547042
 10
-3.0409213517
 20
-5.6036845623
 10
-3.0087908657
 20
-5.6548680588
 10
-2.976364952
 20
-5.7031444413
 10
-2.9437315132
 20
-5.7487043712
 10
-2.911081469
 20
-5.7915609066
 10
-2.8786031304
 20
-5.8317284685
 10
-2.8463277695
 20
-5.8694011011
 10
-2.8143876292
 20
-5.9046301084
 10
-2.7829173849
 20
-5.9374617587
 10
-2.7519154429
 20
-5.9680737818
 10
-2.7214697005
 20
-5.9965371493
 10
-2.6916757
 20
-6.0229133346
 10
-2.6625189323
 20
-6.0473537656
 10
-2.6340698455
 20
-6.0699264203
 10
-2.6063806261
 20
-6.0907118956
 10
-2.5793927703
 20
-6.109864476
  0
LINE
  5
260
100
AcDbEntity
  8
RACCORDO
100
AcDbLine
 62
253
  6
CONTINUOUS
 10
-2.5029168172
 20
-4.3325957251
 11
-2.5889752207
 21
-4.2883272289
  0
LINE
  5
261
100
AcDbEntity
  8
RACCORDO
100
AcDbLine
 62
7
  6
CONTINUOUS
 10
-2.5793759575
 20
-6.1330081084
 11
-2.4826518912
 21
-6.1952030024
  0
LWPOLYLINE
  5
262
100
AcDbEntity
  8
RACCORDO
100
AcDbPolyline
 62
253
  6
CONTINUOUS
 90
4
 70
0
 10
-2.5793927703
 20
-6.109864476
 10
-2.5531118302
 20
-6.1274780734
 10
-2.5276096885
 20
-6.1435991291
 10
-2.5029168172
 20
-6.1583018625
  0
LWPOLYLINE
  5
263
100
AcDbEntity
  8
CURVE
100
AcDbPolyline
 62
253
  6
CONTINUOUS
 90
5
 70
0
 10
0.3419304258
 20
-13.4000245268
 10
0.3439451189
 20
-13.4034203737
 10
0.3459275918
 20
-13.4068027284
 10
0.3478791662
 20
-13.4101888758
 10
0.3498011638
 20
-13.4135961008
  0
LWPOLYLINE
  5
264
100
AcDbEntity
  8
CURVE
100
AcDbPolyline
 62
253
  6
CONTINUOUS
 90
56
 70
0
 10
0.4040716218
 20
-13.4983152647
 10
0.4128920595
 20
-13.5136380326
 10
0.4213707014
 20
-13.5289693134
 10
0.4295328077
 20
-13.544337997
 10
0.4374036385
 20
-13.5597729735
 10
0.4450035682
 20
-13.5752963115
 10
0.452333429
 20
-13.5909027951
 10
0.4593891672
 20
-13.6065803871
 10
0.4661667292
 20
-13.6223170505
 10
0.4726616057
 20
-13.6380995153
 10
0.478867464
 20
-13.6539095802
 10
0.4847775161
 20
-13.6697278111
 10
0.4903849736
 20
-13.6855347741
 10
0.4956841194
 20
-13.7013130896
 10
0.5006735216
 20
-13.717053597
 10
0.5053528193
 20
-13.7327491903
 10
0.5097216516
 20
-13.7483927635
 10
0.5137794378
 20
-13.7639765989
 10
0.5175247174
 20
-13.7794905309
 10
0.5209558101
 20
-13.7949237825
 10
0.5240710355
 20
-13.8102655763
 10
0.5268677131
 20
-13.8255044902
 10
0.5293391615
 20
-13.8406265213
 10
0.531477699
 20
-13.8556170218
 10
0.5332756443
 20
-13.8704613439
 10
0.5347268333
 20
-13.8851458376
 10
0.535831173
 20
-13.8996608452
 10
0.5365900879
 20
-13.913997707
 10
0.5370050025
 20
-13.9281477631
 10
0.5370778224
 20
-13.9421024574
 10
0.5368123779
 20
-13.9558536487
 10
0.5362129801
 20
-13.9693932997
 10
0.5352839403
 20
-13.9827133727
 10
0.5338232413
 20
-13.9976565171
 10
0.5319390974
 20
-14.0122866806
 10
0.5296329854
 20
-14.0265881761
 10
0.5269063823
 20
-14.0405453162
 10
0.5237607649
 20
-14.0541424137
 10
0.5201976102
 20
-14.0673637813
 10
0.5162183949
 20
-14.0801937318
 10
0.5123958318
 20
-14.0910865008
 10
0.5082531754
 20
-14.1016569458
 10
0.5037877483
 20
-14.1118944322
 10
0.4989968728
 20
-14.1217883252
 10
0.4938775381
 20
-14.1313249962
 10
0.4884254011
 20
-14.1404788408
 10
0.4826357853
 20
-14.1492212605
 10
0.4765040145
 20
-14.1575236568
 10
0.4700286087
 20
-14.1653636673
 10
0.4632208738
 20
-14.1727438741
 10
0.4560953122
 20
-14.1796730948
 10
0.4486664262
 20
-14.1861601476
 10
0.4409470498
 20
-14.1922208513
 10
0.4329433436
 20
-14.197899029
 10
0.4246598
 20
-14.2032455048
 10
0.4161009112
 20
-14.2083111028
  0
LWPOLYLINE
  5
265
100
AcDbEntity
  8
CURVE
100
AcDbPolyline
 62
253
  6
CONTINUOUS
 90
21
 70
0
 10
-0.3598273737
 20
-12.1279763071
 10
-0.36112136
 20
-12.1255044266
 10
-0.3624664055
 20
-12.1230353556
 10
-0.3638616159
 20
-12.1205687017
 10
-0.3653060969
 20
-12.1181040725
 10
-0.3667989543
 20
-12.1156410758
 10
-0.3683392938
 20
-12.1131793191
 10
-0.3699262211
 20
-12.11071841
 10
-0.3715588418
 20
-12.1082579563
 10
-0.3732362618
 20
-12.1057975655
 10
-0.3751756242
 20
-12.1030292527
 10
-0.3771682561
 20
-12.1002602056
 10
-0.37921186
 20
-12.0974901068
 10
-0.3813041382
 20
-12.0947186389
 10
-0.3834428793
 20
-12.0919452462
 10
-0.385626217
 20
-12.0891684198
 10
-0.3878523711
 20
-12.0863864126
 10
-0.3901195616
 20
-12.0835974772
 10
-0.3924256363
 20
-12.0808001541
 10
-0.3947669559
 20
-12.0779941334
 10
-0.3995392847
 20
-12.0723559101
  0
LWPOLYLINE
  5
266
100
AcDbEntity
  8
CURVE
100
AcDbPolyline
 62
253
  6
CONTINUOUS
 90
89
 70
0
 10
-3.2576370772
 20
-11.7342183627
 10
-3.257235596
 20
-11.780974598
 10
-3.2581816551
 20
-11.8264589684
 10
-3.2604569707
 20
-11.8707849654
 10
-3.264043259
 20
-11.9140660806
 10
-3.2689265721
 20
-11.9563926704
 10
-3.2751103053
 20
-11.9977625513
 10
-3.2826021903
 20
-12.0381504048
 10
-3.2914099582
 20
-12.0775309123
 10
-3.3015371827
 20
-12.1158711594
 10
-3.3129708061
 20
-12.1531078479
 10
-3.3256936129
 20
-12.1891700838
 10
-3.3396883876
 20
-12.223986973
 10
-3.354937706
 20
-12.2574939851
 10
-3.3714233096
 20
-12.2896520442
 10
-3.3891267311
 20
-12.3204284381
 10
-3.4080295033
 20
-12.3497904546
 10
-3.4310759697
 20
-12.3815753523
 10
-3.4556276197
 20
-12.4114343111
 10
-3.4816472583
 20
-12.4393314683
 10
-3.5090976908
 20
-12.4652309612
 10
-3.5379417222
 20
-12.489096927
 10
-3.5681421576
 20
-12.5108935031
 10
-3.5996618021
 20
-12.5305848268
 10
-3.6324611628
 20
-12.5481384567
 10
-3.6664915533
 20
-12.5635356365
 10
-3.7017019894
 20
-12.5767610314
 10
-3.7380414867
 20
-12.5877993066
 10
-3.7754590607
 20
-12.5966351272
 10
-3.8139037271
 20
-12.6032531582
 10
-3.8533245016
 20
-12.6076380649
 10
-3.8936689397
 20
-12.6097781692
 10
-3.9348787568
 20
-12.6096764204
 10
-3.9768942083
 20
-12.6073394248
 10
-4.0196555495
 20
-12.6027737884
 10
-4.0631030358
 20
-12.5959861174
 10
-4.1071769227
 20
-12.586983018
 10
-4.1518174653
 20
-12.5757710964
 10
-4.1969640724
 20
-12.5623605016
 10
-4.242552765
 20
-12.5467755537
 10
-4.2885187175
 20
-12.5290441159
 10
-4.3347971042
 20
-12.5091940512
 10
-4.3813230995
 20
-12.4872532226
 10
-4.4280318778
 20
-12.4632494932
 10
-4.4748586134
 20
-12.437210726
 10
-4.5217383506
 20
-12.4091680238
 10
-4.5686056144
 20
-12.3791654487
 10
-4.6153947995
 20
-12.3472503025
 10
-4.6620403007
 20
-12.313469887
 10
-4.708476513
 20
-12.2778715038
 10
-4.7546378312
 20
-12.2405024549
 10
-4.8004586501
 20
-12.201410042
 10
-4.845873984
 20
-12.1606442956
 10
-4.8908213247
 20
-12.1182661608
 10
-4.9352387833
 20
-12.0743393113
 10
-4.9790644711
 20
-12.0289274208
 10
-5.0222364992
 20
-11.9820941631
 10
-5.0646929788
 20
-11.9339032119
 10
-5.106372021
 20
-11.8844182411
 10
-5.1472130612
 20
-11.8337049465
 10
-5.1871608305
 20
-11.7818371133
 10
-5.2261613841
 20
-11.7288905487
 10
-5.2641607772
 20
-11.67494106
 10
-5.301105065
 20
-11.6200644546
 10
-5.3369403028
 20
-11.5643365396
 10
-5.3716125458
 20
-11.5078331226
 10
-5.4050700088
 20
-11.4506309485
 10
-5.4372695447
 20
-11.3928105146
 10
-5.468170166
 20
-11.3344532555
 10
-5.4977308853
 20
-11.2756406063
 10
-5.5259107151
 20
-11.2164540019
 10
-5.5526686678
 20
-11.1569748772
 10
-5.577963756
 20
-11.0972846671
 10
-5.5988659002
 20
-11.0449465454
 10
-5.6185962169
 20
-10.9925634124
 10
-5.6371342652
 20
-10.9401895203
 10
-5.6544596044
 20
-10.8878791215
 10
-5.6705516256
 20
-10.8356926791
 10
-5.6853890476
 20
-10.7837154996
 10
-5.6989504212
 20
-10.7320391006
 10
-5.7112142971
 20
-10.6807549994
 10
-5.7221637712
 20
-10.6299425311
 10
-5.7318001193
 20
-10.579632301
 10
-5.7401291622
 20
-10.5298427321
 10
-5.747156721
 20
-10.4805922473
 10
-5.7528852906
 20
-10.4318803806
 10
-5.7573040633
 20
-10.3836311095
 10
-5.7603989054
 20
-10.3357495227
 10
-5.7621556833
 20
-10.2881407085
  0
LINE
  5
267
100
AcDbEntity
  8
ASSI
100
AcDbLine
 62
253
  6
CONTINUOUS
 10
-4.1437108407
 20
21.6801197622
 11
-4.1437108407
 21
21.6175159788
  0
LWPOLYLINE
  5
268
100
AcDbEntity
  8
ASSI
100
AcDbPolyline
 62
253
  6
CONTINUOUS
 90
20
 70
0
 10
-3.4679845752
 20
-4.724313187
 10
-3.4675733319
 20
-4.6806993519
 10
-3.4655694462
 20
-4.6378872623
 10
-3.4619569825
 20
-4.5959630753
 10
-3.4567196154
 20
-4.5549883798
 10
-3.4498482407
 20
-4.5150754525
 10
-3.4413509362
 20
-4.4763792384
 10
-3.4312317916
 20
-4.4389762053
 10
-3.419498717
 20
-4.4029435425
 10
-3.4061879212
 20
-4.3684194251
 10
-3.3913237588
 20
-4.3354713044
 10
-3.3749299404
 20
-4.3041550904
 10
-3.3570617016
 20
-4.2745714622
 10
-3.3377692235
 20
-4.2467847703
 10
-3.3170808199
 20
-4.2208183463
 10
-3.2950273007
 20
-4.1967010809
 10
-3.2716552333
 20
-4.1744758377
 10
-3.2470047132
 20
-4.154173158
 10
-3.2210942739
 20
-4.1358067299
 10
-3.1923993286
 20
-4.118543435
  0
LWPOLYLINE
  5
269
100
AcDbEntity
  8
ASSI
100
AcDbPolyline
 62
253
  6
CONTINUOUS
 90
24
 70
0
 10
-3.6081582254
 20
-4.7243401839
 10
-3.6077118621
 20
-4.6772549069
 10
-3.6055233674
 20
-4.6312148334
 10
-3.6015927549
 20
-4.5862199722
 10
-3.5959191835
 20
-4.5421555596
 10
-3.5885034983
 20
-4.4991363629
 10
-3.5793483488
 20
-4.4575067497
 10
-3.5684312345
 20
-4.4172824907
 10
-3.5557748929
 20
-4.3784479553
 10
-3.5414500349
 20
-4.341300529
 10
-3.5254385964
 20
-4.3058652185
 10
-3.5077590693
 20
-4.2721172689
 10
-3.4885371787
 20
-4.2402795282
 10
-3.4677751197
 20
-4.2103867775
 10
-3.4454712654
 20
-4.1824045695
 10
-3.4217457311
 20
-4.1564519825
 10
-3.3966005919
 20
-4.1325390519
 10
-3.3700343863
 20
-4.1106561024
 10
-3.3421619973
 20
-4.0908926882
 10
-3.3129700631
 20
-4.0732494329
 10
-3.282472566
 20
-4.0577260768
 10
-3.2508254629
 20
-4.0444108832
 10
-3.2180166477
 20
-4.0333155537
 10
-3.1840588423
 20
-4.0244287474
  0
LINE
  5
26A
100
AcDbEntity
  8
CURVE
100
AcDbLine
 62
253
  6
CONTINUOUS
 10
-4.2814359745
 20
10.5161195026
 11
-4.3010587466
 21
9.6331454354
  0
LINE
  5
26B
100
AcDbEntity
  8
CURVE
100
AcDbLine
 62
253
  6
CONTINUOUS
 10
-4.1036707633
 20
9.5980936551
 11
-4.0874092266
 21
10.329666908
  0
LWPOLYLINE
  5
26C
100
AcDbEntity
  8
ASSI
100
AcDbPolyline
 62
253
  6
CONTINUOUS
 90
24
 70
0
 10
-3.6081582254
 20
2.6253622477
 10
-3.6069543813
 20
2.6728609965
 10
-3.6040097696
 20
2.7193139835
 10
-3.5993244039
 20
2.7647212002
 10
-3.5928956075
 20
2.8091983868
 10
-3.5847260616
 20
2.8526297994
 10
-3.5748239229
 20
2.8946681432
 10
-3.5631667486
 20
2.9352976305
 10
-3.5497772184
 20
2.9745339135
 10
-3.5347313786
 20
3.0120767424
 10
-3.5180114001
 20
3.0479010063
 10
-3.4996355394
 20
3.0820315729
 10
-3.4797341506
 20
3.114243059
 10
-3.4583099807
 20
3.1445003956
 10
-3.4353608505
 20
3.1728383295
 10
-3.4110098483
 20
3.1991361311
 10
-3.3852592198
 20
3.2233836613
 10
-3.3581073325
 20
3.2455907119
 10
-3.3296715293
 20
3.2656664091
 10
-3.2999383455
 20
3.283610189
 10
-3.268921866
 20
3.2994222647
 10
-3.2367808155
 20
3.3130128955
 10
-3.2035031654
 20
3.324370351
 10
-3.1691015597
 20
3.3335060139
  0
LWPOLYLINE
  5
26D
100
AcDbEntity
  8
ASSI
100
AcDbPolyline
 62
253
  6
CONTINUOUS
 90
20
 70
0
 10
-3.4679845752
 20
2.6239193041
 10
-3.466815807
 20
2.6679472721
 10
-3.4640557622
 20
2.7111727698
 10
-3.4596885127
 20
2.7535096791
 10
-3.4536959135
 20
2.7948974525
 10
-3.4460706936
 20
2.8352228417
 10
-3.4368264082
 20
2.8743279293
 10
-3.4259671686
 20
2.9121362773
 10
-3.413500851
 20
2.9485707466
 10
-3.399469041
 20
2.9834902365
 10
-3.3838962962
 20
3.0168272231
 10
-3.3668060822
 20
3.048525944
 10
-3.3482583259
 20
3.0784831395
 10
-3.3283037297
 20
3.1066342053
 10
-3.3069700228
 20
3.1329561311
 10
-3.2842910509
 20
3.1574183328
 10
-3.2603135309
 20
3.1799778908
 10
-3.2350773537
 20
3.2006044001
 10
-3.2086035702
 20
3.2192827997
 10
-3.1796596143
 20
3.2366855231
  0
LWPOLYLINE
  5
26E
100
AcDbEntity
  8
CURVE
100
AcDbPolyline
 62
253
  6
CONTINUOUS
 90
28
 70
0
 10
-2.045685654
 20
8.2861398222
 10
-2.046027225
 20
8.2846607918
 10
-2.046333809
 20
8.2831524677
 10
-2.0466065344
 20
8.2816158209
 10
-2.0468465298
 20
8.2800518223
 10
-2.0470549238
 20
8.2784614429
 10
-2.0472328449
 20
8.2768456538
 10
-2.0473814215
 20
8.2752054258
 10
-2.0475017823
 20
8.2735417299
 10
-2.0475950558
 20
8.2718555372
 10
-2.0476623704
 20
8.2701478187
 10
-2.0477048549
 20
8.2684195452
 10
-2.0477236376
 20
8.2666716877
 10
-2.0477137392
 20
8.2643123465
 10
-2.0476662468
 20
8.2619217432
 10
-2.0475836964
 20
8.2595017054
 10
-2.0474686241
 20
8.2570540607
 10
-2.0473235658
 20
8.2545806368
 10
-2.0471510578
 20
8.2520832612
 10
-2.0469536359
 20
8.2495637616
 10
-2.0467338363
 20
8.2470239656
 10
-2.046494195
 20
8.2444657007
 10
-2.0461021483
 20
8.2405966261
 10
-2.0456741477
 20
8.2366899993
 10
-2.0452131768
 20
8.2327457112
 10
-2.0447222193
 20
8.2287636522
 10
-2.0442042589
 20
8.224743713
 10
-2.0436622793
 20
8.2206857842
  0
LINE
  5
26F
100
AcDbEntity
  8
ASSI
100
AcDbLine
 62
7
  6
CONTINUOUS
 10
3.956051555
 20
17.5214695973
 11
3.7758851086
 21
17.1074443169
  0
LWPOLYLINE
  5
270
100
AcDbEntity
  8
RACCORDO
100
AcDbPolyline
 62
7
  6
CONTINUOUS
 90
21
 70
0
 10
-3.0447399935
 20
3.1834112337
 10
-3.1099472387
 20
3.1357985481
 10
-3.1678240145
 20
3.0762245534
 10
-3.2173155054
 20
3.0051146209
 10
-3.2576870353
 20
2.9225653799
 10
-3.287891481
 20
2.8295036156
 10
-3.3070606138
 20
2.7280765306
 10
-3.3150643085
 20
2.619450934
 10
-3.3118607347
 20
2.504532729
 10
-3.2976337481
 20
2.3857521971
 10
-3.2728969589
 20
2.2649684665
 10
-3.2380765912
 20
2.1430854251
 10
-3.193698619
 20
2.0214593862
 10
-3.1404076275
 20
1.9015490025
 10
-3.0788716947
 20
1.7846620923
 10
-3.0097545732
 20
1.6719916497
 10
-2.933841996
 20
1.5648370122
 10
-2.8520030386
 20
1.4644801632
 10
-2.7650465632
 20
1.3720216472
 10
-2.6738423822
 20
1.2885633559
 10
-2.5793759575
 20
1.2152243827
  0
LINE
  5
271
100
AcDbEntity
  8
DRAFT
100
AcDbLine
 62
7
  6
CONTINUOUS
 10
-2.8846016904
 20
3.2804951419
 11
-3.0447400847
 21
3.1834111784
  0
LINE
  5
272
100
AcDbEntity
  8
ASSI
100
AcDbLine
 62
7
  6
CONTINUOUS
 10
-3.1796596143
 20
3.2366855231
 11
-3.1790168245
 21
3.2370392428
  0
LWPOLYLINE
  5
273
100
AcDbEntity
  8
ASSI
100
AcDbPolyline
 62
7
  6
CONTINUOUS
 90
26
 70
0
 10
-3.179665045
 20
3.2366816203
 10
-3.1681453075
 20
3.2427849643
 10
-3.1063450465
 20
3.2678012839
 10
-3.0388422567
 20
3.2827759454
 10
-2.9661971888
 20
3.2873727187
 10
-2.8888901543
 20
3.2813776598
 10
-2.8077972204
 20
3.2646896401
 10
-2.7238196735
 20
3.2373742311
 10
-2.6376717537
 20
3.1995378318
 10
-2.5503203412
 20
3.1514773533
 10
-2.4627343177
 20
3.0936370603
 10
-2.375494503
 20
3.0262854799
 10
-2.2893772276
 20
2.9498480632
 10
-2.2054192674
 20
2.8650921796
 10
-2.1244807919
 20
2.772777244
 10
-2.0473570795
 20
2.673710146
 10
-1.9748594265
 20
2.5688466446
 10
-1.9077648024
 20
2.4592613251
 10
-1.8467232042
 20
2.3459980001
 10
-1.7923302496
 20
2.2301629537
 10
-1.7451470513
 20
2.1130035868
 10
-1.7055822119
 20
1.995651079
 10
-1.673971389
 20
1.8792758586
 10
-1.6505867895
 20
1.76522928
 10
-1.6355345895
 20
1.6547074216
 10
-1.6287891594
 20
1.5486882956
  0
LWPOLYLINE
  5
274
100
AcDbEntity
  8
ASSI
100
AcDbPolyline
 62
253
  6
CONTINUOUS
 90
16
 70
0
 10
-3.1840588423
 20
-4.0244287474
 10
-3.1491452901
 20
-4.01780419
 10
-3.1132749891
 20
-4.0134570526
 10
-3.0764495154
 20
-4.0113725001
 10
-3.0388660009
 20
-4.011559261
 10
-3.0005234678
 20
-4.014028975
 10
-2.9614233821
 20
-4.0187702879
 10
-2.9217665367
 20
-4.0257574345
 10
-2.8815494484
 20
-4.0350016208
 10
-2.840775972
 20
-4.0464918581
 10
-2.7996578864
 20
-4.0601690767
 10
-2.7581919005
 20
-4.0760453755
 10
-2.7163815382
 20
-4.0941087915
 10
-2.6744487693
 20
-4.1142641435
 10
-2.6323933641
 20
-4.1365225829
 10
-2.5902156316
 20
-4.1608730045
  0
LWPOLYLINE
  5
275
100
AcDbEntity
  8
RACCORDO
100
AcDbPolyline
 62
253
  6
CONTINUOUS
 90
6
 70
0
 10
-2.7898184033
 20
-4.1048476079
 10
-2.7944658608
 20
-4.1043183069
 10
-2.8764919231
 20
-4.1075687466
 10
-2.9533048269
 20
-4.1238740457
 10
-3.0244040595
 20
-4.1532869554
 10
-3.0447400568
 20
-4.1648212958
  0
LWPOLYLINE
  5
276
100
AcDbEntity
  8
ASSI
100
AcDbPolyline
 62
253
  6
CONTINUOUS
 90
19
 70
0
 10
4.9612266893
 20
-5.7029745326
 10
4.9845498098
 20
-5.7094995937
 10
5.0084248267
 20
-5.7153250788
 10
5.0327856709
 20
-5.7204345967
 10
5.0575660602
 20
-5.7248144875
 10
5.0827004614
 20
-5.7284533466
 10
5.1081221376
 20
-5.7313412442
 10
5.1337632321
 20
-5.7334706256
 10
5.1595547339
 20
-5.7348358564
 10
5.1854273122
 20
-5.7354329083
 10
5.2113116116
 20
-5.7352603939
 10
5.2371382384
 20
-5.7343189383
 10
5.2628377566
 20
-5.7326106713
 10
5.2883409887
 20
-5.7301404584
 10
5.3135798652
 20
-5.7269151201
 10
5.3384873817
 20
-5.7229427486
 10
5.3629976832
 20
-5.718234014
 10
5.3870440652
 20
-5.7128018587
 10
5.4105599485
 20
-5.7066608845
  0
LINE
  5
277
100
AcDbEntity
  8
ASSI
100
AcDbLine
 62
253
  6
CONTINUOUS
 10
-2.5902156316
 20
-4.1608730045
 11
-2.5481383115
 21
-4.1871868197
  0
LWPOLYLINE
  5
278
100
AcDbEntity
  8
ASSI
100
AcDbPolyline
 62
253
  6
CONTINUOUS
 90
35
 70
0
 10
-2.5481383115
 20
-4.1871868197
 10
-2.5061615201
 20
-4.2154748958
 10
-2.4642850618
 20
-4.2457263191
 10
-2.4227311704
 20
-4.2777798068
 10
-2.3815030347
 20
-4.3116434698
 10
-2.3405972333
 20
-4.3473090613
 10
-2.3002260526
 20
-4.3845907428
 10
-2.2603929749
 20
-4.4234952446
 10
-2.2210941467
 20
-4.4640156193
 10
-2.1825308296
 20
-4.5059455008
 10
-2.1447039995
 20
-4.5492947207
 10
-2.1076121924
 20
-4.5940531618
 10
-2.071453007
 20
-4.6399845317
 10
-2.0362271519
 20
-4.6871023915
 10
-2.0019333442
 20
-4.7353928441
 10
-1.9687662157
 20
-4.7845784221
 10
-1.9367375673
 20
-4.834656703
 10
-1.9058349821
 20
-4.8856297484
 10
-1.8762168099
 20
-4.9372268433
 10
-1.8478967613
 20
-4.989432223
 10
-1.8208605055
 20
-5.0422612884
 10
-1.7952243871
 20
-5.0954901059
 10
-1.770986652
 20
-5.1491292929
 10
-1.7481484418
 20
-5.2031678723
 10
-1.726830517
 20
-5.2573495619
 10
-1.707029951
 20
-5.3117110705
 10
-1.6887491022
 20
-5.3662153553
 10
-1.6721167808
 20
-5.4204955775
 10
-1.6571503366
 20
-5.4745566413
 10
-1.64383199
 20
-5.5283933894
 10
-1.6322380357
 20
-5.5816239952
 10
-1.6223908863
 20
-5.6342387973
 10
-1.6142678896
 20
-5.6862473153
 10
-1.6078779493
 20
-5.7372966139
 10
-1.6032240709
 20
-5.7872690697
  0
LINE
  5
279
100
AcDbEntity
  8
ASSI
100
AcDbLine
 62
253
  6
CONTINUOUS
 10
-1.6032240709
 20
-5.7872690697
 11
-1.6003032438
 21
-5.8362823019
  0
LINE
  5
27A
100
AcDbEntity
  8
ASSI
100
AcDbLine
 62
7
  6
CONTINUOUS
 10
-3.9635443943
 20
22.0941450426
 11
-3.9423476626
 21
21.4779213288
  0
LINE
  5
27B
100
AcDbEntity
  8
ASSI
100
AcDbLine
 62
253
  6
CONTINUOUS
 10
-1.6003032438
 20
-5.8362823019
 11
-1.5991154534
 21
-5.8843363012
  0
LINE
  5
27C
100
AcDbEntity
  8
ASSI
100
AcDbLine
 62
7
  6
CONTINUOUS
 10
-1.6294155888
 20
-5.8018394541
 11
-1.6284054939
 21
-5.8434754538
  0
LINE
  5
27D
100
AcDbEntity
  8
CURVE
100
AcDbLine
 62
253
  6
CONTINUOUS
 10
-1.947629251
 20
-12.0676539311
 11
-1.9280109544
 21
-12.927999546
  0
LINE
  5
27E
100
AcDbEntity
  8
CURVE
100
AcDbLine
 62
253
  6
CONTINUOUS
 10
-1.7340667628
 20
-12.9649532757
 11
-1.7503169638
 21
-12.2521518853
  0
LINE
  5
27F
100
AcDbEntity
  8
ASSI
100
AcDbLine
 62
253
  6
CONTINUOUS
 10
-1.5995707439
 20
1.5138484638
 11
-1.5991154534
 21
1.4653661304
  0
LINE
  5
280
100
AcDbEntity
  8
ASSI
100
AcDbLine
 62
7
  6
CONTINUOUS
 10
-1.6287891594
 20
1.5486882956
 11
-1.6284045336
 21
1.5062837631
  0
LWPOLYLINE
  5
281
100
AcDbEntity
  8
CURVE
100
AcDbPolyline
 62
253
  6
CONTINUOUS
 90
4
 70
0
 10
-2.0234647696
 20
9.2855446881
 10
-2.0234918035
 20
9.2766147771
 10
-2.0235261975
 20
9.273543506
 10
-2.0236455825
 20
9.2672843798
  0
LWPOLYLINE
  5
282
100
AcDbEntity
  8
CURVE
100
AcDbPolyline
 62
253
  6
CONTINUOUS
 90
28
 70
0
 10
-2.0236455825
 20
9.2672843798
 10
-2.0236657471
 20
9.2651571951
 10
-2.023656054
 20
9.2629964973
 10
-2.0236033469
 20
9.2607892196
 10
-2.0235269984
 20
9.2590947395
 10
-2.0234094492
 20
9.2573576365
 10
-2.0232420645
 20
9.2555715497
 10
-2.0230200891
 20
9.2537409599
 10
-2.0227406608
 20
9.2518728419
 10
-2.0224046092
 20
9.2499733054
 10
-2.0220136548
 20
9.2480481234
 10
-2.0215693905
 20
9.2461025867
 10
-2.0208978061
 20
9.2434863259
 10
-2.0201439043
 20
9.2408584163
 10
-2.0193173661
 20
9.2382342039
 10
-2.0184269206
 20
9.2356256781
 10
-2.0174774888
 20
9.2330314006
 10
-2.0164730394
 20
9.2304465767
 10
-2.0152004077
 20
9.2273515582
 10
-2.0138595797
 20
9.2242612199
 10
-2.0124558687
 20
9.2211735334
 10
-2.0109945885
 20
9.2180864707
 10
-2.0094810526
 20
9.2149980034
 10
-2.0075245248
 20
9.2111342769
 10
-2.0055097193
 20
9.2072727608
 10
-2.0034517053
 20
9.2034210288
 10
-2.0013655521
 20
9.1995866551
 10
-1.990932279
 20
9.1807745362
  0
LWPOLYLINE
  5
283
100
AcDbEntity
  8
CURVE
100
AcDbPolyline
 62
253
  6
CONTINUOUS
 90
3
 70
0
 10
-2.6849164348
 20
7.9063244037
 10
-2.6543543318
 20
9.348542298
 10
-2.6302909185
 20
10.3638476377
  0
LINE
  5
284
100
AcDbEntity
  8
CURVE
100
AcDbLine
 62
253
  6
CONTINUOUS
 10
-2.8308128993
 20
10.2821648332
 11
-2.8767797119
 21
8.2142508699
  0
LINE
  5
285
100
AcDbEntity
  8
ASSI
100
AcDbLine
 62
253
  6
CONTINUOUS
 10
-1.5991154534
 20
1.4653661304
 11
-1.600301843
 21
1.4178535714
  0
LINE
  5
286
100
AcDbEntity
  8
ASSI
100
AcDbLine
 62
7
  6
CONTINUOUS
 10
-1.6284051378
 20
1.506194362
 11
-1.6310936265
 21
1.4344636602
  0
LWPOLYLINE
  5
287
100
AcDbEntity
  8
ASSI
100
AcDbPolyline
 62
253
  6
CONTINUOUS
 90
15
 70
0
 10
-1.600301843
 20
1.4178535714
 10
-1.6032199926
 20
1.3713922043
 10
-1.6078699159
 20
1.3259820221
 10
-1.6142542003
 20
1.2815072528
 10
-1.6223702623
 20
1.2380836673
 10
-1.6322104653
 20
1.1960585127
 10
-1.6437975093
 20
1.1554474447
 10
-1.657108931
 20
1.1162346743
 10
-1.672069554
 20
1.0787201652
 10
-1.6886976745
 20
1.0429287902
 10
-1.7069754239
 20
1.0088354347
 10
-1.7267735571
 20
0.9766649787
 10
-1.7480899783
 20
0.9464521461
 10
-1.7709273516
 20
0.9181618911
 10
-1.7951636954
 20
0.891914369
  0
LWPOLYLINE
  5
288
100
AcDbEntity
  8
ASSI
100
AcDbPolyline
 62
7
  6
CONTINUOUS
 90
10
 70
0
 10
-1.6310936265
 20
1.4344636602
 10
-1.6400521355
 20
1.351525304
 10
-1.6550584668
 20
1.2742569103
 10
-1.6758400225
 20
1.2032095653
 10
-1.7020528801
 20
1.1388727031
 10
-1.7332909475
 20
1.0816458165
 10
-1.7690225445
 20
1.0318968884
 10
-1.8089034161
 20
0.9895597454
 10
-1.8529876542
 20
0.9543060974
 10
-1.8720744215
 20
0.9420099483
  0
LWPOLYLINE
  5
289
100
AcDbEntity
  8
CURVE
100
AcDbPolyline
 62
253
  6
CONTINUOUS
 90
27
 70
0
 10
-1.4004289237
 20
9.6646179516
 10
-1.4007006847
 20
9.6630344045
 10
-1.400932112
 20
9.6614231872
 10
-1.4011247877
 20
9.6597856661
 10
-1.4012802939
 20
9.6581232076
 10
-1.4014002125
 20
9.6564371782
 10
-1.4014861257
 20
9.6547289444
 10
-1.4015396155
 20
9.6529998725
 10
-1.401562264
 20
9.6512513291
 10
-1.4015556533
 20
9.6494846805
 10
-1.4015213655
 20
9.6477012933
 10
-1.4014609825
 20
9.6459025338
 10
-1.4013760865
 20
9.6440897685
 10
-1.4012440553
 20
9.6418976516
 10
-1.4010815789
 20
9.6396882863
 10
-1.4008912326
 20
9.6374626248
 10
-1.4006755917
 20
9.6352216193
 10
-1.4004372318
 20
9.6329662222
 10
-1.4001110232
 20
9.6301281391
 10
-1.3997569708
 20
9.6272706224
 10
-1.3993787053
 20
9.6243952375
 10
-1.3989798575
 20
9.6215035499
 10
-1.3984210591
 20
9.6176244609
 10
-1.3978331705
 20
9.6137177727
 10
-1.3972172374
 20
9.6097820858
 10
-1.3965746971
 20
9.6058166437
 10
-1.3952221962
 20
9.5978044013
  0
LWPOLYLINE
  5
28A
100
AcDbEntity
  8
CURVE
100
AcDbPolyline
 62
253
  6
CONTINUOUS
 90
28
 70
0
 10
-0.7780645007
 20
10.0258545568
 10
-0.778354412
 20
10.0243104033
 10
-0.7786060082
 20
10.022744604
 10
-0.7788209366
 20
10.0211586879
 10
-0.7790008446
 20
10.0195541844
 10
-0.7791473794
 20
10.0179326225
 10
-0.7792621884
 20
10.0162955316
 10
-0.779346919
 20
10.0146444409
 10
-0.7794032184
 20
10.0129808794
 10
-0.7794327341
 20
10.0113063765
 10
-0.7794371133
 20
10.0096224614
 10
-0.7794180033
 20
10.0079306631
 10
-0.7793770516
 20
10.0062325111
 10
-0.7793159054
 20
10.0045295344
 10
-0.7792087977
 20
10.002310451
 10
-0.7790731487
 20
10.0000860642
 10
-0.7789117616
 20
9.9978566401
 10
-0.7787274398
 20
9.9956224445
 10
-0.7785229865
 20
9.9933837434
 10
-0.7782429381
 20
9.9905792289
 10
-0.7779386334
 20
9.9877673652
 10
-0.7776128915
 20
9.9849474273
 10
-0.7772685313
 20
9.9821186902
 10
-0.7767844564
 20
9.9783326908
 10
-0.7762739453
 20
9.9745315839
 10
-0.7757386492
 20
9.9707171936
 10
-0.7751804783
 20
9.9668913437
 10
-0.774007554
 20
9.9592125491
  0
LWPOLYLINE
  5
28B
100
AcDbEntity
  8
CURVE
100
AcDbPolyline
 62
253
  6
CONTINUOUS
 90
27
 70
0
 10
-0.8627945197
 20
6.1729726466
 10
-0.8631381513
 20
6.1714686707
 10
-0.8634474103
 20
6.1699338706
 10
-0.8637233189
 20
6.1683690573
 10
-0.8639668997
 20
6.1667750417
 10
-0.8641791748
 20
6.1651526349
 10
-0.8643611666
 20
6.1635026477
 10
-0.8645138975
 20
6.1618258911
 10
-0.8646383897
 20
6.160123176
 10
-0.8647356656
 20
6.1583953135
 10
-0.8648067476
 20
6.1566431145
 10
-0.864852658
 20
6.1548673899
 10
-0.8648760979
 20
6.1526663582
 10
-0.8648654479
 20
6.1504332583
 10
-0.8648226929
 20
6.1481699536
 10
-0.8647498179
 20
6.1458783076
 10
-0.8646488078
 20
6.1435601838
 10
-0.8645216476
 20
6.1412174456
 10
-0.8643703221
 20
6.1388519564
 10
-0.8641968165
 20
6.1364655798
 10
-0.8640031155
 20
6.1340601791
 10
-0.8637272766
 20
6.1309419071
 10
-0.8634236666
 20
6.1277952722
 10
-0.8630946171
 20
6.124620279
 10
-0.8627424599
 20
6.1214169321
 10
-0.8623695265
 20
6.1181852359
 10
-0.8615706583
 20
6.1116368144
  0
LWPOLYLINE
  5
28C
100
AcDbEntity
  8
CURVE
100
AcDbPolyline
 62
253
  6
CONTINUOUS
 90
27
 70
0
 10
-1.4534308719
 20
7.2268693566
 10
-1.4537739002
 20
7.225375492
 10
-1.4540805773
 20
7.2238518042
 10
-1.4543521445
 20
7.2222993857
 10
-1.4545898432
 20
7.220719329
 10
-1.454794915
 20
7.2191127266
 10
-1.4549686011
 20
7.2174806709
 10
-1.4551121431
 20
7.2158242546
 10
-1.4552267823
 20
7.2141445702
 10
-1.4553137602
 20
7.21244271
 10
-1.4553743181
 20
7.2107197667
 10
-1.4554096975
 20
7.2089768327
 10
-1.4554211398
 20
7.2072150005
 10
-1.4554012696
 20
7.2048382437
 10
-1.4553437737
 20
7.2024315915
 10
-1.4552513741
 20
7.1999968032
 10
-1.4551267928
 20
7.1975356378
 10
-1.4549727521
 20
7.1950498546
 10
-1.454791974
 20
7.1925412127
 10
-1.4545871806
 20
7.1900114712
 10
-1.454361094
 20
7.1874623894
 10
-1.4541164362
 20
7.1848957263
 10
-1.4537196281
 20
7.1810156688
 10
-1.4532906153
 20
7.1771002707
 10
-1.4528328534
 20
7.1731497913
 10
-1.4523497979
 20
7.1691644895
 10
-1.4513216284
 20
7.1610904558
  0
LWPOLYLINE
  5
28D
100
AcDbEntity
  8
RACCORDO
100
AcDbPolyline
 62
253
  6
CONTINUOUS
 90
38
 70
0
 10
-1.8965448725
 20
1.1669416895
 10
-1.8454029934
 20
1.2162877094
 10
-1.8026172094
 20
1.2748283423
 10
-1.7682680255
 20
1.3413681905
 10
-1.7427465063
 20
1.4131419644
 10
-1.7255345706
 20
1.4878572446
 10
-1.7156598594
 20
1.5646732175
 10
-1.7123468429
 20
1.6427706858
 10
-1.7148925989
 20
1.7210707363
 10
-1.7225789461
 20
1.7986584171
 10
-1.7347926065
 20
1.8752811859
 10
-1.7509342771
 20
1.9503278525
 10
-1.7704042003
 20
2.0232157628
 10
-1.7927809798
 20
2.0939421806
 10
-1.8175913722
 20
2.1621755019
 10
-1.8443621178
 20
2.2275902032
 10
-1.8728195507
 20
2.2903046434
 10
-1.9025988852
 20
2.3501524962
 10
-1.9333458658
 20
2.4069893743
 10
-1.964912647
 20
2.4610192554
 10
-1.9970430986
 20
2.5122027718
 10
-2.0294689812
 20
2.5604791723
 10
-2.0621023905
 20
2.6060391191
 10
-2.0947524065
 20
2.6488956708
 10
-2.1272307185
 20
2.6890632482
 10
-2.159506054
 20
2.7267358954
 10
-2.1914461688
 20
2.7619649174
 10
-2.2229163888
 20
2.7947965818
 10
-2.2539183117
 20
2.8254086158
 10
-2.2843640453
 20
2.8538719884
 10
-2.3141580424
 20
2.8802481758
 10
-2.3433148003
 20
2.9046886123
 10
-2.371763863
 20
2.927261281
 10
-2.3994530521
 20
2.9480467738
 10
-2.4264408841
 20
2.967199368
 10
-2.452721811
 20
2.9848129729
 10
-2.4782239461
 20
3.0009340325
 10
-2.5029168172
 20
3.015636766
  0
LWPOLYLINE
  5
28E
100
AcDbEntity
  8
ASSI
100
AcDbPolyline
 62
253
  6
CONTINUOUS
 90
61
 70
0
 10
-1.7951636954
 20
0.891914369
 10
-1.8207974187
 20
0.8677193361
 10
-1.8478307261
 20
0.8455666878
 10
-1.8761474025
 20
0.8255467477
 10
-1.9057615342
 20
0.8076597208
 10
-1.9366596554
 20
0.7919050494
 10
-1.9686842801
 20
0.7783718796
 10
-2.0018480938
 20
0.7670715784
 10
-2.0361390267
 20
0.7579924285
 10
-2.0713625046
 20
0.7511889238
 10
-2.1075199589
 20
0.7466759877
 10
-2.1446105323
 20
0.74443837
 10
-2.1824362384
 20
0.7444852925
 10
-2.2209984438
 20
0.7468281704
 10
-2.26029627
 20
0.7514553104
 10
-2.3001283585
 20
0.7583412739
 10
-2.3404984894
 20
0.7674970953
 10
-2.381403254
 20
0.7789115285
 10
-2.42263049
 20
0.792525725
 10
-2.4641836381
 20
0.8083516974
 10
-2.5060594903
 20
0.8263773004
 10
-2.5480358791
 20
0.8465074668
 10
-2.5901130221
 20
0.868753355
 10
-2.6322907811
 20
0.8931037613
 10
-2.6743464163
 20
0.9194300971
 10
-2.7162796407
 20
0.9477433282
 10
-2.7580906621
 20
0.978032534
 10
-2.7995574444
 20
1.0101363174
 10
-2.8406764828
 20
1.0440629718
 10
-2.8814510495
 20
1.0798043366
 10
-2.921669242
 20
1.1171743516
 10
-2.9613271325
 20
1.1561800042
 10
-3.0004282776
 20
1.1968145188
 10
-3.0387719809
 20
1.2388712024
 10
-3.0763566809
 20
1.2823602253
 10
-3.113183451
 20
1.3272716953
 10
-3.1490555438
 20
1.373368829
 10
-3.183971531
 20
1.4206656027
 10
-3.2179322666
 20
1.4691483669
 10
-3.2507444471
 20
1.5185388874
 10
-3.2823956145
 20
1.5688351211
 10
-3.3128976107
 20
1.6200394616
 10
-3.342093627
 20
1.671880304
 10
-3.3699694367
 20
1.7243421816
 10
-3.3965386461
 20
1.7774409138
 10
-3.421686254
 20
1.8309517912
 10
-3.4454132839
 20
1.8848858529
 10
-3.4677180996
 20
1.9392324076
 10
-3.4884817823
 20
1.9937341097
 10
-3.5077062263
 20
2.0484282639
 10
-3.525388969
 20
2.1032778876
 10
-3.5414046782
 20
2.157914134
 10
-3.5557353669
 20
2.2123422751
 10
-3.5683985922
 20
2.266557282
 10
-3.5793225161
 20
2.3201747549
 10
-3.5884844381
 20
2.3731851988
 10
-3.5959068191
 20
2.4255982435
 10
-3.601585769
 20
2.477058059
 10
-3.6055200288
 20
2.5274460136
 10
-3.6077108524
 20
2.5768807407
 10
-3.6081582254
 20
2.6253622477
  0
LWPOLYLINE
  5
28F
100
AcDbEntity
  8
RACCORDO
100
AcDbPolyline
 62
253
  6
CONTINUOUS
 90
5
 70
0
 10
-1.8379212662
 20
1.0932743488
 10
-1.7793474803
 20
1.1324669319
 10
-1.7241435984
 20
1.1857327166
 10
-1.677958818
 20
1.2489226409
 10
-1.6491349984
 20
1.3047571622
  0
LINE
  5
290
100
AcDbEntity
  8
ASSI
100
AcDbLine
 62
7
  6
CONTINUOUS
 10
-1.8712695608
 20
0.9424962522
 11
-1.8720851991
 21
0.9420029593
  0
LWPOLYLINE
  5
291
100
AcDbEntity
  8
ASSI
100
AcDbPolyline
 62
253
  6
CONTINUOUS
 90
58
 70
0
 10
-1.8720851991
 20
0.9420029593
 10
-1.8858229775
 20
0.9340437815
 10
-1.9145275524
 20
0.9194149285
 10
-1.9443309888
 20
0.9068293365
 10
-1.9751874419
 20
0.8963096951
 10
-2.00703933
 20
0.8878788045
 10
-2.0398165649
 20
0.8815560797
 10
-2.0734567988
 20
0.8773523453
 10
-2.107905221
 20
0.8752732333
 10
-2.143099298
 20
0.8753215341
 10
-2.1789745454
 20
0.8774958576
 10
-2.2154701061
 20
0.8817912278
 10
-2.2525272555
 20
0.8882000277
 10
-2.2900819599
 20
0.8967110893
 10
-2.328067368
 20
0.9073091902
 10
-2.3664195426
 20
0.9199764539
 10
-2.4050727361
 20
0.9346915261
 10
-2.4439575916
 20
0.9514284033
 10
-2.4830039634
 20
0.970156979
 10
-2.5221428601
 20
0.9908441359
 10
-2.5613058158
 20
1.0134537204
 10
-2.6004231643
 20
1.037945517
 10
-2.639426497
 20
1.0642766696
 10
-2.6782467622
 20
1.0924006077
 10
-2.7168136373
 20
1.1222663371
 10
-2.7550578274
 20
1.1538198221
 10
-2.7929135176
 20
1.1870064565
 10
-2.8303164048
 20
1.2217700249
 10
-2.8671995944
 20
1.2580484828
 10
-2.9034991059
 20
1.2957790951
 10
-2.9391559966
 20
1.3349015619
 10
-2.9741092723
 20
1.3753504336
 10
-3.0082945977
 20
1.4170527774
 10
-3.0416496195
 20
1.4599339755
 10
-3.074119491
 20
1.5039252202
 10
-3.1056418378
 20
1.5489436512
 10
-3.1361467287
 20
1.5948891049
 10
-3.1655767809
 20
1.6416727643
 10
-3.19388584
 20
1.6892185863
 10
-3.2210250927
 20
1.7374422213
 10
-3.2469391301
 20
1.786241848
 10
-3.2715928929
 20
1.8355477625
 10
-3.2949675465
 20
1.8853239199
 10
-3.3170226737
 20
1.9354926062
 10
-3.3377123612
 20
1.9859580072
 10
-3.357006835
 20
2.0366572757
 10
-3.3748776636
 20
2.0875349168
 10
-3.3912746879
 20
2.138468166
 10
-3.4061434445
 20
2.1892926929
 10
-3.4194601211
 20
2.2399266329
 10
-3.4311997085
 20
2.290272876
 10
-3.4413256447
 20
2.3401470521
 10
-3.449829715
 20
2.3894635005
 10
-3.4567073395
 20
2.4381400067
 10
-3.4619499278
 20
2.4860053735
 10
-3.4655663091
 20
2.5329554068
 10
-3.4675726249
 20
2.5789493826
 10
-3.4679845752
 20
2.6239193041
  0
LINE
  5
292
100
AcDbEntity
  8
DRAFT
100
AcDbLine
 62
7
  6
CONTINUOUS
 10
-1.6868183401
 20
1.1762643722
 11
-1.8379212728
 21
1.0932743452
  0
LWPOLYLINE
  5
293
100
AcDbEntity
  8
ASSI
100
AcDbPolyline
 62
7
  6
CONTINUOUS
 90
13
 70
0
 10
4.8776170746
 20
-5.7418804693
 10
4.9209059542
 20
-5.764154205
 10
4.9708927159
 20
-5.7841133518
 10
5.0229292404
 20
-5.7995651384
 10
5.0766851166
 20
-5.8106820092
 10
5.1317006531
 20
-5.8175117793
 10
5.1871997538
 20
-5.8200488568
 10
5.242725427
 20
-5.8183145154
 10
5.2978220522
 20
-5.8122818877
 10
5.3517152447
 20
-5.8019461335
 10
5.4039470173
 20
-5.7872535955
 10
5.4541914883
 20
-5.7680272628
 10
5.4943297538
 20
-5.748296739
  0
LWPOLYLINE
  5
294
100
AcDbEntity
  8
ASSI
100
AcDbPolyline
 62
253
  6
CONTINUOUS
 90
7
 70
0
 10
4.8362274854
 20
-5.6502325853
 10
4.8550016303
 20
-5.6605291034
 10
4.8746721135
 20
-5.6702560917
 10
4.8951860359
 20
-5.6793876068
 10
4.916487283
 20
-5.6878990177
 10
4.9385195255
 20
-5.6957680464
 10
4.9612266893
 20
-5.7029745326
  0
LINE
  5
295
100
AcDbEntity
  8
ASSI
100
AcDbLine
 62
253
  6
CONTINUOUS
 10
4.8362274836
 20
-6.2329864492
 11
-10.0719709131
 21
2.3748204614
  0
LINE
  5
296
100
AcDbEntity
  8
ASSI
100
AcDbLine
 62
253
  6
CONTINUOUS
 10
4.9764263341
 20
-5.9886464516
 11
-9.9317953585
 21
2.6191739098
  0
LINE
  5
297
100
AcDbEntity
  8
ASSI
100
AcDbLine
 62
7
  6
CONTINUOUS
 10
-10.0305660729
 20
2.8659170992
 11
4.8776556205
 21
-5.7419032626
  0
LINE
  5
298
100
AcDbEntity
  8
ASSI
100
AcDbLine
 62
253
  6
CONTINUOUS
 10
-10.0719709132
 20
2.9575743184
 11
4.8362274835
 21
-5.6502325922
  0
LWPOLYLINE
  5
299
100
AcDbEntity
  8
ASSI
100
AcDbPolyline
 62
253
  6
CONTINUOUS
 90
17
 70
0
 10
-10.0719709111
 20
2.3748204567
 10
-10.0897983384
 20
2.3856635977
 10
-10.1066290361
 20
2.3970302425
 10
-10.1224180787
 20
2.408889844
 10
-10.1371227131
 20
2.4212100564
 10
-10.1507044745
 20
2.4339582871
 10
-10.163128779
 20
2.4471019673
 10
-10.1743628703
 20
2.4606070823
 10
-10.1843754112
 20
2.4744365874
 10
-10.1931385778
 20
2.4885520088
 10
-10.2006286825
 20
2.5029150933
 10
-10.2068260703
 20
2.5174879466
 10
-10.211714305
 20
2.5322315959
 10
-10.2152802827
 20
2.5471068731
 10
-10.2175143506
 20
2.562073871
 10
-10.218410485
 20
2.5770920086
 10
-10.2184293538
 20
2.5793727188
  0
LWPOLYLINE
  5
29A
100
AcDbEntity
  8
ASSI
100
AcDbPolyline
 62
253
  6
CONTINUOUS
 90
19
 70
0
 10
-9.9317953585
 20
2.6191739098
 10
-9.9425252152
 20
2.6257065836
 10
-9.9526084965
 20
2.6325191263
 10
-9.9620452024
 20
2.6396115379
 10
-9.9708576288
 20
2.6470044761
 10
-9.9790234799
 20
2.6546772833
 10
-9.9864758682
 20
2.6625679867
 10
-9.9932088003
 20
2.6706783336
 10
-9.9992282695
 20
2.6790065767
 10
-10.0044853693
 20
2.6874855017
 10
-10.008973728
 20
2.6961160767
 10
-10.0126997171
 20
2.7048973335
 10
-10.0156335445
 20
2.7137591536
 10
-10.0177688952
 20
2.7227023225
 10
-10.019112084
 20
2.7317260547
 10
-10.0196522631
 20
2.7407578748
 10
-10.0193829202
 20
2.7497978204
 10
-10.0183105676
 20
2.758845854
 10
-10.0164438949
 20
2.7678293874
  0
LINE
  5
29B
100
AcDbEntity
  8
ASSI
100
AcDbLine
 62
253
  6
CONTINUOUS
 10
-1.6017591636
 20
1.5632887012
 11
-1.5995707439
 21
1.5138484638
  0
LWPOLYLINE
  5
29C
100
AcDbEntity
  8
CURVE
100
AcDbPolyline
 62
253
  6
CONTINUOUS
 90
30
 70
0
 10
0.3075634529
 20
-13.3177744617
 10
0.3076864448
 20
-13.3209658422
 10
0.3077774693
 20
-13.3225813544
 10
0.3078952859
 20
-13.3242113662
 10
0.3080456967
 20
-13.3258580327
 10
0.3082365973
 20
-13.3275307911
 10
0.3084757798
 20
-13.3292397339
 10
0.3087685269
 20
-13.3309902904
 10
0.3091185169
 20
-13.3327847337
 10
0.3095255187
 20
-13.3346173739
 10
0.3099881374
 20
-13.3364809316
 10
0.3105042311
 20
-13.3383697326
 10
0.311071471
 20
-13.3402785038
 10
0.3116875285
 20
-13.3422019722
 10
0.3125798368
 20
-13.3447798239
 10
0.3135431798
 20
-13.3473588042
 10
0.314565945
 20
-13.3499232881
 10
0.3156375693
 20
-13.3524605871
 10
0.3167516876
 20
-13.3549697602
 10
0.3179029839
 20
-13.3574528032
 10
0.319327132
 20
-13.3604011576
 10
0.3207939883
 20
-13.3633205131
 10
0.3223003792
 20
-13.3662166241
 10
0.323843131
 20
-13.369095245
 10
0.3254190702
 20
-13.3719621302
 10
0.3274300666
 20
-13.3755355779
 10
0.3294771847
 20
-13.3790963869
 10
0.33154965
 20
-13.3826412644
 10
0.3336366877
 20
-13.3861669176
 10
0.3419304258
 20
-13.4000245268
  0
LWPOLYLINE
  5
29D
100
AcDbEntity
  8
CURVE
100
AcDbPolyline
 62
253
  6
CONTINUOUS
 90
3
 70
0
 10
0.3073046268
 20
-13.308415074
 10
0.3074068936
 20
-13.3115037949
 10
0.3075634529
 20
-13.3177744617
  0
LWPOLYLINE
  5
29E
100
AcDbEntity
  8
CURVE
100
AcDbPolyline
 62
253
  6
CONTINUOUS
 90
3
 70
0
 10
-0.2769524366
 20
-14.6345739453
 10
-0.3105208289
 20
-13.2294744158
 10
-0.3315400814
 20
-12.2401953601
  0
LINE
  5
29F
100
AcDbEntity
  8
CURVE
100
AcDbLine
 62
253
  6
CONTINUOUS
 10
-0.5234231757
 20
-12.3167750382
 11
-0.4774864789
 21
-14.3317689732
  0
LINE
  5
2A0
100
AcDbEntity
  8
ASSI
100
AcDbLine
 62
253
  6
CONTINUOUS
 10
-1.5991154534
 20
-5.8843363012
 11
-1.5995697334
 21
-5.9314022611
  0
LINE
  5
2A1
100
AcDbEntity
  8
ASSI
100
AcDbLine
 62
7
  6
CONTINUOUS
 10
-1.6284046746
 20
-5.843572836
 11
-1.6299681845
 21
-5.9143685249
  0
LWPOLYLINE
  5
2A2
100
AcDbEntity
  8
ASSI
100
AcDbPolyline
 62
253
  6
CONTINUOUS
 90
14
 70
0
 10
-1.5995697334
 20
-5.9314022611
 10
-1.6017558346
 20
-5.9774172936
 10
-1.6056737709
 20
-6.0223814062
 10
-1.6113243409
 20
-6.0664092547
 10
-1.6187067502
 20
-6.1093861844
 10
-1.6278187287
 20
-6.1509682997
 10
-1.6386830022
 20
-6.1911399759
 10
-1.6512770819
 20
-6.2299169759
 10
-1.6655310807
 20
-6.2670026057
 10
-1.6814635097
 20
-6.3023721483
 10
-1.6990562853
 20
-6.3360505715
 10
-1.7181848079
 20
-6.3678158142
 10
-1.7388475509
 20
-6.3976335124
 10
-1.7610466087
 20
-6.425538364
  0
LWPOLYLINE
  5
2A3
100
AcDbEntity
  8
ASSI
100
AcDbPolyline
 62
7
  6
CONTINUOUS
 90
10
 70
0
 10
-1.6299681845
 20
-5.9143685249
 10
-1.6375361612
 20
-5.9961985322
 10
-1.6511329526
 20
-6.0723391589
 10
-1.6704842617
 20
-6.1422524487
 10
-1.6952427174
 20
-6.2054615233
 10
-1.7249955804
 20
-6.2615798828
 10
-1.7591961019
 20
-6.310249454
 10
-1.7975034421
 20
-6.3515852929
 10
-1.8400143517
 20
-6.3859814475
 10
-1.8596536632
 20
-6.3986922461
  0
LWPOLYLINE
  5
2A4
100
AcDbEntity
  8
RACCORDO
100
AcDbPolyline
 62
7
  6
CONTINUOUS
 90
9
 70
0
 10
-2.4031226437
 20
1.1113588049
 10
-2.3243239802
 20
1.078478604
 10
-2.2467312957
 20
1.0544573912
 10
-2.1706122637
 20
1.0393065036
 10
-2.0966318909
 20
1.0331081689
 10
-2.025861544
 20
1.0357754538
 10
-1.9589568096
 20
1.0469593172
 10
-1.8961660288
 20
1.0662773494
 10
-1.8379211986
 20
1.0932743859
  0
LINE
  5
2A5
100
AcDbEntity
  8
RACCORDO
100
AcDbLine
 62
253
  6
CONTINUOUS
 10
-2.5029168172
 20
1.1899306286
 11
-2.4168577195
 21
1.1456625332
  0
LINE
  5
2A6
100
AcDbEntity
  8
RACCORDO
100
AcDbLine
 62
7
  6
CONTINUOUS
 10
-2.4826518912
 20
1.1530294887
 11
-2.4031226437
 21
1.1113588049
  0
LINE
  5
2A7
100
AcDbEntity
  8
RACCORDO
100
AcDbLine
 62
7
  6
CONTINUOUS
 10
-2.5793759575
 20
1.2152243827
 11
-2.4826518912
 21
1.1530294888
  0
LWPOLYLINE
  5
2A8
100
AcDbEntity
  8
RACCORDO
100
AcDbPolyline
 62
253
  6
CONTINUOUS
 90
4
 70
0
 10
-2.5793927703
 20
1.2383680151
 10
-2.5531118302
 20
1.2207544177
 10
-2.5276096885
 20
1.204633362
 10
-2.5029168172
 20
1.1899306286
  0
LWPOLYLINE
  5
2A9
100
AcDbEntity
  8
CURVE
100
AcDbPolyline
 62
253
  6
CONTINUOUS
 90
26
 70
0
 10
-4.2840824309
 20
9.5395703292
 10
-4.2830836669
 20
9.5371392514
 10
-4.2820376281
 20
9.5346942447
 10
-4.2809445036
 20
9.5322348902
 10
-4.2798044825
 20
9.5297607688
 10
-4.2786177539
 20
9.5272714614
 10
-4.2773845069
 20
9.524766549
 10
-4.2761049307
 20
9.5222456127
 10
-4.2747792142
 20
9.5197082332
 10
-4.2734075468
 20
9.5171539917
 10
-4.2719901173
 20
9.514582469
 10
-4.2705271151
 20
9.5119932462
 10
-4.2688658157
 20
9.5091244206
 10
-4.2671523382
 20
9.506234693
 10
-4.2653894187
 20
9.5033250855
 10
-4.2635797934
 20
9.5003966203
 10
-4.2617261985
 20
9.4974503195
 10
-4.25983137
 20
9.4944872054
 10
-4.2578980442
 20
9.4915083002
 10
-4.2559289572
 20
9.4885146259
 10
-4.2539268452
 20
9.4855072048
 10
-4.2518944443
 20
9.4824870591
 10
-4.2489426143
 20
9.4781512967
 10
-4.2459348347
 20
9.4737873017
 10
-4.2428713858
 20
9.4693907242
 10
-4.2365786017
 20
9.460482422
  0
LWPOLYLINE
  5
2AA
100
AcDbEntity
  8
RACCORDO
100
AcDbPolyline
 62
7
  6
CONTINUOUS
 90
21
 70
0
 10
-3.0447399935
 20
-4.1648212574
 10
-3.1099472387
 20
-4.2124339431
 10
-3.1678240145
 20
-4.2720079377
 10
-3.2173155054
 20
-4.3431178703
 10
-3.2576870353
 20
-4.4256671112
 10
-3.287891481
 20
-4.5187288755
 10
-3.3070606138
 20
-4.6201559605
 10
-3.3150643085
 20
-4.7287815571
 10
-3.3118607347
 20
-4.8436997621
 10
-3.2976337481
 20
-4.962480294
 10
-3.2728969589
 20
-5.0832640247
 10
-3.2380765912
 20
-5.2051470661
 10
-3.193698619
 20
-5.3267731049
 10
-3.1404076275
 20
-5.4466834886
 10
-3.0788716947
 20
-5.5635703989
 10
-3.0097545732
 20
-5.6762408414
 10
-2.933841996
 20
-5.7833954789
 10
-2.8520030386
 20
-5.8837523279
 10
-2.7650465632
 20
-5.9762108439
 10
-2.6738423822
 20
-6.0596691352
 10
-2.5793759575
 20
-6.1330081084
  0
LWPOLYLINE
  5
2AB
100
AcDbEntity
  8
RACCORDO
100
AcDbPolyline
 62
253
  6
CONTINUOUS
 90
8
 70
0
 10
-2.4168577195
 20
1.1456625332
 10
-2.331823498
 20
1.1127715559
 10
-2.2488250079
 20
1.091647836
 10
-2.1688653065
 20
1.0825430215
 10
-2.0928765934
 20
1.0855578251
 10
-2.0217174048
 20
1.1006658959
 10
-1.9558503067
 20
1.1279148575
 10
-1.8965448725
 20
1.1669416895
  0
LINE
  5
2AC
100
AcDbEntity
  8
RACCORDO
100
AcDbLine
 62
253
  6
CONTINUOUS
 10
-2.5029168172
 20
3.015636766
 11
-2.5889752207
 21
3.0599052623
  0
LINE
  5
2AD
100
AcDbEntity
  8
ASSI
100
AcDbLine
 62
253
  6
CONTINUOUS
 10
-2.5721365607
 20
3.1989093507
 11
-2.5301007833
 21
3.1725839053
  0
LWPOLYLINE
  5
2AE
100
AcDbEntity
  8
ASSI
100
AcDbPolyline
 62
253
  6
CONTINUOUS
 90
35
 70
0
 10
-2.5301007833
 20
3.1725839053
 10
-2.4881973038
 20
3.1442667024
 10
-2.4464257568
 20
3.1139687367
 10
-2.4050076594
 20
3.0818514153
 10
-2.3639463481
 20
3.047906543
 10
-2.323238254
 20
3.0121424459
 10
-2.2830945035
 20
2.974745331
 10
-2.2435187057
 20
2.935708385
 10
-2.2045068806
 20
2.8950386304
 10
-2.1662587504
 20
2.8529430397
 10
-2.1287754441
 20
2.8094116755
 10
-2.0920553452
 20
2.7644547503
 10
-2.0562940529
 20
2.7183094638
 10
-2.021492489
 20
2.6709621155
 10
-1.9876491581
 20
2.6224267299
 10
-1.9549560544
 20
2.5729820821
 10
-1.9234250442
 20
2.5226305386
 10
-1.8930436454
 20
2.4713700808
 10
-1.8639673751
 20
2.4194728808
 10
-1.8362098124
 20
2.3669547339
 10
-1.809756758
 20
2.3138001954
 10
-1.7847221187
 20
2.2602345451
 10
-1.7611042966
 20
2.2062470561
 10
-1.7389042773
 20
2.151848802
 10
-1.7182399152
 20
2.0972977223
 10
-1.6991088478
 20
2.0425568212
 10
-1.6815128696
 20
1.9876634165
 10
-1.6655761926
 20
1.9329868494
 10
-1.6513163951
 20
1.8785220844
 10
-1.6387154689
 20
1.8242744012
 10
-1.6278444252
 20
1.7706285132
 10
-1.6187257142
 20
1.717594035
 10
-1.611336646
 20
1.665161489
 10
-1.605680727
 20
1.6136868338
 10
-1.6017591636
 20
1.5632887012
  0
LWPOLYLINE
  5
2AF
100
AcDbEntity
  8
CURVE
100
AcDbPolyline
 62
253
  6
CONTINUOUS
 90
27
 70
0
 10
0.3293258329
 20
-14.2737272844
 10
0.3290286415
 20
-14.2751852404
 10
0.3287721594
 20
-14.2766743362
 10
0.3285548678
 20
-14.2781931757
 10
0.328375248
 20
-14.2797403632
 10
0.3282317809
 20
-14.2813145026
 10
0.328122948
 20
-14.2829141981
 10
0.3280472304
 20
-14.2845380538
 10
0.3280031092
 20
-14.2861846737
 10
0.3279890656
 20
-14.2878526619
 10
0.3280035809
 20
-14.2895406226
 10
0.3280451363
 20
-14.2912471598
 10
0.3281122129
 20
-14.2929708775
 10
0.3282242839
 20
-14.295060249
 10
0.3283684714
 20
-14.2971711221
 10
0.3285423284
 20
-14.2993022685
 10
0.3287434078
 20
-14.3014524598
 10
0.3289692626
 20
-14.3036204677
 10
0.3292828574
 20
-14.3063536847
 10
0.3296275439
 20
-14.3091105656
 10
0.3299995257
 20
-14.3118888549
 10
0.3303950063
 20
-14.3146862975
 10
0.3309535223
 20
-14.3184432274
 10
0.3315453649
 20
-14.3222315165
 10
0.3321688341
 20
-14.3260524833
 10
0.33282185
 20
-14.329906798
 10
0.3342017377
 20
-14.3377071297
  0
LWPOLYLINE
  5
2B0
100
AcDbEntity
  8
ASSI
100
AcDbPolyline
 62
253
  6
CONTINUOUS
 90
62
 70
0
 10
-1.7610466087
 20
-6.425538364
 10
-1.784662936
 20
-6.4514119735
 10
-1.8096951123
 20
-6.4752446784
 10
-1.8361451713
 20
-6.4970465022
 10
-1.8638993217
 20
-6.5167286216
 10
-1.8929715184
 20
-6.5342907558
 10
-1.9233484267
 20
-6.5497335511
 10
-1.9548753776
 20
-6.5629696085
 10
-1.9875651154
 20
-6.5739876108
 10
-2.0214055112
 20
-6.5827992381
 10
-2.0562046321
 20
-6.5893516141
 10
-2.0919641214
 20
-6.59362996
 10
-2.1286829095
 20
-6.5956493932
 10
-2.1661650145
 20
-6.595401894
 10
-2.2044119581
 20
-6.5928761624
 10
-2.2434227064
 20
-6.5880837864
 10
-2.2829974406
 20
-6.581051076
 10
-2.3231400675
 20
-6.5717670988
 10
-2.3638470515
 20
-6.5602430065
 10
-2.4049073889
 20
-6.5465382225
 10
-2.4463246677
 20
-6.5306408486
 10
-2.4880955325
 20
-6.5125629204
 10
-2.5299985329
 20
-6.4923997431
 10
-2.5720340562
 20
-6.470140278
 10
-2.6142017943
 20
-6.4457956106
 10
-2.6562792156
 20
-6.4194942099
 10
-2.698266207
 20
-6.3912252257
 10
-2.7401628024
 20
-6.3609994615
 10
-2.7817466522
 20
-6.3289778434
 10
-2.8230144197
 20
-6.2951521763
 10
-2.8639692092
 20
-6.259530518
 10
-2.9043983006
 20
-6.2222981554
 10
-2.9442979201
 20
-6.18344818
 10
-2.9836714705
 20
-6.1429872811
 10
-3.0223169762
 20
-6.10112113
 10
-3.0602330573
 20
-6.0578396445
 10
-3.0974206061
 20
-6.013152619
 10
-3.133681051
 20
-5.967295537
 10
-3.1690131998
 20
-5.9202545418
 10
-3.2034176709
 20
-5.8720431515
 10
-3.2366986295
 20
-5.8229379237
 10
-3.2688437014
 20
-5.7729409317
 10
-3.299864645
 20
-5.7220497392
 10
-3.3296018691
 20
-5.6705341655
 10
-3.3580410436
 20
-5.6184095727
 10
-3.3851958785
 20
-5.5656602335
 10
-3.4109488996
 20
-5.5125093678
 10
-3.4353012875
 20
-5.4589460079
 10
-3.458251249
 20
-5.4049807611
 10
-3.4796769217
 20
-5.3508692526
 10
-3.4995807459
 20
-5.2965745316
 10
-3.5179597132
 20
-5.242133215
 10
-3.534683909
 20
-5.1879113514
 10
-3.5497355946
 20
-5.1339038126
 10
-3.5631320789
 20
-5.0801154746
 10
-3.5747961969
 20
-5.0269274979
 10
-3.584705318
 20
-4.9743493926
 10
-3.5928818333
 20
-4.9223715087
 10
-3.5993163161
 20
-4.8713463864
 10
-3.6040056619
 20
-4.8213915618
 10
-3.6069529698
 20
-4.7723894969
 10
-3.6081582254
 20
-4.7243401839
  0
LWPOLYLINE
  5
2B1
100
AcDbEntity
  8
RACCORDO
100
AcDbPolyline
 62
253
  6
CONTINUOUS
 90
38
 70
0
 10
-1.8965448725
 20
-6.1812908016
 10
-1.8454029934
 20
-6.1319447817
 10
-1.8026172094
 20
-6.0734041488
 10
-1.7682680255
 20
-6.0068643006
 10
-1.7427465063
 20
-5.9350905267
 10
-1.7255345706
 20
-5.8603752466
 10
-1.7156598594
 20
-5.7835592736
 10
-1.7123468429
 20
-5.7054618053
 10
-1.7148925989
 20
-5.6271617549
 10
-1.7225789461
 20
-5.549574074
 10
-1.7347926065
 20
-5.4729513053
 10
-1.7509342771
 20
-5.3979046386
 10
-1.7704042003
 20
-5.3250167283
 10
-1.7927809798
 20
-5.2542903106
 10
-1.8175913722
 20
-5.1860569893
 10
-1.8443621178
 20
-5.120642288
 10
-1.8728195507
 20
-5.0579278477
 10
-1.9025988852
 20
-4.998079995
 10
-1.9333458658
 20
-4.9412431169
 10
-1.964912647
 20
-4.8872132357
 10
-1.9970430986
 20
-4.8360297194
 10
-2.0294689812
 20
-4.7877533189
 10
-2.0621023905
 20
-4.742193372
 10
-2.0947524065
 20
-4.6993368203
 10
-2.1272307185
 20
-4.659169243
 10
-2.159506054
 20
-4.6214965957
 10
-2.1914461688
 20
-4.5862675737
 10
-2.2229163888
 20
-4.5534359094
 10
-2.2539183117
 20
-4.5228238753
 10
-2.2843640453
 20
-4.4943605028
 10
-2.3141580424
 20
-4.4679843154
 10
-2.3433148003
 20
-4.4435438788
 10
-2.371763863
 20
-4.4209712102
 10
-2.3994530521
 20
-4.4001857173
 10
-2.4264408841
 20
-4.3810331232
 10
-2.452721811
 20
-4.3634195182
 10
-2.4782239461
 20
-4.3472984587
 10
-2.5029168172
 20
-4.3325957251
  0
LINE
  5
2B2
100
AcDbEntity
  8
DRAFT
100
AcDbLine
 62
7
  6
CONTINUOUS
 10
-2.9001817685
 20
-4.0771827776
 11
-3.0447400847
 21
-4.1648213127
  0
LINE
  5
2B3
100
AcDbEntity
  8
ASSI
100
AcDbLine
 62
7
  6
CONTINUOUS
 10
-3.1923993286
 20
-4.118543435
 11
-3.1921185997
 21
-4.1183891158
  0
LWPOLYLINE
  5
2B4
100
AcDbEntity
  8
ASSI
100
AcDbPolyline
 62
7
  6
CONTINUOUS
 90
26
 70
0
 10
-3.1924048658
 20
-4.118547404
 10
-3.175464892
 20
-4.1097878672
 10
-3.1146995314
 20
-4.0865754569
 10
-3.0480549526
 20
-4.0731900861
 10
-2.9761335677
 20
-4.0700071937
 10
-2.8994750967
 20
-4.0772495407
 10
-2.8190081735
 20
-4.0949919661
 10
-2.735618026
 20
-4.1231478377
 10
-2.6499492766
 20
-4.1616268037
 10
-2.562920746
 20
-4.2101608137
 10
-2.475520075
 20
-4.2683051696
 10
-2.3883361131
 20
-4.3357913152
 10
-2.3021305132
 20
-4.4122082662
 10
-2.2179380064
 20
-4.4967977166
 10
-2.1366453181
 20
-4.5887785299
 10
-2.0590566707
 20
-4.6873332937
 10
-1.9859655286
 20
-4.7915332443
 10
-1.9181390002
 20
-4.9003340568
 10
-1.8562271905
 20
-5.0127160479
 10
-1.8008377796
 20
-5.1275817983
 10
-1.7525463401
 20
-5.2436914658
 10
-1.7117672267
 20
-5.3599433999
 10
-1.6788544071
 20
-5.4751692434
 10
-1.6541061405
 20
-5.5879816509
 10
-1.6376356263
 20
-5.6971853015
 10
-1.6294155888
 20
-5.8018394541
  0
LWPOLYLINE
  5
2B5
100
AcDbEntity
  8
RACCORDO
100
AcDbPolyline
 62
253
  6
CONTINUOUS
 90
6
 70
0
 10
-2.7191903591
 20
3.2353410237
 10
-2.7944658608
 20
3.2439141843
 10
-2.8764919231
 20
3.2406637445
 10
-2.9533048269
 20
3.2243584454
 10
-3.0244040595
 20
3.1949455357
 10
-3.0447400568
 20
3.1834111953
  0
LWPOLYLINE
  5
2B6
100
AcDbEntity
  8
RACCORDO
100
AcDbPolyline
 62
253
  6
CONTINUOUS
 90
42
 70
0
 10
-2.5889752207
 20
3.0599052623
 10
-2.6740090472
 20
3.0927964676
 10
-2.7570074415
 20
3.1139202429
 10
-2.836967504
 20
3.1230248488
 10
-2.9129568773
 20
3.120009664
 10
-2.9841165521
 20
3.1049013125
 10
-3.0499837292
 20
3.0776523054
 10
-3.1092890681
 20
3.0386255283
 10
-3.1604309045
 20
2.989279533
 10
-3.203216806
 20
2.9307388323
 10
-3.2375661599
 20
2.864198886
 10
-3.2630878058
 20
2.7924250389
 10
-3.2802997783
 20
2.7177097375
 10
-3.2901744831
 20
2.6408937682
 10
-3.2934874939
 20
2.5627963032
 10
-3.2909417538
 20
2.4844962436
 10
-3.2832554232
 20
2.4069085532
 10
-3.2710417615
 20
2.3302857852
 10
-3.2549000585
 20
2.2552391372
 10
-3.235430085
 20
2.1823512559
 10
-3.2130532571
 20
2.1116248661
 10
-3.1882428262
 20
2.0433915671
 10
-3.161472044
 20
1.977976887
 10
-3.1330145731
 20
1.9152624686
 10
-3.1032351968
 20
1.8554146401
 10
-3.0724881729
 20
1.7985777869
 10
-3.0409213517
 20
1.7445479288
 10
-3.0087908657
 20
1.6933644324
 10
-2.976364952
 20
1.6450880498
 10
-2.9437315132
 20
1.59952812
 10
-2.911081469
 20
1.5566715846
 10
-2.8786031304
 20
1.5165040226
 10
-2.8463277695
 20
1.47883139
 10
-2.8143876292
 20
1.4436023828
 10
-2.7829173849
 20
1.4107707324
 10
-2.7519154429
 20
1.3801587094
 10
-2.7214697005
 20
1.3516953419
 10
-2.6916757
 20
1.3253191565
 10
-2.6625189323
 20
1.3008787256
 10
-2.6340698455
 20
1.2783060708
 10
-2.6063806261
 20
1.2575205955
 10
-2.5793927703
 20
1.2383680151
  0
LINE
  5
2B7
100
AcDbEntity
  8
ASSI
100
AcDbLine
 62
7
  6
CONTINUOUS
 10
9.7748436134
 20
-3.4039760506
 11
9.8624729159
 21
-3.4545721117
  0
LWPOLYLINE
  5
2B8
100
AcDbEntity
  8
CURVE
100
AcDbPolyline
 62
253
  6
CONTINUOUS
 90
25
 70
0
 10
-3.4020197844
 20
9.1147895994
 10
-3.4099195665
 20
9.1243413658
 10
-3.4179040963
 20
9.1337750841
 10
-3.4259728815
 20
9.143092176
 10
-3.4341254298
 20
9.1522940635
 10
-3.4423612488
 20
9.1613821684
 10
-3.4506798464
 20
9.1703579126
 10
-3.4590807303
 20
9.1792227179
 10
-3.4675634081
 20
9.1879780063
 10
-3.4761273876
 20
9.1966251996
 10
-3.4847721765
 20
9.2051657197
 10
-3.4934972825
 20
9.2136009884
 10
-3.5023022133
 20
9.2219324276
 10
-3.5111866291
 20
9.2301607822
 10
-3.5201507999
 20
9.2382840895
 10
-3.5291951481
 20
9.2462997095
 10
-3.5383200962
 20
9.2542050025
 10
-3.5475260667
 20
9.2619973287
 10
-3.556813482
 20
9.2696740482
 10
-3.5661827646
 20
9.2772325213
 10
-3.5756343369
 20
9.2846701082
 10
-3.5851686214
 20
9.2919841691
 10
-3.5947860406
 20
9.2991720641
 10
-3.6044870168
 20
9.3062311534
 10
-3.6142719726
 20
9.3131587973
  0
LINE
  5
2B9
100
AcDbEntity
  8
CURVE
100
AcDbLine
 62
253
  6
CONTINUOUS
 10
-4.2365786017
 20
9.460482422
 11
-4.2300665049
 21
9.4513915905
  0
LWPOLYLINE
  5
2BA
100
AcDbEntity
  8
CURVE
100
AcDbPolyline
 62
253
  6
CONTINUOUS
 90
4
 70
0
 10
-1.990932279
 20
9.1807745362
 10
-1.9889048289
 20
9.1770607595
 10
-1.9869042334
 20
9.1733286134
 10
-1.98493051
 20
9.1695568712
  0
LWPOLYLINE
  5
2BB
100
AcDbEntity
  8
CURVE
100
AcDbPolyline
 62
253
  6
CONTINUOUS
 90
54
 70
0
 10
-1.9330974186
 20
9.0835168093
 10
-1.924738322
 20
9.0678995824
 10
-1.9167141961
 20
9.0522343699
 10
-1.909016518
 20
9.0365189871
 10
-1.9016367651
 20
9.0207512488
 10
-1.8945664146
 20
9.00492897
 10
-1.8877969439
 20
8.9890499656
 10
-1.88131983
 20
8.9731120508
 10
-1.8751265505
 20
8.9571130403
 10
-1.8683889293
 20
8.938755532
 10
-1.8620209373
 20
8.9203402428
 10
-1.8560326133
 20
8.9018920443
 10
-1.8504339959
 20
8.8834358077
 10
-1.8452351238
 20
8.8649964044
 10
-1.8404460358
 20
8.8465987058
 10
-1.8360767705
 20
8.8282675833
 10
-1.8321360252
 20
8.8100262577
 10
-1.8286271323
 20
8.791891347
 10
-1.8255520826
 20
8.7738778188
 10
-1.822912867
 20
8.7560006406
 10
-1.8207114764
 20
8.7382747798
 10
-1.8189499017
 20
8.7207152041
 10
-1.8176301337
 20
8.7033368808
 10
-1.8167534458
 20
8.6861547604
 10
-1.8163182409
 20
8.6691837247
 10
-1.8163222043
 20
8.6524386383
 10
-1.8167630212
 20
8.6359343661
 10
-1.8176383769
 20
8.6196857726
 10
-1.8189459568
 20
8.6037077226
 10
-1.820683446
 20
8.5880150807
 10
-1.8225547168
 20
8.5745303448
 10
-1.8247525777
 20
8.5612885607
 10
-1.8272762418
 20
8.5483027837
 10
-1.8301249219
 20
8.5355860693
 10
-1.8332977898
 20
8.5231508931
 10
-1.8367938523
 20
8.5110074114
 10
-1.8406120751
 20
8.499165201
 10
-1.8447514236
 20
8.4876338384
 10
-1.8492107188
 20
8.4764226362
 10
-1.8539882027
 20
8.4655398503
 10
-1.8590819727
 20
8.4549934728
 10
-1.8644901261
 20
8.4447914953
 10
-1.8702117735
 20
8.4349454468
 10
-1.8762500783
 20
8.4254810032
 10
-1.8826092169
 20
8.4164273774
 10
-1.889293366
 20
8.4078137824
 10
-1.8963037533
 20
8.399663246
 10
-1.9036298113
 20
8.3919740556
 10
-1.9112580239
 20
8.3847383137
 10
-1.9191748746
 20
8.3779481227
 10
-1.9273689138
 20
8.3715888911
 10
-1.935836958
 20
8.3656192512
 10
-1.9445778903
 20
8.3599911417
 10
-1.9535905936
 20
8.3546565009
  0
LWPOLYLINE
  5
2BC
100
AcDbEntity
  8
CURVE
100
AcDbPolyline
 62
253
  6
CONTINUOUS
 90
61
 70
0
 10
-1.3680186946
 20
9.5394262342
 10
-1.303990572
 20
9.4171852412
 10
-1.2724683616
 20
9.3556639301
 10
-1.2416413563
 20
9.2939042949
 10
-1.2118179946
 20
9.2320186638
 10
-1.183222483
 20
9.1700770235
 10
-1.1649278652
 20
9.1287385637
 10
-1.1472490237
 20
9.0871657079
 10
-1.1301657359
 20
9.0451225526
 10
-1.1136596238
 20
9.0023737458
 10
-1.0977196894
 20
8.9586861418
 10
-1.0823367794
 20
8.9138271464
 10
-1.0711606374
 20
8.8792724915
 10
-1.0602948078
 20
8.8438193917
 10
-1.0497414254
 20
8.8073591441
 10
-1.0395026252
 20
8.7697830457
 10
-1.0295914142
 20
8.7309986416
 10
-1.0200642887
 20
8.6909784693
 10
-1.0109886174
 20
8.6497113143
 10
-1.0024317686
 20
8.6071859621
 10
-0.9944659031
 20
8.5634276876
 10
-0.9871823494
 20
8.5186077225
 10
-0.9806772281
 20
8.4729337879
 10
-0.9750466598
 20
8.4266136049
 10
-0.970376997
 20
8.3798553604
 10
-0.9667155205
 20
8.3328691048
 10
-0.9640997433
 20
8.2858653544
 10
-0.962567178
 20
8.2390546256
 10
-0.9621471812
 20
8.1926377602
 10
-0.9628364842
 20
8.1467769033
 10
-0.9646236621
 20
8.1016245257
 10
-0.9674972901
 20
8.0573330979
 10
-0.9714367102
 20
8.0140578371
 10
-0.9763843332
 20
7.9719649451
 10
-0.9822733371
 20
7.9312233699
 10
-0.9890368997
 20
7.8920020598
 10
-0.9966045585
 20
7.8544485202
 10
-1.0048912897
 20
7.8186244862
 10
-1.0138084287
 20
7.7845702502
 10
-1.0232673114
 20
7.7523261047
 10
-1.0331863173
 20
7.721907779
 10
-1.0435120018
 20
7.6932327501
 10
-1.054197964
 20
7.6661939319
 10
-1.0651978033
 20
7.6406842384
 10
-1.0764734032
 20
7.6165983125
 10
-1.0880197851
 20
7.5938377143
 10
-1.0998402548
 20
7.5723057331
 10
-1.111938118
 20
7.551905658
 10
-1.1285131639
 20
7.5263017386
 10
-1.145639149
 20
7.5023244796
 10
-1.1633679918
 20
7.4797601941
 10
-1.1817419335
 20
7.4584051449
 10
-1.2007645074
 20
7.4380953939
 10
-1.2204295697
 20
7.4186769526
 10
-1.2407201925
 20
7.4000130469
 10
-1.2615763127
 20
7.3820357599
 10
-1.282927083
 20
7.3646943889
 10
-1.3157116224
 20
7.3397488602
 10
-1.3491259684
 20
7.315859526
 10
-1.3828741045
 20
7.2927482983
 10
-1.4167709482
 20
7.2700668786
  0
LWPOLYLINE
  5
2BD
100
AcDbEntity
  8
CURVE
100
AcDbPolyline
 62
253
  6
CONTINUOUS
 90
22
 70
0
 10
-2.6541346595
 20
10.4786324101
 10
-2.6553485977
 20
10.4811398317
 10
-2.6566146175
 20
10.4836445113
 10
-2.6579318643
 20
10.4861468631
 10
-2.6592994833
 20
10.4886473014
 10
-2.6607166197
 20
10.4911462405
 10
-2.6621824188
 20
10.4936440947
 10
-2.6636960258
 20
10.4961412783
 10
-2.6652565861
 20
10.4986382054
 10
-2.6668632448
 20
10.5011352904
 10
-2.6687245845
 20
10.5039451574
 10
-2.6706408329
 20
10.5067559893
 10
-2.6726096373
 20
10.509568027
 10
-2.6746286449
 20
10.5123815112
 10
-2.6766955905
 20
10.5151969438
 10
-2.6788085598
 20
10.5180158704
 10
-2.6809657259
 20
10.5208400974
 10
-2.6831652622
 20
10.5236714317
 10
-2.6854049574
 20
10.5265113759
 10
-2.687681063
 20
10.5293602181
 10
-2.6899894459
 20
10.5322179425
 10
-2.6954788859
 20
10.5389197174
  0
LWPOLYLINE
  5
2BE
100
AcDbEntity
  8
ASSI
100
AcDbPolyline
 62
253
  6
CONTINUOUS
 90
37
 70
0
 10
5.8410485469
 20
-22.5475409118
 10
5.842877397
 20
-22.5800363897
 10
5.8459000734
 20
-22.6116456782
 10
5.8501165764
 20
-22.6423687772
 10
5.8555379794
 20
-22.6722554271
 10
5.8621532089
 20
-22.7012558876
 10
5.8699290439
 20
-22.7292209379
 10
5.8788714415
 20
-22.7561446354
 10
5.8889744446
 20
-22.7820329227
 10
5.9001869616
 20
-22.8067544063
 10
5.9125144794
 20
-22.8303027683
 10
5.925951511
 20
-22.8526843265
 10
5.9404305043
 20
-22.8737866418
 10
5.9559566752
 20
-22.8936033386
 10
5.9725248079
 20
-22.9121407924
 10
5.9900517026
 20
-22.9293056899
 10
6.0085423273
 20
-22.9450912206
 10
6.027991714
 20
-22.959504195
 10
6.0483017587
 20
-22.9724717312
 10
6.0694768539
 20
-22.9839864784
 10
6.0915126071
 20
-22.9940557874
 10
6.1142977367
 20
-23.0026288292
 10
6.1378358731
 20
-23.0096979893
 10
6.1621233858
 20
-23.0152708822
 10
6.187038102
 20
-23.0193195217
 10
6.2125831408
 20
-23.0218362766
 10
6.238755383
 20
-23.0228287782
 10
6.2654232984
 20
-23.0222919339
 10
6.292589819
 20
-23.020217921
 10
6.3202520127
 20
-23.0166145622
 10
6.3482695539
 20
-23.0115002344
 10
6.3766445648
 20
-23.0048669893
 10
6.4053749231
 20
-22.996722775
 10
6.4343139357
 20
-22.9871098128
 10
6.4634127049
 20
-22.9760421765
 10
6.4927201284
 20
-22.9635057922
 10
6.5222362063
 20
-22.94950066
  0
LWPOLYLINE
  5
2BF
100
AcDbEntity
  8
ASSI
100
AcDbPolyline
 62
253
  6
CONTINUOUS
 90
19
 70
0
 10
5.1404644594
 20
-22.5606088636
 10
5.1431766065
 20
-22.6092329754
 10
5.1476888046
 20
-22.6566726646
 10
5.1539935929
 20
-22.7028480852
 10
5.1620806688
 20
-22.7476814145
 10
5.1719364615
 20
-22.7910973637
 10
5.1835442453
 20
-22.8330232288
 10
5.1968851648
 20
-22.8733891484
 10
5.2119368622
 20
-22.9121264244
 10
5.2286729446
 20
-22.9491681516
 10
5.2470653124
 20
-22.9844517205
 10
5.2670834583
 20
-23.0179185038
 10
5.2886931389
 20
-23.0495121364
 10
5.3118585096
 20
-23.0791797173
 10
5.3365409261
 20
-23.1068714599
 10
5.3626981704
 20
-23.132540424
 10
5.3902870442
 20
-23.1561438011
 10
5.4192614236
 20
-23.1776418354
 10
5.4522919875
 20
-23.1985919856
  0
LINE
  5
2C0
100
AcDbEntity
  8
ASSI
100
AcDbLine
 62
7
  6
CONTINUOUS
 10
3.956051555
 20
17.5214695973
 11
3.9772482867
 21
16.9052458835
  0
LWPOLYLINE
  5
2C1
100
AcDbEntity
  8
ASSI
100
AcDbPolyline
 62
253
  6
CONTINUOUS
 90
12
 70
0
 10
4.8362391316
 20
-5.6502393177
 10
4.8366230483
 20
-5.6621588312
 10
4.8377876828
 20
-5.6735610045
 10
4.8397265878
 20
-5.6843827203
 10
4.8424290304
 20
-5.6945640752
 10
4.845880051
 20
-5.7040487097
 10
4.8500605458
 20
-5.7127841212
 10
4.8549473734
 20
-5.7207219547
 10
4.8605134822
 20
-5.7278182704
 10
4.8667280604
 20
-5.7340337867
 10
4.8735567067
 20
-5.7393340977
 10
4.8776168493
 20
-5.7418808592
  0
LWPOLYLINE
  5
2C2
100
AcDbEntity
  8
ASSI
100
AcDbPolyline
 62
253
  6
CONTINUOUS
 90
13
 70
0
 10
4.8362274836
 20
-6.2329864492
 10
4.8391387227
 20
-7.6066080652
 10
4.8461306773
 20
-8.9779026736
 10
4.8572029961
 20
-10.3468548735
 10
4.8723547244
 20
-11.7134385213
 10
4.8915859163
 20
-13.077649082
 10
4.9148979439
 20
-14.4395034447
 10
4.9422909969
 20
-15.7989871892
 10
4.9737643351
 20
-17.1560838555
 10
5.0093184033
 20
-18.510806993
 10
5.0489533596
 20
-19.863150705
 10
5.0926687894
 20
-21.2130898223
 10
5.1404644675
 20
-22.5606088684
  0
LINE
  5
2C3
100
AcDbEntity
  8
ASSI
100
AcDbLine
 62
253
  6
CONTINUOUS
 10
3.7758851086
 20
17.1074443169
 11
3.7758851086
 21
17.0448405336
  0
LWPOLYLINE
  5
2C4
100
AcDbEntity
  8
ASSI
100
AcDbPolyline
 62
253
  6
CONTINUOUS
 90
22
 70
0
 10
4.8362391316
 20
-6.2329931746
 10
4.8366230471
 20
-6.2206303411
 10
4.8377876783
 20
-6.2078832948
 10
4.8397265783
 20
-6.1948225971
 10
4.8424290143
 20
-6.1815205458
 10
4.8458800269
 20
-6.1680507747
 10
4.8500605129
 20
-6.1544878461
 10
4.8549473311
 20
-6.1409068377
 10
4.8605134306
 20
-6.1273829277
 10
4.8667279999
 20
-6.1139909778
 10
4.8735566382
 20
-6.1008051196
 10
4.8809615455
 20
-6.0878983436
 10
4.8889017316
 20
-6.0753420955
 10
4.8973332437
 20
-6.0632058808
 10
4.9062094087
 20
-6.0515568798
 10
4.9154810925
 20
-6.0404595756
 10
4.9250969716
 20
-6.0299753978
 10
4.9350038169
 20
-6.0201623817
 10
4.945146789
 20
-6.0110748474
 10
4.9554697412
 20
-6.0027630992
 10
4.9659155305
 20
-5.995273147
 10
4.9764263341
 20
-5.9886464516
  0
LWPOLYLINE
  5
2C5
100
AcDbEntity
  8
ASSI
100
AcDbPolyline
 62
253
  6
CONTINUOUS
 90
13
 70
0
 10
5.1404644675
 20
11.0166460753
 10
5.0926687894
 20
9.6158256779
 10
5.0489533596
 20
8.2171354551
 10
5.0093184033
 20
6.8205911433
 10
4.9737643351
 20
5.4262183902
 10
4.9422909969
 20
4.0340229104
 10
4.9148979439
 20
2.6439906414
 10
4.8915859163
 20
1.2561379099
 10
4.8723547244
 20
-0.1295200947
 10
4.8572029961
 20
-1.5129988817
 10
4.8461306773
 20
-2.8942929904
 10
4.8391387227
 20
-4.2733761628
 10
4.8362274835
 20
-5.6502325922
  0
LWPOLYLINE
  5
2C6
100
AcDbEntity
  8
RACCORDO
100
AcDbPolyline
 62
253
  6
CONTINUOUS
 90
5
 70
0
 10
-1.8379212662
 20
-6.2549581423
 10
-1.7793474803
 20
-6.2157655592
 10
-1.7241435984
 20
-6.1624997745
 10
-1.677958818
 20
-6.0993098502
 10
-1.6443093207
 20
-6.0341275252
  0
LINE
  5
2C7
100
AcDbEntity
  8
ASSI
100
AcDbLine
 62
7
  6
CONTINUOUS
 10
-1.858799092
 20
-6.3981760124
 11
-1.8596647598
 21
-6.3986994318
  0
LWPOLYLINE
  5
2C8
100
AcDbEntity
  8
ASSI
100
AcDbPolyline
 62
253
  6
CONTINUOUS
 90
58
 70
0
 10
-1.8596647598
 20
-6.3986994318
 10
-1.8730379946
 20
-6.4064396397
 10
-1.9012215201
 20
-6.4207564813
 10
-1.9305273792
 20
-6.4330447979
 10
-1.96090983
 20
-6.4432819813
 10
-1.9923112625
 20
-6.4514452246
 10
-2.0246641459
 20
-6.4575166843
 10
-2.0579063996
 20
-6.4614857025
 10
-2.0919830405
 20
-6.4633465394
 10
-2.1268334392
 20
-6.4630975754
 10
-2.1623933304
 20
-6.4607403237
 10
-2.1986017511
 20
-6.4562796741
 10
-2.2354013984
 20
-6.4497241042
 10
-2.2727284379
 20
-6.4410848744
 10
-2.3105159497
 20
-6.4303771217
 10
-2.3487010222
 20
-6.4176193158
 10
-2.3872181324
 20
-6.4028328953
 10
-2.4259978435
 20
-6.3860437494
 10
-2.4649705831
 20
-6.3672822745
 10
-2.5040676075
 20
-6.346581659
 10
-2.5432203558
 20
-6.3239779153
 10
-2.5823592224
 20
-6.2995112245
 10
-2.6214160472
 20
-6.2732244953
 10
-2.6603216827
 20
-6.2451641393
 10
-2.6990053496
 20
-6.2153807941
 10
-2.7373979882
 20
-6.1839285208
 10
-2.7754336931
 20
-6.150861763
 10
-2.8130472115
 20
-6.1162360981
 10
-2.8501718611
 20
-6.0801135727
 10
-2.88674358
 20
-6.0425567619
 10
-2.9227020298
 20
-6.00362509
 10
-2.957986447
 20
-5.9633840189
 10
-2.992532379
 20
-5.921906301
 10
-3.0262755499
 20
-5.8792654011
 10
-3.0591613889
 20
-5.8355301755
 10
-3.0911273407
 20
-5.7907832674
 10
-3.1221008612
 20
-5.745123305
 10
-3.1520246822
 20
-5.6986390701
 10
-3.1808526097
 20
-5.65140648
 10
-3.2085329815
 20
-5.6035082322
 10
-3.2350103118
 20
-5.5550459833
 10
-3.260249674
 20
-5.5060894509
 10
-3.2842297028
 20
-5.4566733127
 10
-3.3069101717
 20
-5.4068752947
 10
-3.3282450314
 20
-5.3567910556
 10
-3.3482015018
 20
-5.3064818395
 10
-3.3667517303
 20
-5.256003436
 10
-3.383845042
 20
-5.2054781745
 10
-3.3994223287
 20
-5.1550677095
 10
-3.4134600366
 20
-5.1048540039
 10
-3.4259329408
 20
-5.054933945
 10
-3.4367991096
 20
-5.0054887755
 10
-3.4460503715
 20
-4.9566041347
 10
-3.4536821167
 20
-4.908362163
 10
-3.4596802563
 20
-4.8609308889
 10
-3.4640517796
 20
-4.8144134392
 10
-3.4668146551
 20
-4.7688515497
 10
-3.4679845752
 20
-4.724313187
  0
LINE
  5
2C9
100
AcDbEntity
  8
DRAFT
100
AcDbLine
 62
7
  6
CONTINUOUS
 10
-1.6808368498
 20
-6.1686829143
 11
-1.8379212728
 21
-6.254958146
  0
LWPOLYLINE
  5
2CA
100
AcDbEntity
  8
ASSI
100
AcDbPolyline
 62
253
  6
CONTINUOUS
 90
16
 70
0
 10
-3.1691015597
 20
3.3335060139
 10
-3.1337717762
 20
3.3403647878
 10
-3.0975130476
 20
3.3449313882
 10
-3.060326715
 20
3.3472207757
 10
-3.0224117392
 20
3.3472232107
 10
-2.9837673257
 20
3.3449269732
 10
-2.9443947567
 20
3.3403435079
 10
-2.904496105
 20
3.3334978235
 10
-2.8640680414
 20
3.3243786539
 10
-2.8231142662
 20
3.3129970558
 10
-2.7818473752
 20
3.2994115331
 10
-2.740264245
 20
3.2836099198
 10
-2.6983682316
 20
3.2656042508
 10
-2.6563816185
 20
3.2454893504
 10
-2.6143043498
 20
3.2232539886
 10
-2.5721365607
 20
3.1989093507
  0
LWPOLYLINE
  5
2CB
100
AcDbEntity
  8
CURVE
100
AcDbPolyline
 62
253
  6
CONTINUOUS
 90
31
 70
0
 10
-2.8257023803
 20
7.8330590462
 10
-2.8237653706
 20
7.8317064016
 10
-2.8218088338
 20
7.8304051002
 10
-2.819832759
 20
7.8291541545
 10
-2.8178371351
 20
7.8279525772
 10
-2.8158219511
 20
7.8267993808
 10
-2.8137871961
 20
7.8256935779
 10
-2.8117328589
 20
7.8246341809
 10
-2.8096589286
 20
7.8236202025
 10
-2.8075653942
 20
7.8226506552
 10
-2.8051868863
 20
7.8216116983
 10
-2.8027845276
 20
7.8206257438
 10
-2.8003592927
 20
7.819690811
 10
-2.7979121562
 20
7.818804919
 10
-2.7954438665
 20
7.8179659003
 10
-2.7929542671
 20
7.8171708415
 10
-2.7904429752
 20
7.8164166428
 10
-2.787909608
 20
7.8157002042
 10
-2.7853541533
 20
7.815018329
 10
-2.7827780797
 20
7.8143674336
 10
-2.7801832263
 20
7.8137438375
 10
-2.7775714325
 20
7.8131438603
 10
-2.7740658644
 20
7.8123755222
 10
-2.7705377904
 20
7.8116414199
 10
-2.7669915516
 20
7.8109403429
 10
-2.763429663
 20
7.8102706633
 10
-2.7598473356
 20
7.8096290826
 10
-2.7562379542
 20
7.8090118852
 10
-2.7525967534
 20
7.8084155445
 10
-2.7489263661
 20
7.8078372923
 10
-2.7452312752
 20
7.8072745493
  0
LWPOLYLINE
  5
2CC
100
AcDbEntity
  8
CURVE
100
AcDbPolyline
 62
253
  6
CONTINUOUS
 90
28
 70
0
 10
-0.7919849997
 20
5.9929568167
 10
-0.7905823606
 20
5.9917231686
 10
-0.7891703276
 20
5.9905265894
 10
-0.787749261
 20
5.9893658924
 10
-0.7863195208
 20
5.9882398911
 10
-0.7848814671
 20
5.9871473987
 10
-0.7834354601
 20
5.9860872288
 10
-0.78198186
 20
5.9850581946
 10
-0.7805210269
 20
5.9840591096
 10
-0.7790533209
 20
5.9830887871
 10
-0.7775791022
 20
5.9821460406
 10
-0.7760987309
 20
5.9812296834
 10
-0.7746125672
 20
5.9803385288
 10
-0.7726225511
 20
5.9791874757
 10
-0.7706232732
 20
5.9780763037
 10
-0.7686151287
 20
5.9770021985
 10
-0.7665985134
 20
5.9759623459
 10
-0.7645738226
 20
5.9749539318
 10
-0.7625414518
 20
5.9739741419
 10
-0.7605017965
 20
5.973020162
 10
-0.7584552523
 20
5.972089178
 10
-0.7564022145
 20
5.9711783756
 10
-0.7533108656
 20
5.9698444441
 10
-0.7502042382
 20
5.9685436162
 10
-0.7470807741
 20
5.9672699192
 10
-0.7439389154
 20
5.96601738
 10
-0.7407771039
 20
5.9647800256
 10
-0.7375937816
 20
5.963551883
  0
LWPOLYLINE
  5
2CD
100
AcDbEntity
  8
CURVE
100
AcDbPolyline
 62
253
  6
CONTINUOUS
 90
28
 70
0
 10
-1.3844869956
 20
7.0480807746
 10
-1.3830944137
 20
7.0468366353
 10
-1.3816917959
 20
7.0456278243
 10
-1.3802795104
 20
7.044453191
 10
-1.3788579256
 20
7.0433115852
 10
-1.3774274098
 20
7.0422018561
 10
-1.3759883312
 20
7.0411228535
 10
-1.3745410582
 20
7.0400734268
 10
-1.3730859591
 20
7.0390524256
 10
-1.3716234023
 20
7.0380586993
 10
-1.370153756
 20
7.0370910976
 10
-1.3686773886
 20
7.0361484699
 10
-1.3671946684
 20
7.0352296658
 10
-1.3652083861
 20
7.0340396547
 10
-1.3632118786
 20
7.0328871688
 10
-1.3612055601
 20
7.0317694255
 10
-1.3591898444
 20
7.0306836421
 10
-1.3571651455
 20
7.0296270362
 10
-1.3551318775
 20
7.028596825
 10
-1.3530904544
 20
7.027590226
 10
-1.3510412902
 20
7.0266044567
 10
-1.3489847987
 20
7.0256367344
 10
-1.3458867766
 20
7.024213572
 10
-1.3427718843
 20
7.0228193814
 10
-1.3396388062
 20
7.0214487894
 10
-1.3364862268
 20
7.0200964228
 10
-1.3333128304
 20
7.0187569084
 10
-1.3301173016
 20
7.0174248731
  0
LWPOLYLINE
  5
2CE
100
AcDbEntity
  8
CURVE
100
AcDbPolyline
 62
253
  6
CONTINUOUS
 90
27
 70
0
 10
-1.9849035061
 20
8.1153418931
 10
-1.9834482648
 20
8.1138564308
 10
-1.9819768273
 20
8.1124066586
 10
-1.9804896996
 20
8.11099138
 10
-1.9789873877
 20
8.1096093987
 10
-1.9774703978
 20
8.1082595182
 10
-1.9759392359
 20
8.1069405421
 10
-1.9743944081
 20
8.1056512738
 10
-1.9728364203
 20
8.104390517
 10
-1.9712657787
 20
8.1031570752
 10
-1.9696829893
 20
8.1019497519
 10
-1.9680885581
 20
8.1007673508
 10
-1.9661247226
 20
8.0993542812
 10
-1.9641450878
 20
8.0979743953
 10
-1.9621504893
 20
8.0966254346
 10
-1.9601417626
 20
8.0953051407
 10
-1.9581197432
 20
8.0940112553
 10
-1.9560852668
 20
8.0927415199
 10
-1.9540391688
 20
8.0914936762
 10
-1.9519822847
 20
8.0902654657
 10
-1.9499154502
 20
8.08905463
 10
-1.9467977076
 20
8.0872664011
 10
-1.9436583084
 20
8.085506884
 10
-1.9404961047
 20
8.0837707785
 10
-1.9373099488
 20
8.0820527844
 10
-1.9340986926
 20
8.0803476016
 10
-1.9308611883
 20
8.0786499299
  0
LINE
  5
2CF
100
AcDbEntity
  8
CURVE
100
AcDbLine
 62
253
  6
CONTINUOUS
 10
-2.7151443204
 20
10.562145467
 11
-2.721996543
 21
10.5700226895
  0
LINE
  5
2D0
100
AcDbEntity
  8
CURVE
100
AcDbLine
 62
253
  6
CONTINUOUS
 10
-2.7084424376
 20
10.5543483636
 11
-2.7151443204
 21
10.562145467
  0
LINE
  5
2D1
100
AcDbEntity
  8
CURVE
100
AcDbLine
 62
253
  6
CONTINUOUS
 10
-2.7018953469
 20
10.5466203007
 11
-2.7084424376
 21
10.5543483636
  0
LINE
  5
2D2
100
AcDbEntity
  8
CURVE
100
AcDbLine
 62
253
  6
CONTINUOUS
 10
-2.6954788859
 20
10.5389197174
 11
-2.7018953469
 21
10.5466203007
  0
LWPOLYLINE
  5
2D3
100
AcDbEntity
  8
CURVE
100
AcDbPolyline
 62
253
  6
CONTINUOUS
 90
59
 70
0
 10
-0.7468945404
 20
9.8996876115
 10
-0.663849686
 20
9.7471184627
 10
-0.6229974485
 20
9.6700941339
 10
-0.5829855663
 20
9.5921887776
 10
-0.5441092111
 20
9.5131115007
 10
-0.5066233497
 20
9.4326701157
 10
-0.4706221288
 20
9.3510672585
 10
-0.4361594904
 20
9.2686042709
 10
-0.4032893766
 20
9.1855824948
 10
-0.3720657291
 20
9.102303272
 10
-0.342538975
 20
9.0190495919
 10
-0.3147454817
 20
8.9360310349
 10
-0.2887181015
 20
8.8534388288
 10
-0.2644896868
 20
8.7714642016
 10
-0.24209309
 20
8.6902983814
 10
-0.2215518615
 20
8.6101210831
 10
-0.2028523438
 20
8.5310659704
 10
-0.185971577
 20
8.4532551941
 10
-0.1708866017
 20
8.3768109049
 10
-0.1575744581
 20
8.3018552536
 10
-0.1460043705
 20
8.2284847546
 10
-0.1361142978
 20
8.1566933766
 10
-0.127834383
 20
8.0864494521
 10
-0.1210947688
 20
8.0177213135
 10
-0.1158255982
 20
7.9504772931
 10
-0.1112078935
 20
7.8684601612
 10
-0.1086863877
 20
7.788645209
 10
-0.1081688635
 20
7.7109651619
 10
-0.1095631037
 20
7.6353527454
 10
-0.1127812885
 20
7.5617693209
 10
-0.1177531891
 20
7.4902907936
 10
-0.1244129743
 20
7.4210217044
 10
-0.1326948128
 20
7.3540665945
 10
-0.1425172445
 20
7.2895329996
 10
-0.1537362932
 20
7.2275404346
 10
-0.1661923538
 20
7.1682114093
 10
-0.1797258213
 20
7.1116684333
 10
-0.1941833548
 20
7.0579949582
 10
-0.2094366711
 20
7.0071182033
 10
-0.225363751
 20
6.9589263296
 10
-0.2418425755
 20
6.9133074984
 10
-0.2587656472
 20
6.8701374324
 10
-0.2760835545
 20
6.8292421014
 10
-0.2937614075
 20
6.790435037
 10
-0.3117643162
 20
6.7535297705
 10
-0.3362288608
 20
6.7069818961
 10
-0.3612185194
 20
6.6631800156
 10
-0.3867425557
 20
6.6218206481
 10
-0.4128331159
 20
6.5826092459
 10
-0.439613876
 20
6.5452869928
 10
-0.4672313946
 20
6.5096040058
 10
-0.4958198284
 20
6.4753627952
 10
-0.525463726
 20
6.4425754452
 10
-0.556235234
 20
6.4113064331
 10
-0.5881641942
 20
6.3815786426
 10
-0.6211112279
 20
6.3532485812
 10
-0.6548946514
 20
6.3261311625
 10
-0.706702043
 20
6.2872358764
 10
-0.8113928767
 20
6.2117805224
  0
LINE
  5
2D4
100
AcDbEntity
  8
CURVE
100
AcDbLine
 62
253
  6
CONTINUOUS
 10
-0.5438498364
 20
9.868176424
 11
-0.6187811252
 21
10.0065094311
  0
LINE
  5
2D5
100
AcDbEntity
  8
CURVE
100
AcDbLine
 62
253
  6
CONTINUOUS
 10
-0.5074514356
 20
9.8000640294
 11
-0.5438498364
 21
9.868176424
  0
LWPOLYLINE
  5
2D6
100
AcDbEntity
  8
CURVE
100
AcDbPolyline
 62
253
  6
CONTINUOUS
 90
10
 70
0
 10
-0.3571348271
 20
9.5006922367
 10
-0.3699330023
 20
9.5279690439
 10
-0.3829838438
 20
9.5553266931
 10
-0.3962795744
 20
9.5827686876
 10
-0.4098124171
 20
9.6102985306
 10
-0.4235745949
 20
9.6379197253
 10
-0.4375583307
 20
9.6656357752
 10
-0.4546192649
 20
9.6990245559
 10
-0.4719682738
 20
9.7325573041
 10
-0.5074514356
 20
9.8000640294
  0
LWPOLYLINE
  5
2D7
100
AcDbEntity
  8
ASSI
100
AcDbPolyline
 62
253
  6
CONTINUOUS
 90
22
 70
0
 10
5.5371204121
 20
-6.2343086928
 10
5.5366382068
 20
-6.2219274092
 10
5.5353818837
 20
-6.2091508959
 10
5.5333584676
 20
-6.1960505908
 10
5.5305792721
 20
-6.1826997419
 10
5.5270598371
 20
-6.1691729988
 10
5.5228198412
 20
-6.1555459945
 10
5.5178829919
 20
-6.1418949223
 10
5.5122768933
 20
-6.1282961099
 10
5.5060328913
 20
-6.1148255932
 10
5.4991858986
 20
-6.1015586903
 10
5.4917741994
 20
-6.0885695805
 10
5.4838392353
 20
-6.0759308905
 10
5.4754253736
 20
-6.063713287
 10
5.4665796594
 20
-6.0519850821
 10
5.4573515521
 20
-6.0408118519
 10
5.4477926494
 20
-6.030256069
 10
5.4379563982
 20
-6.0203767535
 10
5.4278977964
 20
-6.0112291434
 10
5.4176730848
 20
-6.0028643852
 10
5.407339433
 20
-5.9953292481
 10
5.3969546195
 20
-5.9886658626
  0
LWPOLYLINE
  5
2D8
100
AcDbEntity
  8
ASSI
100
AcDbPolyline
 62
253
  6
CONTINUOUS
 90
6
 70
0
 10
5.6430518023
 20
-15.7918611207
 10
5.6744958673
 20
-17.1477710558
 10
5.7100175667
 20
-18.5012955652
 10
5.7496169257
 20
-19.8524294398
 10
5.7932939191
 20
-21.2011778887
 10
5.8410485469
 20
-22.5475409118
  0
LWPOLYLINE
  5
2D9
100
AcDbEntity
  8
ASSI
100
AcDbPolyline
 62
253
  6
CONTINUOUS
 90
7
 70
0
 10
5.5400257563
 20
-7.6067359166
 10
5.5469986509
 20
-8.9768149537
 10
5.5580510521
 20
-10.3445390194
 10
5.5731836094
 20
-11.7099130558
 10
5.5923956734
 20
-13.0729321207
 10
5.6156852959
 20
-14.4335813868
 10
5.6430518023
 20
-15.7918611207
  0
LINE
  5
2DA
100
AcDbEntity
  8
ASSI
100
AcDbLine
 62
253
  6
CONTINUOUS
 10
5.5371323684
 20
-6.2343019078
 11
5.5400257563
 21
-7.6067359166
  0
LWPOLYLINE
  5
2DB
100
AcDbEntity
  8
ASSI
100
AcDbPolyline
 62
253
  6
CONTINUOUS
 90
8
 70
0
 10
5.6430518023
 20
4.0196937165
 10
5.6156852959
 20
2.6308961356
 10
5.5923956734
 20
1.2442753726
 10
5.5731836094
 20
-0.1401680867
 10
5.5580510521
 20
-1.5224172427
 10
5.5469986509
 20
-2.9024664289
 10
5.5400257563
 20
-4.2803213117
 10
5.5371323684
 20
-5.6559818912
  0
LWPOLYLINE
  5
2DC
100
AcDbEntity
  8
ASSI
100
AcDbPolyline
 62
253
  6
CONTINUOUS
 90
6
 70
0
 10
5.8410485469
 20
10.9961702092
 10
5.7932939191
 20
9.5965534605
 10
5.7496169257
 20
8.199098473
 10
5.7100175667
 20
6.8038052468
 10
5.6744958673
 20
5.410668601
 10
5.6430518023
 20
4.0196937165
  0
LWPOLYLINE
  5
2DD
100
AcDbEntity
  8
ASSI
100
AcDbPolyline
 62
253
  6
CONTINUOUS
 90
12
 70
0
 10
5.5371204121
 20
-5.6559884394
 10
5.5366382083
 20
-5.6680098448
 10
5.535381889
 20
-5.6794995772
 10
5.5333584786
 20
-5.6903933939
 10
5.5305792907
 20
-5.700630384
 10
5.5270598647
 20
-5.7101533091
 10
5.5228198787
 20
-5.7189089236
 10
5.5178830399
 20
-5.726848272
 10
5.5122769517
 20
-5.7339269629
 10
5.5060329596
 20
-5.7401054169
 10
5.4991859758
 20
-5.7453490884
 10
5.4943299948
 20
-5.7482971784
  0
LWPOLYLINE
  5
2DE
100
AcDbEntity
  8
CURVE
100
AcDbPolyline
 62
253
  6
CONTINUOUS
 90
20
 70
0
 10
0.3101258444
 20
-13.2633060343
 10
0.3096155413
 20
-13.2644306791
 10
0.3091615213
 20
-13.2656228406
 10
0.3087603092
 20
-13.2668789237
 10
0.3084084296
 20
-13.2681953335
 10
0.3081024072
 20
-13.269568475
 10
0.3078387665
 20
-13.2709947532
 10
0.3075733259
 20
-13.2727711691
 10
0.3073571704
 20
-13.2746115335
 10
0.3071835596
 20
-13.2765084549
 10
0.3070457535
 20
-13.2784545419
 10
0.3069370117
 20
-13.2804424029
 10
0.3068340872
 20
-13.2829778676
 10
0.3067672755
 20
-13.2855715445
 10
0.306737189
 20
-13.2882268812
 10
0.3067419633
 20
-13.2909431574
 10
0.3067792739
 20
-13.2937184856
 10
0.306847434
 20
-13.2965504754
 10
0.3069435397
 20
-13.2994368527
 10
0.3073046268
 20
-13.308415074
  0
LINE
  5
2DF
100
AcDbEntity
  8
CURVE
100
AcDbLine
 62
253
  6
CONTINUOUS
 10
-4.0874092262
 20
10.3296669251
 11
-3.6101385111
 21
10.0560785071
  0
LINE
  5
2E0
100
AcDbEntity
  8
CURVE
100
AcDbLine
 62
253
  6
CONTINUOUS
 10
-5.4775649831
 20
9.3058926738
 11
-5.2750851528
 21
9.1889833574
  0
LINE
  5
2E1
100
AcDbEntity
  8
CURVE
100
AcDbLine
 62
253
  6
CONTINUOUS
 10
-4.1719351462
 20
9.4062588964
 11
-3.6294470593
 21
9.0909083042
  0
LINE
  5
2E2
100
AcDbEntity
  8
CURVE
100
AcDbLine
 62
253
  6
CONTINUOUS
 10
-3.6142719726
 20
9.3131587973
 11
-4.1036707633
 21
9.5980936551
  0
LWPOLYLINE
  5
2E3
100
AcDbEntity
  8
CURVE
100
AcDbPolyline
 62
253
  6
CONTINUOUS
 90
25
 70
0
 10
-3.6294470593
 20
9.0909083042
 10
-3.6240196211
 20
9.0870739699
 10
-3.6185921325
 20
9.083130352
 10
-3.6131645025
 20
9.0790766181
 10
-3.6077366398
 20
9.074911936
 10
-3.6023084535
 20
9.0706354733
 10
-3.5968798523
 20
9.0662463978
 10
-3.5914507453
 20
9.061743877
 10
-3.5860210412
 20
9.0571270788
 10
-3.580590649
 20
9.0523951707
 10
-3.5751594775
 20
9.0475473206
 10
-3.5697274356
 20
9.042582696
 10
-3.5642944323
 20
9.0375004646
 10
-3.5588604933
 20
9.0322998301
 10
-3.5534261116
 20
9.02698014
 10
-3.5479918972
 20
9.0215407775
 10
-3.54255846
 20
9.015981126
 10
-3.53712641
 20
9.0103005689
 10
-3.5316963571
 20
9.0044984895
 10
-3.5262689113
 20
8.9985742712
 10
-3.5208446824
 20
8.9925272974
 10
-3.5154242805
 20
8.9863569514
 10
-3.5100083155
 20
8.9800626166
 10
-3.5045973972
 20
8.9736436763
 10
-3.4991921357
 20
8.9670995139
  0
LWPOLYLINE
  5
2E4
100
AcDbEntity
  8
CURVE
100
AcDbPolyline
 62
253
  6
CONTINUOUS
 90
29
 70
0
 10
-2.721996543
 20
10.5700226895
 10
-2.7238598056
 20
10.5715596037
 10
-2.7257478528
 20
10.5730557657
 10
-2.7276607161
 20
10.5745121871
 10
-2.7295984268
 20
10.5759298795
 10
-2.7315610164
 20
10.5773098547
 10
-2.7335485162
 20
10.578653124
 10
-2.7355609578
 20
10.5799606993
 10
-2.7375983726
 20
10.5812335921
 10
-2.7396607919
 20
10.5824728139
 10
-2.7417482473
 20
10.5836793764
 10
-2.74386077
 20
10.5848542913
 10
-2.7462132708
 20
10.5861115018
 10
-2.7485945949
 20
10.5873338886
 10
-2.7510031962
 20
10.5885236974
 10
-2.7534375285
 20
10.5896831742
 10
-2.7558960455
 20
10.5908145649
 10
-2.7583772011
 20
10.5919201152
 10
-2.760879449
 20
10.5930020711
 10
-2.763401243
 20
10.5940626785
 10
-2.765941037
 20
10.5951041833
 10
-2.7684972846
 20
10.5961288312
 10
-2.7721756927
 20
10.5975674405
 10
-2.7758869103
 20
10.5989804721
 10
-2.7796333235
 20
10.6003721665
 10
-2.7834173185
 20
10.6017467642
 10
-2.7872412812
 20
10.6031085057
 10
-2.7911075978
 20
10.6044616316
 10
-2.7950186544
 20
10.6058103823
  0
LWPOLYLINE
  5
2E5
100
AcDbEntity
  8
CURVE
100
AcDbPolyline
 62
253
  6
CONTINUOUS
 90
28
 70
0
 10
-1.9032081198
 20
9.3319179974
 10
-1.9045780528
 20
9.3330598338
 10
-1.9059564273
 20
9.3341622035
 10
-1.907342974
 20
9.3352265727
 10
-1.908737424
 20
9.3362544079
 10
-1.9101395083
 20
9.3372471753
 10
-1.9115489578
 20
9.3382063413
 10
-1.9129655035
 20
9.3391333723
 10
-1.9143888764
 20
9.3400297347
 10
-1.9158188073
 20
9.3408968947
 10
-1.9174348726
 20
9.3418393174
 10
-1.9190578477
 20
9.3427484121
 10
-1.9206866828
 20
9.3436259539
 10
-1.9223203282
 20
9.3444737182
 10
-1.9239578873
 20
9.3452935869
 10
-1.9255990771
 20
9.3460878681
 10
-1.9272437678
 20
9.3468589769
 10
-1.9288918298
 20
9.3476093281
 10
-1.9310943277
 20
9.3485816346
 10
-1.9333026533
 20
9.3495267787
 10
-1.9355168714
 20
9.3504502075
 10
-1.9388489118
 20
9.351803751
 10
-1.9421917109
 20
9.3531222825
 10
-1.944873083
 20
9.3541535344
 10
-1.947565281
 20
9.3551676059
 10
-1.9502739384
 20
9.3561687055
 10
-1.9530046892
 20
9.3571610417
 10
-1.9557631669
 20
9.3581488229
  0
LWPOLYLINE
  5
2E6
100
AcDbEntity
  8
CURVE
100
AcDbPolyline
 62
253
  6
CONTINUOUS
 90
28
 70
0
 10
-1.2785484362
 20
9.6919160141
 10
-1.2799406745
 20
9.6930788968
 10
-1.2813409454
 20
9.694204556
 10
-1.2827489157
 20
9.6952942173
 10
-1.2841642523
 20
9.6963491062
 10
-1.2855866218
 20
9.6973704482
 10
-1.2870156913
 20
9.6983594688
 10
-1.2884511273
 20
9.6993173936
 10
-1.2898925969
 20
9.7002454481
 10
-1.2913397667
 20
9.7011448578
 10
-1.2927923036
 20
9.7020168483
 10
-1.2942498744
 20
9.702862645
 10
-1.2957121459
 20
9.7036834735
 10
-1.2976686673
 20
9.7047411863
 10
-1.2996327013
 20
9.7057595713
 10
-1.3016039961
 20
9.7067415099
 10
-1.3035822997
 20
9.7076898834
 10
-1.3055673602
 20
9.7086075733
 10
-1.3075589258
 20
9.709497461
 10
-1.3095567446
 20
9.7103624279
 10
-1.3115605647
 20
9.7112053553
 10
-1.3135701342
 20
9.7120291247
 10
-1.3165950802
 20
9.7132342833
 10
-1.3196337211
 20
9.7144072811
 10
-1.3226873827
 20
9.7155525795
 10
-1.3257573903
 20
9.7166746402
 10
-1.3288450695
 20
9.7177779247
 10
-1.331951746
 20
9.7188668946
  0
LWPOLYLINE
  5
2E7
100
AcDbEntity
  8
ASSI
100
AcDbPolyline
 62
253
  6
CONTINUOUS
 90
28
 70
0
 10
6.5222362063
 20
12.1577585495
 10
6.5205555668
 20
12.1811901302
 10
6.5177067221
 20
12.2052443874
 10
6.5136993005
 20
12.2298400236
 10
6.5085468459
 20
12.2548939119
 10
6.5022667723
 20
12.2803213765
 10
6.4948803046
 20
12.306036479
 10
6.4864124072
 20
12.3319523088
 10
6.4768916993
 20
12.3579812769
 10
6.4663503585
 20
12.3840354118
 10
6.4548240118
 20
12.4100266572
 10
6.4423516152
 20
12.4358671692
 10
6.4289753223
 20
12.461469613
 10
6.4147403416
 20
12.486747459
 10
6.3996947836
 20
12.5116152742
 10
6.3838894987
 20
12.5359890116
 10
6.3673779047
 20
12.5597862938
 10
6.3502158066
 20
12.582926692
 10
6.332461208
 20
12.6053319972
 10
6.3141741151
 20
12.6269264851
 10
6.2954163337
 20
12.6476371716
 10
6.2762512605
 20
12.6673940595
 10
6.2567436687
 20
12.6861303755
 10
6.2369594891
 20
12.7037827954
 10
6.2169655874
 20
12.7202916582
 10
6.1968295381
 20
12.735601168
 10
6.1766193959
 20
12.7496595826
 10
6.1564034663
 20
12.7624193879
  0
LWPOLYLINE
  5
2E8
100
AcDbEntity
  8
ASSI
100
AcDbPolyline
 62
253
  6
CONTINUOUS
 90
16
 70
0
 10
6.5222362063
 20
-22.94950066
 10
6.5205555661
 20
-22.9734500191
 10
6.5177067201
 20
-22.9966165662
 10
6.5136992966
 20
-23.0189220043
 10
6.5085468398
 20
-23.0402909465
 10
6.5022667635
 20
-23.0606511711
 10
6.4948802929
 20
-23.0799338657
 10
6.4864123925
 20
-23.0980738594
 10
6.4768916816
 20
-23.1150098437
 10
6.4663503378
 20
-23.1306845792
 10
6.4548239884
 20
-23.1450450892
 10
6.4423515893
 20
-23.1580428387
 10
6.4289752944
 20
-23.1696338985
 10
6.414740312
 20
-23.1797790939
 10
6.399694753
 20
-23.1884441365
 10
6.3978337804
 20
-23.1893847362
  0
LINE
  5
2E9
100
AcDbEntity
  8
ASSI
100
AcDbLine
 62
253
  6
CONTINUOUS
 10
9.8624729159
 20
-3.4545721117
 11
5.3969546195
 21
-5.9886658626
  0
LINE
  5
2EA
100
AcDbEntity
  8
ASSI
100
AcDbLine
 62
253
  6
CONTINUOUS
 10
10.003894273
 20
-3.6995024337
 11
5.5371323684
 21
-6.2343019078
  0
LINE
  5
2EB
100
AcDbEntity
  8
ASSI
100
AcDbLine
 62
253
  6
CONTINUOUS
 10
5.5371323684
 20
-5.6559818912
 11
10.003894273
 21
-3.2096575726
  0
LINE
  5
2EC
100
AcDbEntity
  8
ASSI
100
AcDbLine
 62
7
  6
CONTINUOUS
 10
5.4942589258
 20
-5.7483361582
 11
9.9611732505
 21
-3.3019283632
  0
LWPOLYLINE
  5
2ED
100
AcDbEntity
  8
ASSI
100
AcDbPolyline
 62
253
  6
CONTINUOUS
 90
31
 70
0
 10
5.3969546195
 20
-5.9886658626
 10
5.3854601245
 20
-5.9948571256
 10
5.373502021
 20
-6.0006693844
 10
5.361080309
 20
-6.0061026392
 10
5.3481589246
 20
-6.0111696981
 10
5.3347739317
 20
-6.0158577529
 10
5.3210335223
 20
-6.0201283791
 10
5.3069348735
 20
-6.0239780643
 10
5.2924808083
 20
-6.0274103209
 10
5.2777879877
 20
-6.0303972615
 10
5.2628549188
 20
-6.0329351652
 10
5.2476830946
 20
-6.0350277528
 10
5.2323936551
 20
-6.0366583006
 10
5.2169854621
 20
-6.03782313
 10
5.2014596539
 20
-6.0385259194
 10
5.1859407858
 20
-6.0387609804
 10
5.1704288661
 20
-6.0385245198
 10
5.1549238866
 20
-6.0378203307
 10
5.1395503781
 20
-6.0366541038
 10
5.1243096348
 20
-6.0350221546
 10
5.1092003624
 20
-6.0329281676
 10
5.0943432095
 20
-6.0303888866
 10
5.079739783
 20
-6.0274005927
 10
5.0653884759
 20
-6.0239670049
 10
5.0514051154
 20
-6.0201160241
 10
5.0377926497
 20
-6.0158441448
 10
5.0245481306
 20
-6.0111548727
 10
5.0117785412
 20
-6.0060866254
 10
4.9995195425
 20
-6.0006522092
 10
4.9877354735
 20
-5.9948388179
 10
4.9764263341
 20
-5.9886464516
  0
LWPOLYLINE
  5
2EE
100
AcDbEntity
  8
ASSI
100
AcDbPolyline
 62
253
  6
CONTINUOUS
 90
31
 70
0
 10
5.5371323682
 20
-6.2343019516
 10
5.5180497422
 20
-6.2445216636
 10
5.4980882991
 20
-6.254155949
 10
5.4773017182
 20
-6.2631793658
 10
5.4557468612
 20
-6.2715680131
 10
5.4334807192
 20
-6.2792999599
 10
5.4105599496
 20
-6.286355004
 10
5.3870440663
 20
-6.2927147918
 10
5.3629976843
 20
-6.2983618367
 10
5.338487383
 20
-6.3032799361
 10
5.3135798665
 20
-6.3074560206
 10
5.2883409899
 20
-6.3108794004
 10
5.2628377578
 20
-6.3135405451
 10
5.2371382397
 20
-6.3154325194
 10
5.2113116129
 20
-6.3165504382
 10
5.1854273135
 20
-6.3168908801
 10
5.1595547352
 20
-6.3164530985
 10
5.1337632335
 20
-6.3152384838
 10
5.1081221389
 20
-6.3132499635
 10
5.0827004627
 20
-6.3104930503
 10
5.0575660615
 20
-6.3069753212
 10
5.0327856722
 20
-6.302705827
 10
5.008424828
 20
-6.2976958597
 10
4.984549811
 20
-6.2919591137
 10
4.9612266905
 20
-6.2855113278
 10
4.9385195268
 20
-6.2783705386
 10
4.9164872844
 20
-6.2705556898
 10
4.8951860372
 20
-6.2620865576
 10
4.8746721145
 20
-6.2529852819
 10
4.8550016309
 20
-6.2432766023
 10
4.8362274856
 20
-6.2329864539
  0
LWPOLYLINE
  5
2EF
100
AcDbEntity
  8
ASSI
100
AcDbPolyline
 62
253
  6
CONTINUOUS
 90
7
 70
0
 10
5.4105599485
 20
-5.7066608845
 10
5.433480718
 20
-5.699828505
 10
5.4557468599
 20
-5.6923229913
 10
5.477301717
 20
-5.6841629292
 10
5.4980882981
 20
-5.6753696577
 10
5.5180497417
 20
-5.6659675099
 10
5.5371323682
 20
-5.6559818472
  0
LWPOLYLINE
  5
2F0
100
AcDbEntity
  8
CURVE
100
AcDbPolyline
 62
253
  6
CONTINUOUS
 90
29
 70
0
 10
-2.7452312752
 20
7.8072745493
 10
-2.7435986693
 20
7.8075617532
 10
-2.7419808855
 20
7.8079161078
 10
-2.7403773221
 20
7.8083366581
 10
-2.7387873775
 20
7.8088224491
 10
-2.7372104501
 20
7.8093725259
 10
-2.7356459383
 20
7.8099859336
 10
-2.7340932404
 20
7.8106617171
 10
-2.7325517548
 20
7.8113989215
 10
-2.7310208799
 20
7.8121965919
 10
-2.729500014
 20
7.8130537732
 10
-2.7279885555
 20
7.8139695106
 10
-2.7263361178
 20
7.8150428891
 10
-2.724693648
 20
7.8161821431
 10
-2.7230604591
 20
7.8173834508
 10
-2.7214358641
 20
7.8186429903
 10
-2.7198191759
 20
7.81995694
 10
-2.7182097075
 20
7.821321478
 10
-2.7166067718
 20
7.8227327824
 10
-2.7150096819
 20
7.8241870316
 10
-2.7134177505
 20
7.8256804037
 10
-2.7118302908
 20
7.8272090768
 10
-2.7095686001
 20
7.8294480346
 10
-2.7073109153
 20
7.8317489682
 10
-2.7050535187
 20
7.8341096101
 10
-2.7027926924
 20
7.8365276928
 10
-2.7005247189
 20
7.8390009485
 10
-2.6982458804
 20
7.8415271098
 10
-2.6959524593
 20
7.8441039091
  0
LINE
  5
2F1
100
AcDbEntity
  8
CURVE
100
AcDbLine
 62
253
  6
CONTINUOUS
 10
-5.2111020045
 20
12.0675693492
 11
-5.4135818347
 21
12.1844786656
  0
LINE
  5
2F2
100
AcDbEntity
  8
CURVE
100
AcDbLine
 62
253
  6
CONTINUOUS
 10
-3.6341672435
 20
10.2994785776
 11
-4.1427569153
 21
10.5938717215
  0
LWPOLYLINE
  5
2F3
100
AcDbEntity
  8
CURVE
100
AcDbPolyline
 62
253
  6
CONTINUOUS
 90
28
 70
0
 10
-0.6569754688
 20
10.0514860035
 10
-0.6582916851
 20
10.0525952238
 10
-0.659614368
 20
10.0536683344
 10
-0.660943123
 20
10.05470662
 10
-0.6622775558
 20
10.0557113655
 10
-0.6636172719
 20
10.0566838556
 10
-0.6649618769
 20
10.0576253751
 10
-0.6663109762
 20
10.0585372086
 10
-0.6676641756
 20
10.059420641
 10
-0.6690210804
 20
10.0602769571
 10
-0.6703812964
 20
10.0611074415
 10
-0.671744429
 20
10.061913379
 10
-0.6731100838
 20
10.0626960545
 10
-0.6749343559
 20
10.0637056406
 10
-0.67676242
 20
10.0646791038
 10
-0.6785942851
 20
10.0656193919
 10
-0.6804299605
 20
10.066529453
 10
-0.6822694554
 20
10.067412235
 10
-0.684112779
 20
10.0682706858
 10
-0.6859599404
 20
10.0691077533
 10
-0.6878109488
 20
10.0699263854
 10
-0.6896658135
 20
10.0707295301
 10
-0.6924554762
 20
10.0719105216
 10
-0.6952545583
 20
10.0730664371
 10
-0.6980637818
 20
10.0742004145
 10
-0.700883869
 20
10.0753155916
 10
-0.7037155419
 20
10.0764151063
 10
-0.7065595227
 20
10.0775020965
  0
LINE
  5
2F4
100
AcDbEntity
  8
ASSI
100
AcDbLine
 62
7
  6
CONTINUOUS
 10
10.003894273
 20
-3.6995024337
 11
10.003894273
 21
-14.1503406291
  0
LINE
  5
2F5
100
AcDbEntity
  8
ASSI
100
AcDbLine
 62
7
  6
CONTINUOUS
 10
10.003894273
 20
-3.2096575726
 11
10.003894273
 21
7.2411806228
  0
LWPOLYLINE
  5
2F6
100
AcDbEntity
  8
CURVE
100
AcDbPolyline
 62
253
  6
CONTINUOUS
 90
26
 70
0
 10
-3.4884319516
 20
10.0099428671
 10
-3.4796226046
 20
10.0080565176
 10
-3.4708548955
 20
10.006380939
 10
-3.4621282198
 20
10.0049146891
 10
-3.4534419727
 20
10.0036563259
 10
-3.4447955495
 20
10.0026044072
 10
-3.4361883456
 20
10.0017574911
 10
-3.4276197563
 20
10.0011141353
 10
-3.419089177
 20
10.0006728978
 10
-3.4105960029
 20
10.0004323365
 10
-3.4021396294
 20
10.0003910092
 10
-3.3937194518
 20
10.000547474
 10
-3.3853348655
 20
10.0009002887
 10
-3.3776266034
 20
10.0013996251
 10
-3.3699494113
 20
10.0020677032
 10
-3.3623045482
 20
10.0029071893
 10
-3.3546932732
 20
10.00392075
 10
-3.3471168451
 20
10.0051110514
 10
-3.339576523
 20
10.0064807602
 10
-3.3320735659
 20
10.0080325425
 10
-3.3246092327
 20
10.0097690649
 10
-3.3171847824
 20
10.0116929936
 10
-3.3098014741
 20
10.0138069952
 10
-3.3024605667
 20
10.016113736
 10
-3.2951633191
 20
10.0186158823
 10
-3.2879109904
 20
10.0213161006
  0
LINE
  5
2F7
100
AcDbEntity
  8
ASSI
100
AcDbLine
 62
7
  6
CONTINUOUS
 10
10.003894273
 20
7.2411806228
 11
9.4617267816
 21
13.9715764814
  0
LINE
  5
2F8
100
AcDbEntity
  8
ASSI
100
AcDbLine
 62
7
  6
CONTINUOUS
 10
10.003894273
 20
-14.1503406291
 11
9.4617267816
 21
-21.4853362959
  0
LWPOLYLINE
  5
2F9
100
AcDbEntity
  8
CURVE
100
AcDbPolyline
 62
253
  6
CONTINUOUS
 90
25
 70
0
 10
-1.0925681379
 20
-12.3235955181
 10
-1.0967577113
 20
-12.3250997716
 10
-1.1010072032
 20
-12.3264850663
 10
-1.1053212121
 20
-12.3277525333
 10
-1.1097043364
 20
-12.3289033039
 10
-1.1141611744
 20
-12.3299385091
 10
-1.1186963246
 20
-12.3308592804
 10
-1.1233134037
 20
-12.3316662191
 10
-1.1280121016
 20
-12.3323578074
 10
-1.1327911265
 20
-12.332931998
 10
-1.1376491866
 20
-12.3333867434
 10
-1.1425849901
 20
-12.3337199961
 10
-1.1475972453
 20
-12.3339297086
 10
-1.152684637
 20
-12.3340139451
 10
-1.1578457562
 20
-12.3339712163
 10
-1.1630791705
 20
-12.3338001446
 10
-1.1683834475
 20
-12.3334993522
 10
-1.173757155
 20
-12.3330674616
 10
-1.1791988605
 20
-12.3325030951
 10
-1.1847079702
 20
-12.3318052537
 10
-1.1902872436
 20
-12.3309744533
 10
-1.1959402792
 20
-12.3300115883
 10
-1.201670675
 20
-12.3289175532
 10
-1.2074820294
 20
-12.3276932427
 10
-1.2133779404
 20
-12.3263395511
  0
LWPOLYLINE
  5
2FA
100
AcDbEntity
  8
CURVE
100
AcDbPolyline
 62
253
  6
CONTINUOUS
 90
30
 70
0
 10
-4.219356609
 20
10.6157271804
 10
-4.2209752558
 20
10.6154319042
 10
-4.2225842279
 20
10.6150739981
 10
-4.2241839467
 20
10.6146538277
 10
-4.2257748332
 20
10.6141717586
 10
-4.2273573087
 20
10.6136281565
 10
-4.2289317941
 20
10.6130233871
 10
-4.2304987108
 20
10.612357816
 10
-4.2320584798
 20
10.6116318087
 10
-4.2336115223
 20
10.6108457311
 10
-4.2351582594
 20
10.6099999486
 10
-4.2366991123
 20
10.609094827
 10
-4.2383877055
 20
10.6080315746
 10
-4.2400699412
 20
10.6069003417
 10
-4.2417460721
 20
10.6057045055
 10
-4.2434163508
 20
10.6044474434
 10
-4.2450810301
 20
10.6031325327
 10
-4.2467403627
 20
10.6017631508
 10
-4.2483946015
 20
10.600342675
 10
-4.250043999
 20
10.5988744827
 10
-4.2516888081
 20
10.5973619512
 10
-4.2533292814
 20
10.5958084579
 10
-4.2553745573
 20
10.5938133596
 10
-4.2574163254
 20
10.5917614865
 10
-4.2594574573
 20
10.5896547893
 10
-4.2615008251
 20
10.5874952191
 10
-4.2635493004
 20
10.5852847267
 10
-4.2656057551
 20
10.5830252629
 10
-4.267673061
 20
10.5807187788
 10
-4.26975409
 20
10.5783672251
  0
LWPOLYLINE
  5
2FB
100
AcDbEntity
  8
CURVE
100
AcDbPolyline
 62
253
  6
CONTINUOUS
 90
62
 70
0
 10
0.568974327
 20
-14.4409576665
 10
0.5818192361
 20
-14.4326509815
 10
0.5939905242
 20
-14.4236488744
 10
0.6055151282
 20
-14.4139853947
 10
0.6164199853
 20
-14.4036945924
 10
0.6267320322
 20
-14.3928105171
 10
0.6364782058
 20
-14.3813672186
 10
0.6456854433
 20
-14.3693987467
 10
0.6543806813
 20
-14.3569391512
 10
0.6637197085
 20
-14.34214161
 10
0.6724293668
 20
-14.326796062
 10
0.6805138381
 20
-14.3109514945
 10
0.6879773044
 20
-14.2946568953
 10
0.6948239478
 20
-14.2779612517
 10
0.7010579501
 20
-14.2609135514
 10
0.7066834935
 20
-14.2435627819
 10
0.7117064105
 20
-14.2259543737
 10
0.7161391376
 20
-14.2081195294
 10
0.7199957618
 20
-14.1900858945
 10
0.72329037
 20
-14.1718811145
 10
0.7260370495
 20
-14.1535328351
 10
0.7282498872
 20
-14.1350687017
 10
0.7299429702
 20
-14.1165163598
 10
0.7312833128
 20
-14.0947998434
 10
0.731976941
 20
-14.0730597101
 10
0.7320654103
 20
-14.0513547758
 10
0.7315902759
 20
-14.0297438565
 10
0.7305930934
 20
-14.0082857681
 10
0.7291154182
 20
-13.9870393266
 10
0.7271965235
 20
-13.9660531127
 10
0.7248665541
 20
-13.9453347673
 10
0.7221533725
 20
-13.924881696
 10
0.7190848415
 20
-13.9046913046
 10
0.7156888236
 20
-13.8847609986
 10
0.7119931814
 20
-13.8650881839
 10
0.707196743
 20
-13.8418154094
 10
0.7020247487
 20
-13.8188954093
 10
0.6964929794
 20
-13.7963139063
 10
0.6906172159
 20
-13.7740566234
 10
0.6844132391
 20
-13.7521092833
 10
0.6778928379
 20
-13.7304553174
 10
0.6710518337
 20
-13.7090689909
 10
0.6638820559
 20
-13.6879222777
 10
0.6563753336
 20
-13.6669871513
 10
0.6485234964
 20
-13.6462355856
 10
0.6403167121
 20
-13.6256419443
 10
0.6317385025
 20
-13.6051901503
 10
0.6227707282
 20
-13.5848665169
 10
0.6133952495
 20
-13.564657357
 10
0.603593927
 20
-13.5445489837
 10
0.5933575262
 20
-13.5245312692
 10
0.5827124347
 20
-13.5046083224
 10
0.571693945
 20
-13.4847878115
 10
0.5603373497
 20
-13.4650774045
 10
0.5486779416
 20
-13.4454847695
 10
0.5337308082
 20
-13.4211704488
 10
0.5184297524
 20
-13.397062151
 10
0.5028388521
 20
-13.3731698984
 10
0.4870221852
 20
-13.3495037139
 10
0.4656767101
 20
-13.3182947979
 10
0.4440988055
 20
-13.287391431
 10
0.4223434886
 20
-13.2566794455
  0
LINE
  5
2FC
100
AcDbEntity
  8
ASSI
100
AcDbLine
 62
253
  6
CONTINUOUS
 10
-9.7781853039
 20
19.6304874784
 11
5.1404644594
 21
11.0166460801
  0
LINE
  5
2FD
100
AcDbEntity
  8
ASSI
100
AcDbLine
 62
7
  6
CONTINUOUS
 10
7.075509511
 20
15.7203336695
 11
6.4031191789
 21
15.5905122917
  0
LINE
  5
2FE
100
AcDbEntity
  8
ASSI
100
AcDbLine
 62
253
  6
CONTINUOUS
 10
-8.7856066822
 20
21.3897636631
 11
6.1564159269
 21
12.7624270768
  0
LINE
  5
2FF
100
AcDbEntity
  8
ASSI
100
AcDbLine
 62
7
  6
CONTINUOUS
 10
6.2099340137
 20
15.6161211268
 11
3.8276489176
 21
16.9916226843
  0
LINE
  5
300
100
AcDbEntity
  8
ASSI
100
AcDbLine
 62
7
  6
CONTINUOUS
 10
-1.7096619356
 20
20.1887965721
 11
-4.0919470317
 21
21.5642981295
  0
LINE
  5
301
100
AcDbEntity
  8
ASSI
100
AcDbLine
 62
7
  6
CONTINUOUS
 10
9.0770999869
 20
14.5646404145
 11
7.075509511
 21
15.7203336695
  0
LINE
  5
302
100
AcDbEntity
  8
ASSI
100
AcDbLine
 62
7
  6
CONTINUOUS
 10
3.956051555
 20
17.5214695973
 11
-0.8440864383
 21
20.2930091148
  0
LINE
  5
303
100
AcDbEntity
  8
ASSI
100
AcDbLine
 62
7
  6
CONTINUOUS
 10
-3.9635443943
 20
22.0941450426
 11
-5.9651348702
 21
23.2498382976
  0
LINE
  5
304
100
AcDbEntity
  8
ASSI
100
AcDbLine
 62
7
  6
CONTINUOUS
 10
-0.8440864383
 20
20.2930091148
 11
-1.5164767704
 21
20.1631877369
  0
LWPOLYLINE
  5
305
100
AcDbEntity
  8
ASSI
100
AcDbPolyline
 62
253
  6
CONTINUOUS
 90
28
 70
0
 10
5.8410485469
 20
-22.5475409118
 10
5.8198103595
 20
-22.5596843056
 10
5.7974931413
 20
-22.5711003426
 10
5.7741707399
 20
-22.5817512471
 10
5.7499203288
 20
-22.5916017754
 10
5.7248221523
 20
-22.6006193322
 10
5.69895926
 20
-22.6087740786
 10
5.6724172321
 20
-22.6160390305
 10
5.6452838956
 20
-22.6223901484
 10
5.6176490346
 20
-22.6278064164
 10
5.5896040925
 20
-22.6322699122
 10
5.5612418696
 20
-22.6357658661
 10
5.5326562164
 20
-22.6382827101
 10
5.5039417223
 20
-22.6398121159
 10
5.4751934034
 20
-22.6403490227
 10
5.4465063874
 20
-22.639891654
 10
5.4179755995
 20
-22.6384415231
 10
5.3896954477
 20
-22.6360034286
 10
5.3617595106
 20
-22.632585438
 10
5.334260228
 20
-22.6281988615
 10
5.3072885948
 20
-22.6228582141
 10
5.2809338596
 20
-22.6165811681
 10
5.2552832302
 20
-22.609388494
 10
5.2304215841
 20
-22.6013039925
 10
5.2064311882
 20
-22.5923544149
 10
5.1833914265
 20
-22.5825693754
 10
5.1613785374
 20
-22.5719812525
 10
5.1404653611
 20
-22.5606250823
  0
LINE
  5
306
100
AcDbEntity
  8
ASSI
100
AcDbLine
 62
253
  6
CONTINUOUS
 10
6.5222362063
 20
-22.94950066
 11
9.4617267816
 21
-21.4853362959
  0
LINE
  5
307
100
AcDbEntity
  8
ASSI
100
AcDbLine
 62
7
  6
CONTINUOUS
 10
6.3978337804
 20
-23.1893847362
 11
9.3261491086
 21
-21.7307867784
  0
ELLIPSE
  5
308
100
AcDbEntity
  8
ASSI
100
AcDbEllipse
 62
7
  6
CONTINUOUS
 10
9.108148189
 20
-21.2807802418
 30
0.0
 11
-0.2148150744
 21
0.4515576038
 31
0.0
 40
0.6258090719
 41
-3.1302698991
 42
-2.3092664522
  0
ELLIPSE
  5
309
100
AcDbEntity
  8
ASSI
100
AcDbEllipse
 62
7
  6
CONTINUOUS
 10
9.8624513743
 20
-3.6178599472
 30
0.0
 11
-0.1000238792
 21
0.1731956925
 31
0.0
 40
0.5774195892
 41
-2.3562809449
 42
-0.7856369171
  0
ELLIPSE
  5
30A
100
AcDbEntity
  8
CURVE
100
AcDbEllipse
 62
253
  6
CONTINUOUS
 10
344.137252581
 20
206.4247203615
 30
0.0
 11
-351.8965003546
 21
611.8078361149
 31
0.0
 40
0.5784359466
 41
-4.6841178733
 42
-4.6839473471
  0
ELLIPSE
  5
30B
100
AcDbEntity
  8
CURVE
100
AcDbEllipse
 62
253
  6
CONTINUOUS
 10
359.0774589221
 20
197.7984324649
 30
0.0
 11
396.2327812375
 21
346.7896821885
 31
0.0
 40
0.2317797441
 41
2.4620548866
 42
2.4621645702
  0
ELLIPSE
  5
30C
100
AcDbEntity
  8
CURVE
100
AcDbEllipse
 62
253
  6
CONTINUOUS
 10
363.9308196988
 20
194.9961627793
 30
0.0
 11
515.7596796338
 21
279.491872139
 31
0.0
 40
0.0261752451
 41
-2.3672222727
 42
-2.3670410202
  0
ELLIPSE
  5
30D
100
AcDbEntity
  8
CURVE
100
AcDbEllipse
 62
253
  6
CONTINUOUS
 10
362.6522669918
 20
195.7343830883
 30
0.0
 11
505.3181027614
 21
285.5868829776
 31
0.0
 40
0.0091194506
 41
-2.375508126
 42
-2.3753382475
  0
ELLIPSE
  5
30E
100
AcDbEntity
  8
CURVE
100
AcDbEllipse
 62
253
  6
CONTINUOUS
 10
343.9146493634
 20
206.5532486694
 30
0.0
 11
-404.5279123859
 21
631.4197538005
 31
0.0
 40
0.5440121123
 41
1.5706359952
 42
1.5707701634
  0
ELLIPSE
  5
30F
100
AcDbEntity
  8
CURVE
100
AcDbEllipse
 62
253
  6
CONTINUOUS
 10
364.2687834979
 20
194.8010267174
 30
0.0
 11
610.9493607176
 21
220.5644965829
 31
0.0
 40
0.1409982046
 41
-2.260616944
 42
-2.2605206815
  0
ELLIPSE
  5
310
100
AcDbEntity
  8
CURVE
100
AcDbEllipse
 62
253
  6
CONTINUOUS
 10
350.6076333521
 20
202.6888035972
 30
0.0
 11
80.4083695484
 21
510.6412695999
 31
0.0
 40
0.7075564514
 41
-4.1700853998
 42
-4.1698449541
  0
ELLIPSE
  5
311
100
AcDbEntity
  8
CURVE
100
AcDbEllipse
 62
253
  6
CONTINUOUS
 10
354.8711991297
 20
200.2270741522
 30
0.0
 11
304.5127574468
 21
400.4962324371
 31
0.0
 40
0.4730809905
 41
-3.8379201972
 42
-3.8377556629
  0
ELLIPSE
  5
312
100
AcDbEntity
  8
CURVE
100
AcDbEllipse
 62
253
  6
CONTINUOUS
 10
333.3726243171
 20
212.6400818086
 30
0.0
 11
-695.5560622042
 21
775.5555918287
 31
0.0
 40
0.3847391777
 41
1.5191982395
 42
1.5193147766
  0
ELLIPSE
  5
313
100
AcDbEntity
  8
CURVE
100
AcDbEllipse
 62
253
  6
CONTINUOUS
 10
342.5828287256
 20
207.3222252141
 30
0.0
 11
-353.8138240982
 21
612.4705856015
 31
0.0
 40
0.5771838681
 41
-4.6848216536
 42
-4.683314259
  0
ELLIPSE
  5
314
100
AcDbEntity
  8
CURVE
100
AcDbEllipse
 62
253
  6
CONTINUOUS
 10
339.0309602104
 20
209.3730295794
 30
0.0
 11
-501.1097542967
 21
674.0210398389
 31
0.0
 40
0.4835944042
 41
1.5421982145
 42
1.5423586484
  0
ELLIPSE
  5
315
100
AcDbEntity
  8
CURVE
100
AcDbEllipse
 62
253
  6
CONTINUOUS
 10
293.3581960484
 20
235.7439111924
 30
0.0
 11
2143.0487096926
 21
-1620.7527993127
 31
0.0
 40
0.1402132885
 41
-1.6025660449
 42
-1.6025385885
  0
ELLIPSE
  5
316
100
AcDbEntity
  8
CURVE
100
AcDbEllipse
 62
253
  6
CONTINUOUS
 10
348.9586966399
 20
203.6408789888
 30
0.0
 11
112.1941429066
 21
499.3694714073
 31
0.0
 40
0.6971945263
 41
-4.1142238444
 42
-4.1140238162
  0
ELLIPSE
  5
317
100
AcDbEntity
  8
CURVE
100
AcDbEllipse
 62
253
  6
CONTINUOUS
 10
364.1684188808
 20
194.8589759895
 30
0.0
 11
514.476195202
 21
280.2447300771
 31
0.0
 40
0.0241326751
 41
-2.3688437181
 42
-2.3687303636
  0
ELLIPSE
  5
318
100
AcDbEntity
  8
CURVE
100
AcDbEllipse
 62
253
  6
CONTINUOUS
 10
365.3956167362
 20
194.1504073282
 30
0.0
 11
547.6774032915
 21
260.4213806534
 31
0.0
 40
0.0723540882
 41
-2.3338713251
 42
-2.3337736395
  0
ELLIPSE
  5
319
100
AcDbEntity
  8
CURVE
100
AcDbEllipse
 62
253
  6
CONTINUOUS
 10
338.9159477406
 20
209.439436338
 30
0.0
 11
-518.7057424351
 21
682.5147192066
 31
0.0
 40
0.4732982794
 41
1.5378479151
 42
1.5380487902
  0
ELLIPSE
  5
31A
100
AcDbEntity
  8
CURVE
100
AcDbEllipse
 62
253
  6
CONTINUOUS
 10
342.7854548599
 20
207.2052314236
 30
0.0
 11
-357.0654987913
 21
613.6037851628
 31
0.0
 40
0.5750586182
 41
-4.6870896003
 42
-4.6858611745
  0
ELLIPSE
  5
31B
100
AcDbEntity
  8
CURVE
100
AcDbEllipse
 62
253
  6
CONTINUOUS
 10
361.2784806416
 20
196.5275901093
 30
0.0
 11
501.4257257914
 21
287.8420300548
 31
0.0
 40
0.0025017182
 41
-2.3795157586
 42
-2.3782645157
  0
ELLIPSE
  5
31C
100
AcDbEntity
  8
CURVE
100
AcDbEllipse
 62
253
  6
CONTINUOUS
 10
404.9452289342
 20
171.3149569181
 30
0.0
 11
2130.7518312493
 21
-777.5837962739
 31
0.0
 40
0.1389132334
 41
-1.7117161812
 42
-1.7116585898
  0
ELLIPSE
  5
31D
100
AcDbEntity
  8
CURVE
100
AcDbEllipse
 62
253
  6
CONTINUOUS
 10
360.9886107151
 20
196.694957372
 30
0.0
 11
501.0490536235
 21
288.0597915218
 31
0.0
 40
0.0018537066
 41
-2.3794844195
 42
-2.3779190636
  0
ELLIPSE
  5
31E
100
AcDbEntity
  8
CURVE
100
AcDbEllipse
 62
253
  6
CONTINUOUS
 10
409.2283503964
 20
168.8419362659
 30
0.0
 11
2350.5690935659
 21
-909.5884288249
 31
0.0
 40
0.1268149023
 41
-1.697103647
 42
-1.6970630654
  0
ELLIPSE
  5
31F
100
AcDbEntity
  8
CURVE
100
AcDbEllipse
 62
253
  6
CONTINUOUS
 10
386.7897676032
 20
181.7976927493
 30
0.0
 11
1474.2848695644
 21
-372.0043464884
 31
0.0
 40
0.1906362662
 41
-1.7892090293
 42
-1.7891559556
  0
ELLIPSE
  5
320
100
AcDbEntity
  8
CURVE
100
AcDbEllipse
 62
253
  6
CONTINUOUS
 10
352.9928453109
 20
201.3116121059
 30
0.0
 11
304.4115744883
 21
400.5575208032
 31
0.0
 40
0.4733122789
 41
-3.8422028776
 42
-3.842038009
  0
ELLIPSE
  5
321
100
AcDbEntity
  8
CURVE
100
AcDbEllipse
 62
253
  6
CONTINUOUS
 10
373.0815850104
 20
189.7126255744
 30
0.0
 11
782.8386587393
 21
101.6262864728
 31
0.0
 40
0.2262358309
 41
-2.0960247935
 42
-2.0959705158
  0
ELLIPSE
  5
322
100
AcDbEntity
  8
ASSI
100
AcDbEllipse
 62
7
  6
CONTINUOUS
 10
-5.9345170903
 20
22.8608355694
 30
0.0
 11
-0.2805986523
 21
0.4138767202
 31
0.0
 40
0.5251497255
 41
-0.8253745819
 42
-0.0067082778
  0
ELLIPSE
  5
323
100
AcDbEntity
  8
ASSI
100
AcDbEllipse
 62
7
  6
CONTINUOUS
 10
9.108148189
 20
14.175389166
 30
0.0
 11
-0.2807400337
 21
0.4141474974
 31
0.0
 40
0.5245128892
 41
-2.3945640771
 42
-0.8246811388
  0
ELLIPSE
  5
324
100
AcDbEntity
  8
ASSI
100
AcDbEllipse
 62
7
  6
CONTINUOUS
 10
9.8624513743
 20
-3.1279653451
 30
0.0
 11
-0.1000390991
 21
0.1732220807
 31
0.0
 40
0.5772437351
 41
-3.1546807054
 42
-2.3564331449
  0
ELLIPSE
  5
325
100
AcDbEntity
  8
ASSI
100
AcDbEllipse
 62
7
  6
CONTINUOUS
 10
6.3513553699
 20
15.7063339243
 30
0.0
 11
0.1999154856
 21
0.0095814127
 31
0.0
 40
0.6067642562
 41
-2.385266879
 42
-1.3380693278
  0
ELLIPSE
  5
326
100
AcDbEntity
  8
ASSI
100
AcDbEllipse
 62
7
  6
CONTINUOUS
 10
-1.5682405794
 20
20.2790093696
 30
0.0
 11
0.1999154856
 21
0.0095814127
 31
0.0
 40
0.6067642562
 41
-2.385266879
 42
-1.3380693278
  0
ELLIPSE
  5
327
100
AcDbEntity
  8
ASSI
100
AcDbEllipse
 62
7
  6
CONTINUOUS
 10
3.9690702738
 20
17.0818354817
 30
0.0
 11
0.1999154856
 21
0.0095814127
 31
0.0
 40
0.6067642562
 41
2.850720877
 42
3.8979184282
  0
ELLIPSE
  5
328
100
AcDbEntity
  8
ASSI
100
AcDbEllipse
 62
7
  6
CONTINUOUS
 10
-3.9505256755
 20
21.654510927
 30
0.0
 11
0.1999154856
 21
0.0095814127
 31
0.0
 40
0.6067642562
 41
2.850720877
 42
3.8979184282
  0
ELLIPSE
  5
329
100
AcDbEntity
  8
CURVE
100
AcDbEllipse
 62
253
  6
CONTINUOUS
 10
310.1531552206
 20
226.0467122566
 30
0.0
 11
1467.8513017154
 21
-367.8890916887
 31
0.0
 40
0.1912804727
 41
-1.7384846428
 42
-1.7384312828
  0
ELLIPSE
  5
32A
100
AcDbEntity
  8
CURVE
100
AcDbEllipse
 62
253
  6
CONTINUOUS
 10
285.4110177061
 20
240.3325123656
 30
0.0
 11
2370.743952894
 21
-921.6481566102
 31
0.0
 40
0.1258029391
 41
-1.6440074098
 42
-1.643967178
  0
ELLIPSE
  5
32B
100
AcDbEntity
  8
CURVE
100
AcDbEllipse
 62
253
  6
CONTINUOUS
 10
340.4460661795
 20
208.5559651283
 30
0.0
 11
501.4825877734
 21
287.8091498553
 31
0.0
 40
0.0025994242
 41
-2.3274887903
 42
-2.3262377072
  0
ELLIPSE
  5
32C
100
AcDbEntity
  8
CURVE
100
AcDbEllipse
 62
253
  6
CONTINUOUS
 10
340.1802717089
 20
208.7094315244
 30
0.0
 11
501.1960969644
 21
287.9747927602
 31
0.0
 40
0.0021068343
 41
-2.3273669539
 42
-2.3258017515
  0
ELLIPSE
  5
32D
100
AcDbEntity
  8
CURVE
100
AcDbEllipse
 62
253
  6
CONTINUOUS
 10
351.4738260018
 20
202.1886748172
 30
0.0
 11
112.6928661761
 21
499.18108486
 31
0.0
 40
0.696996382
 41
-4.1653814575
 42
-4.1651811591
  0
ELLIPSE
  5
32E
100
AcDbEntity
  8
CURVE
100
AcDbEllipse
 62
253
  6
CONTINUOUS
 10
336.0874948545
 20
211.0725495856
 30
0.0
 11
607.792379932
 21
222.6163991111
 31
0.0
 40
0.1381969153
 41
-2.2120558806
 42
-2.2119592486
  0
ELLIPSE
  5
32F
100
AcDbEntity
  8
CURVE
100
AcDbEllipse
 62
253
  6
CONTINUOUS
 10
353.9446020221
 20
200.7620797092
 30
0.0
 11
80.6913335706
 21
510.5471346567
 31
0.0
 40
0.7074826383
 41
-4.2215988154
 42
-4.2213582603
  0
ELLIPSE
  5
330
100
AcDbEntity
  8
CURVE
100
AcDbEllipse
 62
253
  6
CONTINUOUS
 10
346.5543251785
 20
205.0291329367
 30
0.0
 11
395.6935637206
 21
347.0918222113
 31
0.0
 40
0.2332227073
 41
2.4102871296
 42
2.4103971598
  0
ELLIPSE
  5
331
100
AcDbEntity
  8
CURVE
100
AcDbEllipse
 62
253
  6
CONTINUOUS
 10
360.1018376721
 20
197.2069690131
 30
0.0
 11
-352.6311088059
 21
612.0612864449
 31
0.0
 40
0.5779563222
 41
1.5466790389
 42
1.5468498349
  0
ELLIPSE
  5
332
100
AcDbEntity
  8
CURVE
100
AcDbEllipse
 62
253
  6
CONTINUOUS
 10
334.4027029708
 20
212.0453273038
 30
0.0
 11
783.2508068436
 21
101.3302376602
 31
0.0
 40
0.2263244472
 41
-2.0437005116
 42
-2.0436462381
  0
ELLIPSE
  5
333
100
AcDbEntity
  8
CURVE
100
AcDbEllipse
 62
253
  6
CONTINUOUS
 10
342.3903810291
 20
207.4333421021
 30
0.0
 11
514.4761947511
 21
280.2447303414
 31
0.0
 40
0.0241326744
 41
-2.3168737452
 42
-2.3167603984
  0
ELLIPSE
  5
334
100
AcDbEntity
  8
CURVE
100
AcDbEllipse
 62
253
  6
CONTINUOUS
 10
341.291288847
 20
208.0679441532
 30
0.0
 11
547.4841158039
 21
260.5389416729
 31
0.0
 40
0.0720999885
 41
-2.2821090754
 42
-2.282011397
  0
ELLIPSE
  5
335
100
AcDbEntity
  8
CURVE
100
AcDbEllipse
 62
253
  6
CONTINUOUS
 10
342.0422924535
 20
207.6343240831
 30
0.0
 11
516.2902265563
 21
279.1803625068
 31
0.0
 40
0.0270152103
 41
-2.3147034314
 42
-2.3145225409
  0
ELLIPSE
  5
336
100
AcDbEntity
  8
CURVE
100
AcDbEllipse
 62
253
  6
CONTINUOUS
 10
362.1544639925
 20
196.0218083012
 30
0.0
 11
-405.7222303213
 21
631.8975786391
 31
0.0
 40
0.5432353459
 41
1.518160401
 42
1.5182942935
  0
ELLIPSE
  5
337
100
AcDbEntity
  8
CURVE
100
AcDbEllipse
 62
253
  6
CONTINUOUS
 10
341.5573904162
 20
207.9143004422
 30
0.0
 11
504.8028574335
 21
285.8859197055
 31
0.0
 40
0.008251637
 41
-2.3240596739
 42
-2.3238900652
  0
ELLIPSE
  5
338
100
AcDbEntity
  8
CURVE
100
AcDbEllipse
 62
253
  6
CONTINUOUS
 10
360.0255423436
 20
197.2510209796
 30
0.0
 11
-250.4287445272
 21
582.506178875
 31
0.0
 40
0.6412627736
 41
-4.6656114744
 42
-4.6655098323
  0
ELLIPSE
  5
339
100
AcDbEntity
  8
CURVE
100
AcDbEllipse
 62
253
  6
CONTINUOUS
 10
346.5689932081
 20
205.0206638003
 30
0.0
 11
390.8077334347
 21
349.835058276
 31
0.0
 40
0.246364335
 41
2.4077712696
 42
2.4079084875
  0
ELLIPSE
  5
33A
100
AcDbEntity
  8
CURVE
100
AcDbEllipse
 62
253
  6
CONTINUOUS
 10
338.3399071573
 20
209.7720349513
 30
0.0
 11
587.5084086842
 21
235.6458165875
 31
0.0
 40
0.1187372343
 41
-2.2341368228
 42
-2.2340507084
  0
ELLIPSE
  5
33B
100
AcDbEntity
  8
CURVE
100
AcDbEllipse
 62
253
  6
CONTINUOUS
 10
339.2185524101
 20
209.2647161943
 30
0.0
 11
667.5942390902
 21
182.7482121078
 31
0.0
 40
0.1821561777
 41
-2.1551994342
 42
-2.1551362706
  0
ELLIPSE
  5
33C
100
AcDbEntity
  8
CURVE
100
AcDbEllipse
 62
253
  6
CONTINUOUS
 10
357.8229719748
 20
198.5227575059
 30
0.0
 11
-211.9133410434
 21
574.064788741
 31
0.0
 40
0.6617718497
 41
-4.6222193305
 42
-4.6221203856
  0
ELLIPSE
  5
33D
100
AcDbEntity
  8
CURVE
100
AcDbEllipse
 62
253
  6
CONTINUOUS
 10
364.4780308249
 20
194.6802099333
 30
0.0
 11
-567.7607545935
 21
707.0960928892
 31
0.0
 40
0.4459979064
 41
1.4793274752
 42
1.4794068002
  0
ELLIPSE
  5
33E
100
AcDbEntity
  8
CURVE
100
AcDbEllipse
 62
253
  6
CONTINUOUS
 10
346.7004887859
 20
204.9447399017
 30
0.0
 11
417.4622519947
 21
334.9670326281
 31
0.0
 40
0.1764434704
 41
2.4015180088
 42
2.4016721435
  0
ELLIPSE
  5
33F
100
AcDbEntity
  8
CURVE
100
AcDbEllipse
 62
253
  6
CONTINUOUS
 10
341.3275442413
 20
208.0470107429
 30
0.0
 11
646.1303164649
 21
197.2881935932
 31
0.0
 40
0.1684592261
 41
-2.1792643935
 42
-2.1791982682
  0
ELLIPSE
  5
340
100
AcDbEntity
  8
CURVE
100
AcDbEllipse
 62
253
  6
CONTINUOUS
 10
360.619978043
 20
196.9078012568
 30
0.0
 11
-382.2682838516
 21
622.773171643
 31
0.0
 40
0.558550816
 41
1.5345316587
 42
1.5347200136
  0
ELLIPSE
  5
341
100
AcDbEntity
  8
CURVE
100
AcDbEllipse
 62
253
  6
CONTINUOUS
 10
360.8865748729
 20
196.7538715885
 30
0.0
 11
-239.520172816
 21
579.9891692021
 31
0.0
 40
0.6473229346
 41
-4.6572156754
 42
-4.6571113458
  0
ELLIPSE
  5
342
100
AcDbEntity
  8
CURVE
100
AcDbEllipse
 62
253
  6
CONTINUOUS
 10
343.0024542244
 20
207.0799387102
 30
0.0
 11
471.8505125237
 21
304.7093128249
 31
0.0
 40
0.0525791972
 41
2.3522671918
 42
2.3524881356
  0
ELLIPSE
  5
343
100
AcDbEntity
  8
CURVE
100
AcDbEllipse
 62
253
  6
CONTINUOUS
 10
374.7529577813
 20
188.7475958837
 30
0.0
 11
-738.9300839285
 21
799.7420773154
 31
0.0
 40
0.3669716181
 41
1.4571151207
 42
1.4571696157
  0
ELLIPSE
  5
344
100
AcDbEntity
  8
CURVE
100
AcDbEllipse
 62
253
  6
CONTINUOUS
 10
401.0953778425
 20
173.5378126884
 30
0.0
 11
2127.7719197404
 21
-1611.8113617932
 31
0.0
 40
0.1411854089
 41
-1.654815767
 42
-1.6547881009
  0
ELLIPSE
  5
345
100
AcDbEntity
  8
CURVE
100
AcDbEllipse
 62
253
  6
CONTINUOUS
 10
361.7251998511
 20
196.2696600365
 30
0.0
 11
-501.0789317298
 21
674.0063299252
 31
0.0
 40
0.4836126632
 41
1.4902357488
 42
1.4903958163
  0
ELLIPSE
  5
346
100
AcDbEntity
  8
CURVE
100
AcDbEllipse
 62
253
  6
CONTINUOUS
 10
358.6125984328
 20
198.0668370854
 30
0.0
 11
-353.8138240982
 21
612.4705856015
 31
0.0
 40
0.5771838681
 41
1.5463936521
 42
1.5479008536
  0
ELLIPSE
  5
347
100
AcDbEntity
  8
CURVE
100
AcDbEllipse
 62
253
  6
CONTINUOUS
 10
358.9526761735
 20
197.87048046
 30
0.0
 11
-357.1675843406
 21
613.6395488775
 31
0.0
 40
0.5749918634
 41
1.5440694312
 42
1.5452973842
  0
ELLIPSE
  5
348
100
AcDbEntity
  8
CURVE
100
AcDbEllipse
 62
253
  6
CONTINUOUS
 10
362.4324726076
 20
195.8612896111
 30
0.0
 11
-517.4553374739
 21
681.9049879878
 31
0.0
 40
0.4740214153
 41
1.4861380695
 42
1.4863390031
  0
ELLIPSE
  5
349
100
AcDbEntity
  8
CURVE
100
AcDbEllipse
 62
253
  6
CONTINUOUS
 10
349.4148763492
 20
203.3774865419
 30
0.0
 11
303.6181271486
 21
401.0381389999
 31
0.0
 40
0.4751213859
 41
-3.8906261328
 42
-3.8904618362
  0
ELLIPSE
  5
34A
100
AcDbEntity
  8
CURVE
100
AcDbEllipse
 62
253
  6
CONTINUOUS
 10
365.8234126041
 20
193.9034033556
 30
0.0
 11
-696.8802576776
 21
776.2885670583
 31
0.0
 40
0.3841755274
 41
1.4671562145
 42
1.4672728023
  0
ELLIPSE
  5
34B
100
AcDbEntity
  8
CURVE
100
AcDbEllipse
 62
253
  6
CONTINUOUS
 10
293.2482057879
 20
235.8074181903
 30
0.0
 11
2131.1788534527
 21
-777.8414481305
 31
0.0
 40
0.1388876665
 41
-1.6597152758
 42
-1.6596576816
  0
ELLIPSE
  5
34C
100
AcDbEntity
  8
CURVE
100
AcDbEllipse
 62
253
  6
CONTINUOUS
 10
347.4814507953
 20
204.4938222252
 30
0.0
 11
305.4423537656
 21
399.9331820244
 31
0.0
 40
0.4709499114
 41
-3.8933353571
 42
-3.8931707609
  0
ENDSEC
  0
SECTION
  2
OBJECTS
  0
DICTIONARY
  5
C
100
AcDbDictionary
280
0
281
1
  3
ACAD_GROUP
350
D
  3
ACAD_MLINESTYLE
350
17
  3
ACAD_LAYOUT
350
1A
  3
ACAD_PLOTSETTINGS
350
19
  3
ACAD_PLOTSTYLENAME
350
E
  0
DICTIONARY
  5
D
102
{ACAD_REACTORS
330
C
102
}
100
AcDbDictionary
280
0
281
1
  0
ACDBDICTIONARYWDFLT
  5
E
102
{ACAD_REACTORS
330
C
102
}
100
AcDbDictionary
281
1
  3
Normal
350
F
100
AcDbDictionaryWithDefault
340
F
  0
DICTIONARY
  5
17
102
{ACAD_REACTORS
330
C
102
}
100
AcDbDictionary
280
0
281
1
  3
Standard
350
18
  0
DICTIONARY
  5
19
102
{ACAD_REACTORS
330
C
102
}
100
AcDbDictionary
281
1
  0
DICTIONARY
  5
1A
102
{ACAD_REACTORS
330
C
102
}
100
AcDbDictionary
281
1
  3
Model
350
34D
  3
Layout1
350
34E
  0
ACDBPLACEHOLDER
  5
F
102
{ACAD_REACTORS
330
E
102
}
  0
MLINESTYLE
  5
18
102
{ACAD_REACTORS
330
17
102
}
100
AcDbMlineStyle
  2
STANDARD
 70
0
  3

 62
256
 51
90.0
 52
90.0
 71
2
 49
0.5
 62
256
  6
BYLAYER
 49
-0.5
 62
256
  6
BYLAYER
  0
LAYOUT
  5
34D
102
{ACAD_REACTORS
330
1A
102
}
100
AcDbPlotSettings
  1

  2
none_device
  4
ISO_A4_(297.00_x_210.00_MM)
  6

 40
0.0
 41
0.0
 42
0.0
 43
0.0
 44
297.0
 45
210.0
 46
0.0
 47
0.0
 48
0.0
 49
0.0
140
0.0
141
0.0
142
1.0
143
1.0
 70
1024
 72
1
 73
0
 74
0
  7

 75
0
147
1.0
148
0.0
149
0.0
100
AcDbLayout
  1
Model
 70
0
 71
0
 10
0.0
 20
0.0
 11
297.0
 21
210.0
 12
0.0
 22
0.0
 32
0.0
 14
0.0
 24
0.0
 34
0.0
 15
0.0
 25
0.0
 35
0.0
146
0.0
 13
0.0
 23
0.0
 33
0.0
 16
1.0
 26
0.0
 36
0.0
 17
0.0
 27
1.0
 37
0.0
 76
0
330
217
345
0
346
0
  0
LAYOUT
  5
34E
102
{ACAD_REACTORS
330
1A
102
}
100
AcDbPlotSettings
  1

  2
none_device
  4
ISO_A4_(297.00_x_210.00_MM)
  6

 40
0.0
 41
0.0
 42
0.0
 43
0.0
 44
297.0
 45
210.0
 46
0.0
 47
0.0
 48
0.0
 49
0.0
140
0.0
141
0.0
142
1.0
143
1.0
 70
0
 72
1
 73
0
 74
0
  7

 75
0
147
1.0
148
0.0
149
0.0
100
AcDbLayout
  1
Layout1
 70
0
 71
1
 10
0.0
 20
0.0
 11
297.0
 21
210.0
 12
0.0
 22
0.0
 32
0.0
 14
0.0
 24
0.0
 34
0.0
 15
0.0
 25
0.0
 35
0.0
146
0.0
 13
0.0
 23
0.0
 33
0.0
 16
1.0
 26
0.0
 36
0.0
 17
0.0
 27
1.0
 37
0.0
 76
0
330
218
345
0
346
0
  0
ENDSEC
  0
EOF
