  0
SECTION
  2
HEADER
  9
$ACADVER
  1
AC1021
  9
$DWGCODEPAGE
  3
ANSI_1252
  9
$EXTMAX
 10
297.0
 20
210.0
 30
0.0
  9
$EXTMIN
 10
0.0
 20
0.0
 30
0.0
  9
$LIMMIN
 10
0.0
 20
0.0
  9
$LIMMAX
 10
297.0
 20
210.0
  9
$VIEWCTR
 10
148.5
 20
105.0
  9
$VIEWSIZE
 40
210.0
  9
$CLAYER
  8
0
  9
$LTSCALE
 40
16.335
  9
$CELTYPE
  6
BYLAYER
  9
$DIMSCALE
 40
1.0
  9
$DIMASZ
 40
3.0
  9
$DIMEXO
 40
0.5
  9
$DIMDLI
 40
11.286
  9
$DIMEXE
 40
1.5
  9
$DIMCEN
 40
2.673
  9
$DIMLFAC
 40
1.0
  9
$DIMBLK
  1
_FILLED
  9
$DIMALT
 70
0
  9
$DIMALTF
 40
25.4
  9
$DIMTXT
 40
3.0
  9
$DIMTOL
 70
1
  9
$DIMLIM
 70
0
  9
$DIMTFAC
 40
1.0
  9
$DIMTP
 40
0.01
  9
$DIMTM
 40
0.01
  9
$DIMGAP
 40
0.625
  9
$DIMDSEP
 70
44
  9
$AUNITS
 70
0
  9
$PDMODE
 70
3
  9
$PDSIZE
 40
3.0
  9
$HANDSEED
  5
2EE
  9
$TILEMODE
 70
1
  9
$MEASUREMENT
 70
1
  9
$INSUNITS
 70
4
  0
ENDSEC
  0
SECTION
  2
CLASSES
  0
CLASS
  1
ACDBDICTIONARYWDFLT
  2
AcDbDictionaryWithDefault
  3
AutoCAD 2000
 90
0
 91
1
280
0
281
0
  0
CLASS
  1
ACDBPLACEHOLDER
  2
AcDbPlaceHolder
  3
AutoCAD 2000
 90
0
 91
1
280
0
281
0
  0
CLASS
  1
LAYOUT
  2
AcDbLayout
  3
AutoCAD 2000
 90
0
 91
0
280
0
281
0
  0
ENDSEC
  0
SECTION
  2
TABLES
  0
TABLE
  2
VPORT
  5
8
100
AcDbSymbolTable
 70
2
  0
VPORT
  5
1F4
100
AcDbSymbolTableRecord
100
AcDbViewportTableRecord
  2
*ACTIVE
 70
0
 10
0.0
 20
0.0
 11
1.0
 21
1.0
 12
148.5
 22
105.0
 13
0.0
 23
0.0
 14
1.0
 24
1.0
 15
0.0
 25
0.0
 16
0.0
 26
0.0
 36
1.0
 17
0.0
 27
0.0
 37
0.0
 40
210.0
 41
1.4142857143
 42
50.0
 43
0.0
 44
0.0
 50
0.0
 51
0.0
 71
0
 72
100
 73
1
 74
1
 75
0
 76
0
 77
0
 78
0
  0
ENDTAB
  0
TABLE
  2
LTYPE
  5
5
100
AcDbSymbolTable
 70
6
  0
LTYPE
  5
14
100
AcDbSymbolTableRecord
100
AcDbLinetypeTableRecord
  2
BYBLOCK
 70
0
  3

 72
65
 73
0
 40
0.0
  0
LTYPE
  5
15
100
AcDbSymbolTableRecord
100
AcDbLinetypeTableRecord
  2
BYLAYER
 70
0
  3

 72
65
 73
0
 40
0.0
  0
LTYPE
  5
16
100
AcDbSymbolTableRecord
100
AcDbLinetypeTableRecord
  2
CONTINUOUS
 70
64
  3
Solid line
 72
65
 73
0
 40
0.0
  0
LTYPE
  5
1F5
100
AcDbSymbolTableRecord
100
AcDbLinetypeTableRecord
  2
CENTER
 70
64
  3
____ _ ____ _ ____ _ ____ _ ____ _ ____ _ ____
 72
65
 73
4
 40
0.6
 49
0.375
 74
0
 49
-0.075
 74
0
 49
0.075
 74
0
 49
-0.075
 74
0
  0
LTYPE
  5
1F6
100
AcDbSymbolTableRecord
100
AcDbLinetypeTableRecord
  2
HIDDEN
 70
64
  3
- - - - - - - - - - - - - - - - - - - -
 72
65
 73
2
 40
0.2
 49
0.1
 74
0
 49
-0.1
 74
0
  0
LTYPE
  5
1F7
100
AcDbSymbolTableRecord
100
AcDbLinetypeTableRecord
  2
PHANTOM
 70
64
  3
_____ _ _ _____ _ _ _____ _ _ _____
 72
65
 73
6
 40
0.8
 49
0.45
 74
0
 49
-0.05
 74
0
 49
0.1
 74
0
 49
-0.05
 74
0
 49
0.1
 74
0
 49
-0.05
 74
0
  0
LTYPE
  5
1F8
100
AcDbSymbolTableRecord
100
AcDbLinetypeTableRecord
  2
DOT
 70
64
  3
. . . . . . . . . . . . . . . . . . . .
 72
65
 73
2
 40
0.2
 49
0.1
 74
0
 49
-0.1
 74
0
  0
LTYPE
  5
1F9
100
AcDbSymbolTableRecord
100
AcDbLinetypeTableRecord
  2
DASHED
 70
64
  3
- - - - - - - - - - - - - - - - - - - -
 72
65
 73
2
 40
0.2
 49
0.1
 74
0
 49
-0.1
 74
0
  0
ENDTAB
  0
TABLE
  2
LAYER
  5
2
100
AcDbSymbolTable
 70
36
  0
LAYER
  5
10
100
AcDbSymbolTableRecord
100
AcDbLayerTableRecord
  2
0
 70
0
 62
7
  6
CONTINUOUS
370
-3
390
F
  0
LAYER
  5
1FA
100
AcDbSymbolTableRecord
100
AcDbLayerTableRecord
  2
DEFAULT_1
 70
0
 62
7
  6
CENTER
370
-3
390
F
  0
LAYER
  5
1FB
100
AcDbSymbolTableRecord
100
AcDbLayerTableRecord
  2
DEFAULT_2
 70
0
 62
7
  6
HIDDEN
370
-3
390
F
  0
LAYER
  5
1FC
100
AcDbSymbolTableRecord
100
AcDbLayerTableRecord
  2
DEFAULT_3
 70
0
 62
7
  6
PHANTOM
370
-3
390
F
  0
LAYER
  5
1FD
100
AcDbSymbolTableRecord
100
AcDbLayerTableRecord
  2
ASSI
 70
0
 62
7
  6
CONTINUOUS
370
-3
390
F
  0
LAYER
  5
1FE
100
AcDbSymbolTableRecord
100
AcDbLayerTableRecord
  2
COORDINATE
 70
0
 62
7
  6
CONTINUOUS
370
-3
390
F
  0
LAYER
  5
1FF
100
AcDbSymbolTableRecord
100
AcDbLayerTableRecord
  2
COORD_ORIGINE
 70
0
 62
7
  6
CONTINUOUS
370
-3
390
F
  0
LAYER
  5
200
100
AcDbSymbolTableRecord
100
AcDbLayerTableRecord
  2
COPY_PUBLISH
 70
0
 62
7
  6
CONTINUOUS
370
-3
390
F
  0
LAYER
  5
201
100
AcDbSymbolTableRecord
100
AcDbLayerTableRecord
  2
COSMETIC
 70
0
 62
7
  6
CONTINUOUS
370
-3
390
F
  0
LAYER
  5
202
100
AcDbSymbolTableRecord
100
AcDbLayerTableRecord
  2
COSMETICI
 70
0
 62
7
  6
CONTINUOUS
370
-3
390
F
  0
LAYER
  5
203
100
AcDbSymbolTableRecord
100
AcDbLayerTableRecord
  2
CURVE
 70
0
 62
7
  6
CONTINUOUS
370
-3
390
F
  0
LAYER
  5
204
100
AcDbSymbolTableRecord
100
AcDbLayerTableRecord
  2
DRAFT
 70
0
 62
7
  6
CONTINUOUS
370
-3
390
F
  0
LAYER
  5
205
100
AcDbSymbolTableRecord
100
AcDbLayerTableRecord
  2
IGES
 70
0
 62
7
  6
CONTINUOUS
370
-3
390
F
  0
LAYER
  5
206
100
AcDbSymbolTableRecord
100
AcDbLayerTableRecord
  2
IMPORT_IGES
 70
0
 62
7
  6
CONTINUOUS
370
-3
390
F
  0
LAYER
  5
207
100
AcDbSymbolTableRecord
100
AcDbLayerTableRecord
  2
LIVELLO_1
 70
0
 62
7
  6
CONTINUOUS
370
-3
390
F
  0
LAYER
  5
208
100
AcDbSymbolTableRecord
100
AcDbLayerTableRecord
  2
NOTE
 70
0
 62
7
  6
CONTINUOUS
370
-3
390
F
  0
LAYER
  5
209
100
AcDbSymbolTableRecord
100
AcDbLayerTableRecord
  2
PIANI
 70
0
 62
7
  6
CONTINUOUS
370
-3
390
F
  0
LAYER
  5
20A
100
AcDbSymbolTableRecord
100
AcDbLayerTableRecord
  2
PIANI_ORIGINE
 70
0
 62
7
  6
CONTINUOUS
370
-3
390
F
  0
LAYER
  5
20B
100
AcDbSymbolTableRecord
100
AcDbLayerTableRecord
  2
PIANI_RIFERIMENTO
 70
0
 62
7
  6
CONTINUOUS
370
-3
390
F
  0
LAYER
  5
20C
100
AcDbSymbolTableRecord
100
AcDbLayerTableRecord
  2
PUNTI
 70
0
 62
7
  6
CONTINUOUS
370
-3
390
F
  0
LAYER
  5
20D
100
AcDbSymbolTableRecord
100
AcDbLayerTableRecord
  2
RACCORDO
 70
0
 62
7
  6
CONTINUOUS
370
-3
390
F
  0
LAYER
  5
20E
100
AcDbSymbolTableRecord
100
AcDbLayerTableRecord
  2
SIMBOLI
 70
0
 62
7
  6
CONTINUOUS
370
-3
390
F
  0
LAYER
  5
20F
100
AcDbSymbolTableRecord
100
AcDbLayerTableRecord
  2
SMUSSO
 70
0
 62
7
  6
CONTINUOUS
370
-3
390
F
  0
LAYER
  5
210
100
AcDbSymbolTableRecord
100
AcDbLayerTableRecord
  2
SNAPLINE
 70
0
 62
7
  6
CONTINUOUS
370
-3
390
F
  0
LAYER
  5
211
100
AcDbSymbolTableRecord
100
AcDbLayerTableRecord
  2
SUPERFICI
 70
0
 62
7
  6
CONTINUOUS
370
-3
390
F
  0
LAYER
  5
212
100
AcDbSymbolTableRecord
100
AcDbLayerTableRecord
  2
TRASH
 70
0
 62
7
  6
CONTINUOUS
370
-3
390
F
  0
LAYER
  5
213
100
AcDbSymbolTableRecord
100
AcDbLayerTableRecord
  2
WHITE
 70
0
 62
7
  6
CONTINUOUS
370
-3
390
F
  0
LAYER
  5
214
100
AcDbSymbolTableRecord
100
AcDbLayerTableRecord
  2
XSEC_DATUMS
 70
0
 62
7
  6
CONTINUOUS
370
-3
390
F
  0
ENDTAB
  0
TABLE
  2
STYLE
  5
3
100
AcDbSymbolTable
 70
1
  0
STYLE
  5
11
100
AcDbSymbolTableRecord
100
AcDbTextStyleTableRecord
  2
STANDARD
 70
0
 40
0.0
 41
0.8
 50
0.0
 71
0
 42
0.2
  3
txt
  4

  0
STYLE
  5
215
100
AcDbSymbolTableRecord
100
AcDbTextStyleTableRecord
  2
TEXTSTYLE_1
 70
0
 40
0.0
 41
0.8
 50
0.0
 71
0
 42
0.2
  3
gdt
  4

  0
ENDTAB
  0
TABLE
  2
VIEW
  5
6
100
AcDbSymbolTable
 70
0
  0
ENDTAB
  0
TABLE
  2
UCS
  5
7
100
AcDbSymbolTable
 70
0
  0
ENDTAB
  0
TABLE
  2
APPID
  5
9
100
AcDbSymbolTable
 70
1
  0
APPID
  5
216
100
AcDbSymbolTableRecord
100
AcDbRegAppTableRecord
  2
ACAD
 70
0
  0
ENDTAB
  0
TABLE
  2
BLOCK_RECORD
  5
1
100
AcDbSymbolTable
 70
0
  0
BLOCK_RECORD
  5
217
100
AcDbSymbolTableRecord
100
AcDbBlockTableRecord
  2
*Model_Space
  0
BLOCK_RECORD
  5
218
100
AcDbSymbolTableRecord
100
AcDbBlockTableRecord
  2
*Paper_Space
  0
ENDTAB
  0
TABLE
  2
DIMSTYLE
  5
A
100
AcDbSymbolTable
 70
1
100
AcDbDimStyleTable
 71
0
  0
DIMSTYLE
105
219
100
AcDbSymbolTableRecord
100
AcDbDimStyleTableRecord
  2
STANDARD
 70
0
  3

  4

 40
1.0
 41
3.0
 42
0.5
 43
0.38
 44
1.5
 45
0.0
 46
0.0
 47
0.01
 48
0.01
140
3.0
141
0.09
142
0.0
143
25.4
144
1.0
145
0.0
146
1.0
147
0.625
 71
1.0
 72
0.0
 73
0
 74
0
 75
0
 76
0
 77
1
 78
8
170
0
171
1
172
0
173
0
174
0
175
0
176
0
177
0
178
0
270
2
271
2
272
2
273
2
274
2
275
0
280
0
281
0
282
0
283
1
284
8
285
0
286
0
287
3
288
0
340
11
278
44
  0
ENDTAB
  0
ENDSEC
  0
SECTION
  2
BLOCKS
  0
BLOCK
  5
20
100
AcDbEntity
  8
0
100
AcDbBlockBegin
  2
*Model_Space
 70
0
 10
0.0
 20
0.0
 30
0.0
  3
*Model_Space
  1

  0
ENDBLK
  5
21
100
AcDbEntity
  8
0
100
AcDbBlockEnd
  0
BLOCK
  5
1C
100
AcDbEntity
  8
0
100
AcDbBlockBegin
  2
*Paper_Space
 70
0
 10
0.0
 20
0.0
 30
0.0
  3
*Paper_Space
  1

  0
ENDBLK
  5
1D
100
AcDbEntity
  8
0
100
AcDbBlockEnd
  0
ENDSEC
  0
SECTION
  2
ENTITIES
  0
LWPOLYLINE
  5
21A
100
AcDbEntity
  8
ASSI
100
AcDbPolyline
 62
7
  6
CONTINUOUS
 90
16
 70
0
 10
-9.0386782301
 20
21.4080689753
 10
-9.0896021793
 20
21.3730105268
 10
-9.192795036
 20
21.2924788381
 10
-9.2907432447
 20
21.2033394291
 10
-9.3832670757
 20
21.1063760812
 10
-9.4700933286
 20
21.0023300445
 10
-9.5507263244
 20
20.8921394654
 10
-9.6247699193
 20
20.7765926294
 10
-9.6918108093
 20
20.6564387043
 10
-9.7512541181
 20
20.5327445447
 10
-9.8026798716
 20
20.4062559281
 10
-9.8456259899
 20
20.2777243366
 10
-9.8795551233
 20
20.1480651249
 10
-9.9039808998
 20
20.017900933
 10
-9.9183321226
 20
19.8877967524
 10
-9.9212354712
 20
19.8321600139
  0
LINE
  5
21B
100
AcDbEntity
  8
ASSI
100
AcDbLine
 62
7
  6
CONTINUOUS
 10
-9.0389751225
 20
21.4078738575
 11
-6.2102384003
 21
23.2733991224
  0
LINE
  5
21C
100
AcDbEntity
  8
ASSI
100
AcDbLine
 62
253
  6
CONTINUOUS
 10
-8.7821936678
 20
21.387471309
 11
-5.9617218558
 21
23.2475459434
  0
LWPOLYLINE
  5
21D
100
AcDbEntity
  8
ASSI
100
AcDbPolyline
 62
253
  6
CONTINUOUS
 90
15
 70
0
 10
-9.0386783179
 20
21.4080691087
 10
-9.0238606217
 20
21.4166611727
 10
-9.0089502437
 20
21.4233000685
 10
-8.9932109883
 20
21.4284761114
 10
-8.9766960502
 20
21.4321718077
 10
-8.9594612459
 20
21.4343746669
 10
-8.9415648246
 20
21.4350772438
 10
-8.9230672718
 20
21.434277164
 10
-8.9040311047
 20
21.4319771314
 10
-8.8845206606
 20
21.4281849197
 10
-8.8646018801
 20
21.4229133455
 10
-8.8443420837
 20
21.4161802255
 10
-8.8238097444
 20
21.408008316
 10
-8.8030742564
 20
21.3984252358
 10
-8.7822057004
 20
21.3874633736
  0
LWPOLYLINE
  5
21E
100
AcDbEntity
  8
ASSI
100
AcDbPolyline
 62
7
  6
CONTINUOUS
 90
12
 70
0
 10
5.4557000949
 20
-23.2008814727
 10
5.4732143462
 20
-23.2107656386
 10
5.5577221998
 20
-23.2512302517
 10
5.6467652963
 20
-23.2823592831
 10
5.7396536073
 20
-23.3038265396
 10
5.8361972998
 20
-23.315408659
 10
5.9356747499
 20
-23.3167641652
 10
6.0373154312
 20
-23.3076533809
 10
6.1412038626
 20
-23.287755116
 10
6.2471035198
 20
-23.2566286731
 10
6.3542268131
 20
-23.2139851221
 10
6.4010415989
 20
-23.1917789415
  0
LINE
  5
21F
100
AcDbEntity
  8
ASSI
100
AcDbLine
 62
7
  6
CONTINUOUS
 10
5.4572088765
 20
-23.2017560675
 11
-9.4686492481
 21
-14.5837526512
  0
LINE
  5
220
100
AcDbEntity
  8
ASSI
100
AcDbLine
 62
253
  6
CONTINUOUS
 10
5.1438774738
 20
-22.5629012177
 11
-9.7747722895
 21
-13.9490598194
  0
LINE
  5
221
100
AcDbEntity
  8
ASSI
100
AcDbLine
 62
253
  6
CONTINUOUS
 10
-9.4727768482
 20
-14.5813424216
 11
-9.5023897144
 21
-14.562389203
  0
LWPOLYLINE
  5
222
100
AcDbEntity
  8
ASSI
100
AcDbPolyline
 62
253
  6
CONTINUOUS
 90
18
 70
0
 10
-9.5023897144
 20
-14.562389203
 10
-9.5306967793
 20
-14.5412764678
 10
-9.5576512314
 20
-14.5180393979
 10
-9.5832071167
 20
-14.492717651
 10
-9.6073210671
 20
-14.4653541336
 10
-9.6299537206
 20
-14.435994137
 10
-9.6510666135
 20
-14.4046873435
 10
-9.6706237207
 20
-14.3714867581
 10
-9.6885931141
 20
-14.3364474095
 10
-9.7049444723
 20
-14.2996278172
 10
-9.7196495097
 20
-14.2610906984
 10
-9.7326835914
 20
-14.2209019432
 10
-9.7440245689
 20
-14.1791301288
 10
-9.7536533774
 20
-14.1358452374
 10
-9.7615544201
 20
-14.0911193214
 10
-9.7677145027
 20
-14.045027452
 10
-9.7721229461
 20
-13.9976476693
 10
-9.7747722895
 20
-13.9490598194
  0
LINE
  5
223
100
AcDbEntity
  8
ASSI
100
AcDbLine
 62
7
  6
CONTINUOUS
 10
-3.9601313799
 20
22.0918526884
 11
-4.1402978263
 21
21.677827408
  0
LWPOLYLINE
  5
224
100
AcDbEntity
  8
ASSI
100
AcDbPolyline
 62
7
  6
CONTINUOUS
 90
12
 70
0
 10
-9.9211964799
 20
-13.7462272042
 10
-9.9126150051
 20
-13.8575509243
 10
-9.8946079825
 20
-13.9664012111
 10
-9.867916954
 20
-14.0682330125
 10
-9.8332700529
 20
-14.1625601958
 10
-9.79120218
 20
-14.24955783
 10
-9.7418958984
 20
-14.3297164316
 10
-9.6859569082
 20
-14.4025597026
 10
-9.6240179491
 20
-14.4677538633
 10
-9.5561337094
 20
-14.525489357
 10
-9.4827633973
 20
-14.5754136177
 10
-9.4673214638
 20
-14.5845164052
  0
LWPOLYLINE
  5
225
100
AcDbEntity
  8
ASSI
100
AcDbPolyline
 62
253
  6
CONTINUOUS
 90
15
 70
0
 10
-9.9211967548
 20
-13.7462272141
 10
-9.9209539407
 20
-13.7511284605
 10
-9.9190380457
 20
-13.768340844
 10
-9.9154758592
 20
-13.7854208087
 10
-9.9102791682
 20
-13.802311837
 10
-9.9034651686
 20
-13.8189580367
 10
-9.8950564079
 20
-13.8353043257
 10
-9.8850807106
 20
-13.8512966142
 10
-9.8735710863
 20
-13.8668819839
 10
-9.86056562
 20
-13.8820088629
 10
-9.8461073469
 20
-13.8966271965
 10
-9.8302441093
 20
-13.9106886127
 10
-9.8130283984
 20
-13.9241465825
 10
-9.7945171809
 20
-13.9369565735
 10
-9.7747717103
 20
-13.9490761976
  0
LWPOLYLINE
  5
226
100
AcDbEntity
  8
ASSI
100
AcDbPolyline
 62
7
  6
CONTINUOUS
 90
9
 70
0
 10
-10.2150162887
 20
3.1584898372
 10
-10.2139291795
 20
3.1332381833
 10
-10.2067620556
 20
3.0888771834
 10
-10.1926877979
 20
3.0449104385
 10
-10.1713839184
 20
3.0018401271
 10
-10.1430625214
 20
2.9610104727
 10
-10.1080755542
 20
2.9232880021
 10
-10.0666166029
 20
2.8891284265
 10
-10.027363708
 20
2.8637474072
  0
LWPOLYLINE
  5
227
100
AcDbEntity
  8
ASSI
100
AcDbPolyline
 62
253
  6
CONTINUOUS
 90
13
 70
0
 10
-9.7747722978
 20
-13.9490598147
 10
-9.8209296481
 20
-12.6024867184
 10
-9.8631466239
 20
-11.2534127895
 10
-9.901423
 20
-9.9018535047
 10
-9.9357583621
 20
-8.5478340327
 10
-9.9661528679
 20
-7.1913602707
 10
-9.9926069619
 20
-5.8324186694
 10
-10.0151207592
 20
-4.4710251949
 10
-10.0336935939
 20
-3.1071947615
 10
-10.048324271
 20
-1.7409119621
 10
-10.0590119889
 20
-0.3721818259
 10
-10.0657566485
 20
0.9989699976
 10
-10.0685578987
 20
2.3725281073
  0
LWPOLYLINE
  5
228
100
AcDbEntity
  8
ASSI
100
AcDbPolyline
 62
253
  6
CONTINUOUS
 90
17
 70
0
 10
-10.2150163079
 20
3.1584935474
 10
-10.2149974706
 20
3.156257627
 10
-10.2141013363
 20
3.1413987596
 10
-10.2118672685
 20
3.1265823778
 10
-10.2083012908
 20
3.1118479617
 10
-10.2034130562
 20
3.0972352967
 10
-10.1972156684
 20
3.0827835734
 10
-10.1897255638
 20
3.0685308855
 10
-10.1809623973
 20
3.0545150146
 10
-10.1709498564
 20
3.0407742486
 10
-10.1597157652
 20
3.0273464087
 10
-10.1472914608
 20
3.0142684254
 10
-10.1337096996
 20
3.0015743746
 10
-10.1190050653
 20
2.9892964409
 10
-10.1032160225
 20
2.9774670787
 10
-10.0863853246
 20
2.9661187425
 10
-10.0685578969
 20
2.9552819712
  0
LWPOLYLINE
  5
229
100
AcDbEntity
  8
ASSI
100
AcDbPolyline
 62
7
  6
CONTINUOUS
 90
10
 70
0
 10
-10.2150164996
 20
2.5772320341
 10
-10.2106089344
 20
0.7937250807
 10
-10.1990506532
 20
-1.0472125592
 10
-10.180375216
 20
-2.883825018
 10
-10.1545829656
 20
-4.7160737541
 10
-10.1216743453
 20
-6.5439225646
 10
-10.0816499103
 20
-8.3673359607
 10
-10.0345103374
 20
-10.1862778728
 10
-9.9802565137
 20
-12.0007097525
 10
-9.921197793
 20
-13.7461982576
  0
LWPOLYLINE
  5
22A
100
AcDbEntity
  8
ASSI
100
AcDbPolyline
 62
253
  6
CONTINUOUS
 90
13
 70
0
 10
-10.0685578988
 20
2.9552819643
 10
-10.0657566486
 20
4.3322019
 10
-10.0590119889
 20
5.7114278573
 10
-10.048324271
 20
7.0929440297
 10
-10.0336935939
 20
8.4767236652
 10
-10.0151207592
 20
9.8627617969
 10
-9.9926069619
 20
11.2510754167
 10
-9.9661528679
 20
12.6416498289
 10
-9.9357583621
 20
14.034468213
 10
-9.901423
 20
15.4295446317
 10
-9.8631466239
 20
16.8268733705
 10
-9.8209296481
 20
18.2264287818
 10
-9.7747722978
 20
19.6281951289
  0
LWPOLYLINE
  5
22B
100
AcDbEntity
  8
ASSI
100
AcDbPolyline
 62
253
  6
CONTINUOUS
 90
22
 70
0
 10
-10.0685695467
 20
2.3725348327
 10
-10.0681856302
 20
2.3848976836
 10
-10.067020996
 20
2.3976447474
 10
-10.0650820912
 20
2.4107054621
 10
-10.0623796487
 20
2.4240075298
 10
-10.0589286284
 20
2.4374773163
 10
-10.0547481337
 20
2.4510402583
 10
-10.0498613063
 20
2.4646212776
 10
-10.0442951976
 20
2.4781451963
 10
-10.0380806194
 20
2.4915371517
 10
-10.0312519731
 20
2.5047230123
 10
-10.0238470592
 20
2.5176297877
 10
-10.0159068681
 20
2.5301860319
 10
-10.0074753533
 20
2.5423222396
 10
-9.998599188
 20
2.5539712311
 10
-9.9893275067
 20
2.5650685231
 10
-9.9797116331
 20
2.5755526869
 10
-9.9698047964
 20
2.5853656876
 10
-9.959661836
 20
2.5944532057
 10
-9.9493388987
 20
2.6027649376
 10
-9.9388931272
 20
2.6102548743
 10
-9.9283823441
 20
2.6168815557
  0
LWPOLYLINE
  5
22C
100
AcDbEntity
  8
ASSI
100
AcDbPolyline
 62
7
  6
CONTINUOUS
 90
10
 70
0
 10
-9.9212234569
 20
19.8325310482
 10
-9.980445466
 20
18.0110916991
 10
-10.0346725484
 20
16.1319926456
 10
-10.0817867097
 20
14.2568662589
 10
-10.1217868906
 20
12.3857522348
 10
-10.1546722403
 20
10.518687565
 10
-10.1804420307
 20
8.6557085228
 10
-10.1990956454
 20
6.7968519492
 10
-10.2106325689
 20
4.9421569064
 10
-10.2150165003
 20
3.1588643723
  0
LWPOLYLINE
  5
22D
100
AcDbEntity
  8
ASSI
100
AcDbPolyline
 62
253
  6
CONTINUOUS
 90
37
 70
0
 10
-9.7747722896
 20
19.6281951243
 10
-9.7721229461
 20
19.6799148935
 10
-9.7677145028
 20
19.7325052492
 10
-9.7615544202
 20
19.7858777301
 10
-9.7536533775
 20
19.8399423987
 10
-9.7440245691
 20
19.8946085125
 10
-9.7326835916
 20
19.9497847046
 10
-9.71964951
 20
20.0053792193
 10
-9.7049444726
 20
20.0612976611
 10
-9.6885931144
 20
20.1174436618
 10
-9.670623721
 20
20.1737220558
 10
-9.6510666139
 20
20.2300390942
 10
-9.629953721
 20
20.2863002053
 10
-9.6073210675
 20
20.3424109914
 10
-9.5832071172
 20
20.3982771447
 10
-9.5576512319
 20
20.4538046216
 10
-9.5306967798
 20
20.5089006315
 10
-9.502389715
 20
20.5634722538
 10
-9.4727768488
 20
20.6174263632
 10
-9.4419086956
 20
20.6706724825
 10
-9.4098377598
 20
20.7231212512
 10
-9.3766171244
 20
20.7746830701
 10
-9.3423037175
 20
20.8252712095
 10
-9.3069557323
 20
20.8748012202
 10
-9.270630944
 20
20.9231893963
 10
-9.2333912949
 20
20.9703546797
 10
-9.1953001572
 20
21.0162180546
 10
-9.1564197301
 20
21.0607018998
 10
-9.1168156663
 20
21.1037323641
 10
-9.0765559502
 20
21.145236663
 10
-9.0357081682
 20
21.1851425666
 10
-8.994342752
 20
21.2233827571
 10
-8.9525294234
 20
21.2598941715
 10
-8.910336054
 20
21.2946152296
 10
-8.8678333915
 20
21.3274877022
 10
-8.8250949689
 20
21.3584569357
 10
-8.7821935957
 20
21.3874712673
  0
LINE
  5
22E
100
AcDbEntity
  8
ASSI
100
AcDbLine
 62
253
  6
CONTINUOUS
 10
-10.0130308805
 20
2.7655370333
 11
-10.010363562
 21
2.7744554355
  0
LWPOLYLINE
  5
22F
100
AcDbEntity
  8
ASSI
100
AcDbPolyline
 62
253
  6
CONTINUOUS
 90
7
 70
0
 10
-10.010363562
 20
2.7744554355
 10
-10.0069019234
 20
2.7833093376
 10
-10.0026736311
 20
2.7920280451
 10
-9.9976722833
 20
2.8006107206
 10
-9.9919042818
 20
2.8090582015
 10
-9.9854164987
 20
2.8173023052
 10
-9.9782028791
 20
2.825341418
  0
LWPOLYLINE
  5
230
100
AcDbEntity
  8
ASSI
100
AcDbPolyline
 62
253
  6
CONTINUOUS
 90
12
 70
0
 10
-10.0685695467
 20
2.9552886896
 10
-10.0681856311
 20
2.9433691923
 10
-10.0670209999
 20
2.9319670329
 10
-10.0650820999
 20
2.9211453283
 10
-10.0623796639
 20
2.9109639823
 10
-10.0589286513
 20
2.9014793541
 10
-10.0547481653
 20
2.8927439459
 10
-10.0498613471
 20
2.8848061128
 10
-10.0442952477
 20
2.8777097948
 10
-10.0380806784
 20
2.8714942738
 10
-10.03125204
 20
2.8661939559
 10
-10.0273639342
 20
2.8637470167
  0
LWPOLYLINE
  5
231
100
AcDbEntity
  8
ASSI
100
AcDbPolyline
 62
253
  6
CONTINUOUS
 90
15
 70
0
 10
-9.9212354712
 20
19.8321600139
 10
-9.9209536647
 20
19.8168002865
 10
-9.9190377596
 20
19.800885614
 10
-9.9154755643
 20
19.7850189306
 10
-9.9102788663
 20
19.7692527392
 10
-9.9034648612
 20
19.7536392098
 10
-9.8950560967
 20
19.7382300074
 10
-9.8850803971
 20
19.7230761209
 10
-9.873570772
 20
19.7082276944
 10
-9.8605653066
 20
19.6937338611
 10
-9.8461070359
 20
19.679642581
 10
-9.830243802
 20
19.666000482
 10
-9.8130280963
 20
19.6528527056
 10
-9.7945168853
 20
19.6402427576
 10
-9.7747714224
 20
19.6282123643
  0
LWPOLYLINE
  5
232
100
AcDbEntity
  8
ASSI
100
AcDbPolyline
 62
7
  6
CONTINUOUS
 90
8
 70
0
 10
-10.1013830201
 20
2.8206016111
 10
-10.1319005386
 20
2.7896702988
 10
-10.15790689
 20
2.7563898598
 10
-10.1791940057
 20
2.7211385376
 10
-10.1954778881
 20
2.6846761842
 10
-10.206747119
 20
2.6476950297
 10
-10.2131825019
 20
2.6106286763
 10
-10.2150163155
 20
2.5770769786
  0
LINE
  5
233
100
AcDbEntity
  8
ASSI
100
AcDbLine
 62
253
  6
CONTINUOUS
 10
-9.9782028791
 20
2.825341418
 11
-9.9718005689
 21
2.8316649114
  0
LINE
  5
234
100
AcDbEntity
  8
ASSI
100
AcDbLine
 62
7
  6
CONTINUOUS
 10
-10.0664275489
 20
2.8489971061
 11
-10.1013830201
 21
2.8206016111
  0
LWPOLYLINE
  5
235
100
AcDbEntity
  8
CURVE
100
AcDbPolyline
 62
253
  6
CONTINUOUS
 90
69
 70
0
 10
-4.7227179125
 20
-9.4853779024
 10
-4.7258076898
 20
-9.4816707259
 10
-4.7289654588
 20
-9.4780072983
 10
-4.7321929691
 20
-9.4743866245
 10
-4.7354919707
 20
-9.4708077094
 10
-4.7388642132
 20
-9.4672695578
 10
-4.7423114463
 20
-9.4637711746
 10
-4.7458354199
 20
-9.4603115647
 10
-4.7489829195
 20
-9.4573165582
 10
-4.7521898619
 20
-9.4543565776
 10
-4.7554555958
 20
-9.4514377253
 10
-4.75877947
 20
-9.4485661032
 10
-4.7621608332
 20
-9.4457478136
 10
-4.7655990342
 20
-9.4429889585
 10
-4.7690934216
 20
-9.4402956401
 10
-4.7726433443
 20
-9.4376739605
 10
-4.7762463676
 20
-9.4351316649
 10
-4.7798929235
 20
-9.4326830705
 10
-4.7835716606
 20
-9.4303441376
 10
-4.7872712276
 20
-9.4281308266
 10
-4.7902393383
 20
-9.4264610264
 10
-4.7932142306
 20
-9.4248880637
 10
-4.7961966197
 20
-9.4234181634
 10
-4.799187221
 20
-9.4220575503
 10
-4.8021867498
 20
-9.4208124495
 10
-4.8046924272
 20
-9.4198683122
 10
-4.8071976217
 20
-9.4190166209
 10
-4.809695154
 20
-9.4182652821
 10
-4.812177845
 20
-9.4176222021
 10
-4.8146385152
 20
-9.4170952872
 10
-4.8170699854
 20
-9.416692444
 10
-4.8194659193
 20
-9.4164208463
 10
-4.8218233525
 20
-9.4162847389
 10
-4.8241401636
 20
-9.416287634
 10
-4.8264142312
 20
-9.4164330437
 10
-4.8286434338
 20
-9.4167244804
 10
-4.8308256501
 20
-9.4171654563
 10
-4.8329586755
 20
-9.4177582252
 10
-4.8350399742
 20
-9.4185000068
 10
-4.8370669268
 20
-9.4193867625
 10
-4.8390369145
 20
-9.4204144536
 10
-4.8409473181
 20
-9.4215790415
 10
-4.8427955186
 20
-9.4228764875
 10
-4.8445791576
 20
-9.4243022461
 10
-4.8462969199
 20
-9.4258497442
 10
-4.847947751
 20
-9.4275119019
 10
-4.8495305962
 20
-9.4292816392
 10
-4.8510444011
 20
-9.4311518763
 10
-4.8524881112
 20
-9.4331155332
 10
-4.8541273269
 20
-9.4355864768
 10
-4.8556669074
 20
-9.4381767737
 10
-4.8571096727
 20
-9.4408814479
 10
-4.8584584427
 20
-9.4436955234
 10
-4.8597160373
 20
-9.446614024
 10
-4.8608847126
 20
-9.449630847
 10
-4.8619644691
 20
-9.4527353829
 10
-4.8629547433
 20
-9.4559158954
 10
-4.8638549718
 20
-9.4591606482
 10
-4.8646645912
 20
-9.4624579052
 10
-4.8653835457
 20
-9.4657971809
 10
-4.8660138111
 20
-9.4691729934
 10
-4.8665578707
 20
-9.4725811117
 10
-4.867018208
 20
-9.4760173047
 10
-4.8673973062
 20
-9.4794773413
 10
-4.8676969644
 20
-9.4829602559
 10
-4.8679162428
 20
-9.4864781447
 10
-4.8680535174
 20
-9.4900463691
 10
-4.8681071639
 20
-9.4936802907
 10
-4.8680755583
 20
-9.497395271
  0
LWPOLYLINE
  5
236
100
AcDbEntity
  8
CURVE
100
AcDbPolyline
 62
253
  6
CONTINUOUS
 90
68
 70
0
 10
-2.6541167938
 20
-10.6797622626
 10
-2.6572082063
 20
-10.6760485748
 10
-2.6603676839
 20
-10.6723794408
 10
-2.6635969794
 20
-10.6687538247
 10
-2.6668978461
 20
-10.6651706905
 10
-2.670272037
 20
-10.6616290021
 10
-2.6737213053
 20
-10.6581277236
 10
-2.6772474039
 20
-10.6546658189
 10
-2.6803968326
 20
-10.6516692732
 10
-2.6836057372
 20
-10.6487082049
 10
-2.6868734283
 20
-10.6457887389
 10
-2.6901992161
 20
-10.6429170003
 10
-2.6935824113
 20
-10.6400991141
 10
-2.6970223243
 20
-10.6373412052
 10
-2.7005182655
 20
-10.6346493986
 10
-2.7040695454
 20
-10.6320298193
 10
-2.7076736981
 20
-10.6294902254
 10
-2.711321152
 20
-10.6270449071
 10
-2.7150005594
 20
-10.6247097878
 10
-2.7187005724
 20
-10.6225007909
 10
-2.7216688751
 20
-10.620834779
 10
-2.7246437851
 20
-10.6192658919
 10
-2.7276259846
 20
-10.6178003451
 10
-2.7306161559
 20
-10.6164443539
 10
-2.7336149813
 20
-10.6152041341
 10
-2.7361198466
 20
-10.6142642514
 10
-2.7386240369
 20
-10.613416959
 10
-2.7411203939
 20
-10.6126701341
 10
-2.7436017589
 20
-10.6120316537
 10
-2.7460609734
 20
-10.6115093952
 10
-2.7484908789
 20
-10.6111112357
 10
-2.7508851592
 20
-10.6108443107
 10
-2.7532408674
 20
-10.6107127891
 10
-2.7555558989
 20
-10.6107200978
 10
-2.7578281492
 20
-10.6108696641
 10
-2.7600555138
 20
-10.6111649148
 10
-2.7622358879
 20
-10.6116092773
 10
-2.7643670854
 20
-10.6122049359
 10
-2.7664465926
 20
-10.6129491051
 10
-2.7684718142
 20
-10.613837757
 10
-2.770440155
 20
-10.6148668634
 10
-2.7723490195
 20
-10.6160323963
 10
-2.7741958125
 20
-10.6173303276
 10
-2.7759781943
 20
-10.618756126
 10
-2.7776948476
 20
-10.6203032467
 10
-2.7793447109
 20
-10.6219646417
 10
-2.7809267225
 20
-10.6237332631
 10
-2.7824398207
 20
-10.6256020627
 10
-2.7838829441
 20
-10.6275639926
 10
-2.7855216041
 20
-10.6300325229
 10
-2.7870607789
 20
-10.6326200696
 10
-2.7885032756
 20
-10.6353216904
 10
-2.7898519016
 20
-10.6381324432
 10
-2.7911094642
 20
-10.6410473859
 10
-2.7922782073
 20
-10.644060456
 10
-2.7933581221
 20
-10.6471611094
 10
-2.794348636
 20
-10.6503376818
 10
-2.7952491768
 20
-10.6535785087
 10
-2.7960591722
 20
-10.6568719257
 10
-2.7969444526
 20
-10.6610473053
 10
-2.7976921696
 20
-10.66527839
 10
-2.7983071312
 20
-10.6695569387
 10
-2.7987941455
 20
-10.67387471
 10
-2.7990941838
 20
-10.6773548845
 10
-2.7993137813
 20
-10.6808701993
 10
-2.7994513065
 20
-10.6844359668
 10
-2.7995051278
 20
-10.688067499
 10
-2.7994736136
 20
-10.6917801082
  0
LWPOLYLINE
  5
237
100
AcDbEntity
  8
CURVE
100
AcDbPolyline
 62
253
  6
CONTINUOUS
 90
49
 70
0
 10
-2.2831713159
 20
9.6259703745
 10
-2.266732124
 20
9.652305585
 10
-2.2494229839
 20
9.6774806265
 10
-2.2312559298
 20
9.7015024051
 10
-2.212242996
 20
9.724377827
 10
-2.1923953071
 20
9.7461095264
 10
-2.1717203491
 20
9.7666830508
 10
-2.1502246984
 20
9.7860796757
 10
-2.1279149315
 20
9.8042806766
 10
-2.1048013753
 20
9.8212660241
 10
-2.0809093594
 20
9.8370104679
 10
-2.056267964
 20
9.8514874529
 10
-2.0309062692
 20
9.8646704238
 10
-2.0048549919
 20
9.8765371807
 10
-1.9781513957
 20
9.887082944
 10
-1.9508343811
 20
9.8963072897
 10
-1.9229428485
 20
9.9042097934
 10
-1.8945120973
 20
9.9107889402
 10
-1.8655630236
 20
9.9160388519
 10
-1.8361129224
 20
9.9199525595
 10
-1.806179089
 20
9.9225230939
 10
-1.7757788183
 20
9.9237434863
 10
-1.7449294055
 20
9.9236067675
 10
-1.7136481457
 20
9.9221059686
 10
-1.681952334
 20
9.9192341206
 10
-1.6498624476
 20
9.9149869682
 10
-1.6174116926
 20
9.9093711112
 10
-1.5846364571
 20
9.902395863
 10
-1.551573129
 20
9.894070537
 10
-1.5182580967
 20
9.8844044467
 10
-1.4847277481
 20
9.8734069056
 10
-1.4510184714
 20
9.8610872271
 10
-1.4171666547
 20
9.8474547247
 10
-1.3832096284
 20
9.8325223755
 10
-1.3491884916
 20
9.8163178115
 10
-1.3151452856
 20
9.7988723281
 10
-1.2811220518
 20
9.780217221
 10
-1.2471608316
 20
9.7603837858
 10
-1.2133036664
 20
9.739403318
 10
-1.1795925975
 20
9.7173071133
 10
-1.1460696662
 20
9.6941264673
 10
-1.1127680908
 20
9.669884456
 10
-1.0796857966
 20
9.6445712781
 10
-1.0468118857
 20
9.6181689127
 10
-1.0141354604
 20
9.590659339
 10
-0.9816456228
 20
9.5620245361
 10
-0.949331475
 20
9.5322464831
 10
-0.9171821192
 20
9.5013071593
 10
-0.8851866575
 20
9.4691885436
  0
LINE
  5
238
100
AcDbEntity
  8
ASSI
100
AcDbLine
 62
7
  6
CONTINUOUS
 10
-10.0347980934
 20
2.8700598546
 11
-10.0664275489
 21
2.8489971061
  0
LWPOLYLINE
  5
239
100
AcDbEntity
  8
ASSI
100
AcDbPolyline
 62
253
  6
CONTINUOUS
 90
37
 70
0
 10
6.1598288693
 20
12.7601347642
 10
6.115914417
 20
12.731705372
 10
6.0721701766
 20
12.7013168853
 10
6.0286689575
 20
12.6690209671
 10
5.9854826538
 20
12.6348732168
 10
5.9426836521
 20
12.5989309177
 10
5.9003447407
 20
12.5612528111
 10
5.8585356683
 20
12.5219019445
 10
5.8173268397
 20
12.4809456513
 10
5.7767906776
 20
12.438453369
 10
5.7369952772
 20
12.3944978178
 10
5.6980061803
 20
12.3491529134
 10
5.6598900894
 20
12.3024936764
 10
5.6227104801
 20
12.2545990632
 10
5.5865291915
 20
12.2055501916
 10
5.5514081917
 20
12.1554283461
 10
5.5174057999
 20
12.1043179036
 10
5.4845788183
 20
12.0523056662
 10
5.4529841463
 20
11.9994790298
 10
5.4226744386
 20
11.945927268
 10
5.3937000591
 20
11.8917409447
 10
5.3661111853
 20
11.837011242
 10
5.3399539409
 20
11.7818309822
 10
5.3152715244
 20
11.7262930541
 10
5.2921061537
 20
11.6704898523
 10
5.270496473
 20
11.6145155802
 10
5.2504783271
 20
11.5584647397
 10
5.2320859593
 20
11.5024305659
 10
5.2153498769
 20
11.4465067001
 10
5.2002981795
 20
11.3907884155
 10
5.1869572599
 20
11.3353710651
 10
5.1753494761
 20
11.2803489235
 10
5.1654936834
 20
11.2258138677
 10
5.1574066074
 20
11.1718566122
 10
5.151101819
 20
11.1185676826
 10
5.1465896209
 20
11.0660372333
 10
5.1438774738
 20
11.0143537259
  0
LWPOLYLINE
  5
23A
100
AcDbEntity
  8
ASSI
100
AcDbPolyline
 62
253
  6
CONTINUOUS
 90
37
 70
0
 10
6.5256492207
 20
12.1554661954
 10
6.4961331431
 20
12.1365563794
 10
6.4668257198
 20
12.116410497
 10
6.4377269507
 20
12.0950285481
 10
6.4087879382
 20
12.0723700781
 10
6.3800575798
 20
12.0484755416
 10
6.3516825689
 20
12.0234663028
 10
6.3236650277
 20
11.9973367803
 10
6.296002834
 20
11.9700925553
 10
6.2688363134
 20
11.9418717362
 10
6.2421683979
 20
11.9126697695
 10
6.2159961557
 20
11.8824912085
 10
6.1904511169
 20
11.8514878222
 10
6.1655364007
 20
11.8196554574
 10
6.1412488879
 20
11.7869982672
 10
6.1177107516
 20
11.7536804791
 10
6.094925622
 20
11.7196985274
 10
6.0728898688
 20
11.6850559779
 10
6.0517147735
 20
11.6499277557
 10
6.0314047288
 20
11.6143114083
 10
6.0119553421
 20
11.5782093883
 10
5.9934647173
 20
11.5418039784
 10
5.9759378226
 20
11.5050939084
 10
5.9593696899
 20
11.4680804485
 10
5.943843519
 20
11.4309496926
 10
5.9293645256
 20
11.3937010818
 10
5.915927494
 20
11.3563351748
 10
5.9035999762
 20
11.3190397422
 10
5.8923874592
 20
11.2818145844
 10
5.882284456
 20
11.2446599009
 10
5.8733420584
 20
11.2077640601
 10
5.8655662234
 20
11.1711277626
 10
5.8589509939
 20
11.1347503079
 10
5.8535295908
 20
11.098817963
 10
5.8493130879
 20
11.0633928171
 10
5.8462904114
 20
11.0284127811
 10
5.8444615613
 20
10.9938778551
  0
LINE
  5
23B
100
AcDbEntity
  8
ASSI
100
AcDbLine
 62
253
  6
CONTINUOUS
 10
9.0805130013
 20
14.5623480604
 11
6.1598289413
 21
12.7601347226
  0
LINE
  5
23C
100
AcDbEntity
  8
ASSI
100
AcDbLine
 62
253
  6
CONTINUOUS
 10
9.465139796
 20
13.9692841272
 11
6.5256492207
 21
12.1554661954
  0
LWPOLYLINE
  5
23D
100
AcDbEntity
  8
ASSI
100
AcDbPolyline
 62
253
  6
CONTINUOUS
 90
28
 70
0
 10
5.8444615613
 20
10.9938778551
 10
5.8232233748
 20
10.9836654352
 10
5.8009061559
 20
10.9741739828
 10
5.7775837521
 20
10.965434905
 10
5.753333337
 20
10.9574771193
 10
5.728235155
 20
10.950326958
 10
5.7023722558
 20
10.9440080809
 10
5.6758302196
 20
10.9385413972
 10
5.6486968736
 20
10.933944996
 10
5.621062002
 20
10.9302340867
 10
5.5930170483
 20
10.9274209489
 10
5.564654813
 20
10.925514891
 10
5.5360691465
 20
10.9245222203
 10
5.5073546386
 20
10.9244462214
 10
5.4786063052
 20
10.9252871459
 10
5.4499192745
 20
10.9270422112
 10
5.4213884716
 20
10.9297056097
 10
5.3931083046
 20
10.9332685282
 10
5.3651723524
 20
10.9377191772
 10
5.3376730548
 20
10.9430428295
 10
5.3107014069
 20
10.9492218691
 10
5.2843466574
 20
10.9562358496
 10
5.2586960142
 20
10.9640615619
 10
5.2338343549
 20
10.9726731106
 10
5.2098439465
 20
10.9820420004
 10
5.1868041733
 20
10.9921372296
 10
5.1647912734
 20
11.0029253931
 10
5.1438780876
 20
11.014370793
  0
LWPOLYLINE
  5
23E
100
AcDbEntity
  8
RACCORDO
100
AcDbPolyline
 62
253
  6
CONTINUOUS
 90
8
 70
0
 10
-2.4134447051
 20
-6.2048623121
 10
-2.3284104836
 20
-6.2377532893
 10
-2.2454119935
 20
-6.2588770093
 10
-2.1654522921
 20
-6.2679818238
 10
-2.0894635791
 20
-6.2649670201
 10
-2.0183043904
 20
-6.2498589494
 10
-1.9524372923
 20
-6.2226099878
 10
-1.8931318581
 20
-6.1835831558
  0
LWPOLYLINE
  5
23F
100
AcDbEntity
  8
RACCORDO
100
AcDbPolyline
 62
7
  6
CONTINUOUS
 90
9
 70
0
 10
-2.3997096293
 20
-6.2391660403
 10
-2.3209109658
 20
-6.2720462412
 10
-2.2433182813
 20
-6.2960674541
 10
-2.1671992494
 20
-6.3112183417
 10
-2.0932188765
 20
-6.3174166764
 10
-2.0224485296
 20
-6.3147493915
 10
-1.9555437952
 20
-6.3035655281
 10
-1.8927530144
 20
-6.2842474959
 10
-1.8345081842
 20
-6.2572504593
  0
LINE
  5
240
100
AcDbEntity
  8
RACCORDO
100
AcDbLine
 62
253
  6
CONTINUOUS
 10
-2.4995038028
 20
-6.1605942167
 11
-2.4134447051
 21
-6.2048623121
  0
LINE
  5
241
100
AcDbEntity
  8
RACCORDO
100
AcDbLine
 62
7
  6
CONTINUOUS
 10
-2.4792388768
 20
-6.1974953565
 11
-2.3997096293
 21
-6.2391660403
  0
LWPOLYLINE
  5
242
100
AcDbEntity
  8
CURVE
100
AcDbPolyline
 62
253
  6
CONTINUOUS
 90
69
 70
0
 10
-4.8098089847
 20
-12.0629587914
 10
-4.8096585924
 20
-12.0669585097
 10
-4.8094090796
 20
-12.0710418247
 10
-4.8090595288
 20
-12.0752109389
 10
-4.8086090227
 20
-12.0794680546
 10
-4.8080566439
 20
-12.0838153742
 10
-4.8074014751
 20
-12.0882551002
 10
-4.8066425989
 20
-12.0927894349
 10
-4.80589222
 20
-12.0968359043
 10
-4.8050577119
 20
-12.1009554887
 10
-4.8041350489
 20
-12.1051471821
 10
-4.8031202051
 20
-12.1094099782
 10
-4.8020091546
 20
-12.1137428712
 10
-4.8007978718
 20
-12.1181448549
 10
-4.7994823307
 20
-12.1226149232
 10
-4.7980585055
 20
-12.1271520702
 10
-4.7965228348
 20
-12.1317530033
 10
-4.7948736142
 20
-12.1364052849
 10
-4.793109604
 20
-12.1410941909
 10
-4.7912295642
 20
-12.1458049971
 10
-4.7896403556
 20
-12.1495808879
 10
-4.7879706468
 20
-12.1533620662
 10
-4.7862149901
 20
-12.1571492266
 10
-4.7843679378
 20
-12.1609430639
 10
-4.782424042
 20
-12.1647442727
 10
-4.7807268938
 20
-12.1679164705
 10
-4.7789595935
 20
-12.1710850216
 10
-4.7771230245
 20
-12.1742406776
 10
-4.7752180704
 20
-12.1773741903
 10
-4.7732456146
 20
-12.1804763114
 10
-4.7712065404
 20
-12.1835377925
 10
-4.7691014731
 20
-12.1865504593
 10
-4.7669300044
 20
-12.1895104327
 10
-4.7646914681
 20
-12.1924149076
 10
-4.7623851976
 20
-12.195261079
 10
-4.7600105265
 20
-12.1980461417
 10
-4.7575667885
 20
-12.2007672907
 10
-4.7550543601
 20
-12.2034216641
 10
-4.7524777897
 20
-12.2060061738
 10
-4.7498426687
 20
-12.2085176748
 10
-4.7471545887
 20
-12.2109530221
 10
-4.744419141
 20
-12.213309071
 10
-4.741641917
 20
-12.2155826765
 10
-4.7388286421
 20
-12.2177710383
 10
-4.7359855772
 20
-12.2198727351
 10
-4.7331191171
 20
-12.22188669
 10
-4.7302356567
 20
-12.2238118263
 10
-4.7273415909
 20
-12.2256470672
 10
-4.7244433144
 20
-12.227391336
 10
-4.720967172
 20
-12.2293637797
 10
-4.7174952861
 20
-12.2312073358
 10
-4.7140287678
 20
-12.2329256672
 10
-4.7105687285
 20
-12.2345224367
 10
-4.7071162792
 20
-12.2360013073
 10
-4.703673928
 20
-12.2373652771
 10
-4.7002497702
 20
-12.2386146864
 10
-4.6968532978
 20
-12.2397492103
 10
-4.6934940027
 20
-12.2407685245
 10
-4.6901813771
 20
-12.2416723043
 10
-4.6869234848
 20
-12.2424608143
 10
-4.6837226774
 20
-12.2431366766
 10
-4.680579878
 20
-12.243703102
 10
-4.67749601
 20
-12.2441633018
 10
-4.6744719968
 20
-12.2445204871
 10
-4.6715069017
 20
-12.2447768938
 10
-4.6685923481
 20
-12.2449308578
 10
-4.6657180996
 20
-12.2449797398
 10
-4.6628739197
 20
-12.2449209005
 10
-4.660049572
 20
-12.2447517006
  0
LWPOLYLINE
  5
243
100
AcDbEntity
  8
CURVE
100
AcDbPolyline
 62
253
  6
CONTINUOUS
 90
3
 70
0
 10
-4.8680755583
 20
-9.497395271
 10
-4.8379173515
 20
-10.9045654956
 10
-4.8098089843
 20
-12.062958807
  0
LWPOLYLINE
  5
244
100
AcDbEntity
  8
RACCORDO
100
AcDbPolyline
 62
253
  6
CONTINUOUS
 90
42
 70
0
 10
-2.5855622063
 20
-4.290619583
 10
-2.6705960328
 20
-4.2577283777
 10
-2.7535944271
 20
-4.2366046024
 10
-2.8335544896
 20
-4.2274999964
 10
-2.9095438629
 20
-4.2305151813
 10
-2.9807035377
 20
-4.2456235328
 10
-3.0465707148
 20
-4.2728725399
 10
-3.1058760537
 20
-4.3118993169
 10
-3.1570178901
 20
-4.3612453123
 10
-3.1998037916
 20
-4.419786013
 10
-3.2341531455
 20
-4.4863259593
 10
-3.2596747914
 20
-4.5580998064
 10
-3.2768867639
 20
-4.6328151078
 10
-3.2867614687
 20
-4.7096310771
 10
-3.2900744796
 20
-4.787728542
 10
-3.2875287395
 20
-4.8660286017
 10
-3.2798424088
 20
-4.9436162921
 10
-3.2676287471
 20
-5.0202390601
 10
-3.2514870441
 20
-5.0952857081
 10
-3.2320170706
 20
-5.1681735893
 10
-3.2096402427
 20
-5.2388999791
 10
-3.1848298118
 20
-5.3071332782
 10
-3.1580590296
 20
-5.3725479583
 10
-3.1296015587
 20
-5.4352623767
 10
-3.0998221824
 20
-5.4951102052
 10
-3.0690751585
 20
-5.5519470583
 10
-3.0375083373
 20
-5.6059769164
 10
-3.0053778513
 20
-5.6571604129
 10
-2.9729519376
 20
-5.7054367955
 10
-2.9403184989
 20
-5.7509967253
 10
-2.9076684546
 20
-5.7938532607
 10
-2.875190116
 20
-5.8340208227
 10
-2.8429147551
 20
-5.8716934553
 10
-2.8109746148
 20
-5.9069224625
 10
-2.7795043705
 20
-5.9397541129
 10
-2.7485024285
 20
-5.9703661359
 10
-2.7180566862
 20
-5.9988295034
 10
-2.6882626856
 20
-6.0252056888
 10
-2.6591059179
 20
-6.0496461197
 10
-2.6306568311
 20
-6.0722187744
 10
-2.6029676118
 20
-6.0930042497
 10
-2.5759797559
 20
-6.1121568301
  0
LINE
  5
245
100
AcDbEntity
  8
RACCORDO
100
AcDbLine
 62
253
  6
CONTINUOUS
 10
-2.4995038028
 20
-4.3348880793
 11
-2.5855622063
 21
-4.290619583
  0
LINE
  5
246
100
AcDbEntity
  8
RACCORDO
100
AcDbLine
 62
7
  6
CONTINUOUS
 10
-2.5759629431
 20
-6.1353004625
 11
-2.4792388768
 21
-6.1974953565
  0
LWPOLYLINE
  5
247
100
AcDbEntity
  8
RACCORDO
100
AcDbPolyline
 62
253
  6
CONTINUOUS
 90
4
 70
0
 10
-2.5759797559
 20
-6.1121568301
 10
-2.5496988159
 20
-6.1297704275
 10
-2.5241966741
 20
-6.1458914832
 10
-2.4995038028
 20
-6.1605942167
  0
LWPOLYLINE
  5
248
100
AcDbEntity
  8
CURVE
100
AcDbPolyline
 62
253
  6
CONTINUOUS
 90
3
 70
0
 10
-4.6183198323
 20
-11.9827758985
 10
-4.6514354075
 20
-10.5774007873
 10
-4.6677822246
 20
-9.8048613594
  0
LINE
  5
249
100
AcDbEntity
  8
ASSI
100
AcDbLine
 62
253
  6
CONTINUOUS
 10
-4.1402978263
 20
21.677827408
 11
-4.1402978263
 21
21.6152236247
  0
LWPOLYLINE
  5
24A
100
AcDbEntity
  8
ASSI
100
AcDbPolyline
 62
253
  6
CONTINUOUS
 90
20
 70
0
 10
-3.4645715608
 20
-4.7266055412
 10
-3.4641603175
 20
-4.682991706
 10
-3.4621564318
 20
-4.6401796165
 10
-3.4585439681
 20
-4.5982554294
 10
-3.453306601
 20
-4.5572807339
 10
-3.4464352264
 20
-4.5173678066
 10
-3.4379379218
 20
-4.4786715925
 10
-3.4278187772
 20
-4.4412685595
 10
-3.4160857026
 20
-4.4052358966
 10
-3.4027749068
 20
-4.3707117792
 10
-3.3879107444
 20
-4.3377636585
 10
-3.371516926
 20
-4.3064474446
 10
-3.3536486873
 20
-4.2768638163
 10
-3.3343562092
 20
-4.2490771245
 10
-3.3136678055
 20
-4.2231107004
 10
-3.2916142864
 20
-4.198993435
 10
-3.2682422189
 20
-4.1767681918
 10
-3.2435916988
 20
-4.1564655121
 10
-3.2176812595
 20
-4.138099084
 10
-3.1889863142
 20
-4.1208357891
  0
LWPOLYLINE
  5
24B
100
AcDbEntity
  8
ASSI
100
AcDbPolyline
 62
253
  6
CONTINUOUS
 90
24
 70
0
 10
-3.604745211
 20
-4.726632538
 10
-3.6042988477
 20
-4.679547261
 10
-3.602110353
 20
-4.6335071875
 10
-3.5981797406
 20
-4.5885123263
 10
-3.5925061691
 20
-4.5444479137
 10
-3.5850904839
 20
-4.5014287171
 10
-3.5759353344
 20
-4.4597991038
 10
-3.5650182202
 20
-4.4195748448
 10
-3.5523618785
 20
-4.3807403094
 10
-3.5380370206
 20
-4.3435928831
 10
-3.522025582
 20
-4.3081575726
 10
-3.5043460549
 20
-4.274409623
 10
-3.4851241643
 20
-4.2425718824
 10
-3.4643621053
 20
-4.2126791316
 10
-3.442058251
 20
-4.1846969237
 10
-3.4183327167
 20
-4.1587443366
 10
-3.3931875775
 20
-4.134831406
 10
-3.3666213719
 20
-4.1129484565
 10
-3.338748983
 20
-4.0931850423
 10
-3.3095570487
 20
-4.075541787
 10
-3.2790595516
 20
-4.060018431
 10
-3.2474124485
 20
-4.0467032374
 10
-3.2146036333
 20
-4.0356079079
 10
-3.1806458279
 20
-4.0267211015
  0
LINE
  5
24C
100
AcDbEntity
  8
CURVE
100
AcDbLine
 62
253
  6
CONTINUOUS
 10
-4.0681154307
 20
9.3789900448
 11
-4.0699739993
 21
9.29044144
  0
LINE
  5
24D
100
AcDbEntity
  8
CURVE
100
AcDbLine
 62
253
  6
CONTINUOUS
 10
-3.8747363932
 20
9.1640227274
 11
-3.8295439703
 21
11.1385413527
  0
LWPOLYLINE
  5
24E
100
AcDbEntity
  8
CURVE
100
AcDbPolyline
 62
253
  6
CONTINUOUS
 90
3
 70
0
 10
-4.0044217177
 20
12.0541443358
 10
-4.0406447009
 20
10.6088348443
 10
-4.0632330068
 20
9.6080586265
  0
LWPOLYLINE
  5
24F
100
AcDbEntity
  8
ASSI
100
AcDbPolyline
 62
253
  6
CONTINUOUS
 90
24
 70
0
 10
-3.604745211
 20
2.6230698936
 10
-3.603541367
 20
2.6705686424
 10
-3.6005967552
 20
2.7170216293
 10
-3.5959113895
 20
2.762428846
 10
-3.5894825932
 20
2.8069060327
 10
-3.5813130472
 20
2.8503374452
 10
-3.5714109086
 20
2.8923757891
 10
-3.5597537342
 20
2.9330052763
 10
-3.546364204
 20
2.9722415594
 10
-3.5313183643
 20
3.0097843883
 10
-3.5145983857
 20
3.0456086522
 10
-3.496222525
 20
3.0797392188
 10
-3.4763211362
 20
3.1119507048
 10
-3.4548969663
 20
3.1422080414
 10
-3.4319478362
 20
3.1705459753
 10
-3.4075968339
 20
3.196843777
 10
-3.3818462054
 20
3.2210913071
 10
-3.3546943181
 20
3.2432983577
 10
-3.3262585149
 20
3.2633740549
 10
-3.2965253311
 20
3.2813178349
 10
-3.2655088516
 20
3.2971299106
 10
-3.2333678011
 20
3.3107205414
 10
-3.200090151
 20
3.3220779969
 10
-3.1656885453
 20
3.3312136597
  0
LWPOLYLINE
  5
250
100
AcDbEntity
  8
ASSI
100
AcDbPolyline
 62
253
  6
CONTINUOUS
 90
20
 70
0
 10
-3.4645715608
 20
2.62162695
 10
-3.4634027926
 20
2.665654918
 10
-3.4606427478
 20
2.7088804157
 10
-3.4562754983
 20
2.751217325
 10
-3.4502828992
 20
2.7926050984
 10
-3.4426576793
 20
2.8329304876
 10
-3.4334133939
 20
2.8720355752
 10
-3.4225541542
 20
2.9098439231
 10
-3.4100878366
 20
2.9462783925
 10
-3.3960560266
 20
2.9811978823
 10
-3.3804832818
 20
3.014534869
 10
-3.3633930678
 20
3.0462335899
 10
-3.3448453115
 20
3.0761907854
 10
-3.3248907153
 20
3.1043418511
 10
-3.3035570084
 20
3.1306637769
 10
-3.2808780365
 20
3.1551259786
 10
-3.2569005165
 20
3.1776855367
 10
-3.2316643393
 20
3.198312046
 10
-3.2051905558
 20
3.2169904455
 10
-3.1762465999
 20
3.234393169
  0
LWPOLYLINE
  5
251
100
AcDbEntity
  8
CURVE
100
AcDbPolyline
 62
253
  6
CONTINUOUS
 90
80
 70
0
 10
-4.0699739994
 20
9.2904414391
 10
-4.0710309909
 20
9.2746875945
 10
-4.0724369625
 20
9.2589903596
 10
-4.0733345208
 20
9.2512307937
 10
-4.0744039747
 20
9.2435494798
 10
-4.0756781156
 20
9.2359492699
 10
-4.0771790866
 20
9.2284366447
 10
-4.0789166211
 20
9.2210118086
 10
-4.0808614622
 20
9.2136462334
 10
-4.0829860032
 20
9.2063133729
 10
-4.0853082263
 20
9.1990233418
 10
-4.0878628177
 20
9.1918011661
 10
-4.0907056897
 20
9.1846948559
 10
-4.09388308
 20
9.1777455352
 10
-4.0973813033
 20
9.1709438009
 10
-4.1011758672
 20
9.1642665542
 10
-4.1052589732
 20
9.1576864397
 10
-4.10962439
 20
9.1511744811
 10
-4.1142554585
 20
9.1446994751
 10
-4.1208253813
 20
9.1360830863
 10
-4.1278790221
 20
9.1274868357
 10
-4.135462079
 20
9.1189216307
 10
-4.1415246951
 20
9.1125277638
 10
-4.1479325143
 20
9.1061807081
 10
-4.1547072376
 20
9.0999036761
 10
-4.1618705662
 20
9.0937198805
 10
-4.169442287
 20
9.0876503164
 10
-4.1774345303
 20
9.0817071099
 10
-4.1858575122
 20
9.0759001695
 10
-4.1947214486
 20
9.0702394039
 10
-4.2040370933
 20
9.0647365044
 10
-4.213817351
 20
9.0594102941
 10
-4.2240756641
 20
9.0542813787
 10
-4.2348254748
 20
9.0493703639
 10
-4.2460805235
 20
9.0447001817
 10
-4.2578557423
 20
9.0403030692
 10
-4.2701663611
 20
9.0362135897
 10
-4.2830276101
 20
9.0324663064
 10
-4.2964493448
 20
9.029096176
 10
-4.3104199241
 20
9.0261397295
 10
-4.3249223324
 20
9.0236338912
 10
-4.3399395539
 20
9.0216155856
 10
-4.3554537661
 20
9.0201204857
 10
-4.3714439177
 20
9.0191792585
 10
-4.3878881501
 20
9.0188213199
 10
-4.404764605
 20
9.0190760855
 10
-4.4220513876
 20
9.0199730509
 10
-4.4397264572
 20
9.0215420309
 10
-4.4577677371
 20
9.0238129201
 10
-4.4761531503
 20
9.0268156129
 10
-4.4910867804
 20
9.0297617642
 10
-4.5061693784
 20
9.0331927641
 10
-4.5213437963
 20
9.0371059743
 10
-4.5365528861
 20
9.0414987564
 10
-4.5517394996
 20
9.0463684722
 10
-4.5643405518
 20
9.0507884715
 10
-4.5768768765
 20
9.0555332076
 10
-4.5893390411
 20
9.0605980455
 10
-4.6017113634
 20
9.0659751251
 10
-4.6139531647
 20
9.0716436858
 10
-4.6260175167
 20
9.0775797419
 10
-4.6378675854
 20
9.0837634083
 10
-4.6495069122
 20
9.0901912033
 10
-4.6609491329
 20
9.0968637461
 10
-4.6722036757
 20
9.1037821918
 10
-4.6832631406
 20
9.1109498397
 10
-4.6941159205
 20
9.1183705255
 10
-4.7047493384
 20
9.1260462453
 10
-4.7151464391
 20
9.1339716385
 10
-4.725289198
 20
9.1421395051
 10
-4.7351607849
 20
9.1505423736
 10
-4.7447491481
 20
9.1591716863
 10
-4.7540434305
 20
9.1680186139
 10
-4.7630273649
 20
9.1770757921
 10
-4.7716630425
 20
9.1863417154
 10
-4.7799071442
 20
9.1958163432
 10
-4.7858104214
 20
9.2030648005
 10
-4.7914701849
 20
9.2104639046
 10
-4.7968875498
 20
9.2180469289
 10
-4.802063631
 20
9.2258471464
  0
LINE
  5
252
100
AcDbEntity
  8
ASSI
100
AcDbLine
 62
7
  6
CONTINUOUS
 10
3.9594645694
 20
17.5191772432
 11
3.779298123
 21
17.1051519628
  0
LWPOLYLINE
  5
253
100
AcDbEntity
  8
CURVE
100
AcDbPolyline
 62
253
  6
CONTINUOUS
 90
17
 70
0
 10
-0.3015567925
 20
7.3524203149
 10
-0.3018984008
 20
7.3516497189
 10
-0.302232842
 20
7.3508703604
 10
-0.30256012
 20
7.3500819719
 10
-0.302880239
 20
7.3492842861
 10
-0.3031932028
 20
7.3484770354
 10
-0.3034990155
 20
7.3476599524
 10
-0.3037976811
 20
7.3468327696
 10
-0.3040892035
 20
7.3459952196
 10
-0.3043735869
 20
7.3451470348
 10
-0.304650835
 20
7.3442879479
 10
-0.3049209521
 20
7.3434176913
 10
-0.305183942
 20
7.3425359975
 10
-0.3054398088
 20
7.3416425992
 10
-0.3056885565
 20
7.3407372289
 10
-0.305930189
 20
7.339819619
 10
-0.3061647104
 20
7.3388895022
  0
LWPOLYLINE
  5
254
100
AcDbEntity
  8
CURVE
100
AcDbPolyline
 62
253
  6
CONTINUOUS
 90
79
 70
0
 10
-0.3061647104
 20
7.3388895022
 10
-0.327337772
 20
7.3029827344
 10
-0.34992827
 20
7.2693954168
 10
-0.3739829651
 20
7.2379391152
 10
-0.3995393293
 20
7.2084656985
 10
-0.4265976795
 20
7.1809882479
 10
-0.455149044
 20
7.1555601479
 10
-0.4851717029
 20
7.1322365255
 10
-0.5165929431
 20
7.1110794791
 10
-0.5493273032
 20
7.0921528497
 10
-0.5832966145
 20
7.0755140977
 10
-0.6184518781
 20
7.0611951609
 10
-0.654751388
 20
7.0492215964
 10
-0.6921465265
 20
7.039615119
 10
-0.7305610309
 20
7.032382074
 10
-0.7699117273
 20
7.0275249642
 10
-0.8101154415
 20
7.0250462927
 10
-0.8510889997
 20
7.0249485623
 10
-0.8927492277
 20
7.027234276
 10
-0.9350182015
 20
7.0319031225
 10
-0.977838996
 20
7.0389435335
 10
-1.0211599361
 20
7.0483411263
 10
-1.0649293468
 20
7.0600815186
 10
-1.1090955528
 20
7.0741503276
 10
-1.153606879
 20
7.0905331708
 10
-1.1984042317
 20
7.1092080318
 10
-1.2433988417
 20
7.1301223581
 10
-1.2884945213
 20
7.1532159635
 10
-1.3335950827
 20
7.1784286617
 10
-1.3786043382
 20
7.2057002663
 10
-1.4234261001
 20
7.2349705911
 10
-1.4679733722
 20
7.2661866514
 10
-1.5121959249
 20
7.2993242687
 10
-1.5560527202
 20
7.3343664665
 10
-1.5995027201
 20
7.3712962678
 10
-1.6425048866
 20
7.410096696
 10
-1.6850181817
 20
7.4507507743
 10
-1.7269917176
 20
7.4932228013
 10
-1.7683352062
 20
7.537402177
 10
-1.8089485099
 20
7.5831595768
 10
-1.8487314907
 20
7.6303656759
 10
-1.8875840109
 20
7.6788911497
 10
-1.9254059326
 20
7.7286066736
 10
-1.9621096416
 20
7.7793987715
 10
-1.9976576182
 20
7.8312173625
 10
-2.0320248664
 20
7.8840282142
 10
-2.0651863899
 20
7.9377970943
 10
-2.0971171928
 20
7.9924897704
 10
-2.1277922789
 20
8.0480720103
 10
-2.1571797759
 20
8.1044896957
 10
-2.1852203066
 20
8.1616091648
 10
-2.2118476173
 20
8.21927687
 10
-2.2369954548
 20
8.2773392636
 10
-2.2605975654
 20
8.3356427979
 10
-2.2825876956
 20
8.3940339254
 10
-2.3029090668
 20
8.4523800155
 10
-2.3215427993
 20
8.5106321065
 10
-2.3384794881
 20
8.5687621538
 10
-2.3537097285
 20
8.6267421127
 10
-2.3672241155
 20
8.6845439388
 10
-2.3790132441
 20
8.7421395873
 10
-2.3890637402
 20
8.7994805704
 10
-2.3973463515
 20
8.8564366259
 10
-2.4038278565
 20
8.9128570483
 10
-2.4084818313
 20
8.9685941299
 10
-2.4113090431
 20
9.0235121529
 10
-2.4123170567
 20
9.0774783975
 10
-2.411513238
 20
9.1303756266
 10
-2.4089041559
 20
9.1821485349
 10
-2.4044961802
 20
9.2327573001
 10
-2.398290795
 20
9.2821632009
 10
-2.3902699413
 20
9.3303319215
 10
-2.3804106744
 20
9.3772302469
 10
-2.3686972176
 20
9.4228048782
 10
-2.355142467
 20
9.4669221794
 10
-2.3397664867
 20
9.5094284301
 10
-2.3225989522
 20
9.5501783065
 10
-2.3037079846
 20
9.589060069
 10
-2.2831713159
 20
9.6259703745
  0
LWPOLYLINE
  5
255
100
AcDbEntity
  8
RACCORDO
100
AcDbPolyline
 62
7
  6
CONTINUOUS
 90
21
 70
0
 10
-3.0413269791
 20
3.1811188796
 10
-3.1065342243
 20
3.1335061939
 10
-3.1644110002
 20
3.0739321993
 10
-3.213902491
 20
3.0028222667
 10
-3.2542740209
 20
2.9202730258
 10
-3.2844784666
 20
2.8272112615
 10
-3.3036475994
 20
2.7257841765
 10
-3.3116512941
 20
2.6171585799
 10
-3.3084477203
 20
2.5022403749
 10
-3.2942207337
 20
2.383459843
 10
-3.2694839445
 20
2.2626761123
 10
-3.2346635768
 20
2.1407930709
 10
-3.1902856046
 20
2.0191670321
 10
-3.1369946131
 20
1.8992566484
 10
-3.0754586803
 20
1.7823697381
 10
-3.0063415588
 20
1.6696992956
 10
-2.9304289816
 20
1.5625446581
 10
-2.8485900242
 20
1.4621878091
 10
-2.7616335488
 20
1.3697292931
 10
-2.6704293678
 20
1.2862710018
 10
-2.5759629431
 20
1.2129320286
  0
LINE
  5
256
100
AcDbEntity
  8
DRAFT
100
AcDbLine
 62
7
  6
CONTINUOUS
 10
-2.881188676
 20
3.2782027877
 11
-3.0413270703
 21
3.1811188243
  0
LINE
  5
257
100
AcDbEntity
  8
ASSI
100
AcDbLine
 62
7
  6
CONTINUOUS
 10
-3.1762465999
 20
3.234393169
 11
-3.1756038101
 21
3.2347468887
  0
LWPOLYLINE
  5
258
100
AcDbEntity
  8
ASSI
100
AcDbPolyline
 62
7
  6
CONTINUOUS
 90
26
 70
0
 10
-3.1762520306
 20
3.2343892661
 10
-3.1647322931
 20
3.2404926102
 10
-3.1029320321
 20
3.2655089298
 10
-3.0354292423
 20
3.2804835913
 10
-2.9627841744
 20
3.2850803645
 10
-2.8854771399
 20
3.2790853057
 10
-2.804384206
 20
3.262397286
 10
-2.7204066591
 20
3.235081877
 10
-2.6342587393
 20
3.1972454777
 10
-2.5469073268
 20
3.1491849991
 10
-2.4593213033
 20
3.0913447062
 10
-2.3720814886
 20
3.0239931258
 10
-2.2859642132
 20
2.947555709
 10
-2.202006253
 20
2.8627998255
 10
-2.1210677775
 20
2.7704848899
 10
-2.0439440651
 20
2.6714177919
 10
-1.9714464122
 20
2.5665542905
 10
-1.904351788
 20
2.456968971
 10
-1.8433101899
 20
2.343705646
 10
-1.7889172353
 20
2.2278705996
 10
-1.741734037
 20
2.1107112327
 10
-1.7021691975
 20
1.9933587249
 10
-1.6705583747
 20
1.8769835044
 10
-1.6471737751
 20
1.7629369259
 10
-1.6321215751
 20
1.6524150675
 10
-1.625376145
 20
1.5463959415
  0
LWPOLYLINE
  5
259
100
AcDbEntity
  8
ASSI
100
AcDbPolyline
 62
253
  6
CONTINUOUS
 90
16
 70
0
 10
-3.1806458279
 20
-4.0267211015
 10
-3.1457322757
 20
-4.0200965441
 10
-3.1098619747
 20
-4.0157494067
 10
-3.073036501
 20
-4.0136648543
 10
-3.0354529865
 20
-4.0138516151
 10
-2.9971104534
 20
-4.0163213291
 10
-2.9580103677
 20
-4.021062642
 10
-2.9183535223
 20
-4.0280497886
 10
-2.8781364341
 20
-4.037293975
 10
-2.8373629576
 20
-4.0487842123
 10
-2.796244872
 20
-4.0624614308
 10
-2.7547788861
 20
-4.0783377296
 10
-2.7129685238
 20
-4.0964011457
 10
-2.6710357549
 20
-4.1165564976
 10
-2.6289803497
 20
-4.138814937
 10
-2.5868026172
 20
-4.1631653587
  0
LWPOLYLINE
  5
25A
100
AcDbEntity
  8
RACCORDO
100
AcDbPolyline
 62
253
  6
CONTINUOUS
 90
6
 70
0
 10
-2.7864053889
 20
-4.107139962
 10
-2.7910528464
 20
-4.106610661
 10
-2.8730789087
 20
-4.1098611008
 10
-2.9498918125
 20
-4.1261663998
 10
-3.0209910451
 20
-4.1555793096
 10
-3.0413270424
 20
-4.1671136499
  0
LWPOLYLINE
  5
25B
100
AcDbEntity
  8
ASSI
100
AcDbPolyline
 62
253
  6
CONTINUOUS
 90
19
 70
0
 10
4.9646397037
 20
-5.7052668868
 10
4.9879628242
 20
-5.7117919478
 10
5.0118378411
 20
-5.717617433
 10
5.0361986853
 20
-5.7227269508
 10
5.0609790746
 20
-5.7271068417
 10
5.0861134758
 20
-5.7307457007
 10
5.111535152
 20
-5.7336335983
 10
5.1371762465
 20
-5.7357629797
 10
5.1629677483
 20
-5.7371282106
 10
5.1888403266
 20
-5.7377252624
 10
5.214724626
 20
-5.737552748
 10
5.2405512527
 20
-5.7366112924
 10
5.2662507709
 20
-5.7349030254
 10
5.2917540031
 20
-5.7324328125
 10
5.3169928796
 20
-5.7292074742
 10
5.3419003961
 20
-5.7252351028
 10
5.3664106975
 20
-5.7205263681
 10
5.3904570796
 20
-5.7150942128
 10
5.4139729629
 20
-5.7089532386
  0
LINE
  5
25C
100
AcDbEntity
  8
ASSI
100
AcDbLine
 62
253
  6
CONTINUOUS
 10
-2.5868026172
 20
-4.1631653587
 11
-2.5447252972
 21
-4.1894791738
  0
LWPOLYLINE
  5
25D
100
AcDbEntity
  8
ASSI
100
AcDbPolyline
 62
253
  6
CONTINUOUS
 90
35
 70
0
 10
-2.5447252972
 20
-4.1894791738
 10
-2.5027485057
 20
-4.2177672499
 10
-2.4608720474
 20
-4.2480186732
 10
-2.419318156
 20
-4.2800721609
 10
-2.3780900203
 20
-4.3139358239
 10
-2.3371842189
 20
-4.3496014154
 10
-2.2968130382
 20
-4.386883097
 10
-2.2569799606
 20
-4.4257875987
 10
-2.2176811323
 20
-4.4663079735
 10
-2.1791178152
 20
-4.5082378549
 10
-2.1412909851
 20
-4.5515870748
 10
-2.104199178
 20
-4.5963455159
 10
-2.0680399926
 20
-4.6422768859
 10
-2.0328141375
 20
-4.6893947457
 10
-1.9985203298
 20
-4.7376851983
 10
-1.9653532013
 20
-4.7868707762
 10
-1.9333245529
 20
-4.8369490571
 10
-1.9024219677
 20
-4.8879221026
 10
-1.8728037955
 20
-4.9395191974
 10
-1.8444837469
 20
-4.9917245771
 10
-1.8174474911
 20
-5.0445536425
 10
-1.7918113727
 20
-5.0977824601
 10
-1.7675736376
 20
-5.151421647
 10
-1.7447354274
 20
-5.2054602265
 10
-1.7234175026
 20
-5.2596419161
 10
-1.7036169366
 20
-5.3140034247
 10
-1.6853360878
 20
-5.3685077094
 10
-1.6687037664
 20
-5.4227879316
 10
-1.6537373222
 20
-5.4768489955
 10
-1.6404189756
 20
-5.5306857436
 10
-1.6288250213
 20
-5.5839163493
 10
-1.6189778719
 20
-5.6365311515
 10
-1.6108548752
 20
-5.6885396694
 10
-1.6044649349
 20
-5.739588968
 10
-1.5998110565
 20
-5.7895614239
  0
LWPOLYLINE
  5
25E
100
AcDbEntity
  8
CURVE
100
AcDbPolyline
 62
253
  6
CONTINUOUS
 90
64
 70
0
 10
-4.8255600802
 20
9.2875462297
 10
-4.8265653807
 20
9.2960714665
 10
-4.8270997513
 20
9.3044530577
 10
-4.8272112068
 20
9.3127337514
 10
-4.8269446658
 20
9.320949356
 10
-4.8263326626
 20
9.3291079219
 10
-4.8254046356
 20
9.3372105599
 10
-4.8241847331
 20
9.3452562206
 10
-4.8226759423
 20
9.3532352121
 10
-4.8208759602
 20
9.3611356821
 10
-4.818784417
 20
9.3689464292
 10
-4.8164086742
 20
9.3766588565
 10
-4.8137580266
 20
9.384265018
 10
-4.8092868149
 20
9.3954646924
 10
-4.8042485957
 20
9.406422946
 10
-4.7986713171
 20
9.4171468126
 10
-4.7925722571
 20
9.4276092391
 10
-4.7859616628
 20
9.437781956
 10
-4.778832327
 20
9.4476659156
 10
-4.7711726793
 20
9.4572693759
 10
-4.7629711491
 20
9.4666005946
 10
-4.7542187562
 20
9.4756628458
 10
-4.744916883
 20
9.4844394687
 10
-4.7350695019
 20
9.4929088186
 10
-4.7246805857
 20
9.5010492508
 10
-4.7137514745
 20
9.5088389351
 10
-4.7022729781
 20
9.5162552988
 10
-4.6902332737
 20
9.5232755839
 10
-4.6776205387
 20
9.529877032
 10
-4.6671087075
 20
9.5348414265
 10
-4.6562098197
 20
9.539512101
 10
-4.644911125
 20
9.543877956
 10
-4.6331998731
 20
9.5479278924
 10
-4.6210633135
 20
9.5516508109
 10
-4.6084901843
 20
9.5550335164
 10
-4.5954751761
 20
9.5580544307
 10
-4.5820144682
 20
9.5606898796
 10
-4.5681042396
 20
9.5629161891
 10
-4.5537406694
 20
9.5647096851
 10
-4.5389169132
 20
9.5660438772
 10
-4.5236140335
 20
9.5668810106
 10
-4.5078100692
 20
9.5671805139
 10
-4.4914830591
 20
9.566901816
 10
-4.4746110423
 20
9.5660043457
 10
-4.4601224633
 20
9.564753398
 10
-4.4452490683
 20
9.5630144199
 10
-4.4299997689
 20
9.5607572586
 10
-4.414381737
 20
9.5579514005
 10
-4.3983951851
 20
9.5545648876
 10
-4.382038586
 20
9.5505654016
 10
-4.3653111058
 20
9.5459160902
 10
-4.348214685
 20
9.5405619679
 10
-4.3307519572
 20
9.5344435156
 10
-4.3174164125
 20
9.5293208477
 10
-4.3038792459
 20
9.5237310585
 10
-4.290143402
 20
9.5176704416
 10
-4.2762118251
 20
9.5111352908
 10
-4.2620884375
 20
9.5041257983
 10
-4.2477810738
 20
9.4966577507
 10
-4.2332985465
 20
9.4887508329
 10
-4.2186496682
 20
9.48042473
 10
-4.1988630947
 20
9.4686985264
 10
-4.1787501475
 20
9.4562686167
 10
-4.1582645209
 20
9.4431415169
  0
LINE
  5
25F
100
AcDbEntity
  8
ASSI
100
AcDbLine
 62
253
  6
CONTINUOUS
 10
-1.5998110565
 20
-5.7895614239
 11
-1.5968902294
 21
-5.838574656
  0
LWPOLYLINE
  5
260
100
AcDbEntity
  8
CURVE
100
AcDbPolyline
 62
253
  6
CONTINUOUS
 90
68
 70
0
 10
-2.74120704
 20
-13.2573436287
 10
-2.7410561453
 20
-13.2613516879
 10
-2.740805558
 20
-13.2654433184
 10
-2.7404543692
 20
-13.2696207497
 10
-2.74000167
 20
-13.2738862114
 10
-2.7394465514
 20
-13.278241933
 10
-2.7387881045
 20
-13.2826901441
 10
-2.7380254204
 20
-13.2872330741
 10
-2.7372712835
 20
-13.2912871608
 10
-2.7364326349
 20
-13.2954143932
 10
-2.7355054657
 20
-13.2996136908
 10
-2.7344857666
 20
-13.3038839733
 10
-2.7333695288
 20
-13.30822416
 10
-2.732152743
 20
-13.3126331706
 10
-2.7308314002
 20
-13.3171099245
 10
-2.7294014914
 20
-13.3216533412
 10
-2.7278594746
 20
-13.3262600622
 10
-2.7262036768
 20
-13.3309176165
 10
-2.7244328922
 20
-13.3356112551
 10
-2.7225459148
 20
-13.3403262289
 10
-2.7209510665
 20
-13.3441050221
 10
-2.7192756817
 20
-13.3478886638
 10
-2.7175143591
 20
-13.3516777874
 10
-2.7156616971
 20
-13.3554730262
 10
-2.7137122945
 20
-13.3592750138
 10
-2.7120106662
 20
-13.3624473511
 10
-2.710238999
 20
-13.3656155948
 10
-2.7083981861
 20
-13.3687705246
 10
-2.7064891206
 20
-13.3719029206
 10
-2.7045126956
 20
-13.3750035627
 10
-2.7024698041
 20
-13.3780632307
 10
-2.7003610883
 20
-13.3810737777
 10
-2.6981861852
 20
-13.38403135
 10
-2.695944481
 20
-13.3869331666
 10
-2.6936353617
 20
-13.389776447
 10
-2.6912582134
 20
-13.3925584104
 10
-2.6888124222
 20
-13.3952762762
 10
-2.6862984056
 20
-13.3979272083
 10
-2.6837207079
 20
-13.4005081493
 10
-2.6810849047
 20
-13.4030159865
 10
-2.6783965719
 20
-13.4054476073
 10
-2.675661285
 20
-13.407799899
 10
-2.6728846199
 20
-13.4100697488
 10
-2.6700722929
 20
-13.4122543812
 10
-2.6672305828
 20
-13.4143523687
 10
-2.6643659092
 20
-13.4163626209
 10
-2.6614846915
 20
-13.4182840474
 10
-2.6585933492
 20
-13.4201155579
 10
-2.6556983019
 20
-13.4218560619
 10
-2.6522267153
 20
-13.4238239342
 10
-2.6487600648
 20
-13.4256628906
 10
-2.6452993775
 20
-13.4273766342
 10
-2.6418456808
 20
-13.4289688687
 10
-2.6384000019
 20
-13.4304432974
 10
-2.6349647657
 20
-13.4318029515
 10
-2.6315479872
 20
-13.433048174
 10
-2.6281590792
 20
-13.4341786356
 10
-2.6248074542
 20
-13.435194007
 10
-2.6215025249
 20
-13.4360939591
 10
-2.6174486096
 20
-13.4370572311
 10
-2.6134841931
 20
-13.4378458552
 10
-2.609611105
 20
-13.4384660406
 10
-2.6058311746
 20
-13.4389239967
 10
-2.6028736841
 20
-13.4391767558
 10
-2.599966826
 20
-13.439327002
 10
-2.5971004411
 20
-13.439372075
 10
-2.59426437
 20
-13.4393093147
 10
-2.5914484533
 20
-13.4391360609
  0
LINE
  5
261
100
AcDbEntity
  8
ASSI
100
AcDbLine
 62
7
  6
CONTINUOUS
 10
-3.9601313799
 20
22.0918526884
 11
-3.9389346482
 21
21.4756289746
  0
LINE
  5
262
100
AcDbEntity
  8
ASSI
100
AcDbLine
 62
253
  6
CONTINUOUS
 10
-1.5968902294
 20
-5.838574656
 11
-1.595702439
 21
-5.8866286554
  0
LINE
  5
263
100
AcDbEntity
  8
CURVE
100
AcDbLine
 62
253
  6
CONTINUOUS
 10
-2.7694983349
 20
-12.090988133
 11
-2.7412070397
 21
-13.2573436413
  0
LINE
  5
264
100
AcDbEntity
  8
ASSI
100
AcDbLine
 62
7
  6
CONTINUOUS
 10
-1.6260025744
 20
-5.8041318083
 11
-1.6249924796
 21
-5.8457678079
  0
LWPOLYLINE
  5
265
100
AcDbEntity
  8
CURVE
100
AcDbPolyline
 62
253
  6
CONTINUOUS
 90
3
 70
0
 10
-2.5497178876
 20
-13.1771607357
 10
-2.5828334628
 20
-11.7717856245
 10
-2.5991802799
 20
-10.9992461966
  0
LINE
  5
266
100
AcDbEntity
  8
CURVE
100
AcDbLine
 62
253
  6
CONTINUOUS
 10
-2.7994736136
 20
-10.6917801082
 11
-2.7747393365
 21
-11.8602182132
  0
LINE
  5
267
100
AcDbEntity
  8
ASSI
100
AcDbLine
 62
253
  6
CONTINUOUS
 10
-1.5961577295
 20
1.5115561097
 11
-1.595702439
 21
1.4630737763
  0
LINE
  5
268
100
AcDbEntity
  8
ASSI
100
AcDbLine
 62
7
  6
CONTINUOUS
 10
-1.625376145
 20
1.5463959415
 11
-1.6249915193
 21
1.503991409
  0
LWPOLYLINE
  5
269
100
AcDbEntity
  8
CURVE
100
AcDbPolyline
 62
253
  6
CONTINUOUS
 90
73
 70
0
 10
-2.6099715204
 20
9.2294796696
 10
-2.6103261611
 20
9.1708457973
 10
-2.6087899116
 20
9.1117476352
 10
-2.6054050591
 20
9.0519935665
 10
-2.6002064334
 20
8.9914343282
 10
-2.5931990345
 20
8.9300900735
 10
-2.5843804049
 20
8.8680233093
 10
-2.573750278
 20
8.8053088041
 10
-2.5613171502
 20
8.7420703718
 10
-2.5470917089
 20
8.6784440876
 10
-2.5310866107
 20
8.6145570764
 10
-2.5133223885
 20
8.5505006608
 10
-2.4938215446
 20
8.486357213
 10
-2.4726088529
 20
8.4222093455
 10
-2.4497181745
 20
8.3581406327
 10
-2.4251856423
 20
8.2942348896
 10
-2.3990473891
 20
8.2305759308
 10
-2.3713395478
 20
8.1672475714
 10
-2.3420982513
 20
8.1043336262
 10
-2.3113618927
 20
8.0419180188
 10
-2.2791779064
 20
7.9800851083
 10
-2.2455959869
 20
7.9189193627
 10
-2.2106658288
 20
7.8585052496
 10
-2.1744371266
 20
7.7989272371
 10
-2.136959575
 20
7.740269793
 10
-2.0982838686
 20
7.682617781
 10
-2.0584647026
 20
7.6260576489
 10
-2.0175577723
 20
7.5706762403
 10
-1.9756187728
 20
7.5165603988
 10
-1.9327033994
 20
7.4637969681
 10
-1.8888673473
 20
7.4124727918
 10
-1.8441693397
 20
7.3626720505
 10
-1.7986802106
 20
7.3144682723
 10
-1.752473822
 20
7.2679323226
 10
-1.7056240357
 20
7.2231350664
 10
-1.6582047139
 20
7.1801473689
 10
-1.6102897183
 20
7.1390400953
 10
-1.5619515062
 20
7.0998780242
 10
-1.5132569157
 20
7.0627015869
 10
-1.4642713803
 20
7.0275451284
 10
-1.4150603334
 20
6.9944429936
 10
-1.3656892083
 20
6.9634295272
 10
-1.3162234386
 20
6.9345390741
 10
-1.2667290505
 20
6.9078076296
 10
-1.2172744416
 20
6.8832777912
 10
-1.1679286025
 20
6.8609938066
 10
-1.1187605235
 20
6.8409999237
 10
-1.0698391952
 20
6.8233403904
 10
-1.0212336081
 20
6.8080594546
 10
-0.9730126874
 20
6.7951953053
 10
-0.9252450976
 20
6.7847618964
 10
-0.8779994381
 20
6.7767671231
 10
-0.831344308
 20
6.7712188806
 10
-0.7853483065
 20
6.7681250639
 10
-0.7400800331
 20
6.7674935683
 10
-0.6956074554
 20
6.7693290883
 10
-0.6519960155
 20
6.7736235168
 10
-0.6093105238
 20
6.7803655462
 10
-0.5676157908
 20
6.7895438686
 10
-0.526976627
 20
6.8011471766
 10
-0.4874578429
 20
6.8151641623
 10
-0.4491210241
 20
6.8315811346
 10
-0.4120148567
 20
6.8503748685
 10
-0.3761848019
 20
6.8715197555
 10
-0.3416813887
 20
6.894982562
 10
-0.3085754174
 20
6.9206995559
 10
-0.2769427559
 20
6.9485993797
 10
-0.2468482205
 20
6.9786143165
 10
-0.2183124206
 20
7.0106912089
 10
-0.1913449138
 20
7.0447805396
 10
-0.1659463344
 20
7.0808715827
 10
-0.1420816234
 20
7.1191087782
 10
-0.1197067985
 20
7.1596753572
  0
LINE
  5
26A
100
AcDbEntity
  8
ASSI
100
AcDbLine
 62
253
  6
CONTINUOUS
 10
-1.595702439
 20
1.4630737763
 11
-1.5968888286
 21
1.4155612173
  0
LINE
  5
26B
100
AcDbEntity
  8
ASSI
100
AcDbLine
 62
7
  6
CONTINUOUS
 10
-1.6249921234
 20
1.5039020079
 11
-1.6276806121
 21
1.4321713061
  0
LWPOLYLINE
  5
26C
100
AcDbEntity
  8
ASSI
100
AcDbPolyline
 62
253
  6
CONTINUOUS
 90
15
 70
0
 10
-1.5968888286
 20
1.4155612173
 10
-1.5998069782
 20
1.3690998502
 10
-1.6044569015
 20
1.323689668
 10
-1.6108411859
 20
1.2792148986
 10
-1.6189572479
 20
1.2357913132
 10
-1.6287974509
 20
1.1937661586
 10
-1.6403844949
 20
1.1531550906
 10
-1.6536959166
 20
1.1139423202
 10
-1.6686565396
 20
1.0764278111
 10
-1.6852846601
 20
1.0406364361
 10
-1.7035624095
 20
1.0065430806
 10
-1.7233605427
 20
0.9743726246
 10
-1.7446769639
 20
0.944159792
 10
-1.7675143372
 20
0.9158695369
 10
-1.791750681
 20
0.8896220149
  0
LWPOLYLINE
  5
26D
100
AcDbEntity
  8
ASSI
100
AcDbPolyline
 62
7
  6
CONTINUOUS
 90
10
 70
0
 10
-1.6276806121
 20
1.4321713061
 10
-1.6366391211
 20
1.3492329499
 10
-1.6516454524
 20
1.2719645561
 10
-1.6724270081
 20
1.2009172112
 10
-1.6986398657
 20
1.136580349
 10
-1.7298779331
 20
1.0793534624
 10
-1.7656095301
 20
1.0296045343
 10
-1.8054904017
 20
0.9872673912
 10
-1.8495746399
 20
0.9520137433
 10
-1.8686614071
 20
0.9397175942
  0
LWPOLYLINE
  5
26E
100
AcDbEntity
  8
CURVE
100
AcDbPolyline
 62
253
  6
CONTINUOUS
 90
82
 70
0
 10
-0.1197067985
 20
7.1596753572
 10
-0.1184973128
 20
7.162389282
 10
-0.117402437
 20
7.1651203493
 10
-0.1164098103
 20
7.1678915765
 10
-0.1155070719
 20
7.1707259809
 10
-0.1144280726
 20
7.1746309861
 10
-0.113494741
 20
7.1786702294
 10
-0.112714918
 20
7.1828247141
 10
-0.1120949563
 20
7.1870781347
 10
-0.1116352557
 20
7.1914249521
 10
-0.1113347278
 20
7.1958623184
 10
-0.1111928521
 20
7.2003900952
 10
-0.1112113795
 20
7.2050189817
 10
-0.1113926291
 20
7.2097623864
 10
-0.1117381477
 20
7.2146284506
 10
-0.1122463934
 20
7.2196042472
 10
-0.1129150523
 20
7.224671582
 10
-0.1137418105
 20
7.2298122607
 10
-0.114724354
 20
7.2350080891
 10
-0.115860369
 20
7.2402408727
 10
-0.117147516
 20
7.2454941625
 10
-0.1185833547
 20
7.2507584887
 10
-0.1201654189
 20
7.2560261268
 10
-0.121891243
 20
7.2612893522
 10
-0.1237583609
 20
7.2665404403
 10
-0.1257643069
 20
7.2717716665
 10
-0.1279066105
 20
7.2769750764
 10
-0.1301827843
 20
7.2821417962
 10
-0.1325903362
 20
7.2872627224
 10
-0.1351267741
 20
7.2923287514
 10
-0.1377896061
 20
7.2973307795
 10
-0.1405763403
 20
7.3022597033
 10
-0.1434834946
 20
7.3071067067
 10
-0.1465036278
 20
7.3118641239
 10
-0.1496283086
 20
7.3165245768
 10
-0.1528491056
 20
7.321080687
 10
-0.1561575877
 20
7.3255250763
 10
-0.1595453236
 20
7.3298503665
 10
-0.1630044835
 20
7.3340498079
 10
-0.1665296437
 20
7.3381191642
 10
-0.170115982
 20
7.342054828
 10
-0.1737586762
 20
7.3458531914
 10
-0.1774529042
 20
7.3495106468
 10
-0.1811938437
 20
7.3530235867
 10
-0.184976626
 20
7.3563879828
 10
-0.1887961963
 20
7.3595981248
 10
-0.1926474531
 20
7.362647882
 10
-0.1965252951
 20
7.3655311238
 10
-0.2004246208
 20
7.3682417192
 10
-0.2043403289
 20
7.3707735375
 10
-0.2082669526
 20
7.3731210839
 10
-0.2121975635
 20
7.3752814065
 10
-0.2161248678
 20
7.3772521896
 10
-0.2200415716
 20
7.3790311173
 10
-0.2239403812
 20
7.3806158736
 10
-0.2278140027
 20
7.3820041427
 10
-0.2316555014
 20
7.3831939921
 10
-0.2354593784
 20
7.3841850227
 10
-0.2392204939
 20
7.3849772187
 10
-0.2429337081
 20
7.3855705645
 10
-0.2465938811
 20
7.3859650443
 10
-0.2501958732
 20
7.3861606423
 10
-0.2537343571
 20
7.3861572374
 10
-0.2572032558
 20
7.3859542867
 10
-0.2605963052
 20
7.3855511418
 10
-0.2639072408
 20
7.3849471543
 10
-0.2671297984
 20
7.384141676
 10
-0.2702577136
 20
7.3831340584
 10
-0.2732847762
 20
7.3819256661
 10
-0.2762049922
 20
7.3805259149
 10
-0.2790124217
 20
7.3789462335
 10
-0.281701125
 20
7.3771980506
 10
-0.284265162
 20
7.3752927948
 10
-0.2866985929
 20
7.3732418951
 10
-0.2889970593
 20
7.3710557787
 10
-0.2911625292
 20
7.3687408688
 10
-0.2931985518
 20
7.3663025872
 10
-0.2951086765
 20
7.3637463558
 10
-0.2968964527
 20
7.3610775962
 10
-0.2985654297
 20
7.3583017305
 10
-0.300118608
 20
7.3554204238
 10
-0.3015567925
 20
7.3524203149
  0
LWPOLYLINE
  5
26F
100
AcDbEntity
  8
RACCORDO
100
AcDbPolyline
 62
253
  6
CONTINUOUS
 90
38
 70
0
 10
-1.8931318581
 20
1.1646493354
 10
-1.8419899791
 20
1.2139953553
 10
-1.799204195
 20
1.2725359882
 10
-1.7648550111
 20
1.3390758364
 10
-1.7393334919
 20
1.4108496103
 10
-1.7221215562
 20
1.4855648904
 10
-1.712246845
 20
1.5623808634
 10
-1.7089338285
 20
1.6404783317
 10
-1.7114795845
 20
1.7187783821
 10
-1.7191659317
 20
1.796366063
 10
-1.7313795921
 20
1.8729888317
 10
-1.7475212627
 20
1.9480354984
 10
-1.7669911859
 20
2.0209234087
 10
-1.7893679654
 20
2.0916498264
 10
-1.8141783578
 20
2.1598831477
 10
-1.8409491034
 20
2.225297849
 10
-1.8694065363
 20
2.2880122893
 10
-1.8991858708
 20
2.347860142
 10
-1.9299328514
 20
2.4046970201
 10
-1.9614996326
 20
2.4587269013
 10
-1.9936300842
 20
2.5099104176
 10
-2.0260559668
 20
2.5581868181
 10
-2.0586893761
 20
2.603746765
 10
-2.0913393921
 20
2.6466033167
 10
-2.1238177041
 20
2.686770894
 10
-2.1560930396
 20
2.7244435413
 10
-2.1880331544
 20
2.7596725633
 10
-2.2195033744
 20
2.7925042276
 10
-2.2505052973
 20
2.8231162617
 10
-2.280951031
 20
2.8515796342
 10
-2.310745028
 20
2.8779558216
 10
-2.3399017859
 20
2.9023962582
 10
-2.3683508486
 20
2.9249689268
 10
-2.3960400377
 20
2.9457544197
 10
-2.4230278697
 20
2.9649070138
 10
-2.4493087966
 20
2.9825206188
 10
-2.4748109317
 20
2.9986416783
 10
-2.4995038028
 20
3.0133444119
  0
LWPOLYLINE
  5
270
100
AcDbEntity
  8
ASSI
100
AcDbPolyline
 62
253
  6
CONTINUOUS
 90
61
 70
0
 10
-1.791750681
 20
0.8896220149
 10
-1.8173844043
 20
0.8654269819
 10
-1.8444177117
 20
0.8432743337
 10
-1.8727343881
 20
0.8232543935
 10
-1.9023485198
 20
0.8053673667
 10
-1.933246641
 20
0.7896126953
 10
-1.9652712657
 20
0.7760795255
 10
-1.9984350794
 20
0.7647792243
 10
-2.0327260123
 20
0.7557000743
 10
-2.0679494902
 20
0.7488965697
 10
-2.1041069445
 20
0.7443836336
 10
-2.1411975179
 20
0.7421460158
 10
-2.179023224
 20
0.7421929383
 10
-2.2175854294
 20
0.7445358163
 10
-2.2568832556
 20
0.7491629563
 10
-2.2967153441
 20
0.7560489197
 10
-2.337085475
 20
0.7652047412
 10
-2.3779902396
 20
0.7766191744
 10
-2.4192174756
 20
0.7902333708
 10
-2.4607706237
 20
0.8060593432
 10
-2.5026464759
 20
0.8240849463
 10
-2.5446228647
 20
0.8442151127
 10
-2.5867000078
 20
0.8664610009
 10
-2.6288777667
 20
0.8908114072
 10
-2.6709334019
 20
0.917137743
 10
-2.7128666263
 20
0.9454509741
 10
-2.7546776478
 20
0.9757401798
 10
-2.7961444301
 20
1.0078439632
 10
-2.8372634684
 20
1.0417706177
 10
-2.8780380351
 20
1.0775119825
 10
-2.9182562276
 20
1.1148819975
 10
-2.9579141181
 20
1.1538876501
 10
-2.9970152632
 20
1.1945221646
 10
-3.0353589665
 20
1.2365788483
 10
-3.0729436665
 20
1.2800678711
 10
-3.1097704367
 20
1.3249793412
 10
-3.1456425295
 20
1.3710764748
 10
-3.1805585166
 20
1.4183732485
 10
-3.2145192523
 20
1.4668560127
 10
-3.2473314327
 20
1.5162465333
 10
-3.2789826001
 20
1.566542767
 10
-3.3094845963
 20
1.6177471075
 10
-3.3386806126
 20
1.6695879498
 10
-3.3665564223
 20
1.7220498275
 10
-3.3931256317
 20
1.7751485596
 10
-3.4182732396
 20
1.828659437
 10
-3.4420002696
 20
1.8825934987
 10
-3.4643050852
 20
1.9369400535
 10
-3.4850687679
 20
1.9914417555
 10
-3.5042932119
 20
2.0461359098
 10
-3.5219759546
 20
2.1009855335
 10
-3.5379916638
 20
2.1556217798
 10
-3.5523223525
 20
2.210049921
 10
-3.5649855778
 20
2.2642649279
 10
-3.5759095017
 20
2.3178824007
 10
-3.5850714237
 20
2.3708928447
 10
-3.5924938047
 20
2.4233058893
 10
-3.5981727546
 20
2.4747657048
 10
-3.6021070145
 20
2.5251536594
 10
-3.6042978381
 20
2.5745883865
 10
-3.604745211
 20
2.6230698936
  0
LWPOLYLINE
  5
271
100
AcDbEntity
  8
RACCORDO
100
AcDbPolyline
 62
253
  6
CONTINUOUS
 90
5
 70
0
 10
-1.8345082518
 20
1.0909819947
 10
-1.7759344659
 20
1.1301745778
 10
-1.720730584
 20
1.1834403625
 10
-1.6745458036
 20
1.2466302868
 10
-1.6457219841
 20
1.3024648081
  0
LINE
  5
272
100
AcDbEntity
  8
ASSI
100
AcDbLine
 62
7
  6
CONTINUOUS
 10
-1.8678565464
 20
0.9402038981
 11
-1.8686721847
 21
0.9397106051
  0
LWPOLYLINE
  5
273
100
AcDbEntity
  8
ASSI
100
AcDbPolyline
 62
253
  6
CONTINUOUS
 90
58
 70
0
 10
-1.8686721847
 20
0.9397106051
 10
-1.8824099631
 20
0.9317514274
 10
-1.911114538
 20
0.9171225743
 10
-1.9409179744
 20
0.9045369823
 10
-1.9717744275
 20
0.894017341
 10
-2.0036263156
 20
0.8855864503
 10
-2.0364035505
 20
0.8792637256
 10
-2.0700437845
 20
0.8750599912
 10
-2.1044922066
 20
0.8729808792
 10
-2.1396862836
 20
0.8730291799
 10
-2.1755615311
 20
0.8752035035
 10
-2.2120570918
 20
0.8794988736
 10
-2.2491142411
 20
0.8859076735
 10
-2.2866689456
 20
0.8944187352
 10
-2.3246543537
 20
0.905016836
 10
-2.3630065282
 20
0.9176840997
 10
-2.4016597218
 20
0.9323991719
 10
-2.4405445772
 20
0.9491360491
 10
-2.479590949
 20
0.9678646248
 10
-2.5187298457
 20
0.9885517817
 10
-2.5578928014
 20
1.0111613663
 10
-2.5970101499
 20
1.0356531629
 10
-2.6360134827
 20
1.0619843154
 10
-2.6748337478
 20
1.0901082535
 10
-2.7134006229
 20
1.119973983
 10
-2.7516448131
 20
1.1515274679
 10
-2.7895005033
 20
1.1847141024
 10
-2.8269033904
 20
1.2194776707
 10
-2.86378658
 20
1.2557561286
 10
-2.9000860915
 20
1.293486741
 10
-2.9357429822
 20
1.3326092078
 10
-2.9706962579
 20
1.3730580794
 10
-3.0048815833
 20
1.4147604233
 10
-3.0382366051
 20
1.4576416213
 10
-3.0707064766
 20
1.5016328661
 10
-3.1022288234
 20
1.546651297
 10
-3.1327337143
 20
1.5925967508
 10
-3.1621637665
 20
1.6393804101
 10
-3.1904728256
 20
1.6869262322
 10
-3.2176120783
 20
1.7351498672
 10
-3.2435261157
 20
1.7839494939
 10
-3.2681798786
 20
1.8332554083
 10
-3.2915545321
 20
1.8830315657
 10
-3.3136096593
 20
1.9332002521
 10
-3.3342993468
 20
1.9836656531
 10
-3.3535938207
 20
2.0343649215
 10
-3.3714646492
 20
2.0852425626
 10
-3.3878616735
 20
2.1361758119
 10
-3.4027304302
 20
2.1870003387
 10
-3.4160471067
 20
2.2376342788
 10
-3.4277866941
 20
2.2879805219
 10
-3.4379126304
 20
2.337854698
 10
-3.4464167006
 20
2.3871711463
 10
-3.4532943251
 20
2.4358476526
 10
-3.4585369134
 20
2.4837130194
 10
-3.4621532947
 20
2.5306630527
 10
-3.4641596105
 20
2.5766570284
 10
-3.4645715608
 20
2.62162695
  0
LINE
  5
274
100
AcDbEntity
  8
DRAFT
100
AcDbLine
 62
7
  6
CONTINUOUS
 10
-1.6834053257
 20
1.1739720181
 11
-1.8345082584
 21
1.090981991
  0
LWPOLYLINE
  5
275
100
AcDbEntity
  8
ASSI
100
AcDbPolyline
 62
7
  6
CONTINUOUS
 90
13
 70
0
 10
4.881030089
 20
-5.7441728234
 10
4.9243189685
 20
-5.7664465592
 10
4.9743057303
 20
-5.7864057059
 10
5.0263422548
 20
-5.8018574925
 10
5.080098131
 20
-5.8129743633
 10
5.1351136674
 20
-5.8198041334
 10
5.1906127682
 20
-5.8223412109
 10
5.2461384414
 20
-5.8206068695
 10
5.3012350666
 20
-5.8145742418
 10
5.3551282591
 20
-5.8042384876
 10
5.4073600317
 20
-5.7895459496
 10
5.4576045027
 20
-5.7703196169
 10
5.4977427682
 20
-5.7505890931
  0
LWPOLYLINE
  5
276
100
AcDbEntity
  8
ASSI
100
AcDbPolyline
 62
253
  6
CONTINUOUS
 90
7
 70
0
 10
4.8396404998
 20
-5.6525249394
 10
4.8584146447
 20
-5.6628214575
 10
4.8780851279
 20
-5.6725484458
 10
4.8985990503
 20
-5.6816799609
 10
4.9199002974
 20
-5.6901913719
 10
4.9419325399
 20
-5.6980604005
 10
4.9646397037
 20
-5.7052668868
  0
LINE
  5
277
100
AcDbEntity
  8
ASSI
100
AcDbLine
 62
253
  6
CONTINUOUS
 10
4.839640498
 20
-6.2352788033
 11
-10.0685578987
 21
2.3725281073
  0
LINE
  5
278
100
AcDbEntity
  8
ASSI
100
AcDbLine
 62
253
  6
CONTINUOUS
 10
4.9798393485
 20
-5.9909388058
 11
-9.9283823441
 21
2.6168815557
  0
LINE
  5
279
100
AcDbEntity
  8
ASSI
100
AcDbLine
 62
7
  6
CONTINUOUS
 10
-10.0271530585
 20
2.8636247451
 11
4.8810686349
 21
-5.7441956168
  0
LINE
  5
27A
100
AcDbEntity
  8
ASSI
100
AcDbLine
 62
253
  6
CONTINUOUS
 10
-10.0685578988
 20
2.9552819643
 11
4.8396404979
 21
-5.6525249464
  0
LWPOLYLINE
  5
27B
100
AcDbEntity
  8
ASSI
100
AcDbPolyline
 62
253
  6
CONTINUOUS
 90
17
 70
0
 10
-10.0685578968
 20
2.3725281026
 10
-10.0863853241
 20
2.3833712435
 10
-10.1032160217
 20
2.3947378884
 10
-10.1190050644
 20
2.4065974899
 10
-10.1337096987
 20
2.4189177023
 10
-10.1472914601
 20
2.4316659329
 10
-10.1597157646
 20
2.4448096132
 10
-10.1709498559
 20
2.4583147282
 10
-10.1809623968
 20
2.4721442333
 10
-10.1897255634
 20
2.4862596547
 10
-10.1972156681
 20
2.5006227392
 10
-10.2034130559
 20
2.5151955924
 10
-10.2083012906
 20
2.5299392418
 10
-10.2118672684
 20
2.544814519
 10
-10.2141013362
 20
2.5597815169
 10
-10.2149974706
 20
2.5747996545
 10
-10.2150163394
 20
2.5770803647
  0
LWPOLYLINE
  5
27C
100
AcDbEntity
  8
ASSI
100
AcDbPolyline
 62
253
  6
CONTINUOUS
 90
19
 70
0
 10
-9.9283823441
 20
2.6168815557
 10
-9.9391122008
 20
2.6234142294
 10
-9.9491954821
 20
2.6302267721
 10
-9.958632188
 20
2.6373191838
 10
-9.9674446145
 20
2.644712122
 10
-9.9756104655
 20
2.6523849291
 10
-9.9830628538
 20
2.6602756326
 10
-9.9897957859
 20
2.6683859795
 10
-9.9958152551
 20
2.6767142226
 10
-10.0010723549
 20
2.6851931476
 10
-10.0055607136
 20
2.6938237226
 10
-10.0092867028
 20
2.7026049794
 10
-10.0122205301
 20
2.7114667995
 10
-10.0143558808
 20
2.7204099684
 10
-10.0156990696
 20
2.7294337006
 10
-10.0162392488
 20
2.7384655207
 10
-10.0159699058
 20
2.7475054663
 10
-10.0148975532
 20
2.7565534998
 10
-10.0130308805
 20
2.7655370333
  0
LINE
  5
27D
100
AcDbEntity
  8
ASSI
100
AcDbLine
 62
253
  6
CONTINUOUS
 10
-1.5983461492
 20
1.5609963471
 11
-1.5961577295
 21
1.5115561097
  0
LWPOLYLINE
  5
27E
100
AcDbEntity
  8
CURVE
100
AcDbPolyline
 62
253
  6
CONTINUOUS
 90
90
 70
0
 10
-0.6761971976
 20
-14.449654431
 10
-0.6760536842
 20
-14.4533272224
 10
-0.6758125514
 20
-14.4569680866
 10
-0.675473448
 20
-14.4606449754
 10
-0.6750361804
 20
-14.4644111316
 10
-0.674501188
 20
-14.468260962
 10
-0.6738690679
 20
-14.4721741644
 10
-0.6731402841
 20
-14.476134064
 10
-0.6723147676
 20
-14.4801384961
 10
-0.6713923159
 20
-14.484188923
 10
-0.670372101
 20
-14.4882872411
 10
-0.6692507922
 20
-14.4924370805
 10
-0.6680244333
 20
-14.4966425053
 10
-0.6666893174
 20
-14.5009059859
 10
-0.6652427349
 20
-14.5052236203
 10
-0.6636822256
 20
-14.509589913
 10
-0.6620058521
 20
-14.5139980547
 10
-0.6602137691
 20
-14.5184359808
 10
-0.6583066541
 20
-14.5228903131
 10
-0.6562857023
 20
-14.5273474649
 10
-0.6541541802
 20
-14.5317930164
 10
-0.6519158716
 20
-14.5362123396
 10
-0.6495721484
 20
-14.5405944846
 10
-0.647114734
 20
-14.5449432148
 10
-0.6445329395
 20
-14.5492659719
 10
-0.6418175435
 20
-14.5535682569
 10
-0.638965194
 20
-14.557847809
 10
-0.6359740066
 20
-14.5621004265
 10
-0.6328446996
 20
-14.5663192825
 10
-0.6295884025
 20
-14.5704870487
 10
-0.6262188477
 20
-14.5745837712
 10
-0.6227510081
 20
-14.5785899124
 10
-0.6192048188
 20
-14.5824876007
 10
-0.6156014557
 20
-14.5862593807
 10
-0.6119561964
 20
-14.5898931485
 10
-0.6082607266
 20
-14.5933982062
 10
-0.6045008338
 20
-14.5967892074
 10
-0.6006666564
 20
-14.6000767275
 10
-0.5967657367
 20
-14.6032550295
 10
-0.5928099676
 20
-14.6063142981
 10
-0.5888112421
 20
-14.6092447184
 10
-0.5847814532
 20
-14.6120364749
 10
-0.580732494
 20
-14.6146797526
 10
-0.5766754149
 20
-14.617165748
 10
-0.5726178966
 20
-14.6194897044
 10
-0.5685667774
 20
-14.6216478769
 10
-0.5645288953
 20
-14.6236365207
 10
-0.5605110886
 20
-14.6254518908
 10
-0.5565201955
 20
-14.6270902423
 10
-0.5525627324
 20
-14.628547481
 10
-0.5486439288
 20
-14.629818116
 10
-0.5447686928
 20
-14.630896307
 10
-0.5409419321
 20
-14.6317762138
 10
-0.5371685547
 20
-14.6324519962
 10
-0.5334534684
 20
-14.6329178139
 10
-0.5307098909
 20
-14.6331261215
 10
-0.5280131215
 20
-14.6332120563
 10
-0.5253744185
 20
-14.6331746358
 10
-0.5228050406
 20
-14.6330128775
 10
-0.5203137971
 20
-14.6327259
 10
-0.517899701
 20
-14.6323132265
 10
-0.5155593161
 20
-14.6317744814
 10
-0.5132892062
 20
-14.631109289
 10
-0.5110863394
 20
-14.6303168534
 10
-0.5089493002
 20
-14.6293946972
 10
-0.5068770773
 20
-14.6283399227
 10
-0.5048686596
 20
-14.6271496323
 10
-0.5029242392
 20
-14.6258228456
 10
-0.501048823
 20
-14.6243662522
 10
-0.4992486211
 20
-14.6227884589
 10
-0.4975298439
 20
-14.6210980729
 10
-0.4953728787
 20
-14.6186840397
 10
-0.4933704907
 20
-14.6161060427
 10
-0.4915214614
 20
-14.6133849819
 10
-0.4898245727
 20
-14.6105417576
 10
-0.4882786061
 20
-14.6075972696
 10
-0.4868823434
 20
-14.604572418
 10
-0.4856328651
 20
-14.6014836349
 10
-0.4845204463
 20
-14.5983294801
 10
-0.4835336611
 20
-14.5951040453
 10
-0.4826630486
 20
-14.5918024397
 10
-0.4819070084
 20
-14.5884238415
 10
-0.4812659054
 20
-14.5849684465
 10
-0.4807397591
 20
-14.5814409587
 10
-0.480327208
 20
-14.5778641167
 10
-0.4800265454
 20
-14.5742651676
 10
-0.4798738419
 20
-14.5715591084
 10
-0.4797847552
 20
-14.5688150534
 10
-0.4797609248
 20
-14.5659921155
 10
-0.4798039903
 20
-14.5630494075
  0
LWPOLYLINE
  5
27F
100
AcDbEntity
  8
CURVE
100
AcDbPolyline
 62
253
  6
CONTINUOUS
 90
90
 70
0
 10
-0.5380705639
 20
-11.997485887
 10
-0.5381937116
 20
-11.9938007532
 10
-0.5384150385
 20
-11.9901478455
 10
-0.5387345043
 20
-11.9864589477
 10
-0.5391519936
 20
-11.9826806109
 10
-0.5396670908
 20
-11.9788184557
 10
-0.5402793053
 20
-11.9748928703
 10
-0.5409882599
 20
-11.9709206
 10
-0.5417940313
 20
-11.9669038206
 10
-0.5426968098
 20
-11.9628410654
 10
-0.5436974104
 20
-11.9587304356
 10
-0.5447991488
 20
-11.9545683046
 10
-0.5460059656
 20
-11.950350614
 10
-0.5473215607
 20
-11.946074902
 10
-0.5487486705
 20
-11.9417450943
 10
-0.550289791
 20
-11.9373667135
 10
-0.5519469014
 20
-11.9329465985
 10
-0.5537199142
 20
-11.928496855
 10
-0.5556082256
 20
-11.924030905
 10
-0.557610714
 20
-11.9195623798
 10
-0.5597241871
 20
-11.9151057457
 10
-0.5619449352
 20
-11.9106756782
 10
-0.5642716458
 20
-11.9062831678
 10
-0.5667125959
 20
-11.9019244663
 10
-0.5692784601
 20
-11.8975921404
 10
-0.571978451
 20
-11.8932806979
 10
-0.574815935
 20
-11.8889924091
 10
-0.5777928169
 20
-11.8847314852
 10
-0.5809084087
 20
-11.8805047676
 10
-0.5841516525
 20
-11.8763296187
 10
-0.5875088974
 20
-11.8722260313
 10
-0.5909652437
 20
-11.8682135782
 10
-0.5945007955
 20
-11.8643101524
 10
-0.5980944079
 20
-11.8605332268
 10
-0.6017308247
 20
-11.8568949158
 10
-0.6054183456
 20
-11.8533858988
 10
-0.6091711589
 20
-11.8499914963
 10
-0.6129991086
 20
-11.8467011133
 10
-0.61689466
 20
-11.8435204921
 10
-0.6208459339
 20
-11.8404594592
 10
-0.6248410512
 20
-11.8375278412
 10
-0.6288681326
 20
-11.8347354646
 10
-0.6329152989
 20
-11.8320921561
 10
-0.6369715089
 20
-11.8296067285
 10
-0.6410290739
 20
-11.8272839399
 10
-0.6450811428
 20
-11.8251275349
 10
-0.6491208649
 20
-11.8231412579
 10
-0.6531413892
 20
-11.8213288534
 10
-0.657135865
 20
-11.8196940658
 10
-0.6610977701
 20
-11.8182409884
 10
-0.6650218974
 20
-11.8169751092
 10
-0.6689033682
 20
-11.815902265
 10
-0.6727373042
 20
-11.8150282926
 10
-0.676518827
 20
-11.8143590287
 10
-0.6802430579
 20
-11.8139003101
 10
-0.6829941603
 20
-11.8136977019
 10
-0.6856990039
 20
-11.8136177663
 10
-0.6883463004
 20
-11.8136614607
 10
-0.6909247617
 20
-11.8138297428
 10
-0.6934255546
 20
-11.8141234734
 10
-0.6958496653
 20
-11.8145431268
 10
-0.6982005347
 20
-11.8150890807
 10
-0.7004816041
 20
-11.8157617125
 10
-0.7026959146
 20
-11.8165618178
 10
-0.7048449082
 20
-11.8174918634
 10
-0.7069296273
 20
-11.8185547341
 10
-0.7089511141
 20
-11.8197533147
 10
-0.7109091919
 20
-11.821088569
 10
-0.7127988074
 20
-11.8225537774
 10
-0.7146136886
 20
-11.8241402991
 10
-0.7163475633
 20
-11.8258394938
 10
-0.7185252054
 20
-11.8282653452
 10
-0.7205487785
 20
-11.8308552049
 10
-0.7224193758
 20
-11.8335881351
 10
-0.7241380903
 20
-11.836443198
 10
-0.7257060153
 20
-11.8393994555
 10
-0.7271242437
 20
-11.8424359699
 10
-0.7283956001
 20
-11.8455362815
 10
-0.7295298337
 20
-11.8487018447
 10
-0.730538425
 20
-11.8519385918
 10
-0.7314308799
 20
-11.8552514345
 10
-0.7322088055
 20
-11.8586412002
 10
-0.732871834
 20
-11.8621076954
 10
-0.7334199186
 20
-11.8656462062
 10
-0.7338542942
 20
-11.869233938
 10
-0.7341765166
 20
-11.8728435761
 10
-0.7343451743
 20
-11.8755575011
 10
-0.7344502099
 20
-11.8783093725
 10
-0.7344902126
 20
-11.8811401794
 10
-0.7344637712
 20
-11.8840909105
  0
LINE
  5
280
100
AcDbEntity
  8
CURVE
100
AcDbLine
 62
253
  6
CONTINUOUS
 10
-0.7044336484
 20
-13.2856867425
 11
-0.6761971984
 21
-14.4496544022
  0
LWPOLYLINE
  5
281
100
AcDbEntity
  8
CURVE
100
AcDbPolyline
 62
253
  6
CONTINUOUS
 90
3
 70
0
 10
-0.4798039903
 20
-14.5630494075
 10
-0.5135133588
 20
-13.1580357144
 10
-0.5380705642
 20
-11.9974858714
  0
LINE
  5
282
100
AcDbEntity
  8
CURVE
100
AcDbLine
 62
253
  6
CONTINUOUS
 10
-0.7344637712
 20
-11.8840909105
 11
-0.7097837645
 21
-13.050112008
  0
LINE
  5
283
100
AcDbEntity
  8
ASSI
100
AcDbLine
 62
253
  6
CONTINUOUS
 10
-1.595702439
 20
-5.8866286554
 11
-1.596156719
 21
-5.9336946153
  0
LINE
  5
284
100
AcDbEntity
  8
ASSI
100
AcDbLine
 62
7
  6
CONTINUOUS
 10
-1.6249916602
 20
-5.8458651902
 11
-1.6265551701
 21
-5.9166608791
  0
LWPOLYLINE
  5
285
100
AcDbEntity
  8
ASSI
100
AcDbPolyline
 62
253
  6
CONTINUOUS
 90
14
 70
0
 10
-1.596156719
 20
-5.9336946153
 10
-1.5983428202
 20
-5.9797096477
 10
-1.6022607565
 20
-6.0246737603
 10
-1.6079113265
 20
-6.0687016088
 10
-1.6152937358
 20
-6.1116785386
 10
-1.6244057143
 20
-6.1532606539
 10
-1.6352699878
 20
-6.1934323301
 10
-1.6478640675
 20
-6.23220933
 10
-1.6621180663
 20
-6.2692949598
 10
-1.6780504953
 20
-6.3046645024
 10
-1.6956432709
 20
-6.3383429256
 10
-1.7147717935
 20
-6.3701081683
 10
-1.7354345365
 20
-6.3999258666
 10
-1.7576335943
 20
-6.4278307181
  0
LWPOLYLINE
  5
286
100
AcDbEntity
  8
ASSI
100
AcDbPolyline
 62
7
  6
CONTINUOUS
 90
10
 70
0
 10
-1.6265551701
 20
-5.9166608791
 10
-1.6341231468
 20
-5.9984908863
 10
-1.6477199382
 20
-6.074631513
 10
-1.6670712473
 20
-6.1445448028
 10
-1.691829703
 20
-6.2077538775
 10
-1.7215825661
 20
-6.263872237
 10
-1.7557830875
 20
-6.3125418081
 10
-1.7940904277
 20
-6.353877647
 10
-1.8366013373
 20
-6.3882738016
 10
-1.8562406489
 20
-6.4009846003
  0
LWPOLYLINE
  5
287
100
AcDbEntity
  8
RACCORDO
100
AcDbPolyline
 62
7
  6
CONTINUOUS
 90
9
 70
0
 10
-2.3997096293
 20
1.1090664508
 10
-2.3209109658
 20
1.0761862499
 10
-2.2433182813
 20
1.0521650371
 10
-2.1671992494
 20
1.0370141494
 10
-2.0932188765
 20
1.0308158147
 10
-2.0224485296
 20
1.0334830996
 10
-1.9555437952
 20
1.0446669631
 10
-1.8927530144
 20
1.0639849953
 10
-1.8345081842
 20
1.0909820318
  0
LINE
  5
288
100
AcDbEntity
  8
RACCORDO
100
AcDbLine
 62
253
  6
CONTINUOUS
 10
-2.4995038028
 20
1.1876382745
 11
-2.4134447051
 21
1.143370179
  0
LINE
  5
289
100
AcDbEntity
  8
RACCORDO
100
AcDbLine
 62
7
  6
CONTINUOUS
 10
-2.4792388768
 20
1.1507371346
 11
-2.3997096293
 21
1.1090664508
  0
LINE
  5
28A
100
AcDbEntity
  8
RACCORDO
100
AcDbLine
 62
7
  6
CONTINUOUS
 10
-2.5759629431
 20
1.2129320286
 11
-2.4792388768
 21
1.1507371346
  0
LWPOLYLINE
  5
28B
100
AcDbEntity
  8
RACCORDO
100
AcDbPolyline
 62
253
  6
CONTINUOUS
 90
4
 70
0
 10
-2.5759797559
 20
1.236075661
 10
-2.5496988159
 20
1.2184620636
 10
-2.5241966741
 20
1.2023410079
 10
-2.4995038028
 20
1.1876382745
  0
LWPOLYLINE
  5
28C
100
AcDbEntity
  8
CURVE
100
AcDbPolyline
 62
253
  6
CONTINUOUS
 90
27
 70
0
 10
-4.8088617782
 20
9.2418116369
 10
-4.8134881603
 20
9.2518603315
 10
-4.8144150131
 20
9.2538999566
 10
-4.8153368458
 20
9.2559534342
 10
-4.8159340906
 20
9.257300751
 10
-4.8165268467
 20
9.2586541425
 10
-4.8171137715
 20
9.2600130821
 10
-4.8176935224
 20
9.2613770434
 10
-4.8182647568
 20
9.2627455
 10
-4.8188261321
 20
9.2641179252
 10
-4.8193763056
 20
9.2654937928
 10
-4.8199139348
 20
9.2668725761
 10
-4.8204376771
 20
9.2682537488
 10
-4.8209461899
 20
9.2696367844
 10
-4.8214381304
 20
9.2710211565
 10
-4.8219121562
 20
9.2724063385
 10
-4.8223669247
 20
9.273791804
 10
-4.8228010932
 20
9.2751770265
 10
-4.823213319
 20
9.2765614797
 10
-4.8236022597
 20
9.2779446369
 10
-4.8239665726
 20
9.2793259718
 10
-4.8243049151
 20
9.2807049578
 10
-4.8246159446
 20
9.2820810686
 10
-4.8248983185
 20
9.2834537777
 10
-4.8251506941
 20
9.2848225585
 10
-4.8253717289
 20
9.2861868847
 10
-4.8255600802
 20
9.2875462297
  0
LWPOLYLINE
  5
28D
100
AcDbEntity
  8
CURVE
100
AcDbPolyline
 62
253
  6
CONTINUOUS
 90
9
 70
0
 10
-4.802063631
 20
9.2258471464
 10
-4.8028394678
 20
9.2278584163
 10
-4.8036411812
 20
9.2298618634
 10
-4.8044663947
 20
9.231859155
 10
-4.8053127315
 20
9.2338519584
 10
-4.8061778149
 20
9.2358419409
 10
-4.8070592682
 20
9.23783077
 10
-4.8079547149
 20
9.2398201129
 10
-4.8088617782
 20
9.2418116369
  0
LWPOLYLINE
  5
28E
100
AcDbEntity
  8
RACCORDO
100
AcDbPolyline
 62
7
  6
CONTINUOUS
 90
21
 70
0
 10
-3.0413269791
 20
-4.1671136116
 10
-3.1065342243
 20
-4.2147262972
 10
-3.1644110002
 20
-4.2743002918
 10
-3.213902491
 20
-4.3454102244
 10
-3.2542740209
 20
-4.4279594653
 10
-3.2844784666
 20
-4.5210212296
 10
-3.3036475994
 20
-4.6224483146
 10
-3.3116512941
 20
-4.7310739113
 10
-3.3084477203
 20
-4.8459921163
 10
-3.2942207337
 20
-4.9647726482
 10
-3.2694839445
 20
-5.0855563788
 10
-3.2346635768
 20
-5.2074394202
 10
-3.1902856046
 20
-5.3290654591
 10
-3.1369946131
 20
-5.4489758428
 10
-3.0754586803
 20
-5.565862753
 10
-3.0063415588
 20
-5.6785331956
 10
-2.9304289816
 20
-5.7856878331
 10
-2.8485900242
 20
-5.8860446821
 10
-2.7616335488
 20
-5.9785031981
 10
-2.6704293678
 20
-6.0619614893
 10
-2.5759629431
 20
-6.1353004625
  0
LWPOLYLINE
  5
28F
100
AcDbEntity
  8
RACCORDO
100
AcDbPolyline
 62
253
  6
CONTINUOUS
 90
8
 70
0
 10
-2.4134447051
 20
1.143370179
 10
-2.3284104836
 20
1.1104792018
 10
-2.2454119935
 20
1.0893554818
 10
-2.1654522921
 20
1.0802506674
 10
-2.0894635791
 20
1.083265471
 10
-2.0183043904
 20
1.0983735417
 10
-1.9524372923
 20
1.1256225033
 10
-1.8931318581
 20
1.1646493354
  0
LINE
  5
290
100
AcDbEntity
  8
RACCORDO
100
AcDbLine
 62
253
  6
CONTINUOUS
 10
-2.4995038028
 20
3.0133444119
 11
-2.5855622063
 21
3.0576129081
  0
LINE
  5
291
100
AcDbEntity
  8
ASSI
100
AcDbLine
 62
253
  6
CONTINUOUS
 10
-2.5687235463
 20
3.1966169965
 11
-2.5266877689
 21
3.1702915511
  0
LWPOLYLINE
  5
292
100
AcDbEntity
  8
ASSI
100
AcDbPolyline
 62
253
  6
CONTINUOUS
 90
35
 70
0
 10
-2.5266877689
 20
3.1702915511
 10
-2.4847842894
 20
3.1419743483
 10
-2.4430127424
 20
3.1116763826
 10
-2.401594645
 20
3.0795590611
 10
-2.3605333337
 20
3.0456141888
 10
-2.3198252396
 20
3.0098500918
 10
-2.2796814891
 20
2.9724529769
 10
-2.2401056913
 20
2.9334160309
 10
-2.2010938662
 20
2.8927462763
 10
-2.162845736
 20
2.8506506856
 10
-2.1253624298
 20
2.8071193214
 10
-2.0886423308
 20
2.7621623962
 10
-2.0528810385
 20
2.7160171096
 10
-2.0180794747
 20
2.6686697614
 10
-1.9842361438
 20
2.6201343757
 10
-1.95154304
 20
2.5706897279
 10
-1.9200120298
 20
2.5203381845
 10
-1.8896306311
 20
2.4690777267
 10
-1.8605543607
 20
2.4171805267
 10
-1.832796798
 20
2.3646623797
 10
-1.8063437436
 20
2.3115078413
 10
-1.7813091043
 20
2.2579421909
 10
-1.7576912822
 20
2.2039547019
 10
-1.7354912629
 20
2.1495564479
 10
-1.7148269008
 20
2.0950053682
 10
-1.6956958334
 20
2.040264467
 10
-1.6780998552
 20
1.9853710624
 10
-1.6621631783
 20
1.9306944953
 10
-1.6479033807
 20
1.8762297302
 10
-1.6353024545
 20
1.821982047
 10
-1.6244314108
 20
1.768336159
 10
-1.6153126998
 20
1.7153016809
 10
-1.6079236316
 20
1.6628691349
 10
-1.6022677127
 20
1.6113944796
 10
-1.5983461492
 20
1.5609963471
  0
LWPOLYLINE
  5
293
100
AcDbEntity
  8
CURVE
100
AcDbPolyline
 62
253
  6
CONTINUOUS
 90
73
 70
0
 10
-3.833526668
 20
12.0134191334
 10
-3.8351233398
 20
12.0173918176
 10
-3.8368041805
 20
12.0212899367
 10
-3.8385700202
 20
12.0251252661
 10
-3.8404216893
 20
12.0289095811
 10
-3.842360018
 20
12.032654657
 10
-3.8443858366
 20
12.0363722692
 10
-3.8469330784
 20
12.040809636
 10
-3.849606558
 20
12.0452201877
 10
-3.852405332
 20
12.0495997001
 10
-3.8553284573
 20
12.0539439494
 10
-3.8583749905
 20
12.0582487116
 10
-3.8615424178
 20
12.0625080741
 10
-3.8648219435
 20
12.0667093701
 10
-3.8682032015
 20
12.070838244
 10
-3.8716758257
 20
12.0748803404
 10
-3.8752294498
 20
12.0788213039
 10
-3.8782460226
 20
12.0820186077
 10
-3.8813105861
 20
12.0851320762
 10
-3.8844220796
 20
12.0881580746
 10
-3.8875794425
 20
12.0910929678
 10
-3.8907816141
 20
12.0939331211
 10
-3.8940275339
 20
12.0966748995
 10
-3.8973150968
 20
12.0993137298
 10
-3.9006380205
 20
12.101841286
 10
-3.9039889785
 20
12.104248304
 10
-3.9073606439
 20
12.1065255196
 10
-3.9107456902
 20
12.1086636684
 10
-3.9141367907
 20
12.1106534863
 10
-3.9170429867
 20
12.1122342043
 10
-3.9199452755
 20
12.1136947529
 10
-3.9228406845
 20
12.1150307472
 10
-3.9257262413
 20
12.116237802
 10
-3.9285989736
 20
12.1173115322
 10
-3.9314559088
 20
12.1182475527
 10
-3.9342940746
 20
12.1190414784
 10
-3.9371104576
 20
12.1196899562
 10
-3.9399018806
 20
12.1201937607
 10
-3.9426651254
 20
12.1205546988
 10
-3.9453969739
 20
12.1207745771
 10
-3.9480942081
 20
12.1208552024
 10
-3.9507536098
 20
12.1207983813
 10
-3.9533719608
 20
12.1206059207
 10
-3.9563707021
 20
12.1202129356
 10
-3.9593051298
 20
12.11964411
 10
-3.9621711851
 20
12.118905765
 10
-3.9649648091
 20
12.1180042214
 10
-3.9676819429
 20
12.1169458002
 10
-3.9703185278
 20
12.1157368224
 10
-3.9728710062
 20
12.1143831745
 10
-3.9753378262
 20
12.1128890052
 10
-3.9777179371
 20
12.1112580288
 10
-3.9800102885
 20
12.1094939595
 10
-3.9822138297
 20
12.1076005115
 10
-3.9843275101
 20
12.1055813992
 10
-3.98634981
 20
12.1034411045
 10
-3.9882773334
 20
12.1011871798
 10
-3.9901062152
 20
12.0988279455
 10
-3.9918325901
 20
12.0963717217
 10
-3.993452593
 20
12.0938268287
 10
-3.9949623587
 20
12.0912015867
 10
-3.9963589084
 20
12.0885032944
 10
-3.9976428094
 20
12.0857351647
 10
-3.9988155149
 20
12.0828993889
 10
-3.9998784786
 20
12.0799981586
 10
-4.0008331539
 20
12.0770336651
 10
-4.0016809944
 20
12.0740080998
 10
-4.0024226007
 20
12.070921105
 10
-4.003055163
 20
12.0677621274
 10
-4.0035750185
 20
12.0645180641
 10
-4.0039785046
 20
12.0611758129
 10
-4.0042619585
 20
12.0577222709
 10
-4.0044217177
 20
12.0541443358
  0
LWPOLYLINE
  5
294
100
AcDbEntity
  8
ASSI
100
AcDbPolyline
 62
253
  6
CONTINUOUS
 90
62
 70
0
 10
-1.7576335943
 20
-6.4278307181
 10
-1.7812499216
 20
-6.4537043276
 10
-1.8062820979
 20
-6.4775370325
 10
-1.8327321569
 20
-6.4993388563
 10
-1.8604863073
 20
-6.5190209757
 10
-1.889558504
 20
-6.5365831099
 10
-1.9199354123
 20
-6.5520259053
 10
-1.9514623633
 20
-6.5652619627
 10
-1.984152101
 20
-6.576279965
 10
-2.0179924968
 20
-6.5850915923
 10
-2.0527916177
 20
-6.5916439683
 10
-2.088551107
 20
-6.5959223141
 10
-2.1252698951
 20
-6.5979417473
 10
-2.1627520001
 20
-6.5976942481
 10
-2.2009989437
 20
-6.5951685165
 10
-2.240009692
 20
-6.5903761405
 10
-2.2795844262
 20
-6.5833434301
 10
-2.3197270532
 20
-6.574059453
 10
-2.3604340371
 20
-6.5625353606
 10
-2.4014943745
 20
-6.5488305766
 10
-2.4429116533
 20
-6.5329332027
 10
-2.4846825181
 20
-6.5148552745
 10
-2.5265855185
 20
-6.4946920972
 10
-2.5686210418
 20
-6.4724326321
 10
-2.6107887799
 20
-6.4480879647
 10
-2.6528662012
 20
-6.421786564
 10
-2.6948531926
 20
-6.3935175799
 10
-2.7367497881
 20
-6.3632918156
 10
-2.7783336379
 20
-6.3312701975
 10
-2.8196014053
 20
-6.2974445304
 10
-2.8605561948
 20
-6.2618228721
 10
-2.9009852862
 20
-6.2245905095
 10
-2.9408849057
 20
-6.1857405341
 10
-2.9802584561
 20
-6.1452796352
 10
-3.0189039618
 20
-6.1034134841
 10
-3.056820043
 20
-6.0601319987
 10
-3.0940075917
 20
-6.0154449731
 10
-3.1302680366
 20
-5.9695878911
 10
-3.1656001854
 20
-5.9225468959
 10
-3.2000046565
 20
-5.8743355056
 10
-3.2332856151
 20
-5.8252302778
 10
-3.265430687
 20
-5.7752332858
 10
-3.2964516306
 20
-5.7243420933
 10
-3.3261888547
 20
-5.6728265197
 10
-3.3546280292
 20
-5.6207019269
 10
-3.3817828642
 20
-5.5679525877
 10
-3.4075358852
 20
-5.514801722
 10
-3.4318882731
 20
-5.4612383621
 10
-3.4548382346
 20
-5.4072731152
 10
-3.4762639073
 20
-5.3531616067
 10
-3.4961677316
 20
-5.2988668857
 10
-3.5145466988
 20
-5.2444255692
 10
-3.5312708946
 20
-5.1902037055
 10
-3.5463225802
 20
-5.1361961667
 10
-3.5597190645
 20
-5.0824078288
 10
-3.5713831826
 20
-5.029219852
 10
-3.5812923036
 20
-4.9766417467
 10
-3.5894688189
 20
-4.9246638628
 10
-3.5959033017
 20
-4.8736387405
 10
-3.6005926475
 20
-4.8236839159
 10
-3.6035399555
 20
-4.774681851
 10
-3.604745211
 20
-4.726632538
  0
LWPOLYLINE
  5
295
100
AcDbEntity
  8
RACCORDO
100
AcDbPolyline
 62
253
  6
CONTINUOUS
 90
38
 70
0
 10
-1.8931318581
 20
-6.1835831558
 10
-1.8419899791
 20
-6.1342371358
 10
-1.799204195
 20
-6.0756965029
 10
-1.7648550111
 20
-6.0091566548
 10
-1.7393334919
 20
-5.9373828808
 10
-1.7221215562
 20
-5.8626676007
 10
-1.712246845
 20
-5.7858516277
 10
-1.7089338285
 20
-5.7077541595
 10
-1.7114795845
 20
-5.629454109
 10
-1.7191659317
 20
-5.5518664282
 10
-1.7313795921
 20
-5.4752436594
 10
-1.7475212627
 20
-5.4001969927
 10
-1.7669911859
 20
-5.3273090824
 10
-1.7893679654
 20
-5.2565826647
 10
-1.8141783578
 20
-5.1883493434
 10
-1.8409491034
 20
-5.1229346421
 10
-1.8694065363
 20
-5.0602202018
 10
-1.8991858708
 20
-5.0003723491
 10
-1.9299328514
 20
-4.943535471
 10
-1.9614996326
 20
-4.8895055899
 10
-1.9936300842
 20
-4.8383220735
 10
-2.0260559668
 20
-4.790045673
 10
-2.0586893761
 20
-4.7444857262
 10
-2.0913393921
 20
-4.7016291744
 10
-2.1238177041
 20
-4.6614615971
 10
-2.1560930396
 20
-4.6237889499
 10
-2.1880331544
 20
-4.5885599279
 10
-2.2195033744
 20
-4.5557282635
 10
-2.2505052973
 20
-4.5251162294
 10
-2.280951031
 20
-4.4966528569
 10
-2.310745028
 20
-4.4702766695
 10
-2.3399017859
 20
-4.445836233
 10
-2.3683508486
 20
-4.4232635643
 10
-2.3960400377
 20
-4.4024780715
 10
-2.4230278697
 20
-4.3833254773
 10
-2.4493087966
 20
-4.3657118723
 10
-2.4748109317
 20
-4.3495908128
 10
-2.4995038028
 20
-4.3348880793
  0
LINE
  5
296
100
AcDbEntity
  8
DRAFT
100
AcDbLine
 62
7
  6
CONTINUOUS
 10
-2.8967687541
 20
-4.0794751317
 11
-3.0413270703
 21
-4.1671136669
  0
LINE
  5
297
100
AcDbEntity
  8
ASSI
100
AcDbLine
 62
7
  6
CONTINUOUS
 10
-3.1889863142
 20
-4.1208357891
 11
-3.1887055853
 21
-4.1206814699
  0
LWPOLYLINE
  5
298
100
AcDbEntity
  8
ASSI
100
AcDbPolyline
 62
7
  6
CONTINUOUS
 90
26
 70
0
 10
-3.1889918514
 20
-4.1208397581
 10
-3.1720518777
 20
-4.1120802213
 10
-3.1112865171
 20
-4.088867811
 10
-3.0446419382
 20
-4.0754824402
 10
-2.9727205534
 20
-4.0722995478
 10
-2.8960620823
 20
-4.0795418949
 10
-2.8155951591
 20
-4.0972843203
 10
-2.7322050116
 20
-4.1254401918
 10
-2.6465362622
 20
-4.1639191578
 10
-2.5595077316
 20
-4.2124531678
 10
-2.4721070607
 20
-4.2705975237
 10
-2.3849230987
 20
-4.3380836694
 10
-2.2987174988
 20
-4.4145006203
 10
-2.2145249921
 20
-4.4990900707
 10
-2.1332323037
 20
-4.5910708841
 10
-2.0556436563
 20
-4.6896256479
 10
-1.9825525143
 20
-4.7938255984
 10
-1.9147259858
 20
-4.902626411
 10
-1.8528141761
 20
-5.0150084021
 10
-1.7974247652
 20
-5.1298741524
 10
-1.7491333258
 20
-5.2459838199
 10
-1.7083542123
 20
-5.3622357541
 10
-1.6754413927
 20
-5.4774615975
 10
-1.6506931262
 20
-5.590274005
 10
-1.6342226119
 20
-5.6994776557
 10
-1.6260025744
 20
-5.8041318083
  0
LWPOLYLINE
  5
299
100
AcDbEntity
  8
RACCORDO
100
AcDbPolyline
 62
253
  6
CONTINUOUS
 90
6
 70
0
 10
-2.7157773447
 20
3.2330486696
 10
-2.7910528464
 20
3.2416218301
 10
-2.8730789087
 20
3.2383713904
 10
-2.9498918125
 20
3.2220660913
 10
-3.0209910451
 20
3.1926531816
 10
-3.0413270424
 20
3.1811188412
  0
LWPOLYLINE
  5
29A
100
AcDbEntity
  8
RACCORDO
100
AcDbPolyline
 62
253
  6
CONTINUOUS
 90
42
 70
0
 10
-2.5855622063
 20
3.0576129081
 10
-2.6705960328
 20
3.0905041134
 10
-2.7535944271
 20
3.1116278887
 10
-2.8335544896
 20
3.1207324947
 10
-2.9095438629
 20
3.1177173098
 10
-2.9807035377
 20
3.1026089584
 10
-3.0465707148
 20
3.0753599512
 10
-3.1058760537
 20
3.0363331742
 10
-3.1570178901
 20
2.9869871789
 10
-3.1998037916
 20
2.9284464782
 10
-3.2341531455
 20
2.8619065318
 10
-3.2596747914
 20
2.7901326847
 10
-3.2768867639
 20
2.7154173834
 10
-3.2867614687
 20
2.6386014141
 10
-3.2900744796
 20
2.5605039491
 10
-3.2875287395
 20
2.4822038895
 10
-3.2798424088
 20
2.404616199
 10
-3.2676287471
 20
2.3279934311
 10
-3.2514870441
 20
2.2529467831
 10
-3.2320170706
 20
2.1800589018
 10
-3.2096402427
 20
2.109332512
 10
-3.1848298118
 20
2.041099213
 10
-3.1580590296
 20
1.9756845328
 10
-3.1296015587
 20
1.9129701144
 10
-3.0998221824
 20
1.8531222859
 10
-3.0690751585
 20
1.7962854328
 10
-3.0375083373
 20
1.7422555747
 10
-3.0053778513
 20
1.6910720782
 10
-2.9729519376
 20
1.6427956957
 10
-2.9403184989
 20
1.5972357658
 10
-2.9076684546
 20
1.5543792304
 10
-2.875190116
 20
1.5142116685
 10
-2.8429147551
 20
1.4765390359
 10
-2.8109746148
 20
1.4413100286
 10
-2.7795043705
 20
1.4084783783
 10
-2.7485024285
 20
1.3778663552
 10
-2.7180566862
 20
1.3494029877
 10
-2.6882626856
 20
1.3230268024
 10
-2.6591059179
 20
1.2985863714
 10
-2.6306568311
 20
1.2760137167
 10
-2.6029676118
 20
1.2552282414
 10
-2.5759797559
 20
1.236075661
  0
LINE
  5
29B
100
AcDbEntity
  8
ASSI
100
AcDbLine
 62
7
  6
CONTINUOUS
 10
9.7782566278
 20
-3.4062684048
 11
9.8658859303
 21
-3.4568644658
  0
LWPOLYLINE
  5
29C
100
AcDbEntity
  8
ASSI
100
AcDbPolyline
 62
253
  6
CONTINUOUS
 90
37
 70
0
 10
5.8444615613
 20
-22.5498332659
 10
5.8462904113
 20
-22.5823287438
 10
5.8493130878
 20
-22.6139380323
 10
5.8535295908
 20
-22.6446611313
 10
5.8589509938
 20
-22.6745477813
 10
5.8655662232
 20
-22.7035482418
 10
5.8733420583
 20
-22.731513292
 10
5.8822844559
 20
-22.7584369896
 10
5.892387459
 20
-22.7843252769
 10
5.903599976
 20
-22.8090467605
 10
5.9159274937
 20
-22.8325951224
 10
5.9293645253
 20
-22.8549766807
 10
5.9438435187
 20
-22.8760789959
 10
5.9593696896
 20
-22.8958956927
 10
5.9759378223
 20
-22.9144331465
 10
5.993464717
 20
-22.931598044
 10
6.0119553417
 20
-22.9473835747
 10
6.0314047284
 20
-22.9617965491
 10
6.0517147731
 20
-22.9747640854
 10
6.0728898683
 20
-22.9862788325
 10
6.0949256215
 20
-22.9963481416
 10
6.1177107511
 20
-23.0049211833
 10
6.1412488874
 20
-23.0119903435
 10
6.1655364002
 20
-23.0175632364
 10
6.1904511164
 20
-23.0216118759
 10
6.2159961551
 20
-23.0241286308
 10
6.2421683974
 20
-23.0251211323
 10
6.2688363128
 20
-23.0245842881
 10
6.2960028334
 20
-23.0225102751
 10
6.3236650271
 20
-23.0189069164
 10
6.3516825683
 20
-23.0137925885
 10
6.3800575792
 20
-23.0071593434
 10
6.4087879374
 20
-22.9990151291
 10
6.43772695
 20
-22.989402167
 10
6.4668257193
 20
-22.9783345306
 10
6.4961331428
 20
-22.9657981463
 10
6.5256492207
 20
-22.9517930141
  0
LWPOLYLINE
  5
29D
100
AcDbEntity
  8
ASSI
100
AcDbPolyline
 62
253
  6
CONTINUOUS
 90
19
 70
0
 10
5.1438774738
 20
-22.5629012177
 10
5.1465896209
 20
-22.6115253295
 10
5.1511018189
 20
-22.6589650187
 10
5.1574066073
 20
-22.7051404394
 10
5.1654936832
 20
-22.7499737687
 10
5.1753494759
 20
-22.7933897179
 10
5.1869572596
 20
-22.835315583
 10
5.2002981792
 20
-22.8756815025
 10
5.2153498766
 20
-22.9144187785
 10
5.232085959
 20
-22.9514605058
 10
5.2504783268
 20
-22.9867440746
 10
5.2704964726
 20
-23.0202108579
 10
5.2921061533
 20
-23.0518044905
 10
5.3152715239
 20
-23.0814720714
 10
5.3399539404
 20
-23.1091638141
 10
5.3661111847
 20
-23.1348327781
 10
5.3937000586
 20
-23.1584361552
 10
5.422674438
 20
-23.1799341895
 10
5.4557050019
 20
-23.2008843397
  0
LINE
  5
29E
100
AcDbEntity
  8
ASSI
100
AcDbLine
 62
7
  6
CONTINUOUS
 10
3.9594645694
 20
17.5191772432
 11
3.980661301
 21
16.9029535293
  0
LWPOLYLINE
  5
29F
100
AcDbEntity
  8
ASSI
100
AcDbPolyline
 62
253
  6
CONTINUOUS
 90
12
 70
0
 10
4.8396521459
 20
-5.6525316718
 10
4.8400360627
 20
-5.6644511854
 10
4.8412006971
 20
-5.6758533586
 10
4.8431396022
 20
-5.6866750745
 10
4.8458420448
 20
-5.6968564293
 10
4.8492930654
 20
-5.7063410639
 10
4.8534735602
 20
-5.7150764753
 10
4.8583603878
 20
-5.7230143088
 10
4.8639264966
 20
-5.7301106245
 10
4.8701410748
 20
-5.7363261408
 10
4.8769697211
 20
-5.7416264519
 10
4.8810298637
 20
-5.7441732134
  0
LWPOLYLINE
  5
2A0
100
AcDbEntity
  8
ASSI
100
AcDbPolyline
 62
253
  6
CONTINUOUS
 90
13
 70
0
 10
4.839640498
 20
-6.2352788033
 10
4.8425517371
 20
-7.6089004193
 10
4.8495436917
 20
-8.9801950278
 10
4.8606160105
 20
-10.3491472277
 10
4.8757677388
 20
-11.7157308755
 10
4.8949989307
 20
-13.0799414361
 10
4.9183109583
 20
-14.4417957989
 10
4.9457040113
 20
-15.8012795433
 10
4.9771773495
 20
-17.1583762096
 10
5.0127314177
 20
-18.5130993472
 10
5.052366374
 20
-19.8654430591
 10
5.0960818038
 20
-21.2153821764
 10
5.1438774819
 20
-22.5629012225
  0
LINE
  5
2A1
100
AcDbEntity
  8
ASSI
100
AcDbLine
 62
253
  6
CONTINUOUS
 10
3.779298123
 20
17.1051519628
 11
3.779298123
 21
17.0425481794
  0
LWPOLYLINE
  5
2A2
100
AcDbEntity
  8
ASSI
100
AcDbPolyline
 62
253
  6
CONTINUOUS
 90
22
 70
0
 10
4.8396521459
 20
-6.2352855287
 10
4.8400360615
 20
-6.2229226953
 10
4.8412006927
 20
-6.2101756489
 10
4.8431395927
 20
-6.1971149512
 10
4.8458420287
 20
-6.1838128999
 10
4.8492930413
 20
-6.1703431288
 10
4.8534735273
 20
-6.1567802002
 10
4.8583603455
 20
-6.1431991919
 10
4.8639264449
 20
-6.1296752818
 10
4.8701410143
 20
-6.116283332
 10
4.8769696526
 20
-6.1030974737
 10
4.8843745598
 20
-6.0901906977
 10
4.892314746
 20
-6.0776344497
 10
4.900746258
 20
-6.065498235
 10
4.9096224231
 20
-6.0538492339
 10
4.9188941069
 20
-6.0427519298
 10
4.928509986
 20
-6.0322677519
 10
4.9384168313
 20
-6.0224547358
 10
4.9485598034
 20
-6.0133672015
 10
4.9588827556
 20
-6.0050554534
 10
4.9693285449
 20
-5.9975655012
 10
4.9798393485
 20
-5.9909388058
  0
LWPOLYLINE
  5
2A3
100
AcDbEntity
  8
ASSI
100
AcDbPolyline
 62
253
  6
CONTINUOUS
 90
13
 70
0
 10
5.1438774819
 20
11.0143537212
 10
5.0960818038
 20
9.6135333238
 10
5.052366374
 20
8.2148431009
 10
5.0127314177
 20
6.8182987891
 10
4.9771773495
 20
5.4239260361
 10
4.9457040113
 20
4.0317305563
 10
4.9183109583
 20
2.6416982873
 10
4.8949989307
 20
1.2538455557
 10
4.8757677388
 20
-0.1318124489
 10
4.8606160105
 20
-1.5152912359
 10
4.8495436916
 20
-2.8965853446
 10
4.842551737
 20
-4.2756685169
 10
4.8396404979
 20
-5.6525249464
  0
LWPOLYLINE
  5
2A4
100
AcDbEntity
  8
RACCORDO
100
AcDbPolyline
 62
253
  6
CONTINUOUS
 90
5
 70
0
 10
-1.8345082518
 20
-6.2572504965
 10
-1.7759344659
 20
-6.2180579134
 10
-1.720730584
 20
-6.1647921287
 10
-1.6745458036
 20
-6.1016022044
 10
-1.6408963063
 20
-6.0364198793
  0
LINE
  5
2A5
100
AcDbEntity
  8
ASSI
100
AcDbLine
 62
7
  6
CONTINUOUS
 10
-1.8553860776
 20
-6.4004683665
 11
-1.8562517455
 21
-6.400991786
  0
LWPOLYLINE
  5
2A6
100
AcDbEntity
  8
ASSI
100
AcDbPolyline
 62
253
  6
CONTINUOUS
 90
58
 70
0
 10
-1.8562517455
 20
-6.400991786
 10
-1.8696249802
 20
-6.4087319938
 10
-1.8978085058
 20
-6.4230488354
 10
-1.9271143648
 20
-6.4353371521
 10
-1.9574968156
 20
-6.4455743354
 10
-1.9888982481
 20
-6.4537375788
 10
-2.0212511316
 20
-6.4598090385
 10
-2.0544933852
 20
-6.4637780566
 10
-2.0885700262
 20
-6.4656388936
 10
-2.1234204248
 20
-6.4653899295
 10
-2.158980316
 20
-6.4630326778
 10
-2.1951887367
 20
-6.4585720282
 10
-2.231988384
 20
-6.4520164583
 10
-2.2693154236
 20
-6.4433772286
 10
-2.3071029353
 20
-6.4326694758
 10
-2.3452880078
 20
-6.4199116699
 10
-2.3838051181
 20
-6.4051252494
 10
-2.4225848291
 20
-6.3883361035
 10
-2.4615575688
 20
-6.3695746287
 10
-2.5006545931
 20
-6.3488740132
 10
-2.5398073414
 20
-6.3262702695
 10
-2.578946208
 20
-6.3018035786
 10
-2.6180030328
 20
-6.2755168495
 10
-2.6569086683
 20
-6.2474564935
 10
-2.6955923352
 20
-6.2176731482
 10
-2.7339849738
 20
-6.1862208749
 10
-2.7720206787
 20
-6.1531541171
 10
-2.8096341971
 20
-6.1185284523
 10
-2.8467588468
 20
-6.0824059268
 10
-2.8833305656
 20
-6.044849116
 10
-2.9192890154
 20
-6.0059174442
 10
-2.9545734326
 20
-5.965676373
 10
-2.9891193646
 20
-5.9241986551
 10
-3.0228625355
 20
-5.8815577553
 10
-3.0557483745
 20
-5.8378225297
 10
-3.0877143263
 20
-5.7930756215
 10
-3.1186878468
 20
-5.7474156591
 10
-3.1486116678
 20
-5.7009314242
 10
-3.1774395953
 20
-5.6536988341
 10
-3.2051199672
 20
-5.6058005863
 10
-3.2315972974
 20
-5.5573383375
 10
-3.2568366596
 20
-5.5083818051
 10
-3.2808166884
 20
-5.4589656668
 10
-3.3034971573
 20
-5.4091676488
 10
-3.324832017
 20
-5.3590834097
 10
-3.3447884874
 20
-5.3087741937
 10
-3.363338716
 20
-5.2582957901
 10
-3.3804320276
 20
-5.2077705287
 10
-3.3960093143
 20
-5.1573600636
 10
-3.4100470222
 20
-5.107146358
 10
-3.4225199264
 20
-5.0572262991
 10
-3.4333860952
 20
-5.0077811297
 10
-3.4426373571
 20
-4.9588964889
 10
-3.4502691024
 20
-4.9106545172
 10
-3.4562672419
 20
-4.8632232431
 10
-3.4606387652
 20
-4.8167057933
 10
-3.4634016407
 20
-4.7711439039
 10
-3.4645715608
 20
-4.7266055412
  0
LINE
  5
2A7
100
AcDbEntity
  8
DRAFT
100
AcDbLine
 62
7
  6
CONTINUOUS
 10
-1.6774238354
 20
-6.1709752685
 11
-1.8345082584
 21
-6.2572505001
  0
LWPOLYLINE
  5
2A8
100
AcDbEntity
  8
ASSI
100
AcDbPolyline
 62
253
  6
CONTINUOUS
 90
16
 70
0
 10
-3.1656885453
 20
3.3312136597
 10
-3.1303587618
 20
3.3380724337
 10
-3.0941000332
 20
3.3426390341
 10
-3.0569137006
 20
3.3449284216
 10
-3.0189987248
 20
3.3449308565
 10
-2.9803543113
 20
3.3426346191
 10
-2.9409817423
 20
3.3380511538
 10
-2.9010830906
 20
3.3312054693
 10
-2.860655027
 20
3.3220862997
 10
-2.8197012518
 20
3.3107047016
 10
-2.7784343608
 20
3.297119179
 10
-2.7368512306
 20
3.2813175656
 10
-2.6949552172
 20
3.2633118967
 10
-2.6529686041
 20
3.2431969963
 10
-2.6108913354
 20
3.2209616345
 10
-2.5687235463
 20
3.1966169965
  0
LWPOLYLINE
  5
2A9
100
AcDbEntity
  8
CURVE
100
AcDbPolyline
 62
253
  6
CONTINUOUS
 90
60
 70
0
 10
-4.6784213419
 20
8.8760812899
 10
-4.6583622637
 20
8.8640607877
 10
-4.6382919989
 20
8.852803368
 10
-4.618238756
 20
8.8422970557
 10
-4.5982307435
 20
8.8325298757
 10
-4.57829617
 20
8.8234898529
 10
-4.5576412762
 20
8.8148328221
 10
-4.537139251
 20
8.8069342869
 10
-4.5168326685
 20
8.7997767209
 10
-4.4967641026
 20
8.7933425975
 10
-4.4769761273
 20
8.7876143901
 10
-4.4575113166
 20
8.7825745724
 10
-4.4346309413
 20
8.7774073713
 10
-4.4122960526
 20
8.7731554275
 10
-4.3905254737
 20
8.7697679554
 10
-4.3693380274
 20
8.7671941693
 10
-4.348752537
 20
8.7653832839
 10
-4.3287807255
 20
8.7642870212
 10
-4.3094059169
 20
8.7638671343
 10
-4.2906043356
 20
8.764087884
 10
-4.2723522056
 20
8.7649135311
 10
-4.2546257513
 20
8.7663083363
 10
-4.2374057402
 20
8.7682374867
 10
-4.2206911133
 20
8.7706698732
 10
-4.2044853552
 20
8.7735753134
 10
-4.1887919504
 20
8.7769236244
 10
-4.1736143833
 20
8.7806846236
 10
-4.1589537675
 20
8.7848292086
 10
-4.1448017333
 20
8.789332599
 10
-4.1311475398
 20
8.7941710948
 10
-4.1179804463
 20
8.7993209957
 10
-4.1052897122
 20
8.8047586017
 10
-4.0900808282
 20
8.8119257976
 10
-4.0755845925
 20
8.8194694638
 10
-4.0617861244
 20
8.8273535626
 10
-4.0486705429
 20
8.8355420564
 10
-4.0362202082
 20
8.8440027717
 10
-4.0244064439
 20
8.8527189907
 10
-4.0131978142
 20
8.8616778599
 10
-4.0025628836
 20
8.8708665256
 10
-3.9924695953
 20
8.8802710266
 10
-3.9828834071
 20
8.8898729712
 10
-3.9737691557
 20
8.8996528601
 10
-3.9650916778
 20
8.909591194
 10
-3.9541520559
 20
8.9230721762
 10
-3.9439132537
 20
8.9368565688
 10
-3.9343621174
 20
8.951000768
 10
-3.9276491923
 20
8.9618823768
 10
-3.9213524862
 20
8.9730423553
 10
-3.9155063248
 20
8.9845310956
 10
-3.9101351117
 20
8.9964235339
 10
-3.9052562593
 20
9.0087800534
 10
-3.9008691363
 20
9.0215782804
 10
-3.8969589986
 20
9.0347755538
 10
-3.8934726929
 20
9.0483308199
 10
-3.8893818671
 20
9.0668863551
 10
-3.8858247232
 20
9.0858810864
 10
-3.8826930291
 20
9.1051900488
 10
-3.8785524571
 20
9.1345030717
 10
-3.8747363932
 20
9.1640227274
  0
LINE
  5
2AA
100
AcDbEntity
  8
CURVE
100
AcDbLine
 62
253
  6
CONTINUOUS
 10
-4.1117361611
 20
9.4110522649
 11
-4.098984444
 21
9.4018251825
  0
LINE
  5
2AB
100
AcDbEntity
  8
CURVE
100
AcDbLine
 62
253
  6
CONTINUOUS
 10
-4.098984444
 20
9.4018251825
 11
-4.0864656072
 21
9.3926457158
  0
LWPOLYLINE
  5
2AC
100
AcDbEntity
  8
CURVE
100
AcDbPolyline
 62
253
  6
CONTINUOUS
 90
3
 70
0
 10
-4.0864656072
 20
9.3926457158
 10
-4.0741757322
 20
9.3835249504
 10
-4.0681154307
 20
9.3789900448
  0
LWPOLYLINE
  5
2AD
100
AcDbEntity
  8
ASSI
100
AcDbPolyline
 62
253
  6
CONTINUOUS
 90
22
 70
0
 10
5.5405334265
 20
-6.2366010469
 10
5.5400512212
 20
-6.2242197633
 10
5.5387948981
 20
-6.21144325
 10
5.536771482
 20
-6.1983429449
 10
5.5339922865
 20
-6.1849920961
 10
5.5304728515
 20
-6.1714653529
 10
5.5262328555
 20
-6.1578383486
 10
5.5212960063
 20
-6.1441872765
 10
5.5156899077
 20
-6.1305884641
 10
5.5094459057
 20
-6.1171179474
 10
5.502598913
 20
-6.1038510444
 10
5.4951872137
 20
-6.0908619347
 10
5.4872522496
 20
-6.0782232446
 10
5.478838388
 20
-6.0660056411
 10
5.4699926737
 20
-6.0542774362
 10
5.4607645665
 20
-6.043104206
 10
5.4512056638
 20
-6.0325484231
 10
5.4413694126
 20
-6.0226691077
 10
5.4313108108
 20
-6.0135214976
 10
5.4210860992
 20
-6.0051567393
 10
5.4107524473
 20
-5.9976216022
 10
5.4003676339
 20
-5.9909582168
  0
LWPOLYLINE
  5
2AE
100
AcDbEntity
  8
ASSI
100
AcDbPolyline
 62
253
  6
CONTINUOUS
 90
6
 70
0
 10
5.6464648167
 20
-15.7941534748
 10
5.6779088817
 20
-17.1500634099
 10
5.7134305811
 20
-18.5035879193
 10
5.7530299401
 20
-19.8547217939
 10
5.7967069335
 20
-21.2034702428
 10
5.8444615613
 20
-22.5498332659
  0
LWPOLYLINE
  5
2AF
100
AcDbEntity
  8
ASSI
100
AcDbPolyline
 62
253
  6
CONTINUOUS
 90
7
 70
0
 10
5.5434387707
 20
-7.6090282707
 10
5.5504116652
 20
-8.9791073079
 10
5.5614640665
 20
-10.3468313735
 10
5.5765966238
 20
-11.71220541
 10
5.5958086877
 20
-13.0752244748
 10
5.6190983103
 20
-14.4358737409
 10
5.6464648167
 20
-15.7941534748
  0
LINE
  5
2B0
100
AcDbEntity
  8
ASSI
100
AcDbLine
 62
253
  6
CONTINUOUS
 10
5.5405453828
 20
-6.2365942619
 11
5.5434387707
 21
-7.6090282707
  0
LWPOLYLINE
  5
2B1
100
AcDbEntity
  8
ASSI
100
AcDbPolyline
 62
253
  6
CONTINUOUS
 90
8
 70
0
 10
5.6464648167
 20
4.0174013623
 10
5.6190983103
 20
2.6286037815
 10
5.5958086877
 20
1.2419830185
 10
5.5765966238
 20
-0.1424604409
 10
5.5614640665
 20
-1.5247095969
 10
5.5504116652
 20
-2.904758783
 10
5.5434387707
 20
-4.2826136658
 10
5.5405453827
 20
-5.6582742454
  0
LWPOLYLINE
  5
2B2
100
AcDbEntity
  8
ASSI
100
AcDbPolyline
 62
253
  6
CONTINUOUS
 90
6
 70
0
 10
5.8444615613
 20
10.9938778551
 10
5.7967069335
 20
9.5942611063
 10
5.7530299401
 20
8.1968061189
 10
5.7134305811
 20
6.8015128926
 10
5.6779088817
 20
5.4083762469
 10
5.6464648167
 20
4.0174013623
  0
LWPOLYLINE
  5
2B3
100
AcDbEntity
  8
ASSI
100
AcDbPolyline
 62
253
  6
CONTINUOUS
 90
12
 70
0
 10
5.5405334265
 20
-5.6582807935
 10
5.5400512227
 20
-5.6703021989
 10
5.5387949034
 20
-5.6817919314
 10
5.536771493
 20
-5.6926857481
 10
5.5339923051
 20
-5.7029227381
 10
5.5304728791
 20
-5.7124456633
 10
5.5262328931
 20
-5.7212012778
 10
5.5212960543
 20
-5.7291406262
 10
5.5156899661
 20
-5.736219317
 10
5.509445974
 20
-5.742397771
 10
5.5025989902
 20
-5.7476414425
 10
5.4977430092
 20
-5.7505895326
  0
LWPOLYLINE
  5
2B4
100
AcDbEntity
  8
CURVE
100
AcDbPolyline
 62
253
  6
CONTINUOUS
 90
89
 70
0
 10
-4.1531840034
 20
9.6705963072
 10
-4.177956606
 20
9.6862259718
 10
-4.2022641838
 20
9.7010522556
 10
-4.2261050424
 20
9.715035939
 10
-4.2494774872
 20
9.7281378019
 10
-4.2723798238
 20
9.7403186245
 10
-4.2948103577
 20
9.751539187
 10
-4.3167673943
 20
9.7617602695
 10
-4.3382510279
 20
9.7709596697
 10
-4.3592685082
 20
9.7791832554
 10
-4.3798288737
 20
9.7864939119
 10
-4.3999411628
 20
9.7929545247
 10
-4.419614414
 20
9.798627979
 10
-4.4388576657
 20
9.8035771603
 10
-4.4576799564
 20
9.8078649538
 10
-4.4791203029
 20
9.8121044709
 10
-4.5000203125
 20
9.8155639165
 10
-4.5204003206
 20
9.8182778473
 10
-4.5402806625
 20
9.82028082
 10
-4.5596816737
 20
9.8216073913
 10
-4.5786236897
 20
9.8222921178
 10
-4.600773994
 20
9.8223116942
 10
-4.622310528
 20
9.8214953924
 10
-4.6432511917
 20
9.819881829
 10
-4.6636138849
 20
9.8175096206
 10
-4.6834165075
 20
9.8144173838
 10
-4.7074094429
 20
9.8095886259
 10
-4.7305901187
 20
9.8037120735
 10
-4.752993417
 20
9.7968046383
 10
-4.7746542197
 20
9.7888832318
 10
-4.7956047364
 20
9.7799577931
 10
-4.8158664869
 20
9.7700103729
 10
-4.8354583182
 20
9.7590160491
 10
-4.8543990777
 20
9.7469499
 10
-4.8690906107
 20
9.7365061608
 10
-4.8833573605
 20
9.7253335943
 10
-4.8971791676
 20
9.7134052915
 10
-4.9105358726
 20
9.7006943432
 10
-4.9234073161
 20
9.6871738405
 10
-4.9357678806
 20
9.6728176337
 10
-4.9475701158
 20
9.6576026111
 10
-4.9587611134
 20
9.6415064203
 10
-4.9692879651
 20
9.6245067092
 10
-4.9790977627
 20
9.6065811253
 10
-4.9866835358
 20
9.5909264399
 10
-4.9936851685
 20
9.5746404765
 10
-5.0000532163
 20
9.5577504467
 10
-5.005738235
 20
9.5402835618
 10
-5.0106907802
 20
9.5222670335
 10
-5.0148614077
 20
9.5037280734
 10
-5.0182050908
 20
9.4846948576
 10
-5.0206944743
 20
9.4651994207
 10
-5.0223066204
 20
9.4452747621
 10
-5.0230185916
 20
9.4249538811
 10
-5.0228074501
 20
9.404269777
 10
-5.0216502583
 20
9.3832554491
 10
-5.0201479786
 20
9.3672968317
 10
-5.0180925146
 20
9.3511788674
 10
-5.0154757376
 20
9.3349093982
 10
-5.0122895189
 20
9.318496266
 10
-5.0085261237
 20
9.3019491382
 10
-5.0041793923
 20
9.2852849842
 10
-4.9992392911
 20
9.268518066
 10
-4.9936787171
 20
9.2516445136
 10
-4.9874716245
 20
9.2346641393
 10
-4.9806132661
 20
9.2176096167
 10
-4.9731074305
 20
9.2005216468
 10
-4.9649707509
 20
9.1834401787
 10
-4.9562265607
 20
9.166410123
 10
-4.9469121473
 20
9.1494969882
 10
-4.9370512111
 20
9.1327479187
 10
-4.9265991494
 20
9.1161160053
 10
-4.915514344
 20
9.0995555814
 10
-4.9038354183
 20
9.0831200036
 10
-4.8916210559
 20
9.066887385
 10
-4.8789299405
 20
9.0509358382
 10
-4.86581676
 20
9.0353341121
 10
-4.8523202185
 20
9.0201134999
 10
-4.8384750245
 20
9.0052959311
 10
-4.8243158862
 20
8.990903335
 10
-4.8077927479
 20
8.9749988011
 10
-4.7909484934
 20
8.959684561
 10
-4.773826723
 20
8.9449671998
 10
-4.7564710367
 20
8.9308533026
 10
-4.7389250347
 20
8.9173494545
 10
-4.7212323172
 20
8.9044622406
 10
-4.7034364843
 20
8.8921982459
 10
-4.6909400509
 20
8.8839869276
 10
-4.6784213419
 20
8.8760812899
  0
LWPOLYLINE
  5
2B5
100
AcDbEntity
  8
CURVE
100
AcDbPolyline
 62
253
  6
CONTINUOUS
 90
6
 70
0
 10
-4.1582645209
 20
9.4431415169
 10
-4.1529449543
 20
9.4396471643
 10
-4.1476634939
 20
9.4361254356
 10
-4.1424198532
 20
9.4325804437
 10
-4.1372137453
 20
9.4290163009
 10
-4.1320448834
 20
9.4254371199
  0
LINE
  5
2B6
100
AcDbEntity
  8
CURVE
100
AcDbLine
 62
253
  6
CONTINUOUS
 10
-4.1320448834
 20
9.4254371199
 11
-4.1218177507
 21
9.4182500934
  0
LINE
  5
2B7
100
AcDbEntity
  8
CURVE
100
AcDbLine
 62
253
  6
CONTINUOUS
 10
-4.1218177507
 20
9.4182500934
 11
-4.1117361611
 21
9.4110522649
  0
LWPOLYLINE
  5
2B8
100
AcDbEntity
  8
CURVE
100
AcDbPolyline
 62
253
  6
CONTINUOUS
 90
56
 70
0
 10
-0.7599986312
 20
9.5936206214
 10
-0.8030539868
 20
9.639183069
 10
-0.846530536
 20
9.6830284898
 10
-0.8904502167
 20
9.7251846344
 10
-0.9348349666
 20
9.7656792533
 10
-0.9797067235
 20
9.8045400971
 10
-1.025071051
 20
9.8417801993
 10
-1.0708680152
 20
9.8773537259
 10
-1.1170213081
 20
9.9112001255
 10
-1.1634546216
 20
9.943258847
 10
-1.2100916475
 20
9.9734693393
 10
-1.2568573182
 20
10.0017758786
 10
-1.3036815266
 20
10.0281420509
 10
-1.3504954062
 20
10.0525362696
 10
-1.3972300902
 20
10.0749269483
 10
-1.4438167119
 20
10.0952825003
 10
-1.4901917678
 20
10.1135719442
 10
-1.5363132063
 20
10.1297667189
 10
-1.5821443388
 20
10.1438388685
 10
-1.6276484769
 20
10.1557604368
 10
-1.6727889321
 20
10.165503468
 10
-1.7175210147
 20
10.1730453876
 10
-1.7617680304
 20
10.1783851474
 10
-1.8054452838
 20
10.1815270807
 10
-1.8484680794
 20
10.1824755209
 10
-1.8907517218
 20
10.1812348013
 10
-1.9322222673
 20
10.1778097494
 10
-1.9728487793
 20
10.1722071687
 10
-2.0126110727
 20
10.1644343567
 10
-2.0514889628
 20
10.1544986112
 10
-2.0894622645
 20
10.1424072297
 10
-2.1265016212
 20
10.128171184
 10
-2.1625409886
 20
10.1118161431
 10
-2.1975051508
 20
10.09337145
 10
-2.2313188917
 20
10.0728664479
 10
-2.2639069954
 20
10.0503304799
 10
-2.2952036049
 20
10.0257914662
 10
-2.3251803007
 20
9.999271636
 10
-2.3538180221
 20
9.9707917956
 10
-2.3810977086
 20
9.9403727513
 10
-2.4070002997
 20
9.9080353094
 10
-2.4315024889
 20
9.8738058655
 10
-2.4545639864
 20
9.8377331718
 10
-2.4761402565
 20
9.7998715702
 10
-2.4961867633
 20
9.7602754022
 10
-2.5146589711
 20
9.7189990094
 10
-2.531519662
 20
9.6761032333
 10
-2.5467608898
 20
9.6316749144
 10
-2.5603820262
 20
9.5858073929
 10
-2.5723824428
 20
9.538594009
 10
-2.5827615113
 20
9.4901281031
 10
-2.5915158584
 20
9.4404806316
 10
-2.598631131
 20
9.3896330153
 10
-2.6040902309
 20
9.3375442915
 10
-2.6078760601
 20
9.2841734972
 10
-2.6099715204
 20
9.2294796696
  0
LWPOLYLINE
  5
2B9
100
AcDbEntity
  8
CURVE
100
AcDbPolyline
 62
253
  6
CONTINUOUS
 90
73
 70
0
 10
-0.2083831891
 20
8.3311280219
 10
-0.2059886548
 20
8.3283441274
 10
-0.2035979903
 20
8.3256933749
 10
-0.2012050928
 20
8.3231658709
 10
-0.1988038593
 20
8.3207517222
 10
-0.1963881872
 20
8.3184410355
 10
-0.1939519735
 20
8.3162239175
 10
-0.1914902516
 20
8.3140927955
 10
-0.1890025995
 20
8.3120493799
 10
-0.1864897313
 20
8.3100977016
 10
-0.1839523611
 20
8.3082417914
 10
-0.181391203
 20
8.3064856805
 10
-0.1788069712
 20
8.3048333996
 10
-0.1762013437
 20
8.303288808
 10
-0.1735798544
 20
8.3018550784
 10
-0.1709490009
 20
8.3005352116
 10
-0.168315281
 20
8.2993322085
 10
-0.1656851924
 20
8.29824907
 10
-0.1630652329
 20
8.297288797
 10
-0.1604614014
 20
8.2964538425
 10
-0.1578777023
 20
8.2957444684
 10
-0.1553176411
 20
8.2951603888
 10
-0.1527847233
 20
8.2947013175
 10
-0.1502824544
 20
8.2943669686
 10
-0.1478143399
 20
8.2941570561
 10
-0.1453838877
 20
8.2940714821
 10
-0.1429946142
 20
8.2941109007
 10
-0.1406500383
 20
8.294276154
 10
-0.1383536785
 20
8.2945680842
 10
-0.1361090538
 20
8.2949875334
 10
-0.1339196827
 20
8.2955353437
 10
-0.131788983
 20
8.2962121167
 10
-0.1297199676
 20
8.2970174905
 10
-0.1277155487
 20
8.2979508627
 10
-0.1257786381
 20
8.299011631
 10
-0.1239121479
 20
8.3001991928
 10
-0.1221189899
 20
8.3015129457
 10
-0.1204018539
 20
8.302951705
 10
-0.1187625398
 20
8.304511957
 10
-0.1172026253
 20
8.3061896057
 10
-0.1157236882
 20
8.3079805549
 10
-0.1143273061
 20
8.3098807088
 10
-0.1130150567
 20
8.3118859713
 10
-0.1117884736
 20
8.3139923158
 10
-0.1106489138
 20
8.3161959939
 10
-0.1095976901
 20
8.3184933267
 10
-0.1086361152
 20
8.3208806352
 10
-0.1077655022
 20
8.3233542404
 10
-0.1069871638
 20
8.3259104633
 10
-0.1063024756
 20
8.3285457568
 10
-0.1057130646
 20
8.3312571001
 10
-0.1052206205
 20
8.3340416043
 10
-0.1048268331
 20
8.3368963806
 10
-0.1045333921
 20
8.33981854
 10
-0.1043419872
 20
8.3428051936
 10
-0.1042535934
 20
8.3458524145
 10
-0.1042663267
 20
8.3489521233
 10
-0.1043775883
 20
8.3520952027
 10
-0.1045847792
 20
8.3552725354
 10
-0.1048853008
 20
8.358475004
 10
-0.1052765542
 20
8.3616934913
 10
-0.1057559175
 20
8.3649200734
 10
-0.1063206764
 20
8.368151601
 10
-0.1069680937
 20
8.3713861183
 10
-0.1076954319
 20
8.3746216695
 10
-0.1084999537
 20
8.3778562987
 10
-0.1093789219
 20
8.3810880503
 10
-0.1103311482
 20
8.3843170662
 10
-0.1113616412
 20
8.3875518799
 10
-0.1124769587
 20
8.390803123
 10
-0.1136836584
 20
8.3940814266
 10
-0.1149882981
 20
8.3973974223
 10
-0.1163974356
 20
8.4007617414
  0
LWPOLYLINE
  5
2BA
100
AcDbEntity
  8
ASSI
100
AcDbPolyline
 62
253
  6
CONTINUOUS
 90
28
 70
0
 10
6.5256492207
 20
12.1554661954
 10
6.5239685812
 20
12.1788977761
 10
6.5211197365
 20
12.2029520332
 10
6.5171123149
 20
12.2275476695
 10
6.5119598603
 20
12.2526015578
 10
6.5056797867
 20
12.2780290224
 10
6.498293319
 20
12.3037441249
 10
6.4898254216
 20
12.3296599547
 10
6.4803047137
 20
12.3556889227
 10
6.4697633729
 20
12.3817430577
 10
6.4582370261
 20
12.4077343031
 10
6.4457646296
 20
12.433574815
 10
6.4323883367
 20
12.4591772589
 10
6.418153356
 20
12.4844551049
 10
6.403107798
 20
12.5093229201
 10
6.3873025131
 20
12.5336966574
 10
6.3707909191
 20
12.5574939397
 10
6.3536288209
 20
12.5806343379
 10
6.3358742224
 20
12.6030396431
 10
6.3175871295
 20
12.624634131
 10
6.2988293481
 20
12.6453448175
 10
6.2796642749
 20
12.6651017054
 10
6.2601566831
 20
12.6838380214
 10
6.2403725035
 20
12.7014904412
 10
6.2203786018
 20
12.7179993041
 10
6.2002425524
 20
12.7333088139
 10
6.1800324103
 20
12.7473672285
 10
6.1598164806
 20
12.7601270337
  0
LWPOLYLINE
  5
2BB
100
AcDbEntity
  8
ASSI
100
AcDbPolyline
 62
253
  6
CONTINUOUS
 90
16
 70
0
 10
6.5256492207
 20
-22.9517930141
 10
6.5239685805
 20
-22.9757423732
 10
6.5211197345
 20
-22.9989089204
 10
6.517112311
 20
-23.0212143585
 10
6.5119598541
 20
-23.0425833007
 10
6.5056797779
 20
-23.0629435253
 10
6.4982933073
 20
-23.0822262198
 10
6.4898254069
 20
-23.1003662135
 10
6.480304696
 20
-23.1173021979
 10
6.4697633522
 20
-23.1329769334
 10
6.4582370027
 20
-23.1473374433
 10
6.4457646037
 20
-23.1603351928
 10
6.4323883088
 20
-23.1719262527
 10
6.4181533264
 20
-23.182071448
 10
6.4031077673
 20
-23.1907364906
 10
6.4012467948
 20
-23.1916770904
  0
LINE
  5
2BC
100
AcDbEntity
  8
ASSI
100
AcDbLine
 62
253
  6
CONTINUOUS
 10
9.8658859303
 20
-3.4568644658
 11
5.4003676339
 21
-5.9909582168
  0
LINE
  5
2BD
100
AcDbEntity
  8
ASSI
100
AcDbLine
 62
253
  6
CONTINUOUS
 10
10.0073072874
 20
-3.7017947878
 11
5.5405453828
 21
-6.2365942619
  0
LINE
  5
2BE
100
AcDbEntity
  8
ASSI
100
AcDbLine
 62
253
  6
CONTINUOUS
 10
5.5405453827
 20
-5.6582742454
 11
10.0073072874
 21
-3.2119499267
  0
LINE
  5
2BF
100
AcDbEntity
  8
ASSI
100
AcDbLine
 62
7
  6
CONTINUOUS
 10
5.4976719402
 20
-5.7506285123
 11
9.9645862649
 21
-3.3042207174
  0
LWPOLYLINE
  5
2C0
100
AcDbEntity
  8
ASSI
100
AcDbPolyline
 62
253
  6
CONTINUOUS
 90
31
 70
0
 10
5.4003676339
 20
-5.9909582168
 10
5.3888731389
 20
-5.9971494797
 10
5.3769150354
 20
-6.0029617386
 10
5.3644933234
 20
-6.0083949933
 10
5.351571939
 20
-6.0134620522
 10
5.338186946
 20
-6.018150107
 10
5.3244465367
 20
-6.0224207332
 10
5.3103478879
 20
-6.0262704184
 10
5.2958938227
 20
-6.029702675
 10
5.2812010021
 20
-6.0326896157
 10
5.2662679332
 20
-6.0352275193
 10
5.251096109
 20
-6.037320107
 10
5.2358066695
 20
-6.0389506547
 10
5.2203984765
 20
-6.0401154841
 10
5.2048726683
 20
-6.0408182736
 10
5.1893538002
 20
-6.0410533345
 10
5.1738418805
 20
-6.0408168739
 10
5.158336901
 20
-6.0401126849
 10
5.1429633925
 20
-6.038946458
 10
5.1277226491
 20
-6.0373145088
 10
5.1126133768
 20
-6.0352205217
 10
5.0977562239
 20
-6.0326812407
 10
5.0831527974
 20
-6.0296929468
 10
5.0688014903
 20
-6.026259359
 10
5.0548181298
 20
-6.0224083783
 10
5.041205664
 20
-6.018136499
 10
5.027961145
 20
-6.0134472268
 10
5.0151915556
 20
-6.0083789796
 10
5.0029325569
 20
-6.0029445633
 10
4.9911484879
 20
-5.997131172
 10
4.9798393485
 20
-5.9909388058
  0
LWPOLYLINE
  5
2C1
100
AcDbEntity
  8
ASSI
100
AcDbPolyline
 62
253
  6
CONTINUOUS
 90
31
 70
0
 10
5.5405453826
 20
-6.2365943057
 10
5.5214627566
 20
-6.2468140177
 10
5.5015013135
 20
-6.2564483031
 10
5.4807147326
 20
-6.2654717199
 10
5.4591598755
 20
-6.2738603672
 10
5.4368937335
 20
-6.2815923141
 10
5.413972964
 20
-6.2886473582
 10
5.3904570807
 20
-6.2950071459
 10
5.3664106987
 20
-6.3006541909
 10
5.3419003974
 20
-6.3055722902
 10
5.3169928809
 20
-6.3097483747
 10
5.2917540043
 20
-6.3131717545
 10
5.2662507722
 20
-6.3158328992
 10
5.240551254
 20
-6.3177248735
 10
5.2147246273
 20
-6.3188427923
 10
5.1888403279
 20
-6.3191832342
 10
5.1629677496
 20
-6.3187454526
 10
5.1371762479
 20
-6.3175308379
 10
5.1115351533
 20
-6.3155423176
 10
5.0861134771
 20
-6.3127854044
 10
5.0609790759
 20
-6.3092676754
 10
5.0361986866
 20
-6.3049981811
 10
5.0118378423
 20
-6.2999882138
 10
4.9879628254
 20
-6.2942514678
 10
4.9646397049
 20
-6.2878036819
 10
4.9419325412
 20
-6.2806628927
 10
4.9199002988
 20
-6.2728480439
 10
4.8985990516
 20
-6.2643789117
 10
4.8780851289
 20
-6.255277636
 10
4.8584146453
 20
-6.2455689564
 10
4.8396404999
 20
-6.235278808
  0
LWPOLYLINE
  5
2C2
100
AcDbEntity
  8
ASSI
100
AcDbPolyline
 62
253
  6
CONTINUOUS
 90
7
 70
0
 10
5.4139729629
 20
-5.7089532386
 10
5.4368937324
 20
-5.7021208592
 10
5.4591598742
 20
-5.6946153454
 10
5.4807147314
 20
-5.6864552833
 10
5.5015013125
 20
-5.6776620118
 10
5.5214627561
 20
-5.668259864
 10
5.5405453826
 20
-5.6582742014
  0
LINE
  5
2C3
100
AcDbEntity
  8
ASSI
100
AcDbLine
 62
7
  6
CONTINUOUS
 10
10.0073072874
 20
-3.7017947878
 11
10.0073072874
 21
-14.1526329833
  0
LINE
  5
2C4
100
AcDbEntity
  8
ASSI
100
AcDbLine
 62
7
  6
CONTINUOUS
 10
10.0073072874
 20
-3.2119499267
 11
10.0073072874
 21
7.2388882687
  0
LINE
  5
2C5
100
AcDbEntity
  8
ASSI
100
AcDbLine
 62
7
  6
CONTINUOUS
 10
10.0073072874
 20
7.2388882687
 11
9.465139796
 21
13.9692841272
  0
LINE
  5
2C6
100
AcDbEntity
  8
ASSI
100
AcDbLine
 62
7
  6
CONTINUOUS
 10
10.0073072874
 20
-14.1526329833
 11
9.465139796
 21
-21.48762865
  0
LINE
  5
2C7
100
AcDbEntity
  8
ASSI
100
AcDbLine
 62
253
  6
CONTINUOUS
 10
-9.7747722896
 20
19.6281951243
 11
5.1438774738
 21
11.0143537259
  0
LINE
  5
2C8
100
AcDbEntity
  8
ASSI
100
AcDbLine
 62
7
  6
CONTINUOUS
 10
7.0789225253
 20
15.7180413154
 11
6.4065321933
 21
15.5882199375
  0
LINE
  5
2C9
100
AcDbEntity
  8
ASSI
100
AcDbLine
 62
253
  6
CONTINUOUS
 10
-8.7821936678
 20
21.387471309
 11
6.1598289413
 21
12.7601347226
  0
LINE
  5
2CA
100
AcDbEntity
  8
ASSI
100
AcDbLine
 62
7
  6
CONTINUOUS
 10
6.2133470281
 20
15.6138287727
 11
3.831061932
 21
16.9893303301
  0
LINE
  5
2CB
100
AcDbEntity
  8
ASSI
100
AcDbLine
 62
7
  6
CONTINUOUS
 10
-1.7062489212
 20
20.186504218
 11
-4.0885340173
 21
21.5620057754
  0
LINE
  5
2CC
100
AcDbEntity
  8
ASSI
100
AcDbLine
 62
7
  6
CONTINUOUS
 10
9.0805130013
 20
14.5623480604
 11
7.0789225253
 21
15.7180413154
  0
LINE
  5
2CD
100
AcDbEntity
  8
ASSI
100
AcDbLine
 62
7
  6
CONTINUOUS
 10
3.9594645694
 20
17.5191772432
 11
-0.8406734239
 21
20.2907167607
  0
LINE
  5
2CE
100
AcDbEntity
  8
ASSI
100
AcDbLine
 62
7
  6
CONTINUOUS
 10
-3.9601313799
 20
22.0918526884
 11
-5.9617218558
 21
23.2475459434
  0
LINE
  5
2CF
100
AcDbEntity
  8
ASSI
100
AcDbLine
 62
7
  6
CONTINUOUS
 10
-0.8406734239
 20
20.2907167607
 11
-1.513063756
 21
20.1608953828
  0
LWPOLYLINE
  5
2D0
100
AcDbEntity
  8
ASSI
100
AcDbPolyline
 62
253
  6
CONTINUOUS
 90
28
 70
0
 10
5.8444615613
 20
-22.5498332659
 10
5.8232233739
 20
-22.5619766598
 10
5.8009061557
 20
-22.5733926967
 10
5.7775837543
 20
-22.5840436012
 10
5.7533333432
 20
-22.5938941295
 10
5.7282351667
 20
-22.6029116863
 10
5.7023722744
 20
-22.6110664327
 10
5.6758302464
 20
-22.6183313846
 10
5.64869691
 20
-22.6246825025
 10
5.621062049
 20
-22.6300987705
 10
5.5930171068
 20
-22.6345622663
 10
5.564654884
 20
-22.6380582202
 10
5.5360692308
 20
-22.6405750642
 10
5.5073547367
 20
-22.64210447
 10
5.4786064178
 20
-22.6426413768
 10
5.4499194018
 20
-22.6421840081
 10
5.4213886139
 20
-22.6407338772
 10
5.393108462
 20
-22.6382957827
 10
5.365172525
 20
-22.6348777921
 10
5.3376732424
 20
-22.6304912156
 10
5.3107016091
 20
-22.6251505682
 10
5.284346874
 20
-22.6188735222
 10
5.2586962446
 20
-22.6116808482
 10
5.2338345985
 20
-22.6035963466
 10
5.2098442026
 20
-22.594646769
 10
5.1868044409
 20
-22.5848617295
 10
5.1647915517
 20
-22.5742736067
 10
5.1438783755
 20
-22.5629174364
  0
LINE
  5
2D1
100
AcDbEntity
  8
ASSI
100
AcDbLine
 62
253
  6
CONTINUOUS
 10
6.5256492207
 20
-22.9517930141
 11
9.465139796
 21
-21.48762865
  0
LINE
  5
2D2
100
AcDbEntity
  8
ASSI
100
AcDbLine
 62
7
  6
CONTINUOUS
 10
6.4012467948
 20
-23.1916770904
 11
9.329562123
 21
-21.7330791325
  0
ELLIPSE
  5
2D3
100
AcDbEntity
  8
ASSI
100
AcDbEllipse
 62
7
  6
CONTINUOUS
 10
9.1115612034
 20
-21.2830725959
 30
0.0
 11
-0.2148150744
 21
0.4515576038
 31
0.0
 40
0.6258090719
 41
-3.1302698991
 42
-2.3092664522
  0
ELLIPSE
  5
2D4
100
AcDbEntity
  8
ASSI
100
AcDbEllipse
 62
7
  6
CONTINUOUS
 10
9.8658643887
 20
-3.6201523013
 30
0.0
 11
-0.1000238792
 21
0.1731956925
 31
0.0
 40
0.5774195892
 41
-2.3562809449
 42
-0.7856369171
  0
ELLIPSE
  5
2D5
100
AcDbEntity
  8
CURVE
100
AcDbEllipse
 62
253
  6
CONTINUOUS
 10
337.0613423691
 20
210.5099405134
 30
0.0
 11
-637.6785613432
 21
743.9267942495
 31
0.0
 40
0.4107572506
 41
1.5165228021
 42
1.5196553153
  0
ELLIPSE
  5
2D6
100
AcDbEntity
  8
CURVE
100
AcDbEllipse
 62
253
  6
CONTINUOUS
 10
336.6687634428
 20
210.7366106653
 30
0.0
 11
-637.6763351177
 21
743.9255948749
 31
0.0
 40
0.4107583049
 41
1.5172445461
 42
1.51994792
  0
ELLIPSE
  5
2D7
100
AcDbEntity
  8
CURVE
100
AcDbEllipse
 62
253
  6
CONTINUOUS
 10
368.3609965613
 20
192.4379124596
 30
0.0
 11
706.451645681
 21
155.8793029222
 31
0.0
 40
0.2019688291
 41
-2.167474302
 42
-2.1647709507
  0
ELLIPSE
  5
2D8
100
AcDbEntity
  8
CURVE
100
AcDbEllipse
 62
253
  6
CONTINUOUS
 10
368.7520857677
 20
192.2121024534
 30
0.0
 11
706.3998185075
 21
155.9155466692
 31
0.0
 40
0.2019462377
 41
-2.1682470092
 42
-2.1651141239
  0
ELLIPSE
  5
2D9
100
AcDbEntity
  8
CURVE
100
AcDbEllipse
 62
253
  6
CONTINUOUS
 10
334.9933230101
 20
211.7039889729
 30
0.0
 11
-637.6520104667
 21
743.9124901136
 31
0.0
 40
0.4107698248
 41
1.5165251426
 42
1.519663655
  0
ELLIPSE
  5
2DA
100
AcDbEntity
  8
CURVE
100
AcDbEllipse
 62
253
  6
CONTINUOUS
 10
334.601880515
 20
211.9300029637
 30
0.0
 11
-637.6003228269
 21
743.8846442899
 31
0.0
 40
0.4107943054
 41
1.5172512482
 42
1.5199546221
  0
ELLIPSE
  5
2DB
100
AcDbEntity
  8
CURVE
100
AcDbEllipse
 62
253
  6
CONTINUOUS
 10
366.2902744841
 20
193.6335214348
 30
0.0
 11
706.3871218032
 21
155.9244255716
 31
0.0
 40
0.2019407017
 41
-2.167537501
 42
-2.1648341497
  0
ELLIPSE
  5
2DC
100
AcDbEntity
  8
CURVE
100
AcDbEllipse
 62
253
  6
CONTINUOUS
 10
366.6831296813
 20
193.4066917676
 30
0.0
 11
706.389281671
 21
155.9229151637
 31
0.0
 40
0.2019416435
 41
-2.16825733
 42
-2.1651185161
  0
ELLIPSE
  5
2DD
100
AcDbEntity
  8
ASSI
100
AcDbEllipse
 62
7
  6
CONTINUOUS
 10
-5.931104076
 20
22.8585432152
 30
0.0
 11
-0.2805986523
 21
0.4138767202
 31
0.0
 40
0.5251497255
 41
-0.8253745819
 42
-0.0067082778
  0
ELLIPSE
  5
2DE
100
AcDbEntity
  8
ASSI
100
AcDbEllipse
 62
7
  6
CONTINUOUS
 10
9.1115612034
 20
14.1730968118
 30
0.0
 11
-0.2807400337
 21
0.4141474974
 31
0.0
 40
0.5245128892
 41
-2.3945640771
 42
-0.8246811388
  0
ELLIPSE
  5
2DF
100
AcDbEntity
  8
ASSI
100
AcDbEllipse
 62
7
  6
CONTINUOUS
 10
9.8658643887
 20
-3.1302576993
 30
0.0
 11
-0.1000390991
 21
0.1732220807
 31
0.0
 40
0.5772437351
 41
-3.1546807054
 42
-2.3564331449
  0
ELLIPSE
  5
2E0
100
AcDbEntity
  8
ASSI
100
AcDbEllipse
 62
7
  6
CONTINUOUS
 10
6.3547683843
 20
15.7040415702
 30
0.0
 11
0.1999154856
 21
0.0095814127
 31
0.0
 40
0.6067642562
 41
-2.385266879
 42
-1.3380693278
  0
ELLIPSE
  5
2E1
100
AcDbEntity
  8
ASSI
100
AcDbEllipse
 62
7
  6
CONTINUOUS
 10
-1.564827565
 20
20.2767170154
 30
0.0
 11
0.1999154856
 21
0.0095814127
 31
0.0
 40
0.6067642562
 41
-2.385266879
 42
-1.3380693278
  0
ELLIPSE
  5
2E2
100
AcDbEntity
  8
ASSI
100
AcDbEllipse
 62
7
  6
CONTINUOUS
 10
3.9724832882
 20
17.0795431276
 30
0.0
 11
0.1999154856
 21
0.0095814127
 31
0.0
 40
0.6067642562
 41
2.850720877
 42
3.8979184282
  0
ELLIPSE
  5
2E3
100
AcDbEntity
  8
ASSI
100
AcDbEllipse
 62
7
  6
CONTINUOUS
 10
-3.9471126611
 20
21.6522185729
 30
0.0
 11
0.1999154856
 21
0.0095814127
 31
0.0
 40
0.6067642562
 41
2.850720877
 42
3.8979184282
  0
ELLIPSE
  5
2E4
100
AcDbEntity
  8
CURVE
100
AcDbEllipse
 62
253
  6
CONTINUOUS
 10
345.0078974021
 20
205.9216992311
 30
0.0
 11
434.8557136338
 21
325.3331872262
 31
0.0
 40
0.1337579852
 41
2.3829017481
 42
2.3837960935
  0
ELLIPSE
  5
2E5
100
AcDbEntity
  8
CURVE
100
AcDbEllipse
 62
253
  6
CONTINUOUS
 10
356.1934434794
 20
199.4633051139
 30
0.0
 11
-139.9147251553
 21
560.6700818408
 31
0.0
 40
0.6923945743
 41
-4.5477649083
 42
-4.5449475702
  0
ELLIPSE
  5
2E6
100
AcDbEntity
  8
CURVE
100
AcDbEllipse
 62
253
  6
CONTINUOUS
 10
350.135000551
 20
202.9613741307
 30
0.0
 11
250.9742080195
 21
432.4497338029
 31
0.0
 40
0.5758441338
 41
-3.9539449559
 42
-3.9520796158
  0
ELLIPSE
  5
2E7
100
AcDbEntity
  8
CURVE
100
AcDbEllipse
 62
253
  6
CONTINUOUS
 10
355.7940770603
 20
199.693894279
 30
0.0
 11
-140.96030484
 21
560.8531997748
 31
0.0
 40
0.692030266
 41
-4.5469980784
 42
-4.5442524769
  0
ELLIPSE
  5
2E8
100
AcDbEntity
  8
CURVE
100
AcDbEllipse
 62
253
  6
CONTINUOUS
 10
439.0469000194
 20
151.6247577054
 30
0.0
 11
3571.5688943057
 21
-2453.5110122672
 31
0.0
 40
0.0851016649
 41
-1.6366003754
 42
-1.6365750379
  0
ELLIPSE
  5
2E9
100
AcDbEntity
  8
CURVE
100
AcDbEllipse
 62
253
  6
CONTINUOUS
 10
345.0089522427
 20
205.9210901794
 30
0.0
 11
434.8309243832
 21
325.3469172494
 31
0.0
 40
0.1338168776
 41
2.3842820044
 42
2.3853447267
  0
ELLIPSE
  5
2EA
100
AcDbEntity
  8
CURVE
100
AcDbEllipse
 62
253
  6
CONTINUOUS
 10
390.2144725428
 20
179.8199893163
 30
0.0
 11
1370.9014289098
 21
-1167.5802311789
 31
0.0
 40
0.214228851
 41
-1.6750120513
 42
-1.6742940119
  0
ELLIPSE
  5
2EB
100
AcDbEntity
  8
CURVE
100
AcDbEllipse
 62
253
  6
CONTINUOUS
 10
357.5248363212
 20
198.6945755733
 30
0.0
 11
-12.9090146092
 21
536.4158796509
 31
0.0
 40
0.7172122315
 41
-4.3699071536
 42
-4.367056483
  0
ENDSEC
  0
SECTION
  2
OBJECTS
  0
DICTIONARY
  5
C
100
AcDbDictionary
280
0
281
1
  3
ACAD_GROUP
350
D
  3
ACAD_MLINESTYLE
350
17
  3
ACAD_LAYOUT
350
1A
  3
ACAD_PLOTSETTINGS
350
19
  3
ACAD_PLOTSTYLENAME
350
E
  0
DICTIONARY
  5
D
102
{ACAD_REACTORS
330
C
102
}
100
AcDbDictionary
280
0
281
1
  0
ACDBDICTIONARYWDFLT
  5
E
102
{ACAD_REACTORS
330
C
102
}
100
AcDbDictionary
281
1
  3
Normal
350
F
100
AcDbDictionaryWithDefault
340
F
  0
DICTIONARY
  5
17
102
{ACAD_REACTORS
330
C
102
}
100
AcDbDictionary
280
0
281
1
  3
Standard
350
18
  0
DICTIONARY
  5
19
102
{ACAD_REACTORS
330
C
102
}
100
AcDbDictionary
281
1
  0
DICTIONARY
  5
1A
102
{ACAD_REACTORS
330
C
102
}
100
AcDbDictionary
281
1
  3
Model
350
2EC
  3
Layout1
350
2ED
  0
ACDBPLACEHOLDER
  5
F
102
{ACAD_REACTORS
330
E
102
}
  0
MLINESTYLE
  5
18
102
{ACAD_REACTORS
330
17
102
}
100
AcDbMlineStyle
  2
STANDARD
 70
0
  3

 62
256
 51
90.0
 52
90.0
 71
2
 49
0.5
 62
256
  6
BYLAYER
 49
-0.5
 62
256
  6
BYLAYER
  0
LAYOUT
  5
2EC
102
{ACAD_REACTORS
330
1A
102
}
100
AcDbPlotSettings
  1

  2
none_device
  4
ISO_A4_(297.00_x_210.00_MM)
  6

 40
0.0
 41
0.0
 42
0.0
 43
0.0
 44
297.0
 45
210.0
 46
0.0
 47
0.0
 48
0.0
 49
0.0
140
0.0
141
0.0
142
1.0
143
1.0
 70
1024
 72
1
 73
0
 74
0
  7

 75
0
147
1.0
148
0.0
149
0.0
100
AcDbLayout
  1
Model
 70
0
 71
0
 10
0.0
 20
0.0
 11
297.0
 21
210.0
 12
0.0
 22
0.0
 32
0.0
 14
0.0
 24
0.0
 34
0.0
 15
0.0
 25
0.0
 35
0.0
146
0.0
 13
0.0
 23
0.0
 33
0.0
 16
1.0
 26
0.0
 36
0.0
 17
0.0
 27
1.0
 37
0.0
 76
0
330
217
345
0
346
0
  0
LAYOUT
  5
2ED
102
{ACAD_REACTORS
330
1A
102
}
100
AcDbPlotSettings
  1

  2
none_device
  4
ISO_A4_(297.00_x_210.00_MM)
  6

 40
0.0
 41
0.0
 42
0.0
 43
0.0
 44
297.0
 45
210.0
 46
0.0
 47
0.0
 48
0.0
 49
0.0
140
0.0
141
0.0
142
1.0
143
1.0
 70
0
 72
1
 73
0
 74
0
  7

 75
0
147
1.0
148
0.0
149
0.0
100
AcDbLayout
  1
Layout1
 70
0
 71
1
 10
0.0
 20
0.0
 11
297.0
 21
210.0
 12
0.0
 22
0.0
 32
0.0
 14
0.0
 24
0.0
 34
0.0
 15
0.0
 25
0.0
 35
0.0
146
0.0
 13
0.0
 23
0.0
 33
0.0
 16
1.0
 26
0.0
 36
0.0
 17
0.0
 27
1.0
 37
0.0
 76
0
330
218
345
0
346
0
  0
ENDSEC
  0
EOF
