  0
SECTION
  2
HEADER
  9
$ACADVER
  1
AC1021
  9
$DWGCODEPAGE
  3
ANSI_1252
  9
$EXTMAX
 10
297.0
 20
210.0
 30
0.0
  9
$EXTMIN
 10
0.0
 20
0.0
 30
0.0
  9
$LIMMIN
 10
0.0
 20
0.0
  9
$LIMMAX
 10
297.0
 20
210.0
  9
$VIEWCTR
 10
148.5
 20
105.0
  9
$VIEWSIZE
 40
210.0
  9
$CLAYER
  8
0
  9
$LTSCALE
 40
16.335
  9
$CELTYPE
  6
BYLAYER
  9
$DIMSCALE
 40
1.0
  9
$DIMASZ
 40
3.0
  9
$DIMEXO
 40
0.5
  9
$DIMDLI
 40
11.286
  9
$DIMEXE
 40
1.5
  9
$DIMCEN
 40
2.673
  9
$DIMLFAC
 40
1.0
  9
$DIMBLK
  1
_FILLED
  9
$DIMALT
 70
0
  9
$DIMALTF
 40
25.4
  9
$DIMTXT
 40
3.0
  9
$DIMTOL
 70
1
  9
$DIMLIM
 70
0
  9
$DIMTFAC
 40
1.0
  9
$DIMTP
 40
0.01
  9
$DIMTM
 40
0.01
  9
$DIMGAP
 40
0.625
  9
$DIMDSEP
 70
44
  9
$AUNITS
 70
0
  9
$PDMODE
 70
3
  9
$PDSIZE
 40
3.0
  9
$HANDSEED
  5
2DB
  9
$TILEMODE
 70
1
  9
$MEASUREMENT
 70
1
  9
$INSUNITS
 70
4
  0
ENDSEC
  0
SECTION
  2
CLASSES
  0
CLASS
  1
ACDBDICTIONARYWDFLT
  2
AcDbDictionaryWithDefault
  3
AutoCAD 2000
 90
0
 91
1
280
0
281
0
  0
CLASS
  1
ACDBPLACEHOLDER
  2
AcDbPlaceHolder
  3
AutoCAD 2000
 90
0
 91
1
280
0
281
0
  0
CLASS
  1
LAYOUT
  2
AcDbLayout
  3
AutoCAD 2000
 90
0
 91
0
280
0
281
0
  0
ENDSEC
  0
SECTION
  2
TABLES
  0
TABLE
  2
VPORT
  5
8
100
AcDbSymbolTable
 70
2
  0
VPORT
  5
1F4
100
AcDbSymbolTableRecord
100
AcDbViewportTableRecord
  2
*ACTIVE
 70
0
 10
0.0
 20
0.0
 11
1.0
 21
1.0
 12
148.5
 22
105.0
 13
0.0
 23
0.0
 14
1.0
 24
1.0
 15
0.0
 25
0.0
 16
0.0
 26
0.0
 36
1.0
 17
0.0
 27
0.0
 37
0.0
 40
210.0
 41
1.4142857143
 42
50.0
 43
0.0
 44
0.0
 50
0.0
 51
0.0
 71
0
 72
100
 73
1
 74
1
 75
0
 76
0
 77
0
 78
0
  0
ENDTAB
  0
TABLE
  2
LTYPE
  5
5
100
AcDbSymbolTable
 70
6
  0
LTYPE
  5
14
100
AcDbSymbolTableRecord
100
AcDbLinetypeTableRecord
  2
BYBLOCK
 70
0
  3

 72
65
 73
0
 40
0.0
  0
LTYPE
  5
15
100
AcDbSymbolTableRecord
100
AcDbLinetypeTableRecord
  2
BYLAYER
 70
0
  3

 72
65
 73
0
 40
0.0
  0
LTYPE
  5
16
100
AcDbSymbolTableRecord
100
AcDbLinetypeTableRecord
  2
CONTINUOUS
 70
64
  3
Solid line
 72
65
 73
0
 40
0.0
  0
LTYPE
  5
1F5
100
AcDbSymbolTableRecord
100
AcDbLinetypeTableRecord
  2
CENTER
 70
64
  3
____ _ ____ _ ____ _ ____ _ ____ _ ____ _ ____
 72
65
 73
4
 40
0.6
 49
0.375
 74
0
 49
-0.075
 74
0
 49
0.075
 74
0
 49
-0.075
 74
0
  0
LTYPE
  5
1F6
100
AcDbSymbolTableRecord
100
AcDbLinetypeTableRecord
  2
HIDDEN
 70
64
  3
- - - - - - - - - - - - - - - - - - - -
 72
65
 73
2
 40
0.2
 49
0.1
 74
0
 49
-0.1
 74
0
  0
LTYPE
  5
1F7
100
AcDbSymbolTableRecord
100
AcDbLinetypeTableRecord
  2
PHANTOM
 70
64
  3
_____ _ _ _____ _ _ _____ _ _ _____
 72
65
 73
6
 40
0.8
 49
0.45
 74
0
 49
-0.05
 74
0
 49
0.1
 74
0
 49
-0.05
 74
0
 49
0.1
 74
0
 49
-0.05
 74
0
  0
LTYPE
  5
1F8
100
AcDbSymbolTableRecord
100
AcDbLinetypeTableRecord
  2
DOT
 70
64
  3
. . . . . . . . . . . . . . . . . . . .
 72
65
 73
2
 40
0.2
 49
0.1
 74
0
 49
-0.1
 74
0
  0
LTYPE
  5
1F9
100
AcDbSymbolTableRecord
100
AcDbLinetypeTableRecord
  2
DASHED
 70
64
  3
- - - - - - - - - - - - - - - - - - - -
 72
65
 73
2
 40
0.2
 49
0.1
 74
0
 49
-0.1
 74
0
  0
ENDTAB
  0
TABLE
  2
LAYER
  5
2
100
AcDbSymbolTable
 70
36
  0
LAYER
  5
10
100
AcDbSymbolTableRecord
100
AcDbLayerTableRecord
  2
0
 70
0
 62
7
  6
CONTINUOUS
370
-3
390
F
  0
LAYER
  5
1FA
100
AcDbSymbolTableRecord
100
AcDbLayerTableRecord
  2
DEFAULT_1
 70
0
 62
7
  6
CENTER
370
-3
390
F
  0
LAYER
  5
1FB
100
AcDbSymbolTableRecord
100
AcDbLayerTableRecord
  2
DEFAULT_2
 70
0
 62
7
  6
HIDDEN
370
-3
390
F
  0
LAYER
  5
1FC
100
AcDbSymbolTableRecord
100
AcDbLayerTableRecord
  2
DEFAULT_3
 70
0
 62
7
  6
PHANTOM
370
-3
390
F
  0
LAYER
  5
1FD
100
AcDbSymbolTableRecord
100
AcDbLayerTableRecord
  2
ASSI
 70
0
 62
7
  6
CONTINUOUS
370
-3
390
F
  0
LAYER
  5
1FE
100
AcDbSymbolTableRecord
100
AcDbLayerTableRecord
  2
COORDINATE
 70
0
 62
7
  6
CONTINUOUS
370
-3
390
F
  0
LAYER
  5
1FF
100
AcDbSymbolTableRecord
100
AcDbLayerTableRecord
  2
COORD_ORIGINE
 70
0
 62
7
  6
CONTINUOUS
370
-3
390
F
  0
LAYER
  5
200
100
AcDbSymbolTableRecord
100
AcDbLayerTableRecord
  2
COPY_PUBLISH
 70
0
 62
7
  6
CONTINUOUS
370
-3
390
F
  0
LAYER
  5
201
100
AcDbSymbolTableRecord
100
AcDbLayerTableRecord
  2
COSMETIC
 70
0
 62
7
  6
CONTINUOUS
370
-3
390
F
  0
LAYER
  5
202
100
AcDbSymbolTableRecord
100
AcDbLayerTableRecord
  2
COSMETICI
 70
0
 62
7
  6
CONTINUOUS
370
-3
390
F
  0
LAYER
  5
203
100
AcDbSymbolTableRecord
100
AcDbLayerTableRecord
  2
CURVE
 70
0
 62
7
  6
CONTINUOUS
370
-3
390
F
  0
LAYER
  5
204
100
AcDbSymbolTableRecord
100
AcDbLayerTableRecord
  2
DRAFT
 70
0
 62
7
  6
CONTINUOUS
370
-3
390
F
  0
LAYER
  5
205
100
AcDbSymbolTableRecord
100
AcDbLayerTableRecord
  2
IGES
 70
0
 62
7
  6
CONTINUOUS
370
-3
390
F
  0
LAYER
  5
206
100
AcDbSymbolTableRecord
100
AcDbLayerTableRecord
  2
IMPORT_IGES
 70
0
 62
7
  6
CONTINUOUS
370
-3
390
F
  0
LAYER
  5
207
100
AcDbSymbolTableRecord
100
AcDbLayerTableRecord
  2
LIVELLO_1
 70
0
 62
7
  6
CONTINUOUS
370
-3
390
F
  0
LAYER
  5
208
100
AcDbSymbolTableRecord
100
AcDbLayerTableRecord
  2
NOTE
 70
0
 62
7
  6
CONTINUOUS
370
-3
390
F
  0
LAYER
  5
209
100
AcDbSymbolTableRecord
100
AcDbLayerTableRecord
  2
PIANI
 70
0
 62
7
  6
CONTINUOUS
370
-3
390
F
  0
LAYER
  5
20A
100
AcDbSymbolTableRecord
100
AcDbLayerTableRecord
  2
PIANI_ORIGINE
 70
0
 62
7
  6
CONTINUOUS
370
-3
390
F
  0
LAYER
  5
20B
100
AcDbSymbolTableRecord
100
AcDbLayerTableRecord
  2
PIANI_RIFERIMENTO
 70
0
 62
7
  6
CONTINUOUS
370
-3
390
F
  0
LAYER
  5
20C
100
AcDbSymbolTableRecord
100
AcDbLayerTableRecord
  2
PUNTI
 70
0
 62
7
  6
CONTINUOUS
370
-3
390
F
  0
LAYER
  5
20D
100
AcDbSymbolTableRecord
100
AcDbLayerTableRecord
  2
RACCORDO
 70
0
 62
7
  6
CONTINUOUS
370
-3
390
F
  0
LAYER
  5
20E
100
AcDbSymbolTableRecord
100
AcDbLayerTableRecord
  2
SIMBOLI
 70
0
 62
7
  6
CONTINUOUS
370
-3
390
F
  0
LAYER
  5
20F
100
AcDbSymbolTableRecord
100
AcDbLayerTableRecord
  2
SMUSSO
 70
0
 62
7
  6
CONTINUOUS
370
-3
390
F
  0
LAYER
  5
210
100
AcDbSymbolTableRecord
100
AcDbLayerTableRecord
  2
SNAPLINE
 70
0
 62
7
  6
CONTINUOUS
370
-3
390
F
  0
LAYER
  5
211
100
AcDbSymbolTableRecord
100
AcDbLayerTableRecord
  2
SUPERFICI
 70
0
 62
7
  6
CONTINUOUS
370
-3
390
F
  0
LAYER
  5
212
100
AcDbSymbolTableRecord
100
AcDbLayerTableRecord
  2
TRASH
 70
0
 62
7
  6
CONTINUOUS
370
-3
390
F
  0
LAYER
  5
213
100
AcDbSymbolTableRecord
100
AcDbLayerTableRecord
  2
WHITE
 70
0
 62
7
  6
CONTINUOUS
370
-3
390
F
  0
LAYER
  5
214
100
AcDbSymbolTableRecord
100
AcDbLayerTableRecord
  2
XSEC_DATUMS
 70
0
 62
7
  6
CONTINUOUS
370
-3
390
F
  0
ENDTAB
  0
TABLE
  2
STYLE
  5
3
100
AcDbSymbolTable
 70
1
  0
STYLE
  5
11
100
AcDbSymbolTableRecord
100
AcDbTextStyleTableRecord
  2
STANDARD
 70
0
 40
0.0
 41
0.8
 50
0.0
 71
0
 42
0.2
  3
txt
  4

  0
STYLE
  5
215
100
AcDbSymbolTableRecord
100
AcDbTextStyleTableRecord
  2
TEXTSTYLE_1
 70
0
 40
0.0
 41
0.8
 50
0.0
 71
0
 42
0.2
  3
gdt
  4

  0
ENDTAB
  0
TABLE
  2
VIEW
  5
6
100
AcDbSymbolTable
 70
0
  0
ENDTAB
  0
TABLE
  2
UCS
  5
7
100
AcDbSymbolTable
 70
0
  0
ENDTAB
  0
TABLE
  2
APPID
  5
9
100
AcDbSymbolTable
 70
1
  0
APPID
  5
216
100
AcDbSymbolTableRecord
100
AcDbRegAppTableRecord
  2
ACAD
 70
0
  0
ENDTAB
  0
TABLE
  2
BLOCK_RECORD
  5
1
100
AcDbSymbolTable
 70
0
  0
BLOCK_RECORD
  5
217
100
AcDbSymbolTableRecord
100
AcDbBlockTableRecord
  2
*Model_Space
  0
BLOCK_RECORD
  5
218
100
AcDbSymbolTableRecord
100
AcDbBlockTableRecord
  2
*Paper_Space
  0
ENDTAB
  0
TABLE
  2
DIMSTYLE
  5
A
100
AcDbSymbolTable
 70
1
100
AcDbDimStyleTable
 71
0
  0
DIMSTYLE
105
219
100
AcDbSymbolTableRecord
100
AcDbDimStyleTableRecord
  2
STANDARD
 70
0
  3

  4

 40
1.0
 41
3.0
 42
0.5
 43
0.38
 44
1.5
 45
0.0
 46
0.0
 47
0.01
 48
0.01
140
3.0
141
0.09
142
0.0
143
25.4
144
1.0
145
0.0
146
1.0
147
0.625
 71
1.0
 72
0.0
 73
0
 74
0
 75
0
 76
0
 77
1
 78
8
170
0
171
1
172
0
173
0
174
0
175
0
176
0
177
0
178
0
270
2
271
2
272
2
273
2
274
2
275
0
280
0
281
0
282
0
283
1
284
8
285
0
286
0
287
3
288
0
340
11
278
44
  0
ENDTAB
  0
ENDSEC
  0
SECTION
  2
BLOCKS
  0
BLOCK
  5
20
100
AcDbEntity
  8
0
100
AcDbBlockBegin
  2
*Model_Space
 70
0
 10
0.0
 20
0.0
 30
0.0
  3
*Model_Space
  1

  0
ENDBLK
  5
21
100
AcDbEntity
  8
0
100
AcDbBlockEnd
  0
BLOCK
  5
1C
100
AcDbEntity
  8
0
100
AcDbBlockBegin
  2
*Paper_Space
 70
0
 10
0.0
 20
0.0
 30
0.0
  3
*Paper_Space
  1

  0
ENDBLK
  5
1D
100
AcDbEntity
  8
0
100
AcDbBlockEnd
  0
ENDSEC
  0
SECTION
  2
ENTITIES
  0
LWPOLYLINE
  5
21A
100
AcDbEntity
  8
ASSI
100
AcDbPolyline
 62
7
  6
CONTINUOUS
 90
19
 70
0
 10
-16.9999648922
 20
25.9068867
 10
-17.0331593559
 20
25.884371789
 10
-17.1202083164
 20
25.8191675699
 10
-17.2036686202
 20
25.7477776695
 10
-17.2834406197
 20
25.6706823431
 10
-17.3593996406
 20
25.5883157452
 10
-17.4313023894
 20
25.5011924854
 10
-17.4989369494
 20
25.4097678025
 10
-17.5620845654
 20
25.3144696046
 10
-17.6204056543
 20
25.2158975315
 10
-17.6736599669
 20
25.1144981695
 10
-17.7215939939
 20
25.0107106968
 10
-17.7638760952
 20
24.9051394002
 10
-17.800257366
 20
24.7981956239
 10
-17.8304622099
 20
24.6902990226
 10
-17.854181016
 20
24.5819273881
 10
-17.8711104884
 20
24.4734152204
 10
-17.8808951917
 20
24.3650998469
 10
-17.8824316026
 20
24.3311453793
  0
LINE
  5
21B
100
AcDbEntity
  8
ASSI
100
AcDbLine
 62
7
  6
CONTINUOUS
 10
-17.0001747305
 20
25.9067486864
 11
-14.1714380083
 21
27.7722739513
  0
LINE
  5
21C
100
AcDbEntity
  8
ASSI
100
AcDbLine
 62
253
  6
CONTINUOUS
 10
-16.7433971432
 20
25.8863435874
 11
-13.9229214638
 21
27.7464207723
  0
LWPOLYLINE
  5
21D
100
AcDbEntity
  8
ASSI
100
AcDbPolyline
 62
253
  6
CONTINUOUS
 90
17
 70
0
 10
-16.9999649512
 20
25.9068867896
 10
-16.9921887276
 20
25.9116748045
 10
-16.9791988337
 20
25.9183657762
 10
-16.9655127394
 20
25.9238822019
 10
-16.9511679137
 20
25.9282089793
 10
-16.9362036291
 20
25.9313342627
 10
-16.9206608539
 20
25.9332494958
 10
-16.9045821403
 20
25.9339494352
 10
-16.8880115076
 20
25.9334321647
 10
-16.8709943222
 20
25.9316991004
 10
-16.8535771726
 20
25.928754987
 10
-16.8358077426
 20
25.9246078848
 10
-16.8177346803
 20
25.9192691475
 10
-16.7994074652
 20
25.912753391
 10
-16.7808762725
 20
25.9050784541
 10
-16.7621918358
 20
25.8962653485
 10
-16.7434053084
 20
25.8863382025
  0
LINE
  5
21E
100
AcDbEntity
  8
ASSI
100
AcDbLine
 62
7
  6
CONTINUOUS
 10
-11.9566863269
 20
26.611141247
 11
-12.1368527734
 21
26.1971159666
  0
LWPOLYLINE
  5
21F
100
AcDbEntity
  8
ASSI
100
AcDbPolyline
 62
7
  6
CONTINUOUS
 90
12
 70
0
 10
-17.8823962248
 20
-9.247351084
 10
-17.8738085933
 20
-9.3587311322
 10
-17.8557896984
 20
-9.4676110351
 10
-17.8290845245
 20
-9.5694601246
 10
-17.7944284977
 20
-9.6637828927
 10
-17.7523594527
 20
-9.7507617035
 10
-17.7030564135
 20
-9.8308976174
 10
-17.6471302242
 20
-9.9037167262
 10
-17.5852112313
 20
-9.9688847764
 10
-17.5173450327
 20
-10.0266061917
 10
-17.4439827301
 20
-10.0765268797
 10
-17.4285217489
 20
-10.0856412218
  0
LWPOLYLINE
  5
220
100
AcDbEntity
  8
ASSI
100
AcDbPolyline
 62
253
  6
CONTINUOUS
 90
16
 70
0
 10
-17.8823964094
 20
-9.2473510906
 10
-17.8815852738
 20
-9.2591508378
 10
-17.8793414271
 20
-9.2746064902
 10
-17.8757664166
 20
-9.2899410991
 10
-17.8708698248
 20
-9.3051135612
 10
-17.8646647766
 20
-9.3200832078
 10
-17.8571679042
 20
-9.3348099141
 10
-17.8483993024
 20
-9.349254206
 10
-17.8383824747
 20
-9.363377367
 10
-17.8271442706
 20
-9.3771415407
 10
-17.8147148131
 20
-9.3905098336
 10
-17.8011274185
 20
-9.4034464128
 10
-17.7864185067
 20
-9.4159166028
 10
-17.7706275038
 20
-9.4278869784
 10
-17.7537967365
 20
-9.4393254537
 10
-17.7359713183
 20
-9.4502013688
  0
LWPOLYLINE
  5
221
100
AcDbEntity
  8
ASSI
100
AcDbPolyline
 62
7
  6
CONTINUOUS
 90
11
 70
0
 10
-18.1762155504
 20
7.6576880168
 10
-18.1751474276
 20
7.6323283312
 10
-18.1699339718
 20
7.5965824469
 10
-18.1603168464
 20
7.5611512309
 10
-18.1463241187
 20
7.526565208
 10
-18.1277997563
 20
7.4928594519
 10
-18.1044837525
 20
7.4601606936
 10
-18.0765792551
 20
7.4292203877
 10
-18.0446084212
 20
7.4007662618
 10
-18.0088631085
 20
7.3750425558
 10
-17.9883794847
 20
7.3625154709
  0
LWPOLYLINE
  5
222
100
AcDbEntity
  8
ASSI
100
AcDbPolyline
 62
253
  6
CONTINUOUS
 90
13
 70
0
 10
-17.7359717108
 20
-9.4501904257
 10
-17.7821291562
 20
-8.1036149323
 10
-17.824346195
 20
-6.7545391981
 10
-17.8626226073
 20
-5.4029787028
 10
-17.8969579792
 20
-4.0489588187
 10
-17.92735248
 20
-2.6924852469
 10
-17.9538065699
 20
-1.3335438399
 10
-17.9763202627
 20
0.027849576
 10
-17.9948929928
 20
1.3916799476
 10
-18.009523879
 20
2.7579628663
 10
-18.020212224
 20
4.1266933645
 10
-18.0269578243
 20
5.4978457313
 10
-18.0297603287
 20
6.8714045656
  0
LWPOLYLINE
  5
223
100
AcDbEntity
  8
ASSI
100
AcDbPolyline
 62
253
  6
CONTINUOUS
 90
18
 70
0
 10
-18.1762161319
 20
7.6576861062
 10
-18.1759558346
 20
7.6483756761
 10
-18.1746431203
 20
7.6348788621
 10
-18.1722261273
 20
7.6214290105
 10
-18.1687102283
 20
7.608056062
 10
-18.164103273
 20
7.5947895085
 10
-18.1584155982
 20
7.5816590044
 10
-18.1516597919
 20
7.5686935774
 10
-18.1438505869
 20
7.5559213292
 10
-18.1350049545
 20
7.5433702734
 10
-18.1251426411
 20
7.5310687054
 10
-18.1142860355
 20
7.5190443808
 10
-18.1024596911
 20
7.5073243222
 10
-18.0896895612
 20
7.4959341413
 10
-18.0760033786
 20
7.4848984541
 10
-18.061431197
 20
7.4742415521
 10
-18.0460054661
 20
7.4639872945
 10
-18.0297603268
 20
7.4541584278
  0
LWPOLYLINE
  5
224
100
AcDbEntity
  8
ASSI
100
AcDbPolyline
 62
253
  6
CONTINUOUS
 90
13
 70
0
 10
-18.0297691547
 20
7.4541635185
 10
-18.0294760092
 20
7.4437069935
 10
-18.0285846788
 20
7.4336403972
 10
-18.0270989417
 20
7.4240063979
 10
-18.0250250951
 20
7.4148458301
 10
-18.0223719294
 20
7.4061975218
 10
-18.0191506901
 20
7.3980981296
 10
-18.0153750309
 20
7.3905819836
 10
-18.0110609551
 20
7.3836809416
 10
-18.0062267484
 20
7.3774242544
 10
-18.0008929011
 20
7.3718384414
 10
-17.9950820211
 20
7.3669471787
 10
-17.9883796597
 20
7.3625151679
  0
LWPOLYLINE
  5
225
100
AcDbEntity
  8
ASSI
100
AcDbPolyline
 62
7
  6
CONTINUOUS
 90
10
 70
0
 10
-18.1762161076
 20
7.0761068866
 10
-18.1718085422
 20
5.2925998515
 10
-18.1602502608
 20
3.4516622191
 10
-18.1415748234
 20
1.6150497677
 10
-18.115782573
 20
-0.217198961
 10
-18.0828739528
 20
-2.0450477642
 10
-18.0428495177
 20
-3.8684611529
 10
-17.995709945
 20
-5.6874030578
 10
-17.9414561215
 20
-7.5018349302
 10
-17.882397401
 20
-9.2473234287
  0
LWPOLYLINE
  5
226
100
AcDbEntity
  8
ASSI
100
AcDbPolyline
 62
253
  6
CONTINUOUS
 90
13
 70
0
 10
-18.0297603287
 20
7.4541584225
 10
-18.0269578243
 20
8.8310776344
 10
-18.020212224
 20
10.2103030488
 10
-18.009523879
 20
11.5918188592
 10
-17.9948929928
 20
12.9755983725
 10
-17.9763202627
 20
14.3616365631
 10
-17.9538065699
 20
15.7499502449
 10
-17.92735248
 20
17.140524458
 10
-17.8969579792
 20
18.5333426457
 10
-17.8626226073
 20
19.9284194884
 10
-17.824346195
 20
21.325749481
 10
-17.7821291562
 20
22.7253067728
 10
-17.7359717108
 20
24.1270756302
  0
LWPOLYLINE
  5
227
100
AcDbEntity
  8
ASSI
100
AcDbPolyline
 62
253
  6
CONTINUOUS
 90
17
 70
0
 10
-17.8824316026
 20
24.3311453793
 10
-17.8824917607
 20
24.3236339759
 10
-17.8815850856
 20
24.3093068377
 10
-17.8793412331
 20
24.2949929844
 10
-17.8757662175
 20
24.280730783
 10
-17.8708696215
 20
24.2665584623
 10
-17.86466457
 20
24.2525140102
 10
-17.8571676952
 20
24.2386350717
 10
-17.8483990918
 20
24.2249588481
 10
-17.8383822634
 20
24.2115219976
 10
-17.8271440593
 20
24.1983605366
 10
-17.8147146027
 20
24.1855097434
 10
-17.8011272098
 20
24.1730040634
 10
-17.7864183005
 20
24.1608770173
 10
-17.7706273009
 20
24.1491611106
 10
-17.7537965376
 20
24.1378877469
 10
-17.735971124
 20
24.1270871436
  0
LWPOLYLINE
  5
228
100
AcDbEntity
  8
ASSI
100
AcDbPolyline
 62
253
  6
CONTINUOUS
 90
25
 70
0
 10
-18.0297691547
 20
6.8714096616
 10
-18.0294760086
 20
6.8822047155
 10
-18.0285846765
 20
6.8933006095
 10
-18.0270989364
 20
6.9046503126
 10
-18.0250250859
 20
6.9162057179
 10
-18.0223719153
 20
6.9279178465
 10
-18.0191506705
 20
6.9397370551
 10
-18.0153750052
 20
6.9516132466
 10
-18.0110609231
 20
6.9634960826
 10
-18.0062267102
 20
6.9753351964
 10
-18.0008928567
 20
6.9870804068
 10
-17.995081971
 20
6.9986819304
 10
-17.9888186833
 20
7.0100905931
 10
-17.9821295414
 20
7.0212580382
 10
-17.9750428978
 20
7.0321369316
 10
-17.9675887903
 20
7.042681162
 10
-17.959798814
 20
7.0528460369
 10
-17.9517059874
 20
7.0625884717
 10
-17.9433446129
 20
7.0718671725
 10
-17.9347501312
 20
7.0806428107
 10
-17.9259589706
 20
7.0888781903
 10
-17.9170083935
 20
7.0965384053
 10
-17.9079363376
 20
7.1035909874
 10
-17.8987812556
 20
7.110006044
 10
-17.8895819521
 20
7.1157563846
  0
LWPOLYLINE
  5
229
100
AcDbEntity
  8
ASSI
100
AcDbPolyline
 62
7
  6
CONTINUOUS
 90
10
 70
0
 10
-17.8824230649
 20
24.3314058767
 10
-17.9416450738
 20
22.5099665346
 10
-17.995872156
 20
20.6308674886
 10
-18.0429863172
 20
18.7557411094
 10
-18.082986498
 20
16.8846270927
 10
-18.1158718477
 20
15.0175624302
 10
-18.1416416382
 20
13.1545833954
 10
-18.160295253
 20
11.2957268291
 10
-18.1718321767
 20
9.4410317936
 10
-18.1762161083
 20
7.6577391794
  0
LWPOLYLINE
  5
22A
100
AcDbEntity
  8
ASSI
100
AcDbPolyline
 62
253
  6
CONTINUOUS
 90
43
 70
0
 10
-17.7359717063
 20
24.1270756277
 10
-17.7338084578
 20
24.1713511646
 10
-17.7303522039
 20
24.2162758093
 10
-17.725607217
 20
24.2617940497
 10
-17.7195794888
 20
24.3078497009
 10
-17.7122764048
 20
24.354385812
 10
-17.7037067334
 20
24.4013447369
 10
-17.693881141
 20
24.4486687873
 10
-17.6828118635
 20
24.49629921
 10
-17.6705124431
 20
24.5441760823
 10
-17.6569984511
 20
24.5922399287
 10
-17.6422866686
 20
24.640431751
 10
-17.6263947726
 20
24.6886919992
 10
-17.6093426705
 20
24.7369611974
 10
-17.5911516627
 20
24.7851796867
 10
-17.5718436599
 20
24.8332876405
 10
-17.5514428047
 20
24.8812258514
 10
-17.5299746118
 20
24.9289350358
 10
-17.5074651074
 20
24.9763555823
 10
-17.48394256
 20
25.0234289367
 10
-17.459436316
 20
25.0700971396
 10
-17.4339759297
 20
25.1163021288
 10
-17.4075932988
 20
25.1619869798
 10
-17.3803214002
 20
25.2070953643
 10
-17.3521931274
 20
25.2515710841
 10
-17.3232436462
 20
25.2953594633
 10
-17.2935092097
 20
25.3384064393
 10
-17.2630258926
 20
25.3806580263
 10
-17.2318319636
 20
25.4220621259
 10
-17.1999663641
 20
25.4625678666
 10
-17.1674675182
 20
25.5021246899
 10
-17.1343761642
 20
25.5406838983
 10
-17.1007336609
 20
25.5781980913
 10
-17.0665804618
 20
25.6146204886
 10
-17.0319590589
 20
25.6499065776
 10
-16.9969130229
 20
25.6840126647
 10
-16.9614853186
 20
25.7168953566
 10
-16.9257205852
 20
25.7485140815
 10
-16.8896633265
 20
25.7788303106
 10
-16.8533569519
 20
25.8078061115
 10
-16.8168463319
 20
25.8354057083
 10
-16.7801777463
 20
25.8615955457
 10
-16.7433970944
 20
25.8863435592
  0
LINE
  5
22B
100
AcDbEntity
  8
ASSI
100
AcDbLine
 62
253
  6
CONTINUOUS
 10
-17.9738011153
 20
7.2660449511
 11
-17.9712823992
 21
7.2741445369
  0
LWPOLYLINE
  5
22C
100
AcDbEntity
  8
ASSI
100
AcDbPolyline
 62
253
  6
CONTINUOUS
 90
7
 70
0
 10
-17.9712823992
 20
7.2741445369
 10
-17.968109385
 20
7.282168634
 10
-17.9642863128
 20
7.2901178417
 10
-17.9598384042
 20
7.2979397585
 10
-17.9547613732
 20
7.3056337067
 10
-17.9490595058
 20
7.313200364
 10
-17.9427708811
 20
7.3205893615
  0
LWPOLYLINE
  5
22D
100
AcDbEntity
  8
ASSI
100
AcDbPolyline
 62
253
  6
CONTINUOUS
 90
3
 70
0
 10
-17.9427708811
 20
7.3205893615
 10
-17.9358911668
 20
7.3277997378
 10
-17.9329890133
 20
7.3305332945
  0
LWPOLYLINE
  5
22E
100
AcDbEntity
  8
ASSI
100
AcDbPolyline
 62
7
  6
CONTINUOUS
 90
8
 70
0
 10
-18.0625185749
 20
7.3195345009
 10
-18.0930282772
 20
7.2886262901
 10
-18.1190405988
 20
7.2553614877
 10
-18.1403395822
 20
7.2201158909
 10
-18.156641998
 20
7.1836478424
 10
-18.1679277629
 20
7.1466475756
 10
-18.1743779552
 20
7.1095490842
 10
-18.1762153751
 20
7.0759637398
  0
LWPOLYLINE
  5
22F
100
AcDbEntity
  8
ASSI
100
AcDbPolyline
 62
7
  6
CONTINUOUS
 90
14
 70
0
 10
13.3346549982
 20
-27.8479162999
 10
13.3843416525
 20
-27.874485109
 10
13.452917122
 20
-27.9045883292
 10
13.5243268209
 20
-27.928710651
 10
13.5984578515
 20
-27.9467296081
 10
13.6749128615
 20
-27.9584330389
 10
13.7532547853
 20
-27.9636603421
 10
13.8334382593
 20
-27.9622846583
 10
13.9151327326
 20
-27.9541549614
 10
13.9979981423
 20
-27.9391493039
 10
14.0821270786
 20
-27.9170507334
 10
14.1674140997
 20
-27.8876077878
 10
14.2534578053
 20
-27.8506594374
 10
14.2791364264
 20
-27.8382041159
  0
LINE
  5
230
100
AcDbEntity
  8
ASSI
100
AcDbLine
 62
253
  6
CONTINUOUS
 10
-17.4339759295
 20
-10.0824679038
 11
-17.4594363159
 21
-10.0663559181
  0
LWPOLYLINE
  5
231
100
AcDbEntity
  8
ASSI
100
AcDbPolyline
 62
253
  6
CONTINUOUS
 90
21
 70
0
 10
-17.4594363159
 20
-10.0663559181
 10
-17.4839425598
 20
-10.0486538411
 10
-17.5074651073
 20
-10.0293831379
 10
-17.5299746117
 20
-10.0085677784
 10
-17.5514428046
 20
-9.9862337741
 10
-17.5718436598
 20
-9.9624085165
 10
-17.5911516626
 20
-9.9371217144
 10
-17.6093426704
 20
-9.910404807
 10
-17.6263947725
 20
-9.8822904873
 10
-17.6422866685
 20
-9.8528136997
 10
-17.656998451
 20
-9.8220110489
 10
-17.670512443
 20
-9.789920193
 10
-17.6828118634
 20
-9.7565806323
 10
-17.693881141
 20
-9.7220339806
 10
-17.7037067334
 20
-9.6863234017
 10
-17.7122764048
 20
-9.6494933887
 10
-17.7195794887
 20
-9.6115894432
 10
-17.7256072169
 20
-9.5726583564
 10
-17.7303522039
 20
-9.5327483074
 10
-17.7338084578
 20
-9.4919088053
 10
-17.7359717063
 20
-9.4501904283
  0
LINE
  5
232
100
AcDbEntity
  8
ASSI
100
AcDbLine
 62
7
  6
CONTINUOUS
 10
-18.0275881417
 20
7.3479009187
 11
-18.0625185749
 21
7.3195345009
  0
LINE
  5
233
100
AcDbEntity
  8
ASSI
100
AcDbLine
 62
7
  6
CONTINUOUS
 10
-17.9959967604
 20
7.3689353941
 11
-18.0275881417
 21
7.3479009187
  0
LINE
  5
234
100
AcDbEntity
  8
ASSI
100
AcDbLine
 62
7
  6
CONTINUOUS
 10
13.3352011773
 20
-27.848232135
 11
-17.4298488663
 21
-10.0848778165
  0
LINE
  5
235
100
AcDbEntity
  8
ASSI
100
AcDbLine
 62
253
  6
CONTINUOUS
 10
13.0218699691
 20
-27.2093827252
 11
-17.7359717063
 21
-9.4501904283
  0
LWPOLYLINE
  5
236
100
AcDbEntity
  8
ASSI
100
AcDbPolyline
 62
253
  6
CONTINUOUS
 90
8
 70
0
 10
13.2834735158
 20
-10.3577449531
 10
13.3045409474
 20
-10.3517884342
 10
13.3250904445
 20
-10.3452680094
 10
13.3450768331
 20
-10.3381982892
 10
13.3644556815
 20
-10.3305946829
 10
13.3831840788
 20
-10.3224741368
 10
13.4012207075
 20
-10.3138550755
 10
13.418525717
 20
-10.3047568552
  0
LWPOLYLINE
  5
237
100
AcDbEntity
  8
CURVE
100
AcDbPolyline
 62
253
  6
CONTINUOUS
 90
60
 70
0
 10
-10.5466646654
 20
-8.9728651414
 10
-10.5447533254
 20
-8.9767772298
 10
-10.5427898524
 20
-8.9806237139
 10
-10.5407704944
 20
-8.984415799
 10
-10.5386914993
 20
-8.9881646903
 10
-10.5365491152
 20
-8.9918815933
 10
-10.5343395901
 20
-8.9955777132
 10
-10.5315953082
 20
-8.9999974214
 10
-10.5287487999
 20
-9.0043988249
 10
-10.5257999249
 20
-9.0087774112
 10
-10.5227485427
 20
-9.0131286677
 10
-10.519594513
 20
-9.0174480816
 10
-10.5168884937
 20
-9.0210190709
 10
-10.5141161208
 20
-9.0245565473
 10
-10.5112824211
 20
-9.0280522444
 10
-10.5083924216
 20
-9.0314978959
 10
-10.505451149
 20
-9.0348852355
 10
-10.5024636303
 20
-9.0382059969
 10
-10.4994341405
 20
-9.0414526864
 10
-10.496363947
 20
-9.0446209017
 10
-10.4932535654
 20
-9.0477070132
 10
-10.4901035114
 20
-9.050707391
 10
-10.4869143006
 20
-9.0536184057
 10
-10.4836864485
 20
-9.0564364274
 10
-10.480421403
 20
-9.0591568926
 10
-10.4771243405
 20
-9.0617715021
 10
-10.4738013697
 20
-9.0642710227
 10
-10.4704585992
 20
-9.0666462211
 10
-10.4671021378
 20
-9.0688878643
 10
-10.463738094
 20
-9.070986719
 10
-10.4603721191
 20
-9.0729352105
 10
-10.4570080338
 20
-9.0747323984
 10
-10.4536492018
 20
-9.0763790006
 10
-10.4502989863
 20
-9.0778757351
 10
-10.4469607508
 20
-9.0792233199
 10
-10.4436378586
 20
-9.080422473
 10
-10.4403338677
 20
-9.0814739178
 10
-10.4370531131
 20
-9.0823783991
 10
-10.4338001246
 20
-9.0831366674
 10
-10.4305794317
 20
-9.0837494728
 10
-10.4273955642
 20
-9.0842175657
 10
-10.4242530515
 20
-9.0845416964
 10
-10.4211568703
 20
-9.0847230974
 10
-10.4181137848
 20
-9.0847649307
 10
-10.4151310059
 20
-9.0846708402
 10
-10.4122157449
 20
-9.0844444701
 10
-10.4093752128
 20
-9.0840894644
 10
-10.4066166208
 20
-9.0836094673
 10
-10.4039456976
 20
-9.0830080588
 10
-10.4013622438
 20
-9.082288564
 10
-10.3988645776
 20
-9.0814542438
 10
-10.3964510171
 20
-9.0805083591
 10
-10.3941198806
 20
-9.0794541711
 10
-10.3918694863
 20
-9.0782949405
 10
-10.3896978948
 20
-9.0770319731
 10
-10.3876021368
 20
-9.0756587527
 10
-10.3855789853
 20
-9.0741668078
 10
-10.3836252133
 20
-9.0725476667
 10
-10.3817375937
 20
-9.070792858
 10
-10.3799128997
 20
-9.06889391
  0
LINE
  5
238
100
AcDbEntity
  8
ASSI
100
AcDbLine
 62
7
  6
CONTINUOUS
 10
-11.9566863269
 20
26.611141247
 11
-11.9354895953
 21
25.9949175332
  0
LINE
  5
239
100
AcDbEntity
  8
ASSI
100
AcDbLine
 62
253
  6
CONTINUOUS
 10
-12.1368527734
 20
26.1971159666
 11
-12.1368527734
 21
26.1342108218
  0
LWPOLYLINE
  5
23A
100
AcDbEntity
  8
ASSI
100
AcDbPolyline
 62
253
  6
CONTINUOUS
 90
23
 70
0
 10
-11.4611265079
 20
-0.2073169826
 10
-11.4608322945
 20
-0.1682287355
 10
-11.4592632831
 20
-0.1297849635
 10
-11.4564086092
 20
-0.092046899
 10
-11.4522571945
 20
-0.0550577391
 10
-11.4468024638
 20
-0.0188975873
 10
-11.4400487831
 20
0.0163215726
 10
-11.4319981407
 20
0.0505446204
 10
-11.422654863
 20
0.0837160993
 10
-11.4120412305
 20
0.1157345757
 10
-11.4001717066
 20
0.1465509272
 10
-11.3870611619
 20
0.1761220193
 10
-11.3727458138
 20
0.2043681427
 10
-11.3572571144
 20
0.2312399089
 10
-11.3406136432
 20
0.256716922
 10
-11.3228389445
 20
0.2807705413
 10
-11.3039654102
 20
0.3033645951
 10
-11.284017973
 20
0.3244764562
 10
-11.26300781
 20
0.3440964796
 10
-11.2409590543
 20
0.3622001877
 10
-11.2179069281
 20
0.3787567961
 10
-11.1938779704
 20
0.3937454055
 10
-11.1862312078
 20
0.3980723515
  0
LWPOLYLINE
  5
23B
100
AcDbEntity
  8
ASSI
100
AcDbPolyline
 62
253
  6
CONTINUOUS
 90
27
 70
0
 10
-11.601300158
 20
-0.2073439795
 10
-11.600975108
 20
-0.1651720373
 10
-11.5992588548
 20
-0.1238230306
 10
-11.5961514052
 20
-0.0832969638
 10
-11.5916529879
 20
-0.0435113016
 10
-11.5857633723
 20
-0.0045485791
 10
-11.5784819434
 20
0.0333435542
 10
-11.569794327
 20
0.0701551587
 10
-11.5597150451
 20
0.1058960863
 10
-11.5482869591
 20
0.1403482977
 10
-11.5354976592
 20
0.1734968183
 10
-11.5213598281
 20
0.2053564617
 10
-11.505954085
 20
0.2357538013
 10
-11.48928026
 20
0.2646645246
 10
-11.4713388966
 20
0.2921127244
 10
-11.452211772
 20
0.3179975291
 10
-11.4319015874
 20
0.3423090338
 10
-11.4104060593
 20
0.365056898
 10
-11.387799543
 20
0.386169566
 10
-11.3640749329
 20
0.4056480939
 10
-11.3392397673
 20
0.4234911715
 10
-11.3133904101
 20
0.4396236683
 10
-11.2865171652
 20
0.4540407998
 10
-11.2586301725
 20
0.4667470903
 10
-11.2298555903
 20
0.4776813494
 10
-11.2001911652
 20
0.4868333631
 10
-11.1696395898
 20
0.4942130881
  0
LWPOLYLINE
  5
23C
100
AcDbEntity
  8
ASSI
100
AcDbPolyline
 62
253
  6
CONTINUOUS
 90
27
 70
0
 10
-11.601300158
 20
7.1423584521
 10
-11.6002973322
 20
7.1849002775
 10
-11.5979042089
 20
7.2266188304
 10
-11.5941207946
 20
7.2675141064
 10
-11.5889460063
 20
7.307669339
 10
-11.5823809255
 20
7.3470012946
 10
-11.5744288739
 20
7.3852602311
 10
-11.5650755121
 20
7.4224361989
 10
-11.5543353274
 20
7.4585390629
 10
-11.5422550141
 20
7.4933487267
 10
-11.52882229
 20
7.5268501619
 10
-11.5140497101
 20
7.5590582418
 10
-11.4980213427
 20
7.5897976551
 10
-11.4807373894
 20
7.6190439008
 10
-11.4621980222
 20
7.6468212681
 10
-11.4424873531
 20
7.6730275817
 10
-11.4216082583
 20
7.6976528342
 10
-11.3995582793
 20
7.7207067964
 10
-11.3764135816
 20
7.7421169297
 10
-11.3521669817
 20
7.7618843317
 10
-11.3268260957
 20
7.7800076601
 10
-11.3004893314
 20
7.7964106921
 10
-11.273146981
 20
7.8110886568
 10
-11.2448091959
 20
7.8240460743
 10
-11.2156042133
 20
7.835220636
 10
-11.18552992
 20
7.8446020581
 10
-11.1545888681
 20
7.8522003765
  0
LWPOLYLINE
  5
23D
100
AcDbEntity
  8
ASSI
100
AcDbPolyline
 62
253
  6
CONTINUOUS
 90
23
 70
0
 10
-11.4611265079
 20
7.1409155085
 10
-11.4601545
 20
7.1803742173
 10
-11.4579086012
 20
7.2191879871
 10
-11.4543779516
 20
7.2572956128
 10
-11.4495501716
 20
7.2946546413
 10
-11.4434199949
 20
7.331184275
 10
-11.4359957016
 20
7.366770406
 10
-11.427279289
 20
7.4013579379
 10
-11.4172750658
 20
7.4348914463
 10
-11.4060091741
 20
7.4672673963
 10
-11.3934961838
 20
7.4984366344
 10
-11.3797508319
 20
7.5283561108
 10
-11.3648128281
 20
7.5569441979
 10
-11.3487139747
 20
7.5841513418
 10
-11.3314724587
 20
7.60995736
 10
-11.3131142033
 20
7.634332279
 10
-11.2936717617
 20
7.657239857
 10
-11.2731698677
 20
7.6786575926
 10
-11.2516215485
 20
7.6985748216
 10
-11.229050842
 20
7.7169671399
 10
-11.2054930302
 20
7.7338037513
 10
-11.180976738
 20
7.7490626245
 10
-11.1732330703
 20
7.7534434993
  0
LINE
  5
23E
100
AcDbEntity
  8
ASSI
100
AcDbLine
 62
7
  6
CONTINUOUS
 10
-4.0370903776
 20
22.0384658017
 11
-4.2172568241
 21
21.6244405213
  0
LWPOLYLINE
  5
23F
100
AcDbEntity
  8
RACCORDO
100
AcDbPolyline
 62
253
  6
CONTINUOUS
 90
38
 70
0
 10
-9.8896868052
 20
5.6839378939
 10
-9.8385449261
 20
5.7332839138
 10
-9.7957591421
 20
5.7918245467
 10
-9.7614099581
 20
5.8583643949
 10
-9.735888439
 20
5.9301381689
 10
-9.7186765033
 20
6.004853449
 10
-9.7088017921
 20
6.081669422
 10
-9.7054887755
 20
6.1597668902
 10
-9.7080345315
 20
6.2380669407
 10
-9.7157208788
 20
6.3156546215
 10
-9.7279345391
 20
6.3922773903
 10
-9.7440762098
 20
6.467324057
 10
-9.763546133
 20
6.5402119673
 10
-9.7859229125
 20
6.610938385
 10
-9.8107333048
 20
6.6791717063
 10
-9.8375040504
 20
6.7445864076
 10
-9.8659614834
 20
6.8073008479
 10
-9.8957408178
 20
6.8671487006
 10
-9.9264877985
 20
6.9239855787
 10
-9.9580545797
 20
6.9780154598
 10
-9.9901850313
 20
7.0291989762
 10
-10.0226109139
 20
7.0774753767
 10
-10.0552443232
 20
7.1230353235
 10
-10.0878943392
 20
7.1658918753
 10
-10.1203726512
 20
7.2060594526
 10
-10.1526479867
 20
7.2437320998
 10
-10.1845881014
 20
7.2789611218
 10
-10.2160583215
 20
7.3117927862
 10
-10.2470602443
 20
7.3424048203
 10
-10.277505978
 20
7.3708681928
 10
-10.3072999751
 20
7.3972443802
 10
-10.336456733
 20
7.4216848167
 10
-10.3649057957
 20
7.4442574854
 10
-10.3925949847
 20
7.4650429782
 10
-10.4195828167
 20
7.4841955724
 10
-10.4458637436
 20
7.5018091774
 10
-10.4713658787
 20
7.5179302369
 10
-10.4960587499
 20
7.5326329704
  0
LWPOLYLINE
  5
240
100
AcDbEntity
  8
RACCORDO
100
AcDbPolyline
 62
7
  6
CONTINUOUS
 90
21
 70
0
 10
-11.0378819262
 20
7.7004074381
 10
-11.1030891713
 20
7.6527947525
 10
-11.1609659472
 20
7.5932207579
 10
-11.210457438
 20
7.5221108253
 10
-11.2508289679
 20
7.4395615843
 10
-11.2810334136
 20
7.3464998201
 10
-11.3002025465
 20
7.245072735
 10
-11.3082062412
 20
7.1364471384
 10
-11.3050026673
 20
7.0215289334
 10
-11.2907756808
 20
6.9027484015
 10
-11.2660388916
 20
6.7819646709
 10
-11.2312185238
 20
6.6600816295
 10
-11.1868405516
 20
6.5384555906
 10
-11.1335495601
 20
6.4185452069
 10
-11.0720136273
 20
6.3016582967
 10
-11.0028965059
 20
6.1889878541
 10
-10.9269839287
 20
6.0818332166
 10
-10.8451449713
 20
5.9814763676
 10
-10.7581884959
 20
5.8890178516
 10
-10.6669843149
 20
5.8055595603
 10
-10.5725178901
 20
5.7322205871
  0
LINE
  5
241
100
AcDbEntity
  8
DRAFT
100
AcDbLine
 62
7
  6
CONTINUOUS
 10
-10.8782667266
 20
7.7971742146
 11
-11.0378820174
 21
7.7004073828
  0
LINE
  5
242
100
AcDbEntity
  8
ASSI
100
AcDbLine
 62
7
  6
CONTINUOUS
 10
-11.1732330703
 20
7.7534434993
 11
-11.1721586928
 21
7.7540354826
  0
LWPOLYLINE
  5
243
100
AcDbEntity
  8
ASSI
100
AcDbPolyline
 62
7
  6
CONTINUOUS
 90
28
 70
0
 10
-11.1732399639
 20
7.7534395566
 10
-11.1308525139
 20
7.7736301521
 10
-11.0711465793
 20
7.7924866964
 10
-11.0068009761
 20
7.8025993827
 10
-10.9380024861
 20
7.8037597581
 10
-10.8650529586
 20
7.7957174684
 10
-10.788854302
 20
7.778362456
 10
-10.7107811731
 20
7.7519796116
 10
-10.632083264
 20
7.7171610151
 10
-10.5531342069
 20
7.6742689282
 10
-10.4739321733
 20
7.6233507457
 10
-10.3950332506
 20
7.564705877
 10
-10.3172401396
 20
7.4988915888
 10
-10.2408106576
 20
7.4260614012
 10
-10.1662197214
 20
7.3465239135
 10
-10.0942747283
 20
7.2610059382
 10
-10.02567724
 20
7.1702666578
 10
-9.9609907149
 20
7.0750072967
 10
-9.9007347695
 20
6.9759590752
 10
-9.8454517353
 20
6.874009307
 10
-9.795569418
 20
6.7699801103
 10
-9.7514520842
 20
6.6646829392
 10
-9.7134460315
 20
6.5590339979
 10
-9.6818009241
 20
6.4538740496
 10
-9.6567068394
 20
6.3500377743
 10
-9.6383081089
 20
6.2484547054
 10
-9.6266531123
 20
6.1499701262
 10
-9.6217083233
 20
6.0553022133
  0
LINE
  5
244
100
AcDbEntity
  8
CURVE
100
AcDbLine
 62
253
  6
CONTINUOUS
 10
-12.2751311287
 20
-5.8975465207
 11
-8.7565421445
 21
-7.9291357019
  0
LINE
  5
245
100
AcDbEntity
  8
CURVE
100
AcDbLine
 62
253
  6
CONTINUOUS
 10
-8.5310592025
 20
-7.8369042485
 11
-12.510461631
 21
-5.53924716
  0
LWPOLYLINE
  5
246
100
AcDbEntity
  8
CURVE
100
AcDbPolyline
 62
253
  6
CONTINUOUS
 90
76
 70
0
 10
-12.510461631
 20
-5.53924716
 10
-12.5135096338
 20
-5.5368577936
 10
-12.5165323026
 20
-5.5346131322
 10
-12.5195381262
 20
-5.5325039958
 10
-12.5225355935
 20
-5.5305212044
 10
-12.525533193
 20
-5.5286555782
 10
-12.5285394137
 20
-5.5268979372
 10
-12.5321671887
 20
-5.52492201
 10
-12.5358161391
 20
-5.5230942606
 10
-12.5394828024
 20
-5.5214205871
 10
-12.5431637157
 20
-5.5199068876
 10
-12.5468554164
 20
-5.5185590603
 10
-12.5505530877
 20
-5.5173830438
 10
-12.5542464966
 20
-5.5163849384
 10
-12.557924056
 20
-5.5155708849
 10
-12.5615741788
 20
-5.514947024
 10
-12.5651852778
 20
-5.5145194965
 10
-12.568747591
 20
-5.5142937119
 10
-12.5722586553
 20
-5.5142721541
 10
-12.5757178327
 20
-5.5144565758
 10
-12.5791244852
 20
-5.5148487296
 10
-12.5824779746
 20
-5.5154503683
 10
-12.5857757249
 20
-5.5162627055
 10
-12.589007407
 20
-5.5172847995
 10
-12.5921607538
 20
-5.5185151697
 10
-12.5952234982
 20
-5.5199523356
 10
-12.598183373
 20
-5.5215948164
 10
-12.6010292901
 20
-5.523440647
 10
-12.6037548773
 20
-5.5254859247
 10
-12.6063549411
 20
-5.527726262
 10
-12.6088242883
 20
-5.5301572717
 10
-12.6111577256
 20
-5.5327745663
 10
-12.6133500221
 20
-5.5355736596
 10
-12.6153957973
 20
-5.5385496696
 10
-12.6172896331
 20
-5.5416976153
 10
-12.6190261115
 20
-5.5450125158
 10
-12.6205998143
 20
-5.5484893901
 10
-12.6217831192
 20
-5.5515061676
 10
-12.6228473106
 20
-5.5546245595
 10
-12.6237900759
 20
-5.5578371573
 10
-12.6246091027
 20
-5.5611365526
 10
-12.6253020785
 20
-5.5645153369
 10
-12.6258666909
 20
-5.5679661019
 10
-12.6263009639
 20
-5.571482524
 10
-12.626604267
 20
-5.5750626204
 10
-12.6267763063
 20
-5.5787054929
 10
-12.626816788
 20
-5.5824102435
 10
-12.626725418
 20
-5.5861759743
 10
-12.6265019024
 20
-5.5900017872
 10
-12.6261471677
 20
-5.5938851652
 10
-12.6256670213
 20
-5.5978171148
 10
-12.6250684913
 20
-5.6017870235
 10
-12.6243586055
 20
-5.6057842787
 10
-12.6235443918
 20
-5.6097982679
 10
-12.6226328782
 20
-5.6138183787
 10
-12.6214195705
 20
-5.6186389166
 10
-12.6200827118
 20
-5.623454251
 10
-12.6186287427
 20
-5.6282656456
 10
-12.6170641041
 20
-5.6330743642
 10
-12.6153952365
 20
-5.6378816702
 10
-12.6136276059
 20
-5.6426873757
 10
-12.6117627791
 20
-5.6474854851
 10
-12.609801348
 20
-5.6522685515
 10
-12.6077439044
 20
-5.6570291276
 10
-12.6055910404
 20
-5.6617597663
 10
-12.6033432367
 20
-5.6664531479
 10
-12.60100053
 20
-5.6711024617
 10
-12.5985628458
 20
-5.6757010249
 10
-12.5960301097
 20
-5.6802421543
 10
-12.5934022471
 20
-5.6847191669
 10
-12.5911385011
 20
-5.6883971736
 10
-12.588801756
 20
-5.6920279217
 10
-12.5863851244
 20
-5.6956133191
 10
-12.583881719
 20
-5.6991552739
 10
-12.5812846524
 20
-5.702655694
 10
-12.5785870373
 20
-5.7061164875
  0
LWPOLYLINE
  5
247
100
AcDbEntity
  8
ASSI
100
AcDbPolyline
 62
253
  6
CONTINUOUS
 90
3
 70
0
 10
-9.5993757795
 20
-1.2361506131
 10
-9.5956189255
 20
-1.2806581252
 10
-9.59324613
 20
-1.3243879547
  0
LWPOLYLINE
  5
248
100
AcDbEntity
  8
ASSI
100
AcDbPolyline
 62
253
  6
CONTINUOUS
 90
3
 70
0
 10
-9.5974093671
 20
6.1146985646
 10
-9.5943080933
 20
6.0698097581
 10
-9.5925907687
 20
6.02569768
  0
LINE
  5
249
100
AcDbEntity
  8
ASSI
100
AcDbLine
 62
253
  6
CONTINUOUS
 10
-9.59324613
 20
-1.3243879547
 11
-9.592257386
 21
-1.3673400968
  0
LINE
  5
24A
100
AcDbEntity
  8
ASSI
100
AcDbLine
 62
7
  6
CONTINUOUS
 10
-9.6221785103
 20
-1.2952365347
 11
-9.6215472578
 21
-1.3264924767
  0
LINE
  5
24B
100
AcDbEntity
  8
ASSI
100
AcDbLine
 62
253
  6
CONTINUOUS
 10
-9.5925907687
 20
6.02569768
 11
-9.592257386
 21
5.9823623348
  0
LINE
  5
24C
100
AcDbEntity
  8
ASSI
100
AcDbLine
 62
7
  6
CONTINUOUS
 10
-9.6217083233
 20
6.0553022133
 11
-9.6215464864
 21
6.0232680063
  0
LINE
  5
24D
100
AcDbEntity
  8
ASSI
100
AcDbLine
 62
253
  6
CONTINUOUS
 10
-9.592257386
 20
-1.3673400968
 11
-9.5925900003
 21
-1.4094949505
  0
LINE
  5
24E
100
AcDbEntity
  8
ASSI
100
AcDbLine
 62
7
  6
CONTINUOUS
 10
-9.6215465459
 20
-1.3265771237
 11
-9.6230957774
 21
-1.3971115053
  0
LINE
  5
24F
100
AcDbEntity
  8
ASSI
100
AcDbLine
 62
253
  6
CONTINUOUS
 10
-9.592257386
 20
5.9823623348
 11
-9.5932450265
 21
5.9398078212
  0
LINE
  5
250
100
AcDbEntity
  8
ASSI
100
AcDbLine
 62
7
  6
CONTINUOUS
 10
-9.6215470161
 20
6.0231900683
 11
-9.6242146266
 21
5.9517580961
  0
LWPOLYLINE
  5
251
100
AcDbEntity
  8
ASSI
100
AcDbPolyline
 62
253
  6
CONTINUOUS
 90
16
 70
0
 10
-9.5925900003
 20
-1.4094949505
 10
-9.5943055582
 20
-1.4508222855
 10
-9.5974040665
 20
-1.4913221054
 10
-9.6018852661
 20
-1.5310768685
 10
-9.6077494144
 20
-1.5700041145
 10
-9.6149973607
 20
-1.6078565094
 10
-9.6236436189
 20
-1.6446242045
 10
-9.6336738229
 20
-1.6803171345
 10
-9.6450456336
 20
-1.7147177178
 10
-9.6577717401
 20
-1.7478111608
 10
-9.671839726
 20
-1.779612417
 10
-9.6871697138
 20
-1.8099485947
 10
-9.703762307
 20
-1.8387956578
 10
-9.7216172754
 20
-1.8661778617
 10
-9.7406535779
 20
-1.8919948046
 10
-9.7608689673
 20
-1.9162368418
  0
LWPOLYLINE
  5
252
100
AcDbEntity
  8
ASSI
100
AcDbPolyline
 62
253
  6
CONTINUOUS
 90
16
 70
0
 10
-9.5932450265
 20
5.9398078212
 10
-9.5956157469
 20
5.8980809334
 10
-9.5993695536
 20
5.8571816681
 10
-9.6045074671
 20
5.8170267688
 10
-9.6110284651
 20
5.777699494
 10
-9.6189295588
 20
5.739449574
 10
-9.6282252477
 20
5.7022868761
 10
-9.63890118
 20
5.66620145
 10
-9.6509112213
 20
5.6314132249
 10
-9.6642679481
 20
5.5979370792
 10
-9.6789590566
 20
5.5657579803
 10
-9.6949012116
 20
5.5350509233
 10
-9.7120946345
 20
5.5058401905
 10
-9.7305394774
 20
5.4781012881
 10
-9.7501523883
 20
5.4519359964
 10
-9.7709309423
 20
5.4273540611
  0
LWPOLYLINE
  5
253
100
AcDbEntity
  8
ASSI
100
AcDbPolyline
 62
7
  6
CONTINUOUS
 90
10
 70
0
 10
-9.6230957774
 20
-1.3971115053
 10
-9.6306178289
 20
-1.4787523135
 10
-9.6441485995
 20
-1.554781962
 10
-9.6634297046
 20
-1.6246659113
 10
-9.6881255434
 20
-1.6878984242
 10
-9.7178146953
 20
-1.7440543343
 10
-9.7519366685
 20
-1.7927563577
 10
-9.7901642772
 20
-1.8341382467
 10
-9.8326207381
 20
-1.8686124848
 10
-9.8527242804
 20
-1.8816535027
  0
LWPOLYLINE
  5
254
100
AcDbEntity
  8
ASSI
100
AcDbPolyline
 62
7
  6
CONTINUOUS
 90
10
 70
0
 10
-9.6242146266
 20
5.9517580961
 10
-9.6331168989
 20
5.8690377334
 10
-9.6480445346
 20
5.7919004252
 10
-9.668742023
 20
5.7208946411
 10
-9.6948781807
 20
5.6565387539
 10
-9.7260394799
 20
5.5992710599
 10
-9.7616818479
 20
5.5494798034
 10
-9.8014758684
 20
5.5070823585
 10
-9.845502845
 20
5.4717343773
 10
-9.8651423572
 20
5.4590503397
  0
LWPOLYLINE
  5
255
100
AcDbEntity
  8
ASSI
100
AcDbPolyline
 62
253
  6
CONTINUOUS
 90
69
 70
0
 10
-9.7709309423
 20
5.4273540611
 10
-9.7928779821
 20
5.4043454996
 10
-9.8159181118
 20
5.3829824688
 10
-9.8400589442
 20
5.3632636193
 10
-9.8652932992
 20
5.3451900548
 10
-9.8915236346
 20
5.3288375858
 10
-9.9187601119
 20
5.3142107286
 10
-9.9469930133
 20
5.3013047148
 10
-9.9760950177
 20
5.2901814061
 10
-10.0060687258
 20
5.2808508163
 10
-10.0369119761
 20
5.2733026819
 10
-10.0684903308
 20
5.2675684334
 10
-10.1008042962
 20
5.2636561419
 10
-10.1338537724
 20
5.2615575048
 10
-10.1675034231
 20
5.2612793869
 10
-10.2017559281
 20
5.2628285951
 10
-10.2366089591
 20
5.2661981222
 10
-10.2719196646
 20
5.2713741119
 10
-10.3076916144
 20
5.2783641467
 10
-10.3439215189
 20
5.2871604846
 10
-10.380456226
 20
5.2977262889
 10
-10.4172970262
 20
5.3100691245
 10
-10.4544428242
 20
5.3241813152
 10
-10.4917368712
 20
5.340003174
 10
-10.5291792889
 20
5.3575416307
 10
-10.5667700558
 20
5.3767896983
 10
-10.6043521852
 20
5.397666827
 10
-10.6419256377
 20
5.4201797301
 10
-10.6794904527
 20
5.4443216941
 10
-10.7168897368
 20
5.4699920436
 10
-10.7541233069
 20
5.4971976391
 10
-10.7911912461
 20
5.525931677
 10
-10.8279370368
 20
5.5560729988
 10
-10.8643593686
 20
5.5876279026
 10
-10.9004593569
 20
5.6205902015
 10
-10.9360841047
 20
5.65482002
 10
-10.9712300124
 20
5.690321148
 10
-11.0059003996
 20
5.7270899552
 10
-11.0399527362
 20
5.7649754414
 10
-11.0733842039
 20
5.8039815883
 10
-11.1061972695
 20
5.8441046145
 10
-11.1382573283
 20
5.8851818765
 10
-11.1695637487
 20
5.9272211591
 10
-11.2001167559
 20
5.9702149089
 10
-11.2297830405
 20
6.0139774696
 10
-11.2585600792
 20
6.0585165282
 10
-11.286449956
 20
6.1038246476
 10
-11.3133263004
 20
6.1496934702
 10
-11.3391791233
 20
6.1961167209
 10
-11.3640179698
 20
6.2431009272
 10
-11.3877458101
 20
6.2904569121
 10
-11.4103548426
 20
6.3381747222
 10
-11.4318524367
 20
6.3862645565
 10
-11.4521643623
 20
6.4345674419
 10
-11.4712926359
 20
6.4830954
 10
-11.489234824
 20
6.5318366457
 10
-11.505910076
 20
6.5805964644
 10
-11.52131811
 20
6.6293991533
 10
-11.5354588342
 20
6.678220627
 10
-11.5482517695
 20
6.7267935476
 10
-11.5596845672
 20
6.7751194112
 10
-11.5697693017
 20
6.8231968769
 10
-11.5784622472
 20
6.8707542839
 10
-11.5857488863
 20
6.9177854303
 10
-11.5916435869
 20
6.9642966022
 10
-11.5961460836
 20
7.0100347952
 10
-11.5992563137
 20
7.0549156599
 10
-11.6009743409
 20
7.0990235444
 10
-11.601300158
 20
7.1423584521
  0
LWPOLYLINE
  5
256
100
AcDbEntity
  8
RACCORDO
100
AcDbPolyline
 62
253
  6
CONTINUOUS
 90
5
 70
0
 10
-9.8310631988
 20
5.6102705532
 10
-9.772489413
 20
5.6494631363
 10
-9.7172855311
 20
5.702728921
 10
-9.6711007506
 20
5.7659188453
 10
-9.6422616592
 20
5.8217829497
  0
LINE
  5
257
100
AcDbEntity
  8
ASSI
100
AcDbLine
 62
7
  6
CONTINUOUS
 10
-9.8644115449
 20
5.4594924255
 11
-9.8651388447
 21
5.4590524445
  0
LWPOLYLINE
  5
258
100
AcDbEntity
  8
ASSI
100
AcDbPolyline
 62
253
  6
CONTINUOUS
 90
65
 70
0
 10
-9.8651388447
 20
5.4590524445
 10
-9.8720864077
 20
5.4549436448
 10
-9.8974277614
 20
5.4413336936
 10
-9.9236614793
 20
5.4293463556
 10
-9.9507414276
 20
5.419003841
 10
-9.9786276336
 20
5.4103211405
 10
-10.0072832669
 20
5.4033094206
 10
-10.0366638456
 20
5.3979790525
 10
-10.0667253267
 20
5.3943368821
 10
-10.0974280171
 20
5.3923865775
 10
-10.1287324223
 20
5.3921300143
 10
-10.160594998
 20
5.3935672722
 10
-10.1929709496
 20
5.396696053
 10
-10.2258180835
 20
5.4015121509
 10
-10.2590920165
 20
5.408009315
 10
-10.2927448712
 20
5.4161784569
 10
-10.3267283778
 20
5.4260078566
 10
-10.3609948721
 20
5.43748369
 10
-10.3954965308
 20
5.4505899229
 10
-10.4301841694
 20
5.4653077452
 10
-10.4650086976
 20
5.4816161577
 10
-10.4999218456
 20
5.4994924214
 10
-10.5348753449
 20
5.5189117375
 10
-10.5698202248
 20
5.5398468739
 10
-10.6047075089
 20
5.5622685105
 10
-10.6394889195
 20
5.5861457084
 10
-10.6741162059
 20
5.6114454827
 10
-10.7085402579
 20
5.6381321398
 10
-10.7427118213
 20
5.6661676711
 10
-10.7765831242
 20
5.6955129399
 10
-10.8101064448
 20
5.7261266988
 10
-10.8432332813
 20
5.7579647744
 10
-10.8759157834
 20
5.790980993
 10
-10.9081095379
 20
5.8251303308
 10
-10.9397720406
 20
5.8603680252
 10
-10.9708584146
 20
5.8966445339
 10
-11.0013252134
 20
5.9339095814
 10
-11.0311329024
 20
5.972115746
 10
-11.0602416653
 20
6.011213404
 10
-11.0886075843
 20
6.0511449758
 10
-11.1161864748
 20
6.0918491896
 10
-11.1429415181
 20
6.1332725393
 10
-11.1688326588
 20
6.1753537431
 10
-11.1938139009
 20
6.2180173111
 10
-11.2178464291
 20
6.2611946595
 10
-11.2409022771
 20
6.3048329916
 10
-11.2629542433
 20
6.3488791096
 10
-11.2839670081
 20
6.3932611409
 10
-11.3039166797
 20
6.4379270983
 10
-11.3227920381
 20
6.4828539057
 10
-11.3405679293
 20
6.5279895321
 10
-11.3572124202
 20
6.5732610087
 10
-11.3727028031
 20
6.6186138361
 10
-11.3870204344
 20
6.6640066801
 10
-11.4001337866
 20
6.70935335
 10
-11.412007109
 20
6.7545321236
 10
-11.4226254372
 20
6.7994837033
 10
-11.431973831
 20
6.8441411388
 10
-11.4400297186
 20
6.8883738177
 10
-11.4467885457
 20
6.9321216842
 10
-11.4522479922
 20
6.9753266552
 10
-11.4564033364
 20
7.0178666578
 10
-11.4592609535
 20
7.059667411
 10
-11.4608317808
 20
7.1006999809
 10
-11.4611265079
 20
7.1409155085
  0
LINE
  5
259
100
AcDbEntity
  8
DRAFT
100
AcDbLine
 62
7
  6
CONTINUOUS
 10
-9.6799660297
 20
5.6932574148
 11
-9.8310632054
 21
5.6102705496
  0
LWPOLYLINE
  5
25A
100
AcDbEntity
  8
RACCORDO
100
AcDbPolyline
 62
7
  6
CONTINUOUS
 90
21
 70
0
 10
-11.0378819262
 20
0.352174947
 10
-11.1030891713
 20
0.3045622613
 10
-11.1609659472
 20
0.2449882667
 10
-11.210457438
 20
0.1738783341
 10
-11.2508289679
 20
0.0913290932
 10
-11.2810334136
 20
-0.0017326711
 10
-11.3002025465
 20
-0.1031597561
 10
-11.3082062412
 20
-0.2117853527
 10
-11.3050026673
 20
-0.3267035577
 10
-11.2907756808
 20
-0.4454840896
 10
-11.2660388916
 20
-0.5662678202
 10
-11.2312185238
 20
-0.6881508617
 10
-11.1868405516
 20
-0.8097769005
 10
-11.1335495601
 20
-0.9296872842
 10
-11.0720136273
 20
-1.0465741944
 10
-11.0028965059
 20
-1.159244637
 10
-10.9269839287
 20
-1.2663992745
 10
-10.8451449713
 20
-1.3667561235
 10
-10.7581884959
 20
-1.4592146395
 10
-10.6669843149
 20
-1.5426729308
 10
-10.5725178901
 20
-1.616011904
  0
LWPOLYLINE
  5
25B
100
AcDbEntity
  8
CURVE
100
AcDbPolyline
 62
253
  6
CONTINUOUS
 90
76
 70
0
 10
-8.4539804512
 20
-8.0876126368
 10
-8.4514344882
 20
-8.0871727383
 10
-8.4489856565
 20
-8.0865992894
 10
-8.4466256396
 20
-8.0858939844
 10
-8.4443461214
 20
-8.0850585178
 10
-8.4421387854
 20
-8.0840945838
 10
-8.4399953155
 20
-8.0830038768
 10
-8.4374988847
 20
-8.0815291414
 10
-8.4350869112
 20
-8.0798716258
 10
-8.4327638606
 20
-8.0780286631
 10
-8.4305341985
 20
-8.0759975865
 10
-8.4284023906
 20
-8.0737757289
 10
-8.4263733884
 20
-8.0713617277
 10
-8.4244540866
 20
-8.0687594363
 10
-8.4226518659
 20
-8.0659740126
 10
-8.4209741068
 20
-8.0630106143
 10
-8.4194281899
 20
-8.0598743991
 10
-8.4180204785
 20
-8.0565694766
 10
-8.4167532668
 20
-8.053095763
 10
-8.4156278317
 20
-8.0494521262
 10
-8.4146454499
 20
-8.0456374344
 10
-8.4138073984
 20
-8.0416505554
 10
-8.4131153476
 20
-8.0374927825
 10
-8.412572542
 20
-8.03317511
 10
-8.4121826195
 20
-8.0287109573
 10
-8.4119492184
 20
-8.024113744
 10
-8.4118759765
 20
-8.0193968894
 10
-8.4119657972
 20
-8.0145733151
 10
-8.412218644
 20
-8.0096539494
 10
-8.4126337458
 20
-8.0046492227
 10
-8.4132103315
 20
-7.9995695654
 10
-8.4139476298
 20
-7.9944254077
 10
-8.4148448553
 20
-7.9892270401
 10
-8.4159011655
 20
-7.9839841924
 10
-8.4171157037
 20
-7.9787064546
 10
-8.4184876132
 20
-7.9734034165
 10
-8.4200160371
 20
-7.968084668
 10
-8.4214081416
 20
-7.963648008
 10
-8.4229047032
 20
-7.9592169239
 10
-8.4245020832
 20
-7.9548012419
 10
-8.4261966431
 20
-7.9504107882
 10
-8.4279847442
 20
-7.9460553889
 10
-8.429862748
 20
-7.9417448703
 10
-8.4318275303
 20
-7.9374876767
 10
-8.4338780252
 20
-7.9332867247
 10
-8.4360136813
 20
-7.929143549
 10
-8.438233947
 20
-7.9250596843
 10
-8.440538271
 20
-7.9210366653
 10
-8.4429261018
 20
-7.9170760266
 10
-8.4453956439
 20
-7.9131797525
 10
-8.4479401249
 20
-7.9093516247
 10
-8.4505515285
 20
-7.9055958745
 10
-8.4532218384
 20
-7.9019167331
 10
-8.4559430381
 20
-7.8983184317
 10
-8.4587071112
 20
-7.8948052017
 10
-8.4620712086
 20
-7.8907053835
 10
-8.4654830706
 20
-7.8867283088
 10
-8.4689402674
 20
-7.8828681257
 10
-8.4724403694
 20
-7.8791189819
 10
-8.475980947
 20
-7.8754750255
 10
-8.4795590458
 20
-7.8719326699
 10
-8.4831696127
 20
-7.8684973916
 10
-8.48680707
 20
-7.8651769324
 10
-8.4904658397
 20
-7.8619790343
 10
-8.494140344
 20
-7.8589114393
 10
-8.4978253201
 20
-7.8559816674
 10
-8.5015167643
 20
-7.8531963507
 10
-8.5052109881
 20
-7.8505618992
 10
-8.5089043029
 20
-7.8480847231
 10
-8.51259302
 20
-7.8457712325
 10
-8.5156617992
 20
-7.8439730821
 10
-8.518728819
 20
-7.8422973419
 10
-8.5217980743
 20
-7.8407483002
 10
-8.52487356
 20
-7.8393302452
 10
-8.5279592711
 20
-7.8380474653
 10
-8.5310592025
 20
-7.8369042485
  0
LWPOLYLINE
  5
25C
100
AcDbEntity
  8
ASSI
100
AcDbPolyline
 62
253
  6
CONTINUOUS
 90
20
 70
0
 10
12.8510507154
 20
-10.3541971158
 10
12.8724200704
 20
-10.3599283218
 10
12.8942294161
 20
-10.3650770662
 10
12.9164297676
 20
-10.3696319598
 10
12.9389725393
 20
-10.3735831645
 10
12.9618085372
 20
-10.3769218716
 10
12.9848875021
 20
-10.3796408214
 10
13.0081579998
 20
-10.3817340026
 10
13.0315682911
 20
-10.3831965013
 10
13.0550665238
 20
-10.3840252172
 10
13.0786006247
 20
-10.3842184162
 10
13.1021182242
 20
-10.3837753822
 10
13.1255672094
 20
-10.3826972741
 10
13.1488956374
 20
-10.3809866244
 10
13.172051627
 20
-10.3786469299
 10
13.1949835658
 20
-10.3756836262
 10
13.2176409851
 20
-10.3721034316
 10
13.2399744408
 20
-10.3679137975
 10
13.2619350609
 20
-10.363124018
 10
13.2834735158
 20
-10.3577449531
  0
LINE
  5
25D
100
AcDbEntity
  8
RACCORDO
100
AcDbLine
 62
7
  6
CONTINUOUS
 10
-10.5725178901
 20
-1.616011904
 11
-10.4757938238
 21
-1.678206798
  0
LWPOLYLINE
  5
25E
100
AcDbEntity
  8
RACCORDO
100
AcDbPolyline
 62
253
  6
CONTINUOUS
 90
4
 70
0
 10
-10.572534703
 20
-1.5928682716
 10
-10.5462537629
 20
-1.610481869
 10
-10.5207516212
 20
-1.6266029247
 10
-10.4960587499
 20
-1.6413056581
  0
LWPOLYLINE
  5
25F
100
AcDbEntity
  8
ASSI
100
AcDbPolyline
 62
253
  6
CONTINUOUS
 90
69
 70
0
 10
-9.7608689673
 20
-1.9162368418
 10
-9.7822661084
 20
-1.9389138636
 10
-9.8047713831
 20
-1.9599548021
 10
-9.8283923124
 20
-1.9793609498
 10
-9.8531218078
 20
-1.9971312688
 10
-9.8788643806
 20
-2.0131912221
 10
-9.9056301699
 20
-2.0275362876
 10
-9.9334094801
 20
-2.0401712487
 10
-9.9620771097
 20
-2.0510355496
 10
-9.9916357903
 20
-2.0601192634
 10
-10.0220832293
 20
-2.0674325759
 10
-10.0532867149
 20
-2.0729451154
 10
-10.0852468687
 20
-2.0766488915
 10
-10.1179634755
 20
-2.0785521345
 10
-10.1513025798
 20
-2.0786488099
 10
-10.1852669374
 20
-2.0769321706
 10
-10.2198541437
 20
-2.0734091712
 10
-10.2549225006
 20
-2.0680943291
 10
-10.2904756557
 20
-2.0609801267
 10
-10.3265102412
 20
-2.052074247
 10
-10.3628740257
 20
-2.041414001
 10
-10.3995684016
 20
-2.028991901
 10
-10.4365921714
 20
-2.01481555
 10
-10.4737892002
 20
-1.9989448852
 10
-10.5111597126
 20
-1.9813730531
 10
-10.548703584
 20
-1.9621069663
 10
-10.5862641321
 20
-1.9412271981
 10
-10.623841422
 20
-1.9187271074
 10
-10.6614353885
 20
-1.8946133354
 10
-10.6988891297
 20
-1.8689863635
 10
-10.7362025737
 20
-1.8418394008
 10
-10.7733756923
 20
-1.8131791792
 10
-10.8102516257
 20
-1.7831264513
 10
-10.8468291762
 20
-1.7516749858
 10
-10.8831093466
 20
-1.7188308988
 10
-10.9189385588
 20
-1.6847334528
 10
-10.9543133125
 20
-1.6493789054
 10
-10.9892368282
 20
-1.6127708338
 10
-11.0235655981
 20
-1.575059474
 10
-11.0572968969
 20
-1.5362408863
 10
-11.0904330987
 20
-1.4963188031
 10
-11.1228383428
 20
-1.4554549668
 10
-11.1545121298
 20
-1.4136416534
 10
-11.185454553
 20
-1.3708863473
 10
-11.2155306514
 20
-1.3273736093
 10
-11.2447380441
 20
-1.2830958261
 10
-11.273078673
 20
-1.2380603523
 10
-11.3004240881
 20
-1.1924742163
 10
-11.3267642937
 20
-1.1463436756
 10
-11.3521088418
 20
-1.0996622113
 10
-11.3763586431
 20
-1.0526177112
 10
-11.3995058153
 20
-1.0052200534
 10
-11.4215578086
 20
-0.9574591055
 10
-11.4424385767
 20
-0.9094927648
 10
-11.4621502994
 20
-0.8613090957
 10
-11.4806903799
 20
-0.8129197888
 10
-11.4979756615
 20
-0.7645182119
 10
-11.5140062314
 20
-0.7160803111
 10
-11.5287816287
 20
-0.667629921
 10
-11.5422179596
 20
-0.6194322935
 10
-11.5543030139
 20
-0.5714860105
 10
-11.5650487274
 20
-0.5237923293
 10
-11.5744075449
 20
-0.476620586
 10
-11.5823649916
 20
-0.4299769912
 10
-11.5889353926
 20
-0.383855247
 10
-11.5941145249
 20
-0.3385060041
 10
-11.5979010064
 20
-0.2940128279
 10
-11.6002962198
 20
-0.2502921543
 10
-11.601300158
 20
-0.2073439795
  0
LWPOLYLINE
  5
260
100
AcDbEntity
  8
RACCORDO
100
AcDbPolyline
 62
253
  6
CONTINUOUS
 90
38
 70
0
 10
-9.8896868052
 20
-1.6642945972
 10
-9.8385449261
 20
-1.6149485773
 10
-9.7957591421
 20
-1.5564079444
 10
-9.7614099581
 20
-1.4898680962
 10
-9.735888439
 20
-1.4180943223
 10
-9.7186765033
 20
-1.3433790422
 10
-9.7088017921
 20
-1.2665630692
 10
-9.7054887755
 20
-1.1884656009
 10
-9.7080345315
 20
-1.1101655505
 10
-9.7157208788
 20
-1.0325778696
 10
-9.7279345391
 20
-0.9559551008
 10
-9.7440762098
 20
-0.8809084342
 10
-9.763546133
 20
-0.8080205239
 10
-9.7859229125
 20
-0.7372941062
 10
-9.8107333048
 20
-0.6690607848
 10
-9.8375040504
 20
-0.6036460836
 10
-9.8659614834
 20
-0.5409316433
 10
-9.8957408178
 20
-0.4810837906
 10
-9.9264877985
 20
-0.4242469125
 10
-9.9580545797
 20
-0.3702170313
 10
-9.9901850313
 20
-0.319033515
 10
-10.0226109139
 20
-0.2707571145
 10
-10.0552443232
 20
-0.2251971676
 10
-10.0878943392
 20
-0.1823406159
 10
-10.1203726512
 20
-0.1421730386
 10
-10.1526479867
 20
-0.1045003913
 10
-10.1845881014
 20
-0.0692713693
 10
-10.2160583215
 20
-0.0364397049
 10
-10.2470602443
 20
-0.0058276709
 10
-10.277505978
 20
0.0226357017
 10
-10.3072999751
 20
0.0490118891
 10
-10.336456733
 20
0.0734523256
 10
-10.3649057957
 20
0.0960249942
 10
-10.3925949847
 20
0.1168104871
 10
-10.4195828167
 20
0.1359630812
 10
-10.4458637436
 20
0.1535766862
 10
-10.4713658787
 20
0.1696977457
 10
-10.4960587499
 20
0.1844004793
  0
LINE
  5
261
100
AcDbEntity
  8
DRAFT
100
AcDbLine
 62
7
  6
CONTINUOUS
 10
-10.8943876172
 20
0.4391684273
 11
-11.0378820174
 21
0.3521748917
  0
LINE
  5
262
100
AcDbEntity
  8
ASSI
100
AcDbLine
 62
7
  6
CONTINUOUS
 10
-11.1862312078
 20
0.3980723515
 11
-11.185260559
 21
0.398607074
  0
LWPOLYLINE
  5
263
100
AcDbEntity
  8
ASSI
100
AcDbPolyline
 62
7
  6
CONTINUOUS
 90
28
 70
0
 10
-11.1862382486
 20
0.3980683264
 10
-11.138502023
 20
0.420199095
 10
-11.0794587654
 20
0.4374955735
 10
-11.0156017373
 20
0.446157806
 10
-10.9471899831
 20
0.44594875
 10
-10.8745577848
 20
0.4366220894
 10
-10.7986303253
 20
0.4180908463
 10
-10.7208496855
 20
0.3906918277
 10
-10.6425242642
 20
0.3550833246
 10
-10.5639763178
 20
0.3116357119
 10
-10.4850796015
 20
0.2603332152
 10
-10.4063248174
 20
0.201419891
 10
-10.3285601633
 20
0.1354733683
 10
-10.2520783314
 20
0.062674373
 10
-10.1773617709
 20
-0.0166536757
 10
-10.105194627
 20
-0.1018046868
 10
-10.0362676618
 20
-0.1920360272
 10
-9.9711398044
 20
-0.2866605294
 10
-9.9103319212
 20
-0.3849565114
 10
-9.8543891611
 20
-0.4860488382
 10
-9.8037391032
 20
-0.5891357978
 10
-9.7587538991
 20
-0.6934136012
 10
-9.7197945867
 20
-0.797957464
 10
-9.6871139506
 20
-0.9019421569
 10
-9.6609068043
 20
-1.0045471165
 10
-9.641328782
 20
-1.1048313289
 10
-9.6284309162
 20
-1.2019579306
 10
-9.6221785103
 20
-1.2952365347
  0
LWPOLYLINE
  5
264
100
AcDbEntity
  8
RACCORDO
100
AcDbPolyline
 62
253
  6
CONTINUOUS
 90
8
 70
0
 10
-10.4099996522
 20
-1.6855737535
 10
-10.3249654307
 20
-1.7184647308
 10
-10.2419669406
 20
-1.7395884508
 10
-10.1620072392
 20
-1.7486932652
 10
-10.0860185261
 20
-1.7456784616
 10
-10.0148593375
 20
-1.7305703909
 10
-9.9489922393
 20
-1.7033214293
 10
-9.8896868052
 20
-1.6642945972
  0
LWPOLYLINE
  5
265
100
AcDbEntity
  8
RACCORDO
100
AcDbPolyline
 62
7
  6
CONTINUOUS
 90
9
 70
0
 10
-10.3962645763
 20
-1.7198774818
 10
-10.3174659129
 20
-1.7527576827
 10
-10.2398732283
 20
-1.7767788955
 10
-10.1637541964
 20
-1.7919297831
 10
-10.0897738236
 20
-1.7981281179
 10
-10.0190034766
 20
-1.795460833
 10
-9.9520987423
 20
-1.7842769695
 10
-9.8893079614
 20
-1.7649589373
 10
-9.8310631312
 20
-1.7379619008
  0
LINE
  5
266
100
AcDbEntity
  8
RACCORDO
100
AcDbLine
 62
253
  6
CONTINUOUS
 10
-10.4960587499
 20
-1.6413056581
 11
-10.4099996522
 21
-1.6855737535
  0
LINE
  5
267
100
AcDbEntity
  8
RACCORDO
100
AcDbLine
 62
253
  6
CONTINUOUS
 10
-10.4960587499
 20
0.1844004793
 11
-10.5821171533
 21
0.2286689755
  0
LINE
  5
268
100
AcDbEntity
  8
RACCORDO
100
AcDbLine
 62
7
  6
CONTINUOUS
 10
-10.4757938238
 20
-1.678206798
 11
-10.3962645763
 21
-1.7198774818
  0
LINE
  5
269
100
AcDbEntity
  8
ASSI
100
AcDbLine
 62
253
  6
CONTINUOUS
 10
-10.5668587332
 20
0.3460468463
 11
-10.5292678908
 21
0.3219199102
  0
LWPOLYLINE
  5
26A
100
AcDbEntity
  8
ASSI
100
AcDbPolyline
 62
253
  6
CONTINUOUS
 90
38
 70
0
 10
-10.5292678908
 20
0.3219199102
 10
-10.4918252895
 20
0.2962745715
 10
-10.4545309554
 20
0.2691040604
 10
-10.4173847624
 20
0.2404152052
 10
-10.3805434095
 20
0.2103290598
 10
-10.3440079535
 20
0.1788394725
 10
-10.3077771424
 20
0.145952709
 10
-10.2720041934
 20
0.1118084601
 10
-10.2366923787
 20
0.0764031247
 10
-10.2018381459
 20
0.0397404676
 10
-10.1675844645
 20
0.0019712354
 10
-10.1339337546
 20
-0.0369083238
 10
-10.1008832447
 20
-0.0768942526
 10
-10.0685681139
 20
-0.1178242392
 10
-10.0369885095
 20
-0.1597057888
 10
-10.0061438779
 20
-0.2025311583
 10
-9.9761683571
 20
-0.24611517
 10
-9.9470639381
 20
-0.2904652032
 10
-9.9188281906
 20
-0.3355736213
 10
-9.8915886484
 20
-0.381232738
 10
-9.8653548739
 20
-0.4274360321
 10
-9.8401168607
 20
-0.4741897645
 10
-9.8159728293
 20
-0.5213054458
 10
-9.7929302259
 20
-0.5687729176
 10
-9.7709811718
 20
-0.6166020845
 10
-9.7502009435
 20
-0.6646345777
 10
-9.7305869757
 20
-0.7128821021
 10
-9.7121414166
 20
-0.7613327077
 10
-9.6949466669
 20
-0.809792575
 10
-9.6790023142
 20
-0.8582856002
 10
-9.6643083972
 20
-0.9067876672
 10
-9.6509480789
 20
-0.9550329881
 10
-9.638933318
 20
-1.0030228335
 10
-9.6282518816
 20
-1.0507557709
 10
-9.6189507641
 20
-1.097962027
 10
-9.6110443037
 20
-1.1446352965
 10
-9.6045180128
 20
-1.1907817959
 10
-9.5993757795
 20
-1.2361506131
  0
LINE
  5
26B
100
AcDbEntity
  8
ASSI
100
AcDbLine
 62
7
  6
CONTINUOUS
 10
-4.0370903776
 20
22.0384658017
 11
-4.015893646
 21
21.4222420879
  0
LINE
  5
26C
100
AcDbEntity
  8
ASSI
100
AcDbLine
 62
253
  6
CONTINUOUS
 10
-4.2172568241
 20
21.6244405213
 11
-4.2172568241
 21
21.5615353765
  0
LINE
  5
26D
100
AcDbEntity
  8
ASSI
100
AcDbLine
 62
7
  6
CONTINUOUS
 10
3.9532162498
 20
17.4249628971
 11
3.7730498033
 21
17.0109376167
  0
LWPOLYLINE
  5
26E
100
AcDbEntity
  8
RACCORDO
100
AcDbPolyline
 62
253
  6
CONTINUOUS
 90
5
 70
0
 10
-9.8310631988
 20
-1.7379619379
 10
-9.772489413
 20
-1.6987693548
 10
-9.7172855311
 20
-1.6455035701
 10
-9.6711007506
 20
-1.5823136458
 10
-9.6374463292
 20
-1.5171217822
  0
LINE
  5
26F
100
AcDbEntity
  8
ASSI
100
AcDbLine
 62
7
  6
CONTINUOUS
 10
-9.851940435
 20
-1.8811794505
 11
-9.8527206737
 21
-1.8816513395
  0
LWPOLYLINE
  5
270
100
AcDbEntity
  8
ASSI
100
AcDbPolyline
 62
253
  6
CONTINUOUS
 90
65
 70
0
 10
-9.8527206737
 20
-1.8816513395
 10
-9.8594321927
 20
-1.8856181792
 10
-9.8843029837
 20
-1.8989461909
 10
-9.910083235
 20
-1.9106623486
 10
-9.9367288809
 20
-1.920745711
 10
-9.964200112
 20
-1.9291813964
 10
-9.9924599914
 20
-1.9359581799
 10
-10.0214657026
 20
-1.9410667175
 10
-10.0511733559
 20
-1.9445002607
 10
-10.0815431726
 20
-1.9462550865
 10
-10.1125369681
 20
-1.946330126
 10
-10.1441113181
 20
-1.9447253665
 10
-10.1762213871
 20
-1.9414430673
 10
-10.2088260529
 20
-1.936488085
 10
-10.24188106
 20
-1.9298667312
 10
-10.2753384937
 20
-1.9215880435
 10
-10.309150912
 20
-1.9116642241
 10
-10.3432708067
 20
-1.9001091569
 10
-10.3776502991
 20
-1.8869388019
 10
-10.412240718
 20
-1.8721722484
 10
-10.4469931321
 20
-1.855830543
 10
-10.4818592197
 20
-1.8379363384
 10
-10.5167909122
 20
-1.8185145072
 10
-10.5517393981
 20
-1.7975923145
 10
-10.5866556509
 20
-1.7751989841
 10
-10.6214912801
 20
-1.7513653317
 10
-10.6561981975
 20
-1.7261243643
 10
-10.6907272373
 20
-1.6995116683
 10
-10.7250287031
 20
-1.6715649331
 10
-10.7590549825
 20
-1.6423233096
 10
-10.792758295
 20
-1.6118279292
 10
-10.8260893659
 20
-1.5801224508
 10
-10.8590004845
 20
-1.5472530411
 10
-10.8914471886
 20
-1.5132646166
 10
-10.9233859156
 20
-1.4782012804
 10
-10.954771916
 20
-1.4421125628
 10
-10.9855616952
 20
-1.4050486315
 10
-11.0157143926
 20
-1.3670561125
 10
-11.0451903534
 20
-1.3281846385
 10
-11.0739455659
 20
-1.2884916596
 10
-11.1019341347
 20
-1.2480374531
 10
-11.1291194082
 20
-1.206875551
 10
-11.1554612209
 20
-1.1650670933
 10
-11.1809114472
 20
-1.1226863359
 10
-11.2054312844
 20
-1.0798018013
 10
-11.2289927985
 20
-1.0364662388
 10
-11.2515666861
 20
-0.9927316469
 10
-11.273117565
 20
-0.9486697813
 10
-11.2936216413
 20
-0.904332644
 10
-11.3130658394
 20
-0.8597423188
 10
-11.3314251919
 20
-0.8149508808
 10
-11.3486676164
 20
-0.7700311557
 10
-11.3647680547
 20
-0.725036379
 10
-11.3797082545
 20
-0.6800080861
 10
-11.3934563396
 20
-0.6350321694
 10
-11.4059731012
 20
-0.5902283521
 10
-11.4172437198
 20
-0.5456559779
 10
-11.4272531383
 20
-0.5013818656
 10
-11.4359749254
 20
-0.4575343822
 10
-11.4434045511
 20
-0.4141735648
 10
-11.4495396806
 20
-0.3713574483
 10
-11.4543716626
 20
-0.3292058411
 10
-11.4579055582
 20
-0.2877922602
 10
-11.4601536116
 20
-0.2471463619
 10
-11.4611265079
 20
-0.2073169826
  0
LINE
  5
271
100
AcDbEntity
  8
DRAFT
100
AcDbLine
 62
7
  6
CONTINUOUS
 10
-9.6739839484
 20
-1.6516895472
 11
-9.8310632054
 21
-1.7379619415
  0
LWPOLYLINE
  5
272
100
AcDbEntity
  8
RACCORDO
100
AcDbPolyline
 62
253
  6
CONTINUOUS
 90
42
 70
0
 10
-10.5821171533
 20
0.2286689755
 10
-10.6671509799
 20
0.2615601808
 10
-10.7501493741
 20
0.2826839562
 10
-10.8301094366
 20
0.2917885621
 10
-10.90609881
 20
0.2887733773
 10
-10.9772584848
 20
0.2736650258
 10
-11.0431256618
 20
0.2464160187
 10
-11.1024310008
 20
0.2073892416
 10
-11.1535728372
 20
0.1580432463
 10
-11.1963587386
 20
0.0995025456
 10
-11.2307080926
 20
0.0329625993
 10
-11.2562297385
 20
-0.0388112478
 10
-11.273441711
 20
-0.1135265492
 10
-11.2833164158
 20
-0.1903425185
 10
-11.2866294266
 20
-0.2684399835
 10
-11.2840836865
 20
-0.3467400431
 10
-11.2763973559
 20
-0.4243277336
 10
-11.2641836941
 20
-0.5009505015
 10
-11.2480419912
 20
-0.5759971495
 10
-11.2285720176
 20
-0.6488850308
 10
-11.2061951898
 20
-0.7196114206
 10
-11.1813847589
 20
-0.7878447196
 10
-11.1546139767
 20
-0.8532593998
 10
-11.1261565058
 20
-0.9159738181
 10
-11.0963771294
 20
-0.9758216467
 10
-11.0656301055
 20
-1.0326584998
 10
-11.0340632844
 20
-1.0866883579
 10
-11.0019327984
 20
-1.1378718544
 10
-10.9695068847
 20
-1.1861482369
 10
-10.9368734459
 20
-1.2317081667
 10
-10.9042234017
 20
-1.2745647022
 10
-10.8717450631
 20
-1.3147322641
 10
-10.8394697022
 20
-1.3524048967
 10
-10.8075295619
 20
-1.387633904
 10
-10.7760593176
 20
-1.4204655543
 10
-10.7450573756
 20
-1.4510775774
 10
-10.7146116332
 20
-1.4795409448
 10
-10.6848176326
 20
-1.5059171302
 10
-10.655660865
 20
-1.5303575611
 10
-10.6272117782
 20
-1.5529302159
 10
-10.5995225588
 20
-1.5737156912
 10
-10.572534703
 20
-1.5928682716
  0
LWPOLYLINE
  5
273
100
AcDbEntity
  8
ASSI
100
AcDbPolyline
 62
7
  6
CONTINUOUS
 90
13
 70
0
 10
12.7590215291
 20
-10.3906485093
 10
12.8023118381
 20
-10.4129231191
 10
12.852296195
 20
-10.4328812082
 10
12.9043307117
 20
-10.4483330159
 10
12.9580792643
 20
-10.4594487201
 10
13.0130848914
 20
-10.4662783148
 10
13.0685754823
 20
-10.4688167814
 10
13.1240947807
 20
-10.4670852682
 10
13.1791874285
 20
-10.4610563449
 10
13.2330825326
 20
-10.4507238653
 10
13.2853244198
 20
-10.4360312969
 10
13.335580575
 20
-10.4168031042
 10
13.37573599
 20
-10.3970647727
  0
LWPOLYLINE
  5
274
100
AcDbEntity
  8
ASSI
100
AcDbPolyline
 62
253
  6
CONTINUOUS
 90
8
 70
0
 10
12.7176356123
 20
-10.2990026321
 10
12.734663169
 20
-10.308385003
 10
12.752436041
 20
-10.3172992027
 10
12.7709148281
 20
-10.3257255158
 10
12.7900582726
 20
-10.3336452439
 10
12.8098242208
 20
-10.3410409867
 10
12.8301698093
 20
-10.3478965989
 10
12.8510507154
 20
-10.3541971158
  0
LINE
  5
275
100
AcDbEntity
  8
ASSI
100
AcDbLine
 62
253
  6
CONTINUOUS
 10
12.7176356105
 20
-10.8817564943
 11
-18.0297603287
 21
6.8714045656
  0
LINE
  5
276
100
AcDbEntity
  8
ASSI
100
AcDbLine
 62
253
  6
CONTINUOUS
 10
12.8578316391
 20
-10.6374148674
 11
-17.8895819521
 21
7.1157563846
  0
LINE
  5
277
100
AcDbEntity
  8
ASSI
100
AcDbLine
 62
7
  6
CONTINUOUS
 10
-17.9883526665
 20
7.362499574
 11
12.7590609252
 21
-10.3906716783
  0
LINE
  5
278
100
AcDbEntity
  8
ASSI
100
AcDbLine
 62
253
  6
CONTINUOUS
 10
-18.0297603287
 20
7.4541584225
 11
12.7176356105
 21
-10.2990026374
  0
LWPOLYLINE
  5
279
100
AcDbEntity
  8
ASSI
100
AcDbPolyline
 62
253
  6
CONTINUOUS
 90
18
 70
0
 10
-18.0297603268
 20
6.8714045624
 10
-18.0460054659
 20
6.8812386914
 10
-18.0614311968
 20
6.8915081009
 10
-18.0760033783
 20
6.9021900392
 10
-18.089689561
 20
6.9132607218
 10
-18.1024596909
 20
6.9246957624
 10
-18.1142860353
 20
6.9364702794
 10
-18.1251426409
 20
6.9485587018
 10
-18.1350049544
 20
6.9609339293
 10
-18.1438505868
 20
6.9735677593
 10
-18.1516597918
 20
6.9864319205
 10
-18.1584155981
 20
6.9994983212
 10
-18.1641032729
 20
7.0127382551
 10
-18.1687102282
 20
7.0261227118
 10
-18.1722261272
 20
7.0396219507
 10
-18.1746431203
 20
7.0532057167
 10
-18.1759558346
 20
7.0668440729
 10
-18.1762159577
 20
7.0759622134
  0
LWPOLYLINE
  5
27A
100
AcDbEntity
  8
ASSI
100
AcDbPolyline
 62
253
  6
CONTINUOUS
 90
21
 70
0
 10
-17.8895819521
 20
7.1157563846
 10
-17.899354474
 20
7.1216766886
 10
-17.9085982452
 20
7.1278329148
 10
-17.9173132656
 20
7.1342250631
 10
-17.9255170338
 20
7.1408686103
 10
-17.9331920512
 20
7.1477480797
 10
-17.9402858226
 20
7.1548170413
 10
-17.946794044
 20
7.1620765474
 10
-17.9527210194
 20
7.1695255456
 10
-17.9580271656
 20
7.1771144496
 10
-17.9627082193
 20
7.1848440212
 10
-17.9667684438
 20
7.1927134985
 10
-17.9701810456
 20
7.2006710095
 10
-17.972941802
 20
7.2087172533
 10
-17.9750549358
 20
7.2168515308
 10
-17.9765063223
 20
7.2250198723
 10
-17.9772915236
 20
7.2332225391
 10
-17.9774149776
 20
7.24145927
 10
-17.9768758733
 20
7.2496753106
 10
-17.9756697734
 20
7.257870476
 10
-17.9738011153
 20
7.2660449511
  0
LWPOLYLINE
  5
27B
100
AcDbEntity
  8
CURVE
100
AcDbPolyline
 62
253
  6
CONTINUOUS
 90
60
 70
0
 10
-10.370442209
 20
14.9075026487
 10
-10.3722062531
 20
14.9114997839
 10
-10.3740274154
 20
14.9154284364
 10
-10.375908976
 20
14.919300084
 10
-10.3778542154
 20
14.9231262042
 10
-10.3798664136
 20
14.9269182748
 10
-10.3819488511
 20
14.9306877736
 10
-10.3845442298
 20
14.9351934565
 10
-10.3872458612
 20
14.9396785102
 10
-10.3900541296
 20
14.944138281
 10
-10.3929694199
 20
14.9485681152
 10
-10.3959921164
 20
14.9529633593
 10
-10.3985925265
 20
14.956595326
 10
-10.4012630489
 20
14.9601916096
 10
-10.4039989408
 20
14.9637437797
 10
-10.4067954598
 20
14.9672434057
 10
-10.4096478633
 20
14.9706820572
 10
-10.4125514086
 20
14.9740513037
 10
-10.4155020873
 20
14.9773434978
 10
-10.4184988271
 20
14.9805541244
 10
-10.4215412896
 20
14.9836794515
 10
-10.4246291365
 20
14.9867157469
 10
-10.4277620297
 20
14.9896592786
 10
-10.4309396309
 20
14.9925063146
 10
-10.4341606902
 20
14.995252177
 10
-10.437420312
 20
14.9978884042
 10
-10.4407126891
 20
15.0004055892
 10
-10.4440320145
 20
15.0027943245
 10
-10.447372481
 20
15.005045203
 10
-10.4507282813
 20
15.0071488173
 10
-10.4540939923
 20
15.0090974613
 10
-10.4574657258
 20
15.0108902331
 10
-10.4608399776
 20
15.0125279322
 10
-10.4642132435
 20
15.0140113577
 10
-10.4675820193
 20
15.0153413089
 10
-10.4709428006
 20
15.0165185853
 10
-10.4742918826
 20
15.0175439951
 10
-10.4776247569
 20
15.0184183831
 10
-10.4809367146
 20
15.0191426033
 10
-10.4842230465
 20
15.0197175095
 10
-10.4874790438
 20
15.0201439556
 10
-10.4906999974
 20
15.0204227954
 10
-10.4938807124
 20
15.0205553878
 10
-10.4970140503
 20
15.0205451105
 10
-10.5000923869
 20
15.0203958461
 10
-10.5031080979
 20
15.0201114775
 10
-10.5060535588
 20
15.0196958872
 10
-10.5089211455
 20
15.0191529579
 10
-10.5117047643
 20
15.0184864804
 10
-10.5144044441
 20
15.0176998781
 10
-10.5170217447
 20
15.0167964825
 10
-10.5195582258
 20
15.0157796251
 10
-10.522015447
 20
15.0146526373
 10
-10.524394968
 20
15.0134188506
 10
-10.5266987163
 20
15.0120795775
 10
-10.5289300904
 20
15.0106280541
 10
-10.5310928564
 20
15.0090554975
 10
-10.5331907807
 20
15.0073531247
 10
-10.5352276295
 20
15.0055121528
 10
-10.5372071691
 20
15.003523799
  0
LWPOLYLINE
  5
27C
100
AcDbEntity
  8
ASSI
100
AcDbPolyline
 62
253
  6
CONTINUOUS
 90
31
 70
0
 10
13.7224538519
 20
6.3474017934
 10
13.7033892289
 20
6.3381787112
 10
13.6834447177
 20
6.3295369914
 10
13.6626737781
 20
6.3214997975
 10
13.6411320851
 20
6.3140886726
 10
13.6188773794
 20
6.3073234816
 10
13.5959693132
 20
6.3012223581
 10
13.5724692897
 20
6.2958016557
 10
13.548440299
 20
6.2910759041
 10
13.5239467489
 20
6.2870577705
 10
13.4990542926
 20
6.2837580251
 10
13.4738296524
 20
6.2811855125
 10
13.448340441
 20
6.2793471283
 10
13.4226549803
 20
6.2782478001
 10
13.3968421182
 20
6.2778904746
 10
13.3709710441
 20
6.2782761095
 10
13.3451111035
 20
6.2794036711
 10
13.319331612
 20
6.2812701372
 10
13.2937016695
 20
6.2838705047
 10
13.2682899751
 20
6.2871978037
 10
13.243164643
 20
6.2912431156
 10
13.2183930197
 20
6.2959955971
 10
13.1940415036
 20
6.3014425097
 10
13.1701753671
 20
6.3075692533
 10
13.1468585816
 20
6.3143594056
 10
13.124153646
 20
6.3217947661
 10
13.102121419
 20
6.329855405
 10
13.0808209565
 20
6.3385197163
 10
13.0603093526
 20
6.3477644759
 10
13.0406415872
 20
6.357564904
 10
13.0218703782
 20
6.3678947314
  0
LWPOLYLINE
  5
27D
100
AcDbEntity
  8
RACCORDO
100
AcDbPolyline
 62
253
  6
CONTINUOUS
 90
6
 70
0
 10
-10.7811885619
 20
0.4119468084
 10
-10.7876077935
 20
0.4126778976
 10
-10.8696338558
 20
0.4094274578
 10
-10.9464467595
 20
0.3931221587
 10
-11.0175459921
 20
0.363709249
 10
-11.0378819895
 20
0.3521749086
  0
LINE
  5
27E
100
AcDbEntity
  8
RACCORDO
100
AcDbLine
 62
7
  6
CONTINUOUS
 10
-10.5725178901
 20
5.7322205871
 11
-10.4757938238
 21
5.6700256932
  0
LWPOLYLINE
  5
27F
100
AcDbEntity
  8
RACCORDO
100
AcDbPolyline
 62
253
  6
CONTINUOUS
 90
4
 70
0
 10
-10.572534703
 20
5.7553642195
 10
-10.5462537629
 20
5.7377506221
 10
-10.5207516212
 20
5.7216295665
 10
-10.4960587499
 20
5.706926833
  0
LWPOLYLINE
  5
280
100
AcDbEntity
  8
ASSI
100
AcDbPolyline
 62
253
  6
CONTINUOUS
 90
43
 70
0
 10
14.037817178
 20
8.1136562177
 10
14.0001686315
 20
8.0894093158
 10
13.9626369507
 20
8.0637178188
 10
13.925268035
 20
8.0366137912
 10
13.8881071218
 20
8.0081313902
 10
13.851200124
 20
7.9783057899
 10
13.8145935777
 20
7.9471731171
 10
13.7783319999
 20
7.9147718934
 10
13.7424600167
 20
7.8811426978
 10
13.7070236808
 20
7.846327141
 10
13.6720666166
 20
7.8103688853
 10
13.6376312623
 20
7.7733124745
 10
13.6037609976
 20
7.7352029994
 10
13.5704972294
 20
7.6960878326
 10
13.537880648
 20
7.6560156994
 10
13.5059524593
 20
7.6150355523
 10
13.4747516658
 20
7.5731982271
 10
13.4443164751
 20
7.5305558578
 10
13.4146855602
 20
7.4871609298
 10
13.3858952473
 20
7.4430674637
 10
13.3579806291
 20
7.3983301775
 10
13.330976978
 20
7.3530038958
 10
13.3049173514
 20
7.3071449003
 10
13.2798335667
 20
7.2608101622
 10
13.2557573156
 20
7.2140565093
 10
13.2327180322
 20
7.1669418506
 10
13.2107438974
 20
7.1195247907
 10
13.1898628126
 20
7.0718638584
 10
13.1701003888
 20
7.0240182816
 10
13.1514806723
 20
6.9760473233
 10
13.13402716
 20
6.9280098943
 10
13.117761254
 20
6.8799655948
 10
13.1027027599
 20
6.8319739595
 10
13.0888706355
 20
6.7840937987
 10
13.0762817654
 20
6.736384051
 10
13.0649516173
 20
6.6889042517
 10
13.0548947039
 20
6.6417137631
 10
13.046123374
 20
6.5948712733
 10
13.038648181
 20
6.5484345359
 10
13.0324785247
 20
6.5024608321
 10
13.0276220013
 20
6.4570069914
 10
13.024084392
 20
6.4121293203
 10
13.0218699691
 20
6.3678833307
  0
LWPOLYLINE
  5
281
100
AcDbEntity
  8
ASSI
100
AcDbPolyline
 62
253
  6
CONTINUOUS
 90
43
 70
0
 10
14.4036415112
 20
7.5089901337
 10
14.3783537412
 20
7.4928760444
 10
14.3532038336
 20
7.4758419392
 10
14.3281917886
 20
7.4578878179
 10
14.3032864709
 20
7.4389888924
 10
14.2785190156
 20
7.4191699509
 10
14.2539828287
 20
7.398505358
 10
14.2296791768
 20
7.3769921761
 10
14.2056067932
 20
7.3546333428
 10
14.1818552833
 20
7.3315120351
 10
14.1584260304
 20
7.3076255811
 10
14.1353176512
 20
7.2829766528
 10
14.1126156014
 20
7.2576564427
 10
14.0903213563
 20
7.2316624458
 10
14.0684334406
 20
7.2049971671
 10
14.047032884
 20
7.1777593138
 10
14.0261214369
 20
7.1499466766
 10
14.0056973489
 20
7.1215614649
 10
13.9858363991
 20
7.0927090139
 10
13.9665407327
 20
7.0633876605
 10
13.9478082046
 20
7.0335990679
 10
13.9297081583
 20
7.0034535609
 10
13.9122429424
 20
6.9729498287
 10
13.8954102084
 20
6.9420891822
 10
13.8792722541
 20
6.9109858775
 10
13.8638316265
 20
6.8796389475
 10
13.8490857786
 20
6.8480493593
 10
13.8350893679
 20
6.8163342714
 10
13.8218452125
 20
6.784493299
 10
13.8093504943
 20
6.7525268269
 10
13.7976514162
 20
6.7205531672
 10
13.7867509246
 20
6.6885723348
 10
13.7766460731
 20
6.6565843149
 10
13.767374225
 20
6.6247073754
 10
13.758938431
 20
6.5929416866
 10
13.7513356405
 20
6.5612870782
 10
13.7445940652
 20
6.5298613066
 10
13.7387169127
 20
6.4986645858
 10
13.7337009753
 20
6.4676967018
 10
13.7295648416
 20
6.4370747691
 10
13.726314708
 20
6.4068378259
 10
13.7239443781
 20
6.376946834
 10
13.7224538519
 20
6.3474017934
  0
LINE
  5
282
100
AcDbEntity
  8
ASSI
100
AcDbLine
 62
253
  6
CONTINUOUS
 10
16.9585052919
 20
9.9158719987
 11
14.0378172268
 21
8.1136561896
  0
LINE
  5
283
100
AcDbEntity
  8
ASSI
100
AcDbLine
 62
253
  6
CONTINUOUS
 10
17.3431320866
 20
9.3228080656
 11
14.4036415112
 21
7.5089901337
  0
LWPOLYLINE
  5
284
100
AcDbEntity
  8
ASSI
100
AcDbPolyline
 62
253
  6
CONTINUOUS
 90
18
 70
0
 10
-11.1696395898
 20
0.4942130881
 10
-11.1383344688
 20
0.4997895749
 10
-11.1062756233
 20
0.5035545634
 10
-11.0734636387
 20
0.5055160757
 10
-11.040033276
 20
0.5056675796
 10
-11.0059821596
 20
0.504002092
 10
-10.9713130167
 20
0.5005263903
 10
-10.9361682602
 20
0.4952545837
 10
-10.9005445537
 20
0.488178955
 10
-10.8644455138
 20
0.4793070577
 10
-10.8280239725
 20
0.4686759128
 10
-10.7912787762
 20
0.4562778768
 10
-10.7542112737
 20
0.4421204792
 10
-10.716978032
 20
0.4262635122
 10
-10.6795789726
 20
0.4087000209
 10
-10.6420142741
 20
0.3894369017
 10
-10.604440866
 20
0.3685547374
 10
-10.5668587332
 20
0.3460468463
  0
LWPOLYLINE
  5
285
100
AcDbEntity
  8
RACCORDO
100
AcDbPolyline
 62
253
  6
CONTINUOUS
 90
8
 70
0
 10
-10.4099996522
 20
5.6626587376
 10
-10.3249654307
 20
5.6297677604
 10
-10.2419669406
 20
5.6086440404
 10
-10.1620072392
 20
5.5995392259
 10
-10.0860185261
 20
5.6025540295
 10
-10.0148593375
 20
5.6176621003
 10
-9.9489922393
 20
5.6449110619
 10
-9.8896868052
 20
5.6839378939
  0
LWPOLYLINE
  5
286
100
AcDbEntity
  8
RACCORDO
100
AcDbPolyline
 62
7
  6
CONTINUOUS
 90
9
 70
0
 10
-10.3962645763
 20
5.6283550094
 10
-10.3174659129
 20
5.5954748085
 10
-10.2398732283
 20
5.5714535956
 10
-10.1637541964
 20
5.556302708
 10
-10.0897738236
 20
5.5501043733
 10
-10.0190034766
 20
5.5527716582
 10
-9.9520987423
 20
5.5639555216
 10
-9.8893079614
 20
5.5832735538
 10
-9.8310631312
 20
5.6102705903
  0
LINE
  5
287
100
AcDbEntity
  8
RACCORDO
100
AcDbLine
 62
253
  6
CONTINUOUS
 10
-10.4960587499
 20
5.706926833
 11
-10.4099996522
 21
5.6626587376
  0
LINE
  5
288
100
AcDbEntity
  8
RACCORDO
100
AcDbLine
 62
253
  6
CONTINUOUS
 10
-10.4960587499
 20
7.5326329704
 11
-10.5821171533
 21
7.5769014667
  0
LINE
  5
289
100
AcDbEntity
  8
RACCORDO
100
AcDbLine
 62
7
  6
CONTINUOUS
 10
-10.4757938238
 20
5.6700256932
 11
-10.3962645763
 21
5.6283550094
  0
LINE
  5
28A
100
AcDbEntity
  8
ASSI
100
AcDbLine
 62
7
  6
CONTINUOUS
 10
17.6562489184
 20
-8.0527444664
 11
17.7438782209
 21
-8.1033405275
  0
LWPOLYLINE
  5
28B
100
AcDbEntity
  8
ASSI
100
AcDbPolyline
 62
253
  6
CONTINUOUS
 90
3
 70
0
 10
-10.5863527591
 20
7.7283364239
 10
-10.5487921478
 20
7.7058267033
 10
-10.5112481413
 20
7.6816840849
  0
LWPOLYLINE
  5
28C
100
AcDbEntity
  8
ASSI
100
AcDbPolyline
 62
253
  6
CONTINUOUS
 90
38
 70
0
 10
-10.5112481413
 20
7.6816840849
 10
-10.4738773859
 20
7.6560091981
 10
-10.4366800107
 20
7.6287952188
 10
-10.3996557866
 20
7.6000490274
 10
-10.3629607993
 20
7.5698918234
 10
-10.3265962083
 20
7.5383173977
 10
-10.2905606593
 20
7.5053320694
 10
-10.2550064488
 20
7.4710758409
 10
-10.2199369275
 20
7.4355450562
 10
-10.1853484649
 20
7.3987435291
 10
-10.1513828758
 20
7.3608224732
 10
-10.1180426555
 20
7.3217780818
 10
-10.0853249574
 20
7.2816143597
 10
-10.0533635812
 20
7.2404942396
 10
-10.0221587878
 20
7.1984101352
 10
-9.9917099101
 20
7.1553698621
 10
-9.9621493657
 20
7.1115594497
 10
-9.9334792787
 20
7.066971433
 10
-9.905697086
 20
7.021613525
 10
-9.8789282017
 20
6.9756945074
 10
-9.8531821716
 20
6.9292208972
 10
-9.8284490061
 20
6.8821864283
 10
-9.8048248561
 20
6.8347806849
 10
-9.782317073
 20
6.787013852
 10
-9.7609178731
 20
6.7388759893
 10
-9.7407007481
 20
6.6905264694
 10
-9.7216632983
 20
6.6419534836
 10
-9.7038075066
 20
6.5931690768
 10
-9.6872134919
 20
6.5443683711
 10
-9.6718812227
 20
6.4955272802
 10
-9.6578103569
 20
6.4466701025
 10
-9.6450806349
 20
6.3980644879
 10
-9.6337041389
 20
6.3497090922
 10
-9.6236685122
 20
6.3016054158
 10
-9.6150169557
 20
6.2540253088
 10
-9.6077638297
 20
6.2069750481
 10
-9.6018946242
 20
6.1604484424
 10
-9.5974093671
 20
6.1146985646
  0
LINE
  5
28D
100
AcDbEntity
  8
ASSI
100
AcDbLine
 62
7
  6
CONTINUOUS
 10
3.9532162498
 20
17.4249628971
 11
3.9744129814
 21
16.8087391833
  0
LINE
  5
28E
100
AcDbEntity
  8
ASSI
100
AcDbLine
 62
253
  6
CONTINUOUS
 10
3.7730498033
 20
17.0109376167
 11
3.7730498033
 21
16.9480324719
  0
LWPOLYLINE
  5
28F
100
AcDbEntity
  8
RACCORDO
100
AcDbPolyline
 62
253
  6
CONTINUOUS
 90
42
 70
0
 10
-10.5821171533
 20
7.5769014667
 10
-10.6671509799
 20
7.609792672
 10
-10.7501493741
 20
7.6309164473
 10
-10.8301094366
 20
7.6400210532
 10
-10.90609881
 20
7.6370058684
 10
-10.9772584848
 20
7.6218975169
 10
-11.0431256618
 20
7.5946485098
 10
-11.1024310008
 20
7.5556217327
 10
-11.1535728372
 20
7.5062757374
 10
-11.1963587386
 20
7.4477350367
 10
-11.2307080926
 20
7.3811950904
 10
-11.2562297385
 20
7.3094212433
 10
-11.273441711
 20
7.2347059419
 10
-11.2833164158
 20
7.1578899726
 10
-11.2866294266
 20
7.0797925076
 10
-11.2840836865
 20
7.001492448
 10
-11.2763973559
 20
6.9239047576
 10
-11.2641836941
 20
6.8472819896
 10
-11.2480419912
 20
6.7722353416
 10
-11.2285720176
 20
6.6993474604
 10
-11.2061951898
 20
6.6286210706
 10
-11.1813847589
 20
6.5603877715
 10
-11.1546139767
 20
6.4949730914
 10
-11.1261565058
 20
6.432258673
 10
-11.0963771294
 20
6.3724108445
 10
-11.0656301055
 20
6.3155739914
 10
-11.0340632844
 20
6.2615441333
 10
-11.0019327984
 20
6.2103606368
 10
-10.9695068847
 20
6.1620842542
 10
-10.9368734459
 20
6.1165243244
 10
-10.9042234017
 20
6.073667789
 10
-10.8717450631
 20
6.033500227
 10
-10.8394697022
 20
5.9958275944
 10
-10.8075295619
 20
5.9605985872
 10
-10.7760593176
 20
5.9277669368
 10
-10.7450573756
 20
5.8971549138
 10
-10.7146116332
 20
5.8686915463
 10
-10.6848176326
 20
5.8423153609
 10
-10.655660865
 20
5.81787493
 10
-10.6272117782
 20
5.7953022753
 10
-10.5995225588
 20
5.7745167999
 10
-10.572534703
 20
5.7553642195
  0
LWPOLYLINE
  5
290
100
AcDbEntity
  8
CURVE
100
AcDbPolyline
 62
253
  6
CONTINUOUS
 90
76
 70
0
 10
-8.5150329421
 20
11.4113029684
 10
-8.5120112844
 20
11.4088983908
 10
-8.5090095157
 20
11.4066416619
 10
-8.5060193266
 20
11.4045234983
 10
-8.5030324081
 20
11.4025346162
 10
-8.5000404509
 20
11.4006657322
 10
-8.4970351458
 20
11.3989075626
 10
-8.493402404
 20
11.3969345032
 10
-8.4897417745
 20
11.395113497
 10
-8.4860565559
 20
11.3934505371
 10
-8.4823500467
 20
11.3919516164
 10
-8.4786255452
 20
11.3906227279
 10
-8.4748877349
 20
11.3894698871
 10
-8.4711468379
 20
11.3884992007
 10
-8.4674144614
 20
11.387716798
 10
-8.4637022122
 20
11.3871288081
 10
-8.4600216974
 20
11.3867413604
 10
-8.4563826854
 20
11.3865598607
 10
-8.4527875895
 20
11.3865868217
 10
-8.4492369843
 20
11.3868240326
 10
-8.4457314445
 20
11.3872732828
 10
-8.4422715447
 20
11.3879363614
 10
-8.4388598671
 20
11.3888144789
 10
-8.4355070237
 20
11.3899065299
 10
-8.4322256345
 20
11.3912108302
 10
-8.429028319
 20
11.3927256957
 10
-8.4259276969
 20
11.3944494422
 10
-8.4229352011
 20
11.3963799056
 10
-8.4200575163
 20
11.3985130025
 10
-8.4173001403
 20
11.4008441699
 10
-8.414668571
 20
11.4033688446
 10
-8.4121683061
 20
11.4060824634
 10
-8.4098048863
 20
11.4089803611
 10
-8.4075840236
 20
11.4120574644
 10
-8.4055114728
 20
11.415308598
 10
-8.4035929885
 20
11.4187285864
 10
-8.4018343257
 20
11.4223122543
 10
-8.4004949027
 20
11.4254191724
 10
-8.3992731444
 20
11.4286285415
 10
-8.3981717316
 20
11.4319327403
 10
-8.3971933457
 20
11.4353241476
 10
-8.3963406675
 20
11.438795142
 10
-8.3956163783
 20
11.4423381023
 10
-8.395022769
 20
11.4459465234
 10
-8.3945605696
 20
11.4496183645
 10
-8.3942301199
 20
11.4533527011
 10
-8.39403176
 20
11.4571486087
 10
-8.3939658296
 20
11.4610051627
 10
-8.3940326686
 20
11.4649214387
 10
-8.3942314356
 20
11.4688948705
 10
-8.3945565641
 20
11.4729163254
 10
-8.3950013063
 20
11.4769750293
 10
-8.3955589142
 20
11.4810602079
 10
-8.3962226401
 20
11.4851610869
 10
-8.3969857361
 20
11.4892668921
 10
-8.3980239541
 20
11.4941885246
 10
-8.3991888995
 20
11.4991031196
 10
-8.4004739236
 20
11.5040120609
 10
-8.4018723777
 20
11.5089167324
 10
-8.4033776131
 20
11.5138185176
 10
-8.4049840416
 20
11.5187172991
 10
-8.4066903169
 20
11.5236069542
 10
-8.4084961535
 20
11.5284798589
 10
-8.4104012657
 20
11.5333283893
 10
-8.4124053677
 20
11.5381449213
 10
-8.4145082825
 20
11.5429219598
 10
-8.4167102682
 20
11.5476525242
 10
-8.4190116913
 20
11.5523297629
 10
-8.4214129184
 20
11.556946824
 10
-8.4239143162
 20
11.5614968557
 10
-8.4260767258
 20
11.5652333728
 10
-8.4283159316
 20
11.5689204388
 10
-8.4306389121
 20
11.5725599092
 10
-8.433052646
 20
11.5761536392
 10
-8.4355641118
 20
11.5797034842
 10
-8.4381802882
 20
11.5832112993
  0
LINE
  5
291
100
AcDbEntity
  8
ASSI
100
AcDbLine
 62
7
  6
CONTINUOUS
 10
11.8728121991
 20
12.8522874518
 11
11.6926457526
 21
12.4382621714
  0
LWPOLYLINE
  5
292
100
AcDbEntity
  8
RACCORDO
100
AcDbPolyline
 62
253
  6
CONTINUOUS
 90
6
 70
0
 10
-10.711588902
 20
7.7522525632
 10
-10.7876077935
 20
7.7609103887
 10
-10.8696338558
 20
7.7576599489
 10
-10.9464467595
 20
7.7413546498
 10
-11.0175459921
 20
7.7119417401
 10
-11.0378819895
 20
7.7004073997
  0
LINE
  5
293
100
AcDbEntity
  8
CURVE
100
AcDbLine
 62
253
  6
CONTINUOUS
 10
-12.4944353705
 20
13.708960057
 11
-8.5150329421
 21
11.4113029684
  0
LINE
  5
294
100
AcDbEntity
  8
CURVE
100
AcDbLine
 62
253
  6
CONTINUOUS
 10
-8.7409415428
 20
11.775042417
 11
-12.259530527
 21
13.8066315983
  0
LINE
  5
295
100
AcDbEntity
  8
ASSI
100
AcDbLine
 62
7
  6
CONTINUOUS
 10
14.992270155
 20
11.0511515241
 11
14.319879823
 21
10.9213301462
  0
LWPOLYLINE
  5
296
100
AcDbEntity
  8
ASSI
100
AcDbPolyline
 62
253
  6
CONTINUOUS
 90
17
 70
0
 10
-11.1545888681
 20
7.8522003765
 10
-11.1229163195
 20
7.857983747
 10
-11.0905122286
 20
7.8619438469
 10
-11.0573770472
 20
7.8640887696
 10
-11.0236467936
 20
7.8644112898
 10
-10.9893191856
 20
7.8629043867
 10
-10.9543968567
 20
7.8595748829
 10
-10.9190231966
 20
7.854436319
 10
-10.8831949671
 20
7.8474809412
 10
-10.8469156863
 20
7.8387163454
 10
-10.8103388671
 20
7.828179103
 10
-10.7734634685
 20
7.8158615232
 10
-10.7362907265
 20
7.8017711869
 10
-10.6989775509
 20
7.7859675839
 10
-10.6615239744
 20
7.7684437119
 10
-10.6239300643
 20
7.7492065168
 10
-10.5863527591
 20
7.7283364239
  0
LWPOLYLINE
  5
297
100
AcDbEntity
  8
ASSI
100
AcDbPolyline
 62
253
  6
CONTINUOUS
 90
43
 70
0
 10
13.7224538519
 20
-27.1963093276
 10
13.7239443781
 20
-27.2241922031
 10
13.726314708
 20
-27.251439914
 10
13.7295648416
 20
-27.2780524603
 10
13.7337009752
 20
-27.3040619704
 10
13.7387169126
 20
-27.3294363158
 10
13.7445940651
 20
-27.3540791112
 10
13.7513356405
 20
-27.3779869935
 10
13.758938431
 20
-27.4011633259
 10
13.767374225
 20
-27.423521812
 10
13.776646073
 20
-27.4450592206
 10
13.7867509245
 20
-27.4657787831
 10
13.7976514161
 20
-27.4856038975
 10
13.8093504942
 20
-27.5045312928
 10
13.8218452125
 20
-27.5225642401
 10
13.8350893678
 20
-27.5396359504
 10
13.8490857785
 20
-27.5557428962
 10
13.8638316264
 20
-27.570888605
 10
13.879272254
 20
-27.5850168699
 10
13.8954102083
 20
-27.5981238834
 10
13.9122429423
 20
-27.6102134529
 10
13.9297081582
 20
-27.6212407938
 10
13.9478082044
 20
-27.6312019765
 10
13.9665407326
 20
-27.6401009306
 10
13.9858363989
 20
-27.64790466
 10
14.0056973487
 20
-27.6546091095
 10
14.0261214367
 20
-27.6602183343
 10
14.0470328839
 20
-27.6647115044
 10
14.0684334404
 20
-27.6680844588
 10
14.0903213562
 20
-27.6703413584
 10
14.1126156013
 20
-27.6714738568
 10
14.1353176511
 20
-27.6714778036
 10
14.1584260302
 20
-27.6703573492
 10
14.1818552831
 20
-27.668116597
 10
14.205606793
 20
-27.6647513327
 10
14.2296791766
 20
-27.6602657706
 10
14.2539828285
 20
-27.6546766575
 10
14.2785190154
 20
-27.6479796433
 10
14.3032864706
 20
-27.640179078
 10
14.3281917884
 20
-27.6313047589
 10
14.3532038335
 20
-27.6213666184
 10
14.3783537411
 20
-27.610354724
 10
14.4036415112
 20
-27.5982690758
  0
LWPOLYLINE
  5
298
100
AcDbEntity
  8
ASSI
100
AcDbPolyline
 62
253
  6
CONTINUOUS
 90
23
 70
0
 10
13.0218699691
 20
-27.2093827252
 10
13.024084392
 20
-27.2511306497
 10
13.0276220013
 20
-27.2920171253
 10
13.0324785247
 20
-27.3319915741
 10
13.0386481809
 20
-27.3710046084
 10
13.0461233739
 20
-27.4090079275
 10
13.0548947039
 20
-27.4459543756
 10
13.0649516173
 20
-27.4817985164
 10
13.0762817654
 20
-27.5164957914
 10
13.0888706354
 20
-27.5500024767
 10
13.1027027598
 20
-27.5822770183
 10
13.1177612539
 20
-27.6132798559
 10
13.1340271599
 20
-27.6429725923
 10
13.1514806722
 20
-27.6713186812
 10
13.1701003887
 20
-27.6982831196
 10
13.1898628125
 20
-27.7238322988
 10
13.2107438973
 20
-27.7479348349
 10
13.2327180321
 20
-27.7705609638
 10
13.2557573155
 20
-27.7916822111
 10
13.2798335665
 20
-27.8112726158
 10
13.3049173512
 20
-27.8293081576
 10
13.3309769779
 20
-27.8457661371
 10
13.334659142
 20
-27.8479187283
  0
LWPOLYLINE
  5
299
100
AcDbEntity
  8
ASSI
100
AcDbPolyline
 62
253
  6
CONTINUOUS
 90
25
 70
0
 10
13.418525717
 20
-10.8830771086
 10
13.4181462193
 20
-10.872266546
 10
13.4171735335
 20
-10.8611466279
 10
13.4156118241
 20
-10.8497649622
 10
13.4134677775
 20
-10.8381702776
 10
13.410750573
 20
-10.826412215
 10
13.4074718443
 20
-10.8145411149
 10
13.4036456287
 20
-10.8026078015
 10
13.3992883077
 20
-10.7906633652
 10
13.3944185368
 20
-10.7787589444
 10
13.3890571651
 20
-10.7669455058
 10
13.3832271466
 20
-10.7552736266
 10
13.3769534419
 20
-10.7437932781
 10
13.3702629109
 20
-10.7325536113
 10
13.3631841981
 20
-10.7216027468
 10
13.3557476101
 20
-10.7109875687
 10
13.3479849854
 20
-10.700753524
 10
13.3399295585
 20
-10.6909444276
 10
13.3316158174
 20
-10.6816022754
 10
13.323079356
 20
-10.6727670637
 10
13.3143567218
 20
-10.6644766187
 10
13.3054852591
 20
-10.6567664341
 10
13.2965029496
 20
-10.6496695193
 10
13.2874482494
 20
-10.643216258
 10
13.2783599245
 20
-10.6374342784
  0
LINE
  5
29A
100
AcDbEntity
  8
ASSI
100
AcDbLine
 62
7
  6
CONTINUOUS
 10
11.8728121991
 20
12.8522874518
 11
11.8940089307
 21
12.236063738
  0
LWPOLYLINE
  5
29B
100
AcDbEntity
  8
ASSI
100
AcDbPolyline
 62
253
  6
CONTINUOUS
 90
13
 70
0
 10
12.7176444365
 20
-10.2990077335
 10
12.7179375827
 20
-10.3094642695
 10
12.718828915
 20
-10.3195308755
 10
12.7203146552
 20
-10.3291648831
 10
12.7223885058
 20
-10.3383254577
 10
12.7250416765
 20
-10.3469737714
 10
12.7282629214
 20
-10.3550731671
 10
12.7320385868
 20
-10.362589315
 10
12.7363526689
 20
-10.3694903571
 10
12.741186882
 20
-10.3757470429
 10
12.7465207354
 20
-10.381332853
 10
12.7523316212
 20
-10.3862241115
 10
12.759021354
 20
-10.3906488123
  0
LWPOLYLINE
  5
29C
100
AcDbEntity
  8
ASSI
100
AcDbPolyline
 62
253
  6
CONTINUOUS
 90
6
 70
0
 10
13.5244571083
 20
-20.4406295812
 10
13.5559011732
 20
-21.7965395073
 10
13.5914228724
 20
-23.1500640077
 10
13.6310222313
 20
-24.5011978734
 10
13.6746992244
 20
-25.8499463133
 10
13.7224538519
 20
-27.1963093276
  0
LWPOLYLINE
  5
29D
100
AcDbEntity
  8
ASSI
100
AcDbPolyline
 62
253
  6
CONTINUOUS
 90
7
 70
0
 10
13.4214244192
 20
-12.2555081409
 10
13.4284012995
 20
-13.6255849434
 10
13.4394563579
 20
-14.9933075163
 10
13.4545898009
 20
-16.358681049
 10
13.4738014221
 20
-17.7217003521
 10
13.4970906019
 20
-19.0823498564
 10
13.5244571083
 20
-20.4406295812
  0
LWPOLYLINE
  5
29E
100
AcDbEntity
  8
ASSI
100
AcDbPolyline
 62
253
  6
CONTINUOUS
 90
13
 70
0
 10
12.7176356105
 20
-10.8817564943
 10
12.7205455954
 20
-12.2553773865
 10
12.7275366093
 20
-13.626671452
 10
12.7386083011
 20
-14.9956232899
 10
12.7537598203
 20
-16.3622068156
 10
12.7729911167
 20
-17.726417435
 10
12.7963032489
 20
-19.0882718599
 10
12.8236962977
 20
-20.44775541
 10
12.8551696305
 20
-21.8048518859
 10
12.890723709
 20
-23.1595754359
 10
12.9303587028
 20
-24.511920359
 10
12.9740741976
 20
-25.861861283
 10
13.0218699735
 20
-27.2093827278
  0
LINE
  5
29F
100
AcDbEntity
  8
ASSI
100
AcDbLine
 62
253
  6
CONTINUOUS
 10
13.418525717
 20
-10.8830771086
 11
13.4214244192
 21
-12.2555081409
  0
LINE
  5
2A0
100
AcDbEntity
  8
ASSI
100
AcDbLine
 62
253
  6
CONTINUOUS
 10
11.6926457526
 20
12.4382621714
 11
11.6926457526
 21
12.3753570266
  0
LWPOLYLINE
  5
2A1
100
AcDbEntity
  8
ASSI
100
AcDbPolyline
 62
253
  6
CONTINUOUS
 90
25
 70
0
 10
12.7176444365
 20
-10.8817615904
 10
12.717937582
 20
-10.8709665482
 10
12.7188289124
 20
-10.859870666
 10
12.7203146495
 20
-10.8485209746
 10
12.7223884961
 20
-10.8369655809
 10
12.7250416618
 20
-10.8252534633
 10
12.7282629011
 20
-10.8134342647
 10
12.7320385603
 20
-10.8015580821
 10
12.7363526361
 20
-10.7896752535
 10
12.7411868428
 20
-10.7778361456
 10
12.7465206901
 20
-10.7660909394
 10
12.7523315701
 20
-10.7544894181
 10
12.7585948529
 20
-10.7430807558
 10
12.7652839908
 20
-10.7319133093
 10
12.7723706314
 20
-10.7210344126
 10
12.7798247374
 20
-10.7104901772
 10
12.7876147137
 20
-10.7003252955
 10
12.7957075418
 20
-10.6905828526
 10
12.8040689196
 20
-10.6813041425
 10
12.8126634066
 20
-10.6725284941
 10
12.8214545743
 20
-10.6642931036
 10
12.8304051604
 20
-10.6566328775
 10
12.8394772271
 20
-10.6495802844
 10
12.8486323215
 20
-10.6431652175
 10
12.8578316391
 20
-10.6374148674
  0
LWPOLYLINE
  5
2A2
100
AcDbEntity
  8
ASSI
100
AcDbPolyline
 62
253
  6
CONTINUOUS
 90
13
 70
0
 10
13.0218699735
 20
6.3678833281
 10
12.9740741976
 20
4.9670604222
 10
12.9303587028
 20
3.56836832
 10
12.890723709
 20
2.1718227554
 10
12.8551696305
 20
0.7774495785
 10
12.8236962977
 20
-0.614745705
 10
12.7963032489
 20
-2.0047777751
 10
12.7729911167
 20
-3.392630448
 10
12.7537598203
 20
-4.7782883907
 10
12.7386083011
 20
-6.161767297
 10
12.7275366093
 20
-7.5430617677
 10
12.7205455954
 20
-8.9221454834
 10
12.7176356105
 20
-10.2990026374
  0
LINE
  5
2A3
100
AcDbEntity
  8
ASSI
100
AcDbLine
 62
253
  6
CONTINUOUS
 10
-17.7359717063
 20
24.1270756277
 11
13.0218699691
 21
6.3678833307
  0
LWPOLYLINE
  5
2A4
100
AcDbEntity
  8
ASSI
100
AcDbPolyline
 62
253
  6
CONTINUOUS
 90
31
 70
0
 10
14.4036415112
 20
7.5089901337
 10
14.4021816295
 20
7.530049214
 10
14.3997748464
 20
7.5516191845
 10
14.396427751
 20
7.573640992
 10
14.3921495067
 20
7.5960543466
 10
14.3869518262
 20
7.6187978863
 10
14.3808489393
 20
7.641809345
 10
14.3738575543
 20
7.6650257234
 10
14.3659968116
 20
7.688383461
 10
14.357288232
 20
7.7118186102
 10
14.3477556571
 20
7.7352670117
 10
14.3374251848
 20
7.7586644696
 10
14.3263250972
 20
7.7819469278
 10
14.3144857835
 20
7.8050506448
 10
14.3019396566
 20
7.8279123684
 10
14.2887210646
 20
7.8504695093
 10
14.2748661966
 20
7.8726603115
 10
14.2604129837
 20
7.8944240223
 10
14.2454009951
 20
7.9157010583
 10
14.2298713298
 20
7.9364331682
 10
14.2138665039
 20
7.9565635929
 10
14.1974303347
 20
7.9760372202
 10
14.1806078202
 20
7.9948007364
 10
14.1634450162
 20
8.0128027717
 10
14.14598891
 20
8.0299940409
 10
14.128287292
 20
8.0463274789
 10
14.1103886248
 20
8.0617583687
 10
14.0923419103
 20
8.0762444645
 10
14.074196556
 20
8.0897461069
 10
14.0560022392
 20
8.102226332
 10
14.0378087712
 20
8.1136509721
  0
LWPOLYLINE
  5
2A5
100
AcDbEntity
  8
ASSI
100
AcDbPolyline
 62
253
  6
CONTINUOUS
 90
8
 70
0
 10
13.5244571083
 20
-0.6290746535
 10
13.4970906019
 20
-2.0178722253
 10
13.4738014221
 20
-3.4044927327
 10
13.4545898009
 20
-4.7889359364
 10
13.4394563579
 20
-6.1711855766
 10
13.4284012994
 20
-7.551236233
 10
13.4214244192
 20
-8.9290933259
 10
13.418525717
 20
-10.3047568552
  0
LWPOLYLINE
  5
2A6
100
AcDbEntity
  8
ASSI
100
AcDbPolyline
 62
253
  6
CONTINUOUS
 90
6
 70
0
 10
13.7224538519
 20
6.3474017934
 10
13.6746992244
 20
4.9477850539
 10
13.6310222313
 20
3.5503300756
 10
13.5914228724
 20
2.1550368586
 10
13.5559011732
 20
0.7619002219
 10
13.5244571083
 20
-0.6290746535
  0
LWPOLYLINE
  5
2A7
100
AcDbEntity
  8
ASSI
100
AcDbPolyline
 62
253
  6
CONTINUOUS
 90
14
 70
0
 10
13.418525717
 20
-10.3047568552
 10
13.4181462202
 20
-10.3153033094
 10
13.4171735366
 20
-10.3254489718
 10
13.4156118308
 20
-10.3351504054
 10
13.4134677888
 20
-10.3443660754
 10
13.4107505899
 20
-10.3530565264
 10
13.4074718675
 20
-10.3611845518
 10
13.4036456587
 20
-10.3687153528
 10
13.3992883448
 20
-10.3756166878
 10
13.3944185809
 20
-10.3818590099
 10
13.3890572161
 20
-10.3874155935
 10
13.3832272039
 20
-10.3922626493
 10
13.3769535047
 20
-10.3963794254
 10
13.3757361764
 20
-10.3970651127
  0
LINE
  5
2A8
100
AcDbEntity
  8
ASSI
100
AcDbLine
 62
253
  6
CONTINUOUS
 10
13.418525717
 20
-10.3047568552
 11
17.885299578
 21
-7.8584259884
  0
LINE
  5
2A9
100
AcDbEntity
  8
ASSI
100
AcDbLine
 62
7
  6
CONTINUOUS
 10
13.3756642308
 20
-10.397104574
 11
17.8425785555
 21
-7.950696779
  0
LWPOLYLINE
  5
2AA
100
AcDbEntity
  8
ASSI
100
AcDbPolyline
 62
253
  6
CONTINUOUS
 90
34
 70
0
 10
13.2783599245
 20
-10.6374342784
 10
13.2679414565
 20
-10.6430734965
 10
13.257131792
 20
-10.6484026912
 10
13.2459309309
 20
-10.6534218625
 10
13.2343118444
 20
-10.6581410626
 10
13.2223015613
 20
-10.6625502394
 10
13.2099811684
 20
-10.666619236
 10
13.1973489772
 20
-10.6703455378
 10
13.1844066762
 20
-10.6737316594
 10
13.1712404169
 20
-10.6767549886
 10
13.1578489989
 20
-10.6794130351
 10
13.1442336226
 20
-10.6817082892
 10
13.1304840411
 20
-10.6836256089
 10
13.1165991888
 20
-10.6851625301
 10
13.1025801312
 20
-10.6863215169
 10
13.0885198179
 20
-10.6870948205
 10
13.0744178929
 20
-10.6874798585
 10
13.0602747123
 20
-10.6874792132
 10
13.0461842934
 20
-10.6870928835
 10
13.032147047
 20
-10.6863182824
 10
13.0181625625
 20
-10.6851579969
 10
13.0043236257
 20
-10.6836197859
 10
12.9906314005
 20
-10.6817011842
 10
12.9770847232
 20
-10.679404657
 10
12.9637728874
 20
-10.6767453597
 10
12.9506971644
 20
-10.6737208029
 10
12.9378562831
 20
-10.6703334759
 10
12.9253357237
 20
-10.6666060024
 10
12.9131372555
 20
-10.6625358667
 10
12.9012591093
 20
-10.6581255844
 10
12.8897814573
 20
-10.6534053263
 10
12.8787310236
 20
-10.6483851492
 10
12.8680810843
 20
-10.6430549962
 10
12.8578316391
 20
-10.6374148674
  0
LINE
  5
2AB
100
AcDbEntity
  8
ASSI
100
AcDbLine
 62
7
  6
CONTINUOUS
 10
7.0726742057
 20
15.6238269693
 11
6.4002838737
 21
15.4940055915
  0
LINE
  5
2AC
100
AcDbEntity
  8
ASSI
100
AcDbLine
 62
253
  6
CONTINUOUS
 10
-16.7433971432
 20
25.8863435874
 11
14.0378172268
 21
8.1136561896
  0
LWPOLYLINE
  5
2AD
100
AcDbEntity
  8
ASSI
100
AcDbPolyline
 62
253
  6
CONTINUOUS
 90
17
 70
0
 10
14.4036415112
 20
-27.5982690758
 10
14.4021816291
 20
-27.6198574098
 10
14.3997748453
 20
-27.6408180961
 10
14.3964277487
 20
-27.6610937496
 10
14.3921495031
 20
-27.6806288609
 10
14.386951821
 20
-27.6993699478
 10
14.3808489324
 20
-27.7172657019
 10
14.3738575456
 20
-27.7342671293
 10
14.365996801
 20
-27.7503276844
 10
14.3572882195
 20
-27.7654033974
 10
14.3477556428
 20
-27.779452995
 10
14.3374251688
 20
-27.792438013
 10
14.3263250796
 20
-27.8043229016
 10
14.3144857645
 20
-27.8150751231
 10
14.3019396365
 20
-27.8246652406
 10
14.2887210436
 20
-27.8330669989
 10
14.2792390854
 20
-27.838153152
  0
LINE
  5
2AE
100
AcDbEntity
  8
ASSI
100
AcDbLine
 62
253
  6
CONTINUOUS
 10
17.7438782209
 20
-8.1033405275
 11
13.2783599245
 21
-10.6374342784
  0
LINE
  5
2AF
100
AcDbEntity
  8
ASSI
100
AcDbLine
 62
253
  6
CONTINUOUS
 10
17.885299578
 20
-8.3482708495
 11
13.418525717
 21
-10.8830771086
  0
LWPOLYLINE
  5
2B0
100
AcDbEntity
  8
ASSI
100
AcDbPolyline
 62
253
  6
CONTINUOUS
 90
34
 70
0
 10
13.418525717
 20
-10.8830771086
 10
13.4012207076
 20
-10.8923879103
 10
13.383184079
 20
-10.9012181213
 10
13.3644556818
 20
-10.9095483252
 10
13.3450768334
 20
-10.9173604329
 10
13.3250904448
 20
-10.9246370421
 10
13.3045409477
 20
-10.9313614959
 10
13.2834735161
 20
-10.9375191143
 10
13.2619350612
 20
-10.9430963008
 10
13.2399744411
 20
-10.9480800084
 10
13.2176409854
 20
-10.9524592866
 10
13.1949835661
 20
-10.9562248195
 10
13.1720516273
 20
-10.9593680444
 10
13.1488956377
 20
-10.9618821623
 10
13.1255672097
 20
-10.9637617136
 10
13.1021182246
 20
-10.9650021781
 10
13.078600625
 20
-10.9656009357
 10
13.0550665242
 20
-10.9655568203
 10
13.0315682914
 20
-10.9648696466
 10
13.0081580001
 20
-10.9635410623
 10
12.9848875024
 20
-10.9615741714
 10
12.9618085375
 20
-10.9589731248
 10
12.9389725396
 20
-10.9557438475
 10
12.916429768
 20
-10.9518936165
 10
12.8942294164
 20
-10.9474306359
 10
12.8724200708
 20
-10.9423646658
 10
12.8510507157
 20
-10.9367071194
 10
12.8301698096
 20
-10.9304707003
 10
12.8098242211
 20
-10.9236695464
 10
12.7900582729
 20
-10.9163186633
 10
12.7709148285
 20
-10.9084339307
 10
12.7524360412
 20
-10.9000326538
 10
12.7346631691
 20
-10.8911336061
 10
12.7176356123
 20
-10.8817564975
  0
LWPOLYLINE
  5
2B1
100
AcDbEntity
  8
CURVE
100
AcDbPolyline
 62
253
  6
CONTINUOUS
 90
76
 70
0
 10
-12.5627868743
 20
13.9647074487
 10
-12.565414562
 20
13.9642203633
 10
-12.5679484158
 20
13.9635978237
 10
-12.5703968824
 20
13.962841449
 10
-12.5727684087
 20
13.9619528581
 10
-12.5750714413
 20
13.9609336701
 10
-12.577314427
 20
13.9597855039
 10
-12.5799354638
 20
13.9582388225
 10
-12.5824777284
 20
13.9565060784
 10
-12.5849367528
 20
13.9545846062
 10
-12.587308069
 20
13.9524717403
 10
-12.5895872088
 20
13.9501648151
 10
-12.5917691511
 20
13.9476625082
 10
-12.5938466613
 20
13.9449688692
 10
-12.5958119517
 20
13.9420892912
 10
-12.5976572345
 20
13.9390291668
 10
-12.5993747221
 20
13.9357938889
 10
-12.6009577138
 20
13.9323877617
 10
-12.602403857
 20
13.9288107352
 10
-12.6037118863
 20
13.9250616709
 10
-12.6048805363
 20
13.9211394301
 10
-12.6059085416
 20
13.9170428741
 10
-12.6067941308
 20
13.9127733546
 10
-12.6075335099
 20
13.9083421831
 10
-12.6081223786
 20
13.9037631613
 10
-12.608556437
 20
13.899050091
 10
-12.608831385
 20
13.8942167739
 10
-12.6089436975
 20
13.8892764903
 10
-12.6088929494
 20
13.8842404353
 10
-12.6086794906
 20
13.8791192825
 10
-12.6083036707
 20
13.8739237056
 10
-12.6077658396
 20
13.8686643781
 10
-12.6070663683
 20
13.8633518297
 10
-12.6062057121
 20
13.8579960138
 10
-12.6051843475
 20
13.85260674
 10
-12.604002751
 20
13.8471938175
 10
-12.6026613992
 20
13.841767056
 10
-12.6014224213
 20
13.8372419826
 10
-12.6000761503
 20
13.8327241226
 10
-12.5986259035
 20
13.8282234877
 10
-12.5970749981
 20
13.8237500897
 10
-12.5954267514
 20
13.8193139402
 10
-12.5936844805
 20
13.8149250512
 10
-12.591851034
 20
13.8105920259
 10
-12.5899273854
 20
13.8063178345
 10
-12.5879140393
 20
13.8021040385
 10
-12.5858115006
 20
13.7979521997
 10
-12.5836202739
 20
13.7938638797
 10
-12.5813408639
 20
13.7898406402
 10
-12.5789750307
 20
13.7858844859
 10
-12.5765295554
 20
13.7819991934
 10
-12.5740124744
 20
13.7781889825
 10
-12.571431824
 20
13.7744580728
 10
-12.5687956408
 20
13.7708106841
 10
-12.566111961
 20
13.7672510359
 10
-12.5628383068
 20
13.7630989969
 10
-12.5595105673
 20
13.759073351
 10
-12.5561314796
 20
13.7551680686
 10
-12.5527037809
 20
13.7513771201
 10
-12.5492302084
 20
13.7476944758
 10
-12.5457139415
 20
13.7441164193
 10
-12.5421599286
 20
13.7406484873
 10
-12.5385735603
 20
13.73729853
 10
-12.5349602272
 20
13.7340743974
 10
-12.5313253201
 20
13.7309839395
 10
-12.527673916
 20
13.7280347836
 10
-12.5240098391
 20
13.7252336652
 10
-12.5203366001
 20
13.7225870974
 10
-12.5166577095
 20
13.720101593
 10
-12.512976678
 20
13.7177836647
 10
-12.5099089987
 20
13.7159848793
 10
-12.5068379993
 20
13.714311437
 10
-12.5037594081
 20
13.7127677856
 10
-12.5006689539
 20
13.7113583733
 10
-12.4975623652
 20
13.7100876478
 10
-12.4944353705
 20
13.708960057
  0
LINE
  5
2B2
100
AcDbEntity
  8
ASSI
100
AcDbLine
 62
7
  6
CONTINUOUS
 10
14.1266946577
 20
10.9469389814
 11
11.7444095616
 21
12.3224405388
  0
LINE
  5
2B3
100
AcDbEntity
  8
ASSI
100
AcDbLine
 62
7
  6
CONTINUOUS
 10
6.2070987084
 20
15.5196144266
 11
3.8248136123
 21
16.8951159841
  0
LINE
  5
2B4
100
AcDbEntity
  8
ASSI
100
AcDbLine
 62
7
  6
CONTINUOUS
 10
-1.783207919
 20
20.1331173312
 11
-4.1654930151
 21
21.5086188887
  0
LINE
  5
2B5
100
AcDbEntity
  8
ASSI
100
AcDbLine
 62
7
  6
CONTINUOUS
 10
-9.7028038683
 20
24.7057927765
 11
-12.0850889644
 21
26.0812943339
  0
LINE
  5
2B6
100
AcDbEntity
  8
ASSI
100
AcDbLine
 62
7
  6
CONTINUOUS
 10
16.9585052919
 20
9.9158719987
 11
14.992270155
 21
11.0511515241
  0
LINE
  5
2B7
100
AcDbEntity
  8
ASSI
100
AcDbLine
 62
7
  6
CONTINUOUS
 10
11.8728121991
 20
12.8522874518
 11
7.0726742057
 21
15.6238269693
  0
LINE
  5
2B8
100
AcDbEntity
  8
ASSI
100
AcDbLine
 62
7
  6
CONTINUOUS
 10
3.9532162498
 20
17.4249628971
 11
-0.9176324217
 21
20.2373298739
  0
LINE
  5
2B9
100
AcDbEntity
  8
ASSI
100
AcDbLine
 62
7
  6
CONTINUOUS
 10
-4.0370903776
 20
22.0384658017
 11
-8.837228371
 21
24.8100053192
  0
LINE
  5
2BA
100
AcDbEntity
  8
ASSI
100
AcDbLine
 62
7
  6
CONTINUOUS
 10
-11.9566863269
 20
26.611141247
 11
-13.9229214638
 21
27.7464207723
  0
LINE
  5
2BB
100
AcDbEntity
  8
ASSI
100
AcDbLine
 62
7
  6
CONTINUOUS
 10
17.885299578
 20
2.592412207
 11
17.3431320866
 21
9.3228080656
  0
LINE
  5
2BC
100
AcDbEntity
  8
ASSI
100
AcDbLine
 62
7
  6
CONTINUOUS
 10
17.885299578
 20
-8.3482708495
 11
17.885299578
 21
-18.7991090449
  0
LINE
  5
2BD
100
AcDbEntity
  8
ASSI
100
AcDbLine
 62
7
  6
CONTINUOUS
 10
17.885299578
 20
-7.8584259884
 11
17.885299578
 21
2.592412207
  0
LINE
  5
2BE
100
AcDbEntity
  8
ASSI
100
AcDbLine
 62
7
  6
CONTINUOUS
 10
17.885299578
 20
-18.7991090449
 11
17.3431320866
 21
-26.1341047117
  0
LINE
  5
2BF
100
AcDbEntity
  8
ASSI
100
AcDbLine
 62
7
  6
CONTINUOUS
 10
-0.9176324217
 20
20.2373298739
 11
-1.5900227537
 21
20.1075084961
  0
LINE
  5
2C0
100
AcDbEntity
  8
ASSI
100
AcDbLine
 62
7
  6
CONTINUOUS
 10
-8.837228371
 20
24.8100053192
 11
-9.509618703
 21
24.6801839413
  0
LWPOLYLINE
  5
2C1
100
AcDbEntity
  8
ASSI
100
AcDbPolyline
 62
253
  6
CONTINUOUS
 90
31
 70
0
 10
13.7224538519
 20
-27.1963093276
 10
13.7033892284
 20
-27.207270473
 10
13.6834447178
 20
-27.2176455973
 10
13.6626737796
 20
-27.2274068908
 10
13.6411320888
 20
-27.2365281891
 10
13.6188773862
 20
-27.2449850433
 10
13.5959693238
 20
-27.2527547854
 10
13.5724693049
 20
-27.2598165893
 10
13.5484403195
 20
-27.2661515263
 10
13.5239467754
 20
-27.2717426161
 10
13.4990543256
 20
-27.2765748723
 10
13.4738296924
 20
-27.2806353423
 10
13.4483404885
 20
-27.2839131424
 10
13.4226550357
 20
-27.2863994867
 10
13.3968421819
 20
-27.2880877108
 10
13.3709711164
 20
-27.2889732894
 10
13.3451111847
 20
-27.2890538489
 10
13.3193317021
 20
-27.2883291733
 10
13.2937017687
 20
-27.2868012051
 10
13.2682900835
 20
-27.2844740399
 10
13.2431647605
 20
-27.2813539154
 10
13.2183931462
 20
-27.2774491949
 10
13.194041639
 20
-27.2727703447
 10
13.1701755112
 20
-27.2673299061
 10
13.1468587341
 20
-27.2611424618
 10
13.1241538065
 20
-27.2542245967
 10
13.1021215873
 20
-27.2465948536
 10
13.080821132
 20
-27.2382736835
 10
13.060309535
 20
-27.2292833906
 10
13.0406417758
 20
-27.2196480728
 10
13.0218705725
 20
-27.2093935566
  0
LINE
  5
2C2
100
AcDbEntity
  8
ASSI
100
AcDbLine
 62
253
  6
CONTINUOUS
 10
14.4036415112
 20
-27.5982690758
 11
17.3431320866
 21
-26.1341047117
  0
LINE
  5
2C3
100
AcDbEntity
  8
ASSI
100
AcDbLine
 62
7
  6
CONTINUOUS
 10
14.2792390854
 20
-27.838153152
 11
17.2075544135
 21
-26.3795551942
  0
ELLIPSE
  5
2C4
100
AcDbEntity
  8
ASSI
100
AcDbEllipse
 62
7
  6
CONTINUOUS
 10
16.989553494
 20
-25.9295486576
 30
0.0
 11
-0.2148150744
 21
0.4515576038
 31
0.0
 40
0.6258090719
 41
-3.1302699021
 42
-2.3092664522
  0
ELLIPSE
  5
2C5
100
AcDbEntity
  8
ASSI
100
AcDbEllipse
 62
7
  6
CONTINUOUS
 10
17.7438566793
 20
-8.266628363
 30
0.0
 11
-0.1000238792
 21
0.1731956925
 31
0.0
 40
0.5774195892
 41
-2.3562809449
 42
-0.7856369171
  0
ELLIPSE
  5
2C6
100
AcDbEntity
  8
CURVE
100
AcDbEllipse
 62
253
  6
CONTINUOUS
 10
354.0357247478
 20
200.6113228194
 30
0.0
 11
515.3433323941
 21
279.7362045896
 31
0.0
 40
0.0255142971
 41
3.9132027209
 42
3.9184732064
  0
ELLIPSE
  5
2C7
100
AcDbEntity
  8
CURVE
100
AcDbEllipse
 62
253
  6
CONTINUOUS
 10
353.7480693686
 20
200.7774114302
 30
0.0
 11
515.342940754
 21
279.736434371
 31
0.0
 40
0.0255136747
 41
-2.3694387065
 42
-2.3647532279
  0
ELLIPSE
  5
2C8
100
AcDbEntity
  8
CURVE
100
AcDbEllipse
 62
253
  6
CONTINUOUS
 10
332.0917142636
 20
213.28151945
 30
0.0
 11
-381.3238241378
 21
622.4174407693
 31
0.0
 40
0.5591694327
 41
-4.702806472
 42
-4.6981209933
  0
ELLIPSE
  5
2C9
100
AcDbEntity
  8
CURVE
100
AcDbEllipse
 62
253
  6
CONTINUOUS
 10
331.8051543051
 20
213.4469755786
 30
0.0
 11
-381.2622784321
 21
622.3942917036
 31
0.0
 40
0.5592097475
 41
-4.7028172872
 42
-4.6975461665
  0
ELLIPSE
  5
2CA
100
AcDbEntity
  8
ASSI
100
AcDbEllipse
 62
7
  6
CONTINUOUS
 10
17.7438566793
 20
-7.7767337609
 30
0.0
 11
-0.1000390991
 21
0.1732220807
 31
0.0
 40
0.5772437351
 41
-3.1546807091
 42
-2.3564331449
  0
ELLIPSE
  5
2CB
100
AcDbEntity
  8
ASSI
100
AcDbEllipse
 62
7
  6
CONTINUOUS
 10
-13.8923036839
 20
27.3574180441
 30
0.0
 11
-0.2805986523
 21
0.4138767202
 31
0.0
 40
0.5251497255
 41
-0.8253745819
 42
-0.0067082748
  0
ELLIPSE
  5
2CC
100
AcDbEntity
  8
ASSI
100
AcDbEllipse
 62
7
  6
CONTINUOUS
 10
-9.561382512
 20
24.796005574
 30
0.0
 11
0.1999154856
 21
0.0095814127
 31
0.0
 40
0.6067642562
 41
-2.385266879
 42
-1.3380693278
  0
ELLIPSE
  5
2CD
100
AcDbEntity
  8
ASSI
100
AcDbEllipse
 62
7
  6
CONTINUOUS
 10
14.2681160139
 20
11.0371517788
 30
0.0
 11
0.1999154856
 21
0.0095814127
 31
0.0
 40
0.6067642562
 41
-2.385266879
 42
-1.3380693278
  0
ELLIPSE
  5
2CE
100
AcDbEntity
  8
ASSI
100
AcDbEllipse
 62
7
  6
CONTINUOUS
 10
-1.6417865628
 20
20.2233301287
 30
0.0
 11
0.1999154856
 21
0.0095814127
 31
0.0
 40
0.6067642562
 41
-2.385266879
 42
-1.3380693278
  0
ELLIPSE
  5
2CF
100
AcDbEntity
  8
ASSI
100
AcDbEllipse
 62
7
  6
CONTINUOUS
 10
6.3485200647
 20
15.6098272241
 30
0.0
 11
0.1999154856
 21
0.0095814127
 31
0.0
 40
0.6067642562
 41
-2.385266879
 42
-1.3380693278
  0
ELLIPSE
  5
2D0
100
AcDbEntity
  8
ASSI
100
AcDbEllipse
 62
7
  6
CONTINUOUS
 10
16.989553494
 20
9.5266207502
 30
0.0
 11
-0.2807400337
 21
0.4141474974
 31
0.0
 40
0.5245128892
 41
-2.3945640771
 42
-0.8246811388
  0
ELLIPSE
  5
2D1
100
AcDbEntity
  8
ASSI
100
AcDbEllipse
 62
7
  6
CONTINUOUS
 10
3.9662349686
 20
16.9853287816
 30
0.0
 11
0.1999154856
 21
0.0095814127
 31
0.0
 40
0.6067642562
 41
2.850720877
 42
3.8979184282
  0
ELLIPSE
  5
2D2
100
AcDbEntity
  8
ASSI
100
AcDbEllipse
 62
7
  6
CONTINUOUS
 10
11.8858309179
 20
12.4126533363
 30
0.0
 11
0.1999154856
 21
0.0095814127
 31
0.0
 40
0.6067642562
 41
2.850720877
 42
3.8979184282
  0
ELLIPSE
  5
2D3
100
AcDbEntity
  8
ASSI
100
AcDbEllipse
 62
7
  6
CONTINUOUS
 10
-11.9436676081
 20
26.1715071314
 30
0.0
 11
0.1999154856
 21
0.0095814127
 31
0.0
 40
0.6067642562
 41
2.850720877
 42
3.8979184282
  0
ELLIPSE
  5
2D4
100
AcDbEntity
  8
ASSI
100
AcDbEllipse
 62
7
  6
CONTINUOUS
 10
-4.0240716588
 20
21.5988316862
 30
0.0
 11
0.1999154856
 21
0.0095814127
 31
0.0
 40
0.6067642562
 41
2.850720877
 42
3.8979184282
  0
ELLIPSE
  5
2D5
100
AcDbEntity
  8
CURVE
100
AcDbEllipse
 62
253
  6
CONTINUOUS
 10
331.848849031
 20
213.4217467915
 30
0.0
 11
515.3433323941
 21
279.7362045896
 31
0.0
 40
0.0255142971
 41
-2.3165000509
 42
-2.3112295654
  0
ELLIPSE
  5
2D6
100
AcDbEntity
  8
CURVE
100
AcDbEllipse
 62
253
  6
CONTINUOUS
 10
332.1365044103
 20
213.2556581807
 30
0.0
 11
515.342940754
 21
279.736434371
 31
0.0
 40
0.0255136747
 41
-2.3164597332
 42
-2.3117742545
  0
ELLIPSE
  5
2D7
100
AcDbEntity
  8
CURVE
100
AcDbEllipse
 62
253
  6
CONTINUOUS
 10
353.7928595152
 20
200.7515501609
 30
0.0
 11
-381.3238241378
 21
622.4174407693
 31
0.0
 40
0.5591694327
 41
1.5273998618
 42
1.5320853405
  0
ELLIPSE
  5
2D8
100
AcDbEntity
  8
CURVE
100
AcDbEllipse
 62
253
  6
CONTINUOUS
 10
354.0794194738
 20
200.5860940323
 30
0.0
 11
-381.2622784321
 21
622.3942917036
 31
0.0
 40
0.5592097475
 41
1.5268848493
 42
1.53215597
  0
ENDSEC
  0
SECTION
  2
OBJECTS
  0
DICTIONARY
  5
C
100
AcDbDictionary
280
0
281
1
  3
ACAD_GROUP
350
D
  3
ACAD_MLINESTYLE
350
17
  3
ACAD_LAYOUT
350
1A
  3
ACAD_PLOTSETTINGS
350
19
  3
ACAD_PLOTSTYLENAME
350
E
  0
DICTIONARY
  5
D
102
{ACAD_REACTORS
330
C
102
}
100
AcDbDictionary
280
0
281
1
  0
ACDBDICTIONARYWDFLT
  5
E
102
{ACAD_REACTORS
330
C
102
}
100
AcDbDictionary
281
1
  3
Normal
350
F
100
AcDbDictionaryWithDefault
340
F
  0
DICTIONARY
  5
17
102
{ACAD_REACTORS
330
C
102
}
100
AcDbDictionary
280
0
281
1
  3
Standard
350
18
  0
DICTIONARY
  5
19
102
{ACAD_REACTORS
330
C
102
}
100
AcDbDictionary
281
1
  0
DICTIONARY
  5
1A
102
{ACAD_REACTORS
330
C
102
}
100
AcDbDictionary
281
1
  3
Model
350
2D9
  3
Layout1
350
2DA
  0
ACDBPLACEHOLDER
  5
F
102
{ACAD_REACTORS
330
E
102
}
  0
MLINESTYLE
  5
18
102
{ACAD_REACTORS
330
17
102
}
100
AcDbMlineStyle
  2
STANDARD
 70
0
  3

 62
256
 51
90.0
 52
90.0
 71
2
 49
0.5
 62
256
  6
BYLAYER
 49
-0.5
 62
256
  6
BYLAYER
  0
LAYOUT
  5
2D9
102
{ACAD_REACTORS
330
1A
102
}
100
AcDbPlotSettings
  1

  2
none_device
  4
ISO_A4_(297.00_x_210.00_MM)
  6

 40
0.0
 41
0.0
 42
0.0
 43
0.0
 44
297.0
 45
210.0
 46
0.0
 47
0.0
 48
0.0
 49
0.0
140
0.0
141
0.0
142
1.0
143
1.0
 70
1024
 72
1
 73
0
 74
0
  7

 75
0
147
1.0
148
0.0
149
0.0
100
AcDbLayout
  1
Model
 70
0
 71
0
 10
0.0
 20
0.0
 11
297.0
 21
210.0
 12
0.0
 22
0.0
 32
0.0
 14
0.0
 24
0.0
 34
0.0
 15
0.0
 25
0.0
 35
0.0
146
0.0
 13
0.0
 23
0.0
 33
0.0
 16
1.0
 26
0.0
 36
0.0
 17
0.0
 27
1.0
 37
0.0
 76
0
330
217
345
0
346
0
  0
LAYOUT
  5
2DA
102
{ACAD_REACTORS
330
1A
102
}
100
AcDbPlotSettings
  1

  2
none_device
  4
ISO_A4_(297.00_x_210.00_MM)
  6

 40
0.0
 41
0.0
 42
0.0
 43
0.0
 44
297.0
 45
210.0
 46
0.0
 47
0.0
 48
0.0
 49
0.0
140
0.0
141
0.0
142
1.0
143
1.0
 70
0
 72
1
 73
0
 74
0
  7

 75
0
147
1.0
148
0.0
149
0.0
100
AcDbLayout
  1
Layout1
 70
0
 71
1
 10
0.0
 20
0.0
 11
297.0
 21
210.0
 12
0.0
 22
0.0
 32
0.0
 14
0.0
 24
0.0
 34
0.0
 15
0.0
 25
0.0
 35
0.0
146
0.0
 13
0.0
 23
0.0
 33
0.0
 16
1.0
 26
0.0
 36
0.0
 17
0.0
 27
1.0
 37
0.0
 76
0
330
218
345
0
346
0
  0
ENDSEC
  0
EOF
