  0
SECTION
  2
HEADER
  9
$ACADVER
  1
AC1021
  9
$DWGCODEPAGE
  3
ANSI_1252
  9
$EXTMAX
 10
297.0
 20
210.0
 30
0.0
  9
$EXTMIN
 10
0.0
 20
0.0
 30
0.0
  9
$LIMMIN
 10
0.0
 20
0.0
  9
$LIMMAX
 10
297.0
 20
210.0
  9
$VIEWCTR
 10
148.5
 20
105.0
  9
$VIEWSIZE
 40
210.0
  9
$CLAYER
  8
0
  9
$LTSCALE
 40
16.335
  9
$CELTYPE
  6
BYLAYER
  9
$DIMSCALE
 40
1.0
  9
$DIMASZ
 40
3.0
  9
$DIMEXO
 40
0.5
  9
$DIMDLI
 40
11.286
  9
$DIMEXE
 40
1.5
  9
$DIMCEN
 40
2.673
  9
$DIMLFAC
 40
1.0
  9
$DIMBLK
  1
_FILLED
  9
$DIMALT
 70
0
  9
$DIMALTF
 40
25.4
  9
$DIMTXT
 40
3.0
  9
$DIMTOL
 70
1
  9
$DIMLIM
 70
0
  9
$DIMTFAC
 40
1.0
  9
$DIMTP
 40
0.01
  9
$DIMTM
 40
0.01
  9
$DIMGAP
 40
0.625
  9
$DIMDSEP
 70
44
  9
$AUNITS
 70
0
  9
$PDMODE
 70
3
  9
$PDSIZE
 40
3.0
  9
$HANDSEED
  5
311
  9
$TILEMODE
 70
1
  9
$MEASUREMENT
 70
1
  9
$INSUNITS
 70
4
  0
ENDSEC
  0
SECTION
  2
CLASSES
  0
CLASS
  1
ACDBDICTIONARYWDFLT
  2
AcDbDictionaryWithDefault
  3
AutoCAD 2000
 90
0
 91
1
280
0
281
0
  0
CLASS
  1
ACDBPLACEHOLDER
  2
AcDbPlaceHolder
  3
AutoCAD 2000
 90
0
 91
1
280
0
281
0
  0
CLASS
  1
LAYOUT
  2
AcDbLayout
  3
AutoCAD 2000
 90
0
 91
0
280
0
281
0
  0
ENDSEC
  0
SECTION
  2
TABLES
  0
TABLE
  2
VPORT
  5
8
100
AcDbSymbolTable
 70
2
  0
VPORT
  5
1F4
100
AcDbSymbolTableRecord
100
AcDbViewportTableRecord
  2
*ACTIVE
 70
0
 10
0.0
 20
0.0
 11
1.0
 21
1.0
 12
148.5
 22
105.0
 13
0.0
 23
0.0
 14
1.0
 24
1.0
 15
0.0
 25
0.0
 16
0.0
 26
0.0
 36
1.0
 17
0.0
 27
0.0
 37
0.0
 40
210.0
 41
1.4142857143
 42
50.0
 43
0.0
 44
0.0
 50
0.0
 51
0.0
 71
0
 72
100
 73
1
 74
1
 75
0
 76
0
 77
0
 78
0
  0
ENDTAB
  0
TABLE
  2
LTYPE
  5
5
100
AcDbSymbolTable
 70
6
  0
LTYPE
  5
14
100
AcDbSymbolTableRecord
100
AcDbLinetypeTableRecord
  2
BYBLOCK
 70
0
  3

 72
65
 73
0
 40
0.0
  0
LTYPE
  5
15
100
AcDbSymbolTableRecord
100
AcDbLinetypeTableRecord
  2
BYLAYER
 70
0
  3

 72
65
 73
0
 40
0.0
  0
LTYPE
  5
16
100
AcDbSymbolTableRecord
100
AcDbLinetypeTableRecord
  2
CONTINUOUS
 70
64
  3
Solid line
 72
65
 73
0
 40
0.0
  0
LTYPE
  5
1F5
100
AcDbSymbolTableRecord
100
AcDbLinetypeTableRecord
  2
CENTER
 70
64
  3
____ _ ____ _ ____ _ ____ _ ____ _ ____ _ ____
 72
65
 73
4
 40
0.6
 49
0.375
 74
0
 49
-0.075
 74
0
 49
0.075
 74
0
 49
-0.075
 74
0
  0
LTYPE
  5
1F6
100
AcDbSymbolTableRecord
100
AcDbLinetypeTableRecord
  2
HIDDEN
 70
64
  3
- - - - - - - - - - - - - - - - - - - -
 72
65
 73
2
 40
0.2
 49
0.1
 74
0
 49
-0.1
 74
0
  0
LTYPE
  5
1F7
100
AcDbSymbolTableRecord
100
AcDbLinetypeTableRecord
  2
PHANTOM
 70
64
  3
_____ _ _ _____ _ _ _____ _ _ _____
 72
65
 73
6
 40
0.8
 49
0.45
 74
0
 49
-0.05
 74
0
 49
0.1
 74
0
 49
-0.05
 74
0
 49
0.1
 74
0
 49
-0.05
 74
0
  0
LTYPE
  5
1F8
100
AcDbSymbolTableRecord
100
AcDbLinetypeTableRecord
  2
DOT
 70
64
  3
. . . . . . . . . . . . . . . . . . . .
 72
65
 73
2
 40
0.2
 49
0.1
 74
0
 49
-0.1
 74
0
  0
LTYPE
  5
1F9
100
AcDbSymbolTableRecord
100
AcDbLinetypeTableRecord
  2
DASHED
 70
64
  3
- - - - - - - - - - - - - - - - - - - -
 72
65
 73
2
 40
0.2
 49
0.1
 74
0
 49
-0.1
 74
0
  0
ENDTAB
  0
TABLE
  2
LAYER
  5
2
100
AcDbSymbolTable
 70
36
  0
LAYER
  5
10
100
AcDbSymbolTableRecord
100
AcDbLayerTableRecord
  2
0
 70
0
 62
7
  6
CONTINUOUS
370
-3
390
F
  0
LAYER
  5
1FA
100
AcDbSymbolTableRecord
100
AcDbLayerTableRecord
  2
DEFAULT_1
 70
0
 62
7
  6
CENTER
370
-3
390
F
  0
LAYER
  5
1FB
100
AcDbSymbolTableRecord
100
AcDbLayerTableRecord
  2
DEFAULT_2
 70
0
 62
7
  6
HIDDEN
370
-3
390
F
  0
LAYER
  5
1FC
100
AcDbSymbolTableRecord
100
AcDbLayerTableRecord
  2
DEFAULT_3
 70
0
 62
7
  6
PHANTOM
370
-3
390
F
  0
LAYER
  5
1FD
100
AcDbSymbolTableRecord
100
AcDbLayerTableRecord
  2
ASSI
 70
0
 62
7
  6
CONTINUOUS
370
-3
390
F
  0
LAYER
  5
1FE
100
AcDbSymbolTableRecord
100
AcDbLayerTableRecord
  2
COORDINATE
 70
0
 62
7
  6
CONTINUOUS
370
-3
390
F
  0
LAYER
  5
1FF
100
AcDbSymbolTableRecord
100
AcDbLayerTableRecord
  2
COORD_ORIGINE
 70
0
 62
7
  6
CONTINUOUS
370
-3
390
F
  0
LAYER
  5
200
100
AcDbSymbolTableRecord
100
AcDbLayerTableRecord
  2
COPY_PUBLISH
 70
0
 62
7
  6
CONTINUOUS
370
-3
390
F
  0
LAYER
  5
201
100
AcDbSymbolTableRecord
100
AcDbLayerTableRecord
  2
COSMETIC
 70
0
 62
7
  6
CONTINUOUS
370
-3
390
F
  0
LAYER
  5
202
100
AcDbSymbolTableRecord
100
AcDbLayerTableRecord
  2
COSMETICI
 70
0
 62
7
  6
CONTINUOUS
370
-3
390
F
  0
LAYER
  5
203
100
AcDbSymbolTableRecord
100
AcDbLayerTableRecord
  2
CURVE
 70
0
 62
7
  6
CONTINUOUS
370
-3
390
F
  0
LAYER
  5
204
100
AcDbSymbolTableRecord
100
AcDbLayerTableRecord
  2
DRAFT
 70
0
 62
7
  6
CONTINUOUS
370
-3
390
F
  0
LAYER
  5
205
100
AcDbSymbolTableRecord
100
AcDbLayerTableRecord
  2
IGES
 70
0
 62
7
  6
CONTINUOUS
370
-3
390
F
  0
LAYER
  5
206
100
AcDbSymbolTableRecord
100
AcDbLayerTableRecord
  2
IMPORT_IGES
 70
0
 62
7
  6
CONTINUOUS
370
-3
390
F
  0
LAYER
  5
207
100
AcDbSymbolTableRecord
100
AcDbLayerTableRecord
  2
LIVELLO_1
 70
0
 62
7
  6
CONTINUOUS
370
-3
390
F
  0
LAYER
  5
208
100
AcDbSymbolTableRecord
100
AcDbLayerTableRecord
  2
NOTE
 70
0
 62
7
  6
CONTINUOUS
370
-3
390
F
  0
LAYER
  5
209
100
AcDbSymbolTableRecord
100
AcDbLayerTableRecord
  2
PIANI
 70
0
 62
7
  6
CONTINUOUS
370
-3
390
F
  0
LAYER
  5
20A
100
AcDbSymbolTableRecord
100
AcDbLayerTableRecord
  2
PIANI_ORIGINE
 70
0
 62
7
  6
CONTINUOUS
370
-3
390
F
  0
LAYER
  5
20B
100
AcDbSymbolTableRecord
100
AcDbLayerTableRecord
  2
PIANI_RIFERIMENTO
 70
0
 62
7
  6
CONTINUOUS
370
-3
390
F
  0
LAYER
  5
20C
100
AcDbSymbolTableRecord
100
AcDbLayerTableRecord
  2
PUNTI
 70
0
 62
7
  6
CONTINUOUS
370
-3
390
F
  0
LAYER
  5
20D
100
AcDbSymbolTableRecord
100
AcDbLayerTableRecord
  2
RACCORDO
 70
0
 62
7
  6
CONTINUOUS
370
-3
390
F
  0
LAYER
  5
20E
100
AcDbSymbolTableRecord
100
AcDbLayerTableRecord
  2
SIMBOLI
 70
0
 62
7
  6
CONTINUOUS
370
-3
390
F
  0
LAYER
  5
20F
100
AcDbSymbolTableRecord
100
AcDbLayerTableRecord
  2
SMUSSO
 70
0
 62
7
  6
CONTINUOUS
370
-3
390
F
  0
LAYER
  5
210
100
AcDbSymbolTableRecord
100
AcDbLayerTableRecord
  2
SNAPLINE
 70
0
 62
7
  6
CONTINUOUS
370
-3
390
F
  0
LAYER
  5
211
100
AcDbSymbolTableRecord
100
AcDbLayerTableRecord
  2
SUPERFICI
 70
0
 62
7
  6
CONTINUOUS
370
-3
390
F
  0
LAYER
  5
212
100
AcDbSymbolTableRecord
100
AcDbLayerTableRecord
  2
TRASH
 70
0
 62
7
  6
CONTINUOUS
370
-3
390
F
  0
LAYER
  5
213
100
AcDbSymbolTableRecord
100
AcDbLayerTableRecord
  2
WHITE
 70
0
 62
7
  6
CONTINUOUS
370
-3
390
F
  0
LAYER
  5
214
100
AcDbSymbolTableRecord
100
AcDbLayerTableRecord
  2
XSEC_DATUMS
 70
0
 62
7
  6
CONTINUOUS
370
-3
390
F
  0
ENDTAB
  0
TABLE
  2
STYLE
  5
3
100
AcDbSymbolTable
 70
1
  0
STYLE
  5
11
100
AcDbSymbolTableRecord
100
AcDbTextStyleTableRecord
  2
STANDARD
 70
0
 40
0.0
 41
0.8
 50
0.0
 71
0
 42
0.2
  3
txt
  4

  0
STYLE
  5
215
100
AcDbSymbolTableRecord
100
AcDbTextStyleTableRecord
  2
TEXTSTYLE_1
 70
0
 40
0.0
 41
0.8
 50
0.0
 71
0
 42
0.2
  3
gdt
  4

  0
ENDTAB
  0
TABLE
  2
VIEW
  5
6
100
AcDbSymbolTable
 70
0
  0
ENDTAB
  0
TABLE
  2
UCS
  5
7
100
AcDbSymbolTable
 70
0
  0
ENDTAB
  0
TABLE
  2
APPID
  5
9
100
AcDbSymbolTable
 70
1
  0
APPID
  5
216
100
AcDbSymbolTableRecord
100
AcDbRegAppTableRecord
  2
ACAD
 70
0
  0
ENDTAB
  0
TABLE
  2
BLOCK_RECORD
  5
1
100
AcDbSymbolTable
 70
0
  0
BLOCK_RECORD
  5
217
100
AcDbSymbolTableRecord
100
AcDbBlockTableRecord
  2
*Model_Space
  0
BLOCK_RECORD
  5
218
100
AcDbSymbolTableRecord
100
AcDbBlockTableRecord
  2
*Paper_Space
  0
ENDTAB
  0
TABLE
  2
DIMSTYLE
  5
A
100
AcDbSymbolTable
 70
1
100
AcDbDimStyleTable
 71
0
  0
DIMSTYLE
105
219
100
AcDbSymbolTableRecord
100
AcDbDimStyleTableRecord
  2
STANDARD
 70
0
  3

  4

 40
1.0
 41
3.0
 42
0.5
 43
0.38
 44
1.5
 45
0.0
 46
0.0
 47
0.01
 48
0.01
140
3.0
141
0.09
142
0.0
143
25.4
144
1.0
145
0.0
146
1.0
147
0.625
 71
1.0
 72
0.0
 73
0
 74
0
 75
0
 76
0
 77
1
 78
8
170
0
171
1
172
0
173
0
174
0
175
0
176
0
177
0
178
0
270
2
271
2
272
2
273
2
274
2
275
0
280
0
281
0
282
0
283
1
284
8
285
0
286
0
287
3
288
0
340
11
278
44
  0
ENDTAB
  0
ENDSEC
  0
SECTION
  2
BLOCKS
  0
BLOCK
  5
20
100
AcDbEntity
  8
0
100
AcDbBlockBegin
  2
*Model_Space
 70
0
 10
0.0
 20
0.0
 30
0.0
  3
*Model_Space
  1

  0
ENDBLK
  5
21
100
AcDbEntity
  8
0
100
AcDbBlockEnd
  0
BLOCK
  5
1C
100
AcDbEntity
  8
0
100
AcDbBlockBegin
  2
*Paper_Space
 70
0
 10
0.0
 20
0.0
 30
0.0
  3
*Paper_Space
  1

  0
ENDBLK
  5
1D
100
AcDbEntity
  8
0
100
AcDbBlockEnd
  0
ENDSEC
  0
SECTION
  2
ENTITIES
  0
LWPOLYLINE
  5
21A
100
AcDbEntity
  8
ASSI
100
AcDbPolyline
 62
7
  6
CONTINUOUS
 90
19
 70
0
 10
-17.1451803833
 20
26.0889064015
 10
-17.178374847
 20
26.0663914904
 10
-17.2654238075
 20
26.0011872714
 10
-17.3488841113
 20
25.9297973709
 10
-17.4286561107
 20
25.8527020445
 10
-17.5046151317
 20
25.7703354467
 10
-17.5765178805
 20
25.6832121869
 10
-17.6441524405
 20
25.591787504
 10
-17.7073000565
 20
25.496489306
 10
-17.7656211454
 20
25.397917233
 10
-17.8188754579
 20
25.2965178709
 10
-17.8668094849
 20
25.1927303982
 10
-17.9090915862
 20
25.0871591016
 10
-17.9454728571
 20
24.9802153253
 10
-17.975677701
 20
24.8723187241
 10
-17.9993965071
 20
24.7639470896
 10
-18.0163259795
 20
24.6554349219
 10
-18.0261106828
 20
24.5471195483
 10
-18.0276470936
 20
24.5131650808
  0
LINE
  5
21B
100
AcDbEntity
  8
ASSI
100
AcDbLine
 62
7
  6
CONTINUOUS
 10
-17.1453902215
 20
26.0887683878
 11
-14.3166534994
 21
27.9542936528
  0
LINE
  5
21C
100
AcDbEntity
  8
ASSI
100
AcDbLine
 62
253
  6
CONTINUOUS
 10
-16.8886126342
 20
26.0683632888
 11
-14.0681369549
 21
27.9284404738
  0
LWPOLYLINE
  5
21D
100
AcDbEntity
  8
ASSI
100
AcDbPolyline
 62
253
  6
CONTINUOUS
 90
17
 70
0
 10
-17.1451804423
 20
26.0889064911
 10
-17.1374042186
 20
26.093694506
 10
-17.1244143248
 20
26.1003854776
 10
-17.1107282305
 20
26.1059019034
 10
-17.0963834048
 20
26.1102286808
 10
-17.0814191202
 20
26.1133539641
 10
-17.0658763449
 20
26.1152691972
 10
-17.0497976313
 20
26.1159691366
 10
-17.0332269987
 20
26.1154518661
 10
-17.0162098133
 20
26.1137188018
 10
-16.9987926637
 20
26.1107746885
 10
-16.9810232337
 20
26.1066275863
 10
-16.9629501714
 20
26.1012888489
 10
-16.9446229563
 20
26.0947730925
 10
-16.9260917635
 20
26.0870981555
 10
-16.9074073269
 20
26.07828505
 10
-16.8886207995
 20
26.0683579039
  0
LINE
  5
21E
100
AcDbEntity
  8
ASSI
100
AcDbLine
 62
7
  6
CONTINUOUS
 10
-12.101901818
 20
26.7931609484
 11
-12.2820682645
 21
26.379135668
  0
LWPOLYLINE
  5
21F
100
AcDbEntity
  8
ASSI
100
AcDbPolyline
 62
7
  6
CONTINUOUS
 90
12
 70
0
 10
-18.0276117158
 20
-9.0653313825
 10
-18.0190240844
 20
-9.1767114308
 10
-18.0010051895
 20
-9.2855913337
 10
-17.9743000155
 20
-9.3874404231
 10
-17.9396439887
 20
-9.4817631912
 10
-17.8975749438
 20
-9.5687420021
 10
-17.8482719046
 20
-9.6488779159
 10
-17.7923457152
 20
-9.7216970248
 10
-17.7304267224
 20
-9.786865075
 10
-17.6625605238
 20
-9.8445864903
 10
-17.5891982212
 20
-9.8945071782
 10
-17.57373724
 20
-9.9036215203
  0
LWPOLYLINE
  5
220
100
AcDbEntity
  8
ASSI
100
AcDbPolyline
 62
253
  6
CONTINUOUS
 90
16
 70
0
 10
-18.0276119004
 20
-9.0653313891
 10
-18.0268007649
 20
-9.0771311363
 10
-18.0245569182
 20
-9.0925867888
 10
-18.0209819077
 20
-9.1079213977
 10
-18.0160853159
 20
-9.1230938597
 10
-18.0098802677
 20
-9.1380635064
 10
-18.0023833953
 20
-9.1527902126
 10
-17.9936147935
 20
-9.1672345046
 10
-17.9835979658
 20
-9.1813576655
 10
-17.9723597617
 20
-9.1951218393
 10
-17.9599303042
 20
-9.2084901321
 10
-17.9463429095
 20
-9.2214267113
 10
-17.9316339977
 20
-9.2338969014
 10
-17.9158429949
 20
-9.2458672769
 10
-17.8990122276
 20
-9.2573057522
 10
-17.8811868094
 20
-9.2681816673
  0
LWPOLYLINE
  5
221
100
AcDbEntity
  8
ASSI
100
AcDbPolyline
 62
7
  6
CONTINUOUS
 90
11
 70
0
 10
-18.3214310415
 20
7.8397077183
 10
-18.3203629187
 20
7.8143480327
 10
-18.3151494629
 20
7.7786021484
 10
-18.3055323375
 20
7.7431709324
 10
-18.2915396097
 20
7.7085849095
 10
-18.2730152474
 20
7.6748791534
 10
-18.2496992436
 20
7.642180395
 10
-18.2217947461
 20
7.6112400891
 10
-18.1898239122
 20
7.5827859632
 10
-18.1540785996
 20
7.5570622572
 10
-18.1335949758
 20
7.5445351723
  0
LWPOLYLINE
  5
222
100
AcDbEntity
  8
ASSI
100
AcDbPolyline
 62
253
  6
CONTINUOUS
 90
13
 70
0
 10
-17.8811872019
 20
-9.2681707243
 10
-17.9273446473
 20
-7.9215952309
 10
-17.9695616861
 20
-6.5725194966
 10
-18.0078380983
 20
-5.2209590013
 10
-18.0421734703
 20
-3.8669391173
 10
-18.0725679711
 20
-2.5104655455
 10
-18.099022061
 20
-1.1515241384
 10
-18.1215357537
 20
0.2098692775
 10
-18.1401084839
 20
1.573699649
 10
-18.15473937
 20
2.9399825677
 10
-18.1654277151
 20
4.308713066
 10
-18.1721733154
 20
5.6798654327
 10
-18.1749758197
 20
7.053424267
  0
LWPOLYLINE
  5
223
100
AcDbEntity
  8
ASSI
100
AcDbPolyline
 62
253
  6
CONTINUOUS
 90
18
 70
0
 10
-18.321431623
 20
7.8397058076
 10
-18.3211713257
 20
7.8303953775
 10
-18.3198586114
 20
7.8168985635
 10
-18.3174416183
 20
7.803448712
 10
-18.3139257193
 20
7.7900757634
 10
-18.3093187641
 20
7.7768092099
 10
-18.3036310893
 20
7.7636787058
 10
-18.296875283
 20
7.7507132789
 10
-18.289066078
 20
7.7379410306
 10
-18.2802204456
 20
7.7253899749
 10
-18.2703581321
 20
7.7130884069
 10
-18.2595015266
 20
7.7010640823
 10
-18.2476751822
 20
7.6893440236
 10
-18.2349050523
 20
7.6779538427
 10
-18.2212188696
 20
7.6669181556
 10
-18.2066466881
 20
7.6562612535
 10
-18.1912209572
 20
7.646006996
 10
-18.1749758179
 20
7.6361781292
  0
LWPOLYLINE
  5
224
100
AcDbEntity
  8
ASSI
100
AcDbPolyline
 62
253
  6
CONTINUOUS
 90
13
 70
0
 10
-18.1749846458
 20
7.63618322
 10
-18.1746915003
 20
7.6257266949
 10
-18.1738001699
 20
7.6156600986
 10
-18.1723144328
 20
7.6060260993
 10
-18.1702405862
 20
7.5968655315
 10
-18.1675874205
 20
7.5882172232
 10
-18.1643661812
 20
7.5801178311
 10
-18.1605905219
 20
7.5726016851
 10
-18.1562764462
 20
7.5657006431
 10
-18.1514422395
 20
7.5594439558
 10
-18.1461083922
 20
7.5538581429
 10
-18.1402975121
 20
7.5489668802
 10
-18.1335951508
 20
7.5445348694
  0
LWPOLYLINE
  5
225
100
AcDbEntity
  8
ASSI
100
AcDbPolyline
 62
7
  6
CONTINUOUS
 90
10
 70
0
 10
-18.3214315987
 20
7.2581265881
 10
-18.3170240333
 20
5.474619553
 10
-18.3054657519
 20
3.6336819205
 10
-18.2867903145
 20
1.7970694692
 10
-18.2609980641
 20
-0.0351792596
 10
-18.2280894438
 20
-1.8630280627
 10
-18.1880650088
 20
-3.6864414515
 10
-18.140925436
 20
-5.5053833563
 10
-18.0866716126
 20
-7.3198152288
 10
-18.0276128921
 20
-9.0653037272
  0
LWPOLYLINE
  5
226
100
AcDbEntity
  8
ASSI
100
AcDbPolyline
 62
253
  6
CONTINUOUS
 90
13
 70
0
 10
-18.1749758198
 20
7.6361781239
 10
-18.1721733154
 20
9.0130973359
 10
-18.1654277151
 20
10.3923227503
 10
-18.15473937
 20
11.7738385606
 10
-18.1401084839
 20
13.157618074
 10
-18.1215357537
 20
14.5436562645
 10
-18.099022061
 20
15.9319699463
 10
-18.0725679711
 20
17.3225441595
 10
-18.0421734703
 20
18.7153623472
 10
-18.0078380983
 20
20.1104391899
 10
-17.9695616861
 20
21.5077691824
 10
-17.9273446473
 20
22.9073264743
 10
-17.8811872019
 20
24.3090953317
  0
LWPOLYLINE
  5
227
100
AcDbEntity
  8
ASSI
100
AcDbPolyline
 62
253
  6
CONTINUOUS
 90
17
 70
0
 10
-18.0276470936
 20
24.5131650808
 10
-18.0277072518
 20
24.5056536773
 10
-18.0268005767
 20
24.4913265392
 10
-18.0245567242
 20
24.4770126858
 10
-18.0209817086
 20
24.4627504844
 10
-18.0160851126
 20
24.4485781638
 10
-18.0098800611
 20
24.4345337117
 10
-18.0023831862
 20
24.4206547731
 10
-17.9936145828
 20
24.4069785496
 10
-17.9835977544
 20
24.3935416991
 10
-17.9723595504
 20
24.3803802381
 10
-17.9599300938
 20
24.3675294448
 10
-17.9463427009
 20
24.3550237649
 10
-17.9316337916
 20
24.3428967188
 10
-17.915842792
 20
24.3311808121
 10
-17.8990120286
 20
24.3199074484
 10
-17.8811866151
 20
24.309106845
  0
LWPOLYLINE
  5
228
100
AcDbEntity
  8
ASSI
100
AcDbPolyline
 62
253
  6
CONTINUOUS
 90
25
 70
0
 10
-18.1749846458
 20
7.0534293631
 10
-18.1746914997
 20
7.064224417
 10
-18.1738001676
 20
7.075320311
 10
-18.1723144275
 20
7.086670014
 10
-18.170240577
 20
7.0982254193
 10
-18.1675874064
 20
7.109937548
 10
-18.1643661616
 20
7.1217567565
 10
-18.1605904963
 20
7.133632948
 10
-18.1562764142
 20
7.1455157841
 10
-18.1514422012
 20
7.1573548979
 10
-18.1461083478
 20
7.1691001082
 10
-18.1402974621
 20
7.1807016319
 10
-18.1340341744
 20
7.1921102946
 10
-18.1273450324
 20
7.2032777397
 10
-18.1202583889
 20
7.2141566331
 10
-18.1128042814
 20
7.2247008635
 10
-18.105014305
 20
7.2348657384
 10
-18.0969214785
 20
7.2446081732
 10
-18.088560104
 20
7.2538868739
 10
-18.0799656223
 20
7.2626625121
 10
-18.0711744617
 20
7.2708978918
 10
-18.0622238845
 20
7.2785581067
 10
-18.0531518286
 20
7.2856106888
 10
-18.0439967466
 20
7.2920257454
 10
-18.0347974432
 20
7.297776086
  0
LWPOLYLINE
  5
229
100
AcDbEntity
  8
ASSI
100
AcDbPolyline
 62
7
  6
CONTINUOUS
 90
10
 70
0
 10
-18.0276385559
 20
24.5134255782
 10
-18.0868605649
 20
22.691986236
 10
-18.1410876471
 20
20.8128871901
 10
-18.1882018083
 20
18.9377608108
 10
-18.2282019891
 20
17.0666467942
 10
-18.2610873388
 20
15.1995821317
 10
-18.2868571292
 20
13.3366030969
 10
-18.305510744
 20
11.4777465306
 10
-18.3170476677
 20
9.6230514951
 10
-18.3214315994
 20
7.8397588808
  0
LWPOLYLINE
  5
22A
100
AcDbEntity
  8
ASSI
100
AcDbPolyline
 62
253
  6
CONTINUOUS
 90
43
 70
0
 10
-17.8811871973
 20
24.3090953291
 10
-17.8790239489
 20
24.3533708661
 10
-17.875567695
 20
24.3982955107
 10
-17.870822708
 20
24.4438137512
 10
-17.8647949799
 20
24.4898694024
 10
-17.8574918959
 20
24.5364055134
 10
-17.8489222245
 20
24.5833644384
 10
-17.8390966321
 20
24.6306884888
 10
-17.8280273545
 20
24.6783189115
 10
-17.8157279342
 20
24.7261957837
 10
-17.8022139422
 20
24.7742596302
 10
-17.7875021596
 20
24.8224514525
 10
-17.7716102637
 20
24.8707117006
 10
-17.7545581616
 20
24.9189808989
 10
-17.7363671538
 20
24.9671993882
 10
-17.717059151
 20
25.0153073419
 10
-17.6966582958
 20
25.0632455528
 10
-17.6751901029
 20
25.1109547372
 10
-17.6526805985
 20
25.1583752837
 10
-17.6291580511
 20
25.2054486381
 10
-17.6046518071
 20
25.252116841
 10
-17.5791914207
 20
25.2983218303
 10
-17.5528087899
 20
25.3440066812
 10
-17.5255368913
 20
25.3891150657
 10
-17.4974086185
 20
25.4335907855
 10
-17.4684591372
 20
25.4773791648
 10
-17.4387247008
 20
25.5204261408
 10
-17.4082413836
 20
25.5626777278
 10
-17.3770474547
 20
25.6040818273
 10
-17.3451818552
 20
25.644587568
 10
-17.3126830092
 20
25.6841443913
 10
-17.2795916552
 20
25.7227035998
 10
-17.245949152
 20
25.7602177928
 10
-17.2117959529
 20
25.7966401901
 10
-17.17717455
 20
25.831926279
 10
-17.1421285139
 20
25.8660323662
 10
-17.1067008096
 20
25.898915058
 10
-17.0709360762
 20
25.930533783
 10
-17.0348788176
 20
25.960850012
 10
-16.998572443
 20
25.9898258129
 10
-16.962061823
 20
26.0174254098
 10
-16.9253932374
 20
26.0436152471
 10
-16.8886125854
 20
26.0683632606
  0
LINE
  5
22B
100
AcDbEntity
  8
ASSI
100
AcDbLine
 62
253
  6
CONTINUOUS
 10
-18.1190166063
 20
7.4480646526
 11
-18.1164978903
 21
7.4561642384
  0
LWPOLYLINE
  5
22C
100
AcDbEntity
  8
ASSI
100
AcDbPolyline
 62
253
  6
CONTINUOUS
 90
7
 70
0
 10
-18.1164978903
 20
7.4561642384
 10
-18.113324876
 20
7.4641883355
 10
-18.1095018039
 20
7.4721375432
 10
-18.1050538953
 20
7.4799594599
 10
-18.0999768643
 20
7.4876534082
 10
-18.0942749968
 20
7.4952200654
 10
-18.0879863722
 20
7.502609063
  0
LWPOLYLINE
  5
22D
100
AcDbEntity
  8
ASSI
100
AcDbPolyline
 62
253
  6
CONTINUOUS
 90
3
 70
0
 10
-18.0879863722
 20
7.502609063
 10
-18.0811066579
 20
7.5098194393
 10
-18.0782045044
 20
7.512552996
  0
LWPOLYLINE
  5
22E
100
AcDbEntity
  8
ASSI
100
AcDbPolyline
 62
7
  6
CONTINUOUS
 90
8
 70
0
 10
-18.207734066
 20
7.5015542024
 10
-18.2382437683
 20
7.4706459915
 10
-18.2642560899
 20
7.4373811892
 10
-18.2855550733
 20
7.4021355924
 10
-18.301857489
 20
7.3656675439
 10
-18.313143254
 20
7.328667277
 10
-18.3195934463
 20
7.2915687857
 10
-18.3214308662
 20
7.2579834412
  0
LWPOLYLINE
  5
22F
100
AcDbEntity
  8
ASSI
100
AcDbPolyline
 62
7
  6
CONTINUOUS
 90
14
 70
0
 10
13.1894395071
 20
-27.6658965984
 10
13.2391261614
 20
-27.6924654076
 10
13.307701631
 20
-27.7225686278
 10
13.3791113299
 20
-27.7466909495
 10
13.4532423604
 20
-27.7647099067
 10
13.5296973704
 20
-27.7764133374
 10
13.6080392943
 20
-27.7816406406
 10
13.6882227682
 20
-27.7802649569
 10
13.7699172415
 20
-27.77213526
 10
13.8527826512
 20
-27.7571296025
 10
13.9369115875
 20
-27.735031032
 10
14.0221986086
 20
-27.7055880863
 10
14.1082423142
 20
-27.6686397359
 10
14.1339209353
 20
-27.6561844145
  0
LINE
  5
230
100
AcDbEntity
  8
ASSI
100
AcDbLine
 62
253
  6
CONTINUOUS
 10
-17.5791914206
 20
-9.9004482023
 11
-17.6046518069
 21
-9.8843362167
  0
LWPOLYLINE
  5
231
100
AcDbEntity
  8
ASSI
100
AcDbPolyline
 62
253
  6
CONTINUOUS
 90
21
 70
0
 10
-17.6046518069
 20
-9.8843362167
 10
-17.6291580509
 20
-9.8666341396
 10
-17.6526805983
 20
-9.8473634365
 10
-17.6751901027
 20
-9.826548077
 10
-17.6966582957
 20
-9.8042140726
 10
-17.7170591509
 20
-9.7803888151
 10
-17.7363671536
 20
-9.7551020129
 10
-17.7545581615
 20
-9.7283851055
 10
-17.7716102636
 20
-9.7002707859
 10
-17.7875021595
 20
-9.6707939982
 10
-17.8022139421
 20
-9.6399913475
 10
-17.8157279341
 20
-9.6079004916
 10
-17.8280273545
 20
-9.5745609309
 10
-17.839096632
 20
-9.5400142792
 10
-17.8489222245
 20
-9.5043037003
 10
-17.8574918959
 20
-9.4674736873
 10
-17.8647949798
 20
-9.4295697418
 10
-17.870822708
 20
-9.3906386549
 10
-17.8755676949
 20
-9.3507286059
 10
-17.8790239489
 20
-9.3098891039
 10
-17.8811871973
 20
-9.2681707268
  0
LINE
  5
232
100
AcDbEntity
  8
ASSI
100
AcDbLine
 62
7
  6
CONTINUOUS
 10
-18.1728036328
 20
7.5299206201
 11
-18.207734066
 21
7.5015542024
  0
LINE
  5
233
100
AcDbEntity
  8
ASSI
100
AcDbLine
 62
7
  6
CONTINUOUS
 10
-18.1412122515
 20
7.5509550956
 11
-18.1728036328
 21
7.5299206201
  0
LWPOLYLINE
  5
234
100
AcDbEntity
  8
CURVE
100
AcDbPolyline
 62
253
  6
CONTINUOUS
 90
84
 70
0
 10
-9.2953383281
 20
14.3214556994
 10
-9.2928443077
 20
14.3230121052
 10
-9.2904894944
 20
14.3247019047
 10
-9.2882626337
 20
14.3265254429
 10
-9.2861524712
 20
14.3284830647
 10
-9.2841477521
 20
14.3305751149
 10
-9.2822372221
 20
14.3328019384
 10
-9.2800571742
 20
14.3356528245
 10
-9.2780017334
 20
14.3387007458
 10
-9.2760760813
 20
14.3419481672
 10
-9.2742853994
 20
14.3453975538
 10
-9.2726348692
 20
14.3490513705
 10
-9.2713706639
 20
14.3522527932
 10
-9.2702130111
 20
14.3555911304
 10
-9.2691675375
 20
14.3590596193
 10
-9.2682398698
 20
14.3626514973
 10
-9.2674356346
 20
14.3663600015
 10
-9.2667604586
 20
14.3701783693
 10
-9.2662192711
 20
14.3741001818
 10
-9.2658142114
 20
14.3781203948
 10
-9.2655467217
 20
14.382234308
 10
-9.265418244
 20
14.3864372212
 10
-9.2654302203
 20
14.3907244339
 10
-9.2655840925
 20
14.395091246
 10
-9.2658807241
 20
14.3995324526
 10
-9.266318663
 20
14.4040408309
 10
-9.2668958786
 20
14.4086086539
 10
-9.2676103402
 20
14.4132281943
 10
-9.2684600172
 20
14.417891725
 10
-9.2694428789
 20
14.4225915188
 10
-9.2705571583
 20
14.4273203047
 10
-9.271802143
 20
14.432072637
 10
-9.273177384
 20
14.436843526
 10
-9.2746824325
 20
14.4416279822
 10
-9.2763168398
 20
14.4464210159
 10
-9.278080157
 20
14.4512176376
 10
-9.2799715642
 20
14.4560119562
 10
-9.2819887575
 20
14.4607944754
 10
-9.2841290619
 20
14.4655547971
 10
-9.2863898024
 20
14.4702825234
 10
-9.2887683041
 20
14.4749672565
 10
-9.291261892
 20
14.4795985983
 10
-9.2938671572
 20
14.484166619
 10
-9.2965777553
 20
14.4886632607
 10
-9.2993866078
 20
14.4930809335
 10
-9.3022866364
 20
14.4974120475
 10
-9.3052707628
 20
14.5016490129
 10
-9.3083319086
 20
14.5057842396
 10
-9.3114634474
 20
14.509810804
 10
-9.3146605611
 20
14.5137244465
 10
-9.3179188833
 20
14.5175215736
 10
-9.3212340479
 20
14.5211985918
 10
-9.3246016887
 20
14.5247519075
 10
-9.3280174394
 20
14.5281779274
 10
-9.331476943
 20
14.5314727393
 10
-9.3349758786
 20
14.534631157
 10
-9.3385099345
 20
14.5376476754
 10
-9.3420747991
 20
14.5405167898
 10
-9.3456661607
 20
14.5432329952
 10
-9.3492797076
 20
14.5457907868
 10
-9.3529107516
 20
14.5481851595
 10
-9.3565530989
 20
14.5504131083
 10
-9.3602001794
 20
14.5524721281
 10
-9.3638454227
 20
14.5543597136
 10
-9.3674822586
 20
14.5560733598
 10
-9.3711041169
 20
14.5576105616
 10
-9.3747037945
 20
14.558969653
 10
-9.3782715573
 20
14.5601523259
 10
-9.3817970382
 20
14.5611611113
 10
-9.3852698703
 20
14.5619985402
 10
-9.3886796864
 20
14.5626671436
 10
-9.3920161197
 20
14.5631694527
 10
-9.3952707642
 20
14.5635083927
 10
-9.3984430586
 20
14.5636884663
 10
-9.4015344028
 20
14.5637145704
 10
-9.4045461966
 20
14.5635916019
 10
-9.4074798399
 20
14.5633244579
 10
-9.4103367324
 20
14.5629180352
 10
-9.4131192125
 20
14.5623749453
 10
-9.4158333722
 20
14.561688658
 10
-9.418486242
 20
14.5608503574
 10
-9.4210848524
 20
14.5598512279
 10
-9.4236362339
 20
14.5586824537
 10
-9.4261474169
 20
14.557335219
  0
LWPOLYLINE
  5
235
100
AcDbEntity
  8
CURVE
100
AcDbPolyline
 62
253
  6
CONTINUOUS
 90
84
 70
0
 10
-11.3052431662
 20
13.1614395226
 10
-11.3027718362
 20
13.1629783511
 10
-11.3004392758
 20
13.1646494196
 10
-11.2982341779
 20
13.1664532378
 10
-11.2961452353
 20
13.1683903154
 10
-11.2941611409
 20
13.1704611622
 10
-11.2922705875
 20
13.1726662878
 10
-11.2901136312
 20
13.1754906992
 10
-11.2880804766
 20
13.1785118556
 10
-11.2861765085
 20
13.1817324067
 10
-11.2844071116
 20
13.1851550019
 10
-11.2827776709
 20
13.1887822908
 10
-11.2815310344
 20
13.191961937
 10
-11.2803910553
 20
13.1952788892
 10
-11.2793634597
 20
13.1987264651
 10
-11.2784539738
 20
13.2022979822
 10
-11.2776683237
 20
13.2059867582
 10
-11.2770122356
 20
13.2097861109
 10
-11.2764907411
 20
13.2136897281
 10
-11.2761060936
 20
13.2176927788
 10
-11.2758598517
 20
13.2217908022
 10
-11.2757535742
 20
13.2259793376
 10
-11.27578882
 20
13.2302539243
 10
-11.2759671478
 20
13.2346101015
 10
-11.2762895024
 20
13.2390428247
 10
-11.2767543729
 20
13.2435447144
 10
-11.2773596346
 20
13.2481078075
 10
-11.2781031627
 20
13.2527241409
 10
-11.2789828324
 20
13.2573857512
 10
-11.2799965188
 20
13.2620846754
 10
-11.2811423568
 20
13.2668134364
 10
-11.2824195197
 20
13.271566502
 10
-11.2838274402
 20
13.2763388262
 10
-11.2853655512
 20
13.2811253629
 10
-11.2870332856
 20
13.285921066
 10
-11.2888300761
 20
13.2907208896
 10
-11.2907549715
 20
13.2955188725
 10
-11.2928054837
 20
13.3003053939
 10
-11.2949787402
 20
13.3050699178
 10
-11.2972718689
 20
13.3098019082
 10
-11.2996819973
 20
13.3144908293
 10
-11.3022062532
 20
13.3191261452
 10
-11.3048410431
 20
13.3236977854
 10
-11.3075798889
 20
13.328197542
 10
-11.3104155914
 20
13.3326176725
 10
-11.3133409513
 20
13.3369504345
 10
-11.3163487694
 20
13.3411880856
 10
-11.3194318466
 20
13.3453228833
 10
-11.3225834675
 20
13.3493477913
 10
-11.3257988531
 20
13.3532585978
 10
-11.3290737084
 20
13.3570517971
 10
-11.3324037384
 20
13.3607238833
 10
-11.335784648
 20
13.3642713508
 10
-11.3392121423
 20
13.3676906939
 10
-11.3426818723
 20
13.3709780718
 10
-11.346189274
 20
13.3741283032
 10
-11.3497297292
 20
13.3771358721
 10
-11.3532986201
 20
13.3799952621
 10
-11.3568913287
 20
13.3827009571
 10
-11.3605032369
 20
13.3852474407
 10
-11.3641294537
 20
13.3876297697
 10
-11.3677639962
 20
13.3898452926
 10
-11.3714006081
 20
13.3918919306
 10
-11.3750330334
 20
13.3937676051
 10
-11.3786550161
 20
13.3954702374
 10
-11.3822603
 20
13.3969977489
 10
-11.3858419721
 20
13.3983487919
 10
-11.3893904918
 20
13.3995249435
 10
-11.3928956614
 20
13.4005285115
 10
-11.3963472835
 20
13.4013618039
 10
-11.3997351603
 20
13.4020271286
 10
-11.4030490943
 20
13.4025267938
 10
-11.4062807946
 20
13.402863508
 10
-11.4094295962
 20
13.4030415828
 10
-11.4124967409
 20
13.4030657307
 10
-11.4154834704
 20
13.402940664
 10
-11.4183910264
 20
13.4026710949
 10
-11.4212206507
 20
13.4022617359
 10
-11.4239745068
 20
13.4017150096
 10
-11.4266584449
 20
13.4010241794
 10
-11.429279237
 20
13.400180219
 10
-11.4318436551
 20
13.3991741023
 10
-11.4343584713
 20
13.3979968028
 10
-11.4368304574
 20
13.3966392944
  0
LWPOLYLINE
  5
236
100
AcDbEntity
  8
CURVE
100
AcDbPolyline
 62
253
  6
CONTINUOUS
 90
68
 70
0
 10
-11.9253413163
 20
13.1150357487
 10
-11.9274755936
 20
13.1137135115
 10
-11.929512185
 20
13.1122860982
 10
-11.9314583705
 20
13.1107525939
 10
-11.9333214302
 20
13.1091120837
 10
-11.9351086442
 20
13.1073636527
 10
-11.9368272925
 20
13.1055063861
 10
-11.9388067253
 20
13.1031324662
 10
-11.940694354
 20
13.1005974321
 10
-11.9424866258
 20
13.0978982108
 10
-11.9441799879
 20
13.0950317288
 10
-11.9457708875
 20
13.091994913
 10
-11.9472551308
 20
13.0887866932
 10
-11.9486259596
 20
13.0854140114
 10
-11.9498759748
 20
13.0818858127
 10
-11.9509977774
 20
13.0782110424
 10
-11.9519839682
 20
13.0743986454
 10
-11.9526971842
 20
13.0711225975
 10
-11.9533087302
 20
13.0677601291
 10
-11.953816249
 20
13.0643141816
 10
-11.9542173838
 20
13.0607876966
 10
-11.9545097777
 20
13.0571836156
 10
-11.9546910735
 20
13.0535048803
 10
-11.9547594338
 20
13.0497548026
 10
-11.954715098
 20
13.0459381774
 10
-11.954558825
 20
13.0420601699
 10
-11.9542913737
 20
13.0381259455
 10
-11.9539135029
 20
13.0341406693
 10
-11.9534259715
 20
13.0301095068
 10
-11.9528295022
 20
13.0260373311
 10
-11.9521246728
 20
13.0219278463
 10
-11.9513120253
 20
13.0177844646
 10
-11.9503921014
 20
13.013610598
 10
-11.9493654427
 20
13.0094096586
 10
-11.9482325912
 20
13.0051850584
 10
-11.9469942874
 20
13.0009408929
 10
-11.9456520671
 20
12.9966839913
 10
-11.9442076649
 20
12.9924218663
 10
-11.9426628156
 20
12.9881620306
 10
-11.9410192539
 20
12.9839119967
 10
-11.9392787142
 20
12.9796792773
 10
-11.9374432678
 20
12.9754712946
 10
-11.9355163313
 20
12.9712951081
 10
-11.9335016575
 20
12.9671576872
 10
-11.9314029997
 20
12.9630660008
 10
-11.9292241108
 20
12.9590270182
 10
-11.9269687437
 20
12.9550477085
 10
-11.9246406565
 20
12.9511342012
 10
-11.9222436267
 20
12.9472892668
 10
-11.9197814366
 20
12.9435148362
 10
-11.9172578688
 20
12.9398128404
 10
-11.9146767056
 20
12.9361852101
 10
-11.9120417296
 20
12.9326338762
 10
-11.9088152712
 20
12.9284770155
 10
-11.9055306262
 20
12.924443998
 10
-11.9022016521
 20
12.9205460196
 10
-11.8988422062
 20
12.9167942762
 10
-11.8954661459
 20
12.9131999637
 10
-11.8920852983
 20
12.9097717734
 10
-11.8887033708
 20
12.9065083782
 10
-11.8853220405
 20
12.9034059464
 10
-11.8819429845
 20
12.9004606465
 10
-11.87856788
 20
12.8976686466
 10
-11.8751957488
 20
12.8950258923
 10
-11.8718149921
 20
12.8925274366
 10
-11.8684113555
 20
12.8901681096
 10
-11.8649705849
 20
12.8879427417
 10
-11.8614784261
 20
12.8858461628
  0
LWPOLYLINE
  5
237
100
AcDbEntity
  8
CURVE
100
AcDbPolyline
 62
253
  6
CONTINUOUS
 90
68
 70
0
 10
-9.9171032294
 20
14.2740895394
 10
-9.9192568862
 20
14.2727555312
 10
-9.9213124845
 20
14.271315507
 10
-9.9232772934
 20
14.2697686362
 10
-9.9251585814
 20
14.2681140881
 10
-9.9269636176
 20
14.2663510322
 10
-9.9286996706
 20
14.2644786379
 10
-9.9306994424
 20
14.2620860108
 10
-9.932606895
 20
14.2595317592
 10
-9.9344185779
 20
14.2568129021
 10
-9.9361310405
 20
14.2539264585
 10
-9.9377408321
 20
14.2508694472
 10
-9.9392438531
 20
14.2476408881
 10
-9.9406334067
 20
14.2442478044
 10
-9.9419021472
 20
14.2406992202
 10
-9.9430427287
 20
14.2370041595
 10
-9.9440478054
 20
14.2331716463
 10
-9.9447768885
 20
14.2298790326
 10
-9.9454044954
 20
14.2265002662
 10
-9.9459283517
 20
14.2230383807
 10
-9.9463461831
 20
14.2194964099
 10
-9.9466557153
 20
14.2158773875
 10
-9.9468546739
 20
14.212184347
 10
-9.946941287
 20
14.2084206783
 10
-9.9469157929
 20
14.2045911956
 10
-9.946778932
 20
14.2007010691
 10
-9.9465314451
 20
14.1967554692
 10
-9.9461740728
 20
14.1927595661
 10
-9.9457075556
 20
14.18871853
 10
-9.9451325821
 20
14.1846372254
 10
-9.9444496318
 20
14.1805192926
 10
-9.9436591321
 20
14.1763680661
 10
-9.9427615106
 20
14.1721868805
 10
-9.9417571946
 20
14.1679790701
 10
-9.9406466116
 20
14.1637479695
 10
-9.9394303889
 20
14.1594976288
 10
-9.9381099539
 20
14.1552349605
 10
-9.9366869337
 20
14.150967593
 10
-9.9351629555
 20
14.1467031545
 10
-9.9335396467
 20
14.1424492732
 10
-9.9318186344
 20
14.1382135774
 10
-9.9300019023
 20
14.1340036
 10
-9.9280928606
 20
14.1298264928
 10
-9.9260952757
 20
14.1256893123
 10
-9.9240129144
 20
14.1215991149
 10
-9.921849543
 20
14.1175629571
 10
-9.9196089284
 20
14.1135878953
 10
-9.9172948493
 20
14.1096801023
 10
-9.9149111346
 20
14.1058422153
 10
-9.9124616252
 20
14.1020759877
 10
-9.9099501622
 20
14.098383173
 10
-9.9073805868
 20
14.0947655247
 10
-9.90475674
 20
14.0912247962
 10
-9.9015431092
 20
14.0870812616
 10
-9.8982707886
 20
14.0830620661
 10
-9.894953708
 20
14.0791782591
 10
-9.8916057974
 20
14.0754408902
 10
-9.8882409864
 20
14.071861009
 10
-9.8848711811
 20
14.0684471665
 10
-9.8815001915
 20
14.0651979194
 10
-9.8781298039
 20
14.0621093261
 10
-9.8747618045
 20
14.0591774446
 10
-9.8713979794
 20
14.0563983334
 10
-9.8680374037
 20
14.0537677997
 10
-9.8646683075
 20
14.0512806472
 10
-9.86127621
 20
14.0489314288
 10
-9.8578466302
 20
14.0467146973
 10
-9.8543650873
 20
14.0446250054
  0
LINE
  5
238
100
AcDbEntity
  8
CURVE
100
AcDbLine
 62
253
  6
CONTINUOUS
 10
-9.7860627134
 20
14.0382572277
 11
-9.2953383281
 21
14.3214556994
  0
LINE
  5
239
100
AcDbEntity
  8
CURVE
100
AcDbLine
 62
253
  6
CONTINUOUS
 10
-9.4261474169
 20
14.557335219
 11
-9.9171032294
 21
14.2740895394
  0
LINE
  5
23A
100
AcDbEntity
  8
CURVE
100
AcDbLine
 62
253
  6
CONTINUOUS
 10
-11.7935522449
 20
12.879664447
 11
-11.3052431662
 21
13.1614395226
  0
LINE
  5
23B
100
AcDbEntity
  8
CURVE
100
AcDbLine
 62
253
  6
CONTINUOUS
 10
-11.4368304574
 20
13.3966392944
 11
-11.9253413163
 21
13.1150357487
  0
LINE
  5
23C
100
AcDbEntity
  8
ASSI
100
AcDbLine
 62
7
  6
CONTINUOUS
 10
13.1899856862
 20
-27.6662124335
 11
-17.5750643573
 21
-9.902858115
  0
LINE
  5
23D
100
AcDbEntity
  8
ASSI
100
AcDbLine
 62
253
  6
CONTINUOUS
 10
12.876654478
 20
-27.0273630238
 11
-17.8811871973
 21
-9.2681707268
  0
LWPOLYLINE
  5
23E
100
AcDbEntity
  8
ASSI
100
AcDbPolyline
 62
253
  6
CONTINUOUS
 90
8
 70
0
 10
13.1382580247
 20
-10.1757252517
 10
13.1593254564
 20
-10.1697687328
 10
13.1798749534
 20
-10.1632483079
 10
13.199861342
 20
-10.1561785877
 10
13.2192401904
 20
-10.1485749814
 10
13.2379685877
 20
-10.1404544353
 10
13.2560052164
 20
-10.1318353741
 10
13.273310226
 20
-10.1227371537
  0
LINE
  5
23F
100
AcDbEntity
  8
ASSI
100
AcDbLine
 62
7
  6
CONTINUOUS
 10
-12.101901818
 20
26.7931609484
 11
-12.0807050864
 21
26.1769372346
  0
LINE
  5
240
100
AcDbEntity
  8
ASSI
100
AcDbLine
 62
253
  6
CONTINUOUS
 10
-12.2820682645
 20
26.379135668
 11
-12.2820682645
 21
26.3162305232
  0
LWPOLYLINE
  5
241
100
AcDbEntity
  8
ASSI
100
AcDbPolyline
 62
253
  6
CONTINUOUS
 90
23
 70
0
 10
-11.6063419989
 20
-0.0252972812
 10
-11.6060477856
 20
0.0137909659
 10
-11.6044787742
 20
0.0522347379
 10
-11.6016241002
 20
0.0899728024
 10
-11.5974726855
 20
0.1269619623
 10
-11.5920179549
 20
0.1631221142
 10
-11.5852642742
 20
0.198341274
 10
-11.5772136318
 20
0.2325643218
 10
-11.5678703541
 20
0.2657358007
 10
-11.5572567216
 20
0.2977542771
 10
-11.5453871977
 20
0.3285706286
 10
-11.532276653
 20
0.3581417208
 10
-11.5179613049
 20
0.3863878441
 10
-11.5024726055
 20
0.4132596104
 10
-11.4858291343
 20
0.4387366234
 10
-11.4680544355
 20
0.4627902428
 10
-11.4491809013
 20
0.4853842966
 10
-11.429233464
 20
0.5064961576
 10
-11.4082233011
 20
0.526116181
 10
-11.3861745454
 20
0.5442198891
 10
-11.3631224192
 20
0.5607764975
 10
-11.3390934614
 20
0.575765107
 10
-11.3314466989
 20
0.580092053
  0
LWPOLYLINE
  5
242
100
AcDbEntity
  8
ASSI
100
AcDbPolyline
 62
253
  6
CONTINUOUS
 90
27
 70
0
 10
-11.7465156491
 20
-0.025324278
 10
-11.7461905991
 20
0.0168476641
 10
-11.7444743459
 20
0.0581966708
 10
-11.7413668962
 20
0.0987227377
 10
-11.7368684789
 20
0.1385083999
 10
-11.7309788633
 20
0.1774711224
 10
-11.7236974345
 20
0.2153632557
 10
-11.7150098181
 20
0.2521748601
 10
-11.7049305362
 20
0.2879157878
 10
-11.6935024502
 20
0.3223679992
 10
-11.6807131503
 20
0.3555165197
 10
-11.6665753191
 20
0.3873761632
 10
-11.651169576
 20
0.4177735027
 10
-11.6344957511
 20
0.4466842261
 10
-11.6165543877
 20
0.4741324258
 10
-11.5974272631
 20
0.5000172306
 10
-11.5771170785
 20
0.5243287352
 10
-11.5556215504
 20
0.5470765995
 10
-11.5330150341
 20
0.5681892675
 10
-11.509290424
 20
0.5876677953
 10
-11.4844552583
 20
0.605510873
 10
-11.4586059012
 20
0.6216433698
 10
-11.4317326562
 20
0.6360605013
 10
-11.4038456635
 20
0.6487667918
 10
-11.3750710814
 20
0.6597010509
 10
-11.3454066563
 20
0.6688530645
 10
-11.3148550809
 20
0.6762327895
  0
LWPOLYLINE
  5
243
100
AcDbEntity
  8
ASSI
100
AcDbPolyline
 62
253
  6
CONTINUOUS
 90
27
 70
0
 10
-11.7465156491
 20
7.3243781536
 10
-11.7455128233
 20
7.366919979
 10
-11.7431196999
 20
7.4086385318
 10
-11.7393362857
 20
7.4495338079
 10
-11.7341614973
 20
7.4896890404
 10
-11.7275964165
 20
7.5290209961
 10
-11.719644365
 20
7.5672799325
 10
-11.7102910032
 20
7.6044559004
 10
-11.6995508185
 20
7.6405587643
 10
-11.6874705051
 20
7.6753684281
 10
-11.6740377811
 20
7.7088698633
 10
-11.6592652011
 20
7.7410779432
 10
-11.6432368338
 20
7.7718173566
 10
-11.6259528805
 20
7.8010636023
 10
-11.6074135132
 20
7.8288409696
 10
-11.5877028442
 20
7.8550472832
 10
-11.5668237494
 20
7.8796725356
 10
-11.5447737704
 20
7.9027264978
 10
-11.5216290727
 20
7.9241366312
 10
-11.4973824728
 20
7.9439040332
 10
-11.4720415867
 20
7.9620273615
 10
-11.4457048225
 20
7.9784303935
 10
-11.418362472
 20
7.9931083582
 10
-11.3900246869
 20
8.0060657757
 10
-11.3608197044
 20
8.0172403375
 10
-11.3307454111
 20
8.0266217596
 10
-11.2998043592
 20
8.0342200779
  0
LWPOLYLINE
  5
244
100
AcDbEntity
  8
ASSI
100
AcDbPolyline
 62
253
  6
CONTINUOUS
 90
23
 70
0
 10
-11.6063419989
 20
7.32293521
 10
-11.6053699911
 20
7.3623939188
 10
-11.6031240923
 20
7.4012076885
 10
-11.5995934427
 20
7.4393153142
 10
-11.5947656626
 20
7.4766743427
 10
-11.588635486
 20
7.5132039765
 10
-11.5812111927
 20
7.5487901074
 10
-11.5724947801
 20
7.5833776394
 10
-11.5624905568
 20
7.6169111478
 10
-11.5512246652
 20
7.6492870977
 10
-11.5387116749
 20
7.6804563359
 10
-11.5249663229
 20
7.7103758122
 10
-11.5100283191
 20
7.7389638993
 10
-11.4939294658
 20
7.7661710432
 10
-11.4766879497
 20
7.7919770615
 10
-11.4583296944
 20
7.8163519805
 10
-11.4388872528
 20
7.8392595585
 10
-11.4183853588
 20
7.860677294
 10
-11.3968370395
 20
7.880594523
 10
-11.3742663331
 20
7.8989868414
 10
-11.3507085213
 20
7.9158234527
 10
-11.3261922291
 20
7.9310823259
 10
-11.3184485614
 20
7.9354632008
  0
LINE
  5
245
100
AcDbEntity
  8
ASSI
100
AcDbLine
 62
7
  6
CONTINUOUS
 10
-4.1823058687
 20
22.2204855031
 11
-4.3624723152
 21
21.8064602228
  0
LWPOLYLINE
  5
246
100
AcDbEntity
  8
RACCORDO
100
AcDbPolyline
 62
253
  6
CONTINUOUS
 90
38
 70
0
 10
-10.0349022962
 20
5.8659575954
 10
-9.9837604172
 20
5.9153036153
 10
-9.9409746332
 20
5.9738442482
 10
-9.9066254492
 20
6.0403840964
 10
-9.88110393
 20
6.1121578703
 10
-9.8638919944
 20
6.1868731504
 10
-9.8540172831
 20
6.2636891234
 10
-9.8507042666
 20
6.3417865917
 10
-9.8532500226
 20
6.4200866421
 10
-9.8609363699
 20
6.497674323
 10
-9.8731500302
 20
6.5742970917
 10
-9.8892917009
 20
6.6493437584
 10
-9.9087616241
 20
6.7222316687
 10
-9.9311384036
 20
6.7929580864
 10
-9.9559487959
 20
6.8611914077
 10
-9.9827195415
 20
6.926606109
 10
-10.0111769745
 20
6.9893205493
 10
-10.0409563089
 20
7.049168402
 10
-10.0717032895
 20
7.1060052801
 10
-10.1032700708
 20
7.1600351613
 10
-10.1354005223
 20
7.2112186776
 10
-10.167826405
 20
7.2594950781
 10
-10.2004598143
 20
7.305055025
 10
-10.2331098302
 20
7.3479115767
 10
-10.2655881422
 20
7.388079154
 10
-10.2978634778
 20
7.4257518013
 10
-10.3298035925
 20
7.4609808233
 10
-10.3612738125
 20
7.4938124876
 10
-10.3922757354
 20
7.5244245217
 10
-10.4227214691
 20
7.5528878942
 10
-10.4525154661
 20
7.5792640816
 10
-10.4816722241
 20
7.6037045182
 10
-10.5101212868
 20
7.6262771868
 10
-10.5378104758
 20
7.6470626796
 10
-10.5647983078
 20
7.6662152738
 10
-10.5910792347
 20
7.6838288788
 10
-10.6165813698
 20
7.6999499383
 10
-10.6412742409
 20
7.7146526719
  0
LWPOLYLINE
  5
247
100
AcDbEntity
  8
RACCORDO
100
AcDbPolyline
 62
7
  6
CONTINUOUS
 90
21
 70
0
 10
-11.1830974173
 20
7.8824271396
 10
-11.2483046624
 20
7.8348144539
 10
-11.3061814383
 20
7.7752404593
 10
-11.3556729291
 20
7.7041305267
 10
-11.396044459
 20
7.6215812858
 10
-11.4262489047
 20
7.5285195215
 10
-11.4454180375
 20
7.4270924365
 10
-11.4534217323
 20
7.3184668399
 10
-11.4502181584
 20
7.2035486349
 10
-11.4359911718
 20
7.084768103
 10
-11.4112543827
 20
6.9639843723
 10
-11.3764340149
 20
6.8421013309
 10
-11.3320560427
 20
6.7204752921
 10
-11.2787650512
 20
6.6005649084
 10
-11.2172291184
 20
6.4836779981
 10
-11.148111997
 20
6.3710075556
 10
-11.0721994197
 20
6.2638529181
 10
-10.9903604624
 20
6.1634960691
 10
-10.903403987
 20
6.0710375531
 10
-10.8121998059
 20
5.9875792618
 10
-10.7177333812
 20
5.9142402886
  0
LINE
  5
248
100
AcDbEntity
  8
DRAFT
100
AcDbLine
 62
7
  6
CONTINUOUS
 10
-11.0234822176
 20
7.9791939161
 11
-11.1830975085
 21
7.8824270843
  0
LINE
  5
249
100
AcDbEntity
  8
ASSI
100
AcDbLine
 62
7
  6
CONTINUOUS
 10
-11.3184485614
 20
7.9354632008
 11
-11.3173741839
 21
7.9360551841
  0
LWPOLYLINE
  5
24A
100
AcDbEntity
  8
ASSI
100
AcDbPolyline
 62
7
  6
CONTINUOUS
 90
28
 70
0
 10
-11.318455455
 20
7.935459258
 10
-11.276068005
 20
7.9556498535
 10
-11.2163620703
 20
7.9745063978
 10
-11.1520164672
 20
7.9846190841
 10
-11.0832179772
 20
7.9857794596
 10
-11.0102684496
 20
7.9777371698
 10
-10.934069793
 20
7.9603821575
 10
-10.8559966642
 20
7.933999313
 10
-10.7772987551
 20
7.8991807166
 10
-10.6983496979
 20
7.8562886297
 10
-10.6191476644
 20
7.8053704472
 10
-10.5402487416
 20
7.7467255785
 10
-10.4624556306
 20
7.6809112902
 10
-10.3860261487
 20
7.6080811026
 10
-10.3114352125
 20
7.528543615
 10
-10.2394902193
 20
7.4430256396
 10
-10.1708927311
 20
7.3522863592
 10
-10.106206206
 20
7.2570269981
 10
-10.0459502606
 20
7.1579787767
 10
-9.9906672264
 20
7.0560290084
 10
-9.9407849091
 20
6.9519998118
 10
-9.8966675753
 20
6.8467026407
 10
-9.8586615226
 20
6.7410536993
 10
-9.8270164152
 20
6.635893751
 10
-9.8019223305
 20
6.5320574757
 10
-9.7835236
 20
6.4304744068
 10
-9.7718686034
 20
6.3319898277
 10
-9.7669238144
 20
6.2373219147
  0
LWPOLYLINE
  5
24B
100
AcDbEntity
  8
CURVE
100
AcDbPolyline
 62
253
  6
CONTINUOUS
 90
73
 70
0
 10
-9.570224209
 20
-8.887910973
 10
-9.5669850518
 20
-8.8897097412
 10
-9.563798727
 20
-8.8913378
 10
-9.5606556349
 20
-8.8928048274
 10
-9.5575461756
 20
-8.894120501
 10
-9.5544607495
 20
-8.8952944986
 10
-9.5513897568
 20
-8.896336498
 10
-9.5483255436
 20
-8.8972541991
 10
-9.5452682385
 20
-8.8980473906
 10
-9.542219916
 20
-8.8987138837
 10
-9.5391826505
 20
-8.8992514891
 10
-9.5361585166
 20
-8.899658018
 10
-9.5331495887
 20
-8.8999312812
 10
-9.5301588001
 20
-8.9000692942
 10
-9.5271925196
 20
-8.9000708907
 10
-9.5242579752
 20
-8.8999351088
 10
-9.5213623945
 20
-8.8996609867
 10
-9.5185130053
 20
-8.8992475624
 10
-9.5157170355
 20
-8.8986938741
 10
-9.5129810443
 20
-8.8979986263
 10
-9.5103089167
 20
-8.8971591892
 10
-9.5077038693
 20
-8.8961725994
 10
-9.5051691187
 20
-8.8950358934
 10
-9.5027078813
 20
-8.8937461078
 10
-9.5003233737
 20
-8.8923002793
 10
-9.4980196926
 20
-8.8906959223
 10
-9.4958044552
 20
-8.8889324628
 10
-9.4936861587
 20
-8.8870098051
 10
-9.4916733006
 20
-8.8849278529
 10
-9.4897743781
 20
-8.8826865105
 10
-9.4879978884
 20
-8.8802856818
 10
-9.4863510137
 20
-8.8777261285
 10
-9.4848356746
 20
-8.8750120433
 10
-9.4834524764
 20
-8.8721484763
 10
-9.4822020245
 20
-8.869140478
 10
-9.4810849242
 20
-8.8659930985
 10
-9.480101781
 20
-8.8627113881
 10
-9.479253237
 20
-8.8593006277
 10
-9.4785400815
 20
-8.8557670199
 10
-9.4779631408
 20
-8.8521169982
 10
-9.4775232409
 20
-8.8483569958
 10
-9.477221208
 20
-8.8444934459
 10
-9.4770578683
 20
-8.840532782
 10
-9.47703387
 20
-8.8364816112
 10
-9.4771491498
 20
-8.8323472368
 10
-9.4774034661
 20
-8.828137136
 10
-9.4777965778
 20
-8.8238587862
 10
-9.4783282434
 20
-8.8195196645
 10
-9.4789982215
 20
-8.8151272482
 10
-9.4798058766
 20
-8.8106888008
 10
-9.4807489954
 20
-8.8062107313
 10
-9.4818249706
 20
-8.8016992348
 10
-9.4830311945
 20
-8.7971605066
 10
-9.4843650599
 20
-8.792600742
 10
-9.4858239592
 20
-8.788026136
 10
-9.4874043356
 20
-8.7834440995
 10
-9.4890988341
 20
-8.778866905
 10
-9.4908991506
 20
-8.7743080405
 10
-9.4927969807
 20
-8.769780994
 10
-9.4947840202
 20
-8.7652992536
 10
-9.4968519648
 20
-8.7608763072
 10
-9.4989934605
 20
-8.7565233715
 10
-9.5012049536
 20
-8.7522425778
 10
-9.5034838409
 20
-8.7480337857
 10
-9.505827519
 20
-8.7438968553
 10
-9.5082333847
 20
-8.7398316461
 10
-9.5106988345
 20
-8.7358380182
 10
-9.5132236674
 20
-8.7319142038
 10
-9.5158172912
 20
-8.7280519255
 10
-9.5184915161
 20
-8.7242412785
 10
-9.5212581521
 20
-8.7204723577
 10
-9.5241290094
 20
-8.7167352584
 10
-9.5271158981
 20
-8.7130200757
  0
LWPOLYLINE
  5
24C
100
AcDbEntity
  8
CURVE
100
AcDbPolyline
 62
253
  6
CONTINUOUS
 90
55
 70
0
 10
-10.6018870156
 20
-8.9716004191
 10
-10.59900627
 20
-8.9732120705
 10
-10.5961546034
 20
-8.9747046254
 10
-10.5933246374
 20
-8.9760838491
 10
-10.5905089934
 20
-8.977355507
 10
-10.5877002932
 20
-8.9785253643
 10
-10.5848926586
 20
-8.9795978917
 10
-10.5820862129
 20
-8.9805723809
 10
-10.5792825797
 20
-8.9814468292
 10
-10.5764833828
 20
-8.9822192334
 10
-10.5736902459
 20
-8.9828875908
 10
-10.5709052852
 20
-8.9834497738
 10
-10.5681325878
 20
-8.9839031564
 10
-10.5653767335
 20
-8.9842449881
 10
-10.5626423019
 20
-8.9844725182
 10
-10.5599338729
 20
-8.9845829961
 10
-10.5577007648
 20
-8.9845839191
 10
-10.5554960386
 20
-8.984501598
 10
-10.5533268385
 20
-8.9843359851
 10
-10.5511984377
 20
-8.9840867408
 10
-10.5491086245
 20
-8.983752358
 10
-10.5470533164
 20
-8.983331038
 10
-10.5450298002
 20
-8.9828211428
 10
-10.543040842
 20
-8.982221678
 10
-10.5410905775
 20
-8.9815318102
 10
-10.5391831423
 20
-8.9807507058
 10
-10.5373226723
 20
-8.9798775314
 10
-10.5355133031
 20
-8.9789114534
 10
-10.5337586974
 20
-8.9778523573
 10
-10.5320606255
 20
-8.9767030037
 10
-10.5304203849
 20
-8.9754668722
 10
-10.5288392729
 20
-8.9741474423
 10
-10.5273185869
 20
-8.9727481936
 10
-10.5258596243
 20
-8.9712726055
 10
-10.5244629005
 20
-8.9697230972
 10
-10.5231258042
 20
-8.9680978455
 10
-10.5218449421
 20
-8.9663939668
 10
-10.5206181764
 20
-8.9646101855
 10
-10.5194483922
 20
-8.962751658
 10
-10.5183397302
 20
-8.9608251487
 10
-10.517094633
 20
-8.9584321658
 10
-10.515943386
 20
-8.9559569586
 10
-10.5148858606
 20
-8.9534054558
 10
-10.5139219288
 20
-8.9507835862
 10
-10.513051462
 20
-8.9480972786
 10
-10.5122741569
 20
-8.945351826
 10
-10.5115890102
 20
-8.9425499781
 10
-10.5109948432
 20
-8.9396938492
 10
-10.5104904776
 20
-8.9367855532
 10
-10.5100747348
 20
-8.9338272042
 10
-10.5097469129
 20
-8.9308190079
 10
-10.5095082163
 20
-8.9277535357
 10
-10.509360326
 20
-8.9246214507
 10
-10.509304923
 20
-8.921413416
 10
-10.5093436884
 20
-8.9181200948
  0
LWPOLYLINE
  5
24D
100
AcDbEntity
  8
CURVE
100
AcDbPolyline
 62
253
  6
CONTINUOUS
 90
54
 70
0
 10
-10.6578195762
 20
-6.5896349817
 10
-10.655183779
 20
-6.5911141266
 10
-10.65258376
 20
-6.5924882143
 10
-10.650014186
 20
-6.5937619195
 10
-10.6474697232
 20
-6.5949399169
 10
-10.6449450384
 20
-6.5960268814
 10
-10.642434798
 20
-6.5970274875
 10
-10.6399336686
 20
-6.5979464101
 10
-10.6370216855
 20
-6.598919777
 10
-10.6341159831
 20
-6.5997855076
 10
-10.6312177005
 20
-6.6005407827
 10
-10.628327977
 20
-6.6011827837
 10
-10.6254479516
 20
-6.6017086916
 10
-10.6225787635
 20
-6.6021156876
 10
-10.6197226782
 20
-6.602401007
 10
-10.6168864671
 20
-6.6025621026
 10
-10.6140780281
 20
-6.6025964814
 10
-10.6113052589
 20
-6.6025016504
 10
-10.6085760574
 20
-6.6022751165
 10
-10.6058983213
 20
-6.6019143869
 10
-10.6036496275
 20
-6.6014966278
 10
-10.6014468778
 20
-6.6009776925
 10
-10.5992924028
 20
-6.6003568292
 10
-10.5971885326
 20
-6.5996332862
 10
-10.5951375977
 20
-6.5988063116
 10
-10.5931419284
 20
-6.5978751537
 10
-10.591203855
 20
-6.5968390607
 10
-10.5893255338
 20
-6.5956977987
 10
-10.5875084243
 20
-6.594453206
 10
-10.5857538117
 20
-6.5931076385
 10
-10.5840629813
 20
-6.5916634524
 10
-10.5824372186
 20
-6.5901230038
 10
-10.5808778088
 20
-6.5884886488
 10
-10.5793860372
 20
-6.5867627435
 10
-10.5779631567
 20
-6.5849481647
 10
-10.5766102897
 20
-6.5830498724
 10
-10.5753285264
 20
-6.5810733474
 10
-10.5741189569
 20
-6.5790240705
 10
-10.5729826711
 20
-6.5769075223
 10
-10.5719207592
 20
-6.5747291838
 10
-10.5709343112
 20
-6.5724945356
 10
-10.5698796397
 20
-6.5698224934
 10
-10.5689270119
 20
-6.5670833983
 10
-10.568074273
 20
-6.5642793811
 10
-10.5673192682
 20
-6.5614125729
 10
-10.5666598427
 20
-6.5584851044
 10
-10.5660938416
 20
-6.5554991066
 10
-10.5656819148
 20
-6.5528933286
 10
-10.5653386386
 20
-6.5502391645
 10
-10.5650656082
 20
-6.5475296641
 10
-10.564864419
 20
-6.5447578769
 10
-10.5647366661
 20
-6.5419168526
 10
-10.5646839449
 20
-6.5389996407
 10
-10.5647078506
 20
-6.5359992909
  0
LWPOLYLINE
  5
24E
100
AcDbEntity
  8
CURVE
100
AcDbPolyline
 62
253
  6
CONTINUOUS
 90
75
 70
0
 10
-11.4085614744
 20
-6.6514006172
 10
-11.405913715
 20
-6.6528878429
 10
-11.4033318403
 20
-6.6542548992
 10
-11.4007905188
 20
-6.655517892
 10
-11.3982644188
 20
-6.656692927
 10
-11.3948895917
 20
-6.6581426826
 10
-11.3915172123
 20
-6.6594550479
 10
-11.3881677015
 20
-6.6606203695
 10
-11.3856806328
 20
-6.6613931969
 10
-11.3832131638
 20
-6.6620806552
 10
-11.3807620818
 20
-6.6626848735
 10
-11.3783303263
 20
-6.6632054054
 10
-11.3751229605
 20
-6.6637675446
 10
-11.3719515616
 20
-6.6641773449
 10
-11.3688097778
 20
-6.6644331815
 10
-11.3656932757
 20
-6.6645323951
 10
-11.3626057947
 20
-6.6644681874
 10
-11.3595530924
 20
-6.6642327254
 10
-11.3565431297
 20
-6.6638199762
 10
-11.3535926814
 20
-6.663231107
 10
-11.3507207256
 20
-6.6624690851
 10
-11.3479434286
 20
-6.6615367116
 10
-11.3452657095
 20
-6.6604361238
 10
-11.3426896756
 20
-6.6591692929
 10
-11.340217434
 20
-6.6577381901
 10
-11.3378510922
 20
-6.6561447865
 10
-11.3355927573
 20
-6.6543910534
 10
-11.3334446188
 20
-6.6524790871
 10
-11.3314091944
 20
-6.6504114844
 10
-11.329489084
 20
-6.6481909671
 10
-11.3276868876
 20
-6.6458202571
 10
-11.326005205
 20
-6.6433020762
 10
-11.3244466361
 20
-6.6406391463
 10
-11.3230133606
 20
-6.6378350977
 10
-11.3217058775
 20
-6.6348971949
 10
-11.3205242656
 20
-6.6318336107
 10
-11.3194686035
 20
-6.6286525179
 10
-11.3185389701
 20
-6.6253620893
 10
-11.317735444
 20
-6.6219704979
 10
-11.3170580258
 20
-6.6184852082
 10
-11.3165064021
 20
-6.614910852
 10
-11.3160801813
 20
-6.6112513527
 10
-11.3157789719
 20
-6.6075106337
 10
-11.3156023822
 20
-6.6036926186
 10
-11.3155500206
 20
-6.5998012307
 10
-11.3156216992
 20
-6.5958405563
 10
-11.315818045
 20
-6.5918153324
 10
-11.316139889
 20
-6.5877304588
 10
-11.316588062
 20
-6.5835908353
 10
-11.3171633948
 20
-6.5794013617
 10
-11.3178667181
 20
-6.5751669377
 10
-11.3186982661
 20
-6.5708926233
 10
-11.3196558851
 20
-6.5665841189
 10
-11.320736825
 20
-6.5622472853
 10
-11.3219383354
 20
-6.5578879829
 10
-11.323257666
 20
-6.5535120725
 10
-11.3246920665
 20
-6.5491254147
 10
-11.3262381957
 20
-6.5447345623
 10
-11.3278903488
 20
-6.5403488374
 10
-11.3296422302
 20
-6.5359782543
 10
-11.3314875443
 20
-6.5316328272
 10
-11.3334199954
 20
-6.5273225704
 10
-11.3354332879
 20
-6.5230574982
 10
-11.3375217345
 20
-6.5188462042
 10
-11.3396820815
 20
-6.5146915994
 10
-11.3419116836
 20
-6.5105951741
 10
-11.3442078953
 20
-6.5065584185
 10
-11.3465680713
 20
-6.5025828231
 10
-11.3489895664
 20
-6.498669878
 10
-11.3514720128
 20
-6.4948193403
 10
-11.3540241537
 20
-6.4910240339
 10
-11.3566570099
 20
-6.4872750493
 10
-11.3593816024
 20
-6.4835634772
 10
-11.3622089519
 20
-6.479880408
 10
-11.3651500793
 20
-6.4762169325
  0
LWPOLYLINE
  5
24F
100
AcDbEntity
  8
CURVE
100
AcDbPolyline
 62
253
  6
CONTINUOUS
 90
29
 70
0
 10
-11.6683113272
 20
-7.6765017662
 10
-11.6665084342
 20
-7.6775224893
 10
-11.6647150812
 20
-7.6784975872
 10
-11.6629312016
 20
-7.6794276568
 10
-11.6611567286
 20
-7.680313295
 10
-11.6593915958
 20
-7.6811550988
 10
-11.6576357365
 20
-7.6819536652
 10
-11.6558890841
 20
-7.6827095911
 10
-11.6541515721
 20
-7.6834234734
 10
-11.6524231337
 20
-7.6840959091
 10
-11.6507037024
 20
-7.6847274952
 10
-11.6489932116
 20
-7.6853188286
 10
-11.6472915947
 20
-7.6858705062
 10
-11.6455987851
 20
-7.6863831251
 10
-11.6439147161
 20
-7.686857282
 10
-11.6422393596
 20
-7.6872933839
 10
-11.6405728406
 20
-7.6876910765
 10
-11.6389153226
 20
-7.6880498157
 10
-11.637266969
 20
-7.688369057
 10
-11.6356279435
 20
-7.6886482562
 10
-11.6339984093
 20
-7.6888868691
 10
-11.6323785301
 20
-7.6890843512
 10
-11.6307684692
 20
-7.6892401582
 10
-11.6291683901
 20
-7.689353746
 10
-11.6275784564
 20
-7.6894245701
 10
-11.6259988314
 20
-7.6894520863
 10
-11.6244296787
 20
-7.6894357503
 10
-11.6228711618
 20
-7.6893750178
 10
-11.621323444
 20
-7.6892693444
  0
LWPOLYLINE
  5
250
100
AcDbEntity
  8
CURVE
100
AcDbPolyline
 62
253
  6
CONTINUOUS
 90
29
 70
0
 10
-9.8854363213
 20
-7.5308339914
 10
-9.8836027901
 20
-7.5318719265
 10
-9.8817802762
 20
-7.5328625114
 10
-9.879968741
 20
-7.5338064538
 10
-9.8781681457
 20
-7.5347044614
 10
-9.8763784517
 20
-7.5355572417
 10
-9.8745996204
 20
-7.5363655024
 10
-9.8728316129
 20
-7.5371299512
 10
-9.8710743906
 20
-7.5378512957
 10
-9.8693279149
 20
-7.5385302434
 10
-9.867592147
 20
-7.5391675022
 10
-9.8658670483
 20
-7.5397637795
 10
-9.8641525801
 20
-7.540319783
 10
-9.8624487037
 20
-7.5408362205
 10
-9.8607553804
 20
-7.5413137994
 10
-9.8590725891
 20
-7.5417530478
 10
-9.8574003792
 20
-7.5421537751
 10
-9.8557388175
 20
-7.5425156111
 10
-9.854087971
 20
-7.5428381857
 10
-9.8524479065
 20
-7.5431211284
 10
-9.850818691
 20
-7.5433640693
 10
-9.8492003913
 20
-7.5435666379
 10
-9.8475930745
 20
-7.5437284642
 10
-9.8459968074
 20
-7.5438491778
 10
-9.8444116568
 20
-7.5439284087
 10
-9.8428376898
 20
-7.5439657864
 10
-9.8412749733
 20
-7.5439609409
 10
-9.839723574
 20
-7.5439135019
 10
-9.838183559
 20
-7.5438230993
  0
LWPOLYLINE
  5
251
100
AcDbEntity
  8
CURVE
100
AcDbPolyline
 62
253
  6
CONTINUOUS
 90
85
 70
0
 10
-11.6571327539
 20
-6.1202646352
 10
-11.6604375337
 20
-6.1163273989
 10
-11.6637352475
 20
-6.1125779758
 10
-11.6670344711
 20
-6.1090004133
 10
-11.6703437805
 20
-6.1055787587
 10
-11.6736717513
 20
-6.1022970593
 10
-11.6770269595
 20
-6.0991393624
 10
-11.6804161117
 20
-6.0960933108
 10
-11.6838384381
 20
-6.0931609293
 10
-11.6872912993
 20
-6.090347838
 10
-11.6907720564
 20
-6.0876596572
 10
-11.6942780702
 20
-6.0851020071
 10
-11.6978067015
 20
-6.082680508
 10
-11.7013544698
 20
-6.0804005478
 10
-11.704914529
 20
-6.078266586
 10
-11.7084791915
 20
-6.0762828498
 10
-11.7120407698
 20
-6.0744535666
 10
-11.7155915762
 20
-6.0727829637
 10
-11.7191239233
 20
-6.0712752682
 10
-11.7226308029
 20
-6.0699339896
 10
-11.7261079248
 20
-6.0687597659
 10
-11.7295516784
 20
-6.067752517
 10
-11.7329584528
 20
-6.0669121631
 10
-11.7363246373
 20
-6.0662386242
 10
-11.7396466212
 20
-6.0657318203
 10
-11.7429205571
 20
-6.0653917515
 10
-11.7461416514
 20
-6.0652187382
 10
-11.7493048735
 20
-6.0652131805
 10
-11.7524051931
 20
-6.0653754789
 10
-11.7554375799
 20
-6.0657060335
 10
-11.7583970034
 20
-6.0662052447
 10
-11.7612786611
 20
-6.0668733241
 10
-11.7640786615
 20
-6.0677097285
 10
-11.7667933412
 20
-6.068713726
 10
-11.7694190364
 20
-6.0698845847
 10
-11.7719520838
 20
-6.0712215728
 10
-11.7743888195
 20
-6.0727239585
 10
-11.7767254234
 20
-6.0743909053
 10
-11.7789574478
 20
-6.0762211598
 10
-11.7810802884
 20
-6.0782133637
 10
-11.7830893409
 20
-6.080366159
 10
-11.784980001
 20
-6.0826781877
 10
-11.7867476642
 20
-6.0851480917
 10
-11.7883884121
 20
-6.0877735398
 10
-11.7899010688
 20
-6.0905483094
 10
-11.7912851446
 20
-6.0934652045
 10
-11.7925401493
 20
-6.0965170293
 10
-11.7936655931
 20
-6.0996965879
 10
-11.7946609859
 20
-6.1029966846
 10
-11.7955259337
 20
-6.1064104886
 10
-11.796260425
 20
-6.1099326293
 10
-11.7968645443
 20
-6.1135581011
 10
-11.7973383762
 20
-6.1172818985
 10
-11.797682005
 20
-6.1210990159
 10
-11.7978955152
 20
-6.1250044478
 10
-11.7979787353
 20
-6.1289933282
 10
-11.7979304696
 20
-6.1330613494
 10
-11.7977492667
 20
-6.1372043429
 10
-11.797433675
 20
-6.1414181407
 10
-11.7969822429
 20
-6.1456985743
 10
-11.7963935188
 20
-6.1500414755
 10
-11.7956665974
 20
-6.1544421332
 10
-11.7948027574
 20
-6.1588936645
 10
-11.7938038238
 20
-6.1633886435
 10
-11.7926716216
 20
-6.1679196444
 10
-11.7914079758
 20
-6.1724792414
 10
-11.7900147112
 20
-6.1770600087
 10
-11.7884946139
 20
-6.1816537148
 10
-11.7868543137
 20
-6.1862489056
 10
-11.7851014013
 20
-6.1908333212
 10
-11.7832434676
 20
-6.1953947018
 10
-11.7812881033
 20
-6.1999207876
 10
-11.7792428993
 20
-6.2043993188
 10
-11.7771146347
 20
-6.2088198995
 10
-11.7749068419
 20
-6.2131795899
 10
-11.7726222418
 20
-6.2174773144
 10
-11.7702635551
 20
-6.221711997
 10
-11.7678335027
 20
-6.225882562
 10
-11.7653348052
 20
-6.2299879336
 10
-11.7627676647
 20
-6.2340288267
 10
-11.7601222073
 20
-6.238013119
 10
-11.7573860404
 20
-6.2419504787
 10
-11.7545467711
 20
-6.2458505743
 10
-11.7515920069
 20
-6.249723074
 10
-11.748509355
 20
-6.2535776462
  0
LWPOLYLINE
  5
252
100
AcDbEntity
  8
CURVE
100
AcDbPolyline
 62
253
  6
CONTINUOUS
 90
29
 70
0
 10
-9.6181775866
 20
-8.8458606572
 10
-9.616542801
 20
-8.8478121336
 10
-9.6149009893
 20
-8.8497279434
 10
-9.6132523291
 20
-8.8516084726
 10
-9.6115969979
 20
-8.8534541078
 10
-9.6099351733
 20
-8.855265235
 10
-9.608267033
 20
-8.8570422406
 10
-9.6065927544
 20
-8.8587855109
 10
-9.6049125152
 20
-8.8604954322
 10
-9.6032264929
 20
-8.8621723908
 10
-9.6015348651
 20
-8.863816773
 10
-9.5998378093
 20
-8.865428965
 10
-9.5981355033
 20
-8.8670093532
 10
-9.5964281244
 20
-8.8685583238
 10
-9.5947158503
 20
-8.8700762631
 10
-9.5929988203
 20
-8.871563421
 10
-9.59127702
 20
-8.8730195014
 10
-9.589550397
 20
-8.8744440717
 10
-9.5878188987
 20
-8.8758366994
 10
-9.5860824725
 20
-8.8771969519
 10
-9.5843410659
 20
-8.8785243967
 10
-9.5825946262
 20
-8.8798186013
 10
-9.580843101
 20
-8.8810791331
 10
-9.5790864376
 20
-8.8823055596
 10
-9.5773245835
 20
-8.8834974482
 10
-9.5755574862
 20
-8.8846543664
 10
-9.573785093
 20
-8.8857758816
 10
-9.5720073515
 20
-8.8868615613
 10
-9.570224209
 20
-8.887910973
  0
LWPOLYLINE
  5
253
100
AcDbEntity
  8
CURVE
100
AcDbPolyline
 62
253
  6
CONTINUOUS
 90
29
 70
0
 10
-11.4566776168
 20
-6.6092125822
 10
-11.4550376961
 20
-6.6111703629
 10
-11.4533906952
 20
-6.6130923701
 10
-11.4517367923
 20
-6.6149789901
 10
-11.4500761656
 20
-6.6168306089
 10
-11.4484089936
 20
-6.6186476124
 10
-11.4467354543
 20
-6.6204303867
 10
-11.4450557263
 20
-6.6221793179
 10
-11.4433699876
 20
-6.623894792
 10
-11.4416784167
 20
-6.625577195
 10
-11.4399811918
 20
-6.6272269129
 10
-11.4382784911
 20
-6.6288443319
 10
-11.4365704931
 20
-6.6304298378
 10
-11.4348573759
 20
-6.6319838168
 10
-11.4331393178
 20
-6.6335066549
 10
-11.4314164585
 20
-6.6349986025
 10
-11.429688783
 20
-6.6364593675
 10
-11.4279562376
 20
-6.6378885222
 10
-11.4262187686
 20
-6.6392856389
 10
-11.4244763223
 20
-6.6406502899
 10
-11.4227288451
 20
-6.6419820474
 10
-11.4209762834
 20
-6.6432804837
 10
-11.4192185833
 20
-6.6445451711
 10
-11.4174556914
 20
-6.645775682
 10
-11.4156875539
 20
-6.6469715885
 10
-11.4139141171
 20
-6.648132463
 10
-11.4121353273
 20
-6.6492578778
 10
-11.410351131
 20
-6.6503474051
 10
-11.4085614744
 20
-6.6514006172
  0
LWPOLYLINE
  5
254
100
AcDbEntity
  8
CURVE
100
AcDbPolyline
 62
253
  6
CONTINUOUS
 90
85
 70
0
 10
-9.8196094145
 20
-8.3576494586
 10
-9.8220022186
 20
-8.3547826508
 10
-9.8243677848
 20
-8.3520394853
 10
-9.8267296638
 20
-8.349390595
 10
-9.8291114062
 20
-8.3468066127
 10
-9.8323462313
 20
-8.343426935
 10
-9.8356394516
 20
-8.3401333601
 10
-9.8389722816
 20
-8.3369488068
 10
-9.8414887287
 20
-8.334643322
 10
-9.8440217526
 20
-8.3324073072
 10
-9.8465746311
 20
-8.3302375854
 10
-9.8491443011
 20
-8.3281372562
 10
-9.8525920557
 20
-8.3254507392
 10
-9.8560710315
 20
-8.3228944036
 10
-9.8595908621
 20
-8.3204667658
 10
-9.8631587074
 20
-8.3181684597
 10
-9.866771832
 20
-8.3160085891
 10
-9.8704250268
 20
-8.313998375
 10
-9.8741110776
 20
-8.3121484129
 10
-9.87781475
 20
-8.3104667956
 10
-9.8815188042
 20
-8.3089609903
 10
-9.885205691
 20
-8.3076372694
 10
-9.8888566222
 20
-8.3064971266
 10
-9.8924525001
 20
-8.3055408608
 10
-9.8959788351
 20
-8.3047678368
 10
-9.89943957
 20
-8.3041736834
 10
-9.902843256
 20
-8.3037530951
 10
-9.9061960803
 20
-8.3035015176
 10
-9.9094947756
 20
-8.3034173997
 10
-9.912733711
 20
-8.3034999415
 10
-9.9159072554
 20
-8.3037483428
 10
-9.9190097778
 20
-8.3041618036
 10
-9.9220356473
 20
-8.3047395236
 10
-9.9249796121
 20
-8.3054811616
 10
-9.9278379373
 20
-8.3063882102
 10
-9.9306072674
 20
-8.3074626212
 10
-9.9332842468
 20
-8.3087063459
 10
-9.9358655197
 20
-8.310121336
 10
-9.9383477307
 20
-8.3117095428
 10
-9.9407268058
 20
-8.313472327
 10
-9.9429957982
 20
-8.3154086849
 10
-9.9451470426
 20
-8.3175170221
 10
-9.947172874
 20
-8.3197957439
 10
-9.9490656271
 20
-8.3222432559
 10
-9.9508176369
 20
-8.3248579634
 10
-9.9524226721
 20
-8.327636733
 10
-9.9538802367
 20
-8.330570275
 10
-9.9551912688
 20
-8.333647761
 10
-9.9563567064
 20
-8.3368583624
 10
-9.9573774875
 20
-8.3401912506
 10
-9.9582545501
 20
-8.3436355972
 10
-9.9589889413
 20
-8.3471816766
 10
-9.9595821448
 20
-8.3508241757
 10
-9.9600357533
 20
-8.3545588844
 10
-9.9603513596
 20
-8.3583815927
 10
-9.9605305566
 20
-8.3622880904
 10
-9.9605749369
 20
-8.3662741674
 10
-9.9604859122
 20
-8.3703351792
 10
-9.9602641687
 20
-8.3744647428
 10
-9.9599102114
 20
-8.3786560405
 10
-9.9594245456
 20
-8.3829022549
 10
-9.9588076761
 20
-8.3871965683
 10
-9.9580601081
 20
-8.3915321633
 10
-9.9571827933
 20
-8.3959023785
 10
-9.9561784698
 20
-8.4003011767
 10
-9.9550503227
 20
-8.4047226773
 10
-9.9538015369
 20
-8.4091609994
 10
-9.9524352971
 20
-8.4136102621
 10
-9.9509547883
 20
-8.4180645846
 10
-9.9490329831
 20
-8.4234065742
 10
-9.9469636567
 20
-8.428727643
 10
-9.9447592491
 20
-8.4340080527
 10
-9.9424322003
 20
-8.4392280649
 10
-9.9399949502
 20
-8.444367941
 10
-9.9374585977
 20
-8.4494111347
 10
-9.9348288774
 20
-8.4543538667
 10
-9.9321101829
 20
-8.4591955498
 10
-9.9293069077
 20
-8.4639355967
 10
-9.9264234454
 20
-8.4685734202
 10
-9.9239602515
 20
-8.4723613514
 10
-9.9214336201
 20
-8.4760870822
 10
-9.9188327481
 20
-8.4797598088
 10
-9.9161468323
 20
-8.4833887271
 10
-9.9133650697
 20
-8.4869830331
 10
-9.9104766572
 20
-8.4905519229
  0
LWPOLYLINE
  5
255
100
AcDbEntity
  8
ASSI
100
AcDbPolyline
 62
253
  6
CONTINUOUS
 90
3
 70
0
 10
-9.7445912706
 20
-1.0541309116
 10
-9.7408344166
 20
-1.0986384238
 10
-9.7384616211
 20
-1.1423682532
  0
LWPOLYLINE
  5
256
100
AcDbEntity
  8
ASSI
100
AcDbPolyline
 62
253
  6
CONTINUOUS
 90
3
 70
0
 10
-9.7426248582
 20
6.296718266
 10
-9.7395235844
 20
6.2518294595
 10
-9.7378062598
 20
6.2077173814
  0
LWPOLYLINE
  5
257
100
AcDbEntity
  8
CURVE
100
AcDbPolyline
 62
253
  6
CONTINUOUS
 90
85
 70
0
 10
-10.5189717991
 20
-8.5399334525
 10
-10.5191372161
 20
-8.535936836
 10
-10.5194308367
 20
-8.5319419457
 10
-10.5198492849
 20
-8.5279372276
 10
-10.5203891845
 20
-8.5239111278
 10
-10.5210471594
 20
-8.5198520925
 10
-10.5218198334
 20
-8.5157485677
 10
-10.5227047137
 20
-8.511591182
 10
-10.5237028402
 20
-8.5073792944
 10
-10.5248161361
 20
-8.5031144462
 10
-10.5260465248
 20
-8.4987981789
 10
-10.5273959294
 20
-8.4944320339
 10
-10.5288662732
 20
-8.4900175525
 10
-10.5304587676
 20
-8.4855580775
 10
-10.5321717764
 20
-8.4810641562
 10
-10.5340029516
 20
-8.4765481373
 10
-10.5359499453
 20
-8.4720223693
 10
-10.5380104093
 20
-8.4674992007
 10
-10.5401819958
 20
-8.4629909804
 10
-10.5424623707
 20
-8.4585090068
 10
-10.5448492555
 20
-8.4540603796
 10
-10.5473403858
 20
-8.4496511483
 10
-10.5499334972
 20
-8.4452873624
 10
-10.5526263252
 20
-8.4409750716
 10
-10.5554166054
 20
-8.4367203253
 10
-10.5583015082
 20
-8.4325291627
 10
-10.5612759444
 20
-8.4284075807
 10
-10.5643342593
 20
-8.4243615659
 10
-10.5674707986
 20
-8.4203971047
 10
-10.5706799077
 20
-8.4165201836
 10
-10.5739559322
 20
-8.412736789
 10
-10.5772935905
 20
-8.4090526744
 10
-10.5806890923
 20
-8.4054726609
 10
-10.5841390202
 20
-8.4020013365
 10
-10.5876399567
 20
-8.3986432892
 10
-10.5911884846
 20
-8.3954031072
 10
-10.5947811863
 20
-8.3922853785
 10
-10.5984139801
 20
-8.3892952227
 10
-10.6020801262
 20
-8.3864398857
 10
-10.6057722207
 20
-8.3837271453
 10
-10.6094828595
 20
-8.3811647789
 10
-10.6132046386
 20
-8.3787605641
 10
-10.6169301539
 20
-8.3765222785
 10
-10.6206520689
 20
-8.3744565531
 10
-10.6243633174
 20
-8.3725654325
 10
-10.6280569007
 20
-8.3708498144
 10
-10.63172582
 20
-8.3693105968
 10
-10.6353630766
 20
-8.3679486777
 10
-10.6389616719
 20
-8.3667649548
 10
-10.6425151292
 20
-8.3657600895
 10
-10.6460190603
 20
-8.364933796
 10
-10.6494695993
 20
-8.3642855518
 10
-10.6528628799
 20
-8.3638148345
 10
-10.6561950361
 20
-8.3635211218
 10
-10.6594622018
 20
-8.3634038911
 10
-10.6626603414
 20
-8.3634629262
 10
-10.6657847404
 20
-8.3636992353
 10
-10.6688305148
 20
-8.3641141328
 10
-10.6717927808
 20
-8.3647089332
 10
-10.6746666543
 20
-8.3654849508
 10
-10.6774472513
 20
-8.3664435
 10
-10.6801298896
 20
-8.3675850006
 10
-10.6827106938
 20
-8.3689062943
 10
-10.6851859904
 20
-8.3704033282
 10
-10.6875521058
 20
-8.3720720492
 10
-10.6898053663
 20
-8.3739084046
 10
-10.6919420984
 20
-8.3759083413
 10
-10.6939589515
 20
-8.3780663035
 10
-10.6958538677
 20
-8.3803707243
 10
-10.6976251122
 20
-8.3828085336
 10
-10.6992709499
 20
-8.3853666616
 10
-10.7007896461
 20
-8.3880320383
 10
-10.7021794658
 20
-8.3907915939
 10
-10.7034395864
 20
-8.3936338379
 10
-10.7045728344
 20
-8.3965535983
 10
-10.7055829483
 20
-8.3995472824
 10
-10.7064736668
 20
-8.4026112975
 10
-10.7072487284
 20
-8.4057420512
 10
-10.707911872
 20
-8.4089359508
 10
-10.7084656929
 20
-8.4121926396
 10
-10.708908214
 20
-8.4155247046
 10
-10.709236315
 20
-8.4189479687
 10
-10.7094468757
 20
-8.422478255
 10
-10.7095367758
 20
-8.4261313864
 10
-10.709502895
 20
-8.4299231857
  0
LWPOLYLINE
  5
258
100
AcDbEntity
  8
CURVE
100
AcDbPolyline
 62
253
  6
CONTINUOUS
 90
55
 70
0
 10
-10.6998747842
 20
-8.8081098279
 10
-10.699743324
 20
-8.8114279179
 10
-10.6995210056
 20
-8.8147683317
 10
-10.6992089937
 20
-8.8181386124
 10
-10.6988084528
 20
-8.8215463027
 10
-10.6983205476
 20
-8.8249989456
 10
-10.6977460985
 20
-8.8285026218
 10
-10.6970845499
 20
-8.8320575627
 10
-10.6963350018
 20
-8.8356625376
 10
-10.6954965545
 20
-8.8393163155
 10
-10.6945683081
 20
-8.8430176657
 10
-10.6935495242
 20
-8.8467646926
 10
-10.6924401102
 20
-8.8505528407
 10
-10.6912401349
 20
-8.8543768899
 10
-10.6899496671
 20
-8.85823162
 10
-10.6885687756
 20
-8.8621118109
 10
-10.6873496581
 20
-8.8653597419
 10
-10.6860717302
 20
-8.8686112411
 10
-10.6847389282
 20
-8.8718558211
 10
-10.6833539011
 20
-8.8750858897
 10
-10.6819141505
 20
-8.8783054369
 10
-10.6804158911
 20
-8.8815213482
 10
-10.6788562213
 20
-8.8847384516
 10
-10.677235775
 20
-8.8879533447
 10
-10.6755560698
 20
-8.8911605675
 10
-10.6738186233
 20
-8.8943546602
 10
-10.6720249533
 20
-8.8975301626
 10
-10.6701765773
 20
-8.900681615
 10
-10.6682754034
 20
-8.903803835
 10
-10.6663248999
 20
-8.9068927518
 10
-10.6643289258
 20
-8.9099445723
 10
-10.6622913398
 20
-8.9129555033
 10
-10.6602160006
 20
-8.9159217517
 10
-10.6581067671
 20
-8.9188395244
 10
-10.6559661213
 20
-8.9217067422
 10
-10.6537910384
 20
-8.9245281818
 10
-10.6515771172
 20
-8.9273103337
 10
-10.6493220594
 20
-8.9300570083
 10
-10.6470319802
 20
-8.9327612959
 10
-10.6447150979
 20
-8.9354136067
 10
-10.6419095271
 20
-8.9385165278
 10
-10.6390823734
 20
-8.9415277809
 10
-10.636238816
 20
-8.9444443542
 10
-10.6333840338
 20
-8.9472632355
 10
-10.630523206
 20
-8.9499814129
 10
-10.6276608564
 20
-8.9525964693
 10
-10.6247988886
 20
-8.9551083666
 10
-10.621938551
 20
-8.957517662
 10
-10.6190810921
 20
-8.9598249123
 10
-10.6162277603
 20
-8.9620306746
 10
-10.6133783665
 20
-8.9641358558
 10
-10.6105269717
 20
-8.9661427635
 10
-10.6076661993
 20
-8.968054055
 10
-10.6047886728
 20
-8.9698723877
 10
-10.6018870156
 20
-8.9716004191
  0
LWPOLYLINE
  5
259
100
AcDbEntity
  8
CURVE
100
AcDbPolyline
 62
253
  6
CONTINUOUS
 90
85
 70
0
 10
-10.5723714651
 20
-6.1565343569
 10
-10.5725163415
 20
-6.1525244852
 10
-10.5727898582
 20
-6.1485165808
 10
-10.5731885665
 20
-6.1444990502
 10
-10.5737090175
 20
-6.1404603
 10
-10.5743477623
 20
-6.1363887367
 10
-10.5751013521
 20
-6.1322727668
 10
-10.5759672356
 20
-6.1281029872
 10
-10.5769464519
 20
-6.123878756
 10
-10.5780409377
 20
-6.1196016218
 10
-10.5792526295
 20
-6.115273133
 10
-10.5805834639
 20
-6.1108948381
 10
-10.5820353776
 20
-6.1064682856
 10
-10.5836096024
 20
-6.1019968301
 10
-10.5853045505
 20
-6.0974910507
 10
-10.5871179295
 20
-6.0929633329
 10
-10.5890474468
 20
-6.0884260619
 10
-10.5910908098
 20
-6.0838916231
 10
-10.5932457261
 20
-6.0793724018
 10
-10.5955099094
 20
-6.0748797313
 10
-10.5978810989
 20
-6.0704207367
 10
-10.6003570402
 20
-6.0660014912
 10
-10.6029354785
 20
-6.0616280679
 10
-10.6056141596
 20
-6.0573065399
 10
-10.6083908288
 20
-6.0530429802
 10
-10.6112626684
 20
-6.0488434476
 10
-10.6142246073
 20
-6.0447139423
 10
-10.6172710114
 20
-6.0406604502
 10
-10.6203962463
 20
-6.0366889571
 10
-10.6235946778
 20
-6.0328054489
 10
-10.6268606716
 20
-6.0290159113
 10
-10.6301889664
 20
-6.025326099
 10
-10.6335757928
 20
-6.0217408421
 10
-10.6370177541
 20
-6.0182647394
 10
-10.6405114538
 20
-6.0149023898
 10
-10.6440534953
 20
-6.0116583921
 10
-10.6476404821
 20
-6.0085373453
 10
-10.6512683524
 20
-6.005544382
 10
-10.6549303834
 20
-6.0026867695
 10
-10.6586191868
 20
-5.999972309
 10
-10.6623273746
 20
-5.9974088017
 10
-10.6660475586
 20
-5.9950040488
 10
-10.6697723508
 20
-5.9927658514
 10
-10.6734944245
 20
-5.9907008563
 10
-10.6772066995
 20
-5.9888110925
 10
-10.6809021573
 20
-5.9870974348
 10
-10.6845737792
 20
-5.9855607577
 10
-10.6882145465
 20
-5.9842019361
 10
-10.6918174407
 20
-5.9830218444
 10
-10.6953759679
 20
-5.9820211209
 10
-10.6988857339
 20
-5.9811994579
 10
-10.7023428693
 20
-5.980556311
 10
-10.7057435046
 20
-5.980091136
 10
-10.7090837704
 20
-5.9798033887
 10
-10.7123597973
 20
-5.9796925248
 10
-10.7155675462
 20
-5.9797583086
 10
-10.7187022994
 20
-5.980001739
 10
-10.7217591694
 20
-5.9804241235
 10
-10.7247332688
 20
-5.9810267695
 10
-10.7276197103
 20
-5.9818109844
 10
-10.7304136064
 20
-5.9827780758
 10
-10.7331102654
 20
-5.9839284556
 10
-10.7357057789
 20
-5.9852589535
 10
-10.7381964339
 20
-5.9867655038
 10
-10.7405785176
 20
-5.9884440405
 10
-10.7428483172
 20
-5.990290498
 10
-10.7450021199
 20
-5.9923008104
 10
-10.7470365299
 20
-5.9944694054
 10
-10.7489494198
 20
-5.9967846852
 10
-10.7507389789
 20
-5.9992335452
 10
-10.752403397
 20
-6.0018028811
 10
-10.7539408635
 20
-6.0044795884
 10
-10.7553495679
 20
-6.0072505628
 10
-10.7566286228
 20
-6.0101042846
 10
-10.7577808324
 20
-6.0130355736
 10
-10.758809924
 20
-6.0160408343
 10
-10.7597196247
 20
-6.0191164713
 10
-10.7605136618
 20
-6.0222588891
 10
-10.7611957625
 20
-6.0254644923
 10
-10.7617685249
 20
-6.0287329282
 10
-10.7622300314
 20
-6.0320768149
 10
-10.762577235
 20
-6.0355120135
 10
-10.762807089
 20
-6.0390543849
 10
-10.7629165466
 20
-6.0427197901
 10
-10.762902561
 20
-6.04652409
  0
LWPOLYLINE
  5
25A
100
AcDbEntity
  8
CURVE
100
AcDbPolyline
 62
253
  6
CONTINUOUS
 90
54
 70
0
 10
-10.7552389465
 20
-6.4259890241
 10
-10.7551389679
 20
-6.4290187339
 10
-10.7549647833
 20
-6.4320529001
 10
-10.7547176957
 20
-6.4350967237
 10
-10.754399008
 20
-6.4381554059
 10
-10.7540100231
 20
-6.4412341479
 10
-10.753552044
 20
-6.4443381508
 10
-10.7530263736
 20
-6.4474726157
 10
-10.7523286176
 20
-6.4511735323
 10
-10.7515386225
 20
-6.4549228575
 10
-10.7506545111
 20
-6.4587204581
 10
-10.7496744061
 20
-6.4625662011
 10
-10.7485964305
 20
-6.4664599534
 10
-10.7474187071
 20
-6.4704015821
 10
-10.7461400109
 20
-6.4743892894
 10
-10.744761726
 20
-6.478414619
 10
-10.7432858886
 20
-6.4824674501
 10
-10.7417145351
 20
-6.4865376618
 10
-10.7400497017
 20
-6.4906151331
 10
-10.7382934248
 20
-6.4946897432
 10
-10.7367166955
 20
-6.4981728808
 10
-10.7350748958
 20
-6.5016434903
 10
-10.7333686423
 20
-6.5050985812
 10
-10.7315985516
 20
-6.5085351633
 10
-10.7297652403
 20
-6.5119502461
 10
-10.7278693251
 20
-6.5153408394
 10
-10.7259114225
 20
-6.5187039528
 10
-10.7238925083
 20
-6.522036578
 10
-10.7218149958
 20
-6.5253356344
 10
-10.719681657
 20
-6.5285980233
 10
-10.7174952645
 20
-6.5318206461
 10
-10.7152585905
 20
-6.5350004043
 10
-10.7129744073
 20
-6.5381341991
 10
-10.7106454873
 20
-6.5412189319
 10
-10.7082750465
 20
-6.5442512679
 10
-10.7058680764
 20
-6.5472269274
 10
-10.7034300119
 20
-6.5501413944
 10
-10.7009662883
 20
-6.5529901529
 10
-10.6984823406
 20
-6.555768687
 10
-10.695983604
 20
-6.5584724808
 10
-10.6934755135
 20
-6.5610970182
 10
-10.6905435201
 20
-6.5640543081
 10
-10.6876069233
 20
-6.566899557
 10
-10.6846664534
 20
-6.5696347469
 10
-10.6817228409
 20
-6.5722618603
 10
-10.6787768161
 20
-6.5747828794
 10
-10.6758291094
 20
-6.5771997864
 10
-10.6733007598
 20
-6.5791900854
 10
-10.6707664183
 20
-6.5811067578
 10
-10.6682207917
 20
-6.582951211
 10
-10.6656585872
 20
-6.5847248525
 10
-10.6630745117
 20
-6.5864290898
 10
-10.6604632724
 20
-6.5880653304
 10
-10.6578195762
 20
-6.5896349817
  0
LINE
  5
25B
100
AcDbEntity
  8
CURVE
100
AcDbLine
 62
253
  6
CONTINUOUS
 10
-10.709502895
 20
-8.4299231857
 11
-10.6998747845
 21
-8.8081098163
  0
LINE
  5
25C
100
AcDbEntity
  8
CURVE
100
AcDbLine
 62
253
  6
CONTINUOUS
 10
-10.5093436884
 20
-8.9181200948
 11
-10.5189717988
 21
-8.5399334642
  0
LINE
  5
25D
100
AcDbEntity
  8
ASSI
100
AcDbLine
 62
253
  6
CONTINUOUS
 10
-9.7384616211
 20
-1.1423682532
 11
-9.7374728771
 21
-1.1853203954
  0
LINE
  5
25E
100
AcDbEntity
  8
CURVE
100
AcDbLine
 62
253
  6
CONTINUOUS
 10
-10.762902561
 20
-6.04652409
 11
-10.7552389465
 21
-6.4259890223
  0
LINE
  5
25F
100
AcDbEntity
  8
CURVE
100
AcDbLine
 62
253
  6
CONTINUOUS
 10
-10.5647078506
 20
-6.5359992909
 11
-10.5723714651
 21
-6.1565343586
  0
LINE
  5
260
100
AcDbEntity
  8
ASSI
100
AcDbLine
 62
7
  6
CONTINUOUS
 10
-9.7673940014
 20
-1.1132168333
 11
-9.7667627489
 21
-1.1444727753
  0
LINE
  5
261
100
AcDbEntity
  8
ASSI
100
AcDbLine
 62
253
  6
CONTINUOUS
 10
-9.7378062598
 20
6.2077173814
 11
-9.7374728771
 21
6.1643820363
  0
LWPOLYLINE
  5
262
100
AcDbEntity
  8
CURVE
100
AcDbPolyline
 62
253
  6
CONTINUOUS
 90
81
 70
0
 10
-10.2869451875
 20
-7.6862065943
 10
-10.286854944
 20
-7.7019602646
 10
-10.287309862
 20
-7.7171668517
 10
-10.2882998083
 20
-7.7318814208
 10
-10.28981465
 20
-7.7461590368
 10
-10.2918467782
 20
-7.7600435946
 10
-10.2943986806
 20
-7.7735343077
 10
-10.2974753691
 20
-7.7866192193
 10
-10.3010818555
 20
-7.7992863727
 10
-10.3052206616
 20
-7.811520012
 10
-10.3098843481
 20
-7.8232891838
 10
-10.3150629861
 20
-7.8345591358
 10
-10.3207466463
 20
-7.8452951155
 10
-10.3269247124
 20
-7.855465734
 10
-10.3335838196
 20
-7.8650530578
 10
-10.3407099162
 20
-7.874042517
 10
-10.3482889504
 20
-7.8824195417
 10
-10.3563073275
 20
-7.8901708233
 10
-10.3647532825
 20
-7.8972880991
 10
-10.3736155075
 20
-7.9037643676
 10
-10.3828826948
 20
-7.9095926274
 10
-10.3925435345
 20
-7.9147658833
 10
-10.4025867092
 20
-7.9192771652
 10
-10.4130008998
 20
-7.9231195094
 10
-10.4237747868
 20
-7.9262859521
 10
-10.4348953836
 20
-7.9287698811
 10
-10.4463430338
 20
-7.9305660913
 10
-10.4580964134
 20
-7.9316697292
 10
-10.4701341987
 20
-7.9320759411
 10
-10.4824345081
 20
-7.9317815085
 10
-10.4949732295
 20
-7.9307897511
 10
-10.5077256929
 20
-7.9291056239
 10
-10.5206672287
 20
-7.9267340814
 10
-10.533774494
 20
-7.9236802849
 10
-10.5470294539
 20
-7.9199502215
 10
-10.5604154006
 20
-7.9155500846
 10
-10.5739156265
 20
-7.9104860679
 10
-10.5875134237
 20
-7.9047643647
 10
-10.6011920844
 20
-7.8983911688
 10
-10.6149349008
 20
-7.8913726735
 10
-10.6287251652
 20
-7.8837150724
 10
-10.6425448357
 20
-7.8754265567
 10
-10.6563705336
 20
-7.8665233074
 10
-10.6701775464
 20
-7.8570235035
 10
-10.6839411615
 20
-7.8469453236
 10
-10.6976366661
 20
-7.8363069466
 10
-10.7112393476
 20
-7.8251265512
 10
-10.7247244934
 20
-7.8134223163
 10
-10.7380673908
 20
-7.8012124205
 10
-10.7512446208
 20
-7.7885154034
 10
-10.7642379381
 20
-7.7753512475
 10
-10.7770303914
 20
-7.7617402963
 10
-10.789605029
 20
-7.747702893
 10
-10.8019448994
 20
-7.733259381
 10
-10.8140330512
 20
-7.7184301035
 10
-10.8258525327
 20
-7.7032354039
 10
-10.8373863925
 20
-7.6876956256
 10
-10.8486174038
 20
-7.6718323108
 10
-10.8595272389
 20
-7.6556717982
 10
-10.8700972952
 20
-7.6392416254
 10
-10.8803089699
 20
-7.6225693299
 10
-10.8901445287
 20
-7.6056820252
 10
-10.8995897124
 20
-7.5886051281
 10
-10.9086311302
 20
-7.5713636313
 10
-10.9172553915
 20
-7.5539825275
 10
-10.9254492056
 20
-7.5364872221
 10
-10.9331996827
 20
-7.5189047724
 10
-10.9404940329
 20
-7.5012626485
 10
-10.9473194664
 20
-7.4835883206
 10
-10.953663335
 20
-7.4659124331
 10
-10.9595135572
 20
-7.4482783277
 10
-10.9648581929
 20
-7.4307325204
 10
-10.9696853021
 20
-7.4133215274
 10
-10.973985639
 20
-7.3960853299
 10
-10.9777607347
 20
-7.3790377711
 10
-10.9810148144
 20
-7.3621861594
 10
-10.9837521034
 20
-7.3455378031
 10
-10.9859747997
 20
-7.3290913232
 10
-10.9876769936
 20
-7.3128105912
 10
-10.988850748
 20
-7.296650791
 10
-10.989488126
 20
-7.2805671065
  0
LWPOLYLINE
  5
263
100
AcDbEntity
  8
CURVE
100
AcDbPolyline
 62
253
  6
CONTINUOUS
 90
81
 70
0
 10
-10.989488126
 20
-7.2805671065
 10
-10.9895778271
 20
-7.264813299
 10
-10.9891213075
 20
-7.2496059397
 10
-10.9881287265
 20
-7.2348899806
 10
-10.986610243
 20
-7.2206103737
 10
-10.9845734912
 20
-7.2067232412
 10
-10.9820160061
 20
-7.1932293858
 10
-10.9789327978
 20
-7.1801407805
 10
-10.9753188764
 20
-7.1674693979
 10
-10.9711717494
 20
-7.1552310125
 10
-10.9664989127
 20
-7.1434566043
 10
-10.9613103596
 20
-7.132180955
 10
-10.9556160835
 20
-7.1214388462
 10
-10.9494267668
 20
-7.1112616987
 10
-10.9427558485
 20
-7.1016674899
 10
-10.9356174569
 20
-7.0926708366
 10
-10.9280257201
 20
-7.0842863556
 10
-10.9199943095
 20
-7.0765274026
 10
-10.9115350692
 20
-7.0694022896
 10
-10.9026593864
 20
-7.0629180676
 10
-10.8933786481
 20
-7.0570817877
 10
-10.8837042425
 20
-7.0519004946
 10
-10.8736475617
 20
-7.0473812069
 10
-10.8632199986
 20
-7.0435309368
 10
-10.8524329462
 20
-7.0403566967
 10
-10.8412994667
 20
-7.0378651476
 10
-10.8298392998
 20
-7.036061546
 10
-10.8180738548
 20
-7.0349507971
 10
-10.8060245407
 20
-7.0345378063
 10
-10.7937133205
 20
-7.0348258425
 10
-10.7811643729
 20
-7.0358116285
 10
-10.7684024306
 20
-7.0374902508
 10
-10.7554522262
 20
-7.0398567959
 10
-10.74233716
 20
-7.0429061394
 10
-10.7290753026
 20
-7.0466323141
 10
-10.7156833924
 20
-7.0510291422
 10
-10.7021781676
 20
-7.0560904458
 10
-10.6885763665
 20
-7.0618100469
 10
-10.6748947275
 20
-7.0681817675
 10
-10.6611499887
 20
-7.0751994299
 10
-10.6473588886
 20
-7.0828568561
 10
-10.6335394905
 20
-7.0911458648
 10
-10.6197151581
 20
-7.1000502609
 10
-10.6059105802
 20
-7.1095518462
 10
-10.5921504456
 20
-7.1196324223
 10
-10.5784594432
 20
-7.1302737907
 10
-10.5648622616
 20
-7.1414577531
 10
-10.5513835898
 20
-7.1531661112
 10
-10.5380481165
 20
-7.1653806665
 10
-10.5248792296
 20
-7.1780828557
 10
-10.5118951133
 20
-7.1912526559
 10
-10.4991126506
 20
-7.204869679
 10
-10.4865487248
 20
-7.2189135371
 10
-10.4742202191
 20
-7.2333638421
 10
-10.4621440166
 20
-7.2482002062
 10
-10.4503370006
 20
-7.2634022414
 10
-10.4388160542
 20
-7.2789495597
 10
-10.4275983315
 20
-7.2948205736
 10
-10.4167020705
 20
-7.3109888982
 10
-10.40614578
 20
-7.3274269489
 10
-10.3959479687
 20
-7.3441071412
 10
-10.3861262786
 20
-7.3610023143
 10
-10.3766948841
 20
-7.3780870026
 10
-10.3676670925
 20
-7.3953361639
 10
-10.3590562112
 20
-7.4127247565
 10
-10.3508754478
 20
-7.4302273268
 10
-10.34313761
 20
-7.4478167759
 10
-10.3358554058
 20
-7.4654655933
 10
-10.329041543
 20
-7.4831462686
 10
-10.3227085901
 20
-7.5008281193
 10
-10.3168685578
 20
-7.5184677752
 10
-10.3115333173
 20
-7.5360186942
 10
-10.3067147398
 20
-7.5534343339
 10
-10.3024220111
 20
-7.5706746879
 10
-10.2986535752
 20
-7.5877258917
 10
-10.2954051906
 20
-7.6045806167
 10
-10.2926726159
 20
-7.6212315342
 10
-10.2904536347
 20
-7.6376800034
 10
-10.2887541305
 20
-7.6539621365
 10
-10.2875820119
 20
-7.6701227334
 10
-10.2869451875
 20
-7.6862065943
  0
LINE
  5
264
100
AcDbEntity
  8
ASSI
100
AcDbLine
 62
7
  6
CONTINUOUS
 10
-9.7669238144
 20
6.2373219147
 11
-9.7667619775
 21
6.2052877077
  0
LWPOLYLINE
  5
265
100
AcDbEntity
  8
CURVE
100
AcDbPolyline
 62
253
  6
CONTINUOUS
 90
85
 70
0
 10
-10.5425936355
 20
12.4384209545
 10
-10.5425797985
 20
12.4425199518
 10
-10.5426974055
 20
12.4466151632
 10
-10.5429424829
 20
12.4507185114
 10
-10.5433110571
 20
12.4548419191
 10
-10.5437991547
 20
12.458997309
 10
-10.5444028022
 20
12.4631966039
 10
-10.5451190318
 20
12.4674494737
 10
-10.5459488998
 20
12.4717565763
 10
-10.5468944681
 20
12.4761163168
 10
-10.5479577988
 20
12.4805271004
 10
-10.5491409538
 20
12.4849873322
 10
-10.5504459953
 20
12.4894954174
 10
-10.5518743366
 20
12.4940479194
 10
-10.5534247973
 20
12.4986340361
 10
-10.5550955484
 20
12.5032411237
 10
-10.5568847607
 20
12.5078565385
 10
-10.5587906053
 20
12.5124676368
 10
-10.5608112531
 20
12.5170617746
 10
-10.5629448371
 20
12.521627385
 10
-10.5651893387
 20
12.5261572073
 10
-10.5675427011
 20
12.5306450574
 10
-10.5700028679
 20
12.5350847511
 10
-10.5725677823
 20
12.5394701046
 10
-10.5752353876
 20
12.5437949337
 10
-10.5780030473
 20
12.548053073
 10
-10.5808658042
 20
12.5522384315
 10
-10.5838181212
 20
12.556344937
 10
-10.586854461
 20
12.5603665172
 10
-10.5899692867
 20
12.5642970998
 10
-10.593157061
 20
12.5681306124
 10
-10.5964126281
 20
12.5718612173
 10
-10.5997323572
 20
12.5754840147
 10
-10.603112999
 20
12.5789943392
 10
-10.6065513039
 20
12.5823875255
 10
-10.6100440226
 20
12.5856589082
 10
-10.6135879057
 20
12.588803822
 10
-10.6171790281
 20
12.5918170502
 10
-10.620810763
 20
12.594691171
 10
-10.6244758079
 20
12.5974182113
 10
-10.6281668605
 20
12.5999901979
 10
-10.6318766182
 20
12.6023991576
 10
-10.6355977788
 20
12.6046371172
 10
-10.6393230561
 20
12.6066973119
 10
-10.6430452302
 20
12.6085778095
 10
-10.6467570976
 20
12.6102778862
 10
-10.6504514547
 20
12.6117968181
 10
-10.654121098
 20
12.6131338814
 10
-10.657758824
 20
12.6142883523
 10
-10.6613579853
 20
12.6152597447
 10
-10.6649141596
 20
12.6160485247
 10
-10.6684234807
 20
12.6166553961
 10
-10.6718820825
 20
12.6170810627
 10
-10.6752860988
 20
12.6173262284
 10
-10.6786316635
 20
12.6173915971
 10
-10.6819147335
 20
12.6172775628
 10
-10.6851305579
 20
12.6169832803
 10
-10.6882742091
 20
12.6165075945
 10
-10.6913407594
 20
12.6158493505
 10
-10.6943252808
 20
12.6150073933
 10
-10.6972228459
 20
12.6139805679
 10
-10.7000286961
 20
12.6127686077
 10
-10.7027387513
 20
12.6113748007
 10
-10.7053491005
 20
12.609803323
 10
-10.7078558327
 20
12.6080583512
 10
-10.7102550371
 20
12.6061440614
 10
-10.7125428027
 20
12.6040646301
 10
-10.7147154591
 20
12.6018257337
 10
-10.716770297
 20
12.5994390496
 10
-10.7187048475
 20
12.5969177552
 10
-10.7205166419
 20
12.5942750281
 10
-10.7222032113
 20
12.5915240456
 10
-10.7237620868
 20
12.5886779852
 10
-10.7251918037
 20
12.585748423
 10
-10.7264949135
 20
12.5827405289
 10
-10.7276749716
 20
12.5796578713
 10
-10.7287355337
 20
12.5765040187
 10
-10.7296801553
 20
12.5732825395
 10
-10.7305123918
 20
12.5699970023
 10
-10.7312347798
 20
12.5666477014
 10
-10.73184578
 20
12.5632218357
 10
-10.7323428336
 20
12.5597033301
 10
-10.7327233824
 20
12.5560761092
 10
-10.7329848678
 20
12.5523240981
 10
-10.7331247313
 20
12.5484312214
  0
LWPOLYLINE
  5
266
100
AcDbEntity
  8
CURVE
100
AcDbPolyline
 62
253
  6
CONTINUOUS
 90
54
 70
0
 10
-10.7480149689
 20
11.7603888477
 10
-10.7480323893
 20
11.7572979491
 10
-10.7479738877
 20
11.7542029924
 10
-10.7478410063
 20
11.7510986704
 10
-10.7476352876
 20
11.7479796755
 10
-10.747358274
 20
11.7448407007
 10
-10.7470115076
 20
11.7416764385
 10
-10.746596531
 20
11.7384815816
 10
-10.7460275118
 20
11.7347099299
 10
-10.7453658357
 20
11.7308895645
 10
-10.7446095885
 20
11.7270206384
 10
-10.7437568559
 20
11.7231033046
 10
-10.7428057234
 20
11.719137716
 10
-10.7417542769
 20
11.7151240255
 10
-10.7406012074
 20
11.7110640815
 10
-10.7393476281
 20
11.7069665139
 10
-10.7379952574
 20
11.7028416482
 10
-10.7365458139
 20
11.6986998097
 10
-10.7350010162
 20
11.6945513239
 10
-10.7333625828
 20
11.690406516
 10
-10.7318848871
 20
11.6868639957
 10
-10.7303401399
 20
11.6833347733
 10
-10.7287288206
 20
11.6798218588
 10
-10.7270514087
 20
11.6763282618
 10
-10.7253083837
 20
11.6728569922
 10
-10.7235002249
 20
11.6694110597
 10
-10.721627412
 20
11.6659934742
 10
-10.7196907971
 20
11.6626072803
 10
-10.7176927241
 20
11.6592556619
 10
-10.7156359098
 20
11.6559418378
 10
-10.7135230708
 20
11.6526690269
 10
-10.7113569237
 20
11.6494404479
 10
-10.7091401854
 20
11.6462593196
 10
-10.7068755724
 20
11.6431288608
 10
-10.7045662504
 20
11.6400525174
 10
-10.7022171809
 20
11.6370346433
 10
-10.6998337742
 20
11.6340798197
 10
-10.6974214409
 20
11.6311926276
 10
-10.6949855911
 20
11.6283776481
 10
-10.6925316355
 20
11.6256394624
 10
-10.6900649843
 20
11.6229826513
 10
-10.6871770948
 20
11.6199904403
 10
-10.6842800688
 20
11.6171131487
 10
-10.6813746856
 20
11.6143487005
 10
-10.6784617244
 20
11.6116950195
 10
-10.6755419647
 20
11.6091500298
 10
-10.6726161858
 20
11.6067116553
 10
-10.6701032044
 20
11.6047048964
 10
-10.6675810396
 20
11.6027735931
 10
-10.6650443577
 20
11.6009163966
 10
-10.6624878249
 20
11.5991319584
 10
-10.6599061075
 20
11.5974189296
 10
-10.6572938719
 20
11.5957759616
 10
-10.6546457843
 20
11.5942017057
  0
LINE
  5
267
100
AcDbEntity
  8
ASSI
100
AcDbLine
 62
253
  6
CONTINUOUS
 10
-9.7374728771
 20
-1.1853203954
 11
-9.7378054914
 21
-1.227475249
  0
LWPOLYLINE
  5
268
100
AcDbEntity
  8
CURVE
100
AcDbPolyline
 62
253
  6
CONTINUOUS
 90
85
 70
0
 10
-10.4680106058
 20
15.6789050151
 10
-10.4679692282
 20
15.6830189933
 10
-10.46805926
 20
15.6871288154
 10
-10.4682766823
 20
15.6912464895
 10
-10.4686174759
 20
15.6953840237
 10
-10.4690776221
 20
15.6995534259
 10
-10.4696531017
 20
15.7037667043
 10
-10.4703409183
 20
15.7080336034
 10
-10.4711421659
 20
15.7123548138
 10
-10.4720589608
 20
15.7167287626
 10
-10.4730934196
 20
15.7211538772
 10
-10.4742476587
 20
15.7256285845
 10
-10.4755237946
 20
15.7301513118
 10
-10.4769233048
 20
15.7347186326
 10
-10.4784451112
 20
15.7393197058
 10
-10.4800874967
 20
15.7439418367
 10
-10.4818487443
 20
15.7485723306
 10
-10.483727137
 20
15.7531984927
 10
-10.4857209577
 20
15.7578076283
 10
-10.4878284426
 20
15.7623881229
 10
-10.4900476418
 20
15.7669326821
 10
-10.4923765584
 20
15.7714350918
 10
-10.4948131958
 20
15.7758891379
 10
-10.4973555571
 20
15.7802886062
 10
-10.5000016457
 20
15.7846272825
 10
-10.5027488768
 20
15.7888989732
 10
-10.5055923136
 20
15.793097566
 10
-10.5085264312
 20
15.7972169693
 10
-10.5115457047
 20
15.8012510915
 10
-10.5146446092
 20
15.8051938408
 10
-10.5178176199
 20
15.8090391255
 10
-10.5210595932
 20
15.8127810882
 10
-10.524366911
 20
15.816414809
 10
-10.5277363365
 20
15.8199356022
 10
-10.5311646329
 20
15.8233387821
 10
-10.5346485636
 20
15.8266196631
 10
-10.5381848915
 20
15.8297735594
 10
-10.5417697075
 20
15.832795231
 10
-10.545396412
 20
15.8356772203
 10
-10.5490577327
 20
15.8384115154
 10
-10.5527463976
 20
15.8409901043
 10
-10.5564551344
 20
15.843404975
 10
-10.560176671
 20
15.8456481156
 10
-10.5639037461
 20
15.8477127267
 10
-10.5676291412
 20
15.8495968596
 10
-10.5713456488
 20
15.8512997781
 10
-10.5750460613
 20
15.8528207462
 10
-10.5787231711
 20
15.8541590276
 10
-10.5823697706
 20
15.8553138862
 10
-10.5859791976
 20
15.8562848243
 10
-10.5895469707
 20
15.8570722967
 10
-10.593069154
 20
15.857676997
 10
-10.5965418116
 20
15.8580996183
 10
-10.5999610076
 20
15.8583408541
 10
-10.6033228059
 20
15.8584013976
 10
-10.6066231036
 20
15.8582816253
 10
-10.6098571302
 20
15.8579806457
 10
-10.6130199478
 20
15.8574972505
 10
-10.616106619
 20
15.8568302313
 10
-10.619112206
 20
15.8559783798
 10
-10.6220317713
 20
15.8549404877
 10
-10.6248605288
 20
15.8537162477
 10
-10.6275942987
 20
15.8523089577
 10
-10.6302290532
 20
15.8507228164
 10
-10.632760764
 20
15.8489620228
 10
-10.6351854032
 20
15.8470307759
 10
-10.6374989426
 20
15.8449332744
 10
-10.6396976003
 20
15.842675245
 10
-10.6417785793
 20
15.8402685241
 10
-10.6437393284
 20
15.8377264761
 10
-10.6455772967
 20
15.8350624652
 10
-10.6472899332
 20
15.8322898556
 10
-10.6488746869
 20
15.8294220116
 10
-10.6503300317
 20
15.8264706668
 10
-10.651658541
 20
15.8234410338
 10
-10.6528638129
 20
15.8203366942
 10
-10.6539494458
 20
15.8171612302
 10
-10.6549190379
 20
15.8139182235
 10
-10.6557761874
 20
15.8106112561
 10
-10.6565234852
 20
15.8072406156
 10
-10.6571594928
 20
15.803793412
 10
-10.6576817642
 20
15.8002534611
 10
-10.6580878534
 20
15.7966045786
 10
-10.6583753146
 20
15.7928305803
 10
-10.6585417017
 20
15.7889152819
  0
LWPOLYLINE
  5
269
100
AcDbEntity
  8
CURVE
100
AcDbPolyline
 62
253
  6
CONTINUOUS
 90
54
 70
0
 10
-10.6787208491
 20
14.9979631743
 10
-10.6787588695
 20
14.9948598149
 10
-10.6787206398
 20
14.9917525202
 10
-10.6786077477
 20
14.98863597
 10
-10.6784217812
 20
14.9855048437
 10
-10.6781643282
 20
14.9823538212
 10
-10.6778369766
 20
14.9791775819
 10
-10.6774413142
 20
14.9759708054
 10
-10.6768947493
 20
14.9721853062
 10
-10.6762554483
 20
14.9683511528
 10
-10.6755214925
 20
14.9644684971
 10
-10.6746909631
 20
14.9605374907
 10
-10.6737619413
 20
14.9565582857
 10
-10.6727325081
 20
14.9525310338
 10
-10.6716013419
 20
14.9484575892
 10
-10.6703695085
 20
14.9443466155
 10
-10.6690386707
 20
14.9402084787
 10
-10.6676104914
 20
14.9360535447
 10
-10.6660866336
 20
14.9318921794
 10
-10.66446876
 20
14.9277347489
 10
-10.6630083467
 20
14.9241816425
 10
-10.661480553
 20
14.9206420667
 10
-10.6598858494
 20
14.9171190457
 10
-10.6582247066
 20
14.9136156036
 10
-10.6564975952
 20
14.9101347644
 10
-10.6547049859
 20
14.9066795523
 10
-10.6528473492
 20
14.9032529912
 10
-10.650925528
 20
14.8998581379
 10
-10.6489418533
 20
14.8964981788
 10
-10.6468990285
 20
14.8931763331
 10
-10.644799757
 20
14.8898958199
 10
-10.6426467419
 20
14.8866598584
 10
-10.6404426867
 20
14.8834716676
 10
-10.6381902947
 20
14.8803344666
 10
-10.6358927185
 20
14.8772517028
 10
-10.6335549083
 20
14.8742277363
 10
-10.6311822639
 20
14.8712671558
 10
-10.6287801848
 20
14.8683745494
 10
-10.6263540706
 20
14.8655545059
 10
-10.623909321
 20
14.8628116134
 10
-10.6214513355
 20
14.8601504606
 10
-10.6185728638
 20
14.857153651
 10
-10.6156845175
 20
14.854272254
 10
-10.612787088
 20
14.8515041804
 10
-10.6098813668
 20
14.8488473409
 10
-10.6069681451
 20
14.8462996459
 10
-10.6040482144
 20
14.8438590062
 10
-10.6015397038
 20
14.8418506487
 10
-10.5990215065
 20
14.8399180685
 10
-10.5964882833
 20
14.8380599248
 10
-10.5939346951
 20
14.8362748773
 10
-10.591355403
 20
14.8345615853
 10
-10.5887450677
 20
14.8329187082
 10
-10.5860983501
 20
14.8313449055
  0
LINE
  5
26A
100
AcDbEntity
  8
CURVE
100
AcDbLine
 62
253
  6
CONTINUOUS
 10
-10.7331247313
 20
12.5484312214
 11
-10.7480149693
 21
11.7603888272
  0
LINE
  5
26B
100
AcDbEntity
  8
CURVE
100
AcDbLine
 62
253
  6
CONTINUOUS
 10
-10.5574838731
 20
11.6503785808
 11
-10.5425936351
 21
12.4384209751
  0
LINE
  5
26C
100
AcDbEntity
  8
ASSI
100
AcDbLine
 62
7
  6
CONTINUOUS
 10
-9.766762037
 20
-1.1445574223
 11
-9.7683112684
 21
-1.2150918038
  0
LINE
  5
26D
100
AcDbEntity
  8
ASSI
100
AcDbLine
 62
253
  6
CONTINUOUS
 10
-9.7374728771
 20
6.1643820363
 11
-9.7384605176
 21
6.1218275227
  0
LINE
  5
26E
100
AcDbEntity
  8
CURVE
100
AcDbLine
 62
253
  6
CONTINUOUS
 10
-10.6585417017
 20
15.7889152819
 11
-10.6787208487
 21
14.997963189
  0
LINE
  5
26F
100
AcDbEntity
  8
CURVE
100
AcDbLine
 62
253
  6
CONTINUOUS
 10
-10.4881897533
 20
14.8879529075
 11
-10.4680106062
 21
15.6789050004
  0
LINE
  5
270
100
AcDbEntity
  8
ASSI
100
AcDbLine
 62
7
  6
CONTINUOUS
 10
-9.7667625072
 20
6.2052097697
 11
-9.7694301176
 21
6.1337777976
  0
LWPOLYLINE
  5
271
100
AcDbEntity
  8
ASSI
100
AcDbPolyline
 62
253
  6
CONTINUOUS
 90
16
 70
0
 10
-9.7378054914
 20
-1.227475249
 10
-9.7395210493
 20
-1.2688025841
 10
-9.7426195576
 20
-1.309302404
 10
-9.7471007572
 20
-1.349057167
 10
-9.7529649055
 20
-1.3879844131
 10
-9.7602128517
 20
-1.4258368079
 10
-9.7688591099
 20
-1.4626045031
 10
-9.7788893139
 20
-1.498297433
 10
-9.7902611247
 20
-1.5326980163
 10
-9.8029872311
 20
-1.5657914594
 10
-9.8170552171
 20
-1.5975927155
 10
-9.8323852048
 20
-1.6279288933
 10
-9.8489777981
 20
-1.6567759563
 10
-9.8668327664
 20
-1.6841581603
 10
-9.885869069
 20
-1.7099751031
 10
-9.9060844583
 20
-1.7342171404
  0
LWPOLYLINE
  5
272
100
AcDbEntity
  8
ASSI
100
AcDbPolyline
 62
253
  6
CONTINUOUS
 90
16
 70
0
 10
-9.7384605176
 20
6.1218275227
 10
-9.7408312379
 20
6.0801006349
 10
-9.7445850447
 20
6.0392013695
 10
-9.7497229581
 20
5.9990464703
 10
-9.7562439562
 20
5.9597191954
 10
-9.7641450499
 20
5.9214692754
 10
-9.7734407388
 20
5.8843065775
 10
-9.7841166711
 20
5.8482211514
 10
-9.7961267124
 20
5.8134329264
 10
-9.8094834391
 20
5.7799567806
 10
-9.8241745477
 20
5.7477776817
 10
-9.8401167027
 20
5.7170706247
 10
-9.8573101256
 20
5.687859892
 10
-9.8757549684
 20
5.6601209895
 10
-9.8953678793
 20
5.6339556978
 10
-9.9161464334
 20
5.6093737626
  0
LWPOLYLINE
  5
273
100
AcDbEntity
  8
ASSI
100
AcDbPolyline
 62
7
  6
CONTINUOUS
 90
10
 70
0
 10
-9.7683112684
 20
-1.2150918038
 10
-9.77583332
 20
-1.2967326121
 10
-9.7893640906
 20
-1.3727622606
 10
-9.8086451957
 20
-1.4426462099
 10
-9.8333410345
 20
-1.5058787228
 10
-9.8630301864
 20
-1.5620346328
 10
-9.8971521596
 20
-1.6107366562
 10
-9.9353797683
 20
-1.6521185453
 10
-9.9778362292
 20
-1.6865927833
 10
-9.9979397715
 20
-1.6996338012
  0
LWPOLYLINE
  5
274
100
AcDbEntity
  8
ASSI
100
AcDbPolyline
 62
7
  6
CONTINUOUS
 90
10
 70
0
 10
-9.7694301176
 20
6.1337777976
 10
-9.77833239
 20
6.0510574349
 10
-9.7932600257
 20
5.9739201266
 10
-9.8139575141
 20
5.9029143425
 10
-9.8400936718
 20
5.8385584553
 10
-9.8712549709
 20
5.7812907614
 10
-9.906897339
 20
5.7314995049
 10
-9.9466913595
 20
5.68910206
 10
-9.9907183361
 20
5.6537540787
 10
-10.0103578482
 20
5.6410700411
  0
LWPOLYLINE
  5
275
100
AcDbEntity
  8
ASSI
100
AcDbPolyline
 62
253
  6
CONTINUOUS
 90
69
 70
0
 10
-9.9161464334
 20
5.6093737626
 10
-9.9380934732
 20
5.5863652011
 10
-9.9611336029
 20
5.5650021702
 10
-9.9852744353
 20
5.5452833208
 10
-10.0105087903
 20
5.5272097562
 10
-10.0367391257
 20
5.5108572873
 10
-10.0639756029
 20
5.4962304301
 10
-10.0922085043
 20
5.4833244162
 10
-10.1213105087
 20
5.4722011076
 10
-10.1512842169
 20
5.4628705178
 10
-10.1821274672
 20
5.4553223833
 10
-10.2137058219
 20
5.4495881349
 10
-10.2460197872
 20
5.4456758433
 10
-10.2790692635
 20
5.4435772063
 10
-10.3127189141
 20
5.4432990883
 10
-10.3469714192
 20
5.4448482966
 10
-10.3818244502
 20
5.4482178236
 10
-10.4171351557
 20
5.4533938134
 10
-10.4529071055
 20
5.4603838482
 10
-10.4891370099
 20
5.469180186
 10
-10.5256717171
 20
5.4797459903
 10
-10.5625125172
 20
5.4920888259
 10
-10.5996583152
 20
5.5062010167
 10
-10.6369523623
 20
5.5220228754
 10
-10.67439478
 20
5.5395613322
 10
-10.7119855469
 20
5.5588093998
 10
-10.7495676763
 20
5.5796865285
 10
-10.7871411288
 20
5.6021994315
 10
-10.8247059438
 20
5.6263413956
 10
-10.8621052278
 20
5.652011745
 10
-10.8993387979
 20
5.6792173405
 10
-10.9364067371
 20
5.7079513785
 10
-10.9731525279
 20
5.7380927003
 10
-11.0095748597
 20
5.7696476041
 10
-11.045674848
 20
5.802609903
 10
-11.0812995957
 20
5.8368397214
 10
-11.1164455035
 20
5.8723408494
 10
-11.1511158907
 20
5.9091096566
 10
-11.1851682272
 20
5.9469951429
 10
-11.2185996949
 20
5.9860012898
 10
-11.2514127605
 20
6.026124316
 10
-11.2834728193
 20
6.067201578
 10
-11.3147792398
 20
6.1092408605
 10
-11.3453322469
 20
6.1522346103
 10
-11.3749985316
 20
6.195997171
 10
-11.4037755702
 20
6.2405362296
 10
-11.4316654471
 20
6.285844349
 10
-11.4585417915
 20
6.3317131716
 10
-11.4843946144
 20
6.3781364224
 10
-11.5092334608
 20
6.4251206287
 10
-11.5329613011
 20
6.4724766136
 10
-11.5555703337
 20
6.5201944237
 10
-11.5770679278
 20
6.568284258
 10
-11.5973798534
 20
6.6165871433
 10
-11.616508127
 20
6.6651151014
 10
-11.634450315
 20
6.7138563471
 10
-11.651125567
 20
6.7626161659
 10
-11.6665336011
 20
6.8114188548
 10
-11.6806743252
 20
6.8602403284
 10
-11.6934672605
 20
6.9088132491
 10
-11.7049000583
 20
6.9571391127
 10
-11.7149847928
 20
7.0052165783
 10
-11.7236777383
 20
7.0527739853
 10
-11.7309643774
 20
7.0998051318
 10
-11.7368590779
 20
7.1463163036
 10
-11.7413615747
 20
7.1920544967
 10
-11.7444718048
 20
7.2369353614
 10
-11.746189832
 20
7.2810432458
 10
-11.7465156491
 20
7.3243781536
  0
LWPOLYLINE
  5
276
100
AcDbEntity
  8
RACCORDO
100
AcDbPolyline
 62
253
  6
CONTINUOUS
 90
5
 70
0
 10
-9.9762786899
 20
5.7922902547
 10
-9.917704904
 20
5.8314828378
 10
-9.8625010221
 20
5.8847486224
 10
-9.8163162417
 20
5.9479385468
 10
-9.7874771503
 20
6.0038026512
  0
LINE
  5
277
100
AcDbEntity
  8
ASSI
100
AcDbLine
 62
7
  6
CONTINUOUS
 10
-10.009627036
 20
5.6415121269
 11
-10.0103543357
 21
5.6410721459
  0
LWPOLYLINE
  5
278
100
AcDbEntity
  8
ASSI
100
AcDbPolyline
 62
253
  6
CONTINUOUS
 90
65
 70
0
 10
-10.0103543357
 20
5.6410721459
 10
-10.0173018987
 20
5.6369633462
 10
-10.0426432524
 20
5.6233533951
 10
-10.0688769703
 20
5.6113660571
 10
-10.0959569186
 20
5.6010235425
 10
-10.1238431247
 20
5.592340842
 10
-10.152498758
 20
5.5853291221
 10
-10.1818793367
 20
5.579998754
 10
-10.2119408178
 20
5.5763565835
 10
-10.2426435081
 20
5.574406279
 10
-10.2739479134
 20
5.5741497157
 10
-10.305810489
 20
5.5755869736
 10
-10.3381864407
 20
5.5787157544
 10
-10.3710335745
 20
5.5835318523
 10
-10.4043075076
 20
5.5900290165
 10
-10.4379603622
 20
5.5981981583
 10
-10.4719438688
 20
5.608027558
 10
-10.5062103631
 20
5.6195033914
 10
-10.5407120219
 20
5.6326096244
 10
-10.5753996605
 20
5.6473274466
 10
-10.6102241887
 20
5.6636358591
 10
-10.6451373366
 20
5.6815121228
 10
-10.6800908359
 20
5.7009314389
 10
-10.7150357159
 20
5.7218665753
 10
-10.749923
 20
5.744288212
 10
-10.7847044105
 20
5.7681654098
 10
-10.819331697
 20
5.7934651842
 10
-10.853755749
 20
5.8201518412
 10
-10.8879273124
 20
5.8481873725
 10
-10.9217986153
 20
5.8775326414
 10
-10.9553219359
 20
5.9081464003
 10
-10.9884487724
 20
5.9399844759
 10
-11.0211312745
 20
5.9730006944
 10
-11.053325029
 20
6.0071500323
 10
-11.0849875317
 20
6.0423877267
 10
-11.1160739057
 20
6.0786642353
 10
-11.1465407045
 20
6.1159292829
 10
-11.1763483935
 20
6.1541354474
 10
-11.2054571564
 20
6.1932331055
 10
-11.2338230754
 20
6.2331646772
 10
-11.2614019658
 20
6.273868891
 10
-11.2881570091
 20
6.3152922408
 10
-11.3140481499
 20
6.3573734445
 10
-11.339029392
 20
6.4000370126
 10
-11.3630619201
 20
6.443214361
 10
-11.3861177682
 20
6.4868526931
 10
-11.4081697343
 20
6.5308988111
 10
-11.4291824992
 20
6.5752808424
 10
-11.4491321708
 20
6.6199467997
 10
-11.4680075291
 20
6.6648736071
 10
-11.4857834203
 20
6.7100092336
 10
-11.5024279113
 20
6.7552807101
 10
-11.5179182942
 20
6.8006335376
 10
-11.5322359255
 20
6.8460263816
 10
-11.5453492777
 20
6.8913730515
 10
-11.5572226
 20
6.9365518251
 10
-11.5678409283
 20
6.9815034048
 10
-11.5771893221
 20
7.0261608402
 10
-11.5852452096
 20
7.0703935191
 10
-11.5920040367
 20
7.1141413856
 10
-11.5974634832
 20
7.1573463567
 10
-11.6016188274
 20
7.1998863593
 10
-11.6044764445
 20
7.2416871124
 10
-11.6060472719
 20
7.2827196823
 10
-11.6063419989
 20
7.32293521
  0
LINE
  5
279
100
AcDbEntity
  8
DRAFT
100
AcDbLine
 62
7
  6
CONTINUOUS
 10
-9.8251815207
 20
5.8752771162
 11
-9.9762786965
 21
5.792290251
  0
LWPOLYLINE
  5
27A
100
AcDbEntity
  8
RACCORDO
100
AcDbPolyline
 62
7
  6
CONTINUOUS
 90
21
 70
0
 10
-11.1830974173
 20
0.5341946484
 10
-11.2483046624
 20
0.4865819628
 10
-11.3061814383
 20
0.4270079682
 10
-11.3556729291
 20
0.3558980356
 10
-11.396044459
 20
0.2733487947
 10
-11.4262489047
 20
0.1802870304
 10
-11.4454180375
 20
0.0788599454
 10
-11.4534217323
 20
-0.0297656513
 10
-11.4502181584
 20
-0.1446838563
 10
-11.4359911718
 20
-0.2634643882
 10
-11.4112543827
 20
-0.3842481188
 10
-11.3764340149
 20
-0.5061311602
 10
-11.3320560427
 20
-0.6277571991
 10
-11.2787650512
 20
-0.7476675828
 10
-11.2172291184
 20
-0.864554493
 10
-11.148111997
 20
-0.9772249356
 10
-11.0721994197
 20
-1.0843795731
 10
-10.9903604624
 20
-1.1847364221
 10
-10.903403987
 20
-1.2771949381
 10
-10.8121998059
 20
-1.3606532293
 10
-10.7177333812
 20
-1.4339922026
  0
LWPOLYLINE
  5
27B
100
AcDbEntity
  8
CURVE
100
AcDbPolyline
 62
253
  6
CONTINUOUS
 90
85
 70
0
 10
-11.3379881119
 20
-7.6663246999
 10
-11.3350632507
 20
-7.666001695
 10
-11.3322625832
 20
-7.665517079
 10
-11.3295744197
 20
-7.6648748325
 10
-11.326987071
 20
-7.6640789364
 10
-11.3244888474
 20
-7.6631333712
 10
-11.3220680597
 20
-7.6620421177
 10
-11.3192530765
 20
-7.6605442062
 10
-11.3165378016
 20
-7.6588388917
 10
-11.3139272688
 20
-7.6569228305
 10
-11.3114265116
 20
-7.6547926784
 10
-11.3090405637
 20
-7.6524450915
 10
-11.3071442003
 20
-7.6503211635
 10
-11.3053375347
 20
-7.6480473996
 10
-11.3036270401
 20
-7.6456272824
 10
-11.3020191902
 20
-7.6430642946
 10
-11.3005204583
 20
-7.6403619187
 10
-11.2991373179
 20
-7.6375236375
 10
-11.297875609
 20
-7.6345525671
 10
-11.2967386376
 20
-7.6314503585
 10
-11.2957290762
 20
-7.628218296
 10
-11.2948495975
 20
-7.624857664
 10
-11.2941028739
 20
-7.6213697469
 10
-11.2934915782
 20
-7.6177558292
 10
-11.293018
 20
-7.614018373
 10
-11.2926828979
 20
-7.6101645518
 10
-11.2924866475
 20
-7.6062027171
 10
-11.2924296246
 20
-7.6021412202
 10
-11.2925122049
 20
-7.5979884124
 10
-11.292734764
 20
-7.593752645
 10
-11.2930977652
 20
-7.5894415165
 10
-11.2936020212
 20
-7.585059614
 10
-11.2942484322
 20
-7.5806107716
 10
-11.2950378987
 20
-7.5760988235
 10
-11.2959713206
 20
-7.5715276038
 10
-11.2970495984
 20
-7.5669009468
 10
-11.2982734084
 20
-7.5622237534
 10
-11.299642531
 20
-7.5575051917
 10
-11.3011565228
 20
-7.5527554966
 10
-11.3028149405
 20
-7.5479849029
 10
-11.3046173405
 20
-7.5432036454
 10
-11.3065632795
 20
-7.5384219592
 10
-11.3086505496
 20
-7.5336504772
 10
-11.3108698853
 20
-7.5289014255
 10
-11.3132102568
 20
-7.5241874284
 10
-11.3156606341
 20
-7.5195211102
 10
-11.3182099875
 20
-7.514915095
 10
-11.3208472869
 20
-7.5103820072
 10
-11.3235630069
 20
-7.50593217
 10
-11.3263536397
 20
-7.5015667023
 10
-11.329217182
 20
-7.4972844217
 10
-11.3321516302
 20
-7.4930841462
 10
-11.335154981
 20
-7.4889646935
 10
-11.3382252311
 20
-7.4849248814
 10
-11.3419937567
 20
-7.4801829952
 10
-11.3458447064
 20
-7.4755666094
 10
-11.3497670544
 20
-7.4710882445
 10
-11.3537497748
 20
-7.4667604209
 10
-11.3577818418
 20
-7.4625956589
 10
-11.3611738751
 20
-7.4592566098
 10
-11.3645995591
 20
-7.4560346904
 10
-11.3680659331
 20
-7.4529250988
 10
-11.3715764003
 20
-7.4499265226
 10
-11.37511982
 20
-7.4470516099
 10
-11.3786814155
 20
-7.4443164989
 10
-11.382246754
 20
-7.4417361714
 10
-11.3858027786
 20
-7.4393209855
 10
-11.3893367759
 20
-7.4370801428
 10
-11.3928375121
 20
-7.4350205778
 10
-11.3962996708
 20
-7.4331401554
 10
-11.3997194146
 20
-7.4314344732
 10
-11.4030946625
 20
-7.4298987371
 10
-11.4064303579
 20
-7.4285265862
 10
-11.4097332003
 20
-7.4273112679
 10
-11.4121917298
 20
-7.4264991902
 10
-11.4146319379
 20
-7.425771994
 10
-11.4170514742
 20
-7.4251299891
 10
-11.4194530253
 20
-7.4245728778
 10
-11.4226296741
 20
-7.4239613812
 10
-11.4257651391
 20
-7.4234991745
 10
-11.4288431944
 20
-7.423185425
 10
-11.4311087415
 20
-7.4230474756
 10
-11.4333526719
 20
-7.4229948463
 10
-11.4355947891
 20
-7.4230298187
 10
-11.4378548964
 20
-7.4231546742
  0
LWPOLYLINE
  5
27C
100
AcDbEntity
  8
CURVE
100
AcDbPolyline
 62
253
  6
CONTINUOUS
 90
88
 70
0
 10
-9.5543334433
 20
-7.5204673181
 10
-9.5521091476
 20
-7.5202257398
 10
-9.5499778562
 20
-7.519892289
 10
-9.5479183256
 20
-7.519467613
 10
-9.5459093123
 20
-7.5189523594
 10
-9.5432831826
 20
-7.5181261214
 10
-9.5407228772
 20
-7.5171448204
 10
-9.5382421784
 20
-7.5160132696
 10
-9.5358522459
 20
-7.5147360744
 10
-9.5335537497
 20
-7.5133170104
 10
-9.5313447375
 20
-7.5117596453
 10
-9.5292233654
 20
-7.5100661481
 10
-9.5271882245
 20
-7.5082330925
 10
-9.5252380141
 20
-7.5062556531
 10
-9.5233726961
 20
-7.50413045
 10
-9.5215972809
 20
-7.5018598847
 10
-9.5199180413
 20
-7.4994478044
 10
-9.5183412499
 20
-7.496898056
 10
-9.5168731794
 20
-7.4942144865
 10
-9.5155201027
 20
-7.4914009428
 10
-9.5142876174
 20
-7.4884605168
 10
-9.5131786218
 20
-7.4853932786
 10
-9.5121953393
 20
-7.4821985433
 10
-9.5113399932
 20
-7.4788756259
 10
-9.5106148067
 20
-7.4754238414
 10
-9.5100220034
 20
-7.4718425048
 10
-9.5095634748
 20
-7.4681325895
 10
-9.5092397864
 20
-7.4643017029
 10
-9.509051172
 20
-7.4603591107
 10
-9.5089978654
 20
-7.4563140788
 10
-9.5090801004
 20
-7.4521758729
 10
-9.5092981107
 20
-7.4479537589
 10
-9.5096519293
 20
-7.4436565781
 10
-9.5101407843
 20
-7.4392914735
 10
-9.5107637033
 20
-7.4348651637
 10
-9.5115197134
 20
-7.4303843674
 10
-9.5124078421
 20
-7.4258558032
 10
-9.5134271167
 20
-7.4212861896
 10
-9.5145766169
 20
-7.4166823057
 10
-9.5158556321
 20
-7.4120511718
 10
-9.5172635043
 20
-7.4073998689
 10
-9.5187995753
 20
-7.4027354777
 10
-9.5204631869
 20
-7.398065079
 10
-9.5222536811
 20
-7.3933957537
 10
-9.524169751
 20
-7.3887346152
 10
-9.5262074951
 20
-7.3840889072
 10
-9.5283623633
 20
-7.379465906
 10
-9.5306298055
 20
-7.3748728878
 10
-9.5330052714
 20
-7.370317129
 10
-9.535484211
 20
-7.3658059058
 10
-9.5380621869
 20
-7.3613462103
 10
-9.5407352129
 20
-7.3569438976
 10
-9.5434994154
 20
-7.3526045386
 10
-9.5463509211
 20
-7.3483337042
 10
-9.5492858566
 20
-7.3441369651
 10
-9.5523003482
 20
-7.3400198924
 10
-9.5553904117
 20
-7.3359879682
 10
-9.5585516187
 20
-7.3320463201
 10
-9.5617794298
 20
-7.3281999873
 10
-9.5650693057
 20
-7.3244540085
 10
-9.5684167071
 20
-7.3208134229
 10
-9.5718170945
 20
-7.3172832695
 10
-9.5752661103
 20
-7.3138684651
 10
-9.5787601235
 20
-7.3105734382
 10
-9.5822956846
 20
-7.3074024953
 10
-9.5858693443
 20
-7.3043599427
 10
-9.5894776531
 20
-7.301450087
 10
-9.5931171616
 20
-7.2986772345
 10
-9.5967812024
 20
-7.2960475892
 10
-9.6004502355
 20
-7.2935749456
 10
-9.6041015029
 20
-7.2912749957
 10
-9.6077155519
 20
-7.2891598327
 10
-9.6112861508
 20
-7.2872271541
 10
-9.6148103733
 20
-7.2854710588
 10
-9.6182870735
 20
-7.2838855645
 10
-9.6217222281
 20
-7.2824643649
 10
-9.6251235943
 20
-7.2812010726
 10
-9.6276558122
 20
-7.2803540249
 10
-9.6301688628
 20
-7.2795933349
 10
-9.632659702
 20
-7.2789199637
 10
-9.6351312079
 20
-7.2783342058
 10
-9.638399049
 20
-7.2776897189
 10
-9.6416208446
 20
-7.2772016134
 10
-9.644777171
 20
-7.2768702869
 10
-9.6470948891
 20
-7.2767254643
 10
-9.6493873916
 20
-7.2766725015
 10
-9.6516772152
 20
-7.2767148467
 10
-9.6539868966
 20
-7.2768559479
  0
LWPOLYLINE
  5
27D
100
AcDbEntity
  8
ASSI
100
AcDbPolyline
 62
253
  6
CONTINUOUS
 90
20
 70
0
 10
12.7058352243
 20
-10.1721774143
 10
12.7272045794
 20
-10.1779086203
 10
12.749013925
 20
-10.1830573647
 10
12.7712142766
 20
-10.1876122583
 10
12.7937570482
 20
-10.1915634631
 10
12.8165930461
 20
-10.1949021702
 10
12.839672011
 20
-10.19762112
 10
12.8629425087
 20
-10.1997143012
 10
12.8863528
 20
-10.2011767999
 10
12.9098510328
 20
-10.2020055158
 10
12.9333851336
 20
-10.2021987148
 10
12.9569027332
 20
-10.2017556808
 10
12.9803517184
 20
-10.2006775726
 10
13.0036801463
 20
-10.198966923
 10
13.026836136
 20
-10.1966272284
 10
13.0497680747
 20
-10.1936639248
 10
13.0724254941
 20
-10.1900837301
 10
13.0947589497
 20
-10.185894096
 10
13.1167195698
 20
-10.1811043166
 10
13.1382580247
 20
-10.1757252517
  0
LINE
  5
27E
100
AcDbEntity
  8
RACCORDO
100
AcDbLine
 62
7
  6
CONTINUOUS
 10
-10.7177333812
 20
-1.4339922026
 11
-10.6210093149
 21
-1.4961870965
  0
LWPOLYLINE
  5
27F
100
AcDbEntity
  8
RACCORDO
100
AcDbPolyline
 62
253
  6
CONTINUOUS
 90
4
 70
0
 10
-10.717750194
 20
-1.4108485701
 10
-10.691469254
 20
-1.4284621675
 10
-10.6659671122
 20
-1.4445832232
 10
-10.6412742409
 20
-1.4592859567
  0
LWPOLYLINE
  5
280
100
AcDbEntity
  8
ASSI
100
AcDbPolyline
 62
253
  6
CONTINUOUS
 90
69
 70
0
 10
-9.9060844583
 20
-1.7342171404
 10
-9.9274815994
 20
-1.7568941621
 10
-9.9499868742
 20
-1.7779351007
 10
-9.9736078034
 20
-1.7973412483
 10
-9.9983372989
 20
-1.8151115674
 10
-10.0240798716
 20
-1.8311715207
 10
-10.050845661
 20
-1.8455165862
 10
-10.0786249712
 20
-1.8581515473
 10
-10.1072926008
 20
-1.8690158481
 10
-10.1368512814
 20
-1.878099562
 10
-10.1672987203
 20
-1.8854128744
 10
-10.198502206
 20
-1.8909254139
 10
-10.2304623598
 20
-1.8946291901
 10
-10.2631789666
 20
-1.896532433
 10
-10.2965180709
 20
-1.8966291085
 10
-10.3304824285
 20
-1.8949124692
 10
-10.3650696348
 20
-1.8913894698
 10
-10.4001379917
 20
-1.8860746277
 10
-10.4356911467
 20
-1.8789604253
 10
-10.4717257323
 20
-1.8700545455
 10
-10.5080895168
 20
-1.8593942996
 10
-10.5447838927
 20
-1.8469721995
 10
-10.5818076625
 20
-1.8327958485
 10
-10.6190046912
 20
-1.8169251838
 10
-10.6563752037
 20
-1.7993533516
 10
-10.6939190751
 20
-1.7800872648
 10
-10.7314796232
 20
-1.7592074966
 10
-10.769056913
 20
-1.736707406
 10
-10.8066508796
 20
-1.7125936339
 10
-10.8441046208
 20
-1.6869666621
 10
-10.8814180647
 20
-1.6598196994
 10
-10.9185911834
 20
-1.6311594778
 10
-10.9554671168
 20
-1.6011067499
 10
-10.9920446673
 20
-1.5696552843
 10
-11.0283248377
 20
-1.5368111973
 10
-11.0641540499
 20
-1.5027137514
 10
-11.0995288036
 20
-1.467359204
 10
-11.1344523193
 20
-1.4307511324
 10
-11.1687810891
 20
-1.3930397725
 10
-11.2025123879
 20
-1.3542211849
 10
-11.2356485898
 20
-1.3142991017
 10
-11.2680538339
 20
-1.2734352653
 10
-11.2997276209
 20
-1.231621952
 10
-11.3306700441
 20
-1.1888666458
 10
-11.3607461425
 20
-1.1453539078
 10
-11.3899535352
 20
-1.1010761247
 10
-11.4182941641
 20
-1.0560406508
 10
-11.4456395791
 20
-1.0104545148
 10
-11.4719797848
 20
-0.9643239741
 10
-11.4973243328
 20
-0.9176425098
 10
-11.5215741342
 20
-0.8705980097
 10
-11.5447213064
 20
-0.823200352
 10
-11.5667732997
 20
-0.7754394041
 10
-11.5876540678
 20
-0.7274730633
 10
-11.6073657904
 20
-0.6792893943
 10
-11.625905871
 20
-0.6309000873
 10
-11.6431911525
 20
-0.5824985104
 10
-11.6592217225
 20
-0.5340606096
 10
-11.6739971198
 20
-0.4856102195
 10
-11.6874334507
 20
-0.4374125921
 10
-11.6995185049
 20
-0.389466309
 10
-11.7102642184
 20
-0.3417726279
 10
-11.7196230359
 20
-0.2946008845
 10
-11.7275804827
 20
-0.2479572897
 10
-11.7341508837
 20
-0.2018355456
 10
-11.739330016
 20
-0.1564863026
 10
-11.7431164974
 20
-0.1119931264
 10
-11.7455117109
 20
-0.0682724528
 10
-11.7465156491
 20
-0.025324278
  0
LWPOLYLINE
  5
281
100
AcDbEntity
  8
RACCORDO
100
AcDbPolyline
 62
253
  6
CONTINUOUS
 90
38
 70
0
 10
-10.0349022962
 20
-1.4822748958
 10
-9.9837604172
 20
-1.4329288759
 10
-9.9409746332
 20
-1.3743882429
 10
-9.9066254492
 20
-1.3078483948
 10
-9.88110393
 20
-1.2360746208
 10
-9.8638919944
 20
-1.1613593407
 10
-9.8540172831
 20
-1.0845433677
 10
-9.8507042666
 20
-1.0064458995
 10
-9.8532500226
 20
-0.928145849
 10
-9.8609363699
 20
-0.8505581682
 10
-9.8731500302
 20
-0.7739353994
 10
-9.8892917009
 20
-0.6988887327
 10
-9.9087616241
 20
-0.6260008224
 10
-9.9311384036
 20
-0.5552744047
 10
-9.9559487959
 20
-0.4870410834
 10
-9.9827195415
 20
-0.4216263821
 10
-10.0111769745
 20
-0.3589119418
 10
-10.0409563089
 20
-0.2990640891
 10
-10.0717032895
 20
-0.242227211
 10
-10.1032700708
 20
-0.1881973299
 10
-10.1354005223
 20
-0.1370138135
 10
-10.167826405
 20
-0.088737413
 10
-10.2004598143
 20
-0.0431774662
 10
-10.2331098302
 20
-0.0003209144
 10
-10.2655881422
 20
0.0398466629
 10
-10.2978634778
 20
0.0775193101
 10
-10.3298035925
 20
0.1127483321
 10
-10.3612738125
 20
0.1455799965
 10
-10.3922757354
 20
0.1761920306
 10
-10.4227214691
 20
0.2046554031
 10
-10.4525154661
 20
0.2310315905
 10
-10.4816722241
 20
0.255472027
 10
-10.5101212868
 20
0.2780446957
 10
-10.5378104758
 20
0.2988301885
 10
-10.5647983078
 20
0.3179827827
 10
-10.5910792347
 20
0.3355963877
 10
-10.6165813698
 20
0.3517174472
 10
-10.6412742409
 20
0.3664201807
  0
LINE
  5
282
100
AcDbEntity
  8
DRAFT
100
AcDbLine
 62
7
  6
CONTINUOUS
 10
-11.0396031083
 20
0.6211881287
 11
-11.1830975085
 21
0.5341945931
  0
LINE
  5
283
100
AcDbEntity
  8
ASSI
100
AcDbLine
 62
7
  6
CONTINUOUS
 10
-11.3314466989
 20
0.580092053
 11
-11.3304760501
 21
0.5806267754
  0
LWPOLYLINE
  5
284
100
AcDbEntity
  8
ASSI
100
AcDbPolyline
 62
7
  6
CONTINUOUS
 90
28
 70
0
 10
-11.3314537397
 20
0.5800880278
 10
-11.283717514
 20
0.6022187964
 10
-11.2246742565
 20
0.619515275
 10
-11.1608172284
 20
0.6281775075
 10
-11.0924054742
 20
0.6279684514
 10
-11.0197732759
 20
0.6186417909
 10
-10.9438458164
 20
0.6001105478
 10
-10.8660651766
 20
0.5727115291
 10
-10.7877397553
 20
0.537103026
 10
-10.7091918089
 20
0.4936554133
 10
-10.6302950926
 20
0.4423529166
 10
-10.5515403084
 20
0.3834395925
 10
-10.4737756544
 20
0.3174930697
 10
-10.3972938225
 20
0.2446940745
 10
-10.322577262
 20
0.1653660258
 10
-10.2504101181
 20
0.0802150146
 10
-10.1814831529
 20
-0.0100163258
 10
-10.1163552955
 20
-0.1046408279
 10
-10.0555474123
 20
-0.2029368099
 10
-9.9996046522
 20
-0.3040291367
 10
-9.9489545943
 20
-0.4071160964
 10
-9.9039693902
 20
-0.5113938997
 10
-9.8650100778
 20
-0.6159377626
 10
-9.8323294417
 20
-0.7199224554
 10
-9.8061222953
 20
-0.822527415
 10
-9.786544273
 20
-0.9228116275
 10
-9.7736464073
 20
-1.0199382292
 10
-9.7673940014
 20
-1.1132168333
  0
LWPOLYLINE
  5
285
100
AcDbEntity
  8
CURVE
100
AcDbPolyline
 62
253
  6
CONTINUOUS
 90
73
 70
0
 10
-9.9376416844
 20
-7.3003019058
 10
-9.9404769773
 20
-7.3006232523
 10
-9.9431981828
 20
-7.3010951335
 10
-9.9458166493
 20
-7.301714611
 10
-9.9483437249
 20
-7.3024787466
 10
-9.9507907582
 20
-7.3033846018
 10
-9.9531690972
 20
-7.3044292385
 10
-9.9554877384
 20
-7.3056108096
 10
-9.9577462698
 20
-7.3069318336
 10
-9.9599419274
 20
-7.3083959203
 10
-9.9620719474
 20
-7.3100066794
 10
-9.9641335658
 20
-7.3117677208
 10
-9.9661240187
 20
-7.3136826542
 10
-9.968039623
 20
-7.3157539049
 10
-9.9698730192
 20
-7.3179791594
 10
-9.9716159287
 20
-7.3203549199
 10
-9.9732600729
 20
-7.3228776884
 10
-9.9747971733
 20
-7.325543967
 10
-9.9762189511
 20
-7.3283502578
 10
-9.9775180925
 20
-7.3312929859
 10
-9.9786911416
 20
-7.3343682689
 10
-9.9797356074
 20
-7.3375721477
 10
-9.9806489987
 20
-7.3409006631
 10
-9.9814288243
 20
-7.3443498557
 10
-9.9820725932
 20
-7.3479157664
 10
-9.9825784156
 20
-7.3515939536
 10
-9.9829468071
 20
-7.3553780464
 10
-9.9831788849
 20
-7.3592611917
 10
-9.983275766
 20
-7.3632365361
 10
-9.9832385675
 20
-7.3672972264
 10
-9.9830684065
 20
-7.3714364095
 10
-9.9827664779
 20
-7.3756470036
 10
-9.982334288
 20
-7.3799210135
 10
-9.9817734211
 20
-7.3842502155
 10
-9.9810854613
 20
-7.3886263856
 10
-9.980271993
 20
-7.3930413003
 10
-9.9793346003
 20
-7.3974867357
 10
-9.9782747373
 20
-7.4019549765
 10
-9.9770933377
 20
-7.406440341
 10
-9.9757912053
 20
-7.4109376562
 10
-9.9743691435
 20
-7.4154417488
 10
-9.972827956
 20
-7.4199474456
 10
-9.9711684465
 20
-7.4244495734
 10
-9.9693918761
 20
-7.4289428776
 10
-9.9675013365
 20
-7.4334217777
 10
-9.9655003767
 20
-7.4378806118
 10
-9.963392546
 20
-7.4423137178
 10
-9.9611813936
 20
-7.446715434
 10
-9.9588704686
 20
-7.4510800983
 10
-9.9564633444
 20
-7.4554021154
 10
-9.9539636906
 20
-7.4596761562
 10
-9.9513752013
 20
-7.4638969582
 10
-9.9487015702
 20
-7.468059259
 10
-9.9459464913
 20
-7.472157796
 10
-9.9431136584
 20
-7.4761873068
 10
-9.9402075686
 20
-7.4801420469
 10
-9.9372359313
 20
-7.4840143448
 10
-9.9342072594
 20
-7.4877960466
 10
-9.9311300653
 20
-7.491478999
 10
-9.9280128618
 20
-7.4950550482
 10
-9.9248641616
 20
-7.4985160406
 10
-9.921691421
 20
-7.5018553788
 10
-9.9184978713
 20
-7.5050726895
 10
-9.9152856877
 20
-7.5081691558
 10
-9.9120570452
 20
-7.5111459606
 10
-9.9088141188
 20
-7.5140042867
 10
-9.9055590836
 20
-7.5167453172
 10
-9.9022919848
 20
-7.5193704176
 10
-9.8990043475
 20
-7.5218816843
 10
-9.8956855673
 20
-7.524281396
 10
-9.8923250392
 20
-7.5265718318
 10
-9.8889121588
 20
-7.5287552707
 10
-9.8854363213
 20
-7.5308339914
  0
LWPOLYLINE
  5
286
100
AcDbEntity
  8
CURVE
100
AcDbPolyline
 62
253
  6
CONTINUOUS
 90
73
 70
0
 10
-11.7212918098
 20
-7.4461304037
 10
-11.7241208213
 20
-7.4464426355
 10
-11.7268350272
 20
-7.4469057876
 10
-11.7294460333
 20
-7.4475169357
 10
-11.7319654455
 20
-7.4482731554
 10
-11.7344048696
 20
-7.4491715223
 10
-11.7367759114
 20
-7.4502091121
 10
-11.7390877634
 20
-7.4513841236
 10
-11.7413399641
 20
-7.4526992484
 10
-11.7435296388
 20
-7.4541583013
 10
-11.7456539125
 20
-7.455765097
 10
-11.7477099104
 20
-7.4575234504
 10
-11.7496947578
 20
-7.4594371762
 10
-11.751604634
 20
-7.4615088683
 10
-11.7534319363
 20
-7.4637362366
 10
-11.7551681161
 20
-7.4661157699
 10
-11.7568046248
 20
-7.4686439572
 10
-11.7583329141
 20
-7.4713172874
 10
-11.7597444354
 20
-7.4741322493
 10
-11.7610316381
 20
-7.4770852683
 10
-11.7621909636
 20
-7.4801725149
 10
-11.763219851
 20
-7.483390096
 10
-11.7641157397
 20
-7.4867341186
 10
-11.7648760689
 20
-7.4902006896
 10
-11.7654982778
 20
-7.4937859159
 10
-11.7659804354
 20
-7.4974853701
 10
-11.7663231295
 20
-7.5012924882
 10
-11.7665275777
 20
-7.5052001716
 10
-11.7665949974
 20
-7.5092013219
 10
-11.7665266061
 20
-7.5132888407
 10
-11.7663236214
 20
-7.5174556296
 10
-11.765987373
 20
-7.5216943325
 10
-11.7655196398
 20
-7.5259965622
 10
-11.7649223126
 20
-7.5303536741
 10
-11.7641972827
 20
-7.5347570235
 10
-11.7633464409
 20
-7.5391979656
 10
-11.7623716783
 20
-7.5436678558
 10
-11.7612747505
 20
-7.5481586383
 10
-11.760056871
 20
-7.5526646141
 10
-11.7587191176
 20
-7.5571806733
 10
-11.7572625685
 20
-7.5617017059
 10
-11.7556883016
 20
-7.5662226019
 10
-11.7539973948
 20
-7.5707382513
 10
-11.75219135
 20
-7.5752434174
 10
-11.7502733642
 20
-7.5797323554
 10
-11.7482470581
 20
-7.5841991939
 10
-11.7461160525
 20
-7.5886380614
 10
-11.7438839681
 20
-7.5930430864
 10
-11.7415544259
 20
-7.5974083975
 10
-11.7391310235
 20
-7.6017282198
 10
-11.7366172672
 20
-7.6059971655
 10
-11.7340166403
 20
-7.6102099434
 10
-11.7313326259
 20
-7.6143612624
 10
-11.7285687073
 20
-7.6184458313
 10
-11.7257283678
 20
-7.622458359
 10
-11.722815975
 20
-7.6263930894
 10
-11.7198394346
 20
-7.6302424068
 10
-11.7168075365
 20
-7.6339982305
 10
-11.7137290709
 20
-7.6376524798
 10
-11.7106128276
 20
-7.6411970742
 10
-11.7074675968
 20
-7.6446239328
 10
-11.7043010843
 20
-7.6479266141
 10
-11.7011166591
 20
-7.6511052321
 10
-11.6979166061
 20
-7.6541615399
 10
-11.6947032101
 20
-7.6570972904
 10
-11.691478756
 20
-7.6599142367
 10
-11.6882455285
 20
-7.6626141318
 10
-11.6850035972
 20
-7.6651989517
 10
-11.6817441692
 20
-7.6676715646
 10
-11.6784562364
 20
-7.6700350614
 10
-11.6751287906
 20
-7.6722925333
 10
-11.6717508236
 20
-7.6744470712
 10
-11.6683113272
 20
-7.6765017662
  0
LWPOLYLINE
  5
287
100
AcDbEntity
  8
RACCORDO
100
AcDbPolyline
 62
253
  6
CONTINUOUS
 90
8
 70
0
 10
-10.5552151433
 20
-1.5035540521
 10
-10.4701809217
 20
-1.5364450293
 10
-10.3871824316
 20
-1.5575687493
 10
-10.3072227302
 20
-1.5666735638
 10
-10.2312340172
 20
-1.5636587602
 10
-10.1600748286
 20
-1.5485506894
 10
-10.0942077304
 20
-1.5213017278
 10
-10.0349022962
 20
-1.4822748958
  0
LWPOLYLINE
  5
288
100
AcDbEntity
  8
RACCORDO
100
AcDbPolyline
 62
7
  6
CONTINUOUS
 90
9
 70
0
 10
-10.5414800674
 20
-1.5378577803
 10
-10.462681404
 20
-1.5707379812
 10
-10.3850887194
 20
-1.5947591941
 10
-10.3089696875
 20
-1.6099100817
 10
-10.2349893147
 20
-1.6161084164
 10
-10.1642189677
 20
-1.6134411315
 10
-10.0973142334
 20
-1.6022572681
 10
-10.0345234525
 20
-1.5829392359
 10
-9.9762786223
 20
-1.5559421993
  0
LINE
  5
289
100
AcDbEntity
  8
RACCORDO
100
AcDbLine
 62
253
  6
CONTINUOUS
 10
-10.6412742409
 20
-1.4592859567
 11
-10.5552151433
 21
-1.5035540521
  0
LINE
  5
28A
100
AcDbEntity
  8
RACCORDO
100
AcDbLine
 62
253
  6
CONTINUOUS
 10
-10.6412742409
 20
0.3664201807
 11
-10.7273326444
 21
0.410688677
  0
LINE
  5
28B
100
AcDbEntity
  8
RACCORDO
100
AcDbLine
 62
7
  6
CONTINUOUS
 10
-10.6210093149
 20
-1.4961870965
 11
-10.5414800674
 21
-1.5378577803
  0
LINE
  5
28C
100
AcDbEntity
  8
ASSI
100
AcDbLine
 62
253
  6
CONTINUOUS
 10
-10.7120742242
 20
0.5280665478
 11
-10.6744833819
 21
0.5039396116
  0
LWPOLYLINE
  5
28D
100
AcDbEntity
  8
ASSI
100
AcDbPolyline
 62
253
  6
CONTINUOUS
 90
38
 70
0
 10
-10.6744833819
 20
0.5039396116
 10
-10.6370407806
 20
0.4782942729
 10
-10.5997464465
 20
0.4511237618
 10
-10.5626002535
 20
0.4224349066
 10
-10.5257589006
 20
0.3923487613
 10
-10.4892234445
 20
0.360859174
 10
-10.4529926335
 20
0.3279724105
 10
-10.4172196845
 20
0.2938281616
 10
-10.3819078697
 20
0.2584228261
 10
-10.347053637
 20
0.2217601691
 10
-10.3127999555
 20
0.1839909369
 10
-10.2791492457
 20
0.1451113776
 10
-10.2460987358
 20
0.1051254488
 10
-10.2137836049
 20
0.0641954622
 10
-10.1822040006
 20
0.0223139126
 10
-10.151359369
 20
-0.0205114569
 10
-10.1213838482
 20
-0.0640954685
 10
-10.0922794291
 20
-0.1084455018
 10
-10.0640436817
 20
-0.1535539199
 10
-10.0368041395
 20
-0.1992130366
 10
-10.010570365
 20
-0.2454163306
 10
-9.9853323518
 20
-0.292170063
 10
-9.9611883204
 20
-0.3392857444
 10
-9.938145717
 20
-0.3867532162
 10
-9.9161966629
 20
-0.4345823831
 10
-9.8954164346
 20
-0.4826148763
 10
-9.8758024668
 20
-0.5308624007
 10
-9.8573569077
 20
-0.5793130063
 10
-9.840162158
 20
-0.6277728735
 10
-9.8242178053
 20
-0.6762658988
 10
-9.8095238882
 20
-0.7247679658
 10
-9.79616357
 20
-0.7730132866
 10
-9.7841488091
 20
-0.821003132
 10
-9.7734673726
 20
-0.8687360694
 10
-9.7641662552
 20
-0.9159423256
 10
-9.7562597948
 20
-0.962615595
 10
-9.7497335039
 20
-1.0087620944
 10
-9.7445912706
 20
-1.0541309116
  0
LINE
  5
28E
100
AcDbEntity
  8
ASSI
100
AcDbLine
 62
7
  6
CONTINUOUS
 10
-4.1823058687
 20
22.2204855031
 11
-4.1611091371
 21
21.6042617893
  0
LINE
  5
28F
100
AcDbEntity
  8
ASSI
100
AcDbLine
 62
253
  6
CONTINUOUS
 10
-4.3624723152
 20
21.8064602228
 11
-4.3624723152
 21
21.7435550779
  0
LINE
  5
290
100
AcDbEntity
  8
ASSI
100
AcDbLine
 62
7
  6
CONTINUOUS
 10
3.8080007587
 20
17.6069825985
 11
3.6278343122
 21
17.1929573182
  0
LWPOLYLINE
  5
291
100
AcDbEntity
  8
RACCORDO
100
AcDbPolyline
 62
253
  6
CONTINUOUS
 90
5
 70
0
 10
-9.9762786899
 20
-1.5559422365
 10
-9.917704904
 20
-1.5167496534
 10
-9.8625010221
 20
-1.4634838687
 10
-9.8163162417
 20
-1.4002939444
 10
-9.7826618203
 20
-1.3351020808
  0
LINE
  5
292
100
AcDbEntity
  8
ASSI
100
AcDbLine
 62
7
  6
CONTINUOUS
 10
-9.997155926
 20
-1.699159749
 11
-9.9979361648
 21
-1.6996316381
  0
LWPOLYLINE
  5
293
100
AcDbEntity
  8
ASSI
100
AcDbPolyline
 62
253
  6
CONTINUOUS
 90
65
 70
0
 10
-9.9979361648
 20
-1.6996316381
 10
-10.0046476838
 20
-1.7035984777
 10
-10.0295184748
 20
-1.7169264895
 10
-10.0552987261
 20
-1.7286426471
 10
-10.0819443719
 20
-1.7387260095
 10
-10.1094156031
 20
-1.747161695
 10
-10.1376754825
 20
-1.7539384784
 10
-10.1666811936
 20
-1.7590470161
 10
-10.196388847
 20
-1.7624805593
 10
-10.2267586637
 20
-1.764235385
 10
-10.2577524592
 20
-1.7643104246
 10
-10.2893268092
 20
-1.762705665
 10
-10.3214368782
 20
-1.7594233658
 10
-10.3540415439
 20
-1.7544683836
 10
-10.3870965511
 20
-1.7478470298
 10
-10.4205539848
 20
-1.739568342
 10
-10.4543664031
 20
-1.7296445226
 10
-10.4884862977
 20
-1.7180894555
 10
-10.5228657901
 20
-1.7049191005
 10
-10.5574562091
 20
-1.6901525469
 10
-10.5922086231
 20
-1.6738108416
 10
-10.6270747107
 20
-1.655916637
 10
-10.6620064033
 20
-1.6364948057
 10
-10.6969548891
 20
-1.615572613
 10
-10.731871142
 20
-1.5931792827
 10
-10.7667067711
 20
-1.5693456303
 10
-10.8014136886
 20
-1.5441046629
 10
-10.8359427284
 20
-1.5174919669
 10
-10.8702441942
 20
-1.4895452317
 10
-10.9042704736
 20
-1.4603036082
 10
-10.937973786
 20
-1.4298082277
 10
-10.971304857
 20
-1.3981027494
 10
-11.0042159756
 20
-1.3652333396
 10
-11.0366626797
 20
-1.3312449151
 10
-11.0686014067
 20
-1.2961815789
 10
-11.0999874071
 20
-1.2600928613
 10
-11.1307771863
 20
-1.22302893
 10
-11.1609298837
 20
-1.185036411
 10
-11.1904058444
 20
-1.1461649371
 10
-11.2191610569
 20
-1.1064719582
 10
-11.2471496257
 20
-1.0660177517
 10
-11.2743348993
 20
-1.0248558496
 10
-11.300676712
 20
-0.9830473919
 10
-11.3261269383
 20
-0.9406666345
 10
-11.3506467754
 20
-0.8977820998
 10
-11.3742082895
 20
-0.8544465374
 10
-11.3967821772
 20
-0.8107119454
 10
-11.4183330561
 20
-0.7666500799
 10
-11.4388371324
 20
-0.7223129425
 10
-11.4582813304
 20
-0.6777226173
 10
-11.476640683
 20
-0.6329311793
 10
-11.4938831074
 20
-0.5880114542
 10
-11.5099835458
 20
-0.5430166775
 10
-11.5249237455
 20
-0.4979883846
 10
-11.5386718306
 20
-0.4530124679
 10
-11.5511885922
 20
-0.4082086506
 10
-11.5624592109
 20
-0.3636362765
 10
-11.5724686293
 20
-0.3193621641
 10
-11.5811904165
 20
-0.2755146807
 10
-11.5886200422
 20
-0.2321538633
 10
-11.5947551717
 20
-0.1893377468
 10
-11.5995871536
 20
-0.1471861396
 10
-11.6031210493
 20
-0.1057725587
 10
-11.6053691027
 20
-0.0651266604
 10
-11.6063419989
 20
-0.0252972812
  0
LINE
  5
294
100
AcDbEntity
  8
DRAFT
100
AcDbLine
 62
7
  6
CONTINUOUS
 10
-9.8191994395
 20
-1.4696698458
 11
-9.9762786965
 21
-1.5559422401
  0
LWPOLYLINE
  5
295
100
AcDbEntity
  8
RACCORDO
100
AcDbPolyline
 62
253
  6
CONTINUOUS
 90
42
 70
0
 10
-10.7273326444
 20
0.410688677
 10
-10.8123664709
 20
0.4435798823
 10
-10.8953648652
 20
0.4647036576
 10
-10.9753249277
 20
0.4738082636
 10
-11.051314301
 20
0.4707930787
 10
-11.1224739759
 20
0.4556847272
 10
-11.1883411529
 20
0.4284357201
 10
-11.2476464918
 20
0.3894089431
 10
-11.2987883283
 20
0.3400629477
 10
-11.3415742297
 20
0.281522247
 10
-11.3759235837
 20
0.2149823007
 10
-11.4014452295
 20
0.1432084536
 10
-11.4186572021
 20
0.0684931522
 10
-11.4285319069
 20
-0.0083228171
 10
-11.4318449177
 20
-0.086420282
 10
-11.4292991776
 20
-0.1647203417
 10
-11.4216128469
 20
-0.2423080321
 10
-11.4093991852
 20
-0.3189308001
 10
-11.3932574822
 20
-0.3939774481
 10
-11.3737875087
 20
-0.4668653293
 10
-11.3514106809
 20
-0.5375917191
 10
-11.3266002499
 20
-0.6058250182
 10
-11.2998294677
 20
-0.6712396983
 10
-11.2713719969
 20
-0.7339541167
 10
-11.2415926205
 20
-0.7938019452
 10
-11.2108455966
 20
-0.8506387983
 10
-11.1792787755
 20
-0.9046686564
 10
-11.1471482895
 20
-0.9558521529
 10
-11.1147223758
 20
-1.0041285355
 10
-11.082088937
 20
-1.0496884653
 10
-11.0494388928
 20
-1.0925450007
 10
-11.0169605542
 20
-1.1327125627
 10
-10.9846851933
 20
-1.1703851953
 10
-10.952745053
 20
-1.2056142025
 10
-10.9212748086
 20
-1.2384458529
 10
-10.8902728667
 20
-1.2690578759
 10
-10.8598271243
 20
-1.2975212434
 10
-10.8300331237
 20
-1.3238974288
 10
-10.800876356
 20
-1.3483378597
 10
-10.7724272692
 20
-1.3709105144
 10
-10.7447380499
 20
-1.3916959897
 10
-10.717750194
 20
-1.4108485701
  0
LWPOLYLINE
  5
296
100
AcDbEntity
  8
ASSI
100
AcDbPolyline
 62
7
  6
CONTINUOUS
 90
13
 70
0
 10
12.613806038
 20
-10.2086288078
 10
12.657096347
 20
-10.2309034176
 10
12.707080704
 20
-10.2508615068
 10
12.7591152207
 20
-10.2663133145
 10
12.8128637732
 20
-10.2774290186
 10
12.8678694004
 20
-10.2842586134
 10
12.9233599912
 20
-10.2867970799
 10
12.9788792896
 20
-10.2850655667
 10
13.0339719375
 20
-10.2790366435
 10
13.0878670415
 20
-10.2687041638
 10
13.1401089288
 20
-10.2540115954
 10
13.1903650839
 20
-10.2347834028
 10
13.230520499
 20
-10.2150450713
  0
LWPOLYLINE
  5
297
100
AcDbEntity
  8
ASSI
100
AcDbPolyline
 62
253
  6
CONTINUOUS
 90
8
 70
0
 10
12.5724201213
 20
-10.1169829307
 10
12.5894476779
 20
-10.1263653016
 10
12.6072205499
 20
-10.1352795012
 10
12.6256993371
 20
-10.1437058143
 10
12.6448427815
 20
-10.1516255424
 10
12.6646087297
 20
-10.1590212852
 10
12.6849543182
 20
-10.1658768975
 10
12.7058352243
 20
-10.1721774143
  0
LINE
  5
298
100
AcDbEntity
  8
ASSI
100
AcDbLine
 62
253
  6
CONTINUOUS
 10
12.5724201194
 20
-10.6997367929
 11
-18.1749758197
 21
7.053424267
  0
LINE
  5
299
100
AcDbEntity
  8
ASSI
100
AcDbLine
 62
253
  6
CONTINUOUS
 10
12.712616148
 20
-10.455395166
 11
-18.0347974432
 21
7.297776086
  0
LINE
  5
29A
100
AcDbEntity
  8
ASSI
100
AcDbLine
 62
7
  6
CONTINUOUS
 10
-18.1335681576
 20
7.5445192754
 11
12.6138454341
 21
-10.2086519768
  0
LINE
  5
29B
100
AcDbEntity
  8
ASSI
100
AcDbLine
 62
253
  6
CONTINUOUS
 10
-18.1749758198
 20
7.6361781239
 11
12.5724201194
 21
-10.116982936
  0
LWPOLYLINE
  5
29C
100
AcDbEntity
  8
ASSI
100
AcDbPolyline
 62
253
  6
CONTINUOUS
 90
18
 70
0
 10
-18.1749758179
 20
7.0534242638
 10
-18.191220957
 20
7.0632583928
 10
-18.2066466878
 20
7.0735278024
 10
-18.2212188694
 20
7.0842097406
 10
-18.234905052
 20
7.0952804233
 10
-18.247675182
 20
7.1067154638
 10
-18.2595015264
 20
7.1184899808
 10
-18.270358132
 20
7.1305784032
 10
-18.2802204455
 20
7.1429536308
 10
-18.2890660779
 20
7.1555874607
 10
-18.2968752829
 20
7.168451622
 10
-18.3036310892
 20
7.1815180227
 10
-18.309318764
 20
7.1947579566
 10
-18.3139257193
 20
7.2081424132
 10
-18.3174416183
 20
7.2216416521
 10
-18.3198586114
 20
7.2352254181
 10
-18.3211713257
 20
7.2488637743
 10
-18.3214314488
 20
7.2579819148
  0
LWPOLYLINE
  5
29D
100
AcDbEntity
  8
ASSI
100
AcDbPolyline
 62
253
  6
CONTINUOUS
 90
21
 70
0
 10
-18.0347974432
 20
7.297776086
 10
-18.0445699651
 20
7.30369639
 10
-18.0538137363
 20
7.3098526162
 10
-18.0625287567
 20
7.3162447646
 10
-18.0707325249
 20
7.3228883118
 10
-18.0784075423
 20
7.3297677812
 10
-18.0855013137
 20
7.3368367428
 10
-18.0920095351
 20
7.3440962488
 10
-18.0979365105
 20
7.3515452471
 10
-18.1032426567
 20
7.3591341511
 10
-18.1079237103
 20
7.3668637226
 10
-18.1119839348
 20
7.3747332
 10
-18.1153965367
 20
7.3826907109
 10
-18.1181572931
 20
7.3907369548
 10
-18.1202704269
 20
7.3988712323
 10
-18.1217218133
 20
7.4070395737
 10
-18.1225070146
 20
7.4152422406
 10
-18.1226304687
 20
7.4234789714
 10
-18.1220913643
 20
7.431695012
 10
-18.1208852645
 20
7.4398901774
 10
-18.1190166063
 20
7.4480646526
  0
LWPOLYLINE
  5
29E
100
AcDbEntity
  8
CURVE
100
AcDbPolyline
 62
253
  6
CONTINUOUS
 90
37
 70
0
 10
-9.4931599175
 20
11.5514467478
 10
-9.4917232005
 20
11.5489357232
 10
-9.4902605575
 20
11.5464598451
 10
-9.4887706606
 20
11.5440153791
 10
-9.4872521824
 20
11.5415985907
 10
-9.4857037951
 20
11.5392057454
 10
-9.4841241711
 20
11.5368331087
 10
-9.4825122291
 20
11.5344776548
 10
-9.480867874
 20
11.5321391919
 10
-9.479191257
 20
11.5298182367
 10
-9.4774825293
 20
11.527515306
 10
-9.4757418422
 20
11.5252309166
 10
-9.4739693469
 20
11.5229655853
 10
-9.4721655158
 20
11.520720204
 10
-9.4703321067
 20
11.5184971653
 10
-9.4684711984
 20
11.516299237
 10
-9.4665848699
 20
11.5141291867
 10
-9.4646751999
 20
11.5119897824
 10
-9.4627442674
 20
11.5098837916
 10
-9.4607941846
 20
11.5078138952
 10
-9.4588271962
 20
11.5057824262
 10
-9.4568455806
 20
11.5037916308
 10
-9.4548516159
 20
11.5018437552
 10
-9.4528475801
 20
11.4999410453
 10
-9.4508357515
 20
11.4980857474
 10
-9.4488180916
 20
11.4962797967
 10
-9.446795296
 20
11.4945238853
 10
-9.4447677437
 20
11.4928183947
 10
-9.4427358136
 20
11.4911637059
 10
-9.4406998848
 20
11.4895602004
 10
-9.4386603361
 20
11.4880082594
 10
-9.4366170341
 20
11.4865081685
 10
-9.4345677948
 20
11.4850598302
 10
-9.4325099216
 20
11.4836630515
 10
-9.4304407182
 20
11.4823176391
 10
-9.4283574881
 20
11.4810233998
 10
-9.4262575346
 20
11.4797801405
  0
LWPOLYLINE
  5
29F
100
AcDbEntity
  8
CURVE
100
AcDbPolyline
 62
253
  6
CONTINUOUS
 90
84
 70
0
 10
-11.7265829855
 20
15.8858447926
 10
-11.7290404774
 20
15.890142053
 10
-11.7315465209
 20
15.8943000996
 10
-11.7341065627
 20
15.8983352284
 10
-11.736726049
 20
15.9022637351
 10
-11.7394104265
 20
15.9061019157
 10
-11.7421651416
 20
15.9098660662
 10
-11.7455697116
 20
15.9143025343
 10
-11.7490832083
 20
15.9186496017
 10
-11.7527054294
 20
15.9229010052
 10
-11.7564361724
 20
15.9270504814
 10
-11.7602752351
 20
15.9310917671
 10
-11.7635556839
 20
15.9343710694
 10
-11.7669028873
 20
15.937559636
 10
-11.7703085184
 20
15.9406462132
 10
-11.7737642505
 20
15.9436195471
 10
-11.7772617566
 20
15.9464683838
 10
-11.78079271
 20
15.9491814695
 10
-11.784349381
 20
15.951748732
 10
-11.7879264292
 20
15.9541648254
 10
-11.7915191115
 20
15.9564255857
 10
-11.7951226846
 20
15.9585268487
 10
-11.7987324055
 20
15.9604644501
 10
-11.8023435308
 20
15.9622342258
 10
-11.805951192
 20
15.9638326174
 10
-11.8095500191
 20
15.9652584898
 10
-11.8131345164
 20
15.9665113136
 10
-11.8166991884
 20
15.9675905594
 10
-11.8202385396
 20
15.9684956978
 10
-11.8237470745
 20
15.9692261994
 10
-11.8272195499
 20
15.9697813424
 10
-11.8306517329
 20
15.970159635
 10
-11.8340396432
 20
15.970359393
 10
-11.8373793001
 20
15.9703789321
 10
-11.8406667232
 20
15.9702165681
 10
-11.8438979321
 20
15.9698706167
 10
-11.8470683408
 20
15.9693395155
 10
-11.850170942
 20
15.9686221895
 10
-11.8531981227
 20
15.9677176856
 10
-11.85614227
 20
15.9666250504
 10
-11.858995771
 20
15.9653433309
 10
-11.8617510128
 20
15.9638715738
 10
-11.8644011355
 20
15.9622101372
 10
-11.8669422907
 20
15.9603646241
 10
-11.8693713827
 20
15.9583419489
 10
-11.8716853162
 20
15.9561490259
 10
-11.8738809956
 20
15.9537927693
 10
-11.8759553255
 20
15.9512800935
 10
-11.8779055844
 20
15.9486175299
 10
-11.8797305478
 20
15.9458100781
 10
-11.8814293649
 20
15.9428623551
 10
-11.8830011854
 20
15.9397789775
 10
-11.8844451587
 20
15.9365645623
 10
-11.8857604342
 20
15.9332237261
 10
-11.8869458803
 20
15.9297609531
 10
-11.8879992407
 20
15.9261801962
 10
-11.888917978
 20
15.9224852756
 10
-11.8896995549
 20
15.9186800114
 10
-11.8903414338
 20
15.9147682237
 10
-11.8908410775
 20
15.9107537328
 10
-11.8911965186
 20
15.9066410748
 10
-11.8914080699
 20
15.9024376503
 10
-11.8914766143
 20
15.8981515758
 10
-11.8914030347
 20
15.893790968
 10
-11.8911882141
 20
15.8893639433
 10
-11.8908330352
 20
15.8848786183
 10
-11.8903393355
 20
15.8803443757
 10
-11.8897127696
 20
15.8757756626
 10
-11.8889599467
 20
15.8711881919
 10
-11.8880874759
 20
15.8665976768
 10
-11.8871019666
 20
15.8620198304
 10
-11.8860100277
 20
15.8574703657
 10
-11.884817729
 20
15.8529624286
 10
-11.8835289824
 20
15.8484988958
 10
-11.8821471603
 20
15.8440800769
 10
-11.8806756353
 20
15.8397062814
 10
-11.8791177796
 20
15.8353778187
 10
-11.8774769658
 20
15.8310949985
 10
-11.8757542472
 20
15.826855775
 10
-11.8739413998
 20
15.822648682
 10
-11.8720278809
 20
15.818459898
 10
-11.8700031473
 20
15.8142756015
 10
-11.8678566562
 20
15.810081971
 10
-11.8655778646
 20
15.8058651852
  0
LWPOLYLINE
  5
2A0
100
AcDbEntity
  8
CURVE
100
AcDbPolyline
 62
253
  6
CONTINUOUS
 90
84
 70
0
 10
-9.8212824225
 20
12.4638421066
 10
-9.8237229884
 20
12.4681292928
 10
-9.8262133875
 20
12.4722766697
 10
-9.8287589434
 20
12.4763007399
 10
-9.8313649796
 20
12.4802180062
 10
-9.8340368196
 20
12.4840449712
 10
-9.836779787
 20
12.4877981376
 10
-9.8401710983
 20
12.4922219359
 10
-9.8436718992
 20
12.4965568066
 10
-9.8472815899
 20
12.5007963281
 10
-9.8509995706
 20
12.5049340788
 10
-9.8548252417
 20
12.5089636372
 10
-9.8580938119
 20
12.5122331037
 10
-9.8614284846
 20
12.5154119468
 10
-9.8648209938
 20
12.5184891364
 10
-9.8682630734
 20
12.521453642
 10
-9.8717464576
 20
12.5242944333
 10
-9.8752628802
 20
12.5270004801
 10
-9.8788047034
 20
12.529561881
 10
-9.8823668016
 20
12.531973251
 10
-9.8859446772
 20
12.5342303338
 10
-9.8895338327
 20
12.5363288735
 10
-9.8931297706
 20
12.5382646139
 10
-9.8967279934
 20
12.540033299
 10
-9.9003238069
 20
12.5416312721
 10
-9.9039117303
 20
12.5430572754
 10
-9.9074860861
 20
12.5443106502
 10
-9.911041197
 20
12.545390738
 10
-9.9145713854
 20
12.5462968804
 10
-9.918070974
 20
12.5470284189
 10
-9.9215345614
 20
12.547584563
 10
-9.9249578509
 20
12.5479639948
 10
-9.928336822
 20
12.5481652644
 10
-9.9316674542
 20
12.5481869219
 10
-9.9349457269
 20
12.5480275174
 10
-9.9381676196
 20
12.5476856011
 10
-9.9413285488
 20
12.5471598336
 10
-9.9444216788
 20
12.546449318
 10
-9.9474396111
 20
12.545553268
 10
-9.9503749472
 20
12.5444708972
 10
-9.9532202883
 20
12.5432014194
 10
-9.955968236
 20
12.5417440481
 10
-9.9586120924
 20
12.5400992023
 10
-9.9611479629
 20
12.5382721221
 10
-9.9635726537
 20
12.5362692528
 10
-9.9658829708
 20
12.5340970398
 10
-9.9680757203
 20
12.5317619284
 10
-9.9701477085
 20
12.529270364
 10
-9.9720960903
 20
12.5266284853
 10
-9.9739194164
 20
12.523841205
 10
-9.9756165864
 20
12.5209131291
 10
-9.9771864998
 20
12.5178488639
 10
-9.9786280563
 20
12.5146530154
 10
-9.9799401553
 20
12.5113301898
 10
-9.9811214401
 20
12.507884842
 10
-9.9821695276
 20
12.5043208229
 10
-9.9830817787
 20
12.5006418325
 10
-9.9838555539
 20
12.4968515705
 10
-9.9844882139
 20
12.4929537367
 10
-9.9849771194
 20
12.488952031
 10
-9.9853202281
 20
12.4848509056
 10
-9.9855178862
 20
12.4806578228
 10
-9.985571037
 20
12.4763809971
 10
-9.9854806237
 20
12.472028643
 10
-9.9852475896
 20
12.4676089753
 10
-9.9848728778
 20
12.4631302084
 10
-9.9843584309
 20
12.4586018611
 10
-9.9837101875
 20
12.4540386686
 10
-9.9829350856
 20
12.4494566703
 10
-9.9820400632
 20
12.4448719053
 10
-9.981032058
 20
12.4403004131
 10
-9.9799180082
 20
12.4357582329
 10
-9.9787042787
 20
12.4312587725
 10
-9.9773949437
 20
12.4268049136
 10
-9.9759935042
 20
12.4223969064
 10
-9.9745034616
 20
12.418035001
 10
-9.972928317
 20
12.4137194476
 10
-9.9712715717
 20
12.4094504962
 10
-9.9695343603
 20
12.4052259931
 10
-9.9677083511
 20
12.4010341683
 10
-9.9657828457
 20
12.396860848
 10
-9.9637471458
 20
12.3926918583
 10
-9.9615905531
 20
12.3885130252
 10
-9.9593023692
 20
12.384310175
  0
LWPOLYLINE
  5
2A1
100
AcDbEntity
  8
CURVE
100
AcDbPolyline
 62
253
  6
CONTINUOUS
 90
37
 70
0
 10
-11.4018601999
 20
14.9711984457
 10
-11.4004398124
 20
14.9686797751
 10
-11.3989924043
 20
14.9661974347
 10
-11.3975167722
 20
14.963747679
 10
-11.3960117131
 20
14.9613267624
 10
-11.3944760237
 20
14.9589309392
 10
-11.3929085009
 20
14.9565564638
 10
-11.3913081814
 20
14.9542003004
 10
-11.3896750612
 20
14.9518622517
 10
-11.388009376
 20
14.9495428299
 10
-11.3863113617
 20
14.9472425476
 10
-11.3845812542
 20
14.9449619171
 10
-11.3828192893
 20
14.9427014509
 10
-11.3810260057
 20
14.9404620147
 10
-11.3792031539
 20
14.9382458885
 10
-11.3773527873
 20
14.9360557058
 10
-11.3754769594
 20
14.9338940999
 10
-11.3735777235
 20
14.9317637042
 10
-11.371657133
 20
14.9296671522
 10
-11.3697172746
 20
14.9276069976
 10
-11.3677603674
 20
14.9255854753
 10
-11.3657886639
 20
14.9236047408
 10
-11.3638044165
 20
14.9216669492
 10
-11.3618098776
 20
14.919774256
 10
-11.3598072996
 20
14.9179288164
 10
-11.3577986353
 20
14.91613249
 10
-11.3557846383
 20
14.9143859534
 10
-11.3537657628
 20
14.9126895875
 10
-11.351742463
 20
14.911043773
 10
-11.3497151929
 20
14.9094488908
 10
-11.3476844065
 20
14.9079053218
 10
-11.3456500152
 20
14.9064133314
 10
-11.3436097584
 20
14.9049727238
 10
-11.3415608328
 20
14.903583188
 10
-11.339500435
 20
14.9022444129
 10
-11.3374257618
 20
14.9009560874
 10
-11.3353340097
 20
14.8997179003
  0
LWPOLYLINE
  5
2A2
100
AcDbEntity
  8
ASSI
100
AcDbPolyline
 62
253
  6
CONTINUOUS
 90
31
 70
0
 10
13.5772383608
 20
6.5294214949
 10
13.5581737378
 20
6.5201984127
 10
13.5382292266
 20
6.5115566929
 10
13.517458287
 20
6.503519499
 10
13.495916594
 20
6.496108374
 10
13.4736618883
 20
6.489343183
 10
13.4507538221
 20
6.4832420595
 10
13.4272537986
 20
6.4778213571
 10
13.4032248079
 20
6.4730956056
 10
13.3787312578
 20
6.469077472
 10
13.3538388015
 20
6.4657777265
 10
13.3286141613
 20
6.463205214
 10
13.3031249499
 20
6.4613668298
 10
13.2774394892
 20
6.4602675016
 10
13.2516266271
 20
6.459910176
 10
13.225755553
 20
6.4602958109
 10
13.1998956124
 20
6.4614233725
 10
13.1741161209
 20
6.4632898386
 10
13.1484861784
 20
6.4658902062
 10
13.123074484
 20
6.4692175052
 10
13.0979491519
 20
6.473262817
 10
13.0731775286
 20
6.4780152986
 10
13.0488260125
 20
6.4834622111
 10
13.024959876
 20
6.4895889547
 10
13.0016430906
 20
6.496379107
 10
12.9789381549
 20
6.5038144676
 10
12.956905928
 20
6.5118751064
 10
12.9356054654
 20
6.5205394177
 10
12.9150938615
 20
6.5297841773
 10
12.8954260961
 20
6.5395846055
 10
12.8766548871
 20
6.5499144328
  0
LWPOLYLINE
  5
2A3
100
AcDbEntity
  8
RACCORDO
100
AcDbPolyline
 62
253
  6
CONTINUOUS
 90
6
 70
0
 10
-10.9264040529
 20
0.5939665098
 10
-10.9328232845
 20
0.594697599
 10
-11.0148493468
 20
0.5914471592
 10
-11.0916622506
 20
0.5751418602
 10
-11.1627614832
 20
0.5457289504
 10
-11.1830974806
 20
0.5341946101
  0
LINE
  5
2A4
100
AcDbEntity
  8
RACCORDO
100
AcDbLine
 62
7
  6
CONTINUOUS
 10
-10.7177333812
 20
5.9142402886
 11
-10.6210093149
 21
5.8520453946
  0
LWPOLYLINE
  5
2A5
100
AcDbEntity
  8
RACCORDO
100
AcDbPolyline
 62
253
  6
CONTINUOUS
 90
4
 70
0
 10
-10.717750194
 20
5.937383921
 10
-10.691469254
 20
5.9197703236
 10
-10.6659671122
 20
5.9036492679
 10
-10.6412742409
 20
5.8889465345
  0
LWPOLYLINE
  5
2A6
100
AcDbEntity
  8
ASSI
100
AcDbPolyline
 62
253
  6
CONTINUOUS
 90
43
 70
0
 10
13.8926016869
 20
8.2956759192
 10
13.8549531404
 20
8.2714290172
 10
13.8174214597
 20
8.2457375202
 10
13.780052544
 20
8.2186334927
 10
13.7428916308
 20
8.1901510916
 10
13.7059846329
 20
8.1603254914
 10
13.6693780866
 20
8.1291928186
 10
13.6331165089
 20
8.0967915948
 10
13.5972445256
 20
8.0631623992
 10
13.5618081897
 20
8.0283468424
 10
13.5268511255
 20
7.9923885867
 10
13.4924157713
 20
7.955332176
 10
13.4585455066
 20
7.9172227008
 10
13.4252817384
 20
7.878107534
 10
13.3926651569
 20
7.8380354009
 10
13.3607369682
 20
7.7970552537
 10
13.3295361747
 20
7.7552179286
 10
13.2991009841
 20
7.7125755593
 10
13.2694700691
 20
7.6691806313
 10
13.2406797562
 20
7.6250871651
 10
13.212765138
 20
7.5803498789
 10
13.185761487
 20
7.5350235972
 10
13.1597018604
 20
7.4891646018
 10
13.1346180756
 20
7.4428298637
 10
13.1105418246
 20
7.3960762108
 10
13.0875025412
 20
7.3489615521
 10
13.0655284063
 20
7.3015444921
 10
13.0446473215
 20
7.2538835598
 10
13.0248848978
 20
7.206037983
 10
13.0062651812
 20
7.1580670247
 10
12.9888116689
 20
7.1100295958
 10
12.9725457629
 20
7.0619852963
 10
12.9574872688
 20
7.0139936609
 10
12.9436551444
 20
6.9661135001
 10
12.9310662744
 20
6.9184037525
 10
12.9197361263
 20
6.8709239531
 10
12.9096792129
 20
6.8237334645
 10
12.9009078829
 20
6.7768909747
 10
12.8934326899
 20
6.7304542373
 10
12.8872630337
 20
6.6844805335
 10
12.8824065103
 20
6.6390266928
 10
12.8788689009
 20
6.5941490217
 10
12.876654478
 20
6.5499030322
  0
LWPOLYLINE
  5
2A7
100
AcDbEntity
  8
ASSI
100
AcDbPolyline
 62
253
  6
CONTINUOUS
 90
43
 70
0
 10
14.2584260202
 20
7.6910098352
 10
14.2331382501
 20
7.6748957459
 10
14.2079883426
 20
7.6578616406
 10
14.1829762975
 20
7.6399075193
 10
14.1580709798
 20
7.6210085938
 10
14.1333035245
 20
7.6011896524
 10
14.1087673376
 20
7.5805250594
 10
14.0844636857
 20
7.5590118775
 10
14.0603913021
 20
7.5366530442
 10
14.0366397922
 20
7.5135317365
 10
14.0132105393
 20
7.4896452826
 10
13.9901021602
 20
7.4649963543
 10
13.9674001104
 20
7.4396761441
 10
13.9451058653
 20
7.4136821472
 10
13.9232179495
 20
7.3870168685
 10
13.901817393
 20
7.3597790152
 10
13.8809059458
 20
7.3319663781
 10
13.8604818578
 20
7.3035811663
 10
13.840620908
 20
7.2747287154
 10
13.8213252416
 20
7.245407362
 10
13.8025927135
 20
7.2156187694
 10
13.7844926672
 20
7.1854732623
 10
13.7670274513
 20
7.1549695302
 10
13.7501947173
 20
7.1241088836
 10
13.7340567631
 20
7.0930055789
 10
13.7186161354
 20
7.0616586489
 10
13.7038702876
 20
7.0300690608
 10
13.6898738768
 20
6.9983539729
 10
13.6766297215
 20
6.9665130005
 10
13.6641350032
 20
6.9345465283
 10
13.6524359251
 20
6.9025728686
 10
13.6415354335
 20
6.8705920362
 10
13.631430582
 20
6.8386040164
 10
13.6221587339
 20
6.8067270768
 10
13.61372294
 20
6.7749613881
 10
13.6061201495
 20
6.7433067797
 10
13.5993785741
 20
6.7118810081
 10
13.5935014216
 20
6.6806842873
 10
13.5884854842
 20
6.6497164033
 10
13.5843493506
 20
6.6190944706
 10
13.5810992169
 20
6.5888575274
 10
13.578728887
 20
6.5589665355
 10
13.5772383608
 20
6.5294214949
  0
LINE
  5
2A8
100
AcDbEntity
  8
ASSI
100
AcDbLine
 62
253
  6
CONTINUOUS
 10
16.8132898008
 20
10.0978917002
 11
13.8926017357
 21
8.295675891
  0
LINE
  5
2A9
100
AcDbEntity
  8
ASSI
100
AcDbLine
 62
253
  6
CONTINUOUS
 10
17.1979165955
 20
9.504827767
 11
14.2584260202
 21
7.6910098352
  0
LWPOLYLINE
  5
2AA
100
AcDbEntity
  8
ASSI
100
AcDbPolyline
 62
253
  6
CONTINUOUS
 90
18
 70
0
 10
-11.3148550809
 20
0.6762327895
 10
-11.2835499598
 20
0.6818092764
 10
-11.2514911144
 20
0.6855742648
 10
-11.2186791298
 20
0.6875357772
 10
-11.185248767
 20
0.6876872811
 10
-11.1511976507
 20
0.6860217935
 10
-11.1165285077
 20
0.6825460918
 10
-11.0813837513
 20
0.6772742851
 10
-11.0457600448
 20
0.6701986565
 10
-11.0096610048
 20
0.6613267591
 10
-10.9732394636
 20
0.6506956143
 10
-10.9364942673
 20
0.6382975782
 10
-10.8994267648
 20
0.6241401806
 10
-10.8621935231
 20
0.6082832136
 10
-10.8247944636
 20
0.5907197223
 10
-10.7872297652
 20
0.5714566031
 10
-10.7496563571
 20
0.5505744389
 10
-10.7120742242
 20
0.5280665478
  0
LWPOLYLINE
  5
2AB
100
AcDbEntity
  8
RACCORDO
100
AcDbPolyline
 62
253
  6
CONTINUOUS
 90
8
 70
0
 10
-10.5552151433
 20
5.844678439
 10
-10.4701809217
 20
5.8117874618
 10
-10.3871824316
 20
5.7906637418
 10
-10.3072227302
 20
5.7815589274
 10
-10.2312340172
 20
5.784573731
 10
-10.1600748286
 20
5.7996818017
 10
-10.0942077304
 20
5.8269307633
 10
-10.0349022962
 20
5.8659575954
  0
LWPOLYLINE
  5
2AC
100
AcDbEntity
  8
RACCORDO
100
AcDbPolyline
 62
7
  6
CONTINUOUS
 90
9
 70
0
 10
-10.5414800674
 20
5.8103747108
 10
-10.462681404
 20
5.7774945099
 10
-10.3850887194
 20
5.7534732971
 10
-10.3089696875
 20
5.7383224094
 10
-10.2349893147
 20
5.7321240747
 10
-10.1642189677
 20
5.7347913596
 10
-10.0973142334
 20
5.7459752231
 10
-10.0345234525
 20
5.7652932553
 10
-9.9762786223
 20
5.7922902918
  0
LINE
  5
2AD
100
AcDbEntity
  8
RACCORDO
100
AcDbLine
 62
253
  6
CONTINUOUS
 10
-10.6412742409
 20
5.8889465345
 11
-10.5552151433
 21
5.844678439
  0
LINE
  5
2AE
100
AcDbEntity
  8
RACCORDO
100
AcDbLine
 62
253
  6
CONTINUOUS
 10
-10.6412742409
 20
7.7146526719
 11
-10.7273326444
 21
7.7589211681
  0
LINE
  5
2AF
100
AcDbEntity
  8
RACCORDO
100
AcDbLine
 62
7
  6
CONTINUOUS
 10
-10.6210093149
 20
5.8520453946
 11
-10.5414800674
 21
5.8103747108
  0
LINE
  5
2B0
100
AcDbEntity
  8
ASSI
100
AcDbLine
 62
7
  6
CONTINUOUS
 10
17.5110334273
 20
-7.870724765
 11
17.5986627298
 21
-7.921320826
  0
LWPOLYLINE
  5
2B1
100
AcDbEntity
  8
ASSI
100
AcDbPolyline
 62
253
  6
CONTINUOUS
 90
3
 70
0
 10
-10.7315682502
 20
7.9103561254
 10
-10.6940076389
 20
7.8878464048
 10
-10.6564636324
 20
7.8637037864
  0
LWPOLYLINE
  5
2B2
100
AcDbEntity
  8
ASSI
100
AcDbPolyline
 62
253
  6
CONTINUOUS
 90
38
 70
0
 10
-10.6564636324
 20
7.8637037864
 10
-10.619092877
 20
7.8380288996
 10
-10.5818955018
 20
7.8108149202
 10
-10.5448712777
 20
7.7820687288
 10
-10.5081762904
 20
7.7519115249
 10
-10.4718116994
 20
7.7203370992
 10
-10.4357761503
 20
7.6873517708
 10
-10.4002219399
 20
7.6530955423
 10
-10.3651524185
 20
7.6175647576
 10
-10.330563956
 20
7.5807632305
 10
-10.2965983668
 20
7.5428421747
 10
-10.2632581466
 20
7.5037977832
 10
-10.2305404485
 20
7.4636340612
 10
-10.1985790723
 20
7.4225139411
 10
-10.1673742789
 20
7.3804298367
 10
-10.1369254011
 20
7.3373895636
 10
-10.1073648568
 20
7.2935791512
 10
-10.0786947697
 20
7.2489911345
 10
-10.0509125771
 20
7.2036332265
 10
-10.0241436928
 20
7.1577142088
 10
-9.9983976627
 20
7.1112405986
 10
-9.9736644972
 20
7.0642061297
 10
-9.9500403471
 20
7.0168003864
 10
-9.927532564
 20
6.9690335534
 10
-9.9061333642
 20
6.9208956908
 10
-9.8859162391
 20
6.8725461708
 10
-9.8668787894
 20
6.823973185
 10
-9.8490229976
 20
6.7751887783
 10
-9.832428983
 20
6.7263880726
 10
-9.8170967138
 20
6.6775469817
 10
-9.803025848
 20
6.6286898039
 10
-9.790296126
 20
6.5800841893
 10
-9.77891963
 20
6.5317287936
 10
-9.7688840033
 20
6.4836251173
 10
-9.7602324468
 20
6.4360450103
 10
-9.7529793208
 20
6.3889947496
 10
-9.7471101153
 20
6.3424681439
 10
-9.7426248582
 20
6.296718266
  0
LINE
  5
2B3
100
AcDbEntity
  8
ASSI
100
AcDbLine
 62
7
  6
CONTINUOUS
 10
3.8080007587
 20
17.6069825985
 11
3.8291974903
 21
16.9907588847
  0
LINE
  5
2B4
100
AcDbEntity
  8
ASSI
100
AcDbLine
 62
253
  6
CONTINUOUS
 10
3.6278343122
 20
17.1929573182
 11
3.6278343122
 21
17.1300521733
  0
LWPOLYLINE
  5
2B5
100
AcDbEntity
  8
RACCORDO
100
AcDbPolyline
 62
253
  6
CONTINUOUS
 90
42
 70
0
 10
-10.7273326444
 20
7.7589211681
 10
-10.8123664709
 20
7.7918123734
 10
-10.8953648652
 20
7.8129361487
 10
-10.9753249277
 20
7.8220407547
 10
-11.051314301
 20
7.8190255698
 10
-11.1224739759
 20
7.8039172184
 10
-11.1883411529
 20
7.7766682112
 10
-11.2476464918
 20
7.7376414342
 10
-11.2987883283
 20
7.6882954389
 10
-11.3415742297
 20
7.6297547382
 10
-11.3759235837
 20
7.5632147918
 10
-11.4014452295
 20
7.4914409447
 10
-11.4186572021
 20
7.4167256434
 10
-11.4285319069
 20
7.3399096741
 10
-11.4318449177
 20
7.2618122091
 10
-11.4292991776
 20
7.1835121495
 10
-11.4216128469
 20
7.105924459
 10
-11.4093991852
 20
7.0293016911
 10
-11.3932574822
 20
6.9542550431
 10
-11.3737875087
 20
6.8813671618
 10
-11.3514106809
 20
6.810640772
 10
-11.3266002499
 20
6.742407473
 10
-11.2998294677
 20
6.6769927928
 10
-11.2713719969
 20
6.6142783744
 10
-11.2415926205
 20
6.5544305459
 10
-11.2108455966
 20
6.4975936928
 10
-11.1792787755
 20
6.4435638347
 10
-11.1471482895
 20
6.3923803382
 10
-11.1147223758
 20
6.3441039557
 10
-11.082088937
 20
6.2985440258
 10
-11.0494388928
 20
6.2556874904
 10
-11.0169605542
 20
6.2155199284
 10
-10.9846851933
 20
6.1778472959
 10
-10.952745053
 20
6.1426182886
 10
-10.9212748086
 20
6.1097866383
 10
-10.8902728667
 20
6.0791746152
 10
-10.8598271243
 20
6.0507112477
 10
-10.8300331237
 20
6.0243350624
 10
-10.800876356
 20
5.9998946314
 10
-10.7724272692
 20
5.9773219767
 10
-10.7447380499
 20
5.9565365014
 10
-10.717750194
 20
5.937383921
  0
LINE
  5
2B6
100
AcDbEntity
  8
ASSI
100
AcDbLine
 62
7
  6
CONTINUOUS
 10
11.727596708
 20
13.0343071533
 11
11.5474302615
 21
12.6202818729
  0
LWPOLYLINE
  5
2B7
100
AcDbEntity
  8
RACCORDO
100
AcDbPolyline
 62
253
  6
CONTINUOUS
 90
6
 70
0
 10
-10.8568043931
 20
7.9342722646
 10
-10.9328232845
 20
7.9429300901
 10
-11.0148493468
 20
7.9396796504
 10
-11.0916622506
 20
7.9233743513
 10
-11.1627614832
 20
7.8939614416
 10
-11.1830974806
 20
7.8824271012
  0
LWPOLYLINE
  5
2B8
100
AcDbEntity
  8
CURVE
100
AcDbPolyline
 62
253
  6
CONTINUOUS
 90
85
 70
0
 10
-8.8925387848
 20
12.6112562747
 10
-8.8890608071
 20
12.6093267914
 10
-8.8856471231
 20
12.6075887975
 10
-8.8822857609
 20
12.606030959
 10
-8.8789647483
 20
12.6046419417
 10
-8.8756721133
 20
12.6034104118
 10
-8.8723958838
 20
12.602325035
 10
-8.869126473
 20
12.6013769812
 10
-8.8658638344
 20
12.6005674355
 10
-8.8626103067
 20
12.5999000868
 10
-8.8593682284
 20
12.5993786242
 10
-8.8561399384
 20
12.5990067365
 10
-8.8529277753
 20
12.5987881128
 10
-8.8497353263
 20
12.5987263625
 10
-8.8465711725
 20
12.5988247773
 10
-8.8434451438
 20
12.5990865695
 10
-8.8403670699
 20
12.5995149512
 10
-8.8373467804
 20
12.6001131346
 10
-8.8343941052
 20
12.6008843321
 10
-8.8315179466
 20
12.6018312185
 10
-8.8287234978
 20
12.6029543199
 10
-8.8260150246
 20
12.6042536253
 10
-8.8233967927
 20
12.6057291233
 10
-8.8208730679
 20
12.607380803
 10
-8.8184481161
 20
12.6092086532
 10
-8.8161259257
 20
12.6112118057
 10
-8.8139093758
 20
12.6133859647
 10
-8.8118010682
 20
12.6157259774
 10
-8.8098036047
 20
12.618226691
 10
-8.807919587
 20
12.6208829526
 10
-8.806151617
 20
12.6236896095
 10
-8.8045022634
 20
12.6266419367
 10
-8.8029739631
 20
12.629736921
 10
-8.80156912
 20
12.6329719772
 10
-8.8002901378
 20
12.6363445197
 10
-8.7991394206
 20
12.6398519635
 10
-8.798119372
 20
12.6434917231
 10
-8.7972325421
 20
12.6472605101
 10
-8.796482065
 20
12.6511522235
 10
-8.795871221
 20
12.6551600593
 10
-8.7954032901
 20
12.6592772135
 10
-8.7950815527
 20
12.663496882
 10
-8.7949092889
 20
12.6678122607
 10
-8.7948887935
 20
12.6722160218
 10
-8.7950184192
 20
12.6766987422
 10
-8.7952955333
 20
12.681250475
 10
-8.7957175029
 20
12.6858612734
 10
-8.7962816954
 20
12.6905211903
 10
-8.7969854781
 20
12.6952202789
 10
-8.7978262685
 20
12.6999492554
 10
-8.7988016861
 20
12.7047014879
 10
-8.7999094007
 20
12.7094710074
 10
-8.8011470822
 20
12.7142518451
 10
-8.8025124004
 20
12.7190380322
 10
-8.8040030251
 20
12.7238235997
 10
-8.8056168033
 20
12.7286024751
 10
-8.8073522897
 20
12.7333681713
 10
-8.8092082163
 20
12.7381140975
 10
-8.8111833149
 20
12.742833663
 10
-8.8132763174
 20
12.7475202768
 10
-8.8154859557
 20
12.7521673482
 10
-8.8178102767
 20
12.7567681292
 10
-8.8202445883
 20
12.7613152428
 10
-8.8227835132
 20
12.7658011548
 10
-8.8254216743
 20
12.7702183311
 10
-8.8281536944
 20
12.7745592373
 10
-8.8309741963
 20
12.7788163394
 10
-8.8338766321
 20
12.7829817461
 10
-8.8368497703
 20
12.7870461382
 10
-8.8398812086
 20
12.7909998392
 10
-8.8429585445
 20
12.7948331729
 10
-8.8460693758
 20
12.7985364631
 10
-8.8492013002
 20
12.8021000333
 10
-8.8523437489
 20
12.8055164072
 10
-8.8554934878
 20
12.8087869077
 10
-8.8586491165
 20
12.8119150576
 10
-8.8618092343
 20
12.8149043799
 10
-8.8649724409
 20
12.8177583972
 10
-8.8681373357
 20
12.8204806326
 10
-8.8713048437
 20
12.8230746797
 10
-8.8744851915
 20
12.8255444162
 10
-8.8776909313
 20
12.8278937909
 10
-8.8809346151
 20
12.8301267523
 10
-8.8842287953
 20
12.8322472491
 10
-8.8875860237
 20
12.83425923
  0
LWPOLYLINE
  5
2B9
100
AcDbEntity
  8
CURVE
100
AcDbPolyline
 62
253
  6
CONTINUOUS
 90
85
 70
0
 10
-11.6616755245
 20
14.2101211228
 10
-11.6581962383
 20
14.2081910442
 10
-11.6547813353
 20
14.2064528096
 10
-11.6514188527
 20
14.2048950644
 10
-11.6480968279
 20
14.2035064535
 10
-11.644803298
 20
14.2022756223
 10
-11.6415263004
 20
14.2011912159
 10
-11.6382562555
 20
14.2002443837
 10
-11.6349931168
 20
14.1994362925
 10
-11.631739221
 20
14.1987706134
 10
-11.6284969048
 20
14.1982510172
 10
-11.6252685049
 20
14.1978811752
 10
-11.6220563581
 20
14.1976647583
 10
-11.6188640488
 20
14.1976053574
 10
-11.6157001535
 20
14.197706243
 10
-11.6125744965
 20
14.1979706054
 10
-11.6094969021
 20
14.198401635
 10
-11.6064771944
 20
14.1990025221
 10
-11.6035251979
 20
14.199776457
 10
-11.6006498092
 20
14.2007260906
 10
-11.5978562149
 20
14.2018519154
 10
-11.595148674
 20
14.2031538844
 10
-11.5925314455
 20
14.2046319507
 10
-11.5900087884
 20
14.2062860673
 10
-11.5875849618
 20
14.2081161872
 10
-11.5852639469
 20
14.2101214137
 10
-11.5830486145
 20
14.2122974513
 10
-11.5809415576
 20
14.2146391547
 10
-11.5789453693
 20
14.2171413784
 10
-11.5770626426
 20
14.2197989772
 10
-11.5752959705
 20
14.2226068058
 10
-11.5736479153
 20
14.2255601475
 10
-11.5721209153
 20
14.2286560008
 10
-11.5707173781
 20
14.2318917929
 10
-11.5694397112
 20
14.2352649508
 10
-11.5682903221
 20
14.2387729017
 10
-11.5672716185
 20
14.2424130728
 10
-11.5663861532
 20
14.2461821856
 10
-11.5656370614
 20
14.2500741396
 10
-11.5650276236
 20
14.2540821287
 10
-11.5645611203
 20
14.2581993468
 10
-11.564240832
 20
14.2624189876
 10
-11.5640700392
 20
14.2667342452
 10
-11.5640510334
 20
14.2711377865
 10
-11.5641821489
 20
14.2756201705
 10
-11.564460731
 20
14.2801714296
 10
-11.5648841252
 20
14.2847815958
 10
-11.5654496766
 20
14.2894407014
 10
-11.5661547306
 20
14.2941387786
 10
-11.5669966858
 20
14.2988665308
 10
-11.5679731545
 20
14.303617347
 10
-11.569081802
 20
14.3083852872
 10
-11.5703202939
 20
14.3131644116
 10
-11.5716862956
 20
14.3179487804
 10
-11.5731774727
 20
14.3227324537
 10
-11.5747916655
 20
14.3275093829
 10
-11.5765274143
 20
14.3322730839
 10
-11.5783834342
 20
14.3370169637
 10
-11.5803584401
 20
14.3417344296
 10
-11.5824511474
 20
14.3464188885
 10
-11.5846602709
 20
14.3510637477
 10
-11.5869838462
 20
14.3556622619
 10
-11.5894171892
 20
14.3602070775
 10
-11.5919549365
 20
14.3646906883
 10
-11.5945917244
 20
14.3691055884
 10
-11.5973221892
 20
14.3734442717
 10
-11.6001409675
 20
14.3776992321
 10
-11.6030415294
 20
14.3818626045
 10
-11.6060126814
 20
14.3859250861
 10
-11.6090420637
 20
14.389877015
 10
-11.6121173165
 20
14.3937087294
 10
-11.6152260803
 20
14.3974105674
 10
-11.6183559951
 20
14.400972867
 10
-11.6214965276
 20
14.4043881591
 10
-11.6246444489
 20
14.4076577461
 10
-11.6277983564
 20
14.4107851227
 10
-11.6309568476
 20
14.413773784
 10
-11.6341185198
 20
14.4166272251
 10
-11.6372819704
 20
14.4193489408
 10
-11.6404481177
 20
14.4219424972
 10
-11.6436271628
 20
14.4244117448
 10
-11.6468316279
 20
14.4267606052
 10
-11.650074035
 20
14.4289929998
 10
-11.6533669062
 20
14.4311128503
 10
-11.6567227635
 20
14.4331240781
  0
LWPOLYLINE
  5
2BA
100
AcDbEntity
  8
CURVE
100
AcDbPolyline
 62
253
  6
CONTINUOUS
 90
69
 70
0
 10
-9.4262575346
 20
11.4797801405
 10
-9.4232728318
 20
11.4781148815
 10
-9.4203255758
 20
11.4765858898
 10
-9.4174076003
 20
11.4751862066
 10
-9.414510739
 20
11.4739088727
 10
-9.4116268252
 20
11.4727469291
 10
-9.4087476927
 20
11.4716934167
 10
-9.4052902058
 20
11.4705653667
 10
-9.4018296882
 20
11.4695884141
 10
-9.3983679839
 20
11.4687675365
 10
-9.3949069368
 20
11.4681077113
 10
-9.391448391
 20
11.4676139158
 10
-9.3879960718
 20
11.467291037
 10
-9.3845612305
 20
11.4671435983
 10
-9.3811569998
 20
11.4671760328
 10
-9.3777965122
 20
11.4673927734
 10
-9.3744929003
 20
11.4677982529
 10
-9.3717922568
 20
11.4682833487
 10
-9.3691445002
 20
11.4689040921
 10
-9.3665539004
 20
11.4696619833
 10
-9.3640247276
 20
11.4705585228
 10
-9.3615612516
 20
11.4715952109
 10
-9.3591677424
 20
11.472773548
 10
-9.3568481469
 20
11.4740943426
 10
-9.3546051199
 20
11.4755556368
 10
-9.3524409932
 20
11.4771547805
 10
-9.3503580984
 20
11.4788891239
 10
-9.3483587673
 20
11.4807560172
 10
-9.3464453316
 20
11.4827528104
 10
-9.3446199805
 20
11.4848769415
 10
-9.3428843326
 20
11.4871261992
 10
-9.3412398642
 20
11.48949846
 10
-9.3396880513
 20
11.4919916003
 10
-9.3382303702
 20
11.4946034966
 10
-9.336868297
 20
11.4973320254
 10
-9.3356034712
 20
11.5001746705
 10
-9.3344381853
 20
11.5031273448
 10
-9.3333748955
 20
11.5061855686
 10
-9.3324160576
 20
11.509344862
 10
-9.3315641276
 20
11.5126007453
 10
-9.3308215616
 20
11.5159487387
 10
-9.3301904982
 20
11.5193841725
 10
-9.3296718076
 20
11.5229016173
 10
-9.3292660426
 20
11.5264954537
 10
-9.3289737561
 20
11.5301600623
 10
-9.3287955009
 20
11.5338898237
 10
-9.3287318299
 20
11.5376791186
 10
-9.3287827961
 20
11.5415224124
 10
-9.3289464526
 20
11.5454145092
 10
-9.3292203527
 20
11.5493502983
 10
-9.3296020497
 20
11.5533246685
 10
-9.3300890968
 20
11.5573325089
 10
-9.3306790473
 20
11.5613687087
 10
-9.3315187877
 20
11.5662407163
 10
-9.3324954321
 20
11.5711273494
 10
-9.3336012268
 20
11.5760097559
 10
-9.3348284184
 20
11.5808690837
 10
-9.336169253
 20
11.5856864808
 10
-9.337616622
 20
11.5904462388
 10
-9.3391659957
 20
11.5951452246
 10
-9.3408134891
 20
11.5997834485
 10
-9.3425552172
 20
11.6043609212
 10
-9.3443872952
 20
11.6088776533
 10
-9.345981758
 20
11.6125967749
 10
-9.3476431179
 20
11.6162831479
 10
-9.3493782268
 20
11.6199461975
 10
-9.3511939365
 20
11.6235953488
 10
-9.3530970992
 20
11.6272400269
 10
-9.3550945666
 20
11.6308896571
  0
LWPOLYLINE
  5
2BB
100
AcDbEntity
  8
CURVE
100
AcDbPolyline
 62
253
  6
CONTINUOUS
 90
54
 70
0
 10
-10.6546457843
 20
11.5942017057
 10
-10.6520171377
 20
11.5927286027
 10
-10.6494206899
 20
11.5913622713
 10
-10.6468511866
 20
11.5900980144
 10
-10.6443033735
 20
11.588931135
 10
-10.6417719961
 20
11.587856936
 10
-10.6392518001
 20
11.5868707203
 10
-10.6367375312
 20
11.585967791
 10
-10.6338062649
 20
11.5850150916
 10
-10.6308769672
 20
11.5841722213
 10
-10.6279506911
 20
11.5834420401
 10
-10.6250284896
 20
11.5828274086
 10
-10.6221114157
 20
11.5823311868
 10
-10.6192005223
 20
11.5819562351
 10
-10.6162980122
 20
11.5817053405
 10
-10.6134106879
 20
11.5815809974
 10
-10.6105465014
 20
11.581585627
 10
-10.607713405
 20
11.5817216505
 10
-10.6049193508
 20
11.581991489
 10
-10.602172291
 20
11.5823975638
 10
-10.5998606549
 20
11.5828557695
 10
-10.5975917258
 20
11.5834166108
 10
-10.5953678419
 20
11.5840808528
 10
-10.5931913412
 20
11.5848492604
 10
-10.5910645618
 20
11.5857225984
 10
-10.5889898419
 20
11.5867016317
 10
-10.5869695195
 20
11.5877871254
 10
-10.5850057846
 20
11.5889793158
 10
-10.583100234
 20
11.5902763248
 10
-10.5812543166
 20
11.591675746
 10
-10.5794694809
 20
11.5931751728
 10
-10.5777471758
 20
11.5947721986
 10
-10.57608885
 20
11.5964644169
 10
-10.5744959521
 20
11.5982494211
 10
-10.5729699122
 20
11.6001242682
 10
-10.5715120854
 20
11.6020838689
 10
-10.5701238078
 20
11.6041225975
 10
-10.568806416
 20
11.6062348284
 10
-10.5675612462
 20
11.6084149358
 10
-10.5663896348
 20
11.6106572939
 10
-10.5652929181
 20
11.6129562771
 10
-10.5641091499
 20
11.6157036212
 10
-10.5630270217
 20
11.6185182551
 10
-10.5620444149
 20
11.6213980528
 10
-10.5611592106
 20
11.6243408883
 10
-10.56036929
 20
11.6273446358
 10
-10.5596725342
 20
11.6304071691
 10
-10.5591483097
 20
11.6330787767
 10
-10.5586923369
 20
11.6357990829
 10
-10.5583059765
 20
11.6385751589
 10
-10.5579905892
 20
11.6414140757
 10
-10.5577475357
 20
11.6443229043
 10
-10.5575781768
 20
11.6473087157
 10
-10.5574838731
 20
11.6503785808
  0
LWPOLYLINE
  5
2BC
100
AcDbEntity
  8
CURVE
100
AcDbPolyline
 62
253
  6
CONTINUOUS
 90
37
 70
0
 10
-11.8614784261
 20
12.8858461628
 10
-11.8594374029
 20
12.8846967439
 10
-11.857407744
 20
12.8836112918
 10
-11.855386719
 20
12.8825872105
 10
-11.8533715977
 20
12.8816219041
 10
-11.8513596496
 20
12.8807127766
 10
-11.8493481444
 20
12.8798572322
 10
-11.84733487
 20
12.8790531644
 10
-11.8453196885
 20
12.8783004248
 10
-11.84330298
 20
12.8775993542
 10
-11.8412851251
 20
12.8769502937
 10
-11.8392665039
 20
12.8763535842
 10
-11.837247497
 20
12.8758095667
 10
-11.8352288231
 20
12.8753186422
 10
-11.8332125561
 20
12.8748814511
 10
-11.8312011082
 20
12.874498694
 10
-11.8291968918
 20
12.8741710712
 10
-11.827202319
 20
12.8738992834
 10
-11.8252198024
 20
12.8736840308
 10
-11.823251716
 20
12.8735258934
 10
-11.8213002818
 20
12.8734249678
 10
-11.8193676837
 20
12.8733812302
 10
-11.8174561055
 20
12.8733946566
 10
-11.8155677311
 20
12.8734652232
 10
-11.8137047442
 20
12.873592906
 10
-11.8118690309
 20
12.8737776807
 10
-11.8100612852
 20
12.8740195221
 10
-11.8082819031
 20
12.8743184042
 10
-11.8065312809
 20
12.8746743015
 10
-11.8048098147
 20
12.875087188
 10
-11.8031179005
 20
12.8755570382
 10
-11.8014556709
 20
12.8760842592
 10
-11.7998222037
 20
12.8766709898
 10
-11.7982163132
 20
12.8773198021
 10
-11.7966368138
 20
12.8780332678
 10
-11.7950825196
 20
12.8788139588
 10
-11.7935522449
 20
12.879664447
  0
LINE
  5
2BD
100
AcDbEntity
  8
CURVE
100
AcDbLine
 62
253
  6
CONTINUOUS
 10
-12.3368161515
 20
14.5999388594
 11
-11.6616755245
 21
14.2101211228
  0
LINE
  5
2BE
100
AcDbEntity
  8
CURVE
100
AcDbLine
 62
253
  6
CONTINUOUS
 10
-9.5674299602
 20
13.0009299811
 11
-8.8925387848
 21
12.6112562747
  0
LINE
  5
2BF
100
AcDbEntity
  8
CURVE
100
AcDbLine
 62
253
  6
CONTINUOUS
 10
-8.8875860237
 20
12.83425923
 11
-9.5624771991
 21
13.2239329363
  0
LINE
  5
2C0
100
AcDbEntity
  8
CURVE
100
AcDbLine
 62
253
  6
CONTINUOUS
 10
-11.6567227635
 20
14.4331240781
 11
-12.3318633904
 21
14.8229418146
  0
LWPOLYLINE
  5
2C1
100
AcDbEntity
  8
CURVE
100
AcDbPolyline
 62
253
  6
CONTINUOUS
 90
89
 70
0
 10
-10.5984276923
 20
14.3167127098
 10
-10.5801182992
 20
14.3057625746
 10
-10.5620457733
 20
14.2941974413
 10
-10.5441646872
 20
14.2819992806
 10
-10.5264296132
 20
14.2691500633
 10
-10.5088043385
 20
14.2556345464
 10
-10.4912895083
 20
14.2414486328
 10
-10.4738949826
 20
14.2265910114
 10
-10.4566306212
 20
14.2110603715
 10
-10.4395104143
 20
14.19486074
 10
-10.422564874
 20
14.178017496
 10
-10.4058286427
 20
14.1605613563
 10
-10.3893363628
 20
14.1425230379
 10
-10.3731196411
 20
14.1239322914
 10
-10.3571979417
 20
14.1048150024
 10
-10.3415876932
 20
14.0851960903
 10
-10.3263053242
 20
14.0651004746
 10
-10.3113680802
 20
14.0445532144
 10
-10.2967964753
 20
14.0235799286
 10
-10.2826118408
 20
14.0022063758
 10
-10.2688355078
 20
13.9804583145
 10
-10.2554885915
 20
13.9583630855
 10
-10.242591343
 20
13.9359543576
 10
-10.2301637974
 20
13.9132673817
 10
-10.2182259895
 20
13.8903374088
 10
-10.2067959136
 20
13.8671979441
 10
-10.1958833995
 20
13.8438755107
 10
-10.1854962361
 20
13.820394886
 10
-10.1756422125
 20
13.7967808477
 10
-10.1663296871
 20
13.7730556231
 10
-10.1575692977
 20
13.7492312397
 10
-10.1493722515
 20
13.7253171751
 10
-10.1417497556
 20
13.7013229068
 10
-10.134714301
 20
13.6772652811
 10
-10.1282835126
 20
13.6531906194
 10
-10.1224762993
 20
13.629152612
 10
-10.1173115695
 20
13.605204949
 10
-10.112805302
 20
13.5814006311
 10
-10.1089617549
 20
13.5577899006
 10
-10.1057822561
 20
13.5344223106
 10
-10.1032681339
 20
13.5113474138
 10
-10.1014194926
 20
13.4886077037
 10
-10.1002315425
 20
13.4662174356
 10
-10.0996982701
 20
13.4441838056
 10
-10.099813662
 20
13.4225140097
 10
-10.1005736076
 20
13.4012163975
 10
-10.1019816065
 20
13.3803039335
 10
-10.1040430611
 20
13.359790736
 10
-10.1067633739
 20
13.339690923
 10
-10.1101465331
 20
13.3200239644
 10
-10.1141908705
 20
13.3008307364
 10
-10.1188933037
 20
13.2821574668
 10
-10.1242507502
 20
13.2640503835
 10
-10.1302570602
 20
13.2465533848
 10
-10.1368938129
 20
13.2297010506
 10
-10.1441395202
 20
13.2135256313
 10
-10.1519726939
 20
13.1980593774
 10
-10.1603736746
 20
13.1833281239
 10
-10.1693301177
 20
13.1693320444
 10
-10.1788315076
 20
13.1560648975
 10
-10.1888673286
 20
13.1435204413
 10
-10.1994282142
 20
13.1316957741
 10
-10.2105093943
 20
13.1206013527
 10
-10.2221072481
 20
13.1102509738
 10
-10.2342181548
 20
13.1006584339
 10
-10.2468351428
 20
13.0918380158
 10
-10.2599378378
 20
13.0838059456
 10
-10.2735025145
 20
13.0765789356
 10
-10.2875054481
 20
13.0701736981
 10
-10.3019226197
 20
13.0646042422
 10
-10.3167288365
 20
13.0598737649
 10
-10.3318986121
 20
13.0559827604
 10
-10.34740646
 20
13.0529317225
 10
-10.3632287185
 20
13.0507218607
 10
-10.3793490258
 20
13.0493572468
 10
-10.3957528448
 20
13.048842668
 10
-10.4124256384
 20
13.0491829113
 10
-10.4293495917
 20
13.050380591
 10
-10.4464937779
 20
13.0524296296
 10
-10.4638239924
 20
13.0553217766
 10
-10.4813060308
 20
13.0590487814
 10
-10.4989096423
 20
13.0636017456
 10
-10.5166203927
 20
13.068969179
 10
-10.5344278014
 20
13.0751389433
 10
-10.552321388
 20
13.0820989005
 10
-10.5703000151
 20
13.0898447829
 10
-10.5883999161
 20
13.0984038056
 10
-10.6066666676
 20
13.1078110543
 10
-10.625145846
 20
13.1181016145
  0
LWPOLYLINE
  5
2C2
100
AcDbEntity
  8
CURVE
100
AcDbPolyline
 62
253
  6
CONTINUOUS
 90
89
 70
0
 10
-10.625145846
 20
13.1181016145
 10
-10.6434665389
 20
13.1290612548
 10
-10.6615520678
 20
13.1406345218
 10
-10.6794477338
 20
13.1528395799
 10
-10.6971988378
 20
13.1656945937
 10
-10.714841502
 20
13.1792149335
 10
-10.732375132
 20
13.1934047935
 10
-10.7497899542
 20
13.2082655738
 10
-10.7670761953
 20
13.2237986746
 10
-10.7842199041
 20
13.2400001106
 10
-10.8011904195
 20
13.2568443553
 10
-10.8179529028
 20
13.2743004967
 10
-10.8344725154
 20
13.2923376231
 10
-10.8507174559
 20
13.3109258259
 10
-10.8666680733
 20
13.3300392103
 10
-10.8823077538
 20
13.3496528847
 10
-10.8976198839
 20
13.3697419576
 10
-10.9125870383
 20
13.3902814067
 10
-10.9271885455
 20
13.4112456863
 10
-10.9414029223
 20
13.4326091197
 10
-10.9552086856
 20
13.4543460305
 10
-10.9685845528
 20
13.4764290938
 10
-10.9815100437
 20
13.4988243919
 10
-10.9939648789
 20
13.5214963587
 10
-11.0059287787
 20
13.5444094282
 10
-11.0173835602
 20
13.5675299015
 10
-11.0283194277
 20
13.5908315477
 10
-11.038728682
 20
13.6142900032
 10
-11.048603624
 20
13.6378809041
 10
-11.0579359475
 20
13.6615823581
 10
-11.0667149182
 20
13.6853823582
 10
-11.0749291944
 20
13.7092713691
 10
-11.0825674345
 20
13.7332398552
 10
-11.0896170353
 20
13.7572709858
 10
-11.0960603456
 20
13.7813187501
 10
-11.1018784527
 20
13.8053298418
 10
-11.1070524437
 20
13.8292509548
 10
-11.1115663275
 20
13.8530294552
 10
-11.1154157993
 20
13.8766153974
 10
-11.118599476
 20
13.8999595083
 10
-11.1211159746
 20
13.9230125146
 10
-11.1229651489
 20
13.9457321456
 10
-11.1241517994
 20
13.9681041408
 10
-11.1246819636
 20
13.9901212422
 10
-11.1245616791
 20
14.011776192
 10
-11.123795076
 20
14.0330606432
 10
-11.1223786557
 20
14.0539618933
 10
-11.1203070124
 20
14.0744661506
 10
-11.1175747402
 20
14.0945596238
 10
-11.1141778619
 20
14.1142230695
 10
-11.1101181151
 20
14.1334154384
 10
-11.1053986659
 20
14.1520902292
 10
-11.1000226804
 20
14.170200941
 10
-11.0939963867
 20
14.1877034426
 10
-11.0873382605
 20
14.204563083
 10
-11.0800698395
 20
14.2207475813
 10
-11.0722126614
 20
14.2362246567
 10
-11.0637864438
 20
14.2509684107
 10
-11.0548036244
 20
14.2649784754
 10
-11.0452748212
 20
14.2782608656
 10
-11.0352106518
 20
14.290821596
 10
-11.0246205959
 20
14.3026633672
 10
-11.0135095804
 20
14.3137756238
 10
-11.001881394
 20
14.3241444963
 10
-10.9897398255
 20
14.3337561151
 10
-10.9770920178
 20
14.3425961183
 10
-10.9639585308
 20
14.3506481734
 10
-10.9503632784
 20
14.3578954559
 10
-10.9363301745
 20
14.3643211407
 10
-10.9218834075
 20
14.3699110998
 10
-10.9070482626
 20
14.374661991
 10
-10.8918502993
 20
14.3785731688
 10
-10.876315077
 20
14.3816439878
 10
-10.8604663579
 20
14.3838730922
 10
-10.844320715
 20
14.3852562858
 10
-10.8278929238
 20
14.3857886621
 10
-10.8111977598
 20
14.3854653146
 10
-10.7942533064
 20
14.3842835615
 10
-10.7770908779
 20
14.3822496192
 10
-10.7597450962
 20
14.3793719289
 10
-10.7422505834
 20
14.3756589315
 10
-10.7246379174
 20
14.3711196961
 10
-10.7069214991
 20
14.365765804
 10
-10.6891116854
 20
14.3596094642
 10
-10.6712188331
 20
14.352662886
 10
-10.6532439791
 20
14.3449303775
 10
-10.6351508799
 20
14.3363846431
 10
-10.6168939721
 20
14.3269904861
 10
-10.5984276923
 20
14.3167127098
  0
LINE
  5
2C3
100
AcDbEntity
  8
ASSI
100
AcDbLine
 62
7
  6
CONTINUOUS
 10
14.8470546639
 20
11.2331712255
 11
14.1746643319
 21
11.1033498476
  0
LWPOLYLINE
  5
2C4
100
AcDbEntity
  8
CURVE
100
AcDbPolyline
 62
253
  6
CONTINUOUS
 90
85
 70
0
 10
-12.3318633904
 20
14.8229418146
 10
-12.3353438971
 20
14.8248724665
 10
-12.3387600295
 20
14.8266110278
 10
-12.3421237461
 20
14.8281688679
 10
-12.3454470051
 20
14.829557356
 10
-12.3487417647
 20
14.8307878614
 10
-12.3520199834
 20
14.8318717534
 10
-12.3552912369
 20
14.8328178957
 10
-12.3585555715
 20
14.8336251307
 10
-12.361810651
 20
14.8342897951
 10
-12.3650541392
 20
14.8348082256
 10
-12.3682837
 20
14.8351767591
 10
-12.371496997
 20
14.8353917322
 10
-12.3746904451
 20
14.8354495626
 10
-12.3778554622
 20
14.8353469902
 10
-12.3809822173
 20
14.8350808359
 10
-12.3840608795
 20
14.8346479205
 10
-12.3870816176
 20
14.8340450648
 10
-12.3900346006
 20
14.8332690897
 10
-12.3929109253
 20
14.8323173577
 10
-12.3957053998
 20
14.831189399
 10
-12.3984137601
 20
14.8298852858
 10
-12.401031742
 20
14.82840509
 10
-12.4035550815
 20
14.8267488837
 10
-12.4059795145
 20
14.824916739
 10
-12.4083010565
 20
14.8229095738
 10
-12.4105168406
 20
14.8207316902
 10
-12.4126242795
 20
14.8183882362
 10
-12.4146207859
 20
14.8158843598
 10
-12.4165037724
 20
14.813225209
 10
-12.4182706518
 20
14.8104159318
 10
-12.4199188665
 20
14.8074612485
 10
-12.4214459789
 20
14.8043641682
 10
-12.4228495811
 20
14.8011272723
 10
-12.4241272652
 20
14.7977531422
 10
-12.4252766234
 20
14.7942443594
 10
-12.4262952478
 20
14.7906035052
 10
-12.4271805852
 20
14.7868338642
 10
-12.4279295002
 20
14.782941534
 10
-12.4285387121
 20
14.7789333152
 10
-12.4290049401
 20
14.7748160084
 10
-12.4293249033
 20
14.7705964144
 10
-12.4294953211
 20
14.7662813338
 10
-12.4295139015
 20
14.7618780936
 10
-12.4293823079
 20
14.7573961257
 10
-12.4291031924
 20
14.7528453884
 10
-12.4286792074
 20
14.7482358397
 10
-12.428113005
 20
14.7435774379
 10
-12.4274072375
 20
14.7388801412
 10
-12.4265645051
 20
14.7341532381
 10
-12.4255872005
 20
14.7294033381
 10
-12.4244776641
 20
14.7246363811
 10
-12.4232382367
 20
14.7198583071
 10
-12.4218712587
 20
14.7150750559
 10
-12.4203790709
 20
14.7102925673
 10
-12.4187638388
 20
14.7055168893
 10
-12.4170270281
 20
14.7007545025
 10
-12.4151699296
 20
14.6960119955
 10
-12.413193834
 20
14.6912959569
 10
-12.4111000321
 20
14.6866129753
 10
-12.4088898146
 20
14.6819696393
 10
-12.4065651523
 20
14.677372689
 10
-12.4041307363
 20
14.6728294703
 10
-12.4015919379
 20
14.6683474804
 10
-12.3989541281
 20
14.6639342168
 10
-12.3962226782
 20
14.6595971767
 10
-12.3934029593
 20
14.6553438575
 10
-12.390501508
 20
14.6511821156
 10
-12.3875295227
 20
14.6471212432
 10
-12.3844993671
 20
14.6431708919
 10
-12.381423405
 20
14.639340713
 10
-12.3783140001
 20
14.6356403579
 10
-12.3751835161
 20
14.632079478
 10
-12.3720424902
 20
14.6286655334
 10
-12.3688941525
 20
14.6253972187
 10
-12.3657399066
 20
14.622271037
 10
-12.3625811561
 20
14.6192834917
 10
-12.3594193044
 20
14.6164310859
 10
-12.3562557552
 20
14.6137103229
 10
-12.3530895913
 20
14.6111176337
 10
-12.3499106131
 20
14.6086491615
 10
-12.3467063003
 20
14.6063009771
 10
-12.3434641326
 20
14.6040691513
 10
-12.3401715898
 20
14.6019497551
 10
-12.3368161515
 20
14.5999388594
  0
LWPOLYLINE
  5
2C5
100
AcDbEntity
  8
CURVE
100
AcDbPolyline
 62
253
  6
CONTINUOUS
 90
85
 70
0
 10
-9.5624771991
 20
13.2239329363
 10
-9.5659555152
 20
13.2258630505
 10
-9.5693698556
 20
13.227602677
 10
-9.5727322037
 20
13.229163077
 10
-9.576054543
 20
13.230555512
 10
-9.5793488572
 20
13.2317912433
 10
-9.5826271298
 20
13.2328815324
 10
-9.5858989591
 20
13.2338351398
 10
-9.5891644018
 20
13.2346508231
 10
-9.5924211297
 20
13.2353248393
 10
-9.5956668145
 20
13.2358534451
 10
-9.5988991277
 20
13.2362328974
 10
-9.602115741
 20
13.236459453
 10
-9.6053130693
 20
13.2365294452
 10
-9.6084825013
 20
13.2364395128
 10
-9.6116141689
 20
13.236186371
 10
-9.6146982039
 20
13.235766735
 10
-9.6177247383
 20
13.2351773201
 10
-9.620683904
 20
13.2344148415
 10
-9.6235667604
 20
13.2334765555
 10
-9.6263680762
 20
13.2323618827
 10
-9.6290835476
 20
13.2310707848
 10
-9.631708871
 20
13.2296032234
 10
-9.6342397424
 20
13.2279591603
 10
-9.6366718581
 20
13.2261385571
 10
-9.6390011971
 20
13.2241422431
 10
-9.6412248697
 20
13.2219745174
 10
-9.6433402689
 20
13.2196405469
 10
-9.6453447879
 20
13.2171454983
 10
-9.6472358197
 20
13.2144945384
 10
-9.6490107575
 20
13.211692834
 10
-9.6506670265
 20
13.208745124
 10
-9.6522021817
 20
13.205654436
 10
-9.65361381
 20
13.20242337
 10
-9.6548994984
 20
13.1990545257
 10
-9.6560568342
 20
13.1955505031
 10
-9.6570834043
 20
13.191913902
 10
-9.6579766452
 20
13.1881480175
 10
-9.65873339
 20
13.1842589259
 10
-9.6593503215
 20
13.1802533989
 10
-9.6598241223
 20
13.1761382079
 10
-9.660151475
 20
13.1719201245
 10
-9.6603290622
 20
13.1676059204
 10
-9.6603545503
 20
13.1632028855
 10
-9.6602295411
 20
13.1587203843
 10
-9.6599566203
 20
13.1541682996
 10
-9.6595383735
 20
13.1495565142
 10
-9.6589773863
 20
13.1448949109
 10
-9.6582762444
 20
13.1401933725
 10
-9.657437493
 20
13.1354611454
 10
-9.6564635162
 20
13.1307049297
 10
-9.6553566576
 20
13.1259307887
 10
-9.6541192608
 20
13.121144786
 10
-9.6527536696
 20
13.1163529851
 10
-9.6512622276
 20
13.1115614495
 10
-9.6496470871
 20
13.1067763229
 10
-9.6479096346
 20
13.1020040697
 10
-9.6460510653
 20
13.0972512347
 10
-9.6440725744
 20
13.0925243624
 10
-9.641975357
 20
13.0878299974
 10
-9.6397606082
 20
13.0831746845
 10
-9.6374302301
 20
13.0785651588
 10
-9.6349889511
 20
13.0740089175
 10
-9.6324422067
 20
13.0695136484
 10
-9.6297954323
 20
13.0650870391
 10
-9.6270540631
 20
13.0607367775
 10
-9.6242235347
 20
13.0564705512
 10
-9.6213104709
 20
13.0522963873
 10
-9.618326251
 20
13.0482236702
 10
-9.6152834425
 20
13.0442621235
 10
-9.6121946131
 20
13.0404214708
 10
-9.6090723306
 20
13.036711436
 10
-9.6059291626
 20
13.0331417426
 10
-9.6027758124
 20
13.0297198882
 10
-9.5996155249
 20
13.0264444654
 10
-9.5964496807
 20
13.0233118407
 10
-9.5932796601
 20
13.0203183805
 10
-9.5901068437
 20
13.0174604515
 10
-9.586932612
 20
13.01473442
 10
-9.5837560081
 20
13.0121365849
 10
-9.5805667264
 20
13.0096629741
 10
-9.5773521237
 20
13.007309548
 10
-9.5740995571
 20
13.005072267
 10
-9.5707963836
 20
13.0029470912
 10
-9.5674299602
 20
13.0009299811
  0
LWPOLYLINE
  5
2C6
100
AcDbEntity
  8
CURVE
100
AcDbPolyline
 62
253
  6
CONTINUOUS
 90
69
 70
0
 10
-11.3353340097
 20
14.8997179003
 10
-11.3323603226
 20
14.8980585399
 10
-11.3294230784
 20
14.8965340058
 10
-11.3265140864
 20
14.8951374182
 10
-11.3236251554
 20
14.893861897
 10
-11.3207480948
 20
14.8927005624
 10
-11.3178747135
 20
14.8916465344
 10
-11.3144226457
 20
14.8905164929
 10
-11.3109659225
 20
14.8895361838
 10
-11.3075063848
 20
14.8887107251
 10
-11.3040458738
 20
14.8880452348
 10
-11.3005862306
 20
14.8875448309
 10
-11.2971311844
 20
14.8872145445
 10
-11.2936920174
 20
14.8870590578
 10
-11.2902818999
 20
14.8870829665
 10
-11.2869140022
 20
14.8872908657
 10
-11.2836014946
 20
14.8876873509
 10
-11.2808923311
 20
14.8881649604
 10
-11.2782350755
 20
14.8887783692
 10
-11.2756340243
 20
14.8895292229
 10
-11.2730934737
 20
14.8904191672
 10
-11.2706177204
 20
14.8914498477
 10
-11.2682110608
 20
14.8926229099
 10
-11.2658774735
 20
14.8939392848
 10
-11.2636196663
 20
14.8953970453
 10
-11.2614400293
 20
14.8969935495
 10
-11.2593409526
 20
14.8987261557
 10
-11.2573248262
 20
14.9005922218
 10
-11.2553940401
 20
14.9025891063
 10
-11.253550831
 20
14.9047142554
 10
-11.2517968215
 20
14.9069654691
 10
-11.2501334809
 20
14.9093406351
 10
-11.2485622782
 20
14.9118376417
 10
-11.2470846827
 20
14.9144543768
 10
-11.2457021636
 20
14.9171887284
 10
-11.2444163634
 20
14.9200381794
 10
-11.2432296177
 20
14.9229985922
 10
-11.2421444357
 20
14.926065424
 10
-11.2411633262
 20
14.929234132
 10
-11.2402887982
 20
14.9325001734
 10
-11.2395233608
 20
14.9358590054
 10
-11.2388692084
 20
14.9393059059
 10
-11.2383272774
 20
14.9428354346
 10
-11.2378981896
 20
14.946441972
 10
-11.2375825668
 20
14.9501198986
 10
-11.2373810308
 20
14.9538635948
 10
-11.2372942035
 20
14.9576674411
 10
-11.237322206
 20
14.9615258999
 10
-11.2374631568
 20
14.9654337625
 10
-11.2377146737
 20
14.969385902
 10
-11.2380743743
 20
14.9733771919
 10
-11.2385398766
 20
14.9774025053
 10
-11.2391087982
 20
14.9814567154
 10
-11.2399240675
 20
14.986351007
 10
-11.2408771382
 20
14.9912605527
 10
-11.2419603181
 20
14.9961663778
 10
-11.2431659151
 20
15.0010495075
 10
-11.244486237
 20
15.0058909671
 10
-11.2459142267
 20
15.0106749522
 10
-11.2474453664
 20
15.0153983408
 10
-11.2490757734
 20
15.0200611814
 10
-11.2508015647
 20
15.0246635221
 10
-11.2526188577
 20
15.0292054116
 10
-11.2542018763
 20
15.0329457445
 10
-11.255852566
 20
15.0366535681
 10
-11.2575777517
 20
15.0403383197
 10
-11.2593842582
 20
15.0440094364
 10
-11.2612789103
 20
15.0476763555
 10
-11.2632685328
 20
15.0513485141
  0
LWPOLYLINE
  5
2C7
100
AcDbEntity
  8
CURVE
100
AcDbPolyline
 62
253
  6
CONTINUOUS
 90
54
 70
0
 10
-10.5860983501
 20
14.8313449055
 10
-10.5834695497
 20
14.8298720778
 10
-10.5808723424
 20
14.82850639
 10
-10.5783014898
 20
14.8272431393
 10
-10.5757517538
 20
14.8260776226
 10
-10.5732178961
 20
14.825005137
 10
-10.5706946783
 20
14.8240209796
 10
-10.5681768624
 20
14.8231204476
 10
-10.5652408078
 20
14.8221709677
 10
-10.5623060093
 20
14.8213317736
 10
-10.5593735002
 20
14.8206057294
 10
-10.5564443139
 20
14.8199956986
 10
-10.553519484
 20
14.8195045452
 10
-10.5506000438
 20
14.8191351329
 10
-10.5476881825
 20
14.8188902493
 10
-10.5447907113
 20
14.8187723765
 10
-10.5419155974
 20
14.8187839201
 10
-10.5390708076
 20
14.818927286
 10
-10.536264309
 20
14.81920488
 10
-10.5335040685
 20
14.8196191078
 10
-10.5311805587
 20
14.820084607
 10
-10.5288992277
 20
14.8206530153
 10
-10.5266624156
 20
14.8213250903
 10
-10.5244724622
 20
14.8221015897
 10
-10.5223317075
 20
14.8229832711
 10
-10.5202424915
 20
14.8239708921
 10
-10.5182071541
 20
14.8250652103
 10
-10.5162278908
 20
14.8262664543
 10
-10.5143063191
 20
14.8275727374
 10
-10.5124439116
 20
14.8289816435
 10
-10.5106421415
 20
14.8304907568
 10
-10.5089024814
 20
14.8320976616
 10
-10.5072264044
 20
14.8337999419
 10
-10.5056153832
 20
14.8355951818
 10
-10.5040708756
 20
14.8374804265
 10
-10.5025942777
 20
14.8394505648
 10
-10.5011869708
 20
14.8414999464
 10
-10.4998503358
 20
14.843622921
 10
-10.4985857539
 20
14.8458138383
 10
-10.4973946061
 20
14.8480670481
 10
-10.4962782734
 20
14.8503769001
 10
-10.4950715681
 20
14.8531369209
 10
-10.4939664606
 20
14.8559642269
 10
-10.4929608371
 20
14.8588566978
 10
-10.4920525838
 20
14.861812213
 10
-10.491239587
 20
14.8648286522
 10
-10.4905197329
 20
14.8679038948
 10
-10.4899756885
 20
14.8705864162
 10
-10.489499842
 20
14.8733176683
 10
-10.4890935125
 20
14.8761047375
 10
-10.4887580195
 20
14.8789547099
 10
-10.4884946824
 20
14.8818746715
 10
-10.4883048205
 20
14.8848717087
 10
-10.4881897533
 20
14.8879529075
  0
LWPOLYLINE
  5
2C8
100
AcDbEntity
  8
CURVE
100
AcDbPolyline
 62
253
  6
CONTINUOUS
 90
37
 70
0
 10
-9.8543650873
 20
14.0446250054
 10
-9.8523276992
 20
14.0434772022
 10
-9.8503008255
 20
14.0423919715
 10
-9.848281695
 20
14.0413667887
 10
-9.8462675363
 20
14.0403991288
 10
-9.8442555782
 20
14.0394864671
 10
-9.8422430494
 20
14.0386262788
 10
-9.8402276985
 20
14.0378165319
 10
-9.8382093532
 20
14.0370571655
 10
-9.8361883608
 20
14.0363486117
 10
-9.8341650689
 20
14.0356913023
 10
-9.832139825
 20
14.0350856695
 10
-9.8301129764
 20
14.0345321451
 10
-9.8280852336
 20
14.0340312278
 10
-9.8260587579
 20
14.0335836828
 10
-9.8240360737
 20
14.0331903417
 10
-9.8220197053
 20
14.0328520364
 10
-9.820012177
 20
14.0325695986
 10
-9.8180160131
 20
14.0323438601
 10
-9.8160336958
 20
14.0321755223
 10
-9.8140675389
 20
14.0320647651
 10
-9.8121198141
 20
14.0320116381
 10
-9.810192793
 20
14.0320161908
 10
-9.8082887474
 20
14.0320784727
 10
-9.8064099489
 20
14.0321985335
 10
-9.8045583544
 20
14.0323764224
 10
-9.802734661
 20
14.0326121884
 10
-9.800939251
 20
14.0329058802
 10
-9.7991725067
 20
14.0332575465
 10
-9.7974348104
 20
14.0336672359
 10
-9.7957265443
 20
14.0341349973
 10
-9.7940478423
 20
14.0346613118
 10
-9.7923978441
 20
14.0352483907
 10
-9.7907754409
 20
14.0358988779
 10
-9.7891795239
 20
14.0366154172
 10
-9.7876089843
 20
14.0374006526
 10
-9.7860627134
 20
14.0382572277
  0
LWPOLYLINE
  5
2C9
100
AcDbEntity
  8
ASSI
100
AcDbPolyline
 62
253
  6
CONTINUOUS
 90
17
 70
0
 10
-11.2998043592
 20
8.0342200779
 10
-11.2681318106
 20
8.0400034485
 10
-11.2357277197
 20
8.0439635484
 10
-11.2025925383
 20
8.0461084711
 10
-11.1688622846
 20
8.0464309913
 10
-11.1345346767
 20
8.0449240882
 10
-11.0996123478
 20
8.0415945844
 10
-11.0642386877
 20
8.0364560205
 10
-11.0284104582
 20
8.0295006427
 10
-10.9921311773
 20
8.0207360468
 10
-10.9555543581
 20
8.0101988045
 10
-10.9186789596
 20
7.9978812247
 10
-10.8815062176
 20
7.9837908883
 10
-10.844193042
 20
7.9679872853
 10
-10.8067394655
 20
7.9504634133
 10
-10.7691455554
 20
7.9312262182
 10
-10.7315682502
 20
7.9103561254
  0
LWPOLYLINE
  5
2CA
100
AcDbEntity
  8
ASSI
100
AcDbPolyline
 62
253
  6
CONTINUOUS
 90
43
 70
0
 10
13.5772383608
 20
-27.0142896261
 10
13.578728887
 20
-27.0421725017
 10
13.5810992169
 20
-27.0694202126
 10
13.5843493505
 20
-27.0960327588
 10
13.5884854842
 20
-27.1220422689
 10
13.5935014215
 20
-27.1474166143
 10
13.5993785741
 20
-27.1720594097
 10
13.6061201494
 20
-27.1959672921
 10
13.6137229399
 20
-27.2191436244
 10
13.6221587339
 20
-27.2415021106
 10
13.6314305819
 20
-27.2630395192
 10
13.6415354334
 20
-27.2837590816
 10
13.652435925
 20
-27.303584196
 10
13.6641350032
 20
-27.3225115914
 10
13.6766297214
 20
-27.3405445387
 10
13.6898738768
 20
-27.3576162489
 10
13.7038702875
 20
-27.3737231948
 10
13.7186161353
 20
-27.3888689036
 10
13.734056763
 20
-27.4029971685
 10
13.7501947172
 20
-27.4161041819
 10
13.7670274512
 20
-27.4281937515
 10
13.7844926671
 20
-27.4392210924
 10
13.8025927134
 20
-27.4491822751
 10
13.8213252415
 20
-27.4580812292
 10
13.8406209079
 20
-27.4658849586
 10
13.8604818576
 20
-27.472589408
 10
13.8809059456
 20
-27.4781986329
 10
13.9018173928
 20
-27.482691803
 10
13.9232179494
 20
-27.4860647573
 10
13.9451058651
 20
-27.488321657
 10
13.9674001102
 20
-27.4894541553
 10
13.99010216
 20
-27.4894581022
 10
14.0132105392
 20
-27.4883376477
 10
14.036639792
 20
-27.4860968955
 10
14.0603913019
 20
-27.4827316312
 10
14.0844636855
 20
-27.4782460692
 10
14.1087673374
 20
-27.4726569561
 10
14.1333035243
 20
-27.4659599418
 10
14.1580709796
 20
-27.4581593766
 10
14.1829762973
 20
-27.4492850575
 10
14.2079883424
 20
-27.4393469169
 10
14.23313825
 20
-27.4283350225
 10
14.2584260202
 20
-27.4162493743
  0
LWPOLYLINE
  5
2CB
100
AcDbEntity
  8
ASSI
100
AcDbPolyline
 62
253
  6
CONTINUOUS
 90
23
 70
0
 10
12.876654478
 20
-27.0273630238
 10
12.8788689009
 20
-27.0691109482
 10
12.8824065102
 20
-27.1099974239
 10
12.8872630336
 20
-27.1499718726
 10
12.8934326899
 20
-27.1889849069
 10
12.9009078829
 20
-27.226988226
 10
12.9096792128
 20
-27.2639346742
 10
12.9197361262
 20
-27.2997788149
 10
12.9310662743
 20
-27.33447609
 10
12.9436551443
 20
-27.3679827753
 10
12.9574872687
 20
-27.4002573168
 10
12.9725457628
 20
-27.4312601545
 10
12.9888116688
 20
-27.4609528909
 10
13.0062651811
 20
-27.4892989798
 10
13.0248848976
 20
-27.5162634182
 10
13.0446473214
 20
-27.5418125974
 10
13.0655284062
 20
-27.5659151335
 10
13.087502541
 20
-27.5885412623
 10
13.1105418244
 20
-27.6096625096
 10
13.1346180755
 20
-27.6292529143
 10
13.1597018602
 20
-27.6472884562
 10
13.1857614868
 20
-27.6637464356
 10
13.1894436509
 20
-27.6658990269
  0
LWPOLYLINE
  5
2CC
100
AcDbEntity
  8
ASSI
100
AcDbPolyline
 62
253
  6
CONTINUOUS
 90
25
 70
0
 10
13.273310226
 20
-10.7010574071
 10
13.2729307282
 20
-10.6902468446
 10
13.2719580424
 20
-10.6791269264
 10
13.2703963331
 20
-10.6677452607
 10
13.2682522864
 20
-10.6561505762
 10
13.265535082
 20
-10.6443925136
 10
13.2622563532
 20
-10.6325214135
 10
13.2584301376
 20
-10.6205881
 10
13.2540728167
 20
-10.6086436637
 10
13.2492030457
 20
-10.5967392429
 10
13.243841674
 20
-10.5849258043
 10
13.2380116555
 20
-10.5732539251
 10
13.2317379508
 20
-10.5617735766
 10
13.2250474198
 20
-10.5505339098
 10
13.217968707
 20
-10.5395830453
 10
13.210532119
 20
-10.5289678673
 10
13.2027694943
 20
-10.5187338226
 10
13.1947140674
 20
-10.5089247262
 10
13.1864003263
 20
-10.4995825739
 10
13.1778638649
 20
-10.4907473623
 10
13.1691412307
 20
-10.4824569172
 10
13.1602697681
 20
-10.4747467326
 10
13.1512874586
 20
-10.4676498178
 10
13.1422327583
 20
-10.4611965566
 10
13.1331444334
 20
-10.455414577
  0
LINE
  5
2CD
100
AcDbEntity
  8
ASSI
100
AcDbLine
 62
7
  6
CONTINUOUS
 10
11.727596708
 20
13.0343071533
 11
11.7487934396
 21
12.4180834395
  0
LWPOLYLINE
  5
2CE
100
AcDbEntity
  8
ASSI
100
AcDbPolyline
 62
253
  6
CONTINUOUS
 90
13
 70
0
 10
12.5724289455
 20
-10.116988032
 10
12.5727220917
 20
-10.1274445681
 10
12.5736134239
 20
-10.137511174
 10
12.5750991641
 20
-10.1471451816
 10
12.5771730147
 20
-10.1563057563
 10
12.5798261854
 20
-10.1649540699
 10
12.5830474303
 20
-10.1730534657
 10
12.5868230957
 20
-10.1805696135
 10
12.5911371778
 20
-10.1874706557
 10
12.5959713909
 20
-10.1937273415
 10
12.6013052444
 20
-10.1993131515
 10
12.6071161301
 20
-10.20420441
 10
12.6138058629
 20
-10.2086291108
  0
LWPOLYLINE
  5
2CF
100
AcDbEntity
  8
ASSI
100
AcDbPolyline
 62
253
  6
CONTINUOUS
 90
6
 70
0
 10
13.3792416172
 20
-20.2586098798
 10
13.4106856821
 20
-21.6145198059
 10
13.4462073813
 20
-22.9680443063
 10
13.4858067402
 20
-24.3191781719
 10
13.5294837333
 20
-25.6679266119
 10
13.5772383608
 20
-27.0142896261
  0
LWPOLYLINE
  5
2D0
100
AcDbEntity
  8
ASSI
100
AcDbPolyline
 62
253
  6
CONTINUOUS
 90
7
 70
0
 10
13.2762089281
 20
-12.0734884394
 10
13.2831858084
 20
-13.443565242
 10
13.2942408668
 20
-14.8112878148
 10
13.3093743099
 20
-16.1766613476
 10
13.3285859311
 20
-17.5396806507
 10
13.3518751108
 20
-18.9003301549
 10
13.3792416172
 20
-20.2586098798
  0
LWPOLYLINE
  5
2D1
100
AcDbEntity
  8
ASSI
100
AcDbPolyline
 62
253
  6
CONTINUOUS
 90
13
 70
0
 10
12.5724201194
 20
-10.6997367929
 10
12.5753301043
 20
-12.0733576851
 10
12.5823211183
 20
-13.4446517506
 10
12.59339281
 20
-14.8136035884
 10
12.6085443293
 20
-16.1801871142
 10
12.6277756256
 20
-17.5443977336
 10
12.6510877578
 20
-18.9062521584
 10
12.6784808066
 20
-20.2657357085
 10
12.7099541394
 20
-21.6228321845
 10
12.745508218
 20
-22.9775557344
 10
12.7851432117
 20
-24.3299006576
 10
12.8288587065
 20
-25.6798415816
 10
12.8766544825
 20
-27.0273630264
  0
LINE
  5
2D2
100
AcDbEntity
  8
ASSI
100
AcDbLine
 62
253
  6
CONTINUOUS
 10
13.273310226
 20
-10.7010574071
 11
13.2762089281
 21
-12.0734884394
  0
LINE
  5
2D3
100
AcDbEntity
  8
ASSI
100
AcDbLine
 62
253
  6
CONTINUOUS
 10
11.5474302615
 20
12.6202818729
 11
11.5474302615
 21
12.5573767281
  0
LWPOLYLINE
  5
2D4
100
AcDbEntity
  8
ASSI
100
AcDbPolyline
 62
253
  6
CONTINUOUS
 90
25
 70
0
 10
12.5724289455
 20
-10.6997418889
 10
12.572722091
 20
-10.6889468468
 10
12.5736134213
 20
-10.6778509645
 10
12.5750991584
 20
-10.6665012732
 10
12.577173005
 20
-10.6549458794
 10
12.5798261707
 20
-10.6432337618
 10
12.58304741
 20
-10.6314145633
 10
12.5868230693
 20
-10.6195383806
 10
12.591137145
 20
-10.6076555521
 10
12.5959713517
 20
-10.5958164441
 10
12.6013051991
 20
-10.584071238
 10
12.6071160791
 20
-10.5724697167
 10
12.6133793618
 20
-10.5610610544
 10
12.6200684997
 20
-10.5498936078
 10
12.6271551404
 20
-10.5390147112
 10
12.6346092463
 20
-10.5284704757
 10
12.6423992226
 20
-10.5183055941
 10
12.6504920508
 20
-10.5085631511
 10
12.6588534286
 20
-10.4992844411
 10
12.6674479156
 20
-10.4905087926
 10
12.6762390832
 20
-10.4822734021
 10
12.6851896693
 20
-10.474613176
 10
12.694261736
 20
-10.467560583
 10
12.7034168305
 20
-10.461145516
 10
12.712616148
 20
-10.455395166
  0
LWPOLYLINE
  5
2D5
100
AcDbEntity
  8
ASSI
100
AcDbPolyline
 62
253
  6
CONTINUOUS
 90
13
 70
0
 10
12.8766544825
 20
6.5499030295
 10
12.8288587065
 20
5.1490801236
 10
12.7851432117
 20
3.7503880214
 10
12.745508218
 20
2.3538424568
 10
12.7099541394
 20
0.95946928
 10
12.6784808066
 20
-0.4327260036
 10
12.6510877578
 20
-1.8227580736
 10
12.6277756256
 20
-3.2106107466
 10
12.6085443293
 20
-4.5962686892
 10
12.59339281
 20
-5.9797475956
 10
12.5823211183
 20
-7.3610420663
 10
12.5753301043
 20
-8.740125782
 10
12.5724201194
 20
-10.116982936
  0
LINE
  5
2D6
100
AcDbEntity
  8
ASSI
100
AcDbLine
 62
253
  6
CONTINUOUS
 10
-17.8811871973
 20
24.3090953291
 11
12.876654478
 21
6.5499030322
  0
LWPOLYLINE
  5
2D7
100
AcDbEntity
  8
ASSI
100
AcDbPolyline
 62
253
  6
CONTINUOUS
 90
31
 70
0
 10
14.2584260202
 20
7.6910098352
 10
14.2569661385
 20
7.7120689155
 10
14.2545593553
 20
7.7336388859
 10
14.2512122599
 20
7.7556606935
 10
14.2469340156
 20
7.7780740481
 10
14.2417363351
 20
7.8008175877
 10
14.2356334483
 20
7.8238290465
 10
14.2286420632
 20
7.8470454249
 10
14.2207813206
 20
7.8704031624
 10
14.2120727409
 20
7.8938383117
 10
14.2025401661
 20
7.9172867131
 10
14.1922096938
 20
7.940684171
 10
14.1811096062
 20
7.9639666292
 10
14.1692702924
 20
7.9870703462
 10
14.1567241655
 20
8.0099320699
 10
14.1435055735
 20
8.0324892107
 10
14.1296507056
 20
8.0546800129
 10
14.1151974927
 20
8.0764437238
 10
14.1001855041
 20
8.0977207598
 10
14.0846558387
 20
8.1184528697
 10
14.0686510129
 20
8.1385832944
 10
14.0522148437
 20
8.1580569217
 10
14.0353923292
 20
8.1768204379
 10
14.0182295251
 20
8.1948224731
 10
14.0007734189
 20
8.2120137424
 10
13.9830718009
 20
8.2283471803
 10
13.9651731337
 20
8.2437780702
 10
13.9471264193
 20
8.2582641659
 10
13.928981065
 20
8.2717658084
 10
13.9107867481
 20
8.2842460335
 10
13.8925932802
 20
8.2956706735
  0
LWPOLYLINE
  5
2D8
100
AcDbEntity
  8
ASSI
100
AcDbPolyline
 62
253
  6
CONTINUOUS
 90
8
 70
0
 10
13.3792416172
 20
-0.447054952
 10
13.3518751108
 20
-1.8358525238
 10
13.3285859311
 20
-3.2224730312
 10
13.3093743099
 20
-4.606916235
 10
13.2942408668
 20
-5.9891658751
 10
13.2831858084
 20
-7.3692165316
 10
13.2762089281
 20
-8.7470736245
 10
13.273310226
 20
-10.1227371537
  0
LWPOLYLINE
  5
2D9
100
AcDbEntity
  8
ASSI
100
AcDbPolyline
 62
253
  6
CONTINUOUS
 90
6
 70
0
 10
13.5772383608
 20
6.5294214949
 10
13.5294837333
 20
5.1298047554
 10
13.4858067402
 20
3.7323497771
 10
13.4462073813
 20
2.33705656
 10
13.4106856821
 20
0.9439199234
 10
13.3792416172
 20
-0.447054952
  0
LWPOLYLINE
  5
2DA
100
AcDbEntity
  8
ASSI
100
AcDbPolyline
 62
253
  6
CONTINUOUS
 90
14
 70
0
 10
13.273310226
 20
-10.1227371537
 10
13.2729307291
 20
-10.133283608
 10
13.2719580456
 20
-10.1434292703
 10
13.2703963397
 20
-10.153130704
 10
13.2682522977
 20
-10.162346374
 10
13.2655350988
 20
-10.1710368249
 10
13.2622563764
 20
-10.1791648503
 10
13.2584301676
 20
-10.1866956514
 10
13.2540728538
 20
-10.1935969864
 10
13.2492030899
 20
-10.1998393084
 10
13.243841725
 20
-10.2053958921
 10
13.2380117128
 20
-10.2102429479
 10
13.2317380136
 20
-10.214359724
 10
13.2305206853
 20
-10.2150454112
  0
LINE
  5
2DB
100
AcDbEntity
  8
ASSI
100
AcDbLine
 62
253
  6
CONTINUOUS
 10
13.273310226
 20
-10.1227371537
 11
17.7400840869
 21
-7.676406287
  0
LINE
  5
2DC
100
AcDbEntity
  8
ASSI
100
AcDbLine
 62
7
  6
CONTINUOUS
 10
13.2304487397
 20
-10.2150848725
 11
17.6973630644
 21
-7.7686770776
  0
LWPOLYLINE
  5
2DD
100
AcDbEntity
  8
ASSI
100
AcDbPolyline
 62
253
  6
CONTINUOUS
 90
34
 70
0
 10
13.1331444334
 20
-10.455414577
 10
13.1227259654
 20
-10.4610537951
 10
13.1119163009
 20
-10.4663829897
 10
13.1007154398
 20
-10.471402161
 10
13.0890963533
 20
-10.4761213612
 10
13.0770860702
 20
-10.4805305379
 10
13.0647656773
 20
-10.4845995346
 10
13.0521334862
 20
-10.4883258363
 10
13.0391911851
 20
-10.491711958
 10
13.0260249259
 20
-10.4947352872
 10
13.0126335078
 20
-10.4973933337
 10
12.9990181316
 20
-10.4996885877
 10
12.98526855
 20
-10.5016059075
 10
12.9713836977
 20
-10.5031428286
 10
12.9573646401
 20
-10.5043018154
 10
12.9433043268
 20
-10.5050751191
 10
12.9292024019
 20
-10.505460157
 10
12.9150592212
 20
-10.5054595118
 10
12.9009688024
 20
-10.5050731821
 10
12.886931556
 20
-10.504298581
 10
12.8729470714
 20
-10.5031382954
 10
12.8591081346
 20
-10.5016000845
 10
12.8454159095
 20
-10.4996814827
 10
12.8318692321
 20
-10.4973849556
 10
12.8185573963
 20
-10.4947256583
 10
12.8054816734
 20
-10.4917011014
 10
12.792640792
 20
-10.4883137744
 10
12.7801202326
 20
-10.4845863009
 10
12.7679217645
 20
-10.4805161652
 10
12.7560436182
 20
-10.476105883
 10
12.7445659662
 20
-10.4713856248
 10
12.7335155326
 20
-10.4663654477
 10
12.7228655932
 20
-10.4610352948
 10
12.712616148
 20
-10.455395166
  0
LINE
  5
2DE
100
AcDbEntity
  8
ASSI
100
AcDbLine
 62
7
  6
CONTINUOUS
 10
6.9274587146
 20
15.8058466708
 11
6.2550683826
 21
15.6760252929
  0
LINE
  5
2DF
100
AcDbEntity
  8
ASSI
100
AcDbLine
 62
253
  6
CONTINUOUS
 10
-16.8886126342
 20
26.0683632888
 11
13.8926017357
 21
8.295675891
  0
LWPOLYLINE
  5
2E0
100
AcDbEntity
  8
ASSI
100
AcDbPolyline
 62
253
  6
CONTINUOUS
 90
17
 70
0
 10
14.2584260202
 20
-27.4162493743
 10
14.2569661381
 20
-27.4378377083
 10
14.2545593542
 20
-27.4587983946
 10
14.2512122577
 20
-27.4790740482
 10
14.246934012
 20
-27.4986091595
 10
14.2417363299
 20
-27.5173502463
 10
14.2356334414
 20
-27.5352460005
 10
14.2286420545
 20
-27.5522474278
 10
14.2207813099
 20
-27.5683079829
 10
14.2120727284
 20
-27.583383696
 10
14.2025401517
 20
-27.5974332936
 10
14.1922096777
 20
-27.6104183115
 10
14.1811095886
 20
-27.6223032001
 10
14.1692702735
 20
-27.6330554216
 10
14.1567241454
 20
-27.6426455392
 10
14.1435055526
 20
-27.6510472975
 10
14.1340235943
 20
-27.6561334506
  0
LINE
  5
2E1
100
AcDbEntity
  8
ASSI
100
AcDbLine
 62
253
  6
CONTINUOUS
 10
17.5986627298
 20
-7.921320826
 11
13.1331444334
 21
-10.455414577
  0
LINE
  5
2E2
100
AcDbEntity
  8
ASSI
100
AcDbLine
 62
253
  6
CONTINUOUS
 10
17.7400840869
 20
-8.166251148
 11
13.273310226
 21
-10.7010574071
  0
LWPOLYLINE
  5
2E3
100
AcDbEntity
  8
ASSI
100
AcDbPolyline
 62
253
  6
CONTINUOUS
 90
34
 70
0
 10
13.273310226
 20
-10.7010574071
 10
13.2560052165
 20
-10.7103682088
 10
13.2379685879
 20
-10.7191984199
 10
13.2192401907
 20
-10.7275286237
 10
13.1998613423
 20
-10.7353407315
 10
13.1798749537
 20
-10.7426173407
 10
13.1593254566
 20
-10.7493417944
 10
13.138258025
 20
-10.7554994128
 10
13.1167195701
 20
-10.7610765994
 10
13.09475895
 20
-10.766060307
 10
13.0724254944
 20
-10.7704395851
 10
13.049768075
 20
-10.7742051181
 10
13.0268361363
 20
-10.7773483429
 10
13.0036801467
 20
-10.7798624609
 10
12.9803517187
 20
-10.7817420122
 10
12.9569027335
 20
-10.7829824766
 10
12.9333851339
 20
-10.7835812343
 10
12.9098510331
 20
-10.7835371188
 10
12.8863528003
 20
-10.7828499451
 10
12.862942509
 20
-10.7815213608
 10
12.8396720113
 20
-10.77955447
 10
12.8165930464
 20
-10.7769534233
 10
12.7937570486
 20
-10.7737241461
 10
12.7712142769
 20
-10.7698739151
 10
12.7490139253
 20
-10.7654109345
 10
12.7272045797
 20
-10.7603449643
 10
12.7058352246
 20
-10.7546874179
 10
12.6849543185
 20
-10.7484509988
 10
12.66460873
 20
-10.741649845
 10
12.6448427818
 20
-10.7342989618
 10
12.6256993374
 20
-10.7264142293
 10
12.6072205502
 20
-10.7180129524
 10
12.5894476781
 20
-10.7091139047
 10
12.5724201213
 20
-10.699736796
  0
LINE
  5
2E4
100
AcDbEntity
  8
ASSI
100
AcDbLine
 62
7
  6
CONTINUOUS
 10
13.9814791666
 20
11.1289586828
 11
11.5991940706
 21
12.5044602402
  0
LINE
  5
2E5
100
AcDbEntity
  8
ASSI
100
AcDbLine
 62
7
  6
CONTINUOUS
 10
6.0618832173
 20
15.7016341281
 11
3.6795981213
 21
17.0771356855
  0
LINE
  5
2E6
100
AcDbEntity
  8
ASSI
100
AcDbLine
 62
7
  6
CONTINUOUS
 10
-1.9284234101
 20
20.3151370327
 11
-4.3107085061
 21
21.6906385901
  0
LINE
  5
2E7
100
AcDbEntity
  8
ASSI
100
AcDbLine
 62
7
  6
CONTINUOUS
 10
-9.8480193593
 20
24.887812478
 11
-12.2303044554
 21
26.2633140354
  0
LINE
  5
2E8
100
AcDbEntity
  8
ASSI
100
AcDbLine
 62
7
  6
CONTINUOUS
 10
16.8132898008
 20
10.0978917002
 11
14.8470546639
 21
11.2331712255
  0
LINE
  5
2E9
100
AcDbEntity
  8
ASSI
100
AcDbLine
 62
7
  6
CONTINUOUS
 10
11.727596708
 20
13.0343071533
 11
6.9274587146
 21
15.8058466708
  0
LINE
  5
2EA
100
AcDbEntity
  8
ASSI
100
AcDbLine
 62
7
  6
CONTINUOUS
 10
3.8080007587
 20
17.6069825985
 11
-1.0628479128
 21
20.4193495754
  0
LINE
  5
2EB
100
AcDbEntity
  8
ASSI
100
AcDbLine
 62
7
  6
CONTINUOUS
 10
-4.1823058687
 20
22.2204855031
 11
-8.9824438621
 21
24.9920250207
  0
LINE
  5
2EC
100
AcDbEntity
  8
ASSI
100
AcDbLine
 62
7
  6
CONTINUOUS
 10
-12.101901818
 20
26.7931609484
 11
-14.0681369549
 21
27.9284404738
  0
LINE
  5
2ED
100
AcDbEntity
  8
ASSI
100
AcDbLine
 62
7
  6
CONTINUOUS
 10
17.7400840869
 20
2.7744319085
 11
17.1979165955
 21
9.504827767
  0
LINE
  5
2EE
100
AcDbEntity
  8
ASSI
100
AcDbLine
 62
7
  6
CONTINUOUS
 10
17.7400840869
 20
-8.166251148
 11
17.7400840869
 21
-18.6170893435
  0
LINE
  5
2EF
100
AcDbEntity
  8
ASSI
100
AcDbLine
 62
7
  6
CONTINUOUS
 10
17.7400840869
 20
-7.676406287
 11
17.7400840869
 21
2.7744319085
  0
LINE
  5
2F0
100
AcDbEntity
  8
ASSI
100
AcDbLine
 62
7
  6
CONTINUOUS
 10
17.7400840869
 20
-18.6170893435
 11
17.1979165955
 21
-25.9520850102
  0
LINE
  5
2F1
100
AcDbEntity
  8
ASSI
100
AcDbLine
 62
7
  6
CONTINUOUS
 10
-1.0628479128
 20
20.4193495754
 11
-1.7352382448
 21
20.2895281975
  0
LINE
  5
2F2
100
AcDbEntity
  8
ASSI
100
AcDbLine
 62
7
  6
CONTINUOUS
 10
-8.9824438621
 20
24.9920250207
 11
-9.6548341941
 21
24.8622036428
  0
LWPOLYLINE
  5
2F3
100
AcDbEntity
  8
ASSI
100
AcDbPolyline
 62
253
  6
CONTINUOUS
 90
31
 70
0
 10
13.5772383608
 20
-27.0142896261
 10
13.5581737374
 20
-27.0252507715
 10
13.5382292267
 20
-27.0356258958
 10
13.5174582885
 20
-27.0453871893
 10
13.4959165977
 20
-27.0545084876
 10
13.4736618951
 20
-27.0629653418
 10
13.4507538327
 20
-27.070735084
 10
13.4272538138
 20
-27.0777968878
 10
13.4032248284
 20
-27.0841318248
 10
13.3787312843
 20
-27.0897229147
 10
13.3538388345
 20
-27.0945551708
 10
13.3286142013
 20
-27.0986156409
 10
13.3031249974
 20
-27.101893441
 10
13.2774395447
 20
-27.1043797853
 10
13.2516266909
 20
-27.1060680093
 10
13.2257556254
 20
-27.106953588
 10
13.1998956936
 20
-27.1070341475
 10
13.174116211
 20
-27.1063094719
 10
13.1484862776
 20
-27.1047815037
 10
13.1230745924
 20
-27.1024543384
 10
13.0979492694
 20
-27.0993342139
 10
13.0731776551
 20
-27.0954294934
 10
13.0488261479
 20
-27.0907506432
 10
13.0249600201
 20
-27.0853102046
 10
13.001643243
 20
-27.0791227603
 10
12.9789383155
 20
-27.0722048952
 10
12.9569060962
 20
-27.0645751522
 10
12.935605641
 20
-27.0562539821
 10
12.9150940439
 20
-27.0472636892
 10
12.8954262847
 20
-27.0376283713
 10
12.8766550814
 20
-27.0273738552
  0
LINE
  5
2F4
100
AcDbEntity
  8
ASSI
100
AcDbLine
 62
253
  6
CONTINUOUS
 10
14.2584260202
 20
-27.4162493743
 11
17.1979165955
 21
-25.9520850102
  0
LINE
  5
2F5
100
AcDbEntity
  8
ASSI
100
AcDbLine
 62
7
  6
CONTINUOUS
 10
14.1340235943
 20
-27.6561334506
 11
17.0623389225
 21
-26.1975354927
  0
ELLIPSE
  5
2F6
100
AcDbEntity
  8
ASSI
100
AcDbEllipse
 62
7
  6
CONTINUOUS
 10
17.5986411882
 20
-8.0846086615
 30
0.0
 11
-0.1000238792
 21
0.1731956925
 31
0.0
 40
0.5774195892
 41
-2.3562809449
 42
-0.7856369171
  0
ELLIPSE
  5
2F7
100
AcDbEntity
  8
ASSI
100
AcDbEllipse
 62
7
  6
CONTINUOUS
 10
16.8443380029
 20
-25.7475289561
 30
0.0
 11
-0.2148150744
 21
0.4515576038
 31
0.0
 40
0.6258090719
 41
-3.1302699021
 42
-2.3092664522
  0
ELLIPSE
  5
2F8
100
AcDbEntity
  8
CURVE
100
AcDbEllipse
 62
253
  6
CONTINUOUS
 10
327.0414355905
 20
216.2956611578
 30
0.0
 11
-638.5153799302
 21
744.3777330562
 31
0.0
 40
0.410361248
 41
1.5210107066
 42
1.5214804988
  0
ELLIPSE
  5
2F9
100
AcDbEntity
  8
CURVE
100
AcDbEllipse
 62
253
  6
CONTINUOUS
 10
326.6885902048
 20
216.4993896614
 30
0.0
 11
-637.4431017284
 21
743.7999490345
 31
0.0
 40
0.4108687833
 41
1.5215719691
 42
1.5220421202
  0
ELLIPSE
  5
2FA
100
AcDbEntity
  8
CURVE
100
AcDbEllipse
 62
253
  6
CONTINUOUS
 10
358.9173084003
 20
197.890931696
 30
0.0
 11
706.6736177001
 21
155.7240625393
 31
0.0
 40
0.2020654789
 41
-2.1666272048
 42
-2.1661570537
  0
ELLIPSE
  5
2FB
100
AcDbEntity
  8
CURVE
100
AcDbEllipse
 62
253
  6
CONTINUOUS
 10
358.5371022867
 20
198.1104579409
 30
0.0
 11
706.7178015534
 21
155.6931595796
 31
0.0
 40
0.2020846964
 41
-2.1661166177
 42
-2.1656464726
  0
ELLIPSE
  5
2FC
100
AcDbEntity
  8
CURVE
100
AcDbEllipse
 62
253
  6
CONTINUOUS
 10
326.6888296009
 20
216.4992514371
 30
0.0
 11
-637.4009860941
 21
743.7772625277
 31
0.0
 40
0.4108887376
 41
1.518617775
 42
1.5190879602
  0
ELLIPSE
  5
2FD
100
AcDbEntity
  8
CURVE
100
AcDbEllipse
 62
253
  6
CONTINUOUS
 10
327.0696714477
 20
216.2793581278
 30
0.0
 11
-637.4219884007
 21
743.7885758129
 31
0.0
 40
0.4108787866
 41
1.5181486337
 42
1.5186191664
  0
ELLIPSE
  5
2FE
100
AcDbEntity
  8
CURVE
100
AcDbEllipse
 62
253
  6
CONTINUOUS
 10
358.5196781081
 20
198.1205184432
 30
0.0
 11
706.1320685525
 21
156.1027738251
 31
0.0
 40
0.2018293736
 41
-2.1637324759
 42
-2.163262296
  0
ELLIPSE
  5
2FF
100
AcDbEntity
  8
CURVE
100
AcDbEllipse
 62
253
  6
CONTINUOUS
 10
358.9066000182
 20
197.8971145816
 30
0.0
 11
706.3221293155
 21
155.9698743963
 31
0.0
 40
0.2019123551
 41
-2.1640138395
 42
-2.163543372
  0
ELLIPSE
  5
300
100
AcDbEntity
  8
ASSI
100
AcDbEllipse
 62
7
  6
CONTINUOUS
 10
17.5986411882
 20
-7.5947140595
 30
0.0
 11
-0.1000390991
 21
0.1732220807
 31
0.0
 40
0.5772437351
 41
-3.1546807091
 42
-2.3564331449
  0
ELLIPSE
  5
301
100
AcDbEntity
  8
ASSI
100
AcDbEllipse
 62
7
  6
CONTINUOUS
 10
-9.7065980031
 20
24.9780252754
 30
0.0
 11
0.1999154856
 21
0.0095814127
 31
0.0
 40
0.6067642562
 41
-2.385266879
 42
-1.3380693278
  0
ELLIPSE
  5
302
100
AcDbEntity
  8
ASSI
100
AcDbEllipse
 62
7
  6
CONTINUOUS
 10
14.1229005229
 20
11.2191714803
 30
0.0
 11
0.1999154856
 21
0.0095814127
 31
0.0
 40
0.6067642562
 41
-2.385266879
 42
-1.3380693278
  0
ELLIPSE
  5
303
100
AcDbEntity
  8
ASSI
100
AcDbEllipse
 62
7
  6
CONTINUOUS
 10
-1.7870020538
 20
20.4053498302
 30
0.0
 11
0.1999154856
 21
0.0095814127
 31
0.0
 40
0.6067642562
 41
-2.385266879
 42
-1.3380693278
  0
ELLIPSE
  5
304
100
AcDbEntity
  8
ASSI
100
AcDbEllipse
 62
7
  6
CONTINUOUS
 10
-14.037519175
 20
27.5394377456
 30
0.0
 11
-0.2805986523
 21
0.4138767202
 31
0.0
 40
0.5251497255
 41
-0.8253745819
 42
-0.0067082748
  0
ELLIPSE
  5
305
100
AcDbEntity
  8
ASSI
100
AcDbEllipse
 62
7
  6
CONTINUOUS
 10
6.2033045736
 20
15.7918469256
 30
0.0
 11
0.1999154856
 21
0.0095814127
 31
0.0
 40
0.6067642562
 41
-2.385266879
 42
-1.3380693278
  0
ELLIPSE
  5
306
100
AcDbEntity
  8
ASSI
100
AcDbEllipse
 62
7
  6
CONTINUOUS
 10
16.8443380029
 20
9.7086404516
 30
0.0
 11
-0.2807400337
 21
0.4141474974
 31
0.0
 40
0.5245128892
 41
-2.3945640771
 42
-0.8246811388
  0
ELLIPSE
  5
307
100
AcDbEntity
  8
ASSI
100
AcDbEllipse
 62
7
  6
CONTINUOUS
 10
3.8210194775
 20
17.167348483
 30
0.0
 11
0.1999154856
 21
0.0095814127
 31
0.0
 40
0.6067642562
 41
2.850720877
 42
3.8979184282
  0
ELLIPSE
  5
308
100
AcDbEntity
  8
ASSI
100
AcDbEllipse
 62
7
  6
CONTINUOUS
 10
11.7406154268
 20
12.5946730377
 30
0.0
 11
0.1999154856
 21
0.0095814127
 31
0.0
 40
0.6067642562
 41
2.850720877
 42
3.8979184282
  0
ELLIPSE
  5
309
100
AcDbEntity
  8
ASSI
100
AcDbEllipse
 62
7
  6
CONTINUOUS
 10
-12.0888830992
 20
26.3535268329
 30
0.0
 11
0.1999154856
 21
0.0095814127
 31
0.0
 40
0.6067642562
 41
2.850720877
 42
3.8979184282
  0
ELLIPSE
  5
30A
100
AcDbEntity
  8
ASSI
100
AcDbEllipse
 62
7
  6
CONTINUOUS
 10
-4.1692871499
 20
21.7808513876
 30
0.0
 11
0.1999154856
 21
0.0095814127
 31
0.0
 40
0.6067642562
 41
2.850720877
 42
3.8979184282
  0
ELLIPSE
  5
30B
100
AcDbEntity
  8
CURVE
100
AcDbEllipse
 62
253
  6
CONTINUOUS
 10
351.8686352032
 20
201.9607472594
 30
0.0
 11
-353.5448371896
 21
612.3773631081
 31
0.0
 40
0.5773595762
 41
1.5415935408
 42
1.5429442426
  0
ELLIPSE
  5
30C
100
AcDbEntity
  8
CURVE
100
AcDbEllipse
 62
253
  6
CONTINUOUS
 10
352.1362785386
 20
201.8062133519
 30
0.0
 11
-353.4524254743
 21
612.3453544071
 31
0.0
 40
0.5774199378
 41
1.5412643862
 42
1.5426147498
  0
ELLIPSE
  5
30D
100
AcDbEntity
  8
CURVE
100
AcDbEllipse
 62
253
  6
CONTINUOUS
 10
351.8667846262
 20
201.9618157593
 30
0.0
 11
-353.4524254088
 21
612.3453543844
 31
0.0
 40
0.5774199379
 41
1.5471863906
 42
1.5485365465
  0
ELLIPSE
  5
30E
100
AcDbEntity
  8
CURVE
100
AcDbEllipse
 62
253
  6
CONTINUOUS
 10
352.1424664887
 20
201.802640507
 30
0.0
 11
-353.7758721714
 21
612.4574278343
 31
0.0
 40
0.5772086601
 41
1.5466224376
 42
1.5479722526
  0
ENDSEC
  0
SECTION
  2
OBJECTS
  0
DICTIONARY
  5
C
100
AcDbDictionary
280
0
281
1
  3
ACAD_GROUP
350
D
  3
ACAD_MLINESTYLE
350
17
  3
ACAD_LAYOUT
350
1A
  3
ACAD_PLOTSETTINGS
350
19
  3
ACAD_PLOTSTYLENAME
350
E
  0
DICTIONARY
  5
D
102
{ACAD_REACTORS
330
C
102
}
100
AcDbDictionary
280
0
281
1
  0
ACDBDICTIONARYWDFLT
  5
E
102
{ACAD_REACTORS
330
C
102
}
100
AcDbDictionary
281
1
  3
Normal
350
F
100
AcDbDictionaryWithDefault
340
F
  0
DICTIONARY
  5
17
102
{ACAD_REACTORS
330
C
102
}
100
AcDbDictionary
280
0
281
1
  3
Standard
350
18
  0
DICTIONARY
  5
19
102
{ACAD_REACTORS
330
C
102
}
100
AcDbDictionary
281
1
  0
DICTIONARY
  5
1A
102
{ACAD_REACTORS
330
C
102
}
100
AcDbDictionary
281
1
  3
Model
350
30F
  3
Layout1
350
310
  0
ACDBPLACEHOLDER
  5
F
102
{ACAD_REACTORS
330
E
102
}
  0
MLINESTYLE
  5
18
102
{ACAD_REACTORS
330
17
102
}
100
AcDbMlineStyle
  2
STANDARD
 70
0
  3

 62
256
 51
90.0
 52
90.0
 71
2
 49
0.5
 62
256
  6
BYLAYER
 49
-0.5
 62
256
  6
BYLAYER
  0
LAYOUT
  5
30F
102
{ACAD_REACTORS
330
1A
102
}
100
AcDbPlotSettings
  1

  2
none_device
  4
ISO_A4_(297.00_x_210.00_MM)
  6

 40
0.0
 41
0.0
 42
0.0
 43
0.0
 44
297.0
 45
210.0
 46
0.0
 47
0.0
 48
0.0
 49
0.0
140
0.0
141
0.0
142
1.0
143
1.0
 70
1024
 72
1
 73
0
 74
0
  7

 75
0
147
1.0
148
0.0
149
0.0
100
AcDbLayout
  1
Model
 70
0
 71
0
 10
0.0
 20
0.0
 11
297.0
 21
210.0
 12
0.0
 22
0.0
 32
0.0
 14
0.0
 24
0.0
 34
0.0
 15
0.0
 25
0.0
 35
0.0
146
0.0
 13
0.0
 23
0.0
 33
0.0
 16
1.0
 26
0.0
 36
0.0
 17
0.0
 27
1.0
 37
0.0
 76
0
330
217
345
0
346
0
  0
LAYOUT
  5
310
102
{ACAD_REACTORS
330
1A
102
}
100
AcDbPlotSettings
  1

  2
none_device
  4
ISO_A4_(297.00_x_210.00_MM)
  6

 40
0.0
 41
0.0
 42
0.0
 43
0.0
 44
297.0
 45
210.0
 46
0.0
 47
0.0
 48
0.0
 49
0.0
140
0.0
141
0.0
142
1.0
143
1.0
 70
0
 72
1
 73
0
 74
0
  7

 75
0
147
1.0
148
0.0
149
0.0
100
AcDbLayout
  1
Layout1
 70
0
 71
1
 10
0.0
 20
0.0
 11
297.0
 21
210.0
 12
0.0
 22
0.0
 32
0.0
 14
0.0
 24
0.0
 34
0.0
 15
0.0
 25
0.0
 35
0.0
146
0.0
 13
0.0
 23
0.0
 33
0.0
 16
1.0
 26
0.0
 36
0.0
 17
0.0
 27
1.0
 37
0.0
 76
0
330
218
345
0
346
0
  0
ENDSEC
  0
EOF
