  0
SECTION
  2
HEADER
  9
$ACADVER
  1
AC1024
  9
$DWGCODEPAGE
  3
ANSI_1252
  9
$EXTMAX
 10
297.0
 20
210.0
 30
0.0
  9
$EXTMIN
 10
0.0
 20
0.0
 30
0.0
  9
$LIMMIN
 10
0.0
 20
0.0
  9
$LIMMAX
 10
297.0
 20
210.0
  9
$VIEWCTR
 10
148.5
 20
105.0
  9
$VIEWSIZE
 40
210.0
  9
$CLAYER
  8
0
  9
$LTSCALE
 40
16.335
  9
$CELTYPE
  6
BYLAYER
  9
$DIMSCALE
 40
1.0
  9
$DIMASZ
 40
3.0
  9
$DIMEXO
 40
0.5
  9
$DIMDLI
 40
11.286
  9
$DIMEXE
 40
1.5
  9
$DIMCEN
 40
2.673
  9
$DIMLFAC
 40
1.0
  9
$DIMBLK
  1
_FILLED
  9
$DIMALT
 70
0
  9
$DIMALTF
 40
0.0393700787
  9
$DIMTXT
 40
3.0
  9
$DIMTOL
 70
1
  9
$DIMLIM
 70
0
  9
$DIMTFAC
 40
1.0
  9
$DIMTP
 40
0.01
  9
$DIMTM
 40
0.01
  9
$DIMGAP
 40
0.625
  9
$DIMDSEP
 70
44
  9
$AUNITS
 70
0
  9
$PDMODE
 70
3
  9
$PDSIZE
 40
3.0
  9
$HANDSEED
  5
36B
  9
$TILEMODE
 70
1
  9
$MEASUREMENT
 70
1
  9
$INSUNITS
 70
4
  0
ENDSEC
  0
SECTION
  2
CLASSES
  0
CLASS
  1
ACDBDICTIONARYWDFLT
  2
AcDbDictionaryWithDefault
  3
AutoCAD 2000
 90
0
 91
1
280
0
281
0
  0
CLASS
  1
ACDBPLACEHOLDER
  2
AcDbPlaceHolder
  3
AutoCAD 2000
 90
0
 91
1
280
0
281
0
  0
CLASS
  1
LAYOUT
  2
AcDbLayout
  3
AutoCAD 2000
 90
0
 91
0
280
0
281
0
  0
ENDSEC
  0
SECTION
  2
TABLES
  0
TABLE
  2
VPORT
  5
8
100
AcDbSymbolTable
 70
2
  0
VPORT
  5
1F4
100
AcDbSymbolTableRecord
100
AcDbViewportTableRecord
  2
*ACTIVE
 70
0
 10
0.0
 20
0.0
 11
1.0
 21
1.0
 12
148.5
 22
105.0
 13
0.0
 23
0.0
 14
1.0
 24
1.0
 15
0.0
 25
0.0
 16
0.0
 26
0.0
 36
1.0
 17
0.0
 27
0.0
 37
0.0
 40
210.0
 41
1.4142857143
 42
50.0
 43
0.0
 44
0.0
 50
0.0
 51
0.0
 71
0
 72
100
 73
1
 74
1
 75
0
 76
0
 77
0
 78
0
  0
ENDTAB
  0
TABLE
  2
LTYPE
  5
5
100
AcDbSymbolTable
 70
6
  0
LTYPE
  5
14
100
AcDbSymbolTableRecord
100
AcDbLinetypeTableRecord
  2
BYBLOCK
 70
0
  3

 72
65
 73
0
 40
0.0
  0
LTYPE
  5
15
100
AcDbSymbolTableRecord
100
AcDbLinetypeTableRecord
  2
BYLAYER
 70
0
  3

 72
65
 73
0
 40
0.0
  0
LTYPE
  5
16
100
AcDbSymbolTableRecord
100
AcDbLinetypeTableRecord
  2
CONTINUOUS
 70
64
  3
Solid line
 72
65
 73
0
 40
0.0
  0
LTYPE
  5
1F5
100
AcDbSymbolTableRecord
100
AcDbLinetypeTableRecord
  2
CENTER
 70
64
  3
____ _ ____ _ ____ _ ____ _ ____ _ ____ _ ____
 72
65
 73
4
 40
0.6
 49
0.375
 74
0
 49
-0.075
 74
0
 49
0.075
 74
0
 49
-0.075
 74
0
  0
LTYPE
  5
1F6
100
AcDbSymbolTableRecord
100
AcDbLinetypeTableRecord
  2
HIDDEN
 70
64
  3
- - - - - - - - - - - - - - - - - - - -
 72
65
 73
2
 40
0.2
 49
0.1
 74
0
 49
-0.1
 74
0
  0
LTYPE
  5
1F7
100
AcDbSymbolTableRecord
100
AcDbLinetypeTableRecord
  2
PHANTOM
 70
64
  3
_____ _ _ _____ _ _ _____ _ _ _____
 72
65
 73
6
 40
0.8
 49
0.45
 74
0
 49
-0.05
 74
0
 49
0.1
 74
0
 49
-0.05
 74
0
 49
0.1
 74
0
 49
-0.05
 74
0
  0
LTYPE
  5
1F8
100
AcDbSymbolTableRecord
100
AcDbLinetypeTableRecord
  2
DOT
 70
64
  3
. . . . . . . . . . . . . . . . . . . .
 72
65
 73
2
 40
0.2
 49
0.1
 74
0
 49
-0.1
 74
0
  0
LTYPE
  5
1F9
100
AcDbSymbolTableRecord
100
AcDbLinetypeTableRecord
  2
DASHED
 70
64
  3
- - - - - - - - - - - - - - - - - - - -
 72
65
 73
2
 40
0.2
 49
0.1
 74
0
 49
-0.1
 74
0
  0
ENDTAB
  0
TABLE
  2
LAYER
  5
2
100
AcDbSymbolTable
 70
36
  0
LAYER
  5
10
100
AcDbSymbolTableRecord
100
AcDbLayerTableRecord
  2
0
 70
0
 62
7
  6
CONTINUOUS
370
-3
390
F
  0
LAYER
  5
1FA
100
AcDbSymbolTableRecord
100
AcDbLayerTableRecord
  2
DEFAULT_1
 70
0
 62
7
  6
CENTER
370
-3
390
F
  0
LAYER
  5
1FB
100
AcDbSymbolTableRecord
100
AcDbLayerTableRecord
  2
DEFAULT_2
 70
0
 62
7
  6
HIDDEN
370
-3
390
F
  0
LAYER
  5
1FC
100
AcDbSymbolTableRecord
100
AcDbLayerTableRecord
  2
DEFAULT_3
 70
0
 62
7
  6
PHANTOM
370
-3
390
F
  0
LAYER
  5
1FD
100
AcDbSymbolTableRecord
100
AcDbLayerTableRecord
  2
ASSI
 70
0
 62
7
  6
CONTINUOUS
370
-3
390
F
  0
LAYER
  5
1FE
100
AcDbSymbolTableRecord
100
AcDbLayerTableRecord
  2
COORDINATE
 70
0
 62
7
  6
CONTINUOUS
370
-3
390
F
  0
LAYER
  5
1FF
100
AcDbSymbolTableRecord
100
AcDbLayerTableRecord
  2
COORD_ORIGINE
 70
0
 62
7
  6
CONTINUOUS
370
-3
390
F
  0
LAYER
  5
200
100
AcDbSymbolTableRecord
100
AcDbLayerTableRecord
  2
COPY_PUBLISH
 70
0
 62
7
  6
CONTINUOUS
370
-3
390
F
  0
LAYER
  5
201
100
AcDbSymbolTableRecord
100
AcDbLayerTableRecord
  2
COSMETICI
 70
0
 62
7
  6
CONTINUOUS
370
-3
390
F
  0
LAYER
  5
202
100
AcDbSymbolTableRecord
100
AcDbLayerTableRecord
  2
CURVE
 70
0
 62
7
  6
CONTINUOUS
370
-3
390
F
  0
LAYER
  5
203
100
AcDbSymbolTableRecord
100
AcDbLayerTableRecord
  2
DRAFT
 70
0
 62
7
  6
CONTINUOUS
370
-3
390
F
  0
LAYER
  5
204
100
AcDbSymbolTableRecord
100
AcDbLayerTableRecord
  2
IGES
 70
0
 62
7
  6
CONTINUOUS
370
-3
390
F
  0
LAYER
  5
205
100
AcDbSymbolTableRecord
100
AcDbLayerTableRecord
  2
IMPORT_IGES
 70
0
 62
7
  6
CONTINUOUS
370
-3
390
F
  0
LAYER
  5
206
100
AcDbSymbolTableRecord
100
AcDbLayerTableRecord
  2
NOTE
 70
0
 62
7
  6
CONTINUOUS
370
-3
390
F
  0
LAYER
  5
207
100
AcDbSymbolTableRecord
100
AcDbLayerTableRecord
  2
PIANI
 70
0
 62
7
  6
CONTINUOUS
370
-3
390
F
  0
LAYER
  5
208
100
AcDbSymbolTableRecord
100
AcDbLayerTableRecord
  2
PIANI_ORIGINE
 70
0
 62
7
  6
CONTINUOUS
370
-3
390
F
  0
LAYER
  5
209
100
AcDbSymbolTableRecord
100
AcDbLayerTableRecord
  2
PIANI_RIFERIMENTO
 70
0
 62
7
  6
CONTINUOUS
370
-3
390
F
  0
LAYER
  5
20A
100
AcDbSymbolTableRecord
100
AcDbLayerTableRecord
  2
PUNTI
 70
0
 62
7
  6
CONTINUOUS
370
-3
390
F
  0
LAYER
  5
20B
100
AcDbSymbolTableRecord
100
AcDbLayerTableRecord
  2
RACCORDO
 70
0
 62
7
  6
CONTINUOUS
370
-3
390
F
  0
LAYER
  5
20C
100
AcDbSymbolTableRecord
100
AcDbLayerTableRecord
  2
SIMBOLI
 70
0
 62
7
  6
CONTINUOUS
370
-3
390
F
  0
LAYER
  5
20D
100
AcDbSymbolTableRecord
100
AcDbLayerTableRecord
  2
SMUSSO
 70
0
 62
7
  6
CONTINUOUS
370
-3
390
F
  0
LAYER
  5
20E
100
AcDbSymbolTableRecord
100
AcDbLayerTableRecord
  2
SNAPLINE
 70
0
 62
7
  6
CONTINUOUS
370
-3
390
F
  0
LAYER
  5
20F
100
AcDbSymbolTableRecord
100
AcDbLayerTableRecord
  2
SUPERFICI
 70
0
 62
7
  6
CONTINUOUS
370
-3
390
F
  0
LAYER
  5
210
100
AcDbSymbolTableRecord
100
AcDbLayerTableRecord
  2
TRASH
 70
0
 62
7
  6
CONTINUOUS
370
-3
390
F
  0
LAYER
  5
211
100
AcDbSymbolTableRecord
100
AcDbLayerTableRecord
  2
XSEC_DATUMS
 70
0
 62
7
  6
CONTINUOUS
370
-3
390
F
  0
ENDTAB
  0
TABLE
  2
STYLE
  5
3
100
AcDbSymbolTable
 70
1
  0
STYLE
  5
11
100
AcDbSymbolTableRecord
100
AcDbTextStyleTableRecord
  2
STANDARD
 70
0
 40
0.0
 41
0.8
 50
0.0
 71
0
 42
0.2
  3
txt
  4

  0
STYLE
  5
212
100
AcDbSymbolTableRecord
100
AcDbTextStyleTableRecord
  2
TEXTSTYLE_1
 70
0
 40
0.0
 41
0.8
 50
0.0
 71
0
 42
0.2
  3
gdt
  4

  0
ENDTAB
  0
TABLE
  2
VIEW
  5
6
100
AcDbSymbolTable
 70
0
  0
ENDTAB
  0
TABLE
  2
UCS
  5
7
100
AcDbSymbolTable
 70
0
  0
ENDTAB
  0
TABLE
  2
APPID
  5
9
100
AcDbSymbolTable
 70
1
  0
APPID
  5
213
100
AcDbSymbolTableRecord
100
AcDbRegAppTableRecord
  2
ACAD
 70
0
  0
ENDTAB
  0
TABLE
  2
BLOCK_RECORD
  5
1
100
AcDbSymbolTable
 70
0
  0
BLOCK_RECORD
  5
214
100
AcDbSymbolTableRecord
100
AcDbBlockTableRecord
  2
*Model_Space
  0
BLOCK_RECORD
  5
215
100
AcDbSymbolTableRecord
100
AcDbBlockTableRecord
  2
*Paper_Space
  0
BLOCK_RECORD
  5
216
100
AcDbSymbolTableRecord
100
AcDbBlockTableRecord
  2
_FILLED
  0
ENDTAB
  0
TABLE
  2
DIMSTYLE
  5
A
100
AcDbSymbolTable
 70
1
100
AcDbDimStyleTable
 71
0
  0
DIMSTYLE
105
217
100
AcDbSymbolTableRecord
100
AcDbDimStyleTableRecord
  2
STANDARD
 70
0
  3

  4

 40
1.0
 41
3.0
 42
0.5
 43
0.38
 44
1.5
 45
0.0
 46
0.0
 47
0.01
 48
0.01
140
3.0
141
0.09
142
0.0
143
25.4
144
1.0
145
0.0
146
1.0
147
0.625
 71
1.0
 72
0.0
 73
0
 74
0
 75
0
 76
0
 77
1
 78
8
 79
2
170
0
171
1
172
0
173
0
174
0
175
0
176
0
177
0
178
0
270
2
179
2
271
2
272
2
273
2
274
2
275
0
280
0
281
0
282
0
283
1
284
8
285
0
286
0
287
3
288
0
340
11
278
44
341
216
342
216
343
216
344
216
  0
ENDTAB
  0
ENDSEC
  0
SECTION
  2
BLOCKS
  0
BLOCK
  5
20
100
AcDbEntity
  8
0
100
AcDbBlockBegin
  2
*Model_Space
 70
0
 10
0.0
 20
0.0
 30
0.0
  3
*Model_Space
  1

  0
ENDBLK
  5
21
100
AcDbEntity
  8
0
100
AcDbBlockEnd
  0
BLOCK
  5
1C
100
AcDbEntity
  8
0
100
AcDbBlockBegin
  2
*Paper_Space
 70
0
 10
0.0
 20
0.0
 30
0.0
  3
*Paper_Space
  1

  0
ENDBLK
  5
1D
100
AcDbEntity
  8
0
100
AcDbBlockEnd
  0
BLOCK
  5
218
100
AcDbEntity
  8
0
100
AcDbBlockBegin
  2
_FILLED
 70
64
 10
0.0
 20
0.0
  3
_FILLED
  1

  0
SOLID
  5
219
100
AcDbEntity
  8
0
  6
BYBLOCK
 62
0
100
AcDbTrace
 10
0.0
 20
0.0
 11
-1.0
 21
0.3166666667
 12
-1.0
 22
-0.3166666667
 13
-1.0
 23
-0.3166666667
  0
ENDBLK
  5
21A
100
AcDbEntity
  8
0
  6
BYBLOCK
 62
0
100
AcDbBlockEnd
  0
ENDSEC
  0
SECTION
  2
ENTITIES
  0
LWPOLYLINE
  5
21B
100
AcDbEntity
  8
RACCORDO
100
AcDbPolyline
 62
250
  6
CONTINUOUS
 90
14
 70
0
 10
-8.7009392889
 20
22.2015591042
 10
-8.6943422075
 20
22.205219628
 10
-8.6786029521
 20
22.2125662527
 10
-8.662088014
 20
22.2184158193
 10
-8.6448532097
 20
22.2227485577
 10
-8.6269567884
 20
22.2255498244
 10
-8.6084592356
 20
22.2268101517
 10
-8.5894230684
 20
22.2265252801
 10
-8.5699126244
 20
22.2246961724
 10
-8.5499938439
 20
22.2213290105
 10
-8.5297340475
 20
22.2164351745
 10
-8.5092017082
 20
22.2100312044
 10
-8.4884662202
 20
22.2021387441
 10
-8.4675976642
 20
22.192784468
  0
LWPOLYLINE
  5
21C
100
AcDbEntity
  8
ASSI
100
AcDbPolyline
 62
250
  6
CONTINUOUS
 90
14
 70
0
 10
-8.7006598187
 20
22.2017216899
 10
-8.6943422075
 20
22.205219628
 10
-8.6786029521
 20
22.2125662527
 10
-8.662088014
 20
22.2184158193
 10
-8.6448532097
 20
22.2227485577
 10
-8.6269567884
 20
22.2255498244
 10
-8.6084592356
 20
22.2268101517
 10
-8.5894230684
 20
22.2265252801
 10
-8.5699126244
 20
22.2246961724
 10
-8.5499938439
 20
22.2213290105
 10
-8.5297340475
 20
22.2164351745
 10
-8.5092017082
 20
22.2100312044
 10
-8.4884662202
 20
22.2021387441
 10
-8.4675976642
 20
22.192784468
  0
LWPOLYLINE
  5
21D
100
AcDbEntity
  8
RACCORDO
100
AcDbPolyline
 62
7
  6
CONTINUOUS
 90
31
 70
0
 10
-8.7365536988
 20
22.1800633553
 10
-8.7832247314
 20
22.1496474738
 10
-8.8289199411
 20
22.1173147194
 10
-8.8736146291
 20
22.0831432074
 10
-8.9172967329
 20
22.0472026488
 10
-8.959948484
 20
22.0095602285
 10
-9.0015518162
 20
21.9702794633
 10
-9.0420868116
 20
21.9294238682
 10
-9.0815187297
 20
21.8870650917
 10
-9.1198240769
 20
21.8432634756
 10
-9.1569774161
 20
21.7980798003
 10
-9.1929319428
 20
21.7515958888
 10
-9.2276596946
 20
21.7038741444
 10
-9.2611320006
 20
21.65497384
 10
-9.293297776
 20
21.6049840214
 10
-9.324127297
 20
21.5539679891
 10
-9.353588388
 20
21.5019865373
 10
-9.3816295041
 20
21.4491354045
 10
-9.4082201463
 20
21.3954780738
 10
-9.4333260232
 20
21.3410770531
 10
-9.4568979265
 20
21.2860326706
 10
-9.4789046955
 20
21.2304082884
 10
-9.4993115949
 20
21.1742667141
 10
-9.5180740574
 20
21.1177069012
 10
-9.5351598528
 20
21.0607905073
 10
-9.5505342858
 20
21.0035792006
 10
-9.5641571924
 20
20.9461655499
 10
-9.5759939732
 20
20.8886102458
 10
-9.5860089698
 20
20.8309711786
 10
-9.5941634641
 20
20.7733234242
 10
-9.6004178291
 20
20.7157249813
  0
LWPOLYLINE
  5
21E
100
AcDbEntity
  8
ASSI
100
AcDbPolyline
 62
7
  6
CONTINUOUS
 90
15
 70
0
 10
-8.7006597297
 20
22.2017215371
 10
-8.7511010911
 20
22.1708587881
 10
-8.8572938447
 20
22.0959197251
 10
-8.9582420917
 20
22.0111163302
 10
-9.0537852608
 20
21.9171344178
 10
-9.1435577816
 20
21.8147208797
 10
-9.2268850394
 20
21.7049709245
 10
-9.3033822059
 20
21.5886495109
 10
-9.3726126486
 20
21.466519892
 10
-9.4338064597
 20
21.3399960634
 10
-9.4865628426
 20
21.2099122019
 10
-9.5304508978
 20
21.0770866058
 10
-9.5648698405
 20
20.9429354787
 10
-9.5894277812
 20
20.8083806603
 10
-9.603746691
 20
20.673956175
  0
LINE
  5
21F
100
AcDbEntity
  8
RACCORDO
100
AcDbLine
 62
7
  6
CONTINUOUS
 10
-8.7009392
 20
22.2015589516
 11
-8.7365536988
 21
22.1800633553
  0
LINE
  5
220
100
AcDbEntity
  8
RACCORDO
100
AcDbLine
 62
7
  6
CONTINUOUS
 10
-8.7009517118
 20
22.2015518612
 11
-6.5650289253
 21
23.4469904813
  0
LINE
  5
221
100
AcDbEntity
  8
ASSI
100
AcDbLine
 62
7
  6
CONTINUOUS
 10
-8.7009517118
 20
22.2015518612
 11
-6.5650289253
 21
23.4469904813
  0
LINE
  5
222
100
AcDbEntity
  8
RACCORDO
100
AcDbLine
 62
250
  6
CONTINUOUS
 10
-8.4675856316
 20
22.1927914842
 11
-6.3387069915
 21
23.4341227217
  0
LINE
  5
223
100
AcDbEntity
  8
ASSI
100
AcDbLine
 62
250
  6
CONTINUOUS
 10
-8.4675856316
 20
22.1927914842
 11
-6.3387069915
 21
23.4341227217
  0
LWPOLYLINE
  5
224
100
AcDbEntity
  8
RACCORDO
100
AcDbPolyline
 62
7
  6
CONTINUOUS
 90
19
 70
0
 10
5.9085874184
 20
-23.4217129625
 10
5.9458908984
 20
-23.4375309649
 10
5.9840613818
 20
-23.4517031909
 10
6.0230545048
 20
-23.464191538
 10
6.0628605365
 20
-23.4749669874
 10
6.103422681
 20
-23.483985507
 10
6.1446729286
 20
-23.4912071201
 10
6.1865905507
 20
-23.4966021342
 10
6.2291151159
 20
-23.5001338784
 10
6.2721813356
 20
-23.5017685774
 10
6.3157686694
 20
-23.5014777815
 10
6.3598132232
 20
-23.4992328575
 10
6.4042576521
 20
-23.4950070132
 10
6.4491015881
 20
-23.4887662476
 10
6.4942945639
 20
-23.480481749
 10
6.5397779966
 20
-23.470127963
 10
6.5855506956
 20
-23.4576637086
 10
6.6315783175
 20
-23.4430527563
 10
6.677784448
 20
-23.4262754327
  0
LWPOLYLINE
  5
225
100
AcDbEntity
  8
ASSI
100
AcDbPolyline
 62
7
  6
CONTINUOUS
 90
10
 70
0
 10
5.8756388995
 20
-23.4060246015
 10
5.9325737817
 20
-23.4321130615
 10
6.0075370416
 20
-23.4594560413
 10
6.085502625
 20
-23.4802400446
 10
6.166065504
 20
-23.4942012406
 10
6.2490036219
 20
-23.5011288761
 10
6.3338631845
 20
-23.5007910962
 10
6.4201736038
 20
-23.4930185465
 10
6.5078213324
 20
-23.4776137906
 10
6.5965519852
 20
-23.4543611855
  0
LINE
  5
226
100
AcDbEntity
  8
RACCORDO
100
AcDbLine
 62
7
  6
CONTINUOUS
 10
5.8765330141
 20
-23.4064729135
 11
5.9085874184
 21
-23.4217129625
  0
LINE
  5
227
100
AcDbEntity
  8
RACCORDO
100
AcDbLine
 62
7
  6
CONTINUOUS
 10
5.8766398643
 20
-23.4065265821
 11
-9.07574728
 21
-15.93033301
  0
LINE
  5
228
100
AcDbEntity
  8
ASSI
100
AcDbLine
 62
7
  6
CONTINUOUS
 10
5.8766398643
 20
-23.4065265821
 11
-9.07574728
 21
-15.93033301
  0
LINE
  5
229
100
AcDbEntity
  8
RACCORDO
100
AcDbLine
 62
7
  6
CONTINUOUS
 10
5.8765217635
 20
-23.4064675147
 11
5.8766400582
 21
-23.4065266791
  0
LINE
  5
22A
100
AcDbEntity
  8
RACCORDO
100
AcDbLine
 62
250
  6
CONTINUOUS
 10
5.4831706995
 20
-22.64590959
 11
-9.4601642533
 21
-15.174242114
  0
LINE
  5
22B
100
AcDbEntity
  8
ASSI
100
AcDbLine
 62
250
  6
CONTINUOUS
 10
5.4831706995
 20
-22.64590959
 11
-9.4601642533
 21
-15.174242114
  0
LINE
  5
22C
100
AcDbEntity
  8
ASSI
100
AcDbLine
 62
7
  6
CONTINUOUS
 10
-9.1069202104
 20
-15.9139397999
 11
-9.0733854527
 21
-15.931506748
  0
LINE
  5
22D
100
AcDbEntity
  8
RACCORDO
100
AcDbLine
 62
250
  6
CONTINUOUS
 10
5.856699025
 20
-23.3960637165
 11
5.8765217635
 21
-23.4064675147
  0
LINE
  5
22E
100
AcDbEntity
  8
RACCORDO
100
AcDbLine
 62
250
  6
CONTINUOUS
 10
-9.0757474766
 20
-15.9303329117
 11
-9.0952297229
 21
-15.9200993426
  0
LINE
  5
22F
100
AcDbEntity
  8
RACCORDO
100
AcDbLine
 62
7
  6
CONTINUOUS
 10
-9.1148927329
 20
-15.9094841788
 11
-9.0755445857
 21
-15.9304340927
  0
LINE
  5
230
100
AcDbEntity
  8
RACCORDO
100
AcDbLine
 62
250
  6
CONTINUOUS
 10
-9.0952297229
 20
-15.9200993426
 11
-9.1273006587
 21
-15.9009850026
  0
LWPOLYLINE
  5
231
100
AcDbEntity
  8
ASSI
100
AcDbPolyline
 62
250
  6
CONTINUOUS
 90
21
 70
0
 10
-9.0952297229
 20
-15.9200993426
 10
-9.1273006587
 20
-15.9009850026
 10
-9.158168812
 20
-15.8796540573
 10
-9.1877816782
 20
-15.856142716
 10
-9.2160887431
 20
-15.8304909208
 10
-9.2430431952
 20
-15.8027416304
 10
-9.2685990805
 20
-15.7729420954
 10
-9.2927130308
 20
-15.7411426832
 10
-9.3153456844
 20
-15.7073961808
 10
-9.3364585773
 20
-15.6717596305
 10
-9.3560156845
 20
-15.6342932849
 10
-9.3739850779
 20
-15.5950593623
 10
-9.3903364361
 20
-15.5541233642
 10
-9.4050414735
 20
-15.5115549735
 10
-9.4180755552
 20
-15.4674270471
 10
-9.4294165327
 20
-15.4218148379
 10
-9.4390453411
 20
-15.3747946958
 10
-9.4469463839
 20
-15.3264449266
 10
-9.4531064665
 20
-15.2768466839
 10
-9.4575149099
 20
-15.2260839027
 10
-9.4601642533
 20
-15.174242114
  0
LWPOLYLINE
  5
232
100
AcDbEntity
  8
RACCORDO
100
AcDbPolyline
 62
250
  6
CONTINUOUS
 90
20
 70
0
 10
-9.1273006587
 20
-15.9009850026
 10
-9.158168812
 20
-15.8796540573
 10
-9.1877816782
 20
-15.856142716
 10
-9.2160887431
 20
-15.8304909208
 10
-9.2430431952
 20
-15.8027416304
 10
-9.2685990805
 20
-15.7729420954
 10
-9.2927130308
 20
-15.7411426832
 10
-9.3153456844
 20
-15.7073961808
 10
-9.3364585773
 20
-15.6717596305
 10
-9.3560156845
 20
-15.6342932849
 10
-9.3739850779
 20
-15.5950593623
 10
-9.3903364361
 20
-15.5541233642
 10
-9.4050414735
 20
-15.5115549735
 10
-9.4180755552
 20
-15.4674270471
 10
-9.4294165327
 20
-15.4218148379
 10
-9.4390453411
 20
-15.3747946958
 10
-9.4469463839
 20
-15.3264449266
 10
-9.4531064665
 20
-15.2768466839
 10
-9.4575149099
 20
-15.2260839027
 10
-9.4601642533
 20
-15.174242114
  0
LINE
  5
233
100
AcDbEntity
  8
RACCORDO
100
AcDbLine
 62
7
  6
CONTINUOUS
 10
-4.3389234922
 20
22.4342309721
 11
-4.5204539765
 21
22.0679221534
  0
LINE
  5
234
100
AcDbEntity
  8
ASSI
100
AcDbLine
 62
7
  6
CONTINUOUS
 10
-4.3389234922
 20
22.4342309721
 11
-4.5204539765
 21
22.0679221534
  0
LWPOLYLINE
  5
235
100
AcDbEntity
  8
ASSI
100
AcDbPolyline
 62
7
  6
CONTINUOUS
 90
11
 70
0
 10
-9.6066243955
 20
-14.996695379
 10
-9.6030080259
 20
-15.0618957749
 10
-9.5871751415
 20
-15.1897864507
 10
-9.5603608351
 20
-15.3105460816
 10
-9.5230453091
 20
-15.4236120837
 10
-9.4756378005
 20
-15.528653081
 10
-9.4185060276
 20
-15.6253105523
 10
-9.3522535306
 20
-15.7128445309
 10
-9.2776206661
 20
-15.7905499167
 10
-9.1954705464
 20
-15.8577936472
 10
-9.1069202104
 20
-15.9139397999
  0
LINE
  5
236
100
AcDbEntity
  8
RACCORDO
100
AcDbLine
 62
250
  6
CONTINUOUS
 10
-9.6066273478
 20
-14.9966163979
 11
-9.6063247735
 21
-15.0020973353
  0
LWPOLYLINE
  5
237
100
AcDbEntity
  8
RACCORDO
100
AcDbPolyline
 62
7
  6
CONTINUOUS
 90
23
 70
0
 10
-9.6066270741
 20
-14.9966163887
 10
-9.6044394339
 20
-15.0416403536
 10
-9.5996312918
 20
-15.0991346398
 10
-9.5926558252
 20
-15.1552211235
 10
-9.583564244
 20
-15.2098489007
 10
-9.5724050204
 20
-15.2630028236
 10
-9.559216216
 20
-15.3146830282
 10
-9.5440400175
 20
-15.3648598281
 10
-9.5269225579
 20
-15.4134949781
 10
-9.5079038309
 20
-15.4605600991
 10
-9.4870301536
 20
-15.5060125938
 10
-9.4643525199
 20
-15.5498109791
 10
-9.439923535
 20
-15.5919114885
 10
-9.413804719
 20
-15.6322599243
 10
-9.3860583052
 20
-15.6708145129
 10
-9.3567488579
 20
-15.707534599
 10
-9.325951455
 20
-15.7423701465
 10
-9.2937472014
 20
-15.7752745788
 10
-9.2602240166
 20
-15.8062062452
 10
-9.2254736201
 20
-15.8351270418
 10
-9.1895942964
 20
-15.8620006825
 10
-9.152697247
 20
-15.8867932842
 10
-9.1148927329
 20
-15.9094841788
  0
LINE
  5
238
100
AcDbEntity
  8
ASSI
100
AcDbLine
 62
7
  6
CONTINUOUS
 10
-9.6066274756
 20
-14.9966125967
 11
-9.6066246693
 21
-14.9966953883
  0
LWPOLYLINE
  5
239
100
AcDbEntity
  8
RACCORDO
100
AcDbPolyline
 62
7
  6
CONTINUOUS
 90
10
 70
0
 10
-9.652498711
 20
19.1447252641
 10
-9.6948192867
 20
17.662265864
 10
-9.7331845729
 20
16.1816793429
 10
-9.7675940207
 20
14.7029845667
 10
-9.7980472488
 20
13.2261981549
 10
-9.8245439237
 20
11.7513357872
 10
-9.8470837103
 20
10.2784137778
 10
-9.8656663437
 20
8.8074485017
 10
-9.8802915858
 20
7.3384557338
 10
-9.8909592094
 20
5.8714519302
  0
LWPOLYLINE
  5
23A
100
AcDbEntity
  8
ASSI
100
AcDbPolyline
 62
7
  6
CONTINUOUS
 90
10
 70
0
 10
-9.6066460971
 20
20.6160238637
 10
-9.6658869346
 20
18.6902692479
 10
-9.7201271672
 20
16.7027859408
 10
-9.7672490291
 20
14.7186940995
 10
-9.8072514814
 20
12.7380357585
 10
-9.8401336935
 20
10.7608501334
 10
-9.8658949579
 20
8.787175721
 10
-9.8845346801
 20
6.8170516048
 10
-9.8960523673
 20
4.8505192091
 10
-9.9004127424
 20
2.9588910123
  0
LINE
  5
23B
100
AcDbEntity
  8
RACCORDO
100
AcDbLine
 62
7
  6
CONTINUOUS
 10
-9.6066460971
 20
20.6160238616
 11
-9.652498711
 21
19.1447252641
  0
LWPOLYLINE
  5
23C
100
AcDbEntity
  8
RACCORDO
100
AcDbPolyline
 62
250
  6
CONTINUOUS
 90
37
 70
0
 10
-9.4601642533
 20
20.4409622566
 10
-9.4575149099
 20
20.4955161922
 10
-9.4531064666
 20
20.5507911713
 10
-9.446946384
 20
20.6066942022
 10
-9.4390453413
 20
20.6631310473
 10
-9.4294165328
 20
20.7200069822
 10
-9.4180755554
 20
20.7772269752
 10
-9.4050414738
 20
20.8346958212
 10
-9.3903364364
 20
20.8923159093
 10
-9.3739850782
 20
20.9499879898
 10
-9.3560156848
 20
21.0076142802
 10
-9.3364585777
 20
21.0650987717
 10
-9.3153456848
 20
21.1223450026
 10
-9.2927130313
 20
21.1792568758
 10
-9.268599081
 20
21.2357387045
 10
-9.2430431957
 20
21.2916954838
 10
-9.2160887436
 20
21.3470336481
 10
-9.1877816788
 20
21.4016598227
 10
-9.1581688126
 20
21.4554808718
 10
-9.1273006593
 20
21.5084064891
 10
-9.0952297236
 20
21.5603478107
 10
-9.0620090882
 20
21.6112161963
 10
-9.0276956813
 20
21.6609260387
 10
-8.9923476961
 20
21.7093943199
 10
-8.9560229078
 20
21.7565392209
 10
-8.9187832587
 20
21.8022817164
 10
-8.880692121
 20
21.8465451313
 10
-8.8418116938
 20
21.889254633
 10
-8.8022076301
 20
21.9303392566
 10
-8.761947914
 20
21.9697294563
 10
-8.721100132
 20
22.0073567608
 10
-8.6797347158
 20
22.0431576821
 10
-8.6379213872
 20
22.0770731717
 10
-8.5957280177
 20
22.1090460956
 10
-8.5532253553
 20
22.1390228287
 10
-8.5104869327
 20
22.1669534837
 10
-8.4675855595
 20
22.1927914481
  0
LWPOLYLINE
  5
23D
100
AcDbEntity
  8
ASSI
100
AcDbPolyline
 62
250
  6
CONTINUOUS
 90
37
 70
0
 10
-9.4601642533
 20
20.4409622566
 10
-9.4575149099
 20
20.4955161922
 10
-9.4531064666
 20
20.5507911713
 10
-9.446946384
 20
20.6066942022
 10
-9.4390453413
 20
20.6631310473
 10
-9.4294165328
 20
20.7200069822
 10
-9.4180755554
 20
20.7772269752
 10
-9.4050414738
 20
20.8346958212
 10
-9.3903364364
 20
20.8923159093
 10
-9.3739850782
 20
20.9499879898
 10
-9.3560156848
 20
21.0076142802
 10
-9.3364585777
 20
21.0650987717
 10
-9.3153456848
 20
21.1223450026
 10
-9.2927130313
 20
21.1792568758
 10
-9.268599081
 20
21.2357387045
 10
-9.2430431957
 20
21.2916954838
 10
-9.2160887436
 20
21.3470336481
 10
-9.1877816788
 20
21.4016598227
 10
-9.1581688126
 20
21.4554808718
 10
-9.1273006593
 20
21.5084064891
 10
-9.0952297236
 20
21.5603478107
 10
-9.0620090882
 20
21.6112161963
 10
-9.0276956813
 20
21.6609260387
 10
-8.9923476961
 20
21.7093943199
 10
-8.9560229078
 20
21.7565392209
 10
-8.9187832587
 20
21.8022817164
 10
-8.880692121
 20
21.8465451313
 10
-8.8418116938
 20
21.889254633
 10
-8.8022076301
 20
21.9303392566
 10
-8.761947914
 20
21.9697294563
 10
-8.721100132
 20
22.0073567608
 10
-8.6797347158
 20
22.0431576821
 10
-8.6379213872
 20
22.0770731717
 10
-8.5957280177
 20
22.1090460956
 10
-8.5532253553
 20
22.1390228287
 10
-8.5104869327
 20
22.1669534837
 10
-8.4675855595
 20
22.1927914481
  0
LINE
  5
23E
100
AcDbEntity
  8
ASSI
100
AcDbLine
 62
7
  6
CONTINUOUS
 10
-9.603746691
 20
20.673956175
 11
-9.6066527064
 21
20.6158056093
  0
LWPOLYLINE
  5
23F
100
AcDbEntity
  8
RACCORDO
100
AcDbPolyline
 62
7
  6
CONTINUOUS
 90
3
 70
0
 10
-9.6004178291
 20
20.7157249813
 10
-9.6047330657
 20
20.6582354744
 10
-9.6066461561
 20
20.6160139078
  0
LWPOLYLINE
  5
240
100
AcDbEntity
  8
RACCORDO
100
AcDbPolyline
 62
7
  6
CONTINUOUS
 90
4
 70
0
 10
-9.8954652241
 20
2.4094407496
 10
-9.8983662595
 20
2.3908999355
 10
-9.9000049721
 20
2.3723140979
 10
-9.900412689
 20
2.3571106924
  0
LINE
  5
241
100
AcDbEntity
  8
CURVE
100
AcDbLine
 62
250
  6
CONTINUOUS
 10
0.9799526653
 20
-12.3265089026
 11
-5.3840083654
 21
-9.1445283872
  0
LWPOLYLINE
  5
242
100
AcDbEntity
  8
RACCORDO
100
AcDbPolyline
 62
250
  6
CONTINUOUS
 90
14
 70
0
 10
-9.6063247735
 20
-15.0020973353
 10
-9.6044300095
 20
-15.0169632947
 10
-9.6008678229
 20
-15.0318721522
 10
-9.595671132
 20
-15.0466087854
 10
-9.5888571324
 20
-15.0611244309
 10
-9.5804483717
 20
-15.0753710565
 10
-9.5704726744
 20
-15.0893015204
 10
-9.5589630501
 20
-15.1028697267
 10
-9.5459575838
 20
-15.1160307783
 10
-9.5314993107
 20
-15.1287411254
 10
-9.5156360731
 20
-15.1409587096
 10
-9.4984203622
 20
-15.152643103
 10
-9.4799091447
 20
-15.163755642
 10
-9.4601636741
 20
-15.1742595554
  0
LWPOLYLINE
  5
243
100
AcDbEntity
  8
ASSI
100
AcDbPolyline
 62
250
  6
CONTINUOUS
 90
14
 70
0
 10
-9.6063459045
 20
-15.0019315462
 10
-9.6044300095
 20
-15.0169632947
 10
-9.6008678229
 20
-15.0318721522
 10
-9.595671132
 20
-15.0466087854
 10
-9.5888571324
 20
-15.0611244309
 10
-9.5804483717
 20
-15.0753710565
 10
-9.5704726744
 20
-15.0893015204
 10
-9.5589630501
 20
-15.1028697267
 10
-9.5459575838
 20
-15.1160307783
 10
-9.5314993107
 20
-15.1287411254
 10
-9.5156360731
 20
-15.1409587096
 10
-9.4984203622
 20
-15.152643103
 10
-9.4799091447
 20
-15.163755642
 10
-9.4601636741
 20
-15.1742595554
  0
LINE
  5
244
100
AcDbEntity
  8
RACCORDO
100
AcDbLine
 62
250
  6
CONTINUOUS
 10
-9.9003824363
 20
2.9564925491
 11
-9.8994975682
 21
2.9438021828
  0
LWPOLYLINE
  5
245
100
AcDbEntity
  8
ASSI
100
AcDbPolyline
 62
7
  6
CONTINUOUS
 90
9
 70
0
 10
-9.9004127054
 20
2.9587284753
 10
-9.8978187238
 20
2.921150519
 10
-9.8882620478
 20
2.877930916
 10
-9.871753053
 20
2.8361126635
 10
-9.848503553
 20
2.7964924116
 10
-9.8188785908
 20
2.7597985327
 10
-9.7832709208
 20
2.7265150286
 10
-9.7417930813
 20
2.6967868249
 10
-9.7021245316
 20
2.6745202981
  0
LWPOLYLINE
  5
246
100
AcDbEntity
  8
RACCORDO
100
AcDbPolyline
 62
250
  6
CONTINUOUS
 90
13
 70
0
 10
-9.4601642616
 20
-15.17424211
 10
-9.5063407007
 20
-13.7399460658
 10
-9.5485733594
 20
-12.3034542784
 10
-9.5868620126
 20
-10.8647832106
 10
-9.6212062454
 20
-9.423959641
 10
-9.6516062162
 20
-7.9809898141
 10
-9.6780623698
 20
-6.5358592874
 10
-9.7005748211
 20
-5.0885851003
 10
-9.7191429042
 20
-3.6391830726
 10
-9.7337654238
 20
-2.1876366856
 10
-9.7444415779
 20
-0.7339512742
 10
-9.7511712667
 20
0.7218458121
 10
-9.7539541388
 20
2.1797381768
  0
LWPOLYLINE
  5
247
100
AcDbEntity
  8
ASSI
100
AcDbPolyline
 62
250
  6
CONTINUOUS
 90
13
 70
0
 10
-9.4601642616
 20
-15.17424211
 10
-9.5063407007
 20
-13.7399460658
 10
-9.5485733594
 20
-12.3034542784
 10
-9.5868620126
 20
-10.8647832106
 10
-9.6212062454
 20
-9.423959641
 10
-9.6516062162
 20
-7.9809898141
 10
-9.6780623698
 20
-6.5358592874
 10
-9.7005748211
 20
-5.0885851003
 10
-9.7191429042
 20
-3.6391830726
 10
-9.7337654238
 20
-2.1876366856
 10
-9.7444415779
 20
-0.7339512742
 10
-9.7511712667
 20
0.7218458121
 10
-9.7539541388
 20
2.1797381768
  0
LWPOLYLINE
  5
248
100
AcDbEntity
  8
RACCORDO
100
AcDbPolyline
 62
250
  6
CONTINUOUS
 90
13
 70
0
 10
-9.7539657869
 20
2.7827463862
 10
-9.7535816963
 20
2.7700605178
 10
-9.7524169086
 20
2.7578356149
 10
-9.7504778711
 20
2.7461393471
 10
-9.7477753174
 20
2.7350364579
 10
-9.744324207
 20
2.7245884063
 10
-9.7401436432
 20
2.7148530264
 10
-9.7352567672
 20
2.7058842073
 10
-9.7296906298
 20
2.6977315951
 10
-9.7234760416
 20
2.6904403177
 10
-9.716647403
 20
2.6840507352
 10
-9.7092425132
 20
2.6785982166
 10
-9.7020040983
 20
2.6744594676
  0
LWPOLYLINE
  5
249
100
AcDbEntity
  8
ASSI
100
AcDbPolyline
 62
250
  6
CONTINUOUS
 90
13
 70
0
 10
-9.7539657869
 20
2.7827463862
 10
-9.7535816963
 20
2.7700605178
 10
-9.7524169086
 20
2.7578356149
 10
-9.7504778711
 20
2.7461393471
 10
-9.7477753174
 20
2.7350364579
 10
-9.744324207
 20
2.7245884063
 10
-9.7401436432
 20
2.7148530264
 10
-9.7352567672
 20
2.7058842073
 10
-9.7296906298
 20
2.6977315951
 10
-9.7234760416
 20
2.6904403177
 10
-9.716647403
 20
2.6840507352
 10
-9.7092425132
 20
2.6785982166
 10
-9.702124708
 20
2.6745199461
  0
LWPOLYLINE
  5
24A
100
AcDbEntity
  8
RACCORDO
100
AcDbPolyline
 62
7
  6
CONTINUOUS
 90
3
 70
0
 10
-9.6947762223
 20
-12.1350584303
 10
-9.6524490986
 20
-13.5738073477
 10
-9.6066274757
 20
-14.9966125939
  0
LWPOLYLINE
  5
24B
100
AcDbEntity
  8
ASSI
100
AcDbPolyline
 62
250
  6
CONTINUOUS
 90
15
 70
0
 10
-9.6066527064
 20
20.6158056093
 10
-9.6063456285
 20
20.6033805679
 10
-9.6044297234
 20
20.5897252924
 10
-9.6008675281
 20
20.5761033538
 10
-9.59567083
 20
20.562559827
 10
-9.588856825
 20
20.5491395274
 10
-9.5804480605
 20
20.5358868624
 10
-9.5704723609
 20
20.5228456852
 10
-9.5589627358
 20
20.5100591488
 10
-9.5459572704
 20
20.4975695636
 10
-9.5314989996
 20
20.4854182577
 10
-9.5156357658
 20
20.4736454395
 10
-9.49842006
 20
20.4622900652
 10
-9.4799088491
 20
20.4513897095
 10
-9.4601633862
 20
20.4409804416
  0
LWPOLYLINE
  5
24C
100
AcDbEntity
  8
RACCORDO
100
AcDbPolyline
 62
250
  6
CONTINUOUS
 90
15
 70
0
 10
-9.6066461561
 20
20.6160139078
 10
-9.6063456285
 20
20.6033805679
 10
-9.6044297234
 20
20.5897252924
 10
-9.6008675281
 20
20.5761033538
 10
-9.59567083
 20
20.562559827
 10
-9.588856825
 20
20.5491395274
 10
-9.5804480605
 20
20.5358868624
 10
-9.5704723609
 20
20.5228456852
 10
-9.5589627358
 20
20.5100591488
 10
-9.5459572704
 20
20.4975695636
 10
-9.5314989996
 20
20.4854182577
 10
-9.5156357658
 20
20.4736454395
 10
-9.49842006
 20
20.4622900652
 10
-9.4799088491
 20
20.4513897095
 10
-9.4601633862
 20
20.4409804416
  0
LWPOLYLINE
  5
24D
100
AcDbEntity
  8
RACCORDO
100
AcDbPolyline
 62
7
  6
CONTINUOUS
 90
21
 70
0
 10
-9.9004126255
 20
2.9589799108
 10
-9.9003262019
 20
2.9518592695
 10
-9.8993536366
 20
2.9346950571
 10
-9.8972972315
 20
2.917558611
 10
-9.8941532183
 20
2.9004953102
 10
-9.8899079492
 20
2.8835134795
 10
-9.8845565309
 20
2.8666735375
 10
-9.8781011958
 20
2.8500407484
 10
-9.870525853
 20
2.8336268199
 10
-9.8618268055
 20
2.8174805759
 10
-9.8520127971
 20
2.8016669583
 10
-9.8410707407
 20
2.7862110471
 10
-9.8289997328
 20
2.7711551972
 10
-9.8158058191
 20
2.7565453603
 10
-9.8014658708
 20
2.7423966016
 10
-9.7859697161
 20
2.7287427821
 10
-9.7693069077
 20
2.7156150466
 10
-9.7514211553
 20
2.7030151415
 10
-9.7322648214
 20
2.6909648222
 10
-9.7118282233
 20
2.6795109
 10
-9.7020039225
 20
2.6744598191
  0
LINE
  5
24E
100
AcDbEntity
  8
ASSI
100
AcDbLine
 62
250
  6
CONTINUOUS
 10
-9.9004127285
 20
2.9587320588
 11
-9.9003937017
 21
2.9566541129
  0
LWPOLYLINE
  5
24F
100
AcDbEntity
  8
RACCORDO
100
AcDbPolyline
 62
7
  6
CONTINUOUS
 90
10
 70
0
 10
-9.8976653076
 20
0.9112623714
 10
-9.8909521731
 20
-0.5468079311
 10
-9.880281137
 20
-2.0027975675
 10
-9.8656522774
 20
-3.4566881851
 10
-9.8470657684
 20
-4.9084635366
 10
-9.8245217945
 20
-6.3581080687
 10
-9.7980205673
 20
-7.8056056521
 10
-9.7675623682
 20
-9.250940293
 10
-9.7331474774
 20
-10.6940966361
 10
-9.6947762223
 20
-12.1350584303
  0
LWPOLYLINE
  5
250
100
AcDbEntity
  8
ASSI
100
AcDbPolyline
 62
7
  6
CONTINUOUS
 90
10
 70
0
 10
-9.9004127419
 20
2.3571513458
 10
-9.8960288388
 20
0.4642573424
 10
-9.8844899052
 20
-1.4903756604
 10
-9.8658286026
 20
-3.4412436593
 10
-9.8400452954
 20
-5.388305683
 10
-9.8071404494
 20
-7.3315231995
 10
-9.7671146436
 20
-9.2708583896
 10
-9.7199685792
 20
-11.2062728355
 10
-9.6657031673
 20
-13.1377254961
 10
-9.6066274756
 20
-14.9966125967
  0
LINE
  5
251
100
AcDbEntity
  8
RACCORDO
100
AcDbLine
 62
7
  6
CONTINUOUS
 10
-9.9004127419
 20
2.3571513434
 11
-9.8976653076
 21
0.9112623714
  0
LWPOLYLINE
  5
252
100
AcDbEntity
  8
RACCORDO
100
AcDbPolyline
 62
250
  6
CONTINUOUS
 90
13
 70
0
 10
-9.7539541389
 20
2.7827405623
 10
-9.7511712668
 20
4.2435251358
 10
-9.7444415779
 20
5.7062986745
 10
-9.7337654238
 20
7.1710444303
 10
-9.7191429042
 20
8.6377340986
 10
-9.7005748211
 20
10.1063623979
 10
-9.6780623698
 20
11.5769472189
 10
-9.6516062162
 20
13.0494729314
 10
-9.6212062454
 20
14.5239217553
 10
-9.5868620126
 20
16.0003085787
 10
-9.5485733594
 20
17.4786273156
 10
-9.5063407007
 20
18.9588507722
 10
-9.4601642616
 20
20.4409622607
  0
LWPOLYLINE
  5
253
100
AcDbEntity
  8
ASSI
100
AcDbPolyline
 62
250
  6
CONTINUOUS
 90
13
 70
0
 10
-9.7539541389
 20
2.7827405623
 10
-9.7511712668
 20
4.2435251358
 10
-9.7444415779
 20
5.7062986745
 10
-9.7337654238
 20
7.1710444303
 10
-9.7191429042
 20
8.6377340986
 10
-9.7005748211
 20
10.1063623979
 10
-9.6780623698
 20
11.5769472189
 10
-9.6516062162
 20
13.0494729314
 10
-9.6212062454
 20
14.5239217553
 10
-9.5868620126
 20
16.0003085787
 10
-9.5485733594
 20
17.4786273156
 10
-9.5063407007
 20
18.9588507722
 10
-9.4601642616
 20
20.4409622607
  0
LWPOLYLINE
  5
254
100
AcDbEntity
  8
RACCORDO
100
AcDbPolyline
 62
7
  6
CONTINUOUS
 90
3
 70
0
 10
-9.8909592094
 20
5.8714519302
 10
-9.8976690828
 20
4.4064555528
 10
-9.9004127424
 20
2.9588910147
  0
LWPOLYLINE
  5
255
100
AcDbEntity
  8
RACCORDO
100
AcDbPolyline
 62
250
  6
CONTINUOUS
 90
22
 70
0
 10
-9.7539657869
 20
2.1797440008
 10
-9.7535816954
 20
2.1928139781
 10
-9.7524169047
 20
2.2062036868
 10
-9.7504778624
 20
2.2198390095
 10
-9.7477753022
 20
2.2336444692
 10
-9.744324184
 20
2.2475436466
 10
-9.7401436116
 20
2.2614596035
 10
-9.7352567264
 20
2.2753153093
 10
-9.7296905796
 20
2.289034067
 10
-9.7234759826
 20
2.3025399374
 10
-9.7166473361
 20
2.3157581601
 10
-9.7092424395
 20
2.3286155671
 10
-9.7013022826
 20
2.3410409874
 10
-9.6928708175
 20
2.3529656416
 10
-9.6839947161
 20
2.3643235223
 10
-9.6747231114
 20
2.3750517593
 10
-9.6651073257
 20
2.3850909681
 10
-9.6552005863
 20
2.3943855782
 10
-9.6450577311
 20
2.4028841408
 10
-9.6347349049
 20
2.4105396136
 10
-9.6242892484
 20
2.4173096213
 10
-9.6137785825
 20
2.4231566899
  0
LWPOLYLINE
  5
256
100
AcDbEntity
  8
ASSI
100
AcDbPolyline
 62
250
  6
CONTINUOUS
 90
22
 70
0
 10
-9.7539657869
 20
2.1797440008
 10
-9.7535816954
 20
2.1928139781
 10
-9.7524169047
 20
2.2062036868
 10
-9.7504778624
 20
2.2198390095
 10
-9.7477753022
 20
2.2336444692
 10
-9.744324184
 20
2.2475436466
 10
-9.7401436116
 20
2.2614596035
 10
-9.7352567264
 20
2.2753153093
 10
-9.7296905796
 20
2.289034067
 10
-9.7234759826
 20
2.3025399374
 10
-9.7166473361
 20
2.3157581601
 10
-9.7092424395
 20
2.3286155671
 10
-9.7013022826
 20
2.3410409874
 10
-9.6928708175
 20
2.3529656416
 10
-9.6839947161
 20
2.3643235223
 10
-9.6747231114
 20
2.3750517593
 10
-9.6651073257
 20
2.3850909681
 10
-9.6552005863
 20
2.3943855782
 10
-9.6450577311
 20
2.4028841408
 10
-9.6347349049
 20
2.4105396136
 10
-9.6242892484
 20
2.4173096213
 10
-9.6137785825
 20
2.4231566899
  0
LINE
  5
257
100
AcDbEntity
  8
ASSI
100
AcDbLine
 62
7
  6
CONTINUOUS
 10
-9.8975878413
 20
2.3967216887
 11
-9.9004125178
 21
2.3569826081
  0
LWPOLYLINE
  5
258
100
AcDbEntity
  8
ASSI
100
AcDbPolyline
 62
250
  6
CONTINUOUS
 90
5
 70
0
 10
-9.7002937814
 20
2.544259482
 10
-9.6984271077
 20
2.5520558977
 10
-9.6957597882
 20
2.5597965807
 10
-9.6922981484
 20
2.5674820726
 10
-9.688069855
 20
2.575051008
  0
LWPOLYLINE
  5
259
100
AcDbEntity
  8
ASSI
100
AcDbPolyline
 62
250
  6
CONTINUOUS
 90
6
 70
0
 10
-9.688069855
 20
2.575051008
 10
-9.6830685058
 20
2.5825026667
 10
-9.6773005029
 20
2.5898377688
 10
-9.6708127185
 20
2.59699711
 10
-9.6635990973
 20
2.6039792959
 10
-9.6556656946
 20
2.6107857208
  0
LWPOLYLINE
  5
25A
100
AcDbEntity
  8
RACCORDO
100
AcDbPolyline
 62
250
  6
CONTINUOUS
 90
9
 70
0
 10
-9.6830685058
 20
2.5825026667
 10
-9.6773005029
 20
2.5898377688
 10
-9.6708127185
 20
2.59699711
 10
-9.6635990973
 20
2.6039792959
 10
-9.6556656946
 20
2.6107857208
 10
-9.6470775477
 20
2.617361363
 10
-9.6378563355
 20
2.6236878818
 10
-9.627980379
 20
2.6297836179
 10
-9.62072926
 20
2.6338220457
  0
LWPOLYLINE
  5
25B
100
AcDbEntity
  8
RACCORDO
100
AcDbPolyline
 62
250
  6
CONTINUOUS
 90
37
 70
0
 10
6.499122095
 20
14.7094376213
 10
6.4552076428
 20
14.6841061967
 10
6.4114634024
 20
14.6566784509
 10
6.3679621833
 20
14.6272009963
 10
6.3247758796
 20
14.5957245397
 10
6.2819768778
 20
14.5623018866
 10
6.2396379664
 20
14.5269877129
 10
6.197828894
 20
14.4898410536
 10
6.1566200655
 20
14.4509254102
 10
6.1160839034
 20
14.4103068357
 10
6.0762885029
 20
14.3680548207
 10
6.0372994061
 20
14.3242403854
 10
5.9991833151
 20
14.2789361108
 10
5.9620037059
 20
14.2322186203
 10
5.9258224172
 20
14.1841669908
 10
5.8907014175
 20
14.1348609448
 10
5.8566990257
 20
14.0843834375
 10
5.8238720441
 20
14.0328201388
 10
5.792277372
 20
13.9802577808
 10
5.7619676643
 20
13.9267851526
 10
5.7329932849
 20
13.8724926352
 10
5.705404411
 20
13.8174716818
 10
5.6792471667
 20
13.761815582
 10
5.6545647502
 20
13.7056179864
 10
5.6313993794
 20
13.6489724718
 10
5.6097896988
 20
13.5919746348
 10
5.5897715529
 20
13.5347206626
 10
5.5713791851
 20
13.4773058594
 10
5.5546431026
 20
13.419826141
 10
5.5395914052
 20
13.3623793829
 10
5.5262504856
 20
13.3050639558
 10
5.5146427018
 20
13.2479773659
 10
5.5047869091
 20
13.1912149232
 10
5.4966998331
 20
13.1348710946
 10
5.4903950448
 20
13.0790404165
 10
5.4858828467
 20
13.0238173145
 10
5.4831706996
 20
12.9692947806
  0
LWPOLYLINE
  5
25C
100
AcDbEntity
  8
ASSI
100
AcDbPolyline
 62
250
  6
CONTINUOUS
 90
37
 70
0
 10
6.499122095
 20
14.7094376213
 10
6.4552076428
 20
14.6841061967
 10
6.4114634024
 20
14.6566784509
 10
6.3679621833
 20
14.6272009963
 10
6.3247758796
 20
14.5957245397
 10
6.2819768778
 20
14.5623018866
 10
6.2396379664
 20
14.5269877129
 10
6.197828894
 20
14.4898410536
 10
6.1566200655
 20
14.4509254102
 10
6.1160839034
 20
14.4103068357
 10
6.0762885029
 20
14.3680548207
 10
6.0372994061
 20
14.3242403854
 10
5.9991833151
 20
14.2789361108
 10
5.9620037059
 20
14.2322186203
 10
5.9258224172
 20
14.1841669908
 10
5.8907014175
 20
14.1348609448
 10
5.8566990257
 20
14.0843834375
 10
5.8238720441
 20
14.0328201388
 10
5.792277372
 20
13.9802577808
 10
5.7619676643
 20
13.9267851526
 10
5.7329932849
 20
13.8724926352
 10
5.705404411
 20
13.8174716818
 10
5.6792471667
 20
13.761815582
 10
5.6545647502
 20
13.7056179864
 10
5.6313993794
 20
13.6489724718
 10
5.6097896988
 20
13.5919746348
 10
5.5897715529
 20
13.5347206626
 10
5.5713791851
 20
13.4773058594
 10
5.5546431026
 20
13.419826141
 10
5.5395914052
 20
13.3623793829
 10
5.5262504856
 20
13.3050639558
 10
5.5146427018
 20
13.2479773659
 10
5.5047869091
 20
13.1912149232
 10
5.4966998331
 20
13.1348710946
 10
5.4903950448
 20
13.0790404165
 10
5.4858828467
 20
13.0238173145
 10
5.4831706996
 20
12.9692947806
  0
LWPOLYLINE
  5
25D
100
AcDbEntity
  8
RACCORDO
100
AcDbPolyline
 62
250
  6
CONTINUOUS
 90
37
 70
0
 10
6.8649424464
 20
14.106428337
 10
6.8354263689
 20
14.0895754794
 10
6.8061189455
 20
14.0713888787
 10
6.7770201765
 20
14.0518685349
 10
6.7480811639
 20
14.0309768469
 10
6.7193508056
 20
14.0087514158
 10
6.6909757947
 20
13.9853050448
 10
6.6629582535
 20
13.9606315832
 10
6.6352960597
 20
13.9347371817
 10
6.6081295392
 20
13.9077530951
 10
6.5814616237
 20
13.8796741752
 10
6.5552893815
 20
13.8505055701
 10
6.5297443427
 20
13.8203939794
 10
6.5048296265
 20
13.7893346594
 10
6.4805421137
 20
13.7573323537
 10
6.4570039773
 20
13.724547993
 10
6.4342188477
 20
13.6909774006
 10
6.4121830945
 20
13.6566247532
 10
6.3910079993
 20
13.6216635105
 10
6.3706979546
 20
13.5860905941
 10
6.3512485678
 20
13.5499090825
 10
6.3327579431
 20
13.5133016704
 10
6.3152310484
 20
13.476266471
 10
6.2986629157
 20
13.4388053712
 10
6.2831367447
 20
13.4011067263
 10
6.2686577514
 20
13.363169377
 10
6.2552207197
 20
13.3249944825
 10
6.242893202
 20
13.2867738754
 10
6.231680685
 20
13.2485067484
 10
6.2215776818
 20
13.2101939088
 10
6.2126352842
 20
13.1720296107
 10
6.2048594491
 20
13.1340139504
 10
6.1982442196
 20
13.0961468315
 10
6.1928228166
 20
13.0586222198
 10
6.1886063136
 20
13.0215047703
 10
6.1855836371
 20
12.984729828
 10
6.1837547871
 20
12.9482973927
  0
LWPOLYLINE
  5
25E
100
AcDbEntity
  8
ASSI
100
AcDbPolyline
 62
250
  6
CONTINUOUS
 90
37
 70
0
 10
6.8649424464
 20
14.106428337
 10
6.8354263689
 20
14.0895754794
 10
6.8061189455
 20
14.0713888787
 10
6.7770201765
 20
14.0518685349
 10
6.7480811639
 20
14.0309768469
 10
6.7193508056
 20
14.0087514158
 10
6.6909757947
 20
13.9853050448
 10
6.6629582535
 20
13.9606315832
 10
6.6352960597
 20
13.9347371817
 10
6.6081295392
 20
13.9077530951
 10
6.5814616237
 20
13.8796741752
 10
6.5552893815
 20
13.8505055701
 10
6.5297443427
 20
13.8203939794
 10
6.5048296265
 20
13.7893346594
 10
6.4805421137
 20
13.7573323537
 10
6.4570039773
 20
13.724547993
 10
6.4342188477
 20
13.6909774006
 10
6.4121830945
 20
13.6566247532
 10
6.3910079993
 20
13.6216635105
 10
6.3706979546
 20
13.5860905941
 10
6.3512485678
 20
13.5499090825
 10
6.3327579431
 20
13.5133016704
 10
6.3152310484
 20
13.476266471
 10
6.2986629157
 20
13.4388053712
 10
6.2831367447
 20
13.4011067263
 10
6.2686577514
 20
13.363169377
 10
6.2552207197
 20
13.3249944825
 10
6.242893202
 20
13.2867738754
 10
6.231680685
 20
13.2485067484
 10
6.2215776818
 20
13.2101939088
 10
6.2126352842
 20
13.1720296107
 10
6.2048594491
 20
13.1340139504
 10
6.1982442196
 20
13.0961468315
 10
6.1928228166
 20
13.0586222198
 10
6.1886063136
 20
13.0215047703
 10
6.1855836371
 20
12.984729828
 10
6.1837547871
 20
12.9482973927
  0
LINE
  5
25F
100
AcDbEntity
  8
RACCORDO
100
AcDbLine
 62
250
  6
CONTINUOUS
 10
8.7036405328
 20
15.9129489596
 11
6.4991221671
 21
14.7094375854
  0
LINE
  5
260
100
AcDbEntity
  8
ASSI
100
AcDbLine
 62
250
  6
CONTINUOUS
 10
8.7036405328
 20
15.9129489596
 11
6.4991221671
 21
14.7094375854
  0
LINE
  5
261
100
AcDbEntity
  8
RACCORDO
100
AcDbLine
 62
250
  6
CONTINUOUS
 10
9.0882673275
 20
15.3202067407
 11
6.8649424464
 21
14.106428337
  0
LINE
  5
262
100
AcDbEntity
  8
ASSI
100
AcDbLine
 62
250
  6
CONTINUOUS
 10
9.0882673275
 20
15.3202067407
 11
6.8649424464
 21
14.106428337
  0
LWPOLYLINE
  5
263
100
AcDbEntity
  8
RACCORDO
100
AcDbPolyline
 62
250
  6
CONTINUOUS
 90
28
 70
0
 10
6.1837547871
 20
12.9482973927
 10
6.1625166006
 20
12.9396417531
 10
6.1401993817
 20
12.9316098273
 10
6.1168769779
 20
12.9242281929
 10
6.0926265627
 20
12.9175212756
 10
6.0675283808
 20
12.9115112686
 10
6.0416654816
 20
12.906218059
 10
6.0151234453
 20
12.9016591619
 10
5.9879900994
 20
12.8978496626
 10
5.9603552278
 20
12.8948021669
 10
5.9323102741
 20
12.8925267588
 10
5.9039480388
 20
12.8910309676
 10
5.8753623723
 20
12.8903197429
 10
5.8466478643
 20
12.8903954382
 10
5.817899531
 20
12.8912578029
 10
5.7892125003
 20
12.8929039835
 10
5.7606816974
 20
12.8953285328
 10
5.7324015304
 20
12.898523428
 10
5.7044655782
 20
12.9024780972
 10
5.6769662806
 20
12.9071794545
 10
5.6499946326
 20
12.912611943
 10
5.6236398832
 20
12.9187575867
 10
5.5979892399
 20
12.9255960498
 10
5.5731275806
 20
12.9331047038
 10
5.5491371723
 20
12.9412587027
 10
5.526097399
 20
12.9500310649
 10
5.5040844992
 20
12.9593927627
 10
5.4831713134
 20
12.9693128185
  0
LWPOLYLINE
  5
264
100
AcDbEntity
  8
ASSI
100
AcDbPolyline
 62
250
  6
CONTINUOUS
 90
28
 70
0
 10
6.1837547871
 20
12.9482973927
 10
6.1625166006
 20
12.9396417531
 10
6.1401993817
 20
12.9316098273
 10
6.1168769779
 20
12.9242281929
 10
6.0926265627
 20
12.9175212756
 10
6.0675283808
 20
12.9115112686
 10
6.0416654816
 20
12.906218059
 10
6.0151234453
 20
12.9016591619
 10
5.9879900994
 20
12.8978496626
 10
5.9603552278
 20
12.8948021669
 10
5.9323102741
 20
12.8925267588
 10
5.9039480388
 20
12.8910309676
 10
5.8753623723
 20
12.8903197429
 10
5.8466478643
 20
12.8903954382
 10
5.817899531
 20
12.8912578029
 10
5.7892125003
 20
12.8929039835
 10
5.7606816974
 20
12.8953285328
 10
5.7324015304
 20
12.898523428
 10
5.7044655782
 20
12.9024780972
 10
5.6769662806
 20
12.9071794545
 10
5.6499946326
 20
12.912611943
 10
5.6236398832
 20
12.9187575867
 10
5.5979892399
 20
12.9255960498
 10
5.5731275806
 20
12.9331047038
 10
5.5491371723
 20
12.9412587027
 10
5.526097399
 20
12.9500310649
 10
5.5040844992
 20
12.9593927627
 10
5.4831713134
 20
12.9693128185
  0
LWPOLYLINE
  5
265
100
AcDbEntity
  8
RACCORDO
100
AcDbPolyline
 62
250
  6
CONTINUOUS
 90
15
 70
0
 10
-9.8994975682
 20
2.9438021828
 10
-9.8972635011
 20
2.9309862077
 10
-9.893697524
 20
2.9182402687
 10
-9.88880929
 20
2.9055988072
 10
-9.8826119028
 20
2.8930957643
 10
-9.8751217987
 20
2.8807640416
 10
-9.8663586327
 20
2.8686363465
 10
-9.8563460925
 20
2.8567458388
 10
-9.8451120018
 20
2.845125207
 10
-9.832687698
 20
2.8338064208
 10
-9.8191059374
 20
2.8228189951
 10
-9.8044013037
 20
2.8121907632
 10
-9.7886122615
 20
2.8019498165
 10
-9.7717815642
 20
2.7921242701
 10
-9.753954137
 20
2.7827405694
  0
LWPOLYLINE
  5
266
100
AcDbEntity
  8
ASSI
100
AcDbPolyline
 62
250
  6
CONTINUOUS
 90
15
 70
0
 10
-9.8994975682
 20
2.9438021828
 10
-9.8972635011
 20
2.9309862077
 10
-9.893697524
 20
2.9182402687
 10
-9.88880929
 20
2.9055988072
 10
-9.8826119028
 20
2.8930957643
 10
-9.8751217987
 20
2.8807640416
 10
-9.8663586327
 20
2.8686363465
 10
-9.8563460925
 20
2.8567458388
 10
-9.8451120018
 20
2.845125207
 10
-9.832687698
 20
2.8338064208
 10
-9.8191059374
 20
2.8228189951
 10
-9.8044013037
 20
2.8121907632
 10
-9.7886122615
 20
2.8019498165
 10
-9.7717815642
 20
2.7921242701
 10
-9.753954137
 20
2.7827405694
  0
LINE
  5
267
100
AcDbEntity
  8
ASSI
100
AcDbLine
 62
250
  6
CONTINUOUS
 10
-9.6556656946
 20
2.6107857208
 11
-9.6470775477
 21
2.617361363
  0
LWPOLYLINE
  5
268
100
AcDbEntity
  8
ASSI
100
AcDbPolyline
 62
7
  6
CONTINUOUS
 90
7
 70
0
 10
-9.7448539744
 20
2.6192927067
 10
-9.7849975938
 20
2.5897680807
 10
-9.8199226835
 20
2.5564661483
 10
-9.8491977441
 20
2.5195864451
 10
-9.8720492349
 20
2.4800775217
 10
-9.8881612085
 20
2.4389192856
 10
-9.8975878413
 20
2.3967216887
  0
LWPOLYLINE
  5
269
100
AcDbEntity
  8
ASSI
100
AcDbPolyline
 62
250
  6
CONTINUOUS
 90
4
 70
0
 10
-9.6470775477
 20
2.617361363
 10
-9.6378563355
 20
2.6236878818
 10
-9.627980379
 20
2.6297836179
 10
-9.6174496783
 20
2.6356485712
  0
LINE
  5
26A
100
AcDbEntity
  8
ASSI
100
AcDbLine
 62
7
  6
CONTINUOUS
 10
-9.7097550882
 20
2.6398443076
 11
-9.7448539744
 21
2.6192927067
  0
LWPOLYLINE
  5
26B
100
AcDbEntity
  8
RACCORDO
100
AcDbPolyline
 62
7
  6
CONTINUOUS
 90
16
 70
0
 10
-9.7097104759
 20
2.6398679307
 10
-9.7204586343
 20
2.6340090488
 10
-9.74165282
 20
2.6213454913
 10
-9.7614090365
 20
2.6080190091
 10
-9.7797323526
 20
2.594091901
 10
-9.796680039
 20
2.5795890058
 10
-9.8123243684
 20
2.5645025814
 10
-9.8266746104
 20
2.5488700202
 10
-9.8397326671
 20
2.5327399029
 10
-9.8515196912
 20
2.5161330492
 10
-9.862021225
 20
2.4991165709
 10
-9.8712414901
 20
2.4817413481
 10
-9.8792019765
 20
2.4640197663
 10
-9.8858904557
 20
2.4460291778
 10
-9.8913059925
 20
2.4278350036
 10
-9.8954652241
 20
2.4094407496
  0
LINE
  5
26C
100
AcDbEntity
  8
RACCORDO
100
AcDbLine
 62
7
  6
CONTINUOUS
 10
-9.7096869466
 20
2.6398808882
 11
-9.672336775
 21
2.6596258032
  0
LINE
  5
26D
100
AcDbEntity
  8
ASSI
100
AcDbLine
 62
7
  6
CONTINUOUS
 10
-9.7097553006
 20
2.6398447091
 11
-9.672336775
 21
2.6596258032
  0
LWPOLYLINE
  5
26E
100
AcDbEntity
  8
RACCORDO
100
AcDbPolyline
 62
250
  6
CONTINUOUS
 90
9
 70
0
 10
-9.7096869466
 20
2.6398808882
 10
-9.7068732306
 20
2.6412950703
 10
-9.6982719826
 20
2.644779616
 10
-9.6892119308
 20
2.6472481488
 10
-9.6797437327
 20
2.6486868663
 10
-9.6699203282
 20
2.6490877242
 10
-9.6597966431
 20
2.6484484812
 10
-9.6494292821
 20
2.6467727115
 10
-9.6436912725
 20
2.645303052
  0
LWPOLYLINE
  5
26F
100
AcDbEntity
  8
ASSI
100
AcDbPolyline
 62
250
  6
CONTINUOUS
 90
7
 70
0
 10
-9.7096869466
 20
2.6398808882
 10
-9.7068732306
 20
2.6412950703
 10
-9.6982719826
 20
2.644779616
 10
-9.6892119308
 20
2.6472481488
 10
-9.6797437327
 20
2.6486868663
 10
-9.6699203282
 20
2.6490877242
 10
-9.6597966431
 20
2.6484484812
  0
LINE
  5
270
100
AcDbEntity
  8
RACCORDO
100
AcDbLine
 62
7
  6
CONTINUOUS
 10
3.580672457
 20
18.4744329974
 11
3.3991419728
 21
18.1081241787
  0
LINE
  5
271
100
AcDbEntity
  8
ASSI
100
AcDbLine
 62
7
  6
CONTINUOUS
 10
3.580672457
 20
18.4744329974
 11
3.3991419728
 21
18.1081241787
  0
LWPOLYLINE
  5
272
100
AcDbEntity
  8
ASSI
100
AcDbPolyline
 62
250
  6
CONTINUOUS
 90
8
 70
0
 10
5.7297458928
 20
-4.7381588775
 10
5.7532617783
 20
-4.7328621359
 10
5.77618255
 20
-4.7269670307
 10
5.7984486941
 20
-4.720489377
 10
5.8200035536
 20
-4.7134451116
 10
5.840790137
 20
-4.7058526561
 10
5.8607515828
 20
-4.6977331259
 10
5.8798342115
 20
-4.6891084764
  0
LINE
  5
273
100
AcDbEntity
  8
DRAFT
100
AcDbLine
 62
7
  6
CONTINUOUS
 10
-4.3389234922
 20
22.4342309721
 11
-4.3216153838
 21
21.893253532
  0
LINE
  5
274
100
AcDbEntity
  8
ASSI
100
AcDbLine
 62
7
  6
CONTINUOUS
 10
-4.3389234922
 20
22.4342309721
 11
-4.3216153838
 21
21.893253532
  0
LWPOLYLINE
  5
275
100
AcDbEntity
  8
RACCORDO
100
AcDbPolyline
 62
250
  6
CONTINUOUS
 90
13
 70
0
 10
-3.4326102768
 20
-0.3779313696
 10
-3.4322261893
 20
-0.3906171901
 10
-3.4310614099
 20
-0.4028420539
 10
-3.4291223851
 20
-0.4145382911
 10
-3.4264198473
 20
-0.4256411583
 10
-3.422968755
 20
-0.4360891962
 10
-3.4187882104
 20
-0.4458245703
 10
-3.4139013535
 20
-0.4547933907
 10
-3.408335234
 20
-0.4629460105
 10
-3.402120662
 20
-0.4702373008
 10
-3.3952920367
 20
-0.4766269004
 10
-3.3878871565
 20
-0.4820794391
 10
-3.3806316746
 20
-0.486226747
  0
LWPOLYLINE
  5
276
100
AcDbEntity
  8
ASSI
100
AcDbPolyline
 62
250
  6
CONTINUOUS
 90
13
 70
0
 10
-3.4326102768
 20
-0.3779313696
 10
-3.4322261893
 20
-0.3906171901
 10
-3.4310614099
 20
-0.4028420539
 10
-3.4291223851
 20
-0.4145382911
 10
-3.4264198473
 20
-0.4256411583
 10
-3.422968755
 20
-0.4360891962
 10
-3.4187882104
 20
-0.4458245703
 10
-3.4139013535
 20
-0.4547933907
 10
-3.408335234
 20
-0.4629460105
 10
-3.402120662
 20
-0.4702373008
 10
-3.3952920367
 20
-0.4766269004
 10
-3.3878871565
 20
-0.4820794391
 10
-3.3806316746
 20
-0.486226747
  0
LINE
  5
277
100
AcDbEntity
  8
RACCORDO
100
AcDbLine
 62
250
  6
CONTINUOUS
 10
-4.5204539765
 20
22.0679221534
 11
-4.5204539765
 21
22.0131021727
  0
LINE
  5
278
100
AcDbEntity
  8
ASSI
100
AcDbLine
 62
250
  6
CONTINUOUS
 10
-4.5204539765
 20
22.0679221534
 11
-4.5204539765
 21
22.0131021727
  0
LWPOLYLINE
  5
279
100
AcDbEntity
  8
RACCORDO
100
AcDbPolyline
 62
250
  6
CONTINUOUS
 90
22
 70
0
 10
-3.4326102768
 20
-0.9809337535
 10
-3.4322261862
 20
-0.9678637947
 10
-3.4310613985
 20
-0.954474104
 10
-3.429122361
 20
-0.9408387989
 10
-3.4264198072
 20
-0.927033356
 10
-3.4229686968
 20
-0.9131341941
 10
-3.4187881331
 20
-0.8992182505
 10
-3.4139012571
 20
-0.8853625555
 10
-3.4083351197
 20
-0.8716438059
 10
-3.4021205316
 20
-0.8581379405
 10
-3.395291893
 20
-0.8449197195
 10
-3.3878870032
 20
-0.8320623111
 10
-3.3799468513
 20
-0.8196368862
 10
-3.371515389
 20
-0.8077122245
 10
-3.3626392879
 20
-0.7963543336
 10
-3.3533676808
 20
-0.7856260841
 10
-3.3437518897
 20
-0.7755868611
 10
-3.3338451418
 20
-0.7662922357
 10
-3.3237022749
 20
-0.7577936573
 10
-3.3133794339
 20
-0.7501381689
 10
-3.3029337597
 20
-0.7433681468
 10
-3.2924230733
 20
-0.7375210656
  0
LWPOLYLINE
  5
27A
100
AcDbEntity
  8
ASSI
100
AcDbPolyline
 62
250
  6
CONTINUOUS
 90
22
 70
0
 10
-3.4326102768
 20
-0.9809337535
 10
-3.4322261862
 20
-0.9678637947
 10
-3.4310613985
 20
-0.954474104
 10
-3.429122361
 20
-0.9408387989
 10
-3.4264198072
 20
-0.927033356
 10
-3.4229686968
 20
-0.9131341941
 10
-3.4187881331
 20
-0.8992182505
 10
-3.4139012571
 20
-0.8853625555
 10
-3.4083351197
 20
-0.8716438059
 10
-3.4021205316
 20
-0.8581379405
 10
-3.395291893
 20
-0.8449197195
 10
-3.3878870032
 20
-0.8320623111
 10
-3.3799468513
 20
-0.8196368862
 10
-3.371515389
 20
-0.8077122245
 10
-3.3626392879
 20
-0.7963543336
 10
-3.3533676808
 20
-0.7856260841
 10
-3.3437518897
 20
-0.7755868611
 10
-3.3338451418
 20
-0.7662922357
 10
-3.3237022749
 20
-0.7577936573
 10
-3.3133794339
 20
-0.7501381689
 10
-3.3029337597
 20
-0.7433681468
 10
-3.2924230733
 20
-0.7375210656
  0
LWPOLYLINE
  5
27B
100
AcDbEntity
  8
RACCORDO
100
AcDbPolyline
 62
250
  6
CONTINUOUS
 90
25
 70
0
 10
-3.3644217799
 20
-1.0785224491
 10
-3.3655522551
 20
-1.0734537069
 10
-3.3668711677
 20
-1.068395846
 10
-3.3683785204
 20
-1.0633488677
 10
-3.370079854
 20
-1.0582977359
 10
-3.3719696324
 20
-1.0532574891
 10
-3.374031244
 20
-1.0482732404
 10
-3.3762662389
 20
-1.0433456076
 10
-3.3786730732
 20
-1.038473976
 10
-3.3812304949
 20
-1.0337016107
 10
-3.3839398775
 20
-1.0290294551
 10
-3.3867998543
 20
-1.0244565692
 10
-3.3897850641
 20
-1.0200233927
 10
-3.3928964925
 20
-1.0157313437
 10
-3.3961331603
 20
-1.0115790074
 10
-3.3994667592
 20
-1.0076025745
 10
-3.4028982309
 20
-1.0038035154
 10
-3.4064266393
 20
-1.0001803624
 10
-3.4100208592
 20
-0.9967648989
 10
-3.4136814721
 20
-0.9935589591
 10
-3.4174079005
 20
-0.9905607108
 10
-3.4211672807
 20
-0.9877964372
 10
-3.4249486587
 20
-0.9852749
 10
-3.4287629905
 20
-0.9829873386
 10
-3.4326102768
 20
-0.9809337535
  0
LWPOLYLINE
  5
27C
100
AcDbEntity
  8
ASSI
100
AcDbPolyline
 62
250
  6
CONTINUOUS
 90
25
 70
0
 10
-3.3644217799
 20
-1.0785224491
 10
-3.3655522551
 20
-1.0734537069
 10
-3.3668711677
 20
-1.068395846
 10
-3.3683785204
 20
-1.0633488677
 10
-3.370079854
 20
-1.0582977359
 10
-3.3719696324
 20
-1.0532574891
 10
-3.374031244
 20
-1.0482732404
 10
-3.3762662389
 20
-1.0433456076
 10
-3.3786730732
 20
-1.038473976
 10
-3.3812304949
 20
-1.0337016107
 10
-3.3839398775
 20
-1.0290294551
 10
-3.3867998543
 20
-1.0244565692
 10
-3.3897850641
 20
-1.0200233927
 10
-3.3928964925
 20
-1.0157313437
 10
-3.3961331603
 20
-1.0115790074
 10
-3.3994667592
 20
-1.0076025745
 10
-3.4028982309
 20
-1.0038035154
 10
-3.4064266393
 20
-1.0001803624
 10
-3.4100208592
 20
-0.9967648989
 10
-3.4136814721
 20
-0.9935589591
 10
-3.4174079005
 20
-0.9905607108
 10
-3.4211672807
 20
-0.9877964372
 10
-3.4249486587
 20
-0.9852749
 10
-3.4287629905
 20
-0.9829873386
 10
-3.4326102768
 20
-0.9809337535
  0
LWPOLYLINE
  5
27D
100
AcDbEntity
  8
RACCORDO
100
AcDbPolyline
 62
250
  6
CONTINUOUS
 90
63
 70
0
 10
-3.3644217799
 20
-0.3484513187
 10
-3.3514235745
 20
-0.3016121475
 10
-3.3366198886
 20
-0.2563318086
 10
-3.3200109191
 20
-0.212610401
 10
-3.3015663931
 20
-0.1703364045
 10
-3.2813169454
 20
-0.1296215212
 10
-3.2593542392
 20
-0.0908007355
 10
-3.235656363
 20
-0.0538962537
 10
-3.2102458099
 20
-0.0188861604
 10
-3.1832810435
 20
0.0139606459
 10
-3.1547470915
 20
0.044614895
 10
-3.1246596454
 20
0.0731054983
 10
-3.0932233118
 20
0.0992507561
 10
-3.0604490686
 20
0.1230172776
 10
-3.0263267179
 20
0.144438065
 10
-2.991029184
 20
0.1634309673
 10
-2.9545622916
 20
0.1799861238
 10
-2.9169209594
 20
0.1941130252
 10
-2.8782617849
 20
0.2057585322
 10
-2.838570047
 20
0.2149185199
 10
-2.7978611334
 20
0.2215967818
 10
-2.7563368181
 20
0.2257520494
 10
-2.7139849558
 20
0.2273700245
 10
-2.6708182611
 20
0.2264647225
 10
-2.6270757953
 20
0.2230373481
 10
-2.5827590962
 20
0.2170726197
 10
-2.5378670628
 20
0.2085856019
 10
-2.4926347742
 20
0.1976230301
 10
-2.447063787
 20
0.1841729394
 10
-2.4011528175
 20
0.1682471592
 10
-2.3551326459
 20
0.1499281354
 10
-2.3090034539
 20
0.1292049303
 10
-2.2627651526
 20
0.1060884355
 10
-2.2166480718
 20
0.0806938625
 10
-2.1706521966
 20
0.0530102974
 10
-2.1247774492
 20
0.0230487001
 10
-2.0792540202
 20
-0.009042885
 10
-2.034080519
 20
-0.0432775329
 10
-1.9892580634
 20
-0.0796420333
 10
-1.9450205684
 20
-0.1179488942
 10
-1.9013664093
 20
-0.1582145719
 10
-1.8582967741
 20
-0.2004223934
 10
-1.8160497734
 20
-0.2443351615
 10
-1.7746372976
 20
-0.2899549177
 10
-1.7340468871
 20
-0.3372793376
 10
-1.6944801254
 20
-0.3860646743
 10
-1.6559520234
 20
-0.4362995244
 10
-1.6184469039
 20
-0.4879949598
 10
-1.5821203315
 20
-0.5409409533
 10
-1.5469671761
 20
-0.5951512802
 10
-1.5129918252
 20
-0.6506117954
 10
-1.4803641514
 20
-0.7070706062
 10
-1.4490731363
 20
-0.7645708738
 10
-1.4191290183
 20
-0.8230690482
 10
-1.3907336372
 20
-0.8821832105
 10
-1.3639013427
 20
-0.9419279859
 10
-1.3386170641
 20
-1.0022883893
 10
-1.3150386554
 20
-1.0628381588
 10
-1.293187852
 20
-1.1235778523
 10
-1.2730423343
 20
-1.1845066195
 10
-1.2546940679
 20
-1.2451961829
 10
-1.2381736272
 20
-1.3055037426
 10
-1.2234500742
 20
-1.3655719158
  0
LWPOLYLINE
  5
27E
100
AcDbEntity
  8
ASSI
100
AcDbPolyline
 62
250
  6
CONTINUOUS
 90
30
 70
0
 10
-3.3644217799
 20
-0.3484513187
 10
-3.3514235745
 20
-0.3016121475
 10
-3.3366198886
 20
-0.2563318086
 10
-3.3200109191
 20
-0.212610401
 10
-3.3015663931
 20
-0.1703364045
 10
-3.2813169454
 20
-0.1296215212
 10
-3.2593542392
 20
-0.0908007355
 10
-3.235656363
 20
-0.0538962537
 10
-3.2102458099
 20
-0.0188861604
 10
-3.1832810435
 20
0.0139606459
 10
-3.1547470915
 20
0.044614895
 10
-3.1246596454
 20
0.0731054983
 10
-3.0932233118
 20
0.0992507561
 10
-3.0604490686
 20
0.1230172776
 10
-3.0263267179
 20
0.144438065
 10
-2.991029184
 20
0.1634309673
 10
-2.9545622916
 20
0.1799861238
 10
-2.9169209594
 20
0.1941130252
 10
-2.8782617849
 20
0.2057585322
 10
-2.838570047
 20
0.2149185199
 10
-2.7978611334
 20
0.2215967818
 10
-2.7563368181
 20
0.2257520494
 10
-2.7139849558
 20
0.2273700245
 10
-2.6708182611
 20
0.2264647225
 10
-2.6270757953
 20
0.2230373481
 10
-2.5827590962
 20
0.2170726197
 10
-2.5378670628
 20
0.2085856019
 10
-2.4926347742
 20
0.1976230301
 10
-2.447063787
 20
0.1841729394
 10
-2.4011528175
 20
0.1682471592
  0
LWPOLYLINE
  5
27F
100
AcDbEntity
  8
RACCORDO
100
AcDbPolyline
 62
250
  6
CONTINUOUS
 90
15
 70
0
 10
-3.0879386538
 20
-0.3928343915
 10
-3.0765854007
 20
-0.3520652125
 10
-3.0636458212
 20
-0.3124958153
 10
-3.0491223614
 20
-0.2742090646
 10
-3.0330099336
 20
-0.2372650589
 10
-3.015325843
 20
-0.2017690105
 10
-2.9961188217
 20
-0.1678612075
 10
-2.9754110071
 20
-0.1356102141
 10
-2.9532285872
 20
-0.1050840546
 10
-2.9296466768
 20
-0.0763998846
 10
-2.9047072152
 20
-0.0496123205
 10
-2.878448844
 20
-0.0247661994
 10
-2.850959009
 20
-0.0019401515
 10
-2.8223074995
 20
0.0188208708
 10
-2.7925303875
 20
0.0375031735
  0
LWPOLYLINE
  5
280
100
AcDbEntity
  8
ASSI
100
AcDbPolyline
 62
250
  6
CONTINUOUS
 90
17
 70
0
 10
-3.0879386538
 20
-0.3928343915
 10
-3.0765854007
 20
-0.3520652125
 10
-3.0636458212
 20
-0.3124958153
 10
-3.0491223614
 20
-0.2742090646
 10
-3.0330099336
 20
-0.2372650589
 10
-3.015325843
 20
-0.2017690105
 10
-2.9961188217
 20
-0.1678612075
 10
-2.9754110071
 20
-0.1356102141
 10
-2.9532285872
 20
-0.1050840546
 10
-2.9296466768
 20
-0.0763998846
 10
-2.9047072152
 20
-0.0496123205
 10
-2.878448844
 20
-0.0247661994
 10
-2.850959009
 20
-0.0019401515
 10
-2.8223074995
 20
0.0188208708
 10
-2.7925303875
 20
0.0375031735
 10
-2.7616716445
 20
0.0540870873
 10
-2.7584762304
 20
0.0556544885
  0
LWPOLYLINE
  5
281
100
AcDbEntity
  8
0
100
AcDbPolyline
 62
7
  6
CONTINUOUS
 90
13
 70
0
 10
-2.659602968
 20
-0.1855759601
 10
-2.6629397937
 20
-0.1973854349
 10
-2.6668536241
 20
-0.2086168917
 10
-2.6713444593
 20
-0.2192703306
 10
-2.6764358898
 20
-0.2293865777
 10
-2.6821043251
 20
-0.2389248069
 10
-2.688278993
 20
-0.2477625394
 10
-2.6949471464
 20
-0.2558713055
 10
-2.7021215324
 20
-0.2632795748
 10
-2.7097696209
 20
-0.2699502778
 10
-2.7179111914
 20
-0.2758932131
 10
-2.7265264643
 20
-0.2810985819
 10
-2.7314253534
 20
-0.2836191267
  0
LWPOLYLINE
  5
282
100
AcDbEntity
  8
ASSI
100
AcDbPolyline
 62
7
  6
CONTINUOUS
 90
13
 70
0
 10
-2.659602968
 20
-0.1855759601
 10
-2.6629397937
 20
-0.1973854349
 10
-2.6668536241
 20
-0.2086168917
 10
-2.6713444593
 20
-0.2192703306
 10
-2.6764358898
 20
-0.2293865777
 10
-2.6821043251
 20
-0.2389248069
 10
-2.688278993
 20
-0.2477625394
 10
-2.6949471464
 20
-0.2558713055
 10
-2.7021215324
 20
-0.2632795748
 10
-2.7097696209
 20
-0.2699502778
 10
-2.7179111914
 20
-0.2758932131
 10
-2.7265264643
 20
-0.2810985819
 10
-2.7314255084
 20
-0.2836192017
  0
LWPOLYLINE
  5
283
100
AcDbEntity
  8
0
100
AcDbPolyline
 62
7
  6
CONTINUOUS
 90
9
 70
0
 10
-2.5309614211
 20
0.09537202
 10
-2.547164782
 20
0.0730395305
 10
-2.5677209527
 20
0.0409884946
 10
-2.5868142167
 20
0.007215564
 10
-2.6044576411
 20
-0.0282783374
 10
-2.6205666828
 20
-0.0653216014
 10
-2.6351131606
 20
-0.1038570251
 10
-2.6481252557
 20
-0.1439418113
 10
-2.659602968
 20
-0.1855759601
  0
LWPOLYLINE
  5
284
100
AcDbEntity
  8
ASSI
100
AcDbPolyline
 62
7
  6
CONTINUOUS
 90
9
 70
0
 10
-2.5309614211
 20
0.09537202
 10
-2.547164782
 20
0.0730395305
 10
-2.5677209527
 20
0.0409884946
 10
-2.5868142167
 20
0.007215564
 10
-2.6044576411
 20
-0.0282783374
 10
-2.6205666828
 20
-0.0653216014
 10
-2.6351131606
 20
-0.1038570251
 10
-2.6481252557
 20
-0.1439418113
 10
-2.659602968
 20
-0.1855759601
  0
LWPOLYLINE
  5
285
100
AcDbEntity
  8
RACCORDO
100
AcDbPolyline
 62
250
  6
CONTINUOUS
 90
22
 70
0
 10
-3.3644217798
 20
-1.078522449
 10
-3.3539021904
 20
-1.0799604332
 10
-3.3426584484
 20
-1.08099848
 10
-3.3307527548
 20
-1.0816308466
 10
-3.3182509722
 20
-1.081854035
 10
-3.3052222612
 20
-1.0816668103
 10
-3.2917386971
 20
-1.0810702084
 10
-3.2778748717
 20
-1.0800675296
 10
-3.2637074803
 20
-1.0786643209
 10
-3.2493148975
 20
-1.0768683448
 10
-3.2347767437
 20
-1.0746895367
 10
-3.2201734446
 20
-1.07213995
 10
-3.2055857864
 20
-1.069233689
 10
-3.1910944687
 20
-1.0659868313
 10
-3.176779658
 20
-1.0624173387
 10
-3.1627205446
 20
-1.0585449578
 10
-3.148994904
 20
-1.0543911107
 10
-3.1356786672
 20
-1.0499787767
 10
-3.1228455003
 20
-1.0453323651
 10
-3.1105663967
 20
-1.04047758
 10
-3.0989092852
 20
-1.0354412783
 10
-3.0879386533
 20
-1.030251321
  0
LWPOLYLINE
  5
286
100
AcDbEntity
  8
ASSI
100
AcDbPolyline
 62
250
  6
CONTINUOUS
 90
22
 70
0
 10
-3.3644217798
 20
-1.078522449
 10
-3.3539021904
 20
-1.0799604332
 10
-3.3426584484
 20
-1.08099848
 10
-3.3307527548
 20
-1.0816308466
 10
-3.3182509722
 20
-1.081854035
 10
-3.3052222612
 20
-1.0816668103
 10
-3.2917386971
 20
-1.0810702084
 10
-3.2778748717
 20
-1.0800675296
 10
-3.2637074803
 20
-1.0786643209
 10
-3.2493148975
 20
-1.0768683448
 10
-3.2347767437
 20
-1.0746895367
 10
-3.2201734446
 20
-1.07213995
 10
-3.2055857864
 20
-1.069233689
 10
-3.1910944687
 20
-1.0659868313
 10
-3.176779658
 20
-1.0624173387
 10
-3.1627205446
 20
-1.0585449578
 10
-3.148994904
 20
-1.0543911107
 10
-3.1356786672
 20
-1.0499787767
 10
-3.1228455003
 20
-1.0453323651
 10
-3.1105663967
 20
-1.04047758
 10
-3.0989092852
 20
-1.0354412783
 10
-3.0879386533
 20
-1.030251321
  0
LWPOLYLINE
  5
287
100
AcDbEntity
  8
RACCORDO
100
AcDbPolyline
 62
250
  6
CONTINUOUS
 90
10
 70
0
 10
-1.2105232111
 20
-1.425400603
 10
-1.2202651319
 20
-1.4235737845
 10
-1.2291708094
 20
-1.4213667055
 10
-1.2371909768
 20
-1.4187915757
 10
-1.2442812663
 20
-1.4158626408
 10
-1.250402454
 20
-1.4125961038
 10
-1.2555206773
 20
-1.4090100353
 10
-1.2596076219
 20
-1.4051242737
 10
-1.2626406787
 20
-1.4009603152
 10
-1.2646030687
 20
-1.3965411948
  0
LWPOLYLINE
  5
288
100
AcDbEntity
  8
ASSI
100
AcDbPolyline
 62
250
  6
CONTINUOUS
 90
10
 70
0
 10
-1.2105232111
 20
-1.425400603
 10
-1.2202651319
 20
-1.4235737845
 10
-1.2291708094
 20
-1.4213667055
 10
-1.2371909768
 20
-1.4187915757
 10
-1.2442812663
 20
-1.4158626408
 10
-1.250402454
 20
-1.4125961038
 10
-1.2555206773
 20
-1.4090100353
 10
-1.2596076219
 20
-1.4051242737
 10
-1.2626406787
 20
-1.4009603152
 10
-1.2646030687
 20
-1.3965411948
  0
LWPOLYLINE
  5
289
100
AcDbEntity
  8
RACCORDO
100
AcDbPolyline
 62
7
  6
CONTINUOUS
 90
21
 70
0
 10
5.2416179521
 20
-4.7971940462
 10
5.265764038
 20
-4.8078404025
 10
5.2904215286
 20
-4.817334722
 10
5.3155116021
 20
-4.8257270944
 10
5.3410025892
 20
-4.8330749523
 10
5.366871798
 20
-4.8394225866
 10
5.3930589836
 20
-4.8447972281
 10
5.4195167093
 20
-4.8492204223
 10
5.4462010505
 20
-4.8527104404
 10
5.4730531803
 20
-4.8552782749
 10
5.5000239116
 20
-4.8569319711
 10
5.5270652625
 20
-4.8576772062
 10
5.5541222485
 20
-4.8575136972
 10
5.5811398909
 20
-4.8564408347
 10
5.6080697508
 20
-4.8544525852
 10
5.6348621323
 20
-4.8515400536
 10
5.6614582765
 20
-4.8476918654
 10
5.6878131393
 20
-4.8428893698
 10
5.7138793116
 20
-4.837111003
 10
5.7395960831
 20
-4.8303295065
 10
5.7649385503
 20
-4.8225020639
  0
LWPOLYLINE
  5
28A
100
AcDbEntity
  8
ASSI
100
AcDbPolyline
 62
7
  6
CONTINUOUS
 90
9
 70
0
 10
-3.3801913806
 20
-0.4864440061
 10
-3.3581786475
 20
-0.4962335334
 10
-3.3262952193
 20
-0.5065037705
 10
-3.2939037932
 20
-0.5125213671
 10
-3.2614087075
 20
-0.514258429
 10
-3.2292401242
 20
-0.5117233609
 10
-3.1980482582
 20
-0.5050194235
 10
-3.1683616359
 20
-0.4943655428
 10
-3.160126926
 20
-0.4905887556
  0
LWPOLYLINE
  5
28B
100
AcDbEntity
  8
RACCORDO
100
AcDbPolyline
 62
250
  6
CONTINUOUS
 90
14
 70
0
 10
-1.002227363
 20
-1.8826189208
 10
-1.0137689577
 20
-1.8772791259
 10
-1.0252727512
 20
-1.8727164258
 10
-1.036704891
 20
-1.8689441384
 10
-1.0480314377
 20
-1.865973296
 10
-1.0592193901
 20
-1.8638124729
 10
-1.0702367472
 20
-1.8624679467
 10
-1.081051639
 20
-1.8619437632
 10
-1.0916316442
 20
-1.8622416413
 10
-1.1019448558
 20
-1.8633607284
 10
-1.111960602
 20
-1.8652975513
 10
-1.1216498802
 20
-1.8680463418
 10
-1.1309846356
 20
-1.8715990999
 10
-1.1380027189
 20
-1.8749221327
  0
LWPOLYLINE
  5
28C
100
AcDbEntity
  8
ASSI
100
AcDbPolyline
 62
250
  6
CONTINUOUS
 90
14
 70
0
 10
-1.002227363
 20
-1.8826189208
 10
-1.0137689577
 20
-1.8772791259
 10
-1.0252727512
 20
-1.8727164258
 10
-1.036704891
 20
-1.8689441384
 10
-1.0480314377
 20
-1.865973296
 10
-1.0592193901
 20
-1.8638124729
 10
-1.0702367472
 20
-1.8624679467
 10
-1.081051639
 20
-1.8619437632
 10
-1.0916316442
 20
-1.8622416413
 10
-1.1019448558
 20
-1.8633607284
 10
-1.111960602
 20
-1.8652975513
 10
-1.1216498802
 20
-1.8680463418
 10
-1.1309846356
 20
-1.8715990999
 10
-1.137700533
 20
-1.8747666337
  0
LWPOLYLINE
  5
28D
100
AcDbEntity
  8
RACCORDO
100
AcDbPolyline
 62
250
  6
CONTINUOUS
 90
25
 70
0
 10
-1.1424145665
 20
-2.1260316086
 10
-1.1462617049
 20
-2.1242379814
 10
-1.1500756036
 20
-2.1227114275
 10
-1.1538562619
 20
-2.1214519466
 10
-1.1576146304
 20
-2.1204573458
 10
-1.1613397564
 20
-2.1197298169
 10
-1.1649987842
 20
-2.1192759364
 10
-1.1685911302
 20
-2.119098117
 10
-1.172117374
 20
-2.1191939439
 10
-1.1755464043
 20
-2.1195627519
 10
-1.1788772774
 20
-2.1202069489
 10
-1.1821109315
 20
-2.1211241242
 10
-1.1852190782
 20
-2.1223063856
 10
-1.1882007298
 20
-2.1237561314
 10
-1.1910568676
 20
-2.1254709601
 10
-1.1937621574
 20
-2.1274357794
 10
-1.196315224
 20
-2.1296529006
 10
-1.1987174359
 20
-2.1321200091
 10
-1.2009475758
 20
-2.1348150745
 10
-1.2030040917
 20
-2.1377402595
 10
-1.2048885294
 20
-2.1408933982
 10
-1.2065843192
 20
-2.1442459682
 10
-1.2080859368
 20
-2.1477884615
 10
-1.2093989017
 20
-2.1515303837
 10
-1.2105232112
 20
-2.1554717334
  0
LWPOLYLINE
  5
28E
100
AcDbEntity
  8
ASSI
100
AcDbPolyline
 62
250
  6
CONTINUOUS
 90
25
 70
0
 10
-1.1424145665
 20
-2.1260316086
 10
-1.1462617049
 20
-2.1242379814
 10
-1.1500756036
 20
-2.1227114275
 10
-1.1538562619
 20
-2.1214519466
 10
-1.1576146304
 20
-2.1204573458
 10
-1.1613397564
 20
-2.1197298169
 10
-1.1649987842
 20
-2.1192759364
 10
-1.1685911302
 20
-2.119098117
 10
-1.172117374
 20
-2.1191939439
 10
-1.1755464043
 20
-2.1195627519
 10
-1.1788772774
 20
-2.1202069489
 10
-1.1821109315
 20
-2.1211241242
 10
-1.1852190782
 20
-2.1223063856
 10
-1.1882007298
 20
-2.1237561314
 10
-1.1910568676
 20
-2.1254709601
 10
-1.1937621574
 20
-2.1274357794
 10
-1.196315224
 20
-2.1296529006
 10
-1.1987174359
 20
-2.1321200091
 10
-1.2009475758
 20
-2.1348150745
 10
-1.2030040917
 20
-2.1377402595
 10
-1.2048885294
 20
-2.1408933982
 10
-1.2065843192
 20
-2.1442459682
 10
-1.2080859368
 20
-2.1477884615
 10
-1.2093989017
 20
-2.1515303837
 10
-1.2105232112
 20
-2.1554717334
  0
LWPOLYLINE
  5
28F
100
AcDbEntity
  8
RACCORDO
100
AcDbPolyline
 62
250
  6
CONTINUOUS
 90
25
 70
0
 10
-3.4326102768
 20
-0.3779313696
 10
-3.4287629905
 20
-0.3797249228
 10
-3.4249486587
 20
-0.3812512601
 10
-3.4211672807
 20
-0.3825103812
 10
-3.4174079005
 20
-0.3835044761
 10
-3.4136814721
 20
-0.3842313538
 10
-3.4100208592
 20
-0.3846844418
 10
-3.4064266393
 20
-0.3848613243
 10
-3.4028982309
 20
-0.3847644151
 10
-3.3994667592
 20
-0.3843943864
 10
-3.3961331603
 20
-0.3837488265
 10
-3.3928964925
 20
-0.3828301443
 10
-3.3897850641
 20
-0.3816462421
 10
-3.3867998543
 20
-0.3801947172
 10
-3.3839398775
 20
-0.378477969
 10
-3.3812304949
 20
-0.3765111033
 10
-3.3786730732
 20
-0.3742918045
 10
-3.3762662389
 20
-0.3718223848
 10
-3.374031244
 20
-0.3691248919
 10
-3.3719696325
 20
-0.3661971592
 10
-3.370079854
 20
-0.36304135
 10
-3.3683785204
 20
-0.3596860081
 10
-3.3668711677
 20
-0.3561406473
 10
-3.3655522551
 20
-0.3523957513
 10
-3.3644217799
 20
-0.3484513187
  0
LWPOLYLINE
  5
290
100
AcDbEntity
  8
ASSI
100
AcDbPolyline
 62
250
  6
CONTINUOUS
 90
25
 70
0
 10
-3.4326102768
 20
-0.3779313696
 10
-3.4287629905
 20
-0.3797249228
 10
-3.4249486587
 20
-0.3812512601
 10
-3.4211672807
 20
-0.3825103812
 10
-3.4174079005
 20
-0.3835044761
 10
-3.4136814721
 20
-0.3842313538
 10
-3.4100208592
 20
-0.3846844418
 10
-3.4064266393
 20
-0.3848613243
 10
-3.4028982309
 20
-0.3847644151
 10
-3.3994667592
 20
-0.3843943864
 10
-3.3961331603
 20
-0.3837488265
 10
-3.3928964925
 20
-0.3828301443
 10
-3.3897850641
 20
-0.3816462421
 10
-3.3867998543
 20
-0.3801947172
 10
-3.3839398775
 20
-0.378477969
 10
-3.3812304949
 20
-0.3765111033
 10
-3.3786730732
 20
-0.3742918045
 10
-3.3762662389
 20
-0.3718223848
 10
-3.374031244
 20
-0.3691248919
 10
-3.3719696325
 20
-0.3661971592
 10
-3.370079854
 20
-0.36304135
 10
-3.3683785204
 20
-0.3596860081
 10
-3.3668711677
 20
-0.3561406473
 10
-3.3655522551
 20
-0.3523957513
 10
-3.3644217799
 20
-0.3484513187
  0
LWPOLYLINE
  5
291
100
AcDbEntity
  8
RACCORDO
100
AcDbPolyline
 62
7
  6
CONTINUOUS
 90
17
 70
0
 10
-3.3805763423
 20
-0.4862532987
 10
-3.3677214544
 20
-0.4922731502
 10
-3.3530261188
 20
-0.4981988463
 10
-3.3382127952
 20
-0.5031849089
 10
-3.3233160392
 20
-0.5072391141
 10
-3.308358037
 20
-0.5103708874
 10
-3.2934002406
 20
-0.5125809802
 10
-3.2784889992
 20
-0.5138784745
 10
-3.2636361232
 20
-0.514276062
 10
-3.2489031428
 20
-0.5137832875
 10
-3.234341642
 20
-0.5124142752
 10
-3.2199551327
 20
-0.5101790018
 10
-3.2057991376
 20
-0.507094269
 10
-3.1919278269
 20
-0.5031816544
 10
-3.1783468174
 20
-0.498449327
 10
-3.1650944772
 20
-0.4929125302
 10
-3.1599190828
 20
-0.490488507
  0
LWPOLYLINE
  5
292
100
AcDbEntity
  8
ASSI
100
AcDbPolyline
 62
7
  6
CONTINUOUS
 90
11
 70
0
 10
5.2304272772
 20
-4.7917535128
 10
5.2508145298
 20
-4.8014146881
 10
5.3060483763
 20
-4.8227017491
 10
5.363858215
 20
-4.8387376792
 10
5.4238862939
 20
-4.8498571134
 10
5.4855160823
 20
-4.8561561857
 10
5.5474505826
 20
-4.8576384392
 10
5.608985956
 20
-4.8543684598
 10
5.6694698304
 20
-4.8463382759
 10
5.727758258
 20
-4.8335901809
 10
5.7833781189
 20
-4.8160228265
  0
LWPOLYLINE
  5
293
100
AcDbEntity
  8
RACCORDO
100
AcDbPolyline
 62
250
  6
CONTINUOUS
 90
31
 70
0
 10
5.1789292974
 20
-4.6837011478
 10
5.1977034417
 20
-4.6926182328
 10
5.2173739244
 20
-4.7010432765
 10
5.2378878463
 20
-4.708953812
 10
5.259189093
 20
-4.7163285203
 10
5.2812213353
 20
-4.7231480962
 10
5.3039284989
 20
-4.7293950437
 10
5.3272516193
 20
-4.7350530174
 10
5.3511266363
 20
-4.7401062884
 10
5.3754874807
 20
-4.7445405985
 10
5.4002678703
 20
-4.7483441227
 10
5.4254022719
 20
-4.7515069742
 10
5.4508239487
 20
-4.7540204682
 10
5.4764650441
 20
-4.7558780654
 10
5.5022565467
 20
-4.7570748753
 10
5.5281291261
 20
-4.7576073017
 10
5.5540134268
 20
-4.7574741443
 10
5.5798400549
 20
-4.7566759333
 10
5.6055395746
 20
-4.7552143865
 10
5.6310428084
 20
-4.7530937165
 10
5.6562816868
 20
-4.7503198192
 10
5.6811892052
 20
-4.7468995614
 10
5.7056995086
 20
-4.742842182
 10
5.7297458928
 20
-4.7381588775
 10
5.7532617783
 20
-4.7328621359
 10
5.77618255
 20
-4.7269670307
 10
5.7984486941
 20
-4.720489377
 10
5.8200035536
 20
-4.7134451116
 10
5.840790137
 20
-4.7058526561
 10
5.8607515828
 20
-4.6977331259
 10
5.8798342115
 20
-4.6891084764
  0
LWPOLYLINE
  5
294
100
AcDbEntity
  8
ASSI
100
AcDbPolyline
 62
250
  6
CONTINUOUS
 90
24
 70
0
 10
5.1789292974
 20
-4.6837011478
 10
5.1977034417
 20
-4.6926182328
 10
5.2173739244
 20
-4.7010432765
 10
5.2378878463
 20
-4.708953812
 10
5.259189093
 20
-4.7163285203
 10
5.2812213353
 20
-4.7231480962
 10
5.3039284989
 20
-4.7293950437
 10
5.3272516193
 20
-4.7350530174
 10
5.3511266363
 20
-4.7401062884
 10
5.3754874807
 20
-4.7445405985
 10
5.4002678703
 20
-4.7483441227
 10
5.4254022719
 20
-4.7515069742
 10
5.4508239487
 20
-4.7540204682
 10
5.4764650441
 20
-4.7558780654
 10
5.5022565467
 20
-4.7570748753
 10
5.5281291261
 20
-4.7576073017
 10
5.5540134268
 20
-4.7574741443
 10
5.5798400549
 20
-4.7566759333
 10
5.6055395746
 20
-4.7552143865
 10
5.6310428084
 20
-4.7530937165
 10
5.6562816868
 20
-4.7503198192
 10
5.6811892052
 20
-4.7468995614
 10
5.7056995086
 20
-4.742842182
 10
5.7297458928
 20
-4.7381588775
  0
LINE
  5
295
100
AcDbEntity
  8
RACCORDO
100
AcDbLine
 62
7
  6
CONTINUOUS
 10
5.2308616396
 20
-4.7919729328
 11
5.2416179521
 21
-4.7971940462
  0
LINE
  5
296
100
AcDbEntity
  8
RACCORDO
100
AcDbLine
 62
250
  6
CONTINUOUS
 10
5.1789292956
 20
-5.2867035404
 11
-1.1424145665
 21
-2.1260316086
  0
LINE
  5
297
100
AcDbEntity
  8
ASSI
100
AcDbLine
 62
250
  6
CONTINUOUS
 10
5.1789292956
 20
-5.2867035404
 11
-1.1424145665
 21
-2.1260316086
  0
LINE
  5
298
100
AcDbEntity
  8
RACCORDO
100
AcDbLine
 62
250
  6
CONTINUOUS
 10
-3.4326102768
 20
-0.9809337535
 11
-9.7539541388
 21
2.1797381768
  0
LINE
  5
299
100
AcDbEntity
  8
ASSI
100
AcDbLine
 62
250
  6
CONTINUOUS
 10
-3.4326102768
 20
-0.9809337535
 11
-9.7539541388
 21
2.1797381768
  0
LINE
  5
29A
100
AcDbEntity
  8
RACCORDO
100
AcDbLine
 62
250
  6
CONTINUOUS
 10
5.3191281479
 20
-5.0432966753
 11
-1.002227363
 21
-1.8826189208
  0
LINE
  5
29B
100
AcDbEntity
  8
ASSI
100
AcDbLine
 62
250
  6
CONTINUOUS
 10
5.3191281479
 20
-5.0432966753
 11
-1.002227363
 21
-1.8826189208
  0
LINE
  5
29C
100
AcDbEntity
  8
RACCORDO
100
AcDbLine
 62
250
  6
CONTINUOUS
 10
-3.2924230733
 20
-0.7375210656
 11
-9.6137785825
 21
2.4231566899
  0
LINE
  5
29D
100
AcDbEntity
  8
ASSI
100
AcDbLine
 62
250
  6
CONTINUOUS
 10
-3.2924230733
 20
-0.7375210656
 11
-9.6137785825
 21
2.4231566899
  0
LINE
  5
29E
100
AcDbEntity
  8
RACCORDO
100
AcDbLine
 62
7
  6
CONTINUOUS
 10
-9.701987184
 20
2.6744510077
 11
-3.3806316746
 21
-0.486226747
  0
LINE
  5
29F
100
AcDbEntity
  8
ASSI
100
AcDbLine
 62
7
  6
CONTINUOUS
 10
-9.701987184
 20
2.6744510077
 11
-3.3806316746
 21
-0.486226747
  0
LINE
  5
2A0
100
AcDbEntity
  8
RACCORDO
100
AcDbLine
 62
7
  6
CONTINUOUS
 10
-1.0904359636
 20
-1.6313246024
 11
5.2309195472
 21
-4.7920023579
  0
LINE
  5
2A1
100
AcDbEntity
  8
ASSI
100
AcDbLine
 62
7
  6
CONTINUOUS
 10
-1.0904359636
 20
-1.6313246024
 11
5.2309195472
 21
-4.7920023579
  0
LINE
  5
2A2
100
AcDbEntity
  8
RACCORDO
100
AcDbLine
 62
250
  6
CONTINUOUS
 10
-9.7539541389
 20
2.7827405623
 11
-3.4326102768
 21
-0.3779313696
  0
LINE
  5
2A3
100
AcDbEntity
  8
ASSI
100
AcDbLine
 62
250
  6
CONTINUOUS
 10
-9.7539541389
 20
2.7827405623
 11
-3.4326102768
 21
-0.3779313696
  0
LINE
  5
2A4
100
AcDbEntity
  8
RACCORDO
100
AcDbLine
 62
250
  6
CONTINUOUS
 10
-1.1424145665
 20
-1.5230292247
 11
5.1789292955
 21
-4.683701155
  0
LINE
  5
2A5
100
AcDbEntity
  8
ASSI
100
AcDbLine
 62
250
  6
CONTINUOUS
 10
-1.1424145665
 20
-1.5230292247
 11
5.1789292955
 21
-4.683701155
  0
LINE
  5
2A6
100
AcDbEntity
  8
0
100
AcDbLine
 62
7
  6
CONTINUOUS
 10
-2.8641821453
 20
-0.5216821239
 11
-3.0411991976
 21
-0.4331735978
  0
LINE
  5
2A7
100
AcDbEntity
  8
ASSI
100
AcDbLine
 62
7
  6
CONTINUOUS
 10
-2.8641821453
 20
-0.5216821239
 11
-3.0438892723
 21
-0.4318285605
  0
LWPOLYLINE
  5
2A8
100
AcDbEntity
  8
RACCORDO
100
AcDbPolyline
 62
250
  6
CONTINUOUS
 90
17
 70
0
 10
-9.7539541369
 20
2.1797381716
 10
-9.7717815636
 20
2.1891286154
 10
-9.7886122606
 20
2.1989735519
 10
-9.8044013027
 20
2.2092465272
 10
-9.8191059365
 20
2.2199195421
 10
-9.8326876972
 20
2.2309643587
 10
-9.8451120012
 20
2.242352736
 10
-9.8563460919
 20
2.2540552245
 10
-9.8663586323
 20
2.2660397339
 10
-9.8751217983
 20
2.2782728832
 10
-9.8826119025
 20
2.2907215501
 10
-9.8888092897
 20
2.3033529088
 10
-9.8936975238
 20
2.3161331242
 10
-9.8972635009
 20
2.3290282805
 10
-9.8994975681
 20
2.3420038081
 10
-9.9003937017
 20
2.3550244574
 10
-9.9004127156
 20
2.3571139973
  0
LWPOLYLINE
  5
2A9
100
AcDbEntity
  8
ASSI
100
AcDbPolyline
 62
250
  6
CONTINUOUS
 90
17
 70
0
 10
-9.7539541369
 20
2.1797381716
 10
-9.7717815636
 20
2.1891286154
 10
-9.7886122606
 20
2.1989735519
 10
-9.8044013027
 20
2.2092465272
 10
-9.8191059365
 20
2.2199195421
 10
-9.8326876972
 20
2.2309643587
 10
-9.8451120012
 20
2.242352736
 10
-9.8563460919
 20
2.2540552245
 10
-9.8663586323
 20
2.2660397339
 10
-9.8751217983
 20
2.2782728832
 10
-9.8826119025
 20
2.2907215501
 10
-9.8888092897
 20
2.3033529088
 10
-9.8936975238
 20
2.3161331242
 10
-9.8972635009
 20
2.3290282805
 10
-9.8994975681
 20
2.3420038081
 10
-9.9003937017
 20
2.3550244574
 10
-9.9004125407
 20
2.3569853704
  0
LWPOLYLINE
  5
2AA
100
AcDbEntity
  8
RACCORDO
100
AcDbPolyline
 62
250
  6
CONTINUOUS
 90
23
 70
0
 10
-9.6137785825
 20
2.4231566899
 10
-9.6245084388
 20
2.4288143549
 10
-9.6345917197
 20
2.4347154784
 10
-9.6440284252
 20
2.4408600601
 10
-9.6528408512
 20
2.4472660022
 10
-9.6610067018
 20
2.4539154026
 10
-9.6684590896
 20
2.4607545555
 10
-9.6751920211
 20
2.4677849828
 10
-9.6812114899
 20
2.4750051626
 10
-9.686468589
 20
2.4823568237
 10
-9.6909569471
 20
2.4898408122
 10
-9.6946829357
 20
2.4974562819
 10
-9.6976167624
 20
2.5051424233
 10
-9.6997521123
 20
2.5128999239
 10
-9.7010953004
 20
2.520728096
 10
-9.7016354787
 20
2.5285640668
 10
-9.7013661349
 20
2.5364078751
 10
-9.7002937814
 20
2.544259482
 10
-9.6984271077
 20
2.5520558977
 10
-9.6957597882
 20
2.5597965807
 10
-9.6922981484
 20
2.5674820726
 10
-9.688069855
 20
2.575051008
 10
-9.6830685058
 20
2.5825026667
  0
LWPOLYLINE
  5
2AB
100
AcDbEntity
  8
ASSI
100
AcDbPolyline
 62
250
  6
CONTINUOUS
 90
18
 70
0
 10
-9.6137785825
 20
2.4231566899
 10
-9.6245084388
 20
2.4288143549
 10
-9.6345917197
 20
2.4347154784
 10
-9.6440284252
 20
2.4408600601
 10
-9.6528408512
 20
2.4472660022
 10
-9.6610067018
 20
2.4539154026
 10
-9.6684590896
 20
2.4607545555
 10
-9.6751920211
 20
2.4677849828
 10
-9.6812114899
 20
2.4750051626
 10
-9.686468589
 20
2.4823568237
 10
-9.6909569471
 20
2.4898408122
 10
-9.6946829357
 20
2.4974562819
 10
-9.6976167624
 20
2.5051424233
 10
-9.6997521123
 20
2.5128999239
 10
-9.7010953004
 20
2.520728096
 10
-9.7016354787
 20
2.5285640668
 10
-9.7013661349
 20
2.5364078751
 10
-9.7002937814
 20
2.544259482
  0
LWPOLYLINE
  5
2AC
100
AcDbEntity
  8
0
100
AcDbPolyline
 62
7
  6
CONTINUOUS
 90
24
 70
0
 10
-2.8641821453
 20
-0.5216821239
 10
-2.8526866226
 20
-0.5278083387
 10
-2.8412655724
 20
-0.5346559794
 10
-2.8299189945
 20
-0.542225046
 10
-2.8185983491
 20
-0.550554084
 10
-2.8073521761
 20
-0.5596045479
 10
-2.7963260957
 20
-0.5692608014
 10
-2.7855523233
 20
-0.5795004531
 10
-2.7749986435
 20
-0.5903458945
 10
-2.764714031
 20
-0.6017486629
 10
-2.7546772215
 20
-0.6137376473
 10
-2.7449094794
 20
-0.6262839588
 10
-2.7355235715
 20
-0.6392524686
 10
-2.7265264643
 20
-0.652650912
 10
-2.7179111914
 20
-0.6664715538
 10
-2.7097696209
 20
-0.6805560595
 10
-2.7021215324
 20
-0.694874851
 10
-2.6949471464
 20
-0.7094575064
 10
-2.688278993
 20
-0.7242344258
 10
-2.6821043251
 20
-0.7392468262
 10
-2.6764358898
 20
-0.7544534907
 10
-2.6713444593
 20
-0.7696611683
 10
-2.6668536241
 20
-0.7848054424
 10
-2.6629397937
 20
-0.7999507296
  0
LWPOLYLINE
  5
2AD
100
AcDbEntity
  8
ASSI
100
AcDbPolyline
 62
7
  6
CONTINUOUS
 90
24
 70
0
 10
-2.8641821453
 20
-0.5216821239
 10
-2.8526866226
 20
-0.5278083387
 10
-2.8412655724
 20
-0.5346559794
 10
-2.8299189945
 20
-0.542225046
 10
-2.8185983491
 20
-0.550554084
 10
-2.8073521761
 20
-0.5596045479
 10
-2.7963260957
 20
-0.5692608014
 10
-2.7855523233
 20
-0.5795004531
 10
-2.7749986435
 20
-0.5903458945
 10
-2.764714031
 20
-0.6017486629
 10
-2.7546772215
 20
-0.6137376473
 10
-2.7449094794
 20
-0.6262839588
 10
-2.7355235715
 20
-0.6392524686
 10
-2.7265264643
 20
-0.652650912
 10
-2.7179111914
 20
-0.6664715538
 10
-2.7097696209
 20
-0.6805560595
 10
-2.7021215324
 20
-0.694874851
 10
-2.6949471464
 20
-0.7094575064
 10
-2.688278993
 20
-0.7242344258
 10
-2.6821043251
 20
-0.7392468262
 10
-2.6764358898
 20
-0.7544534907
 10
-2.6713444593
 20
-0.7696611683
 10
-2.6668536241
 20
-0.7848054424
 10
-2.6629397937
 20
-0.7999507296
  0
LINE
  5
2AE
100
AcDbEntity
  8
RACCORDO
100
AcDbLine
 62
7
  6
CONTINUOUS
 10
-1.1065228069
 20
-1.6226204852
 11
-1.0904763127
 21
-1.6313033272
  0
LWPOLYLINE
  5
2AF
100
AcDbEntity
  8
ASSI
100
AcDbPolyline
 62
7
  6
CONTINUOUS
 90
3
 70
0
 10
-1.1260563733
 20
-1.6101689055
 10
-1.095337519
 20
-1.6288124146
 10
-1.0904881108
 20
-1.631297418
  0
LWPOLYLINE
  5
2B0
100
AcDbEntity
  8
RACCORDO
100
AcDbPolyline
 62
250
  6
CONTINUOUS
 90
22
 70
0
 10
-3.3644217204
 20
-0.348451289
 10
-3.35390212
 20
-0.3567552948
 10
-3.3426583599
 20
-0.3646229949
 10
-3.3307526416
 20
-0.3720108645
 10
-3.3182508282
 20
-0.3788780335
 10
-3.3052220809
 20
-0.385186512
 10
-3.2917384755
 20
-0.3909014012
 10
-3.2778746046
 20
-0.3959910857
 10
-3.263707164
 20
-0.4004274092
 10
-3.2493145291
 20
-0.4041858294
 10
-3.2347763211
 20
-0.4072455547
 10
-3.2201729665
 20
-0.4095896582
 10
-3.205585252
 20
-0.4112051722
 10
-3.1910938782
 20
-0.4120831597
 10
-3.1767790123
 20
-0.4122187635
 10
-3.1627198452
 20
-0.4116112334
 10
-3.1489941535
 20
-0.4102639304
 10
-3.1356778686
 20
-0.4081843078
 10
-3.1228446572
 20
-0.4053838702
 10
-3.1105655137
 20
-0.40187811
 10
-3.0989083671
 20
-0.3976864211
 10
-3.0879377059
 20
-0.3928319925
  0
LWPOLYLINE
  5
2B1
100
AcDbEntity
  8
ASSI
100
AcDbPolyline
 62
250
  6
CONTINUOUS
 90
22
 70
0
 10
-3.3644217204
 20
-0.348451289
 10
-3.35390212
 20
-0.3567552948
 10
-3.3426583599
 20
-0.3646229949
 10
-3.3307526416
 20
-0.3720108645
 10
-3.3182508282
 20
-0.3788780335
 10
-3.3052220809
 20
-0.385186512
 10
-3.2917384755
 20
-0.3909014012
 10
-3.2778746046
 20
-0.3959910857
 10
-3.263707164
 20
-0.4004274092
 10
-3.2493145291
 20
-0.4041858294
 10
-3.2347763211
 20
-0.4072455547
 10
-3.2201729665
 20
-0.4095896582
 10
-3.205585252
 20
-0.4112051722
 10
-3.1910938782
 20
-0.4120831597
 10
-3.1767790123
 20
-0.4122187635
 10
-3.1627198452
 20
-0.4116112334
 10
-3.1489941535
 20
-0.4102639304
 10
-3.1356778686
 20
-0.4081843078
 10
-3.1228446572
 20
-0.4053838702
 10
-3.1105655137
 20
-0.40187811
 10
-3.0989083671
 20
-0.3976864211
 10
-3.0879377059
 20
-0.3928319925
  0
LINE
  5
2B2
100
AcDbEntity
  8
DRAFT
100
AcDbLine
 62
7
  6
CONTINUOUS
 10
-1.0605509223
 20
-1.8348444423
 11
-1.0749804739
 21
-1.8223724049
  0
LINE
  5
2B3
100
AcDbEntity
  8
ASSI
100
AcDbLine
 62
7
  6
CONTINUOUS
 10
-1.0605509223
 20
-1.8348444423
 11
-1.0749804739
 21
-1.8223724049
  0
LWPOLYLINE
  5
2B4
100
AcDbEntity
  8
RACCORDO
100
AcDbPolyline
 62
250
  6
CONTINUOUS
 90
14
 70
0
 10
-1.2105231517
 20
-2.1554717036
 10
-1.2202651735
 20
-2.1467789085
 10
-1.2291709503
 20
-2.1377422168
 10
-1.2371912146
 20
-2.1284116201
 10
-1.2442815979
 20
-2.1188387361
 10
-1.2504028755
 20
-2.1090765227
 10
-1.255521184
 20
-2.0991789851
 10
-1.2596082086
 20
-2.0892008774
 10
-1.2626413395
 20
-2.0791973991
 10
-1.2646037973
 20
-2.0692238903
 10
-1.2654847255
 20
-2.0593355252
 10
-1.2652792507
 20
-2.0495870069
 10
-1.2639885096
 20
-2.0400322651
 10
-1.2629511027
 20
-2.0353950443
  0
LWPOLYLINE
  5
2B5
100
AcDbEntity
  8
ASSI
100
AcDbPolyline
 62
250
  6
CONTINUOUS
 90
14
 70
0
 10
-1.2105231517
 20
-2.1554717036
 10
-1.2202651735
 20
-2.1467789085
 10
-1.2291709503
 20
-2.1377422168
 10
-1.2371912146
 20
-2.1284116201
 10
-1.2442815979
 20
-2.1188387361
 10
-1.2504028755
 20
-2.1090765227
 10
-1.255521184
 20
-2.0991789851
 10
-1.2596082086
 20
-2.0892008774
 10
-1.2626413395
 20
-2.0791973991
 10
-1.2646037973
 20
-2.0692238903
 10
-1.2654847255
 20
-2.0593355252
 10
-1.2652792507
 20
-2.0495870069
 10
-1.2639885096
 20
-2.0400322651
 10
-1.262974663
 20
-2.03548809
  0
LWPOLYLINE
  5
2B6
100
AcDbEntity
  8
DRAFT
100
AcDbPolyline
 62
7
  6
CONTINUOUS
 90
28
 70
0
 10
-1.0749804739
 20
-1.8223724049
 10
-1.1246999542
 20
-1.7768167521
 10
-1.1737282913
 20
-1.7292658648
 10
-1.2220685501
 20
-1.6797285898
 10
-1.2695057489
 20
-1.6284252429
 10
-1.316035865
 20
-1.5753479587
 10
-1.3616629211
 20
-1.5205046026
 10
-1.406184003
 20
-1.4641390867
 10
-1.4495941844
 20
-1.4062446319
 10
-1.4918983917
 20
-1.3468280172
 10
-1.5329084895
 20
-1.2861534917
 10
-1.5726187138
 20
-1.2242154534
 10
-1.6110348287
 20
-1.1610195042
 10
-1.6479859915
 20
-1.0968466993
 10
-1.6834656771
 20
-1.0316926884
 10
-1.7174804107
 20
-0.9655618217
 10
-1.7498789244
 20
-0.8987482049
 10
-1.7806540197
 20
-0.8312487977
 10
-1.8098128952
 20
-0.7630666405
 10
-1.8372258793
 20
-0.6945049596
 10
-1.8628851959
 20
-0.6255620654
 10
-1.886798621
 20
-0.5562396477
 10
-1.9088598117
 20
-0.4868460021
 10
-1.929060518
 20
-0.417380812
 10
-1.9474089898
 20
-0.3478443942
 10
-1.9638236331
 20
-0.2785459943
 10
-1.9782961025
 20
-0.2094816724
 10
-1.9884772829
 20
-0.1535957897
  0
LINE
  5
2B7
100
AcDbEntity
  8
ASSI
100
AcDbLine
 62
7
  6
CONTINUOUS
 10
-1.0749804739
 20
-1.8223724049
 11
-1.1246999542
 21
-1.7768167521
  0
LINE
  5
2B8
100
AcDbEntity
  8
ASSI
100
AcDbLine
 62
7
  6
CONTINUOUS
 10
-1.1246999542
 20
-1.7768167521
 11
-1.1737282913
 21
-1.7292658648
  0
LWPOLYLINE
  5
2B9
100
AcDbEntity
  8
ASSI
100
AcDbPolyline
 62
7
  6
CONTINUOUS
 90
26
 70
0
 10
-1.1737282913
 20
-1.7292658648
 10
-1.2220685501
 20
-1.6797285898
 10
-1.2695057489
 20
-1.6284252429
 10
-1.316035865
 20
-1.5753479587
 10
-1.3616629211
 20
-1.5205046026
 10
-1.406184003
 20
-1.4641390867
 10
-1.4495941844
 20
-1.4062446319
 10
-1.4918983917
 20
-1.3468280172
 10
-1.5329084895
 20
-1.2861534917
 10
-1.5726187138
 20
-1.2242154534
 10
-1.6110348287
 20
-1.1610195042
 10
-1.6479859915
 20
-1.0968466993
 10
-1.6834656771
 20
-1.0316926884
 10
-1.7174804107
 20
-0.9655618217
 10
-1.7498789244
 20
-0.8987482049
 10
-1.7806540197
 20
-0.8312487977
 10
-1.8098128952
 20
-0.7630666405
 10
-1.8372258793
 20
-0.6945049596
 10
-1.8628851959
 20
-0.6255620654
 10
-1.886798621
 20
-0.5562396477
 10
-1.9088598117
 20
-0.4868460021
 10
-1.929060518
 20
-0.417380812
 10
-1.9474089898
 20
-0.3478443942
 10
-1.9638236331
 20
-0.2785459943
 10
-1.9782961025
 20
-0.2094816724
 10
-1.9884772829
 20
-0.1535957897
  0
LWPOLYLINE
  5
2BA
100
AcDbEntity
  8
DRAFT
100
AcDbPolyline
 62
7
  6
CONTINUOUS
 90
13
 70
0
 10
-1.8933961057
 20
-0.5354872086
 10
-1.8763183754
 20
-0.5836791318
 10
-1.8458792681
 20
-0.6635686172
 10
-1.8134518255
 20
-0.7430843714
 10
-1.7791512126
 20
-0.8219425941
 10
-1.7429531138
 20
-0.9001760793
 10
-1.7048818448
 20
-0.9777520329
 10
-1.6651255179
 20
-1.0542882729
 10
-1.6236988246
 20
-1.1297405621
 10
-1.5805870734
 20
-1.2041531377
 10
-1.535934302
 20
-1.2772765286
 10
-1.4897068581
 20
-1.3491480145
 10
-1.4793347653
 20
-1.364473736
  0
LWPOLYLINE
  5
2BB
100
AcDbEntity
  8
ASSI
100
AcDbPolyline
 62
7
  6
CONTINUOUS
 90
13
 70
0
 10
-1.8933961057
 20
-0.5354872086
 10
-1.8763183754
 20
-0.5836791318
 10
-1.8458792681
 20
-0.6635686172
 10
-1.8134518255
 20
-0.7430843714
 10
-1.7791512126
 20
-0.8219425941
 10
-1.7429531138
 20
-0.9001760793
 10
-1.7048818448
 20
-0.9777520329
 10
-1.6651255179
 20
-1.0542882729
 10
-1.6236988246
 20
-1.1297405621
 10
-1.5805870734
 20
-1.2041531377
 10
-1.535934302
 20
-1.2772765286
 10
-1.4897068581
 20
-1.3491480145
 10
-1.4793347653
 20
-1.364473736
  0
LWPOLYLINE
  5
2BC
100
AcDbEntity
  8
RACCORDO
100
AcDbPolyline
 62
7
  6
CONTINUOUS
 90
15
 70
0
 10
-1.2601400586
 20
-1.4156730251
 10
-1.2547775639
 20
-1.4336652117
 10
-1.2483865171
 20
-1.4515645381
 10
-1.2409769361
 20
-1.469281874
 10
-1.2326512345
 20
-1.4865585145
 10
-1.2234069179
 20
-1.5034016672
 10
-1.2132308639
 20
-1.5198039181
 10
-1.202270329
 20
-1.5355166354
 10
-1.1905321385
 20
-1.5505338281
 10
-1.1779985846
 20
-1.5648597316
 10
-1.1648305926
 20
-1.5782994055
 10
-1.1510513713
 20
-1.5908376725
 10
-1.1366472959
 20
-1.6024756179
 10
-1.1217771732
 20
-1.6130840863
 10
-1.1065228069
 20
-1.6226204852
  0
LWPOLYLINE
  5
2BD
100
AcDbEntity
  8
RACCORDO
100
AcDbPolyline
 62
250
  6
CONTINUOUS
 90
25
 70
0
 10
-3.0879387202
 20
-1.0302478638
 10
-3.0913547933
 20
-1.0151317429
 10
-3.0953576515
 20
-0.9999606788
 10
-3.099935577
 20
-0.9847791778
 10
-3.1050751308
 20
-0.9696317484
 10
-3.1107612982
 20
-0.9545629004
 10
-3.1169775254
 20
-0.9396170139
 10
-3.123705791
 20
-0.9248376169
 10
-3.1309262046
 20
-0.9102685203
 10
-3.1386170345
 20
-0.8959537559
 10
-3.1467553309
 20
-0.8819358734
 10
-3.1553173959
 20
-0.8682554546
 10
-3.1642783419
 20
-0.8549522468
 10
-3.1736118458
 20
-0.842065359
 10
-3.1832905025
 20
-0.8296326011
 10
-3.1932862489
 20
-0.8176900318
 10
-3.2035702212
 20
-0.8062723528
 10
-3.2141118446
 20
-0.7954136605
 10
-3.2248792025
 20
-0.785146719
 10
-3.2358401283
 20
-0.7755021038
 10
-3.2469629755
 20
-0.7665075272
 10
-3.2582157449
 20
-0.7581887115
 10
-3.2695656658
 20
-0.7505699685
 10
-3.28097926
 20
-0.7436739748
 10
-3.2924230733
 20
-0.7375210656
  0
LWPOLYLINE
  5
2BE
100
AcDbEntity
  8
ASSI
100
AcDbPolyline
 62
250
  6
CONTINUOUS
 90
25
 70
0
 10
-3.0879387202
 20
-1.0302478638
 10
-3.0913547933
 20
-1.0151317429
 10
-3.0953576515
 20
-0.9999606788
 10
-3.099935577
 20
-0.9847791778
 10
-3.1050751308
 20
-0.9696317484
 10
-3.1107612982
 20
-0.9545629004
 10
-3.1169775254
 20
-0.9396170139
 10
-3.123705791
 20
-0.9248376169
 10
-3.1309262046
 20
-0.9102685203
 10
-3.1386170345
 20
-0.8959537559
 10
-3.1467553309
 20
-0.8819358734
 10
-3.1553173959
 20
-0.8682554546
 10
-3.1642783419
 20
-0.8549522468
 10
-3.1736118458
 20
-0.842065359
 10
-3.1832905025
 20
-0.8296326011
 10
-3.1932862489
 20
-0.8176900318
 10
-3.2035702212
 20
-0.8062723528
 10
-3.2141118446
 20
-0.7954136605
 10
-3.2248792025
 20
-0.785146719
 10
-3.2358401283
 20
-0.7755021038
 10
-3.2469629755
 20
-0.7665075272
 10
-3.2582157449
 20
-0.7581887115
 10
-3.2695656658
 20
-0.7505699685
 10
-3.28097926
 20
-0.7436739748
 10
-3.2924230733
 20
-0.7375210656
  0
LWPOLYLINE
  5
2BF
100
AcDbEntity
  8
0
100
AcDbPolyline
 62
7
  6
CONTINUOUS
 90
42
 70
0
 10
-2.6629397937
 20
-0.7999507296
 10
-2.6481252557
 20
-0.8682088912
 10
-2.6351131606
 20
-0.9213057725
 10
-2.6205666828
 20
-0.9743876741
 10
-2.6044576411
 20
-1.0275399797
 10
-2.5868142167
 20
-1.0806773056
 10
-2.5677209527
 20
-1.1335435001
 10
-2.547164782
 20
-1.1861507068
 10
-2.5251587717
 20
-1.2384867822
 10
-2.501826667
 20
-1.2902591441
 10
-2.4771715753
 20
-1.3414451212
 10
-2.4511903891
 20
-1.3920673847
 10
-2.4239975315
 20
-1.441901367
 10
-2.3955714743
 20
-1.4909689949
 10
-2.3659337457
 20
-1.5392483415
 10
-2.3352633532
 20
-1.5864490583
 10
-2.3035763946
 20
-1.6325346968
 10
-2.2708567722
 20
-1.6775417056
 10
-2.2372352002
 20
-1.7212890815
 10
-2.2026793795
 20
-1.7638044958
 10
-2.1672216092
 20
-1.8050602773
 10
-2.1310895001
 20
-1.84479241
 10
-2.094313197
 20
-1.8829578861
 10
-2.0568625552
 20
-1.9195997135
 10
-2.0188747516
 20
-1.9545828991
 10
-1.9803083726
 20
-1.9879329475
 10
-1.9412048317
 20
-2.0196243541
 10
-1.9018255472
 20
-2.0494456128
 10
-1.8622114102
 20
-2.0773565215
 10
-1.8223215295
 20
-2.1033972822
 10
-1.782294649
 20
-2.1274769947
 10
-1.7420856835
 20
-2.1496110255
 10
-1.7017397182
 20
-2.1697840082
 10
-1.6615307527
 20
-2.1878589428
 10
-1.6215038722
 20
-2.2038061108
 10
-1.5816139915
 20
-2.2176552308
 10
-1.5419998545
 20
-2.2293584591
 10
-1.50262057
 20
-2.238916485
 10
-1.4635170292
 20
-2.2463286192
 10
-1.4249506501
 20
-2.2515449498
 10
-1.3869628465
 20
-2.2545495678
 10
-1.3559873449
 20
-2.2552185399
  0
LWPOLYLINE
  5
2C0
100
AcDbEntity
  8
ASSI
100
AcDbPolyline
 62
7
  6
CONTINUOUS
 90
42
 70
0
 10
-2.6629397937
 20
-0.7999507296
 10
-2.6481252557
 20
-0.8682088912
 10
-2.6351131606
 20
-0.9213057725
 10
-2.6205666828
 20
-0.9743876741
 10
-2.6044576411
 20
-1.0275399797
 10
-2.5868142167
 20
-1.0806773056
 10
-2.5677209527
 20
-1.1335435001
 10
-2.547164782
 20
-1.1861507068
 10
-2.5251587717
 20
-1.2384867822
 10
-2.501826667
 20
-1.2902591441
 10
-2.4771715753
 20
-1.3414451212
 10
-2.4511903891
 20
-1.3920673847
 10
-2.4239975315
 20
-1.441901367
 10
-2.3955714743
 20
-1.4909689949
 10
-2.3659337457
 20
-1.5392483415
 10
-2.3352633532
 20
-1.5864490583
 10
-2.3035763946
 20
-1.6325346968
 10
-2.2708567722
 20
-1.6775417056
 10
-2.2372352002
 20
-1.7212890815
 10
-2.2026793795
 20
-1.7638044958
 10
-2.1672216092
 20
-1.8050602773
 10
-2.1310895001
 20
-1.84479241
 10
-2.094313197
 20
-1.8829578861
 10
-2.0568625552
 20
-1.9195997135
 10
-2.0188747516
 20
-1.9545828991
 10
-1.9803083726
 20
-1.9879329475
 10
-1.9412048317
 20
-2.0196243541
 10
-1.9018255472
 20
-2.0494456128
 10
-1.8622114102
 20
-2.0773565215
 10
-1.8223215295
 20
-2.1033972822
 10
-1.782294649
 20
-2.1274769947
 10
-1.7420856835
 20
-2.1496110255
 10
-1.7017397182
 20
-2.1697840082
 10
-1.6615307527
 20
-2.1878589428
 10
-1.6215038722
 20
-2.2038061108
 10
-1.5816139915
 20
-2.2176552308
 10
-1.5419998545
 20
-2.2293584591
 10
-1.50262057
 20
-2.238916485
 10
-1.4635170292
 20
-2.2463286192
 10
-1.4249506501
 20
-2.2515449498
 10
-1.3869628465
 20
-2.2545495678
 10
-1.3559873449
 20
-2.2552185399
  0
LWPOLYLINE
  5
2C1
100
AcDbEntity
  8
RACCORDO
100
AcDbPolyline
 62
250
  6
CONTINUOUS
 90
13
 70
0
 10
-1.1424145665
 20
-1.5230292247
 10
-1.142030476
 20
-1.535715093
 10
-1.1408656882
 20
-1.5479399958
 10
-1.1389266507
 20
-1.5596362635
 10
-1.1362240969
 20
-1.5707391526
 10
-1.1327729866
 20
-1.5811872041
 10
-1.1285924228
 20
-1.590922584
 10
-1.1237055468
 20
-1.599891403
 10
-1.1181394094
 20
-1.6080440151
 10
-1.1119248213
 20
-1.6153352925
 10
-1.1050961827
 20
-1.6217248749
 10
-1.0976912929
 20
-1.6271773935
 10
-1.0904767469
 20
-1.6313041953
  0
LWPOLYLINE
  5
2C2
100
AcDbEntity
  8
ASSI
100
AcDbPolyline
 62
250
  6
CONTINUOUS
 90
13
 70
0
 10
-1.1424145665
 20
-1.5230292247
 10
-1.142030476
 20
-1.535715093
 10
-1.1408656882
 20
-1.5479399958
 10
-1.1389266507
 20
-1.5596362635
 10
-1.1362240969
 20
-1.5707391526
 10
-1.1327729866
 20
-1.5811872041
 10
-1.1285924228
 20
-1.590922584
 10
-1.1237055468
 20
-1.599891403
 10
-1.1181394094
 20
-1.6080440151
 10
-1.1119248213
 20
-1.6153352925
 10
-1.1050961827
 20
-1.6217248749
 10
-1.0976912929
 20
-1.6271773935
 10
-1.0904885451
 20
-1.6312982859
  0
LWPOLYLINE
  5
2C3
100
AcDbEntity
  8
RACCORDO
100
AcDbPolyline
 62
250
  6
CONTINUOUS
 90
22
 70
0
 10
-1.1424145665
 20
-2.1260316086
 10
-1.1420304788
 20
-2.1129617005
 10
-1.1408656992
 20
-2.0995720572
 10
-1.1389266743
 20
-2.0859367951
 10
-1.1362241362
 20
-2.07213139
 10
-1.1327730438
 20
-2.0582322597
 10
-1.1285924991
 20
-2.044316341
 10
-1.1237056421
 20
-2.0304606636
 10
-1.1181395226
 20
-2.0167419243
 10
-1.1119249505
 20
-2.003236062
 10
-1.1050963251
 20
-1.990017837
 10
-1.097691445
 20
-1.9771604181
 10
-1.0897512986
 20
-1.9647349771
 10
-1.0813198373
 20
-1.9528102941
 10
-1.0724437322
 20
-1.9414523779
 10
-1.0631721163
 20
-1.9307241004
 10
-1.0535563114
 20
-1.9206848477
 10
-1.0436495447
 20
-1.9113901919
 10
-1.0335066548
 20
-1.9028915841
 10
-1.0231837871
 20
-1.8952360685
 10
-1.0127380827
 20
-1.8884660221
 10
-1.002227363
 20
-1.8826189208
  0
LWPOLYLINE
  5
2C4
100
AcDbEntity
  8
ASSI
100
AcDbPolyline
 62
250
  6
CONTINUOUS
 90
22
 70
0
 10
-1.1424145665
 20
-2.1260316086
 10
-1.1420304788
 20
-2.1129617005
 10
-1.1408656992
 20
-2.0995720572
 10
-1.1389266743
 20
-2.0859367951
 10
-1.1362241362
 20
-2.07213139
 10
-1.1327730438
 20
-2.0582322597
 10
-1.1285924991
 20
-2.044316341
 10
-1.1237056421
 20
-2.0304606636
 10
-1.1181395226
 20
-2.0167419243
 10
-1.1119249505
 20
-2.003236062
 10
-1.1050963251
 20
-1.990017837
 10
-1.097691445
 20
-1.9771604181
 10
-1.0897512986
 20
-1.9647349771
 10
-1.0813198373
 20
-1.9528102941
 10
-1.0724437322
 20
-1.9414523779
 10
-1.0631721163
 20
-1.9307241004
 10
-1.0535563114
 20
-1.9206848477
 10
-1.0436495447
 20
-1.9113901919
 10
-1.0335066548
 20
-1.9028915841
 10
-1.0231837871
 20
-1.8952360685
 10
-1.0127380827
 20
-1.8884660221
 10
-1.002227363
 20
-1.8826189208
  0
LINE
  5
2C5
100
AcDbEntity
  8
RACCORDO
100
AcDbLine
 62
7
  6
CONTINUOUS
 10
-1.2629511027
 20
-2.0353950443
 11
-1.2629323878
 21
-2.0353214531
  0
LINE
  5
2C6
100
AcDbEntity
  8
ASSI
100
AcDbLine
 62
7
  6
CONTINUOUS
 10
-1.262974663
 20
-2.03548809
 11
-1.2628447123
 21
-2.0349803616
  0
LINE
  5
2C7
100
AcDbEntity
  8
ASSI
100
AcDbLine
 62
7
  6
CONTINUOUS
 10
-1.262974663
 20
-2.03548809
 11
-1.2677410722
 21
-2.0534960529
  0
LWPOLYLINE
  5
2C8
100
AcDbEntity
  8
RACCORDO
100
AcDbPolyline
 62
7
  6
CONTINUOUS
 90
13
 70
0
 10
-1.2629511027
 20
-2.0353950443
 10
-1.2704937169
 20
-2.0632771505
 10
-1.2821470013
 20
-2.10066123
 10
-1.29518063
 20
-2.1365347555
 10
-1.3095356711
 20
-2.1707373789
 10
-1.3251920662
 20
-2.2032418628
 10
-1.3421884619
 20
-2.2341086554
 10
-1.3604868972
 20
-2.2632272913
 10
-1.3800552137
 20
-2.2905198556
 10
-1.400975423
 20
-2.3160428566
 10
-1.4232042198
 20
-2.3396689791
 10
-1.4467535213
 20
-2.3613483859
 10
-1.4718584058
 20
-2.3811808788
  0
LWPOLYLINE
  5
2C9
100
AcDbEntity
  8
RACCORDO
100
AcDbPolyline
 62
250
  6
CONTINUOUS
 90
64
 70
0
 10
-1.2105232112
 20
-2.1554717334
 10
-1.2234426868
 20
-2.2022715397
 10
-1.2381581043
 20
-2.2475077444
 10
-1.2546696603
 20
-2.2911804453
 10
-1.2730077418
 20
-2.3334012195
 10
-1.2931423239
 20
-2.37405867
 10
-1.3149830907
 20
-2.412818486
 10
-1.3385525695
 20
-2.4496587691
 10
-1.3638288149
 20
-2.4846017085
 10
-1.3906549952
 20
-2.5173792218
 10
-1.4190468792
 20
-2.5479624369
 10
-1.4489894175
 20
-2.5763805863
 10
-1.4802796983
 20
-2.6024528176
 10
-1.5129076769
 20
-2.6261462069
 10
-1.546884178
 20
-2.6474940695
 10
-1.5820376767
 20
-2.6664149543
 10
-1.6183631605
 20
-2.6828994064
 10
-1.6558663853
 20
-2.6969572541
 10
-1.6943920105
 20
-2.7085359865
 10
-1.7339554305
 20
-2.7176318152
 10
-1.7745419176
 20
-2.7242488638
 10
-1.815950962
 20
-2.728346496
 10
-1.8581953407
 20
-2.7299107292
 10
-1.9012628461
 20
-2.7289558327
 10
-1.9449154889
 20
-2.7254835467
 10
-1.9891522738
 20
-2.7194788613
 10
-2.033974633
 20
-2.7109570064
 10
-2.0791481961
 20
-2.6999650718
 10
-2.1246717728
 20
-2.6864912758
 10
-2.1705468263
 20
-2.6705475377
 10
-2.2165429274
 20
-2.6522164786
 10
-2.2626600747
 20
-2.6314872511
 10
-2.3088983623
 20
-2.6083707495
 10
-2.3550274604
 20
-2.5829821851
 10
-2.4010473783
 20
-2.5553106414
 10
-2.4469580141
 20
-2.5253669883
 10
-2.4925288262
 20
-2.4932990948
 10
-2.5377610256
 20
-2.4590937959
 10
-2.5826531286
 20
-2.4227641192
 10
-2.6269705129
 20
-2.3844972029
 10
-2.6707144724
 20
-2.3442764254
 10
-2.7138832766
 20
-2.3021181884
 10
-2.7562377435
 20
-2.2582591535
 10
-2.7977654775
 20
-2.2126970264
 10
-2.838478305
 20
-2.1654338149
 10
-2.8781733746
 20
-2.1167126322
 10
-2.9168350153
 20
-2.0665445515
 10
-2.9544782318
 20
-2.0149181645
 10
-2.9909461993
 20
-1.9620428686
 10
-3.0262433706
 20
-1.9079045497
 10
-3.0603645502
 20
-1.8525169488
 10
-3.0931384725
 20
-1.7961312623
 10
-3.124575528
 20
-1.7387040149
 10
-3.1546645462
 20
-1.6802782906
 10
-3.1832020019
 20
-1.6212351655
 10
-3.2101729032
 20
-1.5615596936
 10
-3.2355915209
 20
-1.5012664597
 10
-3.2592983685
 20
-1.4407809097
 10
-3.2812711624
 20
-1.3801022115
 10
-3.301531602
 20
-1.3192309052
 10
-3.3199863684
 20
-1.2585945917
 10
-3.3366042748
 20
-1.1983357649
 10
-3.3514161445
 20
-1.1383117501
 10
-3.3644217799
 20
-1.0785224491
  0
LWPOLYLINE
  5
2CA
100
AcDbEntity
  8
ASSI
100
AcDbPolyline
 62
250
  6
CONTINUOUS
 90
64
 70
0
 10
-1.2105232112
 20
-2.1554717334
 10
-1.2234426868
 20
-2.2022715397
 10
-1.2381581043
 20
-2.2475077444
 10
-1.2546696603
 20
-2.2911804453
 10
-1.2730077418
 20
-2.3334012195
 10
-1.2931423239
 20
-2.37405867
 10
-1.3149830907
 20
-2.412818486
 10
-1.3385525695
 20
-2.4496587691
 10
-1.3638288149
 20
-2.4846017085
 10
-1.3906549952
 20
-2.5173792218
 10
-1.4190468792
 20
-2.5479624369
 10
-1.4489894175
 20
-2.5763805863
 10
-1.4802796983
 20
-2.6024528176
 10
-1.5129076769
 20
-2.6261462069
 10
-1.546884178
 20
-2.6474940695
 10
-1.5820376767
 20
-2.6664149543
 10
-1.6183631605
 20
-2.6828994064
 10
-1.6558663853
 20
-2.6969572541
 10
-1.6943920105
 20
-2.7085359865
 10
-1.7339554305
 20
-2.7176318152
 10
-1.7745419176
 20
-2.7242488638
 10
-1.815950962
 20
-2.728346496
 10
-1.8581953407
 20
-2.7299107292
 10
-1.9012628461
 20
-2.7289558327
 10
-1.9449154889
 20
-2.7254835467
 10
-1.9891522738
 20
-2.7194788613
 10
-2.033974633
 20
-2.7109570064
 10
-2.0791481961
 20
-2.6999650718
 10
-2.1246717728
 20
-2.6864912758
 10
-2.1705468263
 20
-2.6705475377
 10
-2.2165429274
 20
-2.6522164786
 10
-2.2626600747
 20
-2.6314872511
 10
-2.3088983623
 20
-2.6083707495
 10
-2.3550274604
 20
-2.5829821851
 10
-2.4010473783
 20
-2.5553106414
 10
-2.4469580141
 20
-2.5253669883
 10
-2.4925288262
 20
-2.4932990948
 10
-2.5377610256
 20
-2.4590937959
 10
-2.5826531286
 20
-2.4227641192
 10
-2.6269705129
 20
-2.3844972029
 10
-2.6707144724
 20
-2.3442764254
 10
-2.7138832766
 20
-2.3021181884
 10
-2.7562377435
 20
-2.2582591535
 10
-2.7977654775
 20
-2.2126970264
 10
-2.838478305
 20
-2.1654338149
 10
-2.8781733746
 20
-2.1167126322
 10
-2.9168350153
 20
-2.0665445515
 10
-2.9544782318
 20
-2.0149181645
 10
-2.9909461993
 20
-1.9620428686
 10
-3.0262433706
 20
-1.9079045497
 10
-3.0603645502
 20
-1.8525169488
 10
-3.0931384725
 20
-1.7961312623
 10
-3.124575528
 20
-1.7387040149
 10
-3.1546645462
 20
-1.6802782906
 10
-3.1832020019
 20
-1.6212351655
 10
-3.2101729032
 20
-1.5615596936
 10
-3.2355915209
 20
-1.5012664597
 10
-3.2592983685
 20
-1.4407809097
 10
-3.2812711624
 20
-1.3801022115
 10
-3.301531602
 20
-1.3192309052
 10
-3.3199863684
 20
-1.2585945917
 10
-3.3366042748
 20
-1.1983357649
 10
-3.3514161445
 20
-1.1383117501
 10
-3.3644217799
 20
-1.0785224491
  0
LINE
  5
2CB
100
AcDbEntity
  8
RACCORDO
100
AcDbLine
 62
7
  6
CONTINUOUS
 10
-1.2585089656
 20
-2.0198648904
 11
-1.2629314057
 21
-2.0353217028
  0
LWPOLYLINE
  5
2CC
100
AcDbEntity
  8
ASSI
100
AcDbPolyline
 62
7
  6
CONTINUOUS
 90
7
 70
0
 10
-1.2677410722
 20
-2.0534960529
 10
-1.2897256358
 20
-2.1221622818
 10
-1.3161805604
 20
-2.1850730489
 10
-1.3467469704
 20
-2.2417277576
 10
-1.381079007
 20
-2.2918519198
 10
-1.4189289653
 20
-2.3353784259
 10
-1.4597880441
 20
-2.3720388704
  0
LINE
  5
2CD
100
AcDbEntity
  8
DRAFT
100
AcDbLine
 62
7
  6
CONTINUOUS
 10
-2.6773619643
 20
-0.2309448755
 11
-2.2376068561
 21
0.0100541276
  0
LINE
  5
2CE
100
AcDbEntity
  8
ASSI
100
AcDbLine
 62
7
  6
CONTINUOUS
 10
-2.6773619643
 20
-0.2309448755
 11
-2.2376068561
 21
0.0100541276
  0
LINE
  5
2CF
100
AcDbEntity
  8
RACCORDO
100
AcDbLine
 62
250
  6
CONTINUOUS
 10
-2.7925303875
 20
0.0375031735
 11
-2.7590266349
 21
0.0553864387
  0
LINE
  5
2D0
100
AcDbEntity
  8
DRAFT
100
AcDbLine
 62
7
  6
CONTINUOUS
 10
-2.5131921026
 20
0.0945340206
 11
-2.5429070864
 21
0.078907754
  0
LINE
  5
2D1
100
AcDbEntity
  8
ASSI
100
AcDbLine
 62
7
  6
CONTINUOUS
 10
-2.5131921026
 20
0.0945340206
 11
-2.5429070864
 21
0.078907754
  0
LWPOLYLINE
  5
2D2
100
AcDbEntity
  8
RACCORDO
100
AcDbPolyline
 62
250
  6
CONTINUOUS
 90
13
 70
0
 10
-3.1599117695
 20
-0.4904853556
 10
-3.155317396
 20
-0.4881325813
 10
-3.146755331
 20
-0.482996755
 10
-3.1386170346
 20
-0.4770903421
 10
-3.1309262046
 20
-0.4704303655
 10
-3.123705791
 20
-0.4630365219
 10
-3.1169775254
 20
-0.4549311268
 10
-3.1107613023
 20
-0.4461383577
 10
-3.1050751381
 20
-0.4366839427
 10
-3.0999355771
 20
-0.426595725
 10
-3.0953576342
 20
-0.4159034346
 10
-3.0913547559
 20
-0.4046385962
 10
-3.0879386635
 20
-0.3928343962
  0
LWPOLYLINE
  5
2D3
100
AcDbEntity
  8
ASSI
100
AcDbPolyline
 62
250
  6
CONTINUOUS
 90
13
 70
0
 10
-3.1599710631
 20
-0.4905140029
 10
-3.155317396
 20
-0.4881325813
 10
-3.146755331
 20
-0.482996755
 10
-3.1386170346
 20
-0.4770903421
 10
-3.1309262046
 20
-0.4704303655
 10
-3.123705791
 20
-0.4630365219
 10
-3.1169775254
 20
-0.4549311268
 10
-3.1107613023
 20
-0.4461383577
 10
-3.1050751381
 20
-0.4366839427
 10
-3.0999355771
 20
-0.426595725
 10
-3.0953576342
 20
-0.4159034346
 10
-3.0913547559
 20
-0.4046385962
 10
-3.0879386635
 20
-0.3928343962
  0
LINE
  5
2D4
100
AcDbEntity
  8
RACCORDO
100
AcDbLine
 62
250
  6
CONTINUOUS
 10
-2.8641821453
 20
-0.5216821239
 11
-3.2924230733
 21
-0.7375210656
  0
LINE
  5
2D5
100
AcDbEntity
  8
ASSI
100
AcDbLine
 62
250
  6
CONTINUOUS
 10
-2.8641821453
 20
-0.5216821239
 11
-3.2924230733
 21
-0.7375210656
  0
LINE
  5
2D6
100
AcDbEntity
  8
RACCORDO
100
AcDbLine
 62
250
  6
CONTINUOUS
 10
-2.659602968
 20
-0.8150970302
 11
-3.0879387097
 21
-1.0302478586
  0
LINE
  5
2D7
100
AcDbEntity
  8
ASSI
100
AcDbLine
 62
250
  6
CONTINUOUS
 10
-2.659602968
 20
-0.8150970302
 11
-3.0879387097
 21
-1.0302478586
  0
LINE
  5
2D8
100
AcDbEntity
  8
RACCORDO
100
AcDbLine
 62
7
  6
CONTINUOUS
 10
-2.7590266349
 20
0.0553864387
 11
-2.7584762304
 21
0.0556544885
  0
LINE
  5
2D9
100
AcDbEntity
  8
ASSI
100
AcDbLine
 62
7
  6
CONTINUOUS
 10
-2.7584762304
 20
0.0556544885
 11
-2.7580795529
 21
0.0558471757
  0
LINE
  5
2DA
100
AcDbEntity
  8
RACCORDO
100
AcDbLine
 62
250
  6
CONTINUOUS
 10
-3.0879386538
 20
-0.3928343915
 11
-2.659602968
 21
-0.1855759601
  0
LINE
  5
2DB
100
AcDbEntity
  8
ASSI
100
AcDbLine
 62
250
  6
CONTINUOUS
 10
-3.0879386538
 20
-0.3928343915
 11
-2.659602968
 21
-0.1855759601
  0
LINE
  5
2DC
100
AcDbEntity
  8
RACCORDO
100
AcDbLine
 62
7
  6
CONTINUOUS
 10
-3.1599708957
 20
-0.4905139221
 11
-3.1599117695
 21
-0.4904853556
  0
LINE
  5
2DD
100
AcDbEntity
  8
0
100
AcDbLine
 62
7
  6
CONTINUOUS
 10
-3.1599708972
 20
-0.4905139228
 11
-2.7314243266
 21
-0.2836212056
  0
LINE
  5
2DE
100
AcDbEntity
  8
ASSI
100
AcDbLine
 62
7
  6
CONTINUOUS
 10
-3.1599710646
 20
-0.4905140036
 11
-2.7314244816
 21
-0.2836212805
  0
LINE
  5
2DF
100
AcDbEntity
  8
RACCORDO
100
AcDbLine
 62
7
  6
CONTINUOUS
 10
-2.7590337553
 20
0.0553829035
 11
-2.7299543706
 21
0.068161002
  0
LWPOLYLINE
  5
2E0
100
AcDbEntity
  8
ASSI
100
AcDbPolyline
 62
7
  6
CONTINUOUS
 90
24
 70
0
 10
-2.7580877612
 20
0.0558430925
 10
-2.7051963726
 20
0.0769586279
 10
-2.6431236363
 20
0.0916727824
 10
-2.5764094257
 20
0.0975153436
 10
-2.5049321394
 20
0.0941444815
 10
-2.4297932633
 20
0.0812994128
 10
-2.3523126085
 20
0.0591274222
 10
-2.2738145065
 20
0.0281314314
 10
-2.1948708342
 20
-0.0112825801
 10
-2.1156156822
 20
-0.0589801835
 10
-2.0369052359
 20
-0.1144297102
 10
-1.9593684639
 20
-0.1771375305
 10
-1.8825955815
 20
-0.2475361678
 10
-1.8068484886
 20
-0.3257153822
 10
-1.7332680019
 20
-0.4108184164
 10
-1.6626967404
 20
-0.5020606487
 10
-1.5957327078
 20
-0.5988110147
 10
-1.5329762684
 20
-0.7003300415
 10
-1.4751309249
 20
-0.8055300895
 10
-1.4226451847
 20
-0.9135672174
 10
-1.3759039902
 20
-1.0235910077
 10
-1.3353386712
 20
-1.1344201472
 10
-1.3011940534
 20
-1.2450731744
 10
-1.273673325
 20
-1.3544129246
  0
LINE
  5
2E1
100
AcDbEntity
  8
RACCORDO
100
AcDbLine
 62
7
  6
CONTINUOUS
 10
-2.7299543706
 20
0.068161002
 11
-2.698361801
 21
0.0790732123
  0
LWPOLYLINE
  5
2E2
100
AcDbEntity
  8
ASSI
100
AcDbPolyline
 62
250
  6
CONTINUOUS
 90
33
 70
0
 10
-2.4011528175
 20
0.1682471592
 10
-2.3551326459
 20
0.1499281354
 10
-2.3090034539
 20
0.1292049303
 10
-2.2627651526
 20
0.1060884355
 10
-2.2166480718
 20
0.0806938625
 10
-2.1706521966
 20
0.0530102974
 10
-2.1247774492
 20
0.0230487001
 10
-2.0792540202
 20
-0.009042885
 10
-2.034080519
 20
-0.0432775329
 10
-1.9892580634
 20
-0.0796420333
 10
-1.9450205684
 20
-0.1179488942
 10
-1.9013664093
 20
-0.1582145719
 10
-1.8582967741
 20
-0.2004223934
 10
-1.8160497734
 20
-0.2443351615
 10
-1.7746372976
 20
-0.2899549177
 10
-1.7340468871
 20
-0.3372793376
 10
-1.6944801254
 20
-0.3860646743
 10
-1.6559520234
 20
-0.4362995244
 10
-1.6184469039
 20
-0.4879949598
 10
-1.5821203315
 20
-0.5409409533
 10
-1.5469671761
 20
-0.5951512802
 10
-1.5129918252
 20
-0.6506117954
 10
-1.4803641514
 20
-0.7070706062
 10
-1.4490731363
 20
-0.7645708738
 10
-1.4191290183
 20
-0.8230690482
 10
-1.3907336372
 20
-0.8821832105
 10
-1.3639013427
 20
-0.9419279859
 10
-1.3386170641
 20
-1.0022883893
 10
-1.3150386554
 20
-1.0628381588
 10
-1.293187852
 20
-1.1235778523
 10
-1.2730423343
 20
-1.1845066195
 10
-1.2546940679
 20
-1.2451961829
 10
-1.2381736272
 20
-1.3055037426
  0
LINE
  5
2E3
100
AcDbEntity
  8
RACCORDO
100
AcDbLine
 62
250
  6
CONTINUOUS
 10
-1.2646030687
 20
-1.3965411948
 11
-1.2651313174
 21
-1.3944877489
  0
LWPOLYLINE
  5
2E4
100
AcDbEntity
  8
ASSI
100
AcDbPolyline
 62
7
  6
CONTINUOUS
 90
8
 70
0
 10
-1.2651380311
 20
-1.3944544023
 10
-1.256476574
 20
-1.4283319502
 10
-1.2437004621
 20
-1.4630719729
 10
-1.2267936829
 20
-1.4974738143
 10
-1.2057813495
 20
-1.5306778379
 10
-1.1818967172
 20
-1.5605758919
 10
-1.1553984026
 20
-1.5870382916
 10
-1.1260563733
 20
-1.6101689055
  0
LINE
  5
2E5
100
AcDbEntity
  8
ASSI
100
AcDbLine
 62
250
  6
CONTINUOUS
 10
-1.2381736272
 20
-1.3055037426
 11
-1.2234500742
 21
-1.3655719158
  0
LWPOLYLINE
  5
2E6
100
AcDbEntity
  8
RACCORDO
100
AcDbPolyline
 62
250
  6
CONTINUOUS
 90
25
 70
0
 10
-1.2105232112
 20
-1.425400603
 10
-1.2093989017
 20
-1.430472428
 10
-1.2080859368
 20
-1.4355332628
 10
-1.2065843192
 20
-1.4405831087
 10
-1.2048885294
 20
-1.4456370123
 10
-1.2030040917
 20
-1.4506799295
 10
-1.2009475758
 20
-1.455666726
 10
-1.1987174359
 20
-1.4605967863
 10
-1.196315224
 20
-1.4654707291
 10
-1.1937621574
 20
-1.470245272
 10
-1.1910568676
 20
-1.4749194739
 10
-1.1882007298
 20
-1.4794942794
 10
-1.1852190782
 20
-1.483929235
 10
-1.1821109315
 20
-1.4882229248
 10
-1.1788772774
 20
-1.4923767679
 10
-1.1755464043
 20
-1.4963545638
 10
-1.172117374
 20
-1.5001548436
 10
-1.1685911302
 20
-1.5037790789
 10
-1.1649987842
 20
-1.5071954793
 10
-1.1613397564
 20
-1.5104022117
 10
-1.1576146304
 20
-1.5134011112
 10
-1.1538562619
 20
-1.5161658906
 10
-1.1500756036
 20
-1.5186877876
 10
-1.1462617049
 20
-1.5209755656
 10
-1.1424145665
 20
-1.5230292247
  0
LWPOLYLINE
  5
2E7
100
AcDbEntity
  8
ASSI
100
AcDbPolyline
 62
250
  6
CONTINUOUS
 90
25
 70
0
 10
-1.2105232112
 20
-1.425400603
 10
-1.2093989017
 20
-1.430472428
 10
-1.2080859368
 20
-1.4355332628
 10
-1.2065843192
 20
-1.4405831087
 10
-1.2048885294
 20
-1.4456370123
 10
-1.2030040917
 20
-1.4506799295
 10
-1.2009475758
 20
-1.455666726
 10
-1.1987174359
 20
-1.4605967863
 10
-1.196315224
 20
-1.4654707291
 10
-1.1937621574
 20
-1.470245272
 10
-1.1910568676
 20
-1.4749194739
 10
-1.1882007298
 20
-1.4794942794
 10
-1.1852190782
 20
-1.483929235
 10
-1.1821109315
 20
-1.4882229248
 10
-1.1788772774
 20
-1.4923767679
 10
-1.1755464043
 20
-1.4963545638
 10
-1.172117374
 20
-1.5001548436
 10
-1.1685911302
 20
-1.5037790789
 10
-1.1649987842
 20
-1.5071954793
 10
-1.1613397564
 20
-1.5104022117
 10
-1.1576146304
 20
-1.5134011112
 10
-1.1538562619
 20
-1.5161658906
 10
-1.1500756036
 20
-1.5186877876
 10
-1.1462617049
 20
-1.5209755656
 10
-1.1424145665
 20
-1.5230292247
  0
LINE
  5
2E8
100
AcDbEntity
  8
RACCORDO
100
AcDbLine
 62
250
  6
CONTINUOUS
 10
-1.2234500742
 20
-1.3655719158
 11
-1.2105232112
 21
-1.425400603
  0
LINE
  5
2E9
100
AcDbEntity
  8
ASSI
100
AcDbLine
 62
250
  6
CONTINUOUS
 10
-1.2234500742
 20
-1.3655719158
 11
-1.2105232112
 21
-1.425400603
  0
LINE
  5
2EA
100
AcDbEntity
  8
ASSI
100
AcDbLine
 62
7
  6
CONTINUOUS
 10
-1.273673325
 20
-1.3544129246
 11
-1.2651347869
 21
-1.394474842
  0
LINE
  5
2EB
100
AcDbEntity
  8
RACCORDO
100
AcDbLine
 62
7
  6
CONTINUOUS
 10
-1.2738869721
 20
-1.3534104978
 11
-1.2651321473
 21
-1.3944879168
  0
LWPOLYLINE
  5
2EC
100
AcDbEntity
  8
RACCORDO
100
AcDbPolyline
 62
7
  6
CONTINUOUS
 90
3
 70
0
 10
-1.2651318466
 20
-1.394485131
 10
-1.2645074881
 20
-1.3975007507
 10
-1.2601400586
 20
-1.4156730251
  0
LWPOLYLINE
  5
2ED
100
AcDbEntity
  8
ASSI
100
AcDbPolyline
 62
7
  6
CONTINUOUS
 90
3
 70
0
 10
-1.4597880441
 20
-2.3720388704
 10
-1.5036528692
 20
-2.4021097892
 10
-1.5230589929
 20
-2.4128585813
  0
LINE
  5
2EE
100
AcDbEntity
  8
RACCORDO
100
AcDbLine
 62
7
  6
CONTINUOUS
 10
-1.4718584058
 20
-2.3811808788
 11
-1.4986479404
 21
-2.3990986949
  0
LWPOLYLINE
  5
2EF
100
AcDbEntity
  8
RACCORDO
100
AcDbPolyline
 62
7
  6
CONTINUOUS
 90
13
 70
0
 10
-1.1409336467
 20
-1.8764641074
 10
-1.1540796587
 20
-1.8840443216
 10
-1.1668212399
 20
-1.8925225224
 10
-1.179084606
 20
-1.9018763897
 10
-1.190804909
 20
-1.9120813854
 10
-1.2019278173
 20
-1.9231133848
 10
-1.2123935485
 20
-1.934937124
 10
-1.2221401383
 20
-1.9475057082
 10
-1.231118125
 20
-1.960777243
 10
-1.2392845731
 20
-1.9747073262
 10
-1.2465944632
 20
-1.9892361748
 10
-1.2530112258
 20
-2.0043057355
 10
-1.2585089656
 20
-2.0198648904
  0
LINE
  5
2F0
100
AcDbEntity
  8
RACCORDO
100
AcDbLine
 62
7
  6
CONTINUOUS
 10
-1.4986479404
 20
-2.3990986949
 11
-1.5245441541
 21
-2.413622634
  0
LWPOLYLINE
  5
2F1
100
AcDbEntity
  8
ASSI
100
AcDbPolyline
 62
7
  6
CONTINUOUS
 90
9
 70
0
 10
-1.1376943971
 20
-1.8747640423
 10
-1.1497820337
 20
-1.8814433877
 10
-1.1733266035
 20
-1.897328758
 10
-1.1951163394
 20
-1.9161887231
 10
-1.2147410859
 20
-1.9378135565
 10
-1.2318297738
 20
-1.961912916
 10
-1.2461041898
 20
-1.9881853976
 10
-1.2573589875
 20
-2.0163431108
 10
-1.2628437276
 20
-2.0349806138
  0
LINE
  5
2F2
100
AcDbEntity
  8
RACCORDO
100
AcDbLine
 62
7
  6
CONTINUOUS
 10
-1.1379965542
 20
-1.8749195497
 11
-1.1409336467
 21
-1.8764641074
  0
LINE
  5
2F3
100
AcDbEntity
  8
ASSI
100
AcDbLine
 62
7
  6
CONTINUOUS
 10
-0.8752083623
 20
-1.7389384031
 11
-1.1380773742
 21
-1.8749607271
  0
LINE
  5
2F4
100
AcDbEntity
  8
0
100
AcDbLine
 62
7
  6
CONTINUOUS
 10
-0.87520755
 20
-1.7389388092
 11
-1.1380775376
 21
-1.8749608117
  0
LINE
  5
2F5
100
AcDbEntity
  8
RACCORDO
100
AcDbLine
 62
250
  6
CONTINUOUS
 10
-1.002227363
 20
-1.8826189208
 11
-0.7985905112
 21
-1.7772473287
  0
LINE
  5
2F6
100
AcDbEntity
  8
ASSI
100
AcDbLine
 62
250
  6
CONTINUOUS
 10
-1.002227363
 20
-1.8826189208
 11
-0.7985905112
 21
-1.7772473287
  0
LINE
  5
2F7
100
AcDbEntity
  8
RACCORDO
100
AcDbLine
 62
7
  6
CONTINUOUS
 10
-1.1380027189
 20
-1.8749221327
 11
-1.138077537
 21
-1.8749608114
  0
LINE
  5
2F8
100
AcDbEntity
  8
ASSI
100
AcDbLine
 62
7
  6
CONTINUOUS
 10
-1.5230544696
 20
-2.412856279
 11
-1.524004999
 21
-2.4133459799
  0
LINE
  5
2F9
100
AcDbEntity
  8
RACCORDO
100
AcDbLine
 62
7
  6
CONTINUOUS
 10
-1.524004999
 20
-2.4133459799
 11
-1.5245413575
 21
-2.4136212048
  0
LWPOLYLINE
  5
2FA
100
AcDbEntity
  8
ASSI
100
AcDbPolyline
 62
250
  6
CONTINUOUS
 90
50
 70
0
 10
-1.524004999
 20
-2.4133459799
 10
-1.5310215453
 20
-2.4168842388
 10
-1.5627589339
 20
-2.4312726909
 10
-1.5954685715
 20
-2.4435213246
 10
-1.6291289028
 20
-2.4536239063
 10
-1.6636941622
 20
-2.4615634201
 10
-1.6990956351
 20
-2.4673208539
 10
-1.7352781379
 20
-2.4708852772
 10
-1.7721873566
 20
-2.4722480927
 10
-1.809754329
 20
-2.4714034928
 10
-1.8478992991
 20
-2.4683526939
 10
-1.8865525091
 20
-2.4631020428
 10
-1.9256518436
 20
-2.4556606061
 10
-1.9651268003
 20
-2.446042961
 10
-2.0049070782
 20
-2.4342675254
 10
-2.0449270212
 20
-2.4203548396
 10
-2.0851223351
 20
-2.404328256
 10
-2.1254239241
 20
-2.38621587
 10
-2.165763272
 20
-2.3660488051
 10
-2.2060767914
 20
-2.3438588637
 10
-2.2462961488
 20
-2.3196833713
 10
-2.2863520707
 20
-2.293563432
 10
-2.3261797212
 20
-2.2655402366
 10
-2.365713606
 20
-2.2356588311
 10
-2.4048832666
 20
-2.2039711538
 10
-2.4436171665
 20
-2.1705334889
 10
-2.4818535337
 20
-2.1353985847
 10
-2.5195222279
 20
-2.0986300253
 10
-2.5565413532
 20
-2.0603073798
 10
-2.5928423756
 20
-2.0205049526
 10
-2.6283704844
 20
-1.9792860174
 10
-2.6630670301
 20
-1.9367190872
 10
-2.6968632284
 20
-1.892892153
 10
-2.7297134751
 20
-1.847867888
 10
-2.7615932081
 20
-1.8016760681
 10
-2.7924518962
 20
-1.7543840143
 10
-2.8222283755
 20
-1.7060792627
 10
-2.8508800742
 20
-1.6568203359
 10
-2.8783707947
 20
-1.6066571893
 10
-2.9046307977
 20
-1.5557042495
 10
-2.9295739239
 20
-1.5041214876
 10
-2.9531616607
 20
-1.4519912267
 10
-2.9753513075
 20
-1.3994109379
 10
-2.9960674551
 20
-1.3465698359
 10
-3.0152837419
 20
-1.2935614537
 10
-3.0329774966
 20
-1.2404771873
 10
-3.0490992432
 20
-1.1875051323
 10
-3.0636313159
 20
-1.1347675807
 10
-3.0765787011
 20
-1.0823200026
 10
-3.0879387097
 20
-1.0302478586
  0
LWPOLYLINE
  5
2FB
100
AcDbEntity
  8
RACCORDO
100
AcDbPolyline
 62
250
  6
CONTINUOUS
 90
3
 70
0
 10
-1.5245413575
 20
-2.4136212048
 10
-1.5310215453
 20
-2.4168842388
 10
-1.5627589339
 20
-2.4312726909
  0
LWPOLYLINE
  5
2FC
100
AcDbEntity
  8
RACCORDO
100
AcDbPolyline
 62
250
  6
CONTINUOUS
 90
48
 70
0
 10
-1.5627589339
 20
-2.4312726909
 10
-1.5954685715
 20
-2.4435213246
 10
-1.6291289028
 20
-2.4536239063
 10
-1.6636941622
 20
-2.4615634201
 10
-1.6990956351
 20
-2.4673208539
 10
-1.7352781379
 20
-2.4708852772
 10
-1.7721873566
 20
-2.4722480927
 10
-1.809754329
 20
-2.4714034928
 10
-1.8478992991
 20
-2.4683526939
 10
-1.8865525091
 20
-2.4631020428
 10
-1.9256518436
 20
-2.4556606061
 10
-1.9651268003
 20
-2.446042961
 10
-2.0049070782
 20
-2.4342675254
 10
-2.0449270212
 20
-2.4203548396
 10
-2.0851223351
 20
-2.404328256
 10
-2.1254239241
 20
-2.38621587
 10
-2.165763272
 20
-2.3660488051
 10
-2.2060767914
 20
-2.3438588637
 10
-2.2462961488
 20
-2.3196833713
 10
-2.2863520707
 20
-2.293563432
 10
-2.3261797212
 20
-2.2655402366
 10
-2.365713606
 20
-2.2356588311
 10
-2.4048832666
 20
-2.2039711538
 10
-2.4436171665
 20
-2.1705334889
 10
-2.4818535337
 20
-2.1353985847
 10
-2.5195222279
 20
-2.0986300253
 10
-2.5565413532
 20
-2.0603073798
 10
-2.5928423756
 20
-2.0205049526
 10
-2.6283704844
 20
-1.9792860174
 10
-2.6630670301
 20
-1.9367190872
 10
-2.6968632284
 20
-1.892892153
 10
-2.7297134751
 20
-1.847867888
 10
-2.7615932081
 20
-1.8016760681
 10
-2.7924518962
 20
-1.7543840143
 10
-2.8222283755
 20
-1.7060792627
 10
-2.8508800742
 20
-1.6568203359
 10
-2.8783707947
 20
-1.6066571893
 10
-2.9046307977
 20
-1.5557042495
 10
-2.9295739239
 20
-1.5041214876
 10
-2.9531616607
 20
-1.4519912267
 10
-2.9753513075
 20
-1.3994109379
 10
-2.9960674551
 20
-1.3465698359
 10
-3.0152837419
 20
-1.2935614537
 10
-3.0329774966
 20
-1.2404771873
 10
-3.0490992432
 20
-1.1875051323
 10
-3.0636313159
 20
-1.1347675807
 10
-3.0765787011
 20
-1.0823200026
 10
-3.0879387097
 20
-1.0302478586
  0
LWPOLYLINE
  5
2FD
100
AcDbEntity
  8
RACCORDO
100
AcDbPolyline
 62
7
  6
CONTINUOUS
 90
45
 70
0
 10
-2.698361801
 20
0.0790732123
 10
-2.6662409115
 20
0.0873328949
 10
-2.6335784891
 20
0.0930985579
 10
-2.6001566002
 20
0.0965070258
 10
-2.5660193257
 20
0.0976076319
 10
-2.5313080884
 20
0.0964542194
 10
-2.4959325668
 20
0.0930848898
 10
-2.4599920559
 20
0.0875339465
 10
-2.423603744
 20
0.0798500604
 10
-2.386678935
 20
0.0700287626
 10
-2.3493172272
 20
0.0580987908
 10
-2.3116262658
 20
0.0441018929
 10
-2.273499683
 20
0.0279904231
 10
-2.2349977816
 20
0.0097672669
 10
-2.1962506107
 20
-0.0105241236
 10
-2.157236193
 20
-0.0329196067
 10
-2.1180196053
 20
-0.0574139782
 10
-2.0787202172
 20
-0.0839607598
 10
-2.0393872703
 20
-0.1125565412
 10
-2.000096242
 20
-0.1431787913
 10
-1.9609529227
 20
-0.175773482
 10
-1.9220455427
 20
-0.210295327
 10
-1.8834565979
 20
-0.2466987085
 10
-1.8452787464
 20
-0.2849198328
 10
-1.8076095507
 20
-0.3248840763
 10
-1.7705329888
 20
-0.3665236811
 10
-1.7341296551
 20
-0.4097653408
 10
-1.6984865259
 20
-0.4545232119
 10
-1.663680254
 20
-0.5007176926
 10
-1.6297854152
 20
-0.5482621184
 10
-1.5968810679
 20
-0.597057899
 10
-1.5650357304
 20
-0.6470152246
 10
-1.534315929
 20
-0.6980367438
 10
-1.5047930329
 20
-0.7500102661
 10
-1.476526995
 20
-0.8028358762
 10
-1.449573362
 20
-0.8564099582
 10
-1.4239920293
 20
-0.9106124069
 10
-1.3998324287
 20
-0.9653364779
 10
-1.3771385493
 20
-1.0204734138
 10
-1.3559571561
 20
-1.0758978518
 10
-1.3363261358
 20
-1.1314975595
 10
-1.3182758121
 20
-1.1871657035
 10
-1.3018368031
 20
-1.2427830368
 10
-1.2870343476
 20
-1.2982359756
 10
-1.2738869721
 20
-1.3534104978
  0
LINE
  5
2FE
100
AcDbEntity
  8
RACCORDO
100
AcDbLine
 62
7
  6
CONTINUOUS
 10
9.3569171897
 20
-3.1303758865
 11
9.4857297801
 21
-3.1947821818
  0
LINE
  5
2FF
100
AcDbEntity
  8
ASSI
100
AcDbLine
 62
7
  6
CONTINUOUS
 10
9.3569171897
 20
-3.1303758865
 11
9.4857297801
 21
-3.1947821818
  0
LINE
  5
300
100
AcDbEntity
  8
RACCORDO
100
AcDbLine
 62
250
  6
CONTINUOUS
 10
3.3991419728
 20
18.1081241787
 11
3.3991419728
 21
18.0533041981
  0
LINE
  5
301
100
AcDbEntity
  8
ASSI
100
AcDbLine
 62
250
  6
CONTINUOUS
 10
3.3991419728
 20
18.1081241787
 11
3.3991419728
 21
18.0533041981
  0
LWPOLYLINE
  5
302
100
AcDbEntity
  8
RACCORDO
100
AcDbPolyline
 62
250
  6
CONTINUOUS
 90
37
 70
0
 10
6.1837547871
 20
-22.631327235
 10
6.1855836371
 20
-22.6659935701
 10
6.1886063136
 20
-22.6998495475
 10
6.1928228165
 20
-22.7328951672
 10
6.1982442195
 20
-22.7651843909
 10
6.204859449
 20
-22.7966632569
 10
6.212635284
 20
-22.8271698806
 10
6.2215776816
 20
-22.8566986058
 10
6.2316806848
 20
-22.8852550886
 10
6.2428932018
 20
-22.9126944138
 10
6.2552207195
 20
-22.9390104754
 10
6.2686577511
 20
-22.9642093793
 10
6.2831367444
 20
-22.9881645272
 10
6.2986629154
 20
-23.0108697232
 10
6.3152310481
 20
-23.0323311632
 10
6.3327579427
 20
-23.0524408371
 10
6.3512485675
 20
-23.0711920605
 10
6.3706979542
 20
-23.0885915177
 10
6.3910079989
 20
-23.1045512519
 10
6.4121830941
 20
-23.1190639429
 10
6.4342188473
 20
-23.1321369108
 10
6.4570039768
 20
-23.1437041593
 10
6.4805421132
 20
-23.153758006
 10
6.504829626
 20
-23.1623061333
 10
6.5297443421
 20
-23.1693055915
 10
6.5552893809
 20
-23.1747486251
 10
6.5814616231
 20
-23.1786429896
 10
6.6081295386
 20
-23.180969003
 10
6.6352960591
 20
-23.1817186857
 10
6.6629582529
 20
-23.1809000172
 10
6.690975794
 20
-23.1785172538
 10
6.7193508049
 20
-23.1745621953
 10
6.7480811632
 20
-23.1690430419
 10
6.7770201758
 20
-23.1619886503
 10
6.806118945
 20
-23.1534086395
 10
6.8354263686
 20
-23.1432933904
 10
6.8649424464
 20
-23.1316429031
  0
LWPOLYLINE
  5
303
100
AcDbEntity
  8
ASSI
100
AcDbPolyline
 62
250
  6
CONTINUOUS
 90
37
 70
0
 10
6.1837547871
 20
-22.631327235
 10
6.1855836371
 20
-22.6659935701
 10
6.1886063136
 20
-22.6998495475
 10
6.1928228165
 20
-22.7328951672
 10
6.1982442195
 20
-22.7651843909
 10
6.204859449
 20
-22.7966632569
 10
6.212635284
 20
-22.8271698806
 10
6.2215776816
 20
-22.8566986058
 10
6.2316806848
 20
-22.8852550886
 10
6.2428932018
 20
-22.9126944138
 10
6.2552207195
 20
-22.9390104754
 10
6.2686577511
 20
-22.9642093793
 10
6.2831367444
 20
-22.9881645272
 10
6.2986629154
 20
-23.0108697232
 10
6.3152310481
 20
-23.0323311632
 10
6.3327579427
 20
-23.0524408371
 10
6.3512485675
 20
-23.0711920605
 10
6.3706979542
 20
-23.0885915177
 10
6.3910079989
 20
-23.1045512519
 10
6.4121830941
 20
-23.1190639429
 10
6.4342188473
 20
-23.1321369108
 10
6.4570039768
 20
-23.1437041593
 10
6.4805421132
 20
-23.153758006
 10
6.504829626
 20
-23.1623061333
 10
6.5297443421
 20
-23.1693055915
 10
6.5552893809
 20
-23.1747486251
 10
6.5814616231
 20
-23.1786429896
 10
6.6081295386
 20
-23.180969003
 10
6.6352960591
 20
-23.1817186857
 10
6.6629582529
 20
-23.1809000172
 10
6.690975794
 20
-23.1785172538
 10
6.7193508049
 20
-23.1745621953
 10
6.7480811632
 20
-23.1690430419
 10
6.7770201758
 20
-23.1619886503
 10
6.806118945
 20
-23.1534086395
 10
6.8354263686
 20
-23.1432933904
 10
6.8649424464
 20
-23.1316429031
  0
LWPOLYLINE
  5
304
100
AcDbEntity
  8
RACCORDO
100
AcDbPolyline
 62
250
  6
CONTINUOUS
 90
21
 70
0
 10
5.4831706995
 20
-22.64590959
 10
5.4858828466
 20
-22.6977827803
 10
5.4903950447
 20
-22.7485974387
 10
5.496699833
 20
-22.7982680343
 10
5.504786909
 20
-22.84671082
 10
5.5146427017
 20
-22.8938444543
 10
5.5262504854
 20
-22.9395900667
 10
5.539591405
 20
-22.9838714121
 10
5.5546431023
 20
-23.0266131328
 10
5.5713791848
 20
-23.067741493
 10
5.5897715525
 20
-23.1071869029
 10
5.6097896984
 20
-23.1448837679
 10
5.631399379
 20
-23.180768712
 10
5.6545647497
 20
-23.2147815731
 10
5.6792471662
 20
-23.2468652184
 10
5.7054044105
 20
-23.276965433
 10
5.7329932843
 20
-23.3050319342
 10
5.7619676637
 20
-23.3310173868
 10
5.7922773714
 20
-23.3548771489
 10
5.8238720434
 20
-23.3765713536
 10
5.856699025
 20
-23.3960637165
  0
LWPOLYLINE
  5
305
100
AcDbEntity
  8
ASSI
100
AcDbPolyline
 62
250
  6
CONTINUOUS
 90
22
 70
0
 10
5.4831706995
 20
-22.64590959
 10
5.4858828466
 20
-22.6977827803
 10
5.4903950447
 20
-22.7485974387
 10
5.496699833
 20
-22.7982680343
 10
5.504786909
 20
-22.84671082
 10
5.5146427017
 20
-22.8938444543
 10
5.5262504854
 20
-22.9395900667
 10
5.539591405
 20
-22.9838714121
 10
5.5546431023
 20
-23.0266131328
 10
5.5713791848
 20
-23.067741493
 10
5.5897715525
 20
-23.1071869029
 10
5.6097896984
 20
-23.1448837679
 10
5.631399379
 20
-23.180768712
 10
5.6545647497
 20
-23.2147815731
 10
5.6792471662
 20
-23.2468652184
 10
5.7054044105
 20
-23.276965433
 10
5.7329932843
 20
-23.3050319342
 10
5.7619676637
 20
-23.3310173868
 10
5.7922773714
 20
-23.3548771489
 10
5.8238720434
 20
-23.3765713536
 10
5.856699025
 20
-23.3960637165
 10
5.8756273094
 20
-23.4060190584
  0
LINE
  5
306
100
AcDbEntity
  8
DRAFT
100
AcDbLine
 62
7
  6
CONTINUOUS
 10
3.580672457
 20
18.4744329974
 11
3.5979805655
 21
17.9334555574
  0
LINE
  5
307
100
AcDbEntity
  8
ASSI
100
AcDbLine
 62
7
  6
CONTINUOUS
 10
3.580672457
 20
18.4744329974
 11
3.5979805655
 21
17.9334555574
  0
LWPOLYLINE
  5
308
100
AcDbEntity
  8
RACCORDO
100
AcDbPolyline
 62
250
  6
CONTINUOUS
 90
13
 70
0
 10
5.1789409436
 20
-4.683706979
 10
5.1793250353
 20
-4.6963928647
 10
5.1804898262
 20
-4.7086177826
 10
5.1824288687
 20
-4.7203140629
 10
5.1851314291
 20
-4.7314169623
 10
5.1885825475
 20
-4.7418650214
 10
5.1927631201
 20
-4.7516004058
 10
5.1976500054
 20
-4.7605692263
 10
5.2032161523
 20
-4.7687218372
 10
5.2094307493
 20
-4.7760131106
 10
5.2162593959
 20
-4.7824026867
 10
5.2236642925
 20
-4.7878551972
 10
5.2308614636
 20
-4.7919732846
  0
LWPOLYLINE
  5
309
100
AcDbEntity
  8
ASSI
100
AcDbPolyline
 62
250
  6
CONTINUOUS
 90
13
 70
0
 10
5.1789409436
 20
-4.683706979
 10
5.1793250353
 20
-4.6963928647
 10
5.1804898262
 20
-4.7086177826
 10
5.1824288687
 20
-4.7203140629
 10
5.1851314291
 20
-4.7314169623
 10
5.1885825475
 20
-4.7418650214
 10
5.1927631201
 20
-4.7516004058
 10
5.1976500054
 20
-4.7605692263
 10
5.2032161523
 20
-4.7687218372
 10
5.2094307493
 20
-4.7760131106
 10
5.2162593959
 20
-4.7824026867
 10
5.2236642925
 20
-4.7878551972
 10
5.2304270993
 20
-4.7917538661
  0
LWPOLYLINE
  5
30A
100
AcDbEntity
  8
ASSI
100
AcDbPolyline
 62
250
  6
CONTINUOUS
 90
12
 70
0
 10
5.1818215044
 20
-6.7446505735
 10
5.1887979568
 20
-8.2005710416
 10
5.1998583013
 20
-9.6544485481
 10
5.2150015825
 20
-11.106255316
 10
5.2342278541
 20
-12.555986438
 10
5.2575384881
 20
-14.0036597163
 10
5.2849336738
 20
-15.4492597591
 10
5.3164126709
 20
-16.8927690991
 10
5.3519759247
 20
-18.3342021792
 10
5.3916235938
 20
-19.7735527549
 10
5.4353552632
 20
-21.2107940475
 10
5.4831707076
 20
-22.6459095942
  0
LWPOLYLINE
  5
30B
100
AcDbEntity
  8
RACCORDO
100
AcDbPolyline
 62
250
  6
CONTINUOUS
 90
13
 70
0
 10
5.1789292956
 20
-5.2867035404
 10
5.1818215044
 20
-6.7446505735
 10
5.1887979568
 20
-8.2005710416
 10
5.1998583013
 20
-9.6544485481
 10
5.2150015825
 20
-11.106255316
 10
5.2342278541
 20
-12.555986438
 10
5.2575384881
 20
-14.0036597163
 10
5.2849336738
 20
-15.4492597591
 10
5.3164126709
 20
-16.8927690991
 10
5.3519759247
 20
-18.3342021792
 10
5.3916235938
 20
-19.7735527549
 10
5.4353552632
 20
-21.2107940475
 10
5.4831707076
 20
-22.6459095942
  0
LINE
  5
30C
100
AcDbEntity
  8
ASSI
100
AcDbLine
 62
250
  6
CONTINUOUS
 10
5.1789292956
 20
-5.2867035404
 11
5.1818215044
 21
-6.7446505735
  0
LWPOLYLINE
  5
30D
100
AcDbEntity
  8
RACCORDO
100
AcDbPolyline
 62
250
  6
CONTINUOUS
 90
13
 70
0
 10
5.4831707076
 20
12.9692947765
 10
5.4353552632
 20
11.4880027905
 10
5.3916235938
 20
10.0085288391
 10
5.3519759247
 20
8.5308896101
 10
5.3164126709
 20
7.0551122972
 10
5.2849336738
 20
5.5812029864
 10
5.2575384881
 20
4.10914679
 10
5.2342278541
 20
2.6389610603
 10
5.2150015825
 20
1.1706618552
 10
5.1998583013
 20
-0.2957674323
 10
5.1887979568
 20
-1.7603210928
 10
5.1818215043
 20
-3.2229712498
 10
5.1789292955
 20
-4.683701155
  0
LWPOLYLINE
  5
30E
100
AcDbEntity
  8
ASSI
100
AcDbPolyline
 62
250
  6
CONTINUOUS
 90
13
 70
0
 10
5.4831707076
 20
12.9692947765
 10
5.4353552632
 20
11.4880027905
 10
5.3916235938
 20
10.0085288391
 10
5.3519759247
 20
8.5308896101
 10
5.3164126709
 20
7.0551122972
 10
5.2849336738
 20
5.5812029864
 10
5.2575384881
 20
4.10914679
 10
5.2342278541
 20
2.6389610603
 10
5.2150015825
 20
1.1706618552
 10
5.1998583013
 20
-0.2957674323
 10
5.1887979568
 20
-1.7603210928
 10
5.1818215043
 20
-3.2229712498
 10
5.1789292955
 20
-4.683701155
  0
LWPOLYLINE
  5
30F
100
AcDbEntity
  8
RACCORDO
100
AcDbPolyline
 62
250
  6
CONTINUOUS
 90
22
 70
0
 10
5.8798222554
 20
-5.2874199058
 10
5.8793400502
 20
-5.2743221851
 10
5.8780837271
 20
-5.2608954922
 10
5.8760603109
 20
-5.2472149004
 10
5.8732811155
 20
-5.2333569023
 10
5.8697616804
 20
-5.2193989828
 10
5.8655216845
 20
-5.2054191862
 10
5.8605848353
 20
-5.1914956781
 10
5.8549787367
 20
-5.1777063094
 10
5.8487347347
 20
-5.1641281816
 10
5.841887742
 20
-5.1508372143
 10
5.8344760427
 20
-5.1379077214
 10
5.8265410786
 20
-5.1254119961
 10
5.818127217
 20
-5.1134199057
 10
5.8092815027
 20
-5.1019985015
 10
5.8000533955
 20
-5.0912116439
 10
5.7904944928
 20
-5.0811196453
 10
5.7806582416
 20
-5.0717789325
 10
5.7705996398
 20
-5.0632417319
 10
5.7603749282
 20
-5.0555557769
 10
5.7500412763
 20
-5.0487640414
 10
5.7396564629
 20
-5.0429044994
  0
LWPOLYLINE
  5
310
100
AcDbEntity
  8
ASSI
100
AcDbPolyline
 62
250
  6
CONTINUOUS
 90
22
 70
0
 10
5.8798222554
 20
-5.2874199058
 10
5.8793400502
 20
-5.2743221851
 10
5.8780837271
 20
-5.2608954922
 10
5.8760603109
 20
-5.2472149004
 10
5.8732811155
 20
-5.2333569023
 10
5.8697616804
 20
-5.2193989828
 10
5.8655216845
 20
-5.2054191862
 10
5.8605848353
 20
-5.1914956781
 10
5.8549787367
 20
-5.1777063094
 10
5.8487347347
 20
-5.1641281816
 10
5.841887742
 20
-5.1508372143
 10
5.8344760427
 20
-5.1379077214
 10
5.8265410786
 20
-5.1254119961
 10
5.818127217
 20
-5.1134199057
 10
5.8092815027
 20
-5.1019985015
 10
5.8000533955
 20
-5.0912116439
 10
5.7904944928
 20
-5.0811196453
 10
5.7806582416
 20
-5.0717789325
 10
5.7705996398
 20
-5.0632417319
 10
5.7603749282
 20
-5.0555557769
 10
5.7500412763
 20
-5.0487640414
 10
5.7396564629
 20
-5.0429044994
  0
LWPOLYLINE
  5
311
100
AcDbEntity
  8
RACCORDO
100
AcDbPolyline
 62
250
  6
CONTINUOUS
 90
6
 70
0
 10
5.9856945084
 20
-15.4410010997
 10
6.0171442283
 20
-16.8832481485
 10
6.0526751085
 20
-18.3234059453
 10
6.0922871744
 20
-19.7614689606
 10
6.1359804006
 20
-21.1974427238
 10
6.1837547871
 20
-22.631327235
  0
LWPOLYLINE
  5
312
100
AcDbEntity
  8
ASSI
100
AcDbPolyline
 62
250
  6
CONTINUOUS
 90
6
 70
0
 10
5.9856945084
 20
-15.4410010997
 10
6.0171442283
 20
-16.8832481485
 10
6.0526751085
 20
-18.3234059453
 10
6.0922871744
 20
-19.7614689606
 10
6.1359804006
 20
-21.1974427238
 10
6.1837547871
 20
-22.631327235
  0
LWPOLYLINE
  5
313
100
AcDbEntity
  8
RACCORDO
100
AcDbPolyline
 62
250
  6
CONTINUOUS
 90
8
 70
0
 10
5.8798342117
 20
-5.2874140072
 10
5.8827085726
 20
-6.7441003284
 10
5.8896659665
 20
-8.1987299465
 10
5.9007063935
 20
-9.6513028615
 10
5.9158305031
 20
-11.1018243933
 10
5.9350376458
 20
-12.5502892221
 10
5.9583258726
 20
-13.9966813877
 10
5.9856945084
 20
-15.4410010997
  0
LWPOLYLINE
  5
314
100
AcDbEntity
  8
ASSI
100
AcDbPolyline
 62
250
  6
CONTINUOUS
 90
8
 70
0
 10
5.8798342117
 20
-5.2874140072
 10
5.8827085726
 20
-6.7441003284
 10
5.8896659665
 20
-8.1987299465
 10
5.9007063935
 20
-9.6513028615
 10
5.9158305031
 20
-11.1018243933
 10
5.9350376458
 20
-12.5502892221
 10
5.9583258726
 20
-13.9966813877
 10
5.9856945084
 20
-15.4410010997
  0
LWPOLYLINE
  5
315
100
AcDbEntity
  8
RACCORDO
100
AcDbPolyline
 62
250
  6
CONTINUOUS
 90
8
 70
0
 10
5.9856945084
 20
5.5667066695
 10
5.9583258726
 20
4.0959573731
 10
5.9350376458
 20
2.6270760283
 10
5.9158305031
 20
1.1600630775
 10
5.9007063935
 20
-0.3050636373
 10
5.8896659665
 20
-1.7682981686
 10
5.8827085726
 20
-3.2296464639
 10
5.8798342117
 20
-4.6891085232
  0
LWPOLYLINE
  5
316
100
AcDbEntity
  8
ASSI
100
AcDbPolyline
 62
250
  6
CONTINUOUS
 90
8
 70
0
 10
5.9856945084
 20
5.5667066695
 10
5.9583258726
 20
4.0959573731
 10
5.9350376458
 20
2.6270760283
 10
5.9158305031
 20
1.1600630775
 10
5.9007063935
 20
-0.3050636373
 10
5.8896659665
 20
-1.7682981686
 10
5.8827085726
 20
-3.2296464639
 10
5.8798342117
 20
-4.6891085232
  0
LWPOLYLINE
  5
317
100
AcDbEntity
  8
RACCORDO
100
AcDbPolyline
 62
250
  6
CONTINUOUS
 90
22
 70
0
 10
5.1789409436
 20
-5.2867093644
 10
5.1793250341
 20
-5.2736394055
 10
5.1804898218
 20
-5.2602497148
 10
5.1824288592
 20
-5.2466144096
 10
5.185131413
 20
-5.2328089666
 10
5.1885825234
 20
-5.2189098046
 10
5.1927630871
 20
-5.2049938609
 10
5.1976499632
 20
-5.1911381658
 10
5.2032161006
 20
-5.1774194162
 10
5.2094306888
 20
-5.1639135506
 10
5.2162593274
 20
-5.1506953296
 10
5.2236642172
 20
-5.1378379211
 10
5.2316043693
 20
-5.1254124961
 10
5.2400358316
 20
-5.1134878343
 10
5.2489119328
 20
-5.1021299434
 10
5.25818354
 20
-5.0914016939
 10
5.2677993312
 20
-5.0813624708
 10
5.2777060791
 20
-5.0720678454
 10
5.2878489461
 20
-5.0635692669
 10
5.2981717872
 20
-5.0559137786
 10
5.3086174615
 20
-5.0491437565
 10
5.3191281479
 20
-5.0432966753
  0
LWPOLYLINE
  5
318
100
AcDbEntity
  8
ASSI
100
AcDbPolyline
 62
250
  6
CONTINUOUS
 90
22
 70
0
 10
5.1789409436
 20
-5.2867093644
 10
5.1793250341
 20
-5.2736394055
 10
5.1804898218
 20
-5.2602497148
 10
5.1824288592
 20
-5.2466144096
 10
5.185131413
 20
-5.2328089666
 10
5.1885825234
 20
-5.2189098046
 10
5.1927630871
 20
-5.2049938609
 10
5.1976499632
 20
-5.1911381658
 10
5.2032161006
 20
-5.1774194162
 10
5.2094306888
 20
-5.1639135506
 10
5.2162593274
 20
-5.1506953296
 10
5.2236642172
 20
-5.1378379211
 10
5.2316043693
 20
-5.1254124961
 10
5.2400358316
 20
-5.1134878343
 10
5.2489119328
 20
-5.1021299434
 10
5.25818354
 20
-5.0914016939
 10
5.2677993312
 20
-5.0813624708
 10
5.2777060791
 20
-5.0720678454
 10
5.2878489461
 20
-5.0635692669
 10
5.2981717872
 20
-5.0559137786
 10
5.3086174615
 20
-5.0491437565
 10
5.3191281479
 20
-5.0432966753
  0
LWPOLYLINE
  5
319
100
AcDbEntity
  8
RACCORDO
100
AcDbPolyline
 62
250
  6
CONTINUOUS
 90
6
 70
0
 10
6.1837547871
 20
12.9482973927
 10
6.1359804006
 20
11.4682776928
 10
6.0922871744
 20
9.9901098715
 10
6.0526751085
 20
8.5137939289
 10
6.0171442283
 20
7.0393243598
 10
5.9856945084
 20
5.5667066695
  0
LWPOLYLINE
  5
31A
100
AcDbEntity
  8
ASSI
100
AcDbPolyline
 62
250
  6
CONTINUOUS
 90
6
 70
0
 10
6.1837547871
 20
12.9482973927
 10
6.1359804006
 20
11.4682776928
 10
6.0922871744
 20
9.9901098715
 10
6.0526751085
 20
8.5137939289
 10
6.0171442283
 20
7.0393243598
 10
5.9856945084
 20
5.5667066695
  0
LWPOLYLINE
  5
31B
100
AcDbEntity
  8
RACCORDO
100
AcDbPolyline
 62
250
  6
CONTINUOUS
 90
13
 70
0
 10
5.8798222554
 20
-4.6891141706
 10
5.8793400517
 20
-4.701900244
 10
5.8780837323
 20
-4.7142126203
 10
5.876060322
 20
-4.7259824571
 10
5.8732811341
 20
-4.7371439454
 10
5.869761708
 20
-4.7476346778
 10
5.865521722
 20
-4.7573959971
 10
5.8605848832
 20
-4.7663733248
 10
5.8549787951
 20
-4.7745164656
 10
5.848734803
 20
-4.7817798887
 10
5.8418878192
 20
-4.788122982
 10
5.8344761273
 20
-4.7935102791
 10
5.8263619905
 20
-4.7979967615
  0
LWPOLYLINE
  5
31C
100
AcDbEntity
  8
ASSI
100
AcDbPolyline
 62
250
  6
CONTINUOUS
 90
13
 70
0
 10
5.8798222554
 20
-4.6891141706
 10
5.8793400517
 20
-4.701900244
 10
5.8780837323
 20
-4.7142126203
 10
5.876060322
 20
-4.7259824571
 10
5.8732811341
 20
-4.7371439454
 10
5.869761708
 20
-4.7476346778
 10
5.865521722
 20
-4.7573959971
 10
5.8605848832
 20
-4.7663733248
 10
5.8549787951
 20
-4.7745164656
 10
5.848734803
 20
-4.7817798887
 10
5.8418878192
 20
-4.788122982
 10
5.8344761273
 20
-4.7935102791
 10
5.8269680408
 20
-4.7977065087
  0
LINE
  5
31D
100
AcDbEntity
  8
ASSI
100
AcDbLine
 62
250
  6
CONTINUOUS
 10
5.8269680408
 20
-4.7977065087
 11
5.826309193
 21
-4.7980217256
  0
LINE
  5
31E
100
AcDbEntity
  8
RACCORDO
100
AcDbLine
 62
250
  6
CONTINUOUS
 10
5.8798342117
 20
-4.6891085232
 11
9.6271511372
 21
-2.9191024834
  0
LINE
  5
31F
100
AcDbEntity
  8
ASSI
100
AcDbLine
 62
250
  6
CONTINUOUS
 10
5.8798342117
 20
-4.6891085232
 11
9.6271511372
 21
-2.9191024834
  0
LINE
  5
320
100
AcDbEntity
  8
RACCORDO
100
AcDbLine
 62
7
  6
CONTINUOUS
 10
5.826309193
 20
-4.7980217256
 11
9.5736715846
 21
-3.0279942103
  0
LINE
  5
321
100
AcDbEntity
  8
ASSI
100
AcDbLine
 62
7
  6
CONTINUOUS
 10
5.826309193
 20
-4.7980217256
 11
9.5736715846
 21
-3.0279942103
  0
LINE
  5
322
100
AcDbEntity
  8
ASSI
100
AcDbLine
 62
7
  6
CONTINUOUS
 10
5.7833781189
 20
-4.8160228265
 11
5.8269678515
 21
-4.7977061116
  0
LWPOLYLINE
  5
323
100
AcDbEntity
  8
RACCORDO
100
AcDbPolyline
 62
7
  6
CONTINUOUS
 90
4
 70
0
 10
5.7649385503
 20
-4.8225020639
 10
5.7898754641
 20
-4.8135729056
 10
5.814330393
 20
-4.8034912384
 10
5.8263618041
 20
-4.7979963671
  0
LINE
  5
324
100
AcDbEntity
  8
CURVE
100
AcDbLine
 62
250
  6
CONTINUOUS
 10
-5.3840083654
 20
9.908030496
 11
0.9799526653
 21
6.7260499807
  0
LWPOLYLINE
  5
325
100
AcDbEntity
  8
RACCORDO
100
AcDbPolyline
 62
250
  6
CONTINUOUS
 90
28
 70
0
 10
6.8649424464
 20
14.106428337
 10
6.863261807
 20
14.1313324935
 10
6.8604129623
 20
14.1567602778
 10
6.8564055407
 20
14.1826257504
 10
6.8512530861
 20
14.2088414925
 10
6.8449730125
 20
14.2353189016
 10
6.8375865448
 20
14.2619684907
 10
6.8291186474
 20
14.2887001908
 10
6.8195979395
 20
14.3154236556
 10
6.8090565987
 20
14.3420485664
 10
6.7975302519
 20
14.3684849376
 10
6.7850578553
 20
14.3946434208
 10
6.7716815625
 20
14.420435607
 10
6.7574465817
 20
14.4457743249
 10
6.7424010238
 20
14.4705739358
 10
6.7265957389
 20
14.4947506233
 10
6.7100841448
 20
14.518222676
 10
6.6929220467
 20
14.5409107642
 10
6.6751674482
 20
14.5627382076
 10
6.6568803553
 20
14.583631235
 10
6.6381225739
 20
14.6035192329
 10
6.6189575007
 20
14.6223349848
 10
6.5994499089
 20
14.6400148979
 10
6.5796657292
 20
14.6564992187
 10
6.5596718275
 20
14.6717322339
 10
6.5395357782
 20
14.6856624597
 10
6.5193256361
 20
14.6982428155
 10
6.4991097064
 20
14.7094307827
  0
LWPOLYLINE
  5
326
100
AcDbEntity
  8
ASSI
100
AcDbPolyline
 62
250
  6
CONTINUOUS
 90
28
 70
0
 10
6.8649424464
 20
14.106428337
 10
6.863261807
 20
14.1313324935
 10
6.8604129623
 20
14.1567602778
 10
6.8564055407
 20
14.1826257504
 10
6.8512530861
 20
14.2088414925
 10
6.8449730125
 20
14.2353189016
 10
6.8375865448
 20
14.2619684907
 10
6.8291186474
 20
14.2887001908
 10
6.8195979395
 20
14.3154236556
 10
6.8090565987
 20
14.3420485664
 10
6.7975302519
 20
14.3684849376
 10
6.7850578553
 20
14.3946434208
 10
6.7716815625
 20
14.420435607
 10
6.7574465817
 20
14.4457743249
 10
6.7424010238
 20
14.4705739358
 10
6.7265957389
 20
14.4947506233
 10
6.7100841448
 20
14.518222676
 10
6.6929220467
 20
14.5409107642
 10
6.6751674482
 20
14.5627382076
 10
6.6568803553
 20
14.583631235
 10
6.6381225739
 20
14.6035192329
 10
6.6189575007
 20
14.6223349848
 10
6.5994499089
 20
14.6400148979
 10
6.5796657292
 20
14.6564992187
 10
6.5596718275
 20
14.6717322339
 10
6.5395357782
 20
14.6856624597
 10
6.5193256361
 20
14.6982428155
 10
6.4991097064
 20
14.7094307827
  0
LWPOLYLINE
  5
327
100
AcDbEntity
  8
RACCORDO
100
AcDbPolyline
 62
250
  6
CONTINUOUS
 90
17
 70
0
 10
6.8649424464
 20
-23.1316429031
 10
6.8632618063
 20
-23.1569954415
 10
6.8604129603
 20
-23.1816544973
 10
6.8564055368
 20
-23.2055367291
 10
6.8512530799
 20
-23.2285614209
 10
6.8449730036
 20
-23.250650755
 10
6.8375865331
 20
-23.2717300749
 10
6.8291186326
 20
-23.2917281379
 10
6.8195979217
 20
-23.3105773554
 10
6.809056578
 20
-23.3282140219
 10
6.7975302285
 20
-23.3445785296
 10
6.7850578295
 20
-23.3596155708
 10
6.7716815345
 20
-23.3732743239
 10
6.7574465522
 20
-23.3855086258
 10
6.7424009931
 20
-23.3962771276
 10
6.7265957076
 20
-23.4055434344
 10
6.711135201
 20
-23.4128386015
  0
LWPOLYLINE
  5
328
100
AcDbEntity
  8
ASSI
100
AcDbPolyline
 62
250
  6
CONTINUOUS
 90
17
 70
0
 10
6.8649424464
 20
-23.1316429031
 10
6.8632618063
 20
-23.1569954415
 10
6.8604129603
 20
-23.1816544973
 10
6.8564055368
 20
-23.2055367291
 10
6.8512530799
 20
-23.2285614209
 10
6.8449730036
 20
-23.250650755
 10
6.8375865331
 20
-23.2717300749
 10
6.8291186326
 20
-23.2917281379
 10
6.8195979217
 20
-23.3105773554
 10
6.809056578
 20
-23.3282140219
 10
6.7975302285
 20
-23.3445785296
 10
6.7850578295
 20
-23.3596155708
 10
6.7716815345
 20
-23.3732743239
 10
6.7574465522
 20
-23.3855086258
 10
6.7424009931
 20
-23.3962771276
 10
6.7265957076
 20
-23.4055434344
 10
6.711135201
 20
-23.4128386015
  0
LINE
  5
329
100
AcDbEntity
  8
RACCORDO
100
AcDbLine
 62
250
  6
CONTINUOUS
 10
9.4857297801
 20
-3.1947821818
 11
5.7396564629
 21
-5.0429044994
  0
LINE
  5
32A
100
AcDbEntity
  8
ASSI
100
AcDbLine
 62
250
  6
CONTINUOUS
 10
9.4857297801
 20
-3.1947821818
 11
5.7396564629
 21
-5.0429044994
  0
LINE
  5
32B
100
AcDbEntity
  8
RACCORDO
100
AcDbLine
 62
250
  6
CONTINUOUS
 10
9.6271511372
 20
-3.4386781564
 11
5.8798342117
 21
-5.2874140072
  0
LINE
  5
32C
100
AcDbEntity
  8
ASSI
100
AcDbLine
 62
250
  6
CONTINUOUS
 10
9.6271511372
 20
-3.4386781564
 11
5.8798342117
 21
-5.2874140072
  0
LWPOLYLINE
  5
32D
100
AcDbEntity
  8
RACCORDO
100
AcDbPolyline
 62
250
  6
CONTINUOUS
 90
31
 70
0
 10
5.7396564629
 20
-5.0429044994
 10
5.7281619659
 20
-5.0482875543
 10
5.7162038605
 20
-5.0533422158
 10
5.7037821466
 20
-5.0580684836
 10
5.6908607602
 20
-5.0624775061
 10
5.6774757654
 20
-5.0665581349
 10
5.6637353542
 20
-5.0702769258
 10
5.6496367035
 20
-5.0736308339
 10
5.6351826365
 20
-5.076622904
 10
5.6204898142
 20
-5.0792288261
 10
5.6055567437
 20
-5.081445373
 10
5.5903849178
 20
-5.0832757718
 10
5.5750954769
 20
-5.0847053942
 10
5.5596872826
 20
-5.0857310496
 10
5.5441614731
 20
-5.0863559285
 10
5.5286426039
 20
-5.0865749741
 10
5.5131306831
 20
-5.0863848953
 10
5.4976257027
 20
-5.0857889833
 10
5.4822521934
 20
-5.0847920543
 10
5.4670114493
 20
-5.0833909103
 10
5.4519021765
 20
-5.0815887493
 10
5.4370450231
 20
-5.0793999821
 10
5.4224415962
 20
-5.0768213802
 10
5.4080902888
 20
-5.073856172
 10
5.3941069282
 20
-5.0705284532
 10
5.3804944624
 20
-5.0668351794
 10
5.3672499434
 20
-5.062779395
 10
5.3544803541
 20
-5.0583943294
 10
5.3422213556
 20
-5.0536910592
 10
5.3304372869
 20
-5.0486585079
 10
5.3191281479
 20
-5.0432966753
  0
LWPOLYLINE
  5
32E
100
AcDbEntity
  8
ASSI
100
AcDbPolyline
 62
250
  6
CONTINUOUS
 90
31
 70
0
 10
5.7396564629
 20
-5.0429044994
 10
5.7281619659
 20
-5.0482875543
 10
5.7162038605
 20
-5.0533422158
 10
5.7037821466
 20
-5.0580684836
 10
5.6908607602
 20
-5.0624775061
 10
5.6774757654
 20
-5.0665581349
 10
5.6637353542
 20
-5.0702769258
 10
5.6496367035
 20
-5.0736308339
 10
5.6351826365
 20
-5.076622904
 10
5.6204898142
 20
-5.0792288261
 10
5.6055567437
 20
-5.081445373
 10
5.5903849178
 20
-5.0832757718
 10
5.5750954769
 20
-5.0847053942
 10
5.5596872826
 20
-5.0857310496
 10
5.5441614731
 20
-5.0863559285
 10
5.5286426039
 20
-5.0865749741
 10
5.5131306831
 20
-5.0863848953
 10
5.4976257027
 20
-5.0857889833
 10
5.4822521934
 20
-5.0847920543
 10
5.4670114493
 20
-5.0833909103
 10
5.4519021765
 20
-5.0815887493
 10
5.4370450231
 20
-5.0793999821
 10
5.4224415962
 20
-5.0768213802
 10
5.4080902888
 20
-5.073856172
 10
5.3941069282
 20
-5.0705284532
 10
5.3804944624
 20
-5.0668351794
 10
5.3672499434
 20
-5.062779395
 10
5.3544803541
 20
-5.0583943294
 10
5.3422213556
 20
-5.0536910592
 10
5.3304372869
 20
-5.0486585079
 10
5.3191281479
 20
-5.0432966753
  0
LWPOLYLINE
  5
32F
100
AcDbEntity
  8
RACCORDO
100
AcDbPolyline
 62
250
  6
CONTINUOUS
 90
31
 70
0
 10
5.8798342116
 20
-5.2874140537
 10
5.8607515834
 20
-5.2962866468
 10
5.8407901379
 20
-5.3046520913
 10
5.8200035548
 20
-5.3124883483
 10
5.7984486954
 20
-5.3197747642
 10
5.7761825512
 20
-5.3264922901
 10
5.7532617793
 20
-5.3326232734
 10
5.7297458939
 20
-5.3381518132
 10
5.7056995098
 20
-5.3430627609
 10
5.6811892064
 20
-5.3473419284
 10
5.656281688
 20
-5.3509779871
 10
5.6310428097
 20
-5.3539616786
 10
5.6055395759
 20
-5.3562846094
 10
5.5798400562
 20
-5.3579407632
 10
5.5540134281
 20
-5.3589259087
 10
5.5281291274
 20
-5.3592369566
 10
5.502256548
 20
-5.3588732493
 10
5.4764650454
 20
-5.3578359921
 10
5.4508239501
 20
-5.3561276122
 10
5.4254022733
 20
-5.3537528721
 10
5.4002678716
 20
-5.3507183364
 10
5.375487482
 20
-5.3470317565
 10
5.3511266375
 20
-5.3427029006
 10
5.3272516205
 20
-5.3377436314
 10
5.3039285001
 20
-5.3321675144
 10
5.2812213366
 20
-5.325990158
 10
5.2591890944
 20
-5.3192279731
 10
5.2378878477
 20
-5.3118980477
 10
5.2173739254
 20
-5.3040195411
 10
5.1977034424
 20
-5.2956138876
 10
5.1789292976
 20
-5.2867035456
  0
LWPOLYLINE
  5
330
100
AcDbEntity
  8
ASSI
100
AcDbPolyline
 62
250
  6
CONTINUOUS
 90
31
 70
0
 10
5.8798342116
 20
-5.2874140537
 10
5.8607515834
 20
-5.2962866468
 10
5.8407901379
 20
-5.3046520913
 10
5.8200035548
 20
-5.3124883483
 10
5.7984486954
 20
-5.3197747642
 10
5.7761825512
 20
-5.3264922901
 10
5.7532617793
 20
-5.3326232734
 10
5.7297458939
 20
-5.3381518132
 10
5.7056995098
 20
-5.3430627609
 10
5.6811892064
 20
-5.3473419284
 10
5.656281688
 20
-5.3509779871
 10
5.6310428097
 20
-5.3539616786
 10
5.6055395759
 20
-5.3562846094
 10
5.5798400562
 20
-5.3579407632
 10
5.5540134281
 20
-5.3589259087
 10
5.5281291274
 20
-5.3592369566
 10
5.502256548
 20
-5.3588732493
 10
5.4764650454
 20
-5.3578359921
 10
5.4508239501
 20
-5.3561276122
 10
5.4254022733
 20
-5.3537528721
 10
5.4002678716
 20
-5.3507183364
 10
5.375487482
 20
-5.3470317565
 10
5.3511266375
 20
-5.3427029006
 10
5.3272516205
 20
-5.3377436314
 10
5.3039285001
 20
-5.3321675144
 10
5.2812213366
 20
-5.325990158
 10
5.2591890944
 20
-5.3192279731
 10
5.2378878477
 20
-5.3118980477
 10
5.2173739254
 20
-5.3040195411
 10
5.1977034424
 20
-5.2956138876
 10
5.1789292976
 20
-5.2867035456
  0
LINE
  5
331
100
AcDbEntity
  8
RACCORDO
100
AcDbLine
 62
7
  6
CONTINUOUS
 10
9.6271511372
 20
8.1660424697
 11
9.0882673275
 21
15.3202067407
  0
LINE
  5
332
100
AcDbEntity
  8
ASSI
100
AcDbLine
 62
7
  6
CONTINUOUS
 10
9.6271511372
 20
8.1660424697
 11
9.0882673275
 21
15.3202067407
  0
LINE
  5
333
100
AcDbEntity
  8
RACCORDO
100
AcDbLine
 62
7
  6
CONTINUOUS
 10
9.6271511372
 20
-3.4386781564
 11
9.6271511372
 21
-14.5238231095
  0
LINE
  5
334
100
AcDbEntity
  8
ASSI
100
AcDbLine
 62
7
  6
CONTINUOUS
 10
9.6271511372
 20
-3.4386781564
 11
9.6271511372
 21
-14.5238231095
  0
LINE
  5
335
100
AcDbEntity
  8
RACCORDO
100
AcDbLine
 62
7
  6
CONTINUOUS
 10
9.6271511372
 20
-2.9191024834
 11
9.6271511372
 21
8.1660424697
  0
LINE
  5
336
100
AcDbEntity
  8
ASSI
100
AcDbLine
 62
7
  6
CONTINUOUS
 10
9.6271511372
 20
-2.9191024834
 11
9.6271511372
 21
8.1660424697
  0
LINE
  5
337
100
AcDbEntity
  8
RACCORDO
100
AcDbLine
 62
7
  6
CONTINUOUS
 10
9.6271511372
 20
-14.5238231095
 11
9.0882673275
 21
-22.1983814264
  0
LINE
  5
338
100
AcDbEntity
  8
ASSI
100
AcDbLine
 62
7
  6
CONTINUOUS
 10
9.6271511372
 20
-14.5238231095
 11
9.0882673275
 21
-22.1983814264
  0
LINE
  5
339
100
AcDbEntity
  8
RACCORDO
100
AcDbLine
 62
250
  6
CONTINUOUS
 10
-9.4601642533
 20
20.4409622566
 11
5.4831706996
 21
12.9692947806
  0
LINE
  5
33A
100
AcDbEntity
  8
ASSI
100
AcDbLine
 62
250
  6
CONTINUOUS
 10
-9.4601642533
 20
20.4409622566
 11
5.4831706996
 21
12.9692947806
  0
LINE
  5
33B
100
AcDbEntity
  8
RACCORDO
100
AcDbLine
 62
7
  6
CONTINUOUS
 10
6.7038570336
 20
16.9128407092
 11
6.0263760431
 21
16.7945071435
  0
LINE
  5
33C
100
AcDbEntity
  8
ASSI
100
AcDbLine
 62
7
  6
CONTINUOUS
 10
6.7038570336
 20
16.9128407092
 11
6.0263760431
 21
16.7945071435
  0
LINE
  5
33D
100
AcDbEntity
  8
RACCORDO
100
AcDbLine
 62
250
  6
CONTINUOUS
 10
-8.4675856316
 20
22.1927914842
 11
6.4991221671
 21
14.7094375854
  0
LINE
  5
33E
100
AcDbEntity
  8
ASSI
100
AcDbLine
 62
250
  6
CONTINUOUS
 10
-8.4675856316
 20
22.1927914842
 11
6.4991221671
 21
14.7094375854
  0
LINE
  5
33F
100
AcDbEntity
  8
RACCORDO
100
AcDbLine
 62
7
  6
CONTINUOUS
 10
5.8331908779
 20
16.8158504012
 11
3.4509057818
 21
18.0069929493
  0
LINE
  5
340
100
AcDbEntity
  8
ASSI
100
AcDbLine
 62
7
  6
CONTINUOUS
 10
5.8331908779
 20
16.8158504012
 11
3.4509057818
 21
18.0069929493
  0
LINE
  5
341
100
AcDbEntity
  8
RACCORDO
100
AcDbLine
 62
7
  6
CONTINUOUS
 10
-2.0864050714
 20
20.7756483759
 11
-4.4686901675
 21
21.9667909239
  0
LINE
  5
342
100
AcDbEntity
  8
ASSI
100
AcDbLine
 62
7
  6
CONTINUOUS
 10
-2.0864050714
 20
20.7756483759
 11
-4.4686901675
 21
21.9667909239
  0
LINE
  5
343
100
AcDbEntity
  8
RACCORDO
100
AcDbLine
 62
7
  6
CONTINUOUS
 10
8.7036405328
 20
15.9129489596
 11
6.7038570336
 21
16.9128407092
  0
LINE
  5
344
100
AcDbEntity
  8
ASSI
100
AcDbLine
 62
7
  6
CONTINUOUS
 10
8.7036405328
 20
15.9129489596
 11
6.7038570336
 21
16.9128407092
  0
LINE
  5
345
100
AcDbEntity
  8
DRAFT
100
AcDbLine
 62
7
  6
CONTINUOUS
 10
3.580672457
 20
18.4744329974
 11
-1.2157389157
 21
20.8726386838
  0
LINE
  5
346
100
AcDbEntity
  8
ASSI
100
AcDbLine
 62
7
  6
CONTINUOUS
 10
3.580672457
 20
18.4744329974
 11
-1.2157389157
 21
20.8726386838
  0
LINE
  5
347
100
AcDbEntity
  8
RACCORDO
100
AcDbLine
 62
7
  6
CONTINUOUS
 10
-4.3389234922
 20
22.4342309721
 11
-6.3387069915
 21
23.4341227217
  0
LINE
  5
348
100
AcDbEntity
  8
ASSI
100
AcDbLine
 62
7
  6
CONTINUOUS
 10
-4.3389234922
 20
22.4342309721
 11
-6.3387069915
 21
23.4341227217
  0
LINE
  5
349
100
AcDbEntity
  8
RACCORDO
100
AcDbLine
 62
7
  6
CONTINUOUS
 10
-1.2157389157
 20
20.8726386838
 11
-1.8932199062
 21
20.7543051182
  0
LINE
  5
34A
100
AcDbEntity
  8
ASSI
100
AcDbLine
 62
7
  6
CONTINUOUS
 10
-1.2157389157
 20
20.8726386838
 11
-1.8932199062
 21
20.7543051182
  0
LWPOLYLINE
  5
34B
100
AcDbEntity
  8
RACCORDO
100
AcDbPolyline
 62
250
  6
CONTINUOUS
 90
28
 70
0
 10
6.1837547871
 20
-22.631327235
 10
6.1625165996
 20
-22.6420310506
 10
6.1401993815
 20
-22.6521043751
 10
6.11687698
 20
-22.661513876
 10
6.0926265689
 20
-22.6702284173
 10
6.0675283924
 20
-22.6782191628
 10
6.0416655002
 20
-22.6854596711
 10
6.0151234722
 20
-22.6919259835
 10
5.9879901357
 20
-22.6975967029
 10
5.9603552747
 20
-22.7024530652
 10
5.9323103326
 20
-22.7064790006
 10
5.9039481098
 20
-22.7096611873
 10
5.8753624565
 20
-22.7119890956
 10
5.8466479625
 20
-22.7134550224
 10
5.8178996435
 20
-22.7140541169
 10
5.7892126276
 20
-22.7137843968
 10
5.7606818397
 20
-22.7126467546
 10
5.7324016878
 20
-22.7106449547
 10
5.7044657507
 20
-22.707785621
 10
5.6769664682
 20
-22.7040782151
 10
5.6499948349
 20
-22.6995350047
 10
5.6236400998
 20
-22.6941710233
 10
5.5979894704
 20
-22.6880040202
 10
5.5731278243
 20
-22.6810544019
 10
5.5491374284
 20
-22.6733451647
 10
5.5260976667
 20
-22.6649018184
 10
5.5040847775
 20
-22.6557523018
 10
5.4831716012
 20
-22.6459268906
  0
LWPOLYLINE
  5
34C
100
AcDbEntity
  8
ASSI
100
AcDbPolyline
 62
250
  6
CONTINUOUS
 90
28
 70
0
 10
6.1837547871
 20
-22.631327235
 10
6.1625165996
 20
-22.6420310506
 10
6.1401993815
 20
-22.6521043751
 10
6.11687698
 20
-22.661513876
 10
6.0926265689
 20
-22.6702284173
 10
6.0675283924
 20
-22.6782191628
 10
6.0416655002
 20
-22.6854596711
 10
6.0151234722
 20
-22.6919259835
 10
5.9879901357
 20
-22.6975967029
 10
5.9603552747
 20
-22.7024530652
 10
5.9323103326
 20
-22.7064790006
 10
5.9039481098
 20
-22.7096611873
 10
5.8753624565
 20
-22.7119890956
 10
5.8466479625
 20
-22.7134550224
 10
5.8178996435
 20
-22.7140541169
 10
5.7892126276
 20
-22.7137843968
 10
5.7606818397
 20
-22.7126467546
 10
5.7324016878
 20
-22.7106449547
 10
5.7044657507
 20
-22.707785621
 10
5.6769664682
 20
-22.7040782151
 10
5.6499948349
 20
-22.6995350047
 10
5.6236400998
 20
-22.6941710233
 10
5.5979894704
 20
-22.6880040202
 10
5.5731278243
 20
-22.6810544019
 10
5.5491374284
 20
-22.6733451647
 10
5.5260976667
 20
-22.6649018184
 10
5.5040847775
 20
-22.6557523018
 10
5.4831716012
 20
-22.6459268906
  0
LINE
  5
34D
100
AcDbEntity
  8
RACCORDO
100
AcDbLine
 62
250
  6
CONTINUOUS
 10
6.8649424464
 20
-23.1316429031
 11
9.0882673275
 21
-22.1983814264
  0
LINE
  5
34E
100
AcDbEntity
  8
ASSI
100
AcDbLine
 62
250
  6
CONTINUOUS
 10
6.8649424464
 20
-23.1316429031
 11
9.0882673275
 21
-22.1983814264
  0
LINE
  5
34F
100
AcDbEntity
  8
RACCORDO
100
AcDbLine
 62
7
  6
CONTINUOUS
 10
6.711135201
 20
-23.4128386015
 11
8.9219278799
 21
-22.4848376343
  0
LINE
  5
350
100
AcDbEntity
  8
ASSI
100
AcDbLine
 62
7
  6
CONTINUOUS
 10
6.711135201
 20
-23.4128386015
 11
8.9219278799
 21
-22.4848376343
  0
LINE
  5
351
100
AcDbEntity
  8
RACCORDO
100
AcDbLine
 62
7
  6
CONTINUOUS
 10
6.677784448
 20
-23.4262754327
 11
6.7111213221
 21
-23.4128442209
  0
LWPOLYLINE
  5
352
100
AcDbEntity
  8
ASSI
100
AcDbPolyline
 62
7
  6
CONTINUOUS
 90
3
 70
0
 10
6.5965519852
 20
-23.4543611855
 10
6.685853621
 20
-23.423126886
 10
6.7109531526
 20
-23.4129147047
  0
ELLIPSE
  5
353
100
AcDbEntity
  8
RACCORDO
100
AcDbEllipse
 62
7
  6
CONTINUOUS
 10
8.7346887349
 20
-22.0211697237
 30
0.0
 11
-0.1825210626
 21
0.4655826378
 31
0.0
 40
0.6539056002
 41
-3.1260221366
 42
-2.199353272
  0
ELLIPSE
  5
354
100
AcDbEntity
  8
RACCORDO
100
AcDbEllipse
 62
7
  6
CONTINUOUS
 10
9.4857082385
 20
-3.3679830871
 30
0.0
 11
-0.0894578232
 21
0.1788799337
 31
0.0
 40
0.6124778111
 41
-2.255529033
 42
-0.6848850053
  0
ELLIPSE
  5
355
100
AcDbEntity
  8
ASSI
100
AcDbEllipse
 62
7
  6
CONTINUOUS
 10
8.7346887349
 20
-22.0211697237
 30
0.0
 11
-0.1825210626
 21
0.4655826378
 31
0.0
 40
0.6539056002
 41
-3.1260221366
 42
-2.199353272
  0
ELLIPSE
  5
356
100
AcDbEntity
  8
ASSI
100
AcDbEllipse
 62
7
  6
CONTINUOUS
 10
9.4857082385
 20
-3.3679830871
 30
0.0
 11
-0.0894578232
 21
0.1788799337
 31
0.0
 40
0.6124778111
 41
-2.255529033
 42
-0.6848850053
  0
ELLIPSE
  5
357
100
AcDbEntity
  8
CURVE
100
AcDbEllipse
 62
250
  6
CONTINUOUS
 10
340.3056373591
 20
181.0047485097
 30
0.0
 11
-370.8956999625
 21
600.1218488205
 31
0.0
 40
0.5587454355
 41
1.5424586217
 42
1.5514618139
  0
ELLIPSE
  5
358
100
AcDbEntity
  8
CURVE
100
AcDbEllipse
 62
250
  6
CONTINUOUS
 10
362.2259475759
 20
170.0445934013
 30
0.0
 11
499.3666179528
 21
308.6255427419
 31
0.0
 40
0.0815198604
 41
2.327856785
 42
2.3368599773
  0
ELLIPSE
  5
359
100
AcDbEntity
  8
RACCORDO
100
AcDbEllipse
 62
7
  6
CONTINUOUS
 10
8.7346887349
 20
15.4966299556
 30
0.0
 11
-0.2595358667
 21
0.4277791377
 31
0.0
 40
0.5660944267
 41
-2.3023149208
 42
-0.7324319825
  0
ELLIPSE
  5
35A
100
AcDbEntity
  8
RACCORDO
100
AcDbEllipse
 62
7
  6
CONTINUOUS
 10
9.4857082385
 20
-2.8483546541
 30
0.0
 11
-0.0894818401
 21
0.1789012953
 31
0.0
 40
0.6122950388
 41
-3.1553778957
 42
-2.2557482655
  0
ELLIPSE
  5
35B
100
AcDbEntity
  8
RACCORDO
100
AcDbEllipse
 62
7
  6
CONTINUOUS
 10
-6.3080892116
 20
23.0180189289
 30
0.0
 11
-0.2593331496
 21
0.4275480222
 31
0.0
 40
0.5667800829
 41
-0.7329160135
 42
-0.009825437
  0
ELLIPSE
  5
35C
100
AcDbEntity
  8
RACCORDO
100
AcDbEllipse
 62
7
  6
CONTINUOUS
 10
5.9746122341
 20
16.895638373
 30
0.0
 11
0.199943508
 21
0.008945986
 31
0.0
 40
0.5313301283
 41
-2.3799630874
 42
-1.3327655362
  0
ELLIPSE
  5
35D
100
AcDbEntity
  8
RACCORDO
100
AcDbEllipse
 62
7
  6
CONTINUOUS
 10
-1.9449837152
 20
20.8554363476
 30
0.0
 11
0.199943508
 21
0.008945986
 31
0.0
 40
0.5313301283
 41
-2.3799630874
 42
-1.3327655362
  0
ELLIPSE
  5
35E
100
AcDbEntity
  8
RACCORDO
100
AcDbEllipse
 62
7
  6
CONTINUOUS
 10
3.592327138
 20
18.086780921
 30
0.0
 11
0.199943508
 21
0.008945986
 31
0.0
 40
0.5313301283
 41
2.8560246685
 42
3.9032222197
  0
ELLIPSE
  5
35F
100
AcDbEntity
  8
RACCORDO
100
AcDbEllipse
 62
7
  6
CONTINUOUS
 10
-4.3272688113
 20
22.0465788957
 30
0.0
 11
0.199943508
 21
0.008945986
 31
0.0
 40
0.5313301283
 41
2.8560246685
 42
3.9032222197
  0
ELLIPSE
  5
360
100
AcDbEntity
  8
ASSI
100
AcDbEllipse
 62
7
  6
CONTINUOUS
 10
8.7346887349
 20
15.4966299556
 30
0.0
 11
-0.2595358667
 21
0.4277791377
 31
0.0
 40
0.5660944267
 41
-2.3023149208
 42
-0.7324319825
  0
ELLIPSE
  5
361
100
AcDbEntity
  8
ASSI
100
AcDbEllipse
 62
7
  6
CONTINUOUS
 10
9.4857082385
 20
-2.8483546541
 30
0.0
 11
-0.0894818401
 21
0.1789012953
 31
0.0
 40
0.6122950388
 41
-3.1553778957
 42
-2.2557482655
  0
ELLIPSE
  5
362
100
AcDbEntity
  8
ASSI
100
AcDbEllipse
 62
7
  6
CONTINUOUS
 10
-6.3080892116
 20
23.0180189289
 30
0.0
 11
-0.2593331496
 21
0.4275480222
 31
0.0
 40
0.5667800829
 41
-0.7329160135
 42
-0.009825437
  0
ELLIPSE
  5
363
100
AcDbEntity
  8
ASSI
100
AcDbEllipse
 62
7
  6
CONTINUOUS
 10
5.9746122341
 20
16.895638373
 30
0.0
 11
0.199943508
 21
0.008945986
 31
0.0
 40
0.5313301283
 41
-2.3799630874
 42
-1.3327655362
  0
ELLIPSE
  5
364
100
AcDbEntity
  8
ASSI
100
AcDbEllipse
 62
7
  6
CONTINUOUS
 10
-1.9449837152
 20
20.8554363476
 30
0.0
 11
0.199943508
 21
0.008945986
 31
0.0
 40
0.5313301283
 41
-2.3799630874
 42
-1.3327655362
  0
ELLIPSE
  5
365
100
AcDbEntity
  8
ASSI
100
AcDbEllipse
 62
7
  6
CONTINUOUS
 10
3.592327138
 20
18.086780921
 30
0.0
 11
0.199943508
 21
0.008945986
 31
0.0
 40
0.5313301283
 41
2.8560246685
 42
3.9032222197
  0
ELLIPSE
  5
366
100
AcDbEntity
  8
ASSI
100
AcDbEllipse
 62
7
  6
CONTINUOUS
 10
-4.3272688113
 20
22.0465788957
 30
0.0
 11
0.199943508
 21
0.008945986
 31
0.0
 40
0.5313301283
 41
2.8560246685
 42
3.9032222197
  0
ELLIPSE
  5
367
100
AcDbEntity
  8
CURVE
100
AcDbEllipse
 62
250
  6
CONTINUOUS
 10
362.2259475759
 20
170.0445934013
 30
0.0
 11
-370.8956999625
 21
600.1218488205
 31
0.0
 40
0.5587454355
 41
1.4894518793
 42
1.4984550715
  0
ELLIPSE
  5
368
100
AcDbEntity
  8
CURVE
100
AcDbEllipse
 62
250
  6
CONTINUOUS
 10
340.3056373591
 20
181.0047485097
 30
0.0
 11
499.3666179528
 21
308.6255427419
 31
0.0
 40
0.0815198604
 41
2.2748500427
 42
2.2838532349
  0
ENDSEC
  0
SECTION
  2
OBJECTS
  0
DICTIONARY
  5
C
100
AcDbDictionary
280
0
281
1
  3
ACAD_GROUP
350
D
  3
ACAD_MLINESTYLE
350
17
  3
ACAD_LAYOUT
350
1A
  3
ACAD_PLOTSETTINGS
350
19
  3
ACAD_PLOTSTYLENAME
350
E
  0
DICTIONARY
  5
D
102
{ACAD_REACTORS
330
C
102
}
100
AcDbDictionary
280
0
281
1
  0
ACDBDICTIONARYWDFLT
  5
E
102
{ACAD_REACTORS
330
C
102
}
100
AcDbDictionary
281
1
  3
Normal
350
F
100
AcDbDictionaryWithDefault
340
F
  0
DICTIONARY
  5
17
102
{ACAD_REACTORS
330
C
102
}
100
AcDbDictionary
280
0
281
1
  3
Standard
350
18
  0
DICTIONARY
  5
19
102
{ACAD_REACTORS
330
C
102
}
100
AcDbDictionary
281
1
  0
DICTIONARY
  5
1A
102
{ACAD_REACTORS
330
C
102
}
100
AcDbDictionary
281
1
  3
Model
350
369
  3
Layout1
350
36A
  0
ACDBPLACEHOLDER
  5
F
102
{ACAD_REACTORS
330
E
102
}
  0
MLINESTYLE
  5
18
102
{ACAD_REACTORS
330
17
102
}
100
AcDbMlineStyle
  2
STANDARD
 70
0
  3

 62
256
 51
90.0
 52
90.0
 71
2
 49
0.5
 62
256
  6
BYLAYER
 49
-0.5
 62
256
  6
BYLAYER
  0
LAYOUT
  5
369
102
{ACAD_REACTORS
330
1A
102
}
100
AcDbPlotSettings
  1

  2
none_device
  4
ISO_A4_(297.00_x_210.00_MM)
  6

 40
0.0
 41
0.0
 42
0.0
 43
0.0
 44
297.0
 45
210.0
 46
0.0
 47
0.0
 48
0.0
 49
0.0
140
0.0
141
0.0
142
1.0
143
1.0
 70
1024
 72
1
 73
0
 74
0
  7

 75
0
147
1.0
148
0.0
149
0.0
100
AcDbLayout
  1
Model
 70
0
 71
0
 10
0.0
 20
0.0
 11
297.0
 21
210.0
 12
0.0
 22
0.0
 32
0.0
 14
0.0
 24
0.0
 34
0.0
 15
0.0
 25
0.0
 35
0.0
146
0.0
 13
0.0
 23
0.0
 33
0.0
 16
1.0
 26
0.0
 36
0.0
 17
0.0
 27
1.0
 37
0.0
 76
0
330
214
345
0
346
0
  0
LAYOUT
  5
36A
102
{ACAD_REACTORS
330
1A
102
}
100
AcDbPlotSettings
  1

  2
none_device
  4
ISO_A4_(297.00_x_210.00_MM)
  6

 40
0.0
 41
0.0
 42
0.0
 43
0.0
 44
297.0
 45
210.0
 46
0.0
 47
0.0
 48
0.0
 49
0.0
140
0.0
141
0.0
142
1.0
143
1.0
 70
0
 72
1
 73
0
 74
0
  7

 75
0
147
1.0
148
0.0
149
0.0
100
AcDbLayout
  1
Layout1
 70
0
 71
1
 10
0.0
 20
0.0
 11
297.0
 21
210.0
 12
0.0
 22
0.0
 32
0.0
 14
0.0
 24
0.0
 34
0.0
 15
0.0
 25
0.0
 35
0.0
146
0.0
 13
0.0
 23
0.0
 33
0.0
 16
1.0
 26
0.0
 36
0.0
 17
0.0
 27
1.0
 37
0.0
 76
0
330
215
345
0
346
0
  0
ENDSEC
  0
EOF
