  0
SECTION
  2
HEADER
  9
$ACADVER
  1
AC1024
  9
$DWGCODEPAGE
  3
ANSI_1252
  9
$EXTMAX
 10
210.0
 20
297.0
 30
0.0
  9
$EXTMIN
 10
0.0
 20
0.0
 30
0.0
  9
$LIMMIN
 10
0.0
 20
0.0
  9
$LIMMAX
 10
210.0
 20
297.0
  9
$VIEWCTR
 10
105.0
 20
148.5
  9
$VIEWSIZE
 40
297.0
  9
$CLAYER
  8
0
  9
$LTSCALE
 40
19.36
  9
$CELTYPE
  6
BYLAYER
  9
$DIMSCALE
 40
1.0
  9
$DIMASZ
 40
3.0
  9
$DIMEXO
 40
0.5
  9
$DIMDLI
 40
13.376
  9
$DIMEXE
 40
1.5
  9
$DIMCEN
 40
3.168
  9
$DIMLFAC
 40
1.0
  9
$DIMBLK
  1
_FILLED
  9
$DIMALT
 70
0
  9
$DIMALTF
 40
0.0393700787
  9
$DIMTXT
 40
3.0
  9
$DIMTOL
 70
1
  9
$DIMLIM
 70
0
  9
$DIMTFAC
 40
1.0
  9
$DIMTP
 40
0.01
  9
$DIMTM
 40
0.01
  9
$DIMGAP
 40
0.625
  9
$DIMDSEP
 70
44
  9
$AUNITS
 70
0
  9
$PDMODE
 70
3
  9
$PDSIZE
 40
3.0
  9
$HANDSEED
  5
2A1
  9
$TILEMODE
 70
1
  9
$MEASUREMENT
 70
1
  9
$INSUNITS
 70
4
  0
ENDSEC
  0
SECTION
  2
CLASSES
  0
CLASS
  1
ACDBDICTIONARYWDFLT
  2
AcDbDictionaryWithDefault
  3
AutoCAD 2000
 90
0
 91
1
280
0
281
0
  0
CLASS
  1
ACDBPLACEHOLDER
  2
AcDbPlaceHolder
  3
AutoCAD 2000
 90
0
 91
1
280
0
281
0
  0
CLASS
  1
LAYOUT
  2
AcDbLayout
  3
AutoCAD 2000
 90
0
 91
0
280
0
281
0
  0
ENDSEC
  0
SECTION
  2
TABLES
  0
TABLE
  2
VPORT
  5
8
100
AcDbSymbolTable
 70
2
  0
VPORT
  5
1F4
100
AcDbSymbolTableRecord
100
AcDbViewportTableRecord
  2
*ACTIVE
 70
0
 10
0.0
 20
0.0
 11
1.0
 21
1.0
 12
105.0
 22
148.5
 13
0.0
 23
0.0
 14
1.0
 24
1.0
 15
0.0
 25
0.0
 16
0.0
 26
0.0
 36
1.0
 17
0.0
 27
0.0
 37
0.0
 40
297.0
 41
0.7070707071
 42
50.0
 43
0.0
 44
0.0
 50
0.0
 51
0.0
 71
0
 72
100
 73
1
 74
1
 75
0
 76
0
 77
0
 78
0
  0
ENDTAB
  0
TABLE
  2
LTYPE
  5
5
100
AcDbSymbolTable
 70
6
  0
LTYPE
  5
14
100
AcDbSymbolTableRecord
100
AcDbLinetypeTableRecord
  2
BYBLOCK
 70
0
  3

 72
65
 73
0
 40
0.0
  0
LTYPE
  5
15
100
AcDbSymbolTableRecord
100
AcDbLinetypeTableRecord
  2
BYLAYER
 70
0
  3

 72
65
 73
0
 40
0.0
  0
LTYPE
  5
16
100
AcDbSymbolTableRecord
100
AcDbLinetypeTableRecord
  2
CONTINUOUS
 70
64
  3
Solid line
 72
65
 73
0
 40
0.0
  0
LTYPE
  5
1F5
100
AcDbSymbolTableRecord
100
AcDbLinetypeTableRecord
  2
CENTER
 70
64
  3
____ _ ____ _ ____ _ ____ _ ____ _ ____ _ ____
 72
65
 73
4
 40
0.6
 49
0.375
 74
0
 49
-0.075
 74
0
 49
0.075
 74
0
 49
-0.075
 74
0
  0
LTYPE
  5
1F6
100
AcDbSymbolTableRecord
100
AcDbLinetypeTableRecord
  2
HIDDEN
 70
64
  3
- - - - - - - - - - - - - - - - - - - -
 72
65
 73
2
 40
0.2
 49
0.1
 74
0
 49
-0.1
 74
0
  0
LTYPE
  5
1F7
100
AcDbSymbolTableRecord
100
AcDbLinetypeTableRecord
  2
PHANTOM
 70
64
  3
_____ _ _ _____ _ _ _____ _ _ _____
 72
65
 73
6
 40
0.8
 49
0.45
 74
0
 49
-0.05
 74
0
 49
0.1
 74
0
 49
-0.05
 74
0
 49
0.1
 74
0
 49
-0.05
 74
0
  0
LTYPE
  5
1F8
100
AcDbSymbolTableRecord
100
AcDbLinetypeTableRecord
  2
DOT
 70
64
  3
. . . . . . . . . . . . . . . . . . . .
 72
65
 73
2
 40
0.2
 49
0.1
 74
0
 49
-0.1
 74
0
  0
LTYPE
  5
1F9
100
AcDbSymbolTableRecord
100
AcDbLinetypeTableRecord
  2
DASHED
 70
64
  3
- - - - - - - - - - - - - - - - - - - -
 72
65
 73
2
 40
0.2
 49
0.1
 74
0
 49
-0.1
 74
0
  0
ENDTAB
  0
TABLE
  2
LAYER
  5
2
100
AcDbSymbolTable
 70
36
  0
LAYER
  5
10
100
AcDbSymbolTableRecord
100
AcDbLayerTableRecord
  2
0
 70
0
 62
7
  6
CONTINUOUS
370
-3
390
F
  0
LAYER
  5
1FA
100
AcDbSymbolTableRecord
100
AcDbLayerTableRecord
  2
DEFAULT_1
 70
0
 62
7
  6
CENTER
370
-3
390
F
  0
LAYER
  5
1FB
100
AcDbSymbolTableRecord
100
AcDbLayerTableRecord
  2
DEFAULT_2
 70
0
 62
7
  6
HIDDEN
370
-3
390
F
  0
LAYER
  5
1FC
100
AcDbSymbolTableRecord
100
AcDbLayerTableRecord
  2
DEFAULT_3
 70
0
 62
7
  6
PHANTOM
370
-3
390
F
  0
LAYER
  5
1FD
100
AcDbSymbolTableRecord
100
AcDbLayerTableRecord
  2
ASSI
 70
0
 62
7
  6
CONTINUOUS
370
-3
390
F
  0
LAYER
  5
1FE
100
AcDbSymbolTableRecord
100
AcDbLayerTableRecord
  2
COORDINATE
 70
0
 62
7
  6
CONTINUOUS
370
-3
390
F
  0
LAYER
  5
1FF
100
AcDbSymbolTableRecord
100
AcDbLayerTableRecord
  2
COORD_ORIGINE
 70
0
 62
7
  6
CONTINUOUS
370
-3
390
F
  0
LAYER
  5
200
100
AcDbSymbolTableRecord
100
AcDbLayerTableRecord
  2
COSMETICI
 70
0
 62
7
  6
CONTINUOUS
370
-3
390
F
  0
LAYER
  5
201
100
AcDbSymbolTableRecord
100
AcDbLayerTableRecord
  2
CURVE
 70
0
 62
7
  6
CONTINUOUS
370
-3
390
F
  0
LAYER
  5
202
100
AcDbSymbolTableRecord
100
AcDbLayerTableRecord
  2
DRAFT
 70
0
 62
7
  6
CONTINUOUS
370
-3
390
F
  0
LAYER
  5
203
100
AcDbSymbolTableRecord
100
AcDbLayerTableRecord
  2
IGES
 70
0
 62
7
  6
CONTINUOUS
370
-3
390
F
  0
LAYER
  5
204
100
AcDbSymbolTableRecord
100
AcDbLayerTableRecord
  2
NOTE
 70
0
 62
7
  6
CONTINUOUS
370
-3
390
F
  0
LAYER
  5
205
100
AcDbSymbolTableRecord
100
AcDbLayerTableRecord
  2
PIANI
 70
0
 62
7
  6
CONTINUOUS
370
-3
390
F
  0
LAYER
  5
206
100
AcDbSymbolTableRecord
100
AcDbLayerTableRecord
  2
PIANI_ORIGINE
 70
0
 62
7
  6
CONTINUOUS
370
-3
390
F
  0
LAYER
  5
207
100
AcDbSymbolTableRecord
100
AcDbLayerTableRecord
  2
PIANI_RIFERIMENTO
 70
0
 62
7
  6
CONTINUOUS
370
-3
390
F
  0
LAYER
  5
208
100
AcDbSymbolTableRecord
100
AcDbLayerTableRecord
  2
PUNTI
 70
0
 62
7
  6
CONTINUOUS
370
-3
390
F
  0
LAYER
  5
209
100
AcDbSymbolTableRecord
100
AcDbLayerTableRecord
  2
RACCORDO
 70
0
 62
7
  6
CONTINUOUS
370
-3
390
F
  0
LAYER
  5
20A
100
AcDbSymbolTableRecord
100
AcDbLayerTableRecord
  2
SIMBOLI
 70
0
 62
7
  6
CONTINUOUS
370
-3
390
F
  0
LAYER
  5
20B
100
AcDbSymbolTableRecord
100
AcDbLayerTableRecord
  2
SMUSSO
 70
0
 62
7
  6
CONTINUOUS
370
-3
390
F
  0
LAYER
  5
20C
100
AcDbSymbolTableRecord
100
AcDbLayerTableRecord
  2
SNAPLINE
 70
0
 62
7
  6
CONTINUOUS
370
-3
390
F
  0
LAYER
  5
20D
100
AcDbSymbolTableRecord
100
AcDbLayerTableRecord
  2
SUPERFICI
 70
0
 62
7
  6
CONTINUOUS
370
-3
390
F
  0
LAYER
  5
20E
100
AcDbSymbolTableRecord
100
AcDbLayerTableRecord
  2
TRASH
 70
0
 62
7
  6
CONTINUOUS
370
-3
390
F
  0
LAYER
  5
20F
100
AcDbSymbolTableRecord
100
AcDbLayerTableRecord
  2
XSEC_DATUMS
 70
0
 62
7
  6
CONTINUOUS
370
-3
390
F
  0
ENDTAB
  0
TABLE
  2
STYLE
  5
3
100
AcDbSymbolTable
 70
1
  0
STYLE
  5
11
100
AcDbSymbolTableRecord
100
AcDbTextStyleTableRecord
  2
STANDARD
 70
0
 40
0.0
 41
0.8
 50
0.0
 71
0
 42
0.2
  3
txt
  4

  0
STYLE
  5
210
100
AcDbSymbolTableRecord
100
AcDbTextStyleTableRecord
  2
TEXTSTYLE_1
 70
0
 40
0.0
 41
0.8
 50
0.0
 71
0
 42
0.2
  3
gdt
  4

  0
ENDTAB
  0
TABLE
  2
VIEW
  5
6
100
AcDbSymbolTable
 70
0
  0
ENDTAB
  0
TABLE
  2
UCS
  5
7
100
AcDbSymbolTable
 70
0
  0
ENDTAB
  0
TABLE
  2
APPID
  5
9
100
AcDbSymbolTable
 70
1
  0
APPID
  5
211
100
AcDbSymbolTableRecord
100
AcDbRegAppTableRecord
  2
ACAD
 70
0
  0
ENDTAB
  0
TABLE
  2
BLOCK_RECORD
  5
1
100
AcDbSymbolTable
 70
0
  0
BLOCK_RECORD
  5
212
100
AcDbSymbolTableRecord
100
AcDbBlockTableRecord
  2
*Model_Space
  0
BLOCK_RECORD
  5
213
100
AcDbSymbolTableRecord
100
AcDbBlockTableRecord
  2
*Paper_Space
  0
BLOCK_RECORD
  5
214
100
AcDbSymbolTableRecord
100
AcDbBlockTableRecord
  2
_FILLED
  0
ENDTAB
  0
TABLE
  2
DIMSTYLE
  5
A
100
AcDbSymbolTable
 70
1
100
AcDbDimStyleTable
 71
0
  0
DIMSTYLE
105
215
100
AcDbSymbolTableRecord
100
AcDbDimStyleTableRecord
  2
STANDARD
 70
0
  3

  4

 40
1.0
 41
3.0
 42
0.5
 43
0.38
 44
1.5
 45
0.0
 46
0.0
 47
0.01
 48
0.01
140
3.0
141
0.09
142
0.0
143
25.4
144
1.0
145
0.0
146
1.0
147
0.625
 71
1
 72
0
 73
0
 74
0
 75
0
 76
0
 77
1
 78
8
 79
2
170
0
171
1
172
0
173
0
174
0
175
0
176
0
177
0
178
0
270
2
179
2
271
2
272
2
273
2
274
2
275
0
280
0
281
0
282
0
283
1
284
8
285
0
286
0
287
3
288
0
340
11
278
44
341
214
342
214
343
214
344
214
  0
ENDTAB
  0
ENDSEC
  0
SECTION
  2
BLOCKS
  0
BLOCK
  5
20
100
AcDbEntity
  8
0
100
AcDbBlockBegin
  2
*Model_Space
 70
0
 10
0.0
 20
0.0
 30
0.0
  3
*Model_Space
  1

  0
ENDBLK
  5
21
100
AcDbEntity
  8
0
100
AcDbBlockEnd
  0
BLOCK
  5
1C
100
AcDbEntity
  8
0
100
AcDbBlockBegin
  2
*Paper_Space
 70
0
 10
0.0
 20
0.0
 30
0.0
  3
*Paper_Space
  1

  0
ENDBLK
  5
1D
100
AcDbEntity
  8
0
100
AcDbBlockEnd
  0
BLOCK
  5
216
100
AcDbEntity
  8
0
100
AcDbBlockBegin
  2
_FILLED
 70
64
 10
0.0
 20
0.0
  3
_FILLED
  1

  0
SOLID
  5
217
100
AcDbEntity
  8
0
  6
BYBLOCK
 62
0
100
AcDbTrace
 10
0.0
 20
0.0
 11
-1.0
 21
0.3166666667
 12
-1.0
 22
-0.3166666667
 13
-1.0
 23
-0.3166666667
  0
ENDBLK
  5
218
100
AcDbEntity
  8
0
  6
BYBLOCK
 62
0
100
AcDbBlockEnd
  0
ENDSEC
  0
SECTION
  2
ENTITIES
  0
LWPOLYLINE
  5
219
100
AcDbEntity
  8
RACCORDO
100
AcDbPolyline
 62
7
  6
CONTINUOUS
 90
34
 70
0
 10
-8.8078772596
 20
21.5217813707
 10
-8.8428411848
 20
21.4980224246
 10
-8.8881818529
 20
21.4650899997
 10
-8.9325363403
 20
21.4304800781
 10
-8.9758809413
 20
21.3942784879
 10
-9.0182145701
 20
21.356552321
 10
-9.0595370931
 20
21.3173576333
 10
-9.0998319761
 20
21.2767605189
 10
-9.1390800084
 20
21.23482704
 10
-9.177258896
 20
21.1916190043
 10
-9.2143443611
 20
21.1472005532
 10
-9.2503125983
 20
21.1016323723
 10
-9.2851320177
 20
21.0549793619
 10
-9.3187744481
 20
21.0073044533
 10
-9.3512112591
 20
20.9586662935
 10
-9.3824064196
 20
20.9091315382
 10
-9.4123296476
 20
20.8587610032
 10
-9.4409481331
 20
20.8076130952
 10
-9.4682238903
 20
20.7557555811
 10
-9.4941245593
 20
20.7032471584
 10
-9.5186143125
 20
20.6501455734
 10
-9.5416550485
 20
20.5965165585
 10
-9.5632120844
 20
20.5424154537
 10
-9.5832465371
 20
20.4878993662
 10
-9.601719617
 20
20.4330295051
 10
-9.6185924697
 20
20.3778580434
 10
-9.6338229969
 20
20.3224395621
 10
-9.6473703138
 20
20.2668262096
 10
-9.6591886105
 20
20.2110692175
 10
-9.6692301928
 20
20.1552179098
 10
-9.6774478004
 20
20.0993027179
 10
-9.6837853283
 20
20.0433597965
 10
-9.688182357
 20
19.9874534044
 10
-9.6901403785
 20
19.9464116646
  0
LINE
  5
21A
100
AcDbEntity
  8
RACCORDO
100
AcDbLine
 62
7
  6
CONTINUOUS
 10
-8.8078917053
 20
21.5217720362
 11
-6.670748155
 21
22.9311981085
  0
LINE
  5
21B
100
AcDbEntity
  8
RACCORDO
100
AcDbLine
 62
250
  6
CONTINUOUS
 10
-8.5511102506
 20
21.5013694877
 11
-6.4222316105
 21
22.9053449295
  0
LWPOLYLINE
  5
21C
100
AcDbEntity
  8
RACCORDO
100
AcDbPolyline
 62
250
  6
CONTINUOUS
 90
15
 70
0
 10
-8.8078773474
 20
21.5217815039
 10
-8.7927772045
 20
21.5305593514
 10
-8.7778668265
 20
21.5371982472
 10
-8.7621275711
 20
21.5423742901
 10
-8.745612633
 20
21.5460699864
 10
-8.7283778287
 20
21.5482728456
 10
-8.7104814074
 20
21.5489754225
 10
-8.6919838546
 20
21.5481753427
 10
-8.6729476875
 20
21.5458753101
 10
-8.6534372434
 20
21.5420830984
 10
-8.6335184629
 20
21.5368115242
 10
-8.6132586665
 20
21.5300784042
 10
-8.5927263272
 20
21.5219064947
 10
-8.5719908392
 20
21.5123234145
 10
-8.5511222833
 20
21.5013615523
  0
LWPOLYLINE
  5
21D
100
AcDbEntity
  8
RACCORDO
100
AcDbPolyline
 62
7
  6
CONTINUOUS
 90
21
 70
0
 10
5.7127907346
 20
-23.1020028763
 10
5.7534275992
 20
-23.1240201108
 10
5.7938858021
 20
-23.1432057057
 10
5.8355346991
 20
-23.1603257733
 10
5.8783079712
 20
-23.175321323
 10
5.9221849867
 20
-23.1881493646
 10
5.967078754
 20
-23.1987479942
 10
6.0128965048
 20
-23.2070605917
 10
6.0596211094
 20
-23.2130447705
 10
6.1071716935
 20
-23.2166483839
 10
6.1554564938
 20
-23.2178262582
 10
6.2044616666
 20
-23.2165348634
 10
6.2541123573
 20
-23.2127276439
 10
6.3043304415
 20
-23.2063659872
 10
6.3551206932
 20
-23.1973984764
 10
6.4064181214
 20
-23.1857770456
 10
6.4581582457
 20
-23.171457763
 10
6.5103677907
 20
-23.1543663724
 10
6.5630210586
 20
-23.13442999
 10
6.616018942
 20
-23.1116058125
 10
6.6570027066
 20
-23.0920379611
  0
LINE
  5
21E
100
AcDbEntity
  8
RACCORDO
100
AcDbLine
 62
7
  6
CONTINUOUS
 10
5.7129774833
 20
-23.1021108078
 11
-9.2375658309
 21
-14.4698544725
  0
LINE
  5
21F
100
AcDbEntity
  8
RACCORDO
100
AcDbLine
 62
250
  6
CONTINUOUS
 10
5.3996460805
 20
-22.4632559581
 11
-9.5436888724
 21
-13.8351616407
  0
LINE
  5
220
100
AcDbEntity
  8
RACCORDO
100
AcDbLine
 62
250
  6
CONTINUOUS
 10
-9.237565757
 20
-14.4698545152
 11
-9.241693431
 21
-14.4674442429
  0
LWPOLYLINE
  5
221
100
AcDbEntity
  8
RACCORDO
100
AcDbPolyline
 62
250
  6
CONTINUOUS
 90
19
 70
0
 10
-9.241693431
 20
-14.4674442429
 10
-9.2713062972
 20
-14.4484910243
 10
-9.2996133621
 20
-14.4273782891
 10
-9.3265678143
 20
-14.4041412192
 10
-9.3521236996
 20
-14.3788194723
 10
-9.3762376499
 20
-14.3514559549
 10
-9.3988703034
 20
-14.3220959583
 10
-9.4199831963
 20
-14.2907891648
 10
-9.4395403035
 20
-14.2575885794
 10
-9.4575096969
 20
-14.2225492308
 10
-9.4738610551
 20
-14.1857296385
 10
-9.4885660925
 20
-14.1471925197
 10
-9.5016001742
 20
-14.1070037645
 10
-9.5129411517
 20
-14.0652319501
 10
-9.5225699602
 20
-14.0219470587
 10
-9.530471003
 20
-13.9772211427
 10
-9.5366310855
 20
-13.9311292733
 10
-9.5410395289
 20
-13.8837494906
 10
-9.5436888724
 20
-13.8351616407
  0
LINE
  5
222
100
AcDbEntity
  8
RACCORDO
100
AcDbLine
 62
7
  6
CONTINUOUS
 10
-4.4224481113
 20
21.7506950002
 11
-4.6039785956
 21
21.3335351398
  0
LWPOLYLINE
  5
223
100
AcDbEntity
  8
RACCORDO
100
AcDbPolyline
 62
7
  6
CONTINUOUS
 90
24
 70
0
 10
-9.6901138645
 20
-13.6323066771
 10
-9.6874865068
 20
-13.6813190953
 10
-9.6828388064
 20
-13.7323285165
 10
-9.6763491575
 20
-13.7819152558
 10
-9.6680819697
 20
-13.8300376554
 10
-9.6580946059
 20
-13.876717219
 10
-9.6464260268
 20
-13.9220158688
 10
-9.6331257509
 20
-13.9659192551
 10
-9.6182466453
 20
-14.0084109165
 10
-9.6018194239
 20
-14.0495268492
 10
-9.5838933879
 20
-14.0892392256
 10
-9.564518761
 20
-14.127524746
 10
-9.5437227987
 20
-14.1644060148
 10
-9.5215590797
 20
-14.1998498898
 10
-9.4980824061
 20
-14.2338253789
 10
-9.4733210043
 20
-14.2663407196
 10
-9.4473389065
 20
-14.2973571623
 10
-9.4201962868
 20
-14.3268463559
 10
-9.3919155393
 20
-14.3548188537
 10
-9.3625616641
 20
-14.3812392005
 10
-9.3322039311
 20
-14.4060770493
 10
-9.3008680051
 20
-14.4293386887
 10
-9.2686083637
 20
-14.4510042557
 10
-9.2374535571
 20
-14.4699192141
  0
LWPOLYLINE
  5
224
100
AcDbEntity
  8
RACCORDO
100
AcDbPolyline
 62
7
  6
CONTINUOUS
 90
13
 70
0
 10
-9.6901400398
 20
19.9464292235
 10
-9.735997253
 20
18.5541476106
 10
-9.7783221206
 20
17.1517288535
 10
-9.816691341
 20
15.7515085001
 10
-9.851104356
 20
14.3535043986
 10
-9.8815607762
 20
12.9577322495
 10
-9.9080602593
 20
11.5642068509
 10
-9.930602461
 20
10.1729436163
 10
-9.9491871076
 20
8.7839580083
 10
-9.9638139516
 20
7.3972649041
 10
-9.9744827566
 20
6.0128798328
 10
-9.9811933814
 20
4.6308202164
 10
-9.9839373518
 20
3.2656303787
  0
LWPOLYLINE
  5
225
100
AcDbEntity
  8
RACCORDO
100
AcDbPolyline
 62
250
  6
CONTINUOUS
 90
37
 70
0
 10
-9.5436888724
 20
19.742093303
 10
-9.541039529
 20
19.7938130722
 10
-9.5366310856
 20
19.8464034279
 10
-9.5304710031
 20
19.8997759088
 10
-9.5225699603
 20
19.9538405774
 10
-9.5129411519
 20
20.0085066912
 10
-9.5016001744
 20
20.0636828833
 10
-9.4885660928
 20
20.119277398
 10
-9.4738610554
 20
20.1751958398
 10
-9.4575096972
 20
20.2313418405
 10
-9.4395403039
 20
20.2876202345
 10
-9.4199831967
 20
20.3439372729
 10
-9.3988703039
 20
20.400198384
 10
-9.3762376503
 20
20.4563091701
 10
-9.3521237
 20
20.5121753234
 10
-9.3265678148
 20
20.5677028003
 10
-9.2996133626
 20
20.6227988102
 10
-9.2713062978
 20
20.6773704325
 10
-9.2416934316
 20
20.7313245419
 10
-9.2108252784
 20
20.7845706612
 10
-9.1787543426
 20
20.8370194299
 10
-9.1455337073
 20
20.8885812488
 10
-9.1112203003
 20
20.9391693882
 10
-9.0758723152
 20
20.9886993989
 10
-9.0395475269
 20
21.037087575
 10
-9.0023078777
 20
21.0842528584
 10
-8.96421674
 20
21.1301162333
 10
-8.9253363129
 20
21.1746000785
 10
-8.8857322491
 20
21.2176305428
 10
-8.8454725331
 20
21.2591348417
 10
-8.8046247511
 20
21.2990407453
 10
-8.7632593348
 20
21.3372809358
 10
-8.7214460062
 20
21.3737923502
 10
-8.6792526368
 20
21.4085134083
 10
-8.6367499743
 20
21.4413858809
 10
-8.5940115517
 20
21.4723551144
 10
-8.5511101786
 20
21.501369446
  0
LWPOLYLINE
  5
226
100
AcDbEntity
  8
RACCORDO
100
AcDbPolyline
 62
250
  6
CONTINUOUS
 90
14
 70
0
 10
-9.6898705235
 20
-13.6372302818
 10
-9.6879546286
 20
-13.6544426653
 10
-9.684392442
 20
-13.67152263
 10
-9.679195751
 20
-13.6884136583
 10
-9.6723817514
 20
-13.705059858
 10
-9.6639729908
 20
-13.721406147
 10
-9.6539972935
 20
-13.7373984355
 10
-9.6424876691
 20
-13.7529838052
 10
-9.6294822029
 20
-13.7681106842
 10
-9.6150239298
 20
-13.7827290178
 10
-9.5991606921
 20
-13.796790434
 10
-9.5819449812
 20
-13.8102484038
 10
-9.5634337637
 20
-13.8230583948
 10
-9.5436882931
 20
-13.8351780189
  0
LWPOLYLINE
  5
227
100
AcDbEntity
  8
RACCORDO
100
AcDbPolyline
 62
250
  6
CONTINUOUS
 90
16
 70
0
 10
-9.9839183208
 20
3.2630260665
 10
-9.9830221872
 20
3.2481670958
 10
-9.9807881201
 20
3.2333506168
 10
-9.977222143
 20
3.2186161092
 10
-9.972333909
 20
3.2040033587
 10
-9.9661365219
 20
3.1895515569
 10
-9.9586464178
 20
3.1752987968
 10
-9.9498832518
 20
3.1612828605
 10
-9.9398707115
 20
3.1475420363
 10
-9.9286366209
 20
3.1341141452
 10
-9.916212317
 20
3.1210361181
 10
-9.9026305564
 20
3.108342031
 10
-9.8879259227
 20
3.0960640684
 10
-9.8721368805
 20
3.0842346848
 10
-9.8553061832
 20
3.0728863348
 10
-9.837478756
 20
3.0620495576
  0
LWPOLYLINE
  5
228
100
AcDbEntity
  8
RACCORDO
100
AcDbPolyline
 62
250
  6
CONTINUOUS
 90
13
 70
0
 10
-9.5436888806
 20
-13.835161636
 10
-9.5898653197
 20
-12.4880062695
 10
-9.6320979785
 20
-11.1383479307
 10
-9.6703866316
 20
-9.7862021163
 10
-9.7047308645
 20
-8.4315940287
 10
-9.7351308352
 20
-7.074529572
 10
-9.7615869888
 20
-5.7149951772
 10
-9.7840994402
 20
-4.3530068304
 10
-9.8026675232
 20
-2.9885794659
 10
-9.8172900429
 20
-1.6216976559
 10
-9.8279661969
 20
-0.2523664357
 10
-9.8346958857
 20
1.1193885115
 10
-9.8374787579
 20
2.4935517648
  0
LWPOLYLINE
  5
229
100
AcDbEntity
  8
RACCORDO
100
AcDbPolyline
 62
250
  6
CONTINUOUS
 90
12
 70
0
 10
-9.8374904059
 20
3.062056276
 10
-9.8371063154
 20
3.0501370228
 10
-9.8359415276
 20
3.0387351104
 10
-9.8340024902
 20
3.027913653
 10
-9.8312999364
 20
3.0177325516
 10
-9.827848826
 20
3.0082481627
 10
-9.8236682623
 20
2.9995129861
 10
-9.8187813863
 20
2.9915753745
 10
-9.8132152488
 20
2.9844792658
 10
-9.8070006606
 20
2.9782639397
 10
-9.800172022
 20
2.9729638007
 10
-9.7960842624
 20
2.9704011589
  0
LWPOLYLINE
  5
22A
100
AcDbEntity
  8
RACCORDO
100
AcDbPolyline
 62
250
  6
CONTINUOUS
 90
15
 70
0
 10
-9.6901406409
 20
19.9464116736
 10
-9.6898702476
 20
19.9306984652
 10
-9.6879543424
 20
19.9147837927
 10
-9.6843921471
 20
19.8989171093
 10
-9.6791954491
 20
19.8831509179
 10
-9.672381444
 20
19.8675373885
 10
-9.6639726795
 20
19.8521281861
 10
-9.6539969799
 20
19.8369742996
 10
-9.6424873548
 20
19.8221258731
 10
-9.6294818894
 20
19.8076320398
 10
-9.6150236187
 20
19.7935407597
 10
-9.5991603848
 20
19.7798986607
 10
-9.5819446791
 20
19.7667508843
 10
-9.5634334681
 20
19.7541409363
 10
-9.5436880053
 20
19.742110543
  0
LWPOLYLINE
  5
22B
100
AcDbEntity
  8
RACCORDO
100
AcDbPolyline
 62
7
  6
CONTINUOUS
 90
21
 70
0
 10
-9.9839372421
 20
3.2657177291
 10
-9.9839182543
 20
3.2620751359
 10
-9.9831951426
 20
3.244425731
 10
-9.9814130721
 20
3.2267145541
 10
-9.9785571767
 20
3.2089948571
 10
-9.9746122137
 20
3.1913074527
 10
-9.9695684516
 20
3.1737122438
 10
-9.9634221066
 20
3.1562700745
 10
-9.9561661014
 20
3.1390191264
 10
-9.9477987628
 20
3.1220097816
 10
-9.9383269697
 20
3.1053029309
 10
-9.9277529736
 20
3.0889423987
 10
-9.9160831822
 20
3.0729709102
 10
-9.9033299178
 20
3.0574355058
 10
-9.8894988257
 20
3.0423728037
 10
-9.8745998151
 20
3.0278210712
 10
-9.8586366901
 20
3.0138088614
 10
-9.8415902413
 20
3.0003497017
 10
-9.8234480816
 20
2.9874692226
 10
-9.8042227068
 20
2.9752085243
 10
-9.7960840372
 20
2.9704015486
  0
LWPOLYLINE
  5
22C
100
AcDbEntity
  8
RACCORDO
100
AcDbPolyline
 62
7
  6
CONTINUOUS
 90
13
 70
0
 10
-9.9839373511
 20
2.6982573184
 10
-9.9811895884
 20
1.3352443772
 10
-9.9744756425
 20
-0.0388206295
 10
-9.9638033042
 20
-1.4104910098
 10
-9.9491726428
 20
-2.7797494677
 10
-9.9305838232
 20
-4.1465807158
 10
-9.9080370206
 20
-5.5109701339
 10
-9.8815324373
 20
-6.8729025436
 10
-9.8510703452
 20
-8.2323629015
 10
-9.8166510146
 20
-9.5893367853
 10
-9.7782747629
 20
-10.9438089207
 10
-9.7359420762
 20
-12.2957620806
 10
-9.690114376
 20
-13.6323000745
  0
LWPOLYLINE
  5
22D
100
AcDbEntity
  8
RACCORDO
100
AcDbPolyline
 62
250
  6
CONTINUOUS
 90
13
 70
0
 10
-9.837478758
 20
3.0620495507
 10
-9.8346958858
 20
4.4395526541
 10
-9.8279661969
 20
5.8193638337
 10
-9.8172900429
 20
7.2014672625
 10
-9.8026675232
 20
8.5858361542
 10
-9.7840994402
 20
9.9724655351
 10
-9.7615869888
 20
11.3613724178
 10
-9.7351308352
 20
12.7525420864
 10
-9.7047308645
 20
14.1459576999
 10
-9.6703866316
 20
15.5416333414
 10
-9.6320979785
 20
16.9395632903
 10
-9.5898653197
 20
18.3397218646
 10
-9.5436888807
 20
19.7420933076
  0
LWPOLYLINE
  5
22E
100
AcDbEntity
  8
RACCORDO
100
AcDbPolyline
 62
250
  6
CONTINUOUS
 90
22
 70
0
 10
-9.8374904059
 20
2.4935584902
 10
-9.8371063144
 20
2.505921299
 10
-9.8359415237
 20
2.5186682964
 10
-9.8340024815
 20
2.5317289227
 10
-9.8312999213
 20
2.5450308819
 10
-9.8278488031
 20
2.558500542
 10
-9.8236682306
 20
2.5720633422
 10
-9.8187813455
 20
2.5856442067
 10
-9.8132151987
 20
2.5991679601
 10
-9.8070006017
 20
2.6125597423
 10
-9.8001719551
 20
2.6257454245
 10
-9.7927670586
 20
2.6386520187
 10
-9.7848269016
 20
2.6512080817
 10
-9.7763954366
 20
2.6633441109
 10
-9.7675193351
 20
2.6749929287
 10
-9.7582477304
 20
2.6860900545
 10
-9.7486319448
 20
2.6965740616
 10
-9.7387252054
 20
2.7063869176
 10
-9.7285823502
 20
2.7154743048
 10
-9.7182595239
 20
2.7237859216
 10
-9.7078138675
 20
2.7312757605
 10
-9.6973032016
 20
2.7379023629
  0
LWPOLYLINE
  5
22F
100
AcDbEntity
  8
RACCORDO
100
AcDbPolyline
 62
250
  6
CONTINUOUS
 90
37
 70
0
 10
6.415597476
 20
12.8597800238
 10
6.3716830237
 20
12.8313506316
 10
6.3279387833
 20
12.800962145
 10
6.2844375642
 20
12.7686662267
 10
6.2412512605
 20
12.7345184764
 10
6.1984522588
 20
12.6985761773
 10
6.1561133474
 20
12.6608980708
 10
6.114304275
 20
12.6215472042
 10
6.0730954464
 20
12.580590911
 10
6.0325592843
 20
12.5380986286
 10
5.9927638839
 20
12.4941430775
 10
5.953774787
 20
12.448798173
 10
5.9156586961
 20
12.402138936
 10
5.8784790869
 20
12.3542443228
 10
5.8422977982
 20
12.3051954512
 10
5.8071767985
 20
12.2550736057
 10
5.7731744066
 20
12.2039631632
 10
5.740347425
 20
12.1519509259
 10
5.708752753
 20
12.0991242894
 10
5.6784430453
 20
12.0455725276
 10
5.6494686659
 20
11.9913862044
 10
5.621879792
 20
11.9366565016
 10
5.5957225477
 20
11.8814762418
 10
5.5710401311
 20
11.8259383138
 10
5.5478747604
 20
11.7701351119
 10
5.5262650798
 20
11.7141608399
 10
5.5062469339
 20
11.6581099994
 10
5.4878545661
 20
11.6020758255
 10
5.4711184836
 20
11.5461519597
 10
5.4560667862
 20
11.4904336751
 10
5.4427258666
 20
11.4350163248
 10
5.4311180828
 20
11.3799941832
 10
5.4212622901
 20
11.3254591273
 10
5.4131752141
 20
11.2715018719
 10
5.4068704257
 20
11.2182129422
 10
5.4023582276
 20
11.1656824929
 10
5.3996460805
 20
11.1139989856
  0
LWPOLYLINE
  5
230
100
AcDbEntity
  8
RACCORDO
100
AcDbPolyline
 62
250
  6
CONTINUOUS
 90
37
 70
0
 10
6.7814178274
 20
12.255111455
 10
6.7519017498
 20
12.2362016391
 10
6.7225943265
 20
12.2160557566
 10
6.6934955574
 20
12.1946738078
 10
6.6645565449
 20
12.1720153377
 10
6.6358261866
 20
12.1481208013
 10
6.6074511756
 20
12.1231115624
 10
6.5794336345
 20
12.0969820399
 10
6.5517714407
 20
12.069737815
 10
6.5246049201
 20
12.0415169959
 10
6.4979370047
 20
12.0123150291
 10
6.4717647624
 20
11.9821364682
 10
6.4462197236
 20
11.9511330818
 10
6.4213050074
 20
11.919300717
 10
6.3970174947
 20
11.8866435268
 10
6.3734793583
 20
11.8533257388
 10
6.3506942287
 20
11.8193437871
 10
6.3286584755
 20
11.7847012375
 10
6.3074833803
 20
11.7495730154
 10
6.2871733355
 20
11.713956668
 10
6.2677239488
 20
11.6778546479
 10
6.2492333241
 20
11.641449238
 10
6.2317064294
 20
11.604739168
 10
6.2151382967
 20
11.5677257082
 10
6.1996121257
 20
11.5305949523
 10
6.1851331323
 20
11.4933463414
 10
6.1716961007
 20
11.4559804345
 10
6.159368583
 20
11.4186850018
 10
6.1481560659
 20
11.381459844
 10
6.1380530627
 20
11.3443051605
 10
6.1291106652
 20
11.3074093198
 10
6.1213348301
 20
11.2707730223
 10
6.1147196006
 20
11.2343955675
 10
6.1092981976
 20
11.1984632227
 10
6.1050816946
 20
11.1630380768
 10
6.1020590181
 20
11.1280580408
 10
6.1002301681
 20
11.0935231147
  0
LWPOLYLINE
  5
231
100
AcDbEntity
  8
RACCORDO
100
AcDbPolyline
 62
7
  6
CONTINUOUS
 90
19
 70
0
 10
-9.8164668413
 20
2.9830170399
 10
-9.8176018992
 20
2.9822991685
 10
-9.8365368234
 20
2.9691498182
 10
-9.8544197233
 20
2.9553007105
 10
-9.8712390984
 20
2.9407719494
 10
-9.8869759686
 20
2.9255926158
 10
-9.9015934698
 20
2.909810815
 10
-9.9150762923
 20
2.8934568194
 10
-9.9274033507
 20
2.8765734241
 10
-9.9385282037
 20
2.8592494677
 10
-9.9484351998
 20
2.8415451164
 10
-9.9571196735
 20
2.8235132648
 10
-9.9645632539
 20
2.8052557189
 10
-9.9707707871
 20
2.7868465641
 10
-9.9757554157
 20
2.7683509917
 10
-9.9795293479
 20
2.7498718625
 10
-9.9821220567
 20
2.7314922086
 10
-9.9835722573
 20
2.7132689261
 10
-9.9839372991
 20
2.698217307
  0
LINE
  5
232
100
AcDbEntity
  8
RACCORDO
100
AcDbLine
 62
250
  6
CONTINUOUS
 10
8.6201159138
 20
14.2200819939
 11
6.4155975481
 21
12.8597799823
  0
LINE
  5
233
100
AcDbEntity
  8
RACCORDO
100
AcDbLine
 62
250
  6
CONTINUOUS
 10
9.0047427085
 20
13.6270180607
 11
6.7814178274
 21
12.255111455
  0
LWPOLYLINE
  5
234
100
AcDbEntity
  8
RACCORDO
100
AcDbPolyline
 62
250
  6
CONTINUOUS
 90
28
 70
0
 10
6.1002301681
 20
11.0935231147
 10
6.0789919816
 20
11.0833106948
 10
6.0566747627
 20
11.0738192424
 10
6.0333523588
 20
11.0650801646
 10
6.0091019437
 20
11.0571223789
 10
5.9840037617
 20
11.0499722176
 10
5.9581408625
 20
11.0436533405
 10
5.9315988263
 20
11.0381866568
 10
5.9044654804
 20
11.0335902556
 10
5.8768306088
 20
11.0298793464
 10
5.848785655
 20
11.0270662085
 10
5.8204234197
 20
11.0251601506
 10
5.7918377532
 20
11.0241674799
 10
5.7631232453
 20
11.024091481
 10
5.734374912
 20
11.0249324056
 10
5.7056878813
 20
11.0266874708
 10
5.6771570783
 20
11.0293508693
 10
5.6488769113
 20
11.0329137879
 10
5.6209409591
 20
11.0373644369
 10
5.5934416616
 20
11.0426880891
 10
5.5664700136
 20
11.0488671287
 10
5.5401152641
 20
11.0558811092
 10
5.5144646209
 20
11.0637068215
 10
5.4896029616
 20
11.0723183703
 10
5.4656125533
 20
11.08168726
 10
5.44257278
 20
11.0917824892
 10
5.4205598802
 20
11.1025706527
 10
5.3996466943
 20
11.1140160527
  0
LINE
  5
235
100
AcDbEntity
  8
DRAFT
100
AcDbLine
 62
7
  6
CONTINUOUS
 10
-4.4224481113
 20
21.7506950002
 11
-4.4011137323
 21
21.1304696522
  0
LWPOLYLINE
  5
236
100
AcDbEntity
  8
RACCORDO
100
AcDbPolyline
 62
250
  6
CONTINUOUS
 90
12
 70
0
 10
-3.5161348958
 20
-0.587815171
 10
-3.5157508084
 20
-0.5997343794
 10
-3.514586029
 20
-0.6111362557
 10
-3.5126470042
 20
-0.6219576857
 10
-3.5099444663
 20
-0.632138768
 10
-3.506493374
 20
-0.6416231459
 10
-3.5023128294
 20
-0.650358319
 10
-3.4974259725
 20
-0.6582959338
 10
-3.4918598531
 20
-0.6653920516
 10
-3.4856452811
 20
-0.6716073916
 10
-3.4788166557
 20
-0.6769075482
 10
-3.4747184065
 20
-0.6794762622
  0
LINE
  5
237
100
AcDbEntity
  8
RACCORDO
100
AcDbLine
 62
250
  6
CONTINUOUS
 10
-4.6039785956
 20
21.3335351398
 11
-4.6039785956
 21
21.2709313565
  0
LWPOLYLINE
  5
238
100
AcDbEntity
  8
RACCORDO
100
AcDbPolyline
 62
250
  6
CONTINUOUS
 90
22
 70
0
 10
-3.5161348958
 20
-1.1563129554
 10
-3.5157508053
 20
-1.1439501641
 10
-3.5145860175
 20
-1.1312031841
 10
-3.5126469801
 20
-1.1181425749
 10
-3.5099444263
 20
-1.1048406323
 10
-3.5064933159
 20
-1.0913709876
 10
-3.5023127521
 20
-1.0778082009
 10
-3.4974258762
 20
-1.0642273475
 10
-3.4918597387
 20
-1.0507036029
 10
-3.4856451506
 20
-1.0373118263
 10
-3.478816512
 20
-1.0241261466
 10
-3.4714116223
 20
-1.0112195517
 10
-3.4634714703
 20
-0.9986634849
 10
-3.455040008
 20
-0.9865274489
 10
-3.446163907
 20
-0.9748786216
 10
-3.4368922998
 20
-0.9637814838
 10
-3.4272765087
 20
-0.9532974626
 10
-3.4173697608
 20
-0.9434845912
 10
-3.407226894
 20
-0.9343971878
 10
-3.3969040529
 20
-0.9260855548
 10
-3.3864583787
 20
-0.9185957004
 10
-3.3759476924
 20
-0.9119690839
  0
LINE
  5
239
100
AcDbEntity
  8
RACCORDO
100
AcDbLine
 62
7
  6
CONTINUOUS
 10
3.497147838
 20
17.1780195549
 11
3.3156173537
 21
16.7608596946
  0
LWPOLYLINE
  5
23A
100
AcDbEntity
  8
RACCORDO
100
AcDbPolyline
 62
250
  6
CONTINUOUS
 90
25
 70
0
 10
-3.1714633393
 20
-1.2096121665
 10
-3.1748794124
 20
-1.1950099419
 10
-3.1788822705
 20
-1.180292926
 10
-3.183460196
 20
-1.1655042781
 10
-3.1885997498
 20
-1.1506873363
 10
-3.1942859173
 20
-1.1358856292
 10
-3.2005021444
 20
-1.1211427479
 10
-3.20723041
 20
-1.106501616
 10
-3.2144508236
 20
-1.0920056191
 10
-3.2221416536
 20
-1.0776985714
 10
-3.23027995
 20
-1.0636230102
 10
-3.238842015
 20
-1.0498196922
 10
-3.247802961
 20
-1.0363287269
 10
-3.2571364648
 20
-1.0231897774
 10
-3.2668151215
 20
-1.0104413931
 10
-3.2768108679
 20
-0.9981205432
 10
-3.2870948402
 20
-0.9862630177
 10
-3.2976364636
 20
-0.9749042134
 10
-3.3084038216
 20
-0.9640784017
 10
-3.3193647473
 20
-0.953817845
 10
-3.3304875945
 20
-0.9441520479
 10
-3.3417403639
 20
-0.9351086531
 10
-3.3530902848
 20
-0.9267140793
 10
-3.364503879
 20
-0.9189933029
 10
-3.3759476924
 20
-0.9119690839
  0
LWPOLYLINE
  5
23B
100
AcDbEntity
  8
RACCORDO
100
AcDbPolyline
 62
250
  6
CONTINUOUS
 90
25
 70
0
 10
-3.4479463989
 20
-1.255536885
 10
-3.4490768741
 20
-1.2506390084
 10
-3.4503957868
 20
-1.2457313932
 10
-3.4519031395
 20
-1.240814041
 10
-3.453604473
 20
-1.2358721911
 10
-3.4554942515
 20
-1.2309206071
 10
-3.457555863
 20
-1.2260035769
 10
-3.4597908579
 20
-1.2211215191
 10
-3.4621976922
 20
-1.2162740188
 10
-3.4647551139
 20
-1.2115041143
 10
-3.4674644965
 20
-1.20681255
 10
-3.4703244734
 20
-1.2021985855
 10
-3.4733096831
 20
-1.1977030317
 10
-3.4764211115
 20
-1.1933271218
 10
-3.4796577793
 20
-1.1890696264
 10
-3.4829913782
 20
-1.1849676639
 10
-3.48642285
 20
-1.1810225212
 10
-3.4899512584
 20
-1.1772329146
 10
-3.4935454783
 20
-1.1736321065
 10
-3.4972060911
 20
-1.1702217647
 10
-3.5009325196
 20
-1.1670002238
 10
-3.5046918997
 20
-1.1639957456
 10
-3.5084732777
 20
-1.1612177514
 10
-3.5122876096
 20
-1.1586568212
 10
-3.5161348958
 20
-1.1563129554
  0
LWPOLYLINE
  5
23C
100
AcDbEntity
  8
RACCORDO
100
AcDbPolyline
 62
250
  6
CONTINUOUS
 90
64
 70
0
 10
-3.4479463989
 20
-0.5672413971
 10
-3.4349481935
 20
-0.5244518659
 10
-3.4201445077
 20
-0.4833223351
 10
-3.4035355381
 20
-0.4438529187
 10
-3.3850910122
 20
-0.4059416991
 10
-3.3648415645
 20
-0.3696908037
 10
-3.3428788583
 20
-0.3354064756
 10
-3.319180982
 20
-0.3031120381
 10
-3.2937704289
 20
-0.2727845038
 10
-3.2668056626
 20
-0.2446607606
 10
-3.2382717105
 20
-0.2187700751
 10
-3.2081842645
 20
-0.1950835952
 10
-3.1767479308
 20
-0.1737511153
 10
-3.1439736877
 20
-0.1548030506
 10
-3.109851337
 20
-0.1382094348
 10
-3.0745538031
 20
-0.1240295369
 10
-3.0380869106
 20
-0.112272122
 10
-3.0004455784
 20
-0.1029288525
 10
-2.9617864039
 20
-0.0960333612
 10
-2.922094666
 20
-0.0915911689
 10
-2.8813857524
 20
-0.089597138
 10
-2.8398614371
 20
-0.0900689216
 10
-2.7975095749
 20
-0.0930213545
 10
-2.7543428802
 20
-0.0984399291
 10
-2.7106004143
 20
-0.1062982832
 10
-2.6662837153
 20
-0.1166107185
 10
-2.6213916819
 20
-0.1293631842
 10
-2.5761593932
 20
-0.1444867764
 10
-2.530588406
 20
-0.1619926491
 10
-2.4846774365
 20
-0.181869805
 10
-2.438657265
 20
-0.2040160908
 10
-2.392528073
 20
-0.228441818
 10
-2.3462897717
 20
-0.2551367283
 10
-2.3001726908
 20
-0.2839677883
 10
-2.2541768156
 20
-0.3149452883
 10
-2.2083020683
 20
-0.3480588847
 10
-2.1627786393
 20
-0.3831445676
 10
-2.1176051381
 20
-0.4202147921
 10
-2.0727826824
 20
-0.4592569464
 10
-2.0285451874
 20
-0.5000693977
 10
-1.9848910283
 20
-0.5426677978
 10
-1.9418213931
 20
-0.5870362442
 10
-1.8995743925
 20
-0.6329257596
 10
-1.8581619167
 20
-0.6803369548
 10
-1.8175715061
 20
-0.7292688921
 10
-1.7780047444
 20
-0.7794702701
 10
-1.7394766424
 20
-0.8309286769
 10
-1.7019715229
 20
-0.8836561414
 10
-1.6656449505
 20
-0.937438031
 10
-1.6304917951
 20
-0.9922878051
 10
-1.5965164442
 20
-1.0481915771
 10
-1.5638887705
 20
-1.1048937142
 10
-1.5325977553
 20
-1.162436009
 10
-1.5026536373
 20
-1.2207762197
 10
-1.4742582562
 20
-1.2795327079
 10
-1.4474259618
 20
-1.3387176729
 10
-1.4221416831
 20
-1.3983184997
 10
-1.3985632744
 20
-1.4579164123
 10
-1.376712471
 20
-1.5175095747
 10
-1.3565669534
 20
-1.5770994855
 10
-1.3382186869
 20
-1.6362724821
 10
-1.3216982463
 20
-1.69489063
 10
-1.3069746933
 20
-1.7530916528
 10
-1.2940478303
 20
-1.8108754359
  0
LWPOLYLINE
  5
23D
100
AcDbEntity
  8
RACCORDO
100
AcDbPolyline
 62
250
  6
CONTINUOUS
 90
14
 70
0
 10
-3.1714632728
 20
-0.6086723468
 10
-3.1601100198
 20
-0.571431045
 10
-3.1471704403
 20
-0.535488092
 10
-3.1326469805
 20
-0.5009213514
 10
-3.1165345527
 20
-0.4677879407
 10
-3.098850462
 20
-0.436185299
 10
-3.0796434407
 20
-0.4062407659
 10
-3.0589356261
 20
-0.378016614
 10
-3.0367532062
 20
-0.3515742209
 10
-3.0131712958
 20
-0.3270163861
 10
-2.9882318342
 20
-0.304390146
 10
-2.961973463
 20
-0.2837336852
 10
-2.934483628
 20
-0.2651122027
 10
-2.916464685
 20
-0.254385547
  0
LWPOLYLINE
  5
23E
100
AcDbEntity
  8
0
100
AcDbPolyline
 62
7
  6
CONTINUOUS
 90
11
 70
0
 10
-2.743127587
 20
-0.3684988969
 10
-2.7464644127
 20
-0.3792789205
 10
-2.7503782432
 20
-0.3894528397
 10
-2.7548690783
 20
-0.3990206545
 10
-2.7599605089
 20
-0.4080183544
 10
-2.7656289441
 20
-0.4164099498
 10
-2.7718036121
 20
-0.4240874722
 10
-2.7784717654
 20
-0.4310254321
 10
-2.7856461514
 20
-0.4372493189
 10
-2.79329424
 20
-0.4427276322
 10
-2.7988681784
 20
-0.4460816778
  0
LWPOLYLINE
  5
23F
100
AcDbEntity
  8
0
100
AcDbPolyline
 62
7
  6
CONTINUOUS
 90
6
 70
0
 10
-2.6793657608
 20
-0.2106184527
 10
-2.6879822601
 20
-0.2260473554
 10
-2.7040913018
 20
-0.2592634261
 10
-2.7186377797
 20
-0.294051902
 10
-2.7316498747
 20
-0.3304637257
 10
-2.743127587
 20
-0.3684988969
  0
LWPOLYLINE
  5
240
100
AcDbEntity
  8
RACCORDO
100
AcDbPolyline
 62
250
  6
CONTINUOUS
 90
22
 70
0
 10
-3.4479463988
 20
-1.255536885
 10
-3.4374268095
 20
-1.2579252113
 10
-3.4261830675
 20
-1.2598478447
 10
-3.4142773738
 20
-1.2612941493
 10
-3.4017755912
 20
-1.262256124
 10
-3.3887468802
 20
-1.262728447
 10
-3.3752633162
 20
-1.2627085056
 10
-3.3613994908
 20
-1.2621964099
 10
-3.3472320993
 20
-1.261194993
 10
-3.3328395165
 20
-1.2597097947
 10
-3.3183013627
 20
-1.2577490312
 10
-3.3036980637
 20
-1.2553235496
 10
-3.2891104055
 20
-1.2524467676
 10
-3.2746190877
 20
-1.2491345999
 10
-3.260304277
 20
-1.2454053693
 10
-3.2462451636
 20
-1.2412797064
 10
-3.2325195231
 20
-1.2367804343
 10
-3.2192032863
 20
-1.2319324432
 10
-3.2063701193
 20
-1.2267625526
 10
-3.1940910157
 20
-1.2212993623
 10
-3.1824339042
 20
-1.2155730951
 10
-3.1714632723
 20
-1.2096154289
  0
LWPOLYLINE
  5
241
100
AcDbEntity
  8
RACCORDO
100
AcDbPolyline
 62
250
  6
CONTINUOUS
 90
11
 70
0
 10
-1.2940478301
 20
-1.8108754359
 10
-1.303789751
 20
-1.8080380935
 10
-1.3126954284
 20
-1.8047654909
 10
-1.3207155958
 20
-1.8010757321
 10
-1.3278058853
 20
-1.7969892292
 10
-1.333927073
 20
-1.7925285887
 10
-1.3390452963
 20
-1.7877184873
 10
-1.343132241
 20
-1.7825855345
 10
-1.3461652978
 20
-1.7771581262
 10
-1.3481276877
 20
-1.7714662869
 10
-1.3483674695
 20
-1.7704143978
  0
LWPOLYLINE
  5
242
100
AcDbEntity
  8
RACCORDO
100
AcDbPolyline
 62
7
  6
CONTINUOUS
 90
18
 70
0
 10
-3.4747096177
 20
-0.6794803599
 10
-3.4603755572
 20
-0.687229953
 10
-3.4449167015
 20
-0.6944549371
 10
-3.4293167563
 20
-0.7006155714
 10
-3.4136371664
 20
-0.7057158111
 10
-3.3979142547
 20
-0.7097695506
 10
-3.3821739813
 20
-0.7127917451
 10
-3.3664941098
 20
-0.7147906144
 10
-3.3509220596
 20
-0.7157840962
 10
-3.3354566144
 20
-0.7157897662
 10
-3.3201656991
 20
-0.7148228694
 10
-3.3051095075
 20
-0.7129058318
 10
-3.2902846462
 20
-0.7100518281
 10
-3.2757569883
 20
-0.70628281
 10
-3.2615846765
 20
-0.7016259354
 10
-3.2477595297
 20
-0.6960869546
 10
-3.2343206589
 20
-0.6896824121
 10
-3.2273226553
 20
-0.6859172493
  0
LWPOLYLINE
  5
243
100
AcDbEntity
  8
RACCORDO
100
AcDbPolyline
 62
250
  6
CONTINUOUS
 90
16
 70
0
 10
-1.0857519821
 20
-2.2342993841
 10
-1.0972935767
 20
-2.2280521166
 10
-1.1087973702
 20
-2.2225406806
 10
-1.1202295101
 20
-2.217781178
 10
-1.1315560568
 20
-2.2137875587
 10
-1.1427440092
 20
-2.2105713797
 10
-1.1537613662
 20
-2.2081419514
 10
-1.164576258
 20
-2.2065064426
 10
-1.1751562632
 20
-2.2056698833
 10
-1.1854694749
 20
-2.2056348528
 10
-1.1954852211
 20
-2.2064013177
 10
-1.2051744993
 20
-2.2079668992
 10
-1.2145092546
 20
-2.2103270298
 10
-1.2234620984
 20
-2.2134747974
 10
-1.2320066909
 20
-2.2174009457
 10
-1.2371220804
 20
-2.2202411926
  0
LWPOLYLINE
  5
244
100
AcDbEntity
  8
RACCORDO
100
AcDbPolyline
 62
250
  6
CONTINUOUS
 90
25
 70
0
 10
-1.2259391855
 20
-2.4786432556
 10
-1.229786324
 20
-2.476544457
 10
-1.2336002226
 20
-2.4747009425
 10
-1.2373808809
 20
-2.4731127118
 10
-1.2411392494
 20
-2.4717765361
 10
-1.2448643754
 20
-2.4706956429
 10
-1.2485234032
 20
-2.4698797159
 10
-1.2521157493
 20
-2.4693310909
 10
-1.255641993
 20
-2.4690474298
 10
-1.2590710234
 20
-2.4690314045
 10
-1.2624018965
 20
-2.4692853844
 10
-1.2656355505
 20
-2.469806997
 10
-1.2687436972
 20
-2.4705918022
 10
-1.2717253488
 20
-2.471642165
 10
-1.2745814866
 20
-2.4729557167
 10
-1.2772867764
 20
-2.4745209169
 10
-1.279839843
 20
-2.4763400896
 10
-1.2822420549
 20
-2.4784109069
 10
-1.2844721948
 20
-2.4807148518
 10
-1.2865287108
 20
-2.4832541268
 10
-1.2884131484
 20
-2.4860265257
 10
-1.2901089383
 20
-2.4890069191
 10
-1.2916105558
 20
-2.4921869296
 10
-1.2929235207
 20
-2.4955749317
 10
-1.2940478303
 20
-2.4991709239
  0
LWPOLYLINE
  5
245
100
AcDbEntity
  8
RACCORDO
100
AcDbPolyline
 62
250
  6
CONTINUOUS
 90
25
 70
0
 10
-3.5161348958
 20
-0.587815171
 10
-3.5122876096
 20
-0.5899138842
 10
-3.5084732777
 20
-0.5917571486
 10
-3.5046918997
 20
-0.5933449638
 10
-3.5009325196
 20
-0.5946805554
 10
-3.4972060911
 20
-0.5957606965
 10
-3.4935454783
 20
-0.5965757084
 10
-3.4899512584
 20
-0.5971232514
 10
-3.48642285
 20
-0.5974056627
 10
-3.4829913782
 20
-0.5974202783
 10
-3.4796577793
 20
-0.5971647246
 10
-3.4764211115
 20
-0.5966413719
 10
-3.4733096831
 20
-0.5958546718
 10
-3.4703244734
 20
-0.5948022546
 10
-3.4674644965
 20
-0.5934864863
 10
-3.4647551139
 20
-0.591918923
 10
-3.4621976922
 20
-0.5900972357
 10
-3.459790858
 20
-0.5880237495
 10
-3.457555863
 20
-0.5857170014
 10
-3.4554942515
 20
-0.5831747843
 10
-3.453604473
 20
-0.5803993016
 10
-3.4519031395
 20
-0.5774157074
 10
-3.4503957868
 20
-0.5742323855
 10
-3.4490768742
 20
-0.5708409492
 10
-3.4479463989
 20
-0.5672413971
  0
LWPOLYLINE
  5
246
100
AcDbEntity
  8
RACCORDO
100
AcDbPolyline
 62
7
  6
CONTINUOUS
 90
25
 70
0
 10
5.1368262342
 20
-5.6516736894
 10
5.1567721649
 20
-5.6625847002
 10
5.1807192987
 20
-5.6742195675
 10
5.2053114838
 20
-5.684692494
 10
5.2304929127
 20
-5.6940345929
 10
5.2562135389
 20
-5.7022708924
 10
5.2824017773
 20
-5.7094138056
 10
5.3090019315
 20
-5.715478471
 10
5.3359641902
 20
-5.7204735974
 10
5.3631968176
 20
-5.7244011829
 10
5.3906443234
 20
-5.7272667761
 10
5.418254873
 20
-5.7290732092
 10
5.445928728
 20
-5.729820222
 10
5.4736108868
 20
-5.7295075847
 10
5.5012463204
 20
-5.7281348727
 10
5.5287352476
 20
-5.7257007072
 10
5.5560259312
 20
-5.7222018617
 10
5.5830629135
 20
-5.7176318047
 10
5.6097545943
 20
-5.7119874581
 10
5.6360511263
 20
-5.7052595093
 10
5.6618972448
 20
-5.6974319213
 10
5.6872223105
 20
-5.6884913461
 10
5.7119765503
 20
-5.6784118808
 10
5.7361042153
 20
-5.6671623394
 10
5.7534502684
 20
-5.6581025834
  0
LWPOLYLINE
  5
247
100
AcDbEntity
  8
RACCORDO
100
AcDbPolyline
 62
250
  6
CONTINUOUS
 90
31
 70
0
 10
5.0954046784
 20
-5.5600101845
 10
5.1141788227
 20
-5.5703066959
 10
5.1338493053
 20
-5.5800336698
 10
5.1543632273
 20
-5.5891651629
 10
5.175664474
 20
-5.5976765444
 10
5.1976967163
 20
-5.6055455363
 10
5.2204038799
 20
-5.6127519781
 10
5.2437270003
 20
-5.6192769877
 10
5.2676020172
 20
-5.6251024144
 10
5.2919628617
 20
-5.6302118666
 10
5.3167432512
 20
-5.6345916852
 10
5.3418776529
 20
-5.6382304656
 10
5.3672993297
 20
-5.6411182778
 10
5.392940425
 20
-5.6432475677
 10
5.4187319277
 20
-5.6446127015
 10
5.4446045071
 20
-5.6452096502
 10
5.4704888077
 20
-5.6450370273
 10
5.4963154359
 20
-5.6440954586
 10
5.5220149556
 20
-5.6423870731
 10
5.5475181894
 20
-5.6399167372
 10
5.5727570677
 20
-5.6366912723
 10
5.5976645862
 20
-5.6327187698
 10
5.6221748896
 20
-5.6280099007
 10
5.6462212738
 20
-5.6225776083
 10
5.6697371592
 20
-5.6164364936
 10
5.692657931
 20
-5.6096039713
 10
5.7149240751
 20
-5.6020983133
 10
5.7364789345
 20
-5.5939381047
 10
5.7572655179
 20
-5.5851446848
 10
5.7772269638
 20
-5.5757423884
 10
5.7963095925
 20
-5.5657565778
  0
LINE
  5
248
100
AcDbEntity
  8
RACCORDO
100
AcDbLine
 62
250
  6
CONTINUOUS
 10
5.0954046766
 20
-6.1285079773
 11
-1.2259391855
 21
-2.4786432556
  0
LINE
  5
249
100
AcDbEntity
  8
RACCORDO
100
AcDbLine
 62
250
  6
CONTINUOUS
 10
-3.5161348958
 20
-1.1563129554
 11
-9.8374787579
 21
2.4935517648
  0
LINE
  5
24A
100
AcDbEntity
  8
RACCORDO
100
AcDbLine
 62
250
  6
CONTINUOUS
 10
5.2356035289
 20
-5.8841708299
 11
-1.0857519821
 21
-2.2342993841
  0
LINE
  5
24B
100
AcDbEntity
  8
RACCORDO
100
AcDbLine
 62
250
  6
CONTINUOUS
 10
-3.3759476924
 20
-0.9119690839
 11
-9.6973032016
 21
2.7379023629
  0
LINE
  5
24C
100
AcDbEntity
  8
RACCORDO
100
AcDbLine
 62
7
  6
CONTINUOUS
 10
-9.796073916
 20
2.9703951837
 11
-3.4747184065
 21
-0.6794762622
  0
LINE
  5
24D
100
AcDbEntity
  8
RACCORDO
100
AcDbLine
 62
7
  6
CONTINUOUS
 10
-1.1845226956
 20
-2.0018065628
 11
5.1368328152
 21
-5.6516780096
  0
LINE
  5
24E
100
AcDbEntity
  8
RACCORDO
100
AcDbLine
 62
250
  6
CONTINUOUS
 10
-9.837478758
 20
3.0620495507
 11
-3.5161348958
 21
-0.587815171
  0
LINE
  5
24F
100
AcDbEntity
  8
RACCORDO
100
AcDbLine
 62
250
  6
CONTINUOUS
 10
-1.2259391855
 20
-1.9101454712
 11
5.0954046765
 21
-5.5600101914
  0
LINE
  5
250
100
AcDbEntity
  8
0
100
AcDbLine
 62
7
  6
CONTINUOUS
 10
-2.9477067643
 20
-0.6636876076
 11
-3.0657979958
 21
-0.5955032105
  0
LWPOLYLINE
  5
251
100
AcDbEntity
  8
RACCORDO
100
AcDbPolyline
 62
250
  6
CONTINUOUS
 90
17
 70
0
 10
-9.8374787559
 20
2.4935517601
 10
-9.8553061826
 20
2.5043948944
 10
-9.8721368797
 20
2.515761525
 10
-9.8879259217
 20
2.5276211044
 10
-9.9026305555
 20
2.5399412875
 10
-9.9162123163
 20
2.5526894815
 10
-9.9286366203
 20
2.5658331177
 10
-9.939870711
 20
2.5793381815
 10
-9.9498832513
 20
2.5931676285
 10
-9.9586464173
 20
2.6072829847
 10
-9.9661365215
 20
2.6216459973
 10
-9.9723339088
 20
2.6362187726
 10
-9.9772221428
 20
2.6509623372
 10
-9.9807881199
 20
2.6658375238
 10
-9.9830221871
 20
2.6808044255
 10
-9.9839183208
 20
2.695822461
 10
-9.9839373258
 20
2.6982211161
  0
LWPOLYLINE
  5
252
100
AcDbEntity
  8
0
100
AcDbPolyline
 62
7
  6
CONTINUOUS
 90
24
 70
0
 10
-2.9477067643
 20
-0.6636876076
 10
-2.9362112417
 20
-0.6706817761
 10
-2.9247901914
 20
-0.6783481957
 10
-2.9134436136
 20
-0.6866868663
 10
-2.9021229681
 20
-0.6957392729
 10
-2.8908767951
 20
-0.7054639306
 10
-2.8798507147
 20
-0.7157363843
 10
-2.8690769423
 20
-0.7265321093
 10
-2.8585232625
 20
-0.7378756304
 10
-2.84823865
 20
-0.749716067
 10
-2.8382018406
 20
-0.7620829088
 10
-2.8284340984
 20
-0.774946666
 10
-2.8190481906
 20
-0.7881679892
 10
-2.8100510833
 20
-0.8017534324
 10
-2.8014358104
 20
-0.8156964415
 10
-2.79329424
 20
-0.8298380043
 10
-2.7856461514
 20
-0.8441481385
 10
-2.7784717654
 20
-0.8586568265
 10
-2.7718036121
 20
-0.8732950027
 10
-2.7656289441
 20
-0.8881028768
 10
-2.7599605089
 20
-0.9030402392
 10
-2.7548690783
 20
-0.9179173955
 10
-2.7503782432
 20
-0.9326711141
 10
-2.7464644127
 20
-0.9473646266
  0
LWPOLYLINE
  5
253
100
AcDbEntity
  8
RACCORDO
100
AcDbPolyline
 62
250
  6
CONTINUOUS
 90
26
 70
0
 10
-9.6973032016
 20
2.7379023629
 10
-9.7080330578
 20
2.7444350365
 10
-9.7181163387
 20
2.751247579
 10
-9.7275530443
 20
2.7583399906
 10
-9.7363654702
 20
2.7657329287
 10
-9.7445313208
 20
2.7734057358
 10
-9.7519837087
 20
2.7812964393
 10
-9.7587166402
 20
2.7894067863
 10
-9.7647361089
 20
2.7977350296
 10
-9.7699932081
 20
2.8062139548
 10
-9.7744815662
 20
2.81484453
 10
-9.7782075547
 20
2.8236257872
 10
-9.7811413814
 20
2.8324876077
 10
-9.7832767314
 20
2.8414307771
 10
-9.7846199194
 20
2.8504545098
 10
-9.7851600978
 20
2.8594863305
 10
-9.784890754
 20
2.8685262768
 10
-9.7838184004
 20
2.8775743111
 10
-9.7819517267
 20
2.8865578453
 10
-9.7792844072
 20
2.8954762484
 10
-9.7758227675
 20
2.9043301514
 10
-9.771594474
 20
2.9130488598
 10
-9.7665931249
 20
2.9216315364
 10
-9.760825122
 20
2.9300790183
 10
-9.7543373375
 20
2.9383231231
 10
-9.7496241468
 20
2.9435756691
  0
LWPOLYLINE
  5
254
100
AcDbEntity
  8
RACCORDO
100
AcDbPolyline
 62
250
  6
CONTINUOUS
 90
22
 70
0
 10
-3.4479463395
 20
-0.5672413628
 10
-3.4374267391
 20
-0.5761028384
 10
-3.426182979
 20
-0.5844643339
 10
-3.4142772606
 20
-0.5922795929
 10
-3.4017754472
 20
-0.5995053806
 10
-3.3887466999
 20
-0.6061017236
 10
-3.3752630946
 20
-0.6120321304
 10
-3.3613992236
 20
-0.6172637934
 10
-3.347231783
 20
-0.6217677707
 10
-3.3328391482
 20
-0.625519146
 10
-3.3183009402
 20
-0.6284971664
 10
-3.3036975855
 20
-0.6306853573
 10
-3.2891098711
 20
-0.6320716133
 10
-3.2746184972
 20
-0.6326482657
 10
-3.2603036313
 20
-0.6324121244
 10
-3.2462444643
 20
-0.6313644956
 10
-3.2325187725
 20
-0.629511175
 10
-3.2192024876
 20
-0.6268624153
 10
-3.2063692762
 20
-0.6234328696
 10
-3.1940901327
 20
-0.6192415104
 10
-3.1824329862
 20
-0.6143115247
 10
-3.1714623249
 20
-0.6086701855
  0
LWPOLYLINE
  5
255
100
AcDbEntity
  8
RACCORDO
100
AcDbPolyline
 62
250
  6
CONTINUOUS
 90
14
 70
0
 10
-1.2940477708
 20
-2.4991708895
 10
-1.3037897925
 20
-2.4898604497
 10
-1.3126955693
 20
-2.4801490319
 10
-1.3207158337
 20
-2.4700903605
 10
-1.3278062169
 20
-2.4597400808
 10
-1.3339274945
 20
-2.4491554514
 10
-1.339045803
 20
-2.4383950271
 10
-1.3431328276
 20
-2.4275183355
 10
-1.3461659586
 20
-2.4165855474
 10
-1.3481284164
 20
-2.4056571436
 10
-1.3490093445
 20
-2.394793581
 10
-1.3488038697
 20
-2.3840549576
 10
-1.3475131286
 20
-2.3735006803
 10
-1.3453561228
 20
-2.3639421752
  0
LWPOLYLINE
  5
256
100
AcDbEntity
  8
DRAFT
100
AcDbPolyline
 62
7
  6
CONTINUOUS
 90
18
 70
0
 10
-1.3898822264
 20
-1.607740117
 10
-1.399560484
 20
-1.5963058995
 10
-1.4451875401
 20
-1.5397643705
 10
-1.489708622
 20
-1.4819050128
 10
-1.5331188035
 20
-1.4227219577
 10
-1.5754230107
 20
-1.3622210739
 10
-1.6164331086
 20
-1.3006714317
 10
-1.6561433329
 20
-1.2380683608
 10
-1.6945594478
 20
-1.1744165316
 10
-1.7315106105
 20
-1.1099990257
 10
-1.7669902962
 20
-1.0448124336
 10
-1.8010050297
 20
-0.978860165
 10
-1.8334035434
 20
-0.9124355303
 10
-1.8641786387
 20
-0.8455364265
 10
-1.8933375142
 20
-0.7781649567
 10
-1.9207504983
 20
-0.7106207414
 10
-1.9464098149
 20
-0.6429030118
 10
-1.9464860751
 20
-0.6426865082
  0
LWPOLYLINE
  5
257
100
AcDbEntity
  8
DRAFT
100
AcDbPolyline
 62
7
  6
CONTINUOUS
 90
14
 70
0
 10
-1.9102098445
 20
-0.6819734929
 10
-1.8969764445
 20
-0.7139691807
 10
-1.8626758317
 20
-0.7919508318
 10
-1.8264777329
 20
-0.8695446237
 10
-1.7884064639
 20
-0.9467170614
 10
-1.748650137
 20
-1.0230878922
 10
-1.7072234437
 20
-1.0986138531
 10
-1.6641116925
 20
-1.1733382071
 10
-1.619458921
 20
-1.2470104906
 10
-1.5732314772
 20
-1.3196694171
 10
-1.5254630131
 20
-1.3912762731
 10
-1.4763985227
 20
-1.4614644552
 10
-1.4260650153
 20
-1.5301831737
 10
-1.4057672646
 20
-1.5566416642
  0
LWPOLYLINE
  5
258
100
AcDbEntity
  8
0
100
AcDbPolyline
 62
7
  6
CONTINUOUS
 90
44
 70
0
 10
-2.7464644127
 20
-0.9473646266
 10
-2.7316498747
 20
-1.0132872787
 10
-2.7186377797
 20
-1.0647251435
 10
-2.7040913018
 20
-1.1163115274
 10
-2.6879822601
 20
-1.1681299157
 10
-2.6703388357
 20
-1.220096823
 10
-2.6512455717
 20
-1.2719617938
 10
-2.630689401
 20
-1.3237376618
 10
-2.6086833907
 20
-1.3754115933
 10
-2.5853512861
 20
-1.4266946312
 10
-2.5606961943
 20
-1.4775650722
 10
-2.5347150082
 20
-1.5280446197
 10
-2.5075221506
 20
-1.5779094272
 10
-2.4790960933
 20
-1.6271824491
 10
-2.4494583647
 20
-1.6758407311
 10
-2.4187879722
 20
-1.7235915644
 10
-2.3871010137
 20
-1.7703988797
 10
-2.3543813913
 20
-1.8162987463
 10
-2.3207598192
 20
-1.8611066631
 10
-2.2862039985
 20
-1.9048521412
 10
-2.2507462282
 20
-1.9475056694
 10
-2.2146141191
 20
-1.9887942126
 10
-2.177837816
 20
-2.0286740288
 10
-2.1403871742
 20
-2.0671888601
 10
-2.1023993706
 20
-2.1041968975
 10
-2.0638329916
 20
-2.1397265759
 10
-2.0247294508
 20
-2.1737494604
 10
-1.9853501662
 20
-2.2060384376
 10
-1.9457360293
 20
-2.2365512714
 10
-1.9058461485
 20
-2.265330198
 10
-1.865819268
 20
-2.2922748119
 10
-1.8256103025
 20
-2.3174043793
 10
-1.7852643373
 20
-2.340699634
 10
-1.7450553718
 20
-2.3620023721
 10
-1.7050284913
 20
-2.3812797965
 10
-1.6651386105
 20
-2.3985647043
 10
-1.6255244736
 20
-2.4137972828
 10
-1.586145189
 20
-2.4269825164
 10
-1.5470416482
 20
-2.4381154206
 10
-1.5084752692
 20
-2.4471212301
 10
-1.4704874656
 20
-2.4539805561
 10
-1.4330368237
 20
-2.4587127872
 10
-1.3962605206
 20
-2.461301324
 10
-1.3805496413
 20
-2.4614908656
  0
LWPOLYLINE
  5
259
100
AcDbEntity
  8
RACCORDO
100
AcDbPolyline
 62
250
  6
CONTINUOUS
 90
12
 70
0
 10
-1.2259391855
 20
-1.9101454712
 10
-1.225555095
 20
-1.9220647243
 10
-1.2243903072
 20
-1.9334666366
 10
-1.2224512698
 20
-1.9442880939
 10
-1.219748716
 20
-1.9544691953
 10
-1.2162976056
 20
-1.9639535841
 10
-1.2121170419
 20
-1.9726887606
 10
-1.2072301659
 20
-1.9806263721
 10
-1.2016640284
 20
-1.9877224808
 10
-1.1954494403
 20
-1.9939378068
 10
-1.1886208017
 20
-1.9992379458
 10
-1.184527116
 20
-2.0018040103
  0
LWPOLYLINE
  5
25A
100
AcDbEntity
  8
RACCORDO
100
AcDbPolyline
 62
250
  6
CONTINUOUS
 90
22
 70
0
 10
-1.2259391855
 20
-2.4786432556
 10
-1.2255550979
 20
-2.4662805125
 10
-1.2243903183
 20
-2.453533578
 10
-1.2224512933
 20
-2.4404730107
 10
-1.2197487553
 20
-2.4271711053
 10
-1.2162976628
 20
-2.4137014924
 10
-1.2121171181
 20
-2.4001387312
 10
-1.2072302611
 20
-2.3865578964
 10
-1.2016641416
 20
-2.3730341634
 10
-1.1954495695
 20
-2.3596423914
 10
-1.1886209442
 20
-2.3464567094
 10
-1.181216064
 20
-2.3335501057
 10
-1.1732759176
 20
-2.3209940242
 10
-1.1648444563
 20
-2.3088579683
 10
-1.1559683513
 20
-2.2972091167
 10
-1.1466967353
 20
-2.2861119515
 10
-1.1370809304
 20
-2.2756279008
 10
-1.1271741637
 20
-2.2658149988
 10
-1.1170312739
 20
-2.2567275652
 10
-1.1067084062
 20
-2.2484159037
 10
-1.0962627018
 20
-2.2409260233
 10
-1.085751982
 20
-2.2342993841
  0
LINE
  5
25B
100
AcDbEntity
  8
RACCORDO
100
AcDbLine
 62
7
  6
CONTINUOUS
 10
-1.3453561228
 20
-2.3639421752
 11
-1.3453308918
 21
-2.363851309
  0
LWPOLYLINE
  5
25C
100
AcDbEntity
  8
RACCORDO
100
AcDbPolyline
 62
7
  6
CONTINUOUS
 90
15
 70
0
 10
-1.3453561228
 20
-2.3639421752
 10
-1.3506385691
 20
-2.3820849517
 10
-1.3594789331
 20
-2.4090800854
 10
-1.369295398
 20
-2.4352640744
 10
-1.3800962042
 20
-2.4605555286
 10
-1.3918752763
 20
-2.4848530614
 10
-1.4046051613
 20
-2.5080391313
 10
-1.4182639973
 20
-2.5300285248
 10
-1.4328476936
 20
-2.5507742957
 10
-1.4483479968
 20
-2.5702304886
 10
-1.4647302566
 20
-2.5883253613
 10
-1.4820151245
 20
-2.6050523822
 10
-1.5003042821
 20
-2.6204639977
 10
-1.5196634107
 20
-2.6345466352
 10
-1.5360712306
 20
-2.6448954295
  0
LWPOLYLINE
  5
25D
100
AcDbEntity
  8
RACCORDO
100
AcDbPolyline
 62
250
  6
CONTINUOUS
 90
64
 70
0
 10
-1.2940478303
 20
-2.4991709239
 10
-1.3069673059
 20
-2.5419149975
 10
-1.3216827233
 20
-2.5829935632
 10
-1.3381942793
 20
-2.6224067342
 10
-1.3565323609
 20
-2.6602564942
 10
-1.3766669429
 20
-2.6964410676
 10
-1.3985077098
 20
-2.7306549894
 10
-1.4220771886
 20
-2.7628752919
 10
-1.4473534339
 20
-2.7931252785
 10
-1.4741796142
 20
-2.8211690039
 10
-1.5025714983
 20
-2.8469776612
 10
-1.5325140365
 20
-2.870580473
 10
-1.5638043173
 20
-2.8918286239
 10
-1.5964322959
 20
-2.9106922373
 10
-1.6304087971
 20
-2.9272016413
 10
-1.6655622958
 20
-2.9412983751
 10
-1.7018877795
 20
-2.9529741425
 10
-1.7393910043
 20
-2.9622376705
 10
-1.7779166296
 20
-2.9690560521
 10
-1.8174800495
 20
-2.9734241552
 10
-1.8580665366
 20
-2.9753474986
 10
-1.899475581
 20
-2.974809159
 10
-1.9417199597
 20
-2.9717946664
 10
-1.9847874651
 20
-2.9663188212
 10
-2.028440108
 20
-2.9584086044
 10
-2.0726768929
 20
-2.9480500277
 10
-2.1174992521
 20
-2.9352573329
 10
-2.1626728151
 20
-2.9200998333
 10
-2.2081963919
 20
-2.9025665864
 10
-2.2540714453
 20
-2.8826686931
 10
-2.3000675465
 20
-2.8605085094
 10
-2.3461846937
 20
-2.8360758277
 10
-2.3924229813
 20
-2.8093809094
 10
-2.4385520794
 20
-2.7805567881
 10
-2.4845719973
 20
-2.74959317
 10
-2.5304826331
 20
-2.7165002951
 10
-2.5760534452
 20
-2.6814419706
 10
-2.6212856446
 20
-2.6444056378
 10
-2.6661777476
 20
-2.605403697
 10
-2.7104951319
 20
-2.5646373727
 10
-2.7542390915
 20
-2.5220908223
 10
-2.7974078956
 20
-2.4777796348
 10
-2.8397623626
 20
-2.4319521691
 10
-2.8812900966
 20
-2.3846075225
 10
-2.922002924
 20
-2.3357462672
 10
-2.9616979936
 20
-2.2856189725
 10
-3.0003596344
 20
-2.2342376694
 10
-3.0380028509
 20
-2.1815899404
 10
-3.0744708183
 20
-2.1278896905
 10
-3.1097679896
 20
-2.0731230694
 10
-3.1438891692
 20
-2.017303497
 10
-3.1766630916
 20
-1.9606858021
 10
-3.2081001471
 20
-1.9032278291
 10
-3.2381891653
 20
-1.844971282
 10
-3.2667266209
 20
-1.7862968258
 10
-3.2936975223
 20
-1.7271918907
 10
-3.31911614
 20
-1.6676686296
 10
-3.3428229876
 20
-1.608144876
 10
-3.3647957815
 20
-1.5486221494
 10
-3.385056221
 20
-1.489098593
 10
-3.4035109874
 20
-1.4299870882
 10
-3.4201288938
 20
-1.3714252158
 10
-3.4349407636
 20
-1.313275186
 10
-3.4479463989
 20
-1.255536885
  0
LINE
  5
25E
100
AcDbEntity
  8
DRAFT
100
AcDbLine
 62
7
  6
CONTINUOUS
 10
-2.7223844269
 20
-0.3045361675
 11
-2.5952115816
 21
-0.2243516343
  0
LWPOLYLINE
  5
25F
100
AcDbEntity
  8
RACCORDO
100
AcDbPolyline
 62
250
  6
CONTINUOUS
 90
11
 70
0
 10
-3.2273290698
 20
-0.6859211897
 10
-3.2221416536
 20
-0.68280308
 10
-3.2144508237
 20
-0.6773355892
 10
-3.2072304101
 20
-0.6711253947
 10
-3.2005021445
 20
-0.6641912328
 10
-3.1942859213
 20
-0.6565538156
 10
-3.1885997571
 20
-0.6482355131
 10
-3.1834601961
 20
-0.6392608257
 10
-3.1788822533
 20
-0.629656217
 10
-3.1748793749
 20
-0.6194500299
 10
-3.1714632825
 20
-0.6086723522
  0
LINE
  5
260
100
AcDbEntity
  8
RACCORDO
100
AcDbLine
 62
250
  6
CONTINUOUS
 10
-2.9477067643
 20
-0.6636876076
 11
-3.3759476924
 21
-0.9119690839
  0
LINE
  5
261
100
AcDbEntity
  8
RACCORDO
100
AcDbLine
 62
250
  6
CONTINUOUS
 10
-2.743127587
 20
-0.9619979329
 11
-3.1714633288
 21
-1.2096121605
  0
LINE
  5
262
100
AcDbEntity
  8
RACCORDO
100
AcDbLine
 62
7
  6
CONTINUOUS
 10
-2.916464685
 20
-0.254385547
 11
-2.9159238554
 21
-0.2540804606
  0
LINE
  5
263
100
AcDbEntity
  8
RACCORDO
100
AcDbLine
 62
250
  6
CONTINUOUS
 10
-3.1714632728
 20
-0.6086723468
 11
-2.743127587
 21
-0.3684988969
  0
LINE
  5
264
100
AcDbEntity
  8
RACCORDO
100
AcDbLine
 62
7
  6
CONTINUOUS
 10
-3.2273955166
 20
-0.685958417
 11
-3.2273290698
 21
-0.6859211897
  0
LINE
  5
265
100
AcDbEntity
  8
0
100
AcDbLine
 62
7
  6
CONTINUOUS
 10
-3.2273955156
 20
-0.6859584165
 11
-2.7988645568
 21
-0.4460880199
  0
LWPOLYLINE
  5
266
100
AcDbEntity
  8
RACCORDO
100
AcDbPolyline
 62
7
  6
CONTINUOUS
 90
51
 70
0
 10
-2.9164748141
 20
-0.2543919281
 10
-2.8880404863
 20
-0.2400685068
 10
-2.8601258756
 20
-0.2290987931
 10
-2.831535358
 20
-0.2206049621
 10
-2.8022418773
 20
-0.2144149775
 10
-2.7719718707
 20
-0.2103812656
 10
-2.7407584479
 20
-0.2084649357
 10
-2.708765545
 20
-0.208631817
 10
-2.6758862137
 20
-0.2108535767
 10
-2.6422096029
 20
-0.2151099438
 10
-2.6078744944
 20
-0.2213670297
 10
-2.5728113254
 20
-0.2296312969
 10
-2.5371178161
 20
-0.2398814223
 10
-2.5009092857
 20
-0.252084132
 10
-2.4641036847
 20
-0.2662773315
 10
-2.4267898191
 20
-0.2824445736
 10
-2.3890681651
 20
-0.3005586227
 10
-2.350845392
 20
-0.320691798
 10
-2.3121522428
 20
-0.3428671283
 10
-2.2731336551
 20
-0.3670395806
 10
-2.233853239
 20
-0.3932054627
 10
-2.1943806744
 20
-0.4213529956
 10
-2.154822568
 20
-0.4514394325
 10
-2.1152908926
 20
-0.4834104383
 10
-2.0758735388
 20
-0.517220631
 10
-2.0366554251
 20
-0.5528211313
 10
-1.9977376604
 20
-0.59014395
 10
-1.9592041764
 20
-0.6291285224
 10
-1.9211363237
 20
-0.6697103195
 10
-1.8836255218
 20
-0.711810017
 10
-1.8467505858
 20
-0.7553544058
 10
-1.8105875895
 20
-0.8002662752
 10
-1.7752188103
 20
-0.846456704
 10
-1.7407155417
 20
-0.8938438514
 10
-1.7071485955
 20
-0.9423385884
 10
-1.6745948976
 20
-0.991838053
 10
-1.6431179238
 20
-1.0422521132
 10
-1.612780416
 20
-1.0934827936
 10
-1.5836531864
 20
-1.1454123065
 10
-1.5557914148
 20
-1.1979417177
 10
-1.5292463009
 20
-1.2509690772
 10
-1.5040771222
 20
-1.3043690679
 10
-1.4803283987
 20
-1.3580374975
 10
-1.4580392627
 20
-1.4118692964
 10
-1.4372550684
 20
-1.4657351822
 10
-1.4180082057
 20
-1.5195279643
 10
-1.4003237188
 20
-1.5731461242
 10
-1.3842300395
 20
-1.6264665313
 10
-1.369747332
 20
-1.6793783644
 10
-1.356886972
 20
-1.7317787641
 10
-1.3483674695
 20
-1.7704143978
  0
LWPOLYLINE
  5
267
100
AcDbEntity
  8
RACCORDO
100
AcDbPolyline
 62
250
  6
CONTINUOUS
 90
25
 70
0
 10
-1.2940478303
 20
-1.8108754359
 10
-1.2929235207
 20
-1.8157768725
 10
-1.2916105558
 20
-1.8206879219
 10
-1.2901089383
 20
-1.8256085855
 10
-1.2884131484
 20
-1.8305536362
 10
-1.2865287108
 20
-1.8355083039
 10
-1.2844721948
 20
-1.8404282763
 10
-1.2822420549
 20
-1.8453131373
 10
-1.279839843
 20
-1.8501633065
 10
-1.2772867764
 20
-1.8549357256
 10
-1.2745814866
 20
-1.859629653
 10
-1.2717253488
 20
-1.8642458342
 10
-1.2687436972
 20
-1.8687434424
 10
-1.2656355505
 20
-1.8731212471
 10
-1.2624018965
 20
-1.8773804826
 10
-1.2590710234
 20
-1.8814840189
 10
-1.2556419931
 20
-1.8854305713
 10
-1.2521157493
 20
-1.8892214277
 10
-1.2485234033
 20
-1.8928233178
 10
-1.2448643754
 20
-1.8962345747
 10
-1.2411392494
 20
-1.8994568677
 10
-1.2373808809
 20
-1.90246193
 10
-1.2336002226
 20
-1.9052403397
 10
-1.229786324
 20
-1.9078015201
 10
-1.2259391855
 20
-1.9101454712
  0
LWPOLYLINE
  5
268
100
AcDbEntity
  8
RACCORDO
100
AcDbPolyline
 62
7
  6
CONTINUOUS
 90
18
 70
0
 10
-1.3483689379
 20
-1.7704034011
 10
-1.3478724788
 20
-1.7727288311
 10
-1.34362199
 20
-1.7900758688
 10
-1.3384655208
 20
-1.8072163112
 10
-1.3323891816
 20
-1.8242243516
 10
-1.3254100572
 20
-1.8410431849
 10
-1.3176135195
 20
-1.857480488
 10
-1.3090008605
 20
-1.8735528558
 10
-1.2995650208
 20
-1.8892588123
 10
-1.2894274527
 20
-1.9043964482
 10
-1.2785907486
 20
-1.9189672271
 10
-1.2670370124
 20
-1.9329813378
 10
-1.2548878963
 20
-1.9462771152
 10
-1.2421415225
 20
-1.9588534308
 10
-1.2287780465
 20
-1.9707061838
 10
-1.21492193
 20
-1.9817077984
 10
-1.2006180457
 20
-1.9918171165
 10
-1.1845266936
 20
-2.0018032784
  0
LWPOLYLINE
  5
269
100
AcDbEntity
  8
RACCORDO
100
AcDbPolyline
 62
7
  6
CONTINUOUS
 90
14
 70
0
 10
-1.2371273857
 20
-2.2202444994
 10
-1.2430166167
 20
-2.2238668899
 10
-1.2549851363
 20
-2.2320077933
 10
-1.2665024673
 20
-2.2409371021
 10
-1.2775126022
 20
-2.2506307057
 10
-1.2879662948
 20
-2.2610651879
 10
-1.2978102494
 20
-2.2722079873
 10
-1.306991541
 20
-2.284018151
 10
-1.3154683695
 20
-2.2964573676
 10
-1.3232019425
 20
-2.3094838962
 10
-1.3301527649
 20
-2.323045136
 10
-1.3362895824
 20
-2.337091006
 10
-1.3415895587
 20
-2.3515725456
 10
-1.3453298817
 20
-2.3638515895
  0
LINE
  5
26A
100
AcDbEntity
  8
0
100
AcDbLine
 62
7
  6
CONTINUOUS
 10
-1.0249477301
 20
-2.093943148
 11
-1.237183752
 21
-2.2202778726
  0
LINE
  5
26B
100
AcDbEntity
  8
RACCORDO
100
AcDbLine
 62
250
  6
CONTINUOUS
 10
-1.0857519821
 20
-2.2342993841
 11
-0.936120745
 21
-2.1452307359
  0
LINE
  5
26C
100
AcDbEntity
  8
RACCORDO
100
AcDbLine
 62
7
  6
CONTINUOUS
 10
-1.2371220804
 20
-2.2202411926
 11
-1.2371837523
 21
-2.2202778727
  0
LINE
  5
26D
100
AcDbEntity
  8
RACCORDO
100
AcDbLine
 62
7
  6
CONTINUOUS
 10
-1.5356647442
 20
-2.6446555995
 11
-1.5360823799
 21
-2.6449024273
  0
LWPOLYLINE
  5
26E
100
AcDbEntity
  8
RACCORDO
100
AcDbPolyline
 62
250
  6
CONTINUOUS
 90
52
 70
0
 10
-1.5360823799
 20
-2.6449024273
 10
-1.5542003274
 20
-2.6550504307
 10
-1.5838311483
 20
-2.6694384288
 10
-1.6145461643
 20
-2.6817346686
 10
-1.6462835529
 20
-2.6919207361
 10
-1.6789931906
 20
-2.6999866437
 10
-1.7126535218
 20
-2.7059290814
 10
-1.7472187813
 20
-2.7097368641
 10
-1.7826202542
 20
-2.7113993449
 10
-1.8188027569
 20
-2.7109123331
 10
-1.8557119757
 20
-2.7082734952
 10
-1.893278948
 20
-2.7034846509
 10
-1.9314239182
 20
-2.6965556205
 10
-1.9700771282
 20
-2.6874998054
 10
-2.0091764626
 20
-2.6763323142
 10
-2.0486514194
 20
-2.6630745128
 10
-2.0884316973
 20
-2.6477512418
 10
-2.1284516403
 20
-2.6303888009
 10
-2.1686469541
 20
-2.611016097
 10
-2.2089485431
 20
-2.5896669672
 10
-2.2492878911
 20
-2.5663779914
 10
-2.2896014104
 20
-2.5411858924
 10
-2.3298207679
 20
-2.5141331283
 10
-2.3698766898
 20
-2.4852657688
 10
-2.4097043403
 20
-2.4546294446
 10
-2.449238225
 20
-2.4222735907
 10
-2.4884078857
 20
-2.3882546176
 10
-2.5271417855
 20
-2.3526330217
 10
-2.5653781527
 20
-2.3154651039
 10
-2.6030468469
 20
-2.2768182215
 10
-2.6400659723
 20
-2.2367758517
 10
-2.6763669946
 20
-2.1954153267
 10
-2.7118951034
 20
-2.1528020945
 10
-2.7465916492
 20
-2.1090066992
 10
-2.7803878474
 20
-2.0641193941
 10
-2.8132380942
 20
-2.0182040939
 10
-2.8451178272
 20
-1.9712911921
 10
-2.8759765152
 20
-1.9234495222
 10
-2.9057529946
 20
-1.874768086
 10
-2.9344046933
 20
-1.8253062622
 10
-2.9618954137
 20
-1.7751149942
 10
-2.9881554168
 20
-1.7243095437
 10
-3.0130985429
 20
-1.6730495244
 10
-3.0366862797
 20
-1.6214166224
 10
-3.0588759265
 20
-1.5695072663
 10
-3.0795920742
 20
-1.517507527
 10
-3.098808361
 20
-1.4655083583
 10
-3.1165021157
 20
-1.4135983507
 10
-3.1326238622
 20
-1.3619598358
 10
-3.1471559349
 20
-1.3107098987
 10
-3.1601033201
 20
-1.2599003884
 10
-3.1714633288
 20
-1.2096121605
  0
LINE
  5
26F
100
AcDbEntity
  8
RACCORDO
100
AcDbLine
 62
7
  6
CONTINUOUS
 10
9.3145758585
 20
-3.7077712789
 11
9.4022051611
 21
-3.75836734
  0
LINE
  5
270
100
AcDbEntity
  8
RACCORDO
100
AcDbLine
 62
250
  6
CONTINUOUS
 10
3.3156173537
 20
16.7608596946
 11
3.3156173537
 21
16.6982559112
  0
LWPOLYLINE
  5
271
100
AcDbEntity
  8
RACCORDO
100
AcDbPolyline
 62
250
  6
CONTINUOUS
 90
37
 70
0
 10
6.1002301681
 20
-22.4501880063
 10
6.1020590181
 20
-22.4826834842
 10
6.1050816945
 20
-22.5142927727
 10
6.1092981975
 20
-22.5450158717
 10
6.1147196005
 20
-22.5749025216
 10
6.12133483
 20
-22.6039029821
 10
6.129110665
 20
-22.6318680324
 10
6.1380530626
 20
-22.6587917299
 10
6.1481560657
 20
-22.6846800172
 10
6.1593685828
 20
-22.7094015008
 10
6.1716961005
 20
-22.7329498628
 10
6.1851331321
 20
-22.755331421
 10
6.1996121254
 20
-22.7764337363
 10
6.2151382963
 20
-22.7962504331
 10
6.231706429
 20
-22.8147878869
 10
6.2492333237
 20
-22.8319527844
 10
6.2677239484
 20
-22.8477383151
 10
6.2871733351
 20
-22.8621512895
 10
6.3074833798
 20
-22.8751188257
 10
6.328658475
 20
-22.8866335729
 10
6.3506942282
 20
-22.8967028819
 10
6.3734793578
 20
-22.9052759237
 10
6.3970174942
 20
-22.9123450839
 10
6.4213050069
 20
-22.9179179767
 10
6.4462197231
 20
-22.9219666163
 10
6.4717647619
 20
-22.9244833711
 10
6.4979370041
 20
-22.9254758727
 10
6.5246049195
 20
-22.9249390284
 10
6.5517714401
 20
-22.9228650155
 10
6.5794336339
 20
-22.9192616567
 10
6.607451175
 20
-22.9141473289
 10
6.6358261859
 20
-22.9075140838
 10
6.6645565442
 20
-22.8993698695
 10
6.6934955568
 20
-22.8897569073
 10
6.722594326
 20
-22.878689271
 10
6.7519017495
 20
-22.8661528867
 10
6.7814178274
 20
-22.8521477545
  0
LWPOLYLINE
  5
272
100
AcDbEntity
  8
RACCORDO
100
AcDbPolyline
 62
250
  6
CONTINUOUS
 90
20
 70
0
 10
5.3996460805
 20
-22.4632559581
 10
5.4023582276
 20
-22.5118800699
 10
5.4068704257
 20
-22.5593197591
 10
5.413175214
 20
-22.6054951797
 10
5.4212622899
 20
-22.650328509
 10
5.4311180826
 20
-22.6937444583
 10
5.4427258664
 20
-22.7356703233
 10
5.4560667859
 20
-22.7760362429
 10
5.4711184833
 20
-22.8147735189
 10
5.4878545657
 20
-22.8518152461
 10
5.5062469335
 20
-22.887098815
 10
5.5262650794
 20
-22.9205655983
 10
5.54787476
 20
-22.9521592309
 10
5.5710401307
 20
-22.9818268118
 10
5.5957225472
 20
-23.0095185544
 10
5.6218797915
 20
-23.0351875185
 10
5.6494686653
 20
-23.0587908956
 10
5.6784430447
 20
-23.0802889299
 10
5.7087527524
 20
-23.0996444961
 10
5.7127967156
 20
-23.1020063857
  0
LINE
  5
273
100
AcDbEntity
  8
DRAFT
100
AcDbLine
 62
7
  6
CONTINUOUS
 10
3.497147838
 20
17.1780195549
 11
3.518482217
 21
16.5577942069
  0
LWPOLYLINE
  5
274
100
AcDbEntity
  8
RACCORDO
100
AcDbPolyline
 62
250
  6
CONTINUOUS
 90
12
 70
0
 10
5.0954163245
 20
-5.5600169168
 10
5.0958004162
 20
-5.5719361862
 10
5.0969652072
 20
-5.5833381124
 10
5.0989042497
 20
-5.5941595812
 10
5.1016068101
 20
-5.6043406915
 10
5.1050579285
 20
-5.6138250867
 10
5.109238501
 20
-5.6225602665
 10
5.1141253864
 20
-5.6304978785
 10
5.1196915332
 20
-5.637593985
 10
5.1259061303
 20
-5.6438093063
 10
5.1327347769
 20
-5.6491094386
 10
5.136826009
 20
-5.6516740792
  0
LWPOLYLINE
  5
275
100
AcDbEntity
  8
RACCORDO
100
AcDbPolyline
 62
250
  6
CONTINUOUS
 90
13
 70
0
 10
5.3996460886
 20
11.1139989808
 10
5.3518306442
 20
9.7125738787
 10
5.3080989747
 20
8.3132808142
 10
5.2684513056
 20
6.9161355441
 10
5.2328880518
 20
5.5211637499
 10
5.2014090548
 20
4.1283711527
 10
5.174013869
 20
2.7377436695
 10
5.1507032351
 20
1.3492976475
 10
5.1314769635
 20
-0.0369517037
 10
5.1163336822
 20
-1.4210199141
 10
5.1052733377
 20
-2.8029015161
 10
5.0982968853
 20
-4.1825702176
 10
5.0954046765
 20
-5.5600101914
  0
LWPOLYLINE
  5
276
100
AcDbEntity
  8
RACCORDO
100
AcDbPolyline
 62
250
  6
CONTINUOUS
 90
22
 70
0
 10
5.7962976364
 20
-6.1298330542
 10
5.7958154311
 20
-6.1174517706
 10
5.794559108
 20
-6.1046752573
 10
5.7925356919
 20
-6.0915749522
 10
5.7897564965
 20
-6.0782241034
 10
5.7862370614
 20
-6.0646973602
 10
5.7819970655
 20
-6.0510703559
 10
5.7770602163
 20
-6.0374192838
 10
5.7714541176
 20
-6.0238204713
 10
5.7652101156
 20
-6.0103499547
 10
5.758363123
 20
-5.9970830517
 10
5.7509514237
 20
-5.984093942
 10
5.7430164596
 20
-5.9714552519
 10
5.734602598
 20
-5.9592376484
 10
5.7257568837
 20
-5.9475094435
 10
5.7165287764
 20
-5.9363362133
 10
5.7069698737
 20
-5.9257804304
 10
5.6971336226
 20
-5.915901115
 10
5.6870750207
 20
-5.9067535049
 10
5.6768503091
 20
-5.8983887466
 10
5.6665166573
 20
-5.8908536095
 10
5.6561318438
 20
-5.8841902241
  0
LWPOLYLINE
  5
277
100
AcDbEntity
  8
RACCORDO
100
AcDbPolyline
 62
250
  6
CONTINUOUS
 90
6
 70
0
 10
5.9021698894
 20
-15.6915755978
 10
5.9336196093
 20
-17.0480761184
 10
5.9691504895
 20
-18.4021891843
 10
6.0087625554
 20
-19.7539095797
 10
6.0524557816
 20
-21.1032425204
 10
6.1002301681
 20
-22.4501880063
  0
LWPOLYLINE
  5
278
100
AcDbEntity
  8
RACCORDO
100
AcDbPolyline
 62
250
  6
CONTINUOUS
 90
12
 70
0
 10
5.0982968853
 20
-7.5027343601
 10
5.1052733377
 20
-8.8746317855
 10
5.1163336822
 20
-10.2441848325
 10
5.1314769635
 20
-11.6113673237
 10
5.1507032351
 20
-12.976174718
 10
5.174013869
 20
-14.3386239255
 10
5.2014090548
 20
-15.6987005057
 10
5.2328880518
 20
-17.0563879787
 10
5.2684513056
 20
-18.4116999136
 10
5.3080989747
 20
-19.7646304067
 10
5.3518306442
 20
-21.1151542554
 10
5.3996460886
 20
-22.4632559629
  0
LINE
  5
279
100
AcDbEntity
  8
RACCORDO
100
AcDbLine
 62
250
  6
CONTINUOUS
 10
5.0954046766
 20
-6.1285079773
 11
5.0982968853
 21
-7.5027343601
  0
LWPOLYLINE
  5
27A
100
AcDbEntity
  8
RACCORDO
100
AcDbPolyline
 62
250
  6
CONTINUOUS
 90
8
 70
0
 10
5.7963095927
 20
-6.1298262692
 10
5.7991839536
 20
-7.5028648361
 10
5.8061413475
 20
-8.8735464429
 10
5.8171817744
 20
-10.2418710897
 10
5.8323058841
 20
-11.6078437255
 10
5.8515130268
 20
-12.9714594014
 10
5.8748012535
 20
-14.3327032699
 10
5.9021698894
 20
-15.6915755978
  0
LWPOLYLINE
  5
27B
100
AcDbEntity
  8
RACCORDO
100
AcDbPolyline
 62
250
  6
CONTINUOUS
 90
22
 70
0
 10
5.0954163245
 20
-6.1285147027
 10
5.095800415
 20
-6.1161519113
 10
5.0969652028
 20
-6.1034049313
 10
5.0989042402
 20
-6.090344322
 10
5.101606794
 20
-6.0770423792
 10
5.1050579044
 20
-6.0635727345
 10
5.1092384681
 20
-6.0500099477
 10
5.1141253441
 20
-6.0364290942
 10
5.1196914816
 20
-6.0229053495
 10
5.1259060698
 20
-6.0095135728
 10
5.1327347084
 20
-5.996327893
 10
5.1401395982
 20
-5.9834212981
 10
5.1480797502
 20
-5.9708652312
 10
5.1565112126
 20
-5.9587291951
 10
5.1653873137
 20
-5.9470803677
 10
5.1746589209
 20
-5.9359832299
 10
5.1842747121
 20
-5.9254992086
 10
5.1941814601
 20
-5.9156863372
 10
5.204324327
 20
-5.9065989338
 10
5.2146471682
 20
-5.8982873008
 10
5.2250928424
 20
-5.8907974464
 10
5.2356035289
 20
-5.8841708299
  0
LWPOLYLINE
  5
27C
100
AcDbEntity
  8
RACCORDO
100
AcDbPolyline
 62
250
  6
CONTINUOUS
 90
13
 70
0
 10
6.1002301681
 20
11.0935231147
 10
6.0524557816
 20
9.6933018692
 10
6.0087625554
 20
8.2952442879
 10
5.9691504895
 20
6.8993503709
 10
5.9336196093
 20
5.5056149305
 10
5.9021698894
 20
4.1140431544
 10
5.8748012535
 20
2.7246506049
 10
5.8515130268
 20
1.3374367959
 10
5.8323058841
 20
-0.0475977864
 10
5.8171817744
 20
-1.4304361214
 10
5.8061413475
 20
-2.8110725355
 10
5.7991839536
 20
-4.1895127023
 10
5.7963095927
 20
-5.5657566219
  0
LWPOLYLINE
  5
27D
100
AcDbEntity
  8
RACCORDO
100
AcDbPolyline
 62
250
  6
CONTINUOUS
 90
12
 70
0
 10
5.7962976364
 20
-5.56576317
 10
5.7958154326
 20
-5.5777845755
 10
5.7945591133
 20
-5.5892743079
 10
5.7925357029
 20
-5.6001681246
 10
5.7897565151
 20
-5.6104051146
 10
5.786237089
 20
-5.6199280398
 10
5.781997103
 20
-5.6286836543
 10
5.7770602642
 20
-5.6366230027
 10
5.7714541761
 20
-5.6437016935
 10
5.765210184
 20
-5.6498801475
 10
5.7583632002
 20
-5.655123819
 10
5.753450509
 20
-5.6581030226
  0
LWPOLYLINE
  5
27E
100
AcDbEntity
  8
RACCORDO
100
AcDbPolyline
 62
250
  6
CONTINUOUS
 90
28
 70
0
 10
6.7814178274
 20
12.255111455
 10
6.7797371879
 20
12.2785430357
 10
6.7768883432
 20
12.3025972928
 10
6.7728809216
 20
12.3271929291
 10
6.767728467
 20
12.3522468174
 10
6.7614483934
 20
12.377674282
 10
6.7540619258
 20
12.4033893845
 10
6.7455940283
 20
12.4293052143
 10
6.7360733204
 20
12.4553341824
 10
6.7255319796
 20
12.4813883173
 10
6.7140056329
 20
12.5073795627
 10
6.7015332363
 20
12.5332200747
 10
6.6881569434
 20
12.5588225185
 10
6.6739219627
 20
12.5841003645
 10
6.6588764048
 20
12.6089681797
 10
6.6430711198
 20
12.633341917
 10
6.6265595258
 20
12.6571391993
 10
6.6093974277
 20
12.6802795975
 10
6.5916428291
 20
12.7026849027
 10
6.5733557362
 20
12.7242793906
 10
6.5545979549
 20
12.7449900771
 10
6.5354328817
 20
12.764746965
 10
6.5159252898
 20
12.783483281
 10
6.4961411102
 20
12.8011357009
 10
6.4761472085
 20
12.8176445637
 10
6.4560111592
 20
12.8329540735
 10
6.435801017
 20
12.8470124881
 10
6.4155850874
 20
12.8597722934
  0
LWPOLYLINE
  5
27F
100
AcDbEntity
  8
RACCORDO
100
AcDbPolyline
 62
250
  6
CONTINUOUS
 90
16
 70
0
 10
6.7814178274
 20
-22.8521477545
 10
6.7797371873
 20
-22.8760971136
 10
6.7768883413
 20
-22.8992636607
 10
6.7728809178
 20
-22.9215690988
 10
6.7677284609
 20
-22.942938041
 10
6.7614483846
 20
-22.9632982656
 10
6.754061914
 20
-22.9825809602
 10
6.7455940136
 20
-23.0007209539
 10
6.7360733027
 20
-23.0176569382
 10
6.7255319589
 20
-23.0333316737
 10
6.7140056095
 20
-23.0476921837
 10
6.7015332105
 20
-23.0606899332
 10
6.6881569155
 20
-23.072280993
 10
6.6739219331
 20
-23.0824261884
 10
6.6588763741
 20
-23.091091231
 10
6.6570154015
 20
-23.0920318307
  0
LINE
  5
280
100
AcDbEntity
  8
RACCORDO
100
AcDbLine
 62
250
  6
CONTINUOUS
 10
9.4022051611
 20
-3.75836734
 11
5.6561318438
 21
-5.8841902241
  0
LINE
  5
281
100
AcDbEntity
  8
RACCORDO
100
AcDbLine
 62
250
  6
CONTINUOUS
 10
9.5436265182
 20
-4.003297662
 11
5.7963095927
 21
-6.1298262692
  0
LINE
  5
282
100
AcDbEntity
  8
RACCORDO
100
AcDbLine
 62
250
  6
CONTINUOUS
 10
5.7963095927
 20
-5.5657566219
 11
9.5436265182
 21
-3.5134528009
  0
LINE
  5
283
100
AcDbEntity
  8
RACCORDO
100
AcDbLine
 62
7
  6
CONTINUOUS
 10
5.7534361502
 20
-5.6581108888
 11
9.5009054956
 21
-3.6057235915
  0
LWPOLYLINE
  5
284
100
AcDbEntity
  8
RACCORDO
100
AcDbPolyline
 62
250
  6
CONTINUOUS
 90
31
 70
0
 10
5.6561318438
 20
-5.8841902241
 10
5.6446373469
 20
-5.8903814881
 10
5.6326792414
 20
-5.896193748
 10
5.6202575276
 20
-5.9016270037
 10
5.6073361412
 20
-5.9066940636
 10
5.5939511464
 20
-5.9113821193
 10
5.5802107351
 20
-5.9156527464
 10
5.5661120845
 20
-5.9195024325
 10
5.5516580175
 20
-5.9229346899
 10
5.5369651952
 20
-5.9259216313
 10
5.5220321246
 20
-5.9284595356
 10
5.5068602988
 20
-5.930552124
 10
5.4915708579
 20
-5.9321826723
 10
5.4761626635
 20
-5.9333475023
 10
5.460636854
 20
-5.9340502923
 10
5.4451179848
 20
-5.9342853538
 10
5.4296060641
 20
-5.9340488937
 10
5.4141010836
 20
-5.933344705
 10
5.3987275743
 20
-5.9321784785
 10
5.3834868303
 20
-5.9305465297
 10
5.3683775574
 20
-5.928452543
 10
5.353520404
 20
-5.9259132624
 10
5.3389169772
 20
-5.9229249688
 10
5.3245656698
 20
-5.9194913813
 10
5.3105823092
 20
-5.9156404009
 10
5.2969698434
 20
-5.9113685219
 10
5.2837253243
 20
-5.90667925
 10
5.2709557351
 20
-5.901611003
 10
5.2586967366
 20
-5.896176587
 10
5.2469126678
 20
-5.890363196
 10
5.2356035289
 20
-5.8841708299
  0
LWPOLYLINE
  5
285
100
AcDbEntity
  8
RACCORDO
100
AcDbPolyline
 62
250
  6
CONTINUOUS
 90
31
 70
0
 10
5.7963095925
 20
-6.1298263131
 10
5.7772269643
 20
-6.1400458796
 10
5.7572655189
 20
-6.1496800187
 10
5.7364789358
 20
-6.1587032894
 10
5.7149240764
 20
-6.1670917923
 10
5.6926579321
 20
-6.1748235969
 10
5.6697371603
 20
-6.1818785
 10
5.6462212749
 20
-6.1882381491
 10
5.6221748908
 20
-6.1938850586
 10
5.5976645874
 20
-6.1988030249
 10
5.572757069
 20
-6.2029789798
 10
5.5475181906
 20
-6.2064022343
 10
5.5220149569
 20
-6.2090632572
 10
5.4963154372
 20
-6.2109551141
 10
5.470488809
 20
-6.2120729207
 10
5.4446045084
 20
-6.212413255
 10
5.418731929
 20
-6.2119753711
 10
5.3929404264
 20
-6.2107606601
 10
5.367299331
 20
-6.2087720491
 10
5.3418776542
 20
-6.2060150512
 10
5.3167432525
 20
-6.2024972442
 10
5.2919628629
 20
-6.1982276782
 10
5.2676020185
 20
-6.193217646
 10
5.2437270015
 20
-6.1874808421
 10
5.220403881
 20
-6.1810330054
 10
5.1976967175
 20
-6.1738921725
 10
5.1756644754
 20
-6.1660772876
 10
5.1543632286
 20
-6.1576081266
 10
5.1338493064
 20
-6.1485068296
 10
5.1141788233
 20
-6.1387981363
 10
5.0954046785
 20
-6.128507982
  0
LINE
  5
286
100
AcDbEntity
  8
RACCORDO
100
AcDbLine
 62
7
  6
CONTINUOUS
 10
9.5436265182
 20
-4.003297662
 11
9.5436265182
 21
-14.4541358574
  0
LINE
  5
287
100
AcDbEntity
  8
RACCORDO
100
AcDbLine
 62
7
  6
CONTINUOUS
 10
9.5436265182
 20
-3.5134528009
 11
9.5436265182
 21
6.9373853945
  0
LINE
  5
288
100
AcDbEntity
  8
RACCORDO
100
AcDbLine
 62
7
  6
CONTINUOUS
 10
9.5436265182
 20
6.9373853945
 11
9.0047427085
 21
13.6270180607
  0
LINE
  5
289
100
AcDbEntity
  8
RACCORDO
100
AcDbLine
 62
7
  6
CONTINUOUS
 10
9.5436265182
 20
-14.4541358574
 11
9.0047427085
 21
-21.7447065237
  0
LINE
  5
28A
100
AcDbEntity
  8
RACCORDO
100
AcDbLine
 62
250
  6
CONTINUOUS
 10
-9.5436888724
 20
19.742093303
 11
5.3996460805
 21
11.1139989856
  0
LINE
  5
28B
100
AcDbEntity
  8
RACCORDO
100
AcDbLine
 62
7
  6
CONTINUOUS
 10
6.6203324146
 20
15.3747319231
 11
5.9428514241
 21
15.2439276693
  0
LINE
  5
28C
100
AcDbEntity
  8
RACCORDO
100
AcDbLine
 62
250
  6
CONTINUOUS
 10
-8.5511102506
 20
21.5013694877
 11
6.4155975481
 21
12.8597799823
  0
LINE
  5
28D
100
AcDbEntity
  8
RACCORDO
100
AcDbLine
 62
7
  6
CONTINUOUS
 10
5.7496662588
 20
15.2695365045
 11
3.3673811627
 21
16.6450380619
  0
LINE
  5
28E
100
AcDbEntity
  8
RACCORDO
100
AcDbLine
 62
7
  6
CONTINUOUS
 10
-2.1699296905
 20
19.8422119497
 11
-4.5522147865
 21
21.2177135072
  0
LINE
  5
28F
100
AcDbEntity
  8
RACCORDO
100
AcDbLine
 62
7
  6
CONTINUOUS
 10
8.6201159138
 20
14.2200819939
 11
6.6203324146
 21
15.3747319231
  0
LINE
  5
290
100
AcDbEntity
  8
DRAFT
100
AcDbLine
 62
7
  6
CONTINUOUS
 10
3.497147838
 20
17.1780195549
 11
-1.2992635347
 21
19.9474073684
  0
LINE
  5
291
100
AcDbEntity
  8
RACCORDO
100
AcDbLine
 62
7
  6
CONTINUOUS
 10
-4.4224481113
 20
21.7506950002
 11
-6.4222316105
 21
22.9053449295
  0
LINE
  5
292
100
AcDbEntity
  8
RACCORDO
100
AcDbLine
 62
7
  6
CONTINUOUS
 10
-1.2992635347
 20
19.9474073684
 11
-1.9767445252
 21
19.8166031146
  0
LWPOLYLINE
  5
293
100
AcDbEntity
  8
RACCORDO
100
AcDbPolyline
 62
250
  6
CONTINUOUS
 90
28
 70
0
 10
6.1002301681
 20
-22.4501880063
 10
6.0789919806
 20
-22.4623314001
 10
6.0566747624
 20
-22.4737474371
 10
6.033352361
 20
-22.4843983416
 10
6.0091019499
 20
-22.4942488699
 10
5.9840037734
 20
-22.5032664267
 10
5.9581408812
 20
-22.5114211731
 10
5.9315988532
 20
-22.518686125
 10
5.9044655167
 20
-22.5250372429
 10
5.8768306557
 20
-22.5304535109
 10
5.8487857136
 20
-22.5349170067
 10
5.8204234907
 20
-22.5384129606
 10
5.7918378375
 20
-22.5409298046
 10
5.7631233434
 20
-22.5424592104
 10
5.7343750245
 20
-22.5429961172
 10
5.7056880085
 20
-22.5425387485
 10
5.6771572206
 20
-22.5410886176
 10
5.6488770688
 20
-22.5386505231
 10
5.6209411317
 20
-22.5352325325
 10
5.5934418491
 20
-22.530845956
 10
5.5664702159
 20
-22.5255053086
 10
5.5401154808
 20
-22.5192282626
 10
5.5144648513
 20
-22.5120355885
 10
5.4896032052
 20
-22.503951087
 10
5.4656128093
 20
-22.4950015094
 10
5.4425730477
 20
-22.4852164699
 10
5.4205601585
 20
-22.474628347
 10
5.3996469822
 20
-22.4632721768
  0
LINE
  5
294
100
AcDbEntity
  8
RACCORDO
100
AcDbLine
 62
250
  6
CONTINUOUS
 10
6.7814178274
 20
-22.8521477545
 11
9.0047427085
 21
-21.7447065237
  0
LINE
  5
295
100
AcDbEntity
  8
RACCORDO
100
AcDbLine
 62
7
  6
CONTINUOUS
 10
6.6570154015
 20
-23.0920318307
 11
8.8691650354
 21
-21.9901570062
  0
ELLIPSE
  5
296
100
AcDbEntity
  8
RACCORDO
100
AcDbEllipse
 62
7
  6
CONTINUOUS
 10
8.6511641159
 20
-21.5401504696
 30
0.0
 11
-0.2148150744
 21
0.4515576038
 31
0.0
 40
0.6258090719
 41
-3.1302698991
 42
-2.3092664522
  0
ELLIPSE
  5
297
100
AcDbEntity
  8
RACCORDO
100
AcDbEllipse
 62
7
  6
CONTINUOUS
 10
9.4021836195
 20
-3.9216551755
 30
0.0
 11
-0.1000238792
 21
0.1731956925
 31
0.0
 40
0.5774195892
 41
-2.3562809449
 42
-0.7856369171
  0
ELLIPSE
  5
298
100
AcDbEntity
  8
RACCORDO
100
AcDbEllipse
 62
7
  6
CONTINUOUS
 10
8.6511641159
 20
13.8308307453
 30
0.0
 11
-0.2807400337
 21
0.4141474974
 31
0.0
 40
0.5245128892
 41
-2.3945640771
 42
-0.8246811388
  0
ELLIPSE
  5
299
100
AcDbEntity
  8
RACCORDO
100
AcDbEllipse
 62
7
  6
CONTINUOUS
 10
9.4021836195
 20
-3.4317605734
 30
0.0
 11
-0.1000390991
 21
0.1732220807
 31
0.0
 40
0.5772437351
 41
-3.1546807054
 42
-2.3564331449
  0
ELLIPSE
  5
29A
100
AcDbEntity
  8
RACCORDO
100
AcDbEllipse
 62
7
  6
CONTINUOUS
 10
-6.3916138306
 20
22.5163422013
 30
0.0
 11
-0.2805986523
 21
0.4138767202
 31
0.0
 40
0.5251497255
 41
-0.8253745819
 42
-0.0067082778
  0
ELLIPSE
  5
29B
100
AcDbEntity
  8
RACCORDO
100
AcDbEllipse
 62
7
  6
CONTINUOUS
 10
5.8910876151
 20
15.3597493019
 30
0.0
 11
0.1999154856
 21
0.0095814127
 31
0.0
 40
0.6067642562
 41
-2.385266879
 42
-1.3380693278
  0
ELLIPSE
  5
29C
100
AcDbEntity
  8
RACCORDO
100
AcDbEllipse
 62
7
  6
CONTINUOUS
 10
-2.0285083342
 20
19.9324247472
 30
0.0
 11
0.1999154856
 21
0.0095814127
 31
0.0
 40
0.6067642562
 41
-2.385266879
 42
-1.3380693278
  0
ELLIPSE
  5
29D
100
AcDbEntity
  8
RACCORDO
100
AcDbEllipse
 62
7
  6
CONTINUOUS
 10
3.508802519
 20
16.7352508594
 30
0.0
 11
0.1999154856
 21
0.0095814127
 31
0.0
 40
0.6067642562
 41
2.850720877
 42
3.8979184282
  0
ELLIPSE
  5
29E
100
AcDbEntity
  8
RACCORDO
100
AcDbEllipse
 62
7
  6
CONTINUOUS
 10
-4.4107934303
 20
21.3079263047
 30
0.0
 11
0.1999154856
 21
0.0095814127
 31
0.0
 40
0.6067642562
 41
2.850720877
 42
3.8979184282
  0
ENDSEC
  0
SECTION
  2
OBJECTS
  0
DICTIONARY
  5
C
100
AcDbDictionary
280
0
281
1
  3
ACAD_GROUP
350
D
  3
ACAD_MLINESTYLE
350
17
  3
ACAD_LAYOUT
350
1A
  3
ACAD_PLOTSETTINGS
350
19
  3
ACAD_PLOTSTYLENAME
350
E
  0
DICTIONARY
  5
D
102
{ACAD_REACTORS
330
C
102
}
100
AcDbDictionary
280
0
281
1
  0
ACDBDICTIONARYWDFLT
  5
E
102
{ACAD_REACTORS
330
C
102
}
100
AcDbDictionary
281
1
  3
Normal
350
F
100
AcDbDictionaryWithDefault
340
F
  0
DICTIONARY
  5
17
102
{ACAD_REACTORS
330
C
102
}
100
AcDbDictionary
280
0
281
1
  3
Standard
350
18
  0
DICTIONARY
  5
19
102
{ACAD_REACTORS
330
C
102
}
100
AcDbDictionary
281
1
  0
DICTIONARY
  5
1A
102
{ACAD_REACTORS
330
C
102
}
100
AcDbDictionary
281
1
  3
Model
350
29F
  3
Layout1
350
2A0
  0
ACDBPLACEHOLDER
  5
F
102
{ACAD_REACTORS
330
E
102
}
  0
MLINESTYLE
  5
18
102
{ACAD_REACTORS
330
17
102
}
100
AcDbMlineStyle
  2
STANDARD
 70
0
  3

 62
256
 51
90.0
 52
90.0
 71
2
 49
0.5
 62
256
  6
BYLAYER
 49
-0.5
 62
256
  6
BYLAYER
  0
LAYOUT
  5
29F
102
{ACAD_REACTORS
330
1A
102
}
100
AcDbPlotSettings
  1

  2
none_device
  4

  6

 40
0.0
 41
0.0
 42
0.0
 43
0.0
 44
210.0
 45
297.0
 46
0.0
 47
0.0
 48
0.0
 49
0.0
140
0.0
141
0.0
142
1.0
143
1.0
 70
1024
 72
1
 73
0
 74
0
  7

 75
0
147
1.0
148
0.0
149
0.0
100
AcDbLayout
  1
Model
 70
0
 71
0
 10
0.0
 20
0.0
 11
210.0
 21
297.0
 12
0.0
 22
0.0
 32
0.0
 14
0.0
 24
0.0
 34
0.0
 15
0.0
 25
0.0
 35
0.0
146
0.0
 13
0.0
 23
0.0
 33
0.0
 16
1.0
 26
0.0
 36
0.0
 17
0.0
 27
1.0
 37
0.0
 76
0
330
212
345
0
346
0
  0
LAYOUT
  5
2A0
102
{ACAD_REACTORS
330
1A
102
}
100
AcDbPlotSettings
  1

  2
none_device
  4

  6

 40
0.0
 41
0.0
 42
0.0
 43
0.0
 44
210.0
 45
297.0
 46
0.0
 47
0.0
 48
0.0
 49
0.0
140
0.0
141
0.0
142
1.0
143
1.0
 70
0
 72
1
 73
0
 74
0
  7

 75
0
147
1.0
148
0.0
149
0.0
100
AcDbLayout
  1
Layout1
 70
0
 71
1
 10
0.0
 20
0.0
 11
210.0
 21
297.0
 12
0.0
 22
0.0
 32
0.0
 14
0.0
 24
0.0
 34
0.0
 15
0.0
 25
0.0
 35
0.0
146
0.0
 13
0.0
 23
0.0
 33
0.0
 16
1.0
 26
0.0
 36
0.0
 17
0.0
 27
1.0
 37
0.0
 76
0
330
213
345
0
346
0
  0
ENDSEC
  0
EOF
