  0
SECTION
  2
HEADER
  9
$ACADVER
  1
AC1024
  9
$DWGCODEPAGE
  3
ANSI_1252
  9
$EXTMAX
 10
210.0
 20
297.0
 30
0.0
  9
$EXTMIN
 10
0.0
 20
0.0
 30
0.0
  9
$LIMMIN
 10
0.0
 20
0.0
  9
$LIMMAX
 10
210.0
 20
297.0
  9
$VIEWCTR
 10
105.0
 20
148.5
  9
$VIEWSIZE
 40
297.0
  9
$CLAYER
  8
0
  9
$LTSCALE
 40
19.36
  9
$CELTYPE
  6
BYLAYER
  9
$DIMSCALE
 40
1.0
  9
$DIMASZ
 40
3.0
  9
$DIMEXO
 40
0.5
  9
$DIMDLI
 40
13.376
  9
$DIMEXE
 40
1.5
  9
$DIMCEN
 40
3.168
  9
$DIMLFAC
 40
1.0
  9
$DIMBLK
  1
_FILLED
  9
$DIMALT
 70
0
  9
$DIMALTF
 40
0.0393700787
  9
$DIMTXT
 40
3.0
  9
$DIMTOL
 70
1
  9
$DIMLIM
 70
0
  9
$DIMTFAC
 40
1.0
  9
$DIMTP
 40
0.01
  9
$DIMTM
 40
0.01
  9
$DIMGAP
 40
0.625
  9
$DIMDSEP
 70
44
  9
$AUNITS
 70
0
  9
$PDMODE
 70
3
  9
$PDSIZE
 40
3.0
  9
$HANDSEED
  5
2BB
  9
$TILEMODE
 70
1
  9
$MEASUREMENT
 70
1
  9
$INSUNITS
 70
4
  0
ENDSEC
  0
SECTION
  2
CLASSES
  0
CLASS
  1
ACDBDICTIONARYWDFLT
  2
AcDbDictionaryWithDefault
  3
AutoCAD 2000
 90
0
 91
1
280
0
281
0
  0
CLASS
  1
ACDBPLACEHOLDER
  2
AcDbPlaceHolder
  3
AutoCAD 2000
 90
0
 91
1
280
0
281
0
  0
CLASS
  1
LAYOUT
  2
AcDbLayout
  3
AutoCAD 2000
 90
0
 91
0
280
0
281
0
  0
ENDSEC
  0
SECTION
  2
TABLES
  0
TABLE
  2
VPORT
  5
8
100
AcDbSymbolTable
 70
2
  0
VPORT
  5
1F4
100
AcDbSymbolTableRecord
100
AcDbViewportTableRecord
  2
*ACTIVE
 70
0
 10
0.0
 20
0.0
 11
1.0
 21
1.0
 12
105.0
 22
148.5
 13
0.0
 23
0.0
 14
1.0
 24
1.0
 15
0.0
 25
0.0
 16
0.0
 26
0.0
 36
1.0
 17
0.0
 27
0.0
 37
0.0
 40
297.0
 41
0.7070707071
 42
50.0
 43
0.0
 44
0.0
 50
0.0
 51
0.0
 71
0
 72
100
 73
1
 74
1
 75
0
 76
0
 77
0
 78
0
  0
ENDTAB
  0
TABLE
  2
LTYPE
  5
5
100
AcDbSymbolTable
 70
6
  0
LTYPE
  5
14
100
AcDbSymbolTableRecord
100
AcDbLinetypeTableRecord
  2
BYBLOCK
 70
0
  3

 72
65
 73
0
 40
0.0
  0
LTYPE
  5
15
100
AcDbSymbolTableRecord
100
AcDbLinetypeTableRecord
  2
BYLAYER
 70
0
  3

 72
65
 73
0
 40
0.0
  0
LTYPE
  5
16
100
AcDbSymbolTableRecord
100
AcDbLinetypeTableRecord
  2
CONTINUOUS
 70
64
  3
Solid line
 72
65
 73
0
 40
0.0
  0
LTYPE
  5
1F5
100
AcDbSymbolTableRecord
100
AcDbLinetypeTableRecord
  2
CENTER
 70
64
  3
____ _ ____ _ ____ _ ____ _ ____ _ ____ _ ____
 72
65
 73
4
 40
0.6
 49
0.375
 74
0
 49
-0.075
 74
0
 49
0.075
 74
0
 49
-0.075
 74
0
  0
LTYPE
  5
1F6
100
AcDbSymbolTableRecord
100
AcDbLinetypeTableRecord
  2
HIDDEN
 70
64
  3
- - - - - - - - - - - - - - - - - - - -
 72
65
 73
2
 40
0.2
 49
0.1
 74
0
 49
-0.1
 74
0
  0
LTYPE
  5
1F7
100
AcDbSymbolTableRecord
100
AcDbLinetypeTableRecord
  2
PHANTOM
 70
64
  3
_____ _ _ _____ _ _ _____ _ _ _____
 72
65
 73
6
 40
0.8
 49
0.45
 74
0
 49
-0.05
 74
0
 49
0.1
 74
0
 49
-0.05
 74
0
 49
0.1
 74
0
 49
-0.05
 74
0
  0
LTYPE
  5
1F8
100
AcDbSymbolTableRecord
100
AcDbLinetypeTableRecord
  2
DOT
 70
64
  3
. . . . . . . . . . . . . . . . . . . .
 72
65
 73
2
 40
0.2
 49
0.1
 74
0
 49
-0.1
 74
0
  0
LTYPE
  5
1F9
100
AcDbSymbolTableRecord
100
AcDbLinetypeTableRecord
  2
DASHED
 70
64
  3
- - - - - - - - - - - - - - - - - - - -
 72
65
 73
2
 40
0.2
 49
0.1
 74
0
 49
-0.1
 74
0
  0
ENDTAB
  0
TABLE
  2
LAYER
  5
2
100
AcDbSymbolTable
 70
36
  0
LAYER
  5
10
100
AcDbSymbolTableRecord
100
AcDbLayerTableRecord
  2
0
 70
0
 62
7
  6
CONTINUOUS
370
-3
390
F
  0
LAYER
  5
1FA
100
AcDbSymbolTableRecord
100
AcDbLayerTableRecord
  2
DEFAULT_1
 70
0
 62
7
  6
CENTER
370
-3
390
F
  0
LAYER
  5
1FB
100
AcDbSymbolTableRecord
100
AcDbLayerTableRecord
  2
DEFAULT_2
 70
0
 62
7
  6
HIDDEN
370
-3
390
F
  0
LAYER
  5
1FC
100
AcDbSymbolTableRecord
100
AcDbLayerTableRecord
  2
DEFAULT_3
 70
0
 62
7
  6
PHANTOM
370
-3
390
F
  0
LAYER
  5
1FD
100
AcDbSymbolTableRecord
100
AcDbLayerTableRecord
  2
ASSI
 70
0
 62
7
  6
CONTINUOUS
370
-3
390
F
  0
LAYER
  5
1FE
100
AcDbSymbolTableRecord
100
AcDbLayerTableRecord
  2
COORDINATE
 70
0
 62
7
  6
CONTINUOUS
370
-3
390
F
  0
LAYER
  5
1FF
100
AcDbSymbolTableRecord
100
AcDbLayerTableRecord
  2
COORD_ORIGINE
 70
0
 62
7
  6
CONTINUOUS
370
-3
390
F
  0
LAYER
  5
200
100
AcDbSymbolTableRecord
100
AcDbLayerTableRecord
  2
COPY_PUBLISH
 70
0
 62
7
  6
CONTINUOUS
370
-3
390
F
  0
LAYER
  5
201
100
AcDbSymbolTableRecord
100
AcDbLayerTableRecord
  2
COSMETICI
 70
0
 62
7
  6
CONTINUOUS
370
-3
390
F
  0
LAYER
  5
202
100
AcDbSymbolTableRecord
100
AcDbLayerTableRecord
  2
CURVE
 70
0
 62
7
  6
CONTINUOUS
370
-3
390
F
  0
LAYER
  5
203
100
AcDbSymbolTableRecord
100
AcDbLayerTableRecord
  2
DRAFT
 70
0
 62
7
  6
CONTINUOUS
370
-3
390
F
  0
LAYER
  5
204
100
AcDbSymbolTableRecord
100
AcDbLayerTableRecord
  2
IGES
 70
0
 62
7
  6
CONTINUOUS
370
-3
390
F
  0
LAYER
  5
205
100
AcDbSymbolTableRecord
100
AcDbLayerTableRecord
  2
IMPORT_IGES
 70
0
 62
7
  6
CONTINUOUS
370
-3
390
F
  0
LAYER
  5
206
100
AcDbSymbolTableRecord
100
AcDbLayerTableRecord
  2
INTF_2
 70
0
 62
7
  6
CONTINUOUS
370
-3
390
F
  0
LAYER
  5
207
100
AcDbSymbolTableRecord
100
AcDbLayerTableRecord
  2
INTF_YELLOW
 70
0
 62
7
  6
CONTINUOUS
370
-3
390
F
  0
LAYER
  5
208
100
AcDbSymbolTableRecord
100
AcDbLayerTableRecord
  2
NOTE
 70
0
 62
7
  6
CONTINUOUS
370
-3
390
F
  0
LAYER
  5
209
100
AcDbSymbolTableRecord
100
AcDbLayerTableRecord
  2
PIANI
 70
0
 62
7
  6
CONTINUOUS
370
-3
390
F
  0
LAYER
  5
20A
100
AcDbSymbolTableRecord
100
AcDbLayerTableRecord
  2
PIANI_ORIGINE
 70
0
 62
7
  6
CONTINUOUS
370
-3
390
F
  0
LAYER
  5
20B
100
AcDbSymbolTableRecord
100
AcDbLayerTableRecord
  2
PIANI_RIFERIMENTO
 70
0
 62
7
  6
CONTINUOUS
370
-3
390
F
  0
LAYER
  5
20C
100
AcDbSymbolTableRecord
100
AcDbLayerTableRecord
  2
PUNTI
 70
0
 62
7
  6
CONTINUOUS
370
-3
390
F
  0
LAYER
  5
20D
100
AcDbSymbolTableRecord
100
AcDbLayerTableRecord
  2
RACCORDO
 70
0
 62
7
  6
CONTINUOUS
370
-3
390
F
  0
LAYER
  5
20E
100
AcDbSymbolTableRecord
100
AcDbLayerTableRecord
  2
SIMBOLI
 70
0
 62
7
  6
CONTINUOUS
370
-3
390
F
  0
LAYER
  5
20F
100
AcDbSymbolTableRecord
100
AcDbLayerTableRecord
  2
SMUSSO
 70
0
 62
7
  6
CONTINUOUS
370
-3
390
F
  0
LAYER
  5
210
100
AcDbSymbolTableRecord
100
AcDbLayerTableRecord
  2
SNAPLINE
 70
0
 62
7
  6
CONTINUOUS
370
-3
390
F
  0
LAYER
  5
211
100
AcDbSymbolTableRecord
100
AcDbLayerTableRecord
  2
SUPERFICI
 70
0
 62
7
  6
CONTINUOUS
370
-3
390
F
  0
LAYER
  5
212
100
AcDbSymbolTableRecord
100
AcDbLayerTableRecord
  2
TRASH
 70
0
 62
7
  6
CONTINUOUS
370
-3
390
F
  0
LAYER
  5
213
100
AcDbSymbolTableRecord
100
AcDbLayerTableRecord
  2
XSEC_DATUMS
 70
0
 62
7
  6
CONTINUOUS
370
-3
390
F
  0
ENDTAB
  0
TABLE
  2
STYLE
  5
3
100
AcDbSymbolTable
 70
1
  0
STYLE
  5
11
100
AcDbSymbolTableRecord
100
AcDbTextStyleTableRecord
  2
STANDARD
 70
0
 40
0.0
 41
0.8
 50
0.0
 71
0
 42
0.2
  3
txt
  4

  0
STYLE
  5
214
100
AcDbSymbolTableRecord
100
AcDbTextStyleTableRecord
  2
TEXTSTYLE_1
 70
0
 40
0.0
 41
0.8
 50
0.0
 71
0
 42
0.2
  3
gdt
  4

  0
ENDTAB
  0
TABLE
  2
VIEW
  5
6
100
AcDbSymbolTable
 70
0
  0
ENDTAB
  0
TABLE
  2
UCS
  5
7
100
AcDbSymbolTable
 70
0
  0
ENDTAB
  0
TABLE
  2
APPID
  5
9
100
AcDbSymbolTable
 70
1
  0
APPID
  5
215
100
AcDbSymbolTableRecord
100
AcDbRegAppTableRecord
  2
ACAD
 70
0
  0
ENDTAB
  0
TABLE
  2
BLOCK_RECORD
  5
1
100
AcDbSymbolTable
 70
0
  0
BLOCK_RECORD
  5
216
100
AcDbSymbolTableRecord
100
AcDbBlockTableRecord
  2
*Model_Space
  0
BLOCK_RECORD
  5
217
100
AcDbSymbolTableRecord
100
AcDbBlockTableRecord
  2
*Paper_Space
  0
BLOCK_RECORD
  5
218
100
AcDbSymbolTableRecord
100
AcDbBlockTableRecord
  2
_FILLED
  0
ENDTAB
  0
TABLE
  2
DIMSTYLE
  5
A
100
AcDbSymbolTable
 70
1
100
AcDbDimStyleTable
 71
0
  0
DIMSTYLE
105
219
100
AcDbSymbolTableRecord
100
AcDbDimStyleTableRecord
  2
STANDARD
 70
0
  3

  4

 40
1.0
 41
3.0
 42
0.5
 43
0.38
 44
1.5
 45
0.0
 46
0.0
 47
0.01
 48
0.01
140
3.0
141
0.09
142
0.0
143
25.4
144
1.0
145
0.0
146
1.0
147
0.625
 71
1
 72
0
 73
0
 74
0
 75
0
 76
0
 77
1
 78
8
 79
2
170
0
171
1
172
0
173
0
174
0
175
0
176
0
177
0
178
0
270
2
179
2
271
2
272
2
273
2
274
2
275
0
280
0
281
0
282
0
283
1
284
8
285
0
286
0
287
3
288
0
340
11
278
44
341
218
342
218
343
218
344
218
  0
ENDTAB
  0
ENDSEC
  0
SECTION
  2
BLOCKS
  0
BLOCK
  5
20
100
AcDbEntity
  8
0
100
AcDbBlockBegin
  2
*Model_Space
 70
0
 10
0.0
 20
0.0
 30
0.0
  3
*Model_Space
  1

  0
ENDBLK
  5
21
100
AcDbEntity
  8
0
100
AcDbBlockEnd
  0
BLOCK
  5
1C
100
AcDbEntity
  8
0
100
AcDbBlockBegin
  2
*Paper_Space
 70
0
 10
0.0
 20
0.0
 30
0.0
  3
*Paper_Space
  1

  0
ENDBLK
  5
1D
100
AcDbEntity
  8
0
100
AcDbBlockEnd
  0
BLOCK
  5
21A
100
AcDbEntity
  8
0
100
AcDbBlockBegin
  2
_FILLED
 70
64
 10
0.0
 20
0.0
  3
_FILLED
  1

  0
SOLID
  5
21B
100
AcDbEntity
  8
0
  6
BYBLOCK
 62
0
100
AcDbTrace
 10
0.0
 20
0.0
 11
-1.0
 21
0.3166666667
 12
-1.0
 22
-0.3166666667
 13
-1.0
 23
-0.3166666667
  0
ENDBLK
  5
21C
100
AcDbEntity
  8
0
  6
BYBLOCK
 62
0
100
AcDbBlockEnd
  0
ENDSEC
  0
SECTION
  2
ENTITIES
  0
LWPOLYLINE
  5
21D
100
AcDbEntity
  8
ASSI
100
AcDbPolyline
 62
7
  6
CONTINUOUS
 90
19
 70
0
 10
-10.5560105965
 20
20.374240479
 10
-10.5891864603
 20
20.3517382057
 10
-10.6762274282
 20
20.2865430605
 10
-10.7596833678
 20
20.2151601966
 10
-10.8394508458
 20
20.1380724873
 10
-10.9154117723
 20
20.0557092491
 10
-10.9873193285
 20
19.9685847562
 10
-11.0549623684
 20
19.8771517732
 10
-11.1181209807
 20
19.7818398241
 10
-11.1764517885
 20
19.6832530005
 10
-11.229713903
 20
19.5818377002
 10
-11.2776542713
 20
19.4780335476
 10
-11.3199394478
 20
19.3724504088
 10
-11.3563197448
 20
19.2655014446
 10
-11.3865211974
 20
19.1576043863
 10
-11.4102363154
 20
19.0492398345
 10
-11.4271624737
 20
18.9407340287
 10
-11.4369439224
 20
18.832429144
 10
-11.4384794102
 20
18.7984954577
  0
LINE
  5
21E
100
AcDbEntity
  8
ASSI
100
AcDbLine
 62
7
  6
CONTINUOUS
 10
-10.5562225471
 20
20.3741011399
 11
-8.4190789968
 21
21.7835272122
  0
LINE
  5
21F
100
AcDbEntity
  8
ASSI
100
AcDbLine
 62
250
  6
CONTINUOUS
 10
-10.2994410925
 20
20.3536985914
 11
-8.1705624523
 21
21.7576740332
  0
LWPOLYLINE
  5
220
100
AcDbEntity
  8
ASSI
100
AcDbPolyline
 62
250
  6
CONTINUOUS
 90
15
 70
0
 10
-10.5560106844
 20
20.3742406124
 10
-10.5411080464
 20
20.3828884551
 10
-10.5261976684
 20
20.3895273509
 10
-10.5104584129
 20
20.3947033938
 10
-10.4939434749
 20
20.3983990901
 10
-10.4767086705
 20
20.4006019493
 10
-10.4588122493
 20
20.4013045262
 10
-10.4403146965
 20
20.4005044464
 10
-10.4212785293
 20
20.3982044138
 10
-10.4017680853
 20
20.3944122021
 10
-10.3818493048
 20
20.3891406279
 10
-10.3615895084
 20
20.3824075079
 10
-10.341057169
 20
20.3742355984
 10
-10.320321681
 20
20.3646525182
 10
-10.2994531251
 20
20.353690656
  0
LWPOLYLINE
  5
221
100
AcDbEntity
  8
ASSI
100
AcDbPolyline
 62
7
  6
CONTINUOUS
 90
14
 70
0
 10
3.9640870884
 20
-24.2494581143
 10
4.0140015657
 20
-24.276139919
 10
4.0826321905
 20
-24.3062419277
 10
4.1540823074
 20
-24.3303500441
 10
4.2282405518
 20
-24.3483449815
 10
4.3047075093
 20
-24.3600212054
 10
4.3830463427
 20
-24.3652176551
 10
4.4632106196
 20
-24.3638154493
 10
4.5448681111
 20
-24.3556628567
 10
4.6276796018
 20
-24.3406469925
 10
4.7117516818
 20
-24.318545865
 10
4.7969864899
 20
-24.2891076755
 10
4.8829709329
 20
-24.252176726
 10
4.9085837091
 20
-24.2397527286
  0
LINE
  5
222
100
AcDbEntity
  8
ASSI
100
AcDbLine
 62
7
  6
CONTINUOUS
 10
3.9646466414
 20
-24.2497817041
 11
-10.9858966728
 21
-15.6175253688
  0
LINE
  5
223
100
AcDbEntity
  8
ASSI
100
AcDbLine
 62
250
  6
CONTINUOUS
 10
3.6513152387
 20
-23.6109268544
 11
-11.2920197142
 21
-14.982832537
  0
LINE
  5
224
100
AcDbEntity
  8
ASSI
100
AcDbLine
 62
250
  6
CONTINUOUS
 10
-10.9858965988
 20
-15.6175254115
 11
-10.9900242729
 21
-15.6151151392
  0
LWPOLYLINE
  5
225
100
AcDbEntity
  8
ASSI
100
AcDbPolyline
 62
250
  6
CONTINUOUS
 90
19
 70
0
 10
-10.9900242729
 20
-15.6151151392
 10
-11.0196371391
 20
-15.5961619206
 10
-11.047944204
 20
-15.5750491854
 10
-11.0748986561
 20
-15.5518121155
 10
-11.1004545414
 20
-15.5264903686
 10
-11.1245684917
 20
-15.4991268512
 10
-11.1472011453
 20
-15.4697668546
 10
-11.1683140382
 20
-15.4384600611
 10
-11.1878711454
 20
-15.4052594757
 10
-11.2058405387
 20
-15.370220127
 10
-11.222191897
 20
-15.3334005348
 10
-11.2368969344
 20
-15.2948634159
 10
-11.2499310161
 20
-15.2546746608
 10
-11.2612719935
 20
-15.2129028463
 10
-11.270900802
 20
-15.169617955
 10
-11.2788018448
 20
-15.124892039
 10
-11.2849619274
 20
-15.0788001695
 10
-11.2893703708
 20
-15.0314203869
 10
-11.2920197142
 20
-14.982832537
  0
LINE
  5
226
100
AcDbEntity
  8
CURVE
100
AcDbLine
 62
250
  6
CONTINUOUS
 10
-6.4409763392
 20
-14.1450114244
 11
-1.9436075052
 21
-16.7417358238
  0
LINE
  5
227
100
AcDbEntity
  8
ASSI
100
AcDbLine
 62
7
  6
CONTINUOUS
 10
-6.1707789531
 20
20.6030241039
 11
-6.3523094374
 21
20.1858642435
  0
LINE
  5
228
100
AcDbEntity
  8
CURVE
100
AcDbLine
 62
250
  6
CONTINUOUS
 10
-1.464066115
 20
-14.9305387856
 11
-3.9115776451
 21
-13.5173763026
  0
LWPOLYLINE
  5
229
100
AcDbEntity
  8
ASSI
100
AcDbPolyline
 62
7
  6
CONTINUOUS
 90
14
 70
0
 10
-11.4384442853
 20
-14.7799893196
 10
-11.4323425875
 20
-14.8689921422
 10
-11.420074693
 20
-14.957805106
 10
-11.4021172458
 20
-15.042040426
 10
-11.378850969
 20
-15.1214697428
 10
-11.3505690177
 20
-15.196211329
 10
-11.3174007549
 20
-15.2665759593
 10
-11.2796427092
 20
-15.3323655839
 10
-11.237596703
 20
-15.3934348597
 10
-11.1913167837
 20
-15.4499467347
 10
-11.1411422556
 20
-15.5016431619
 10
-11.0874188901
 20
-15.5483228842
 10
-11.0301627826
 20
-15.59006047
 10
-10.9854277807
 20
-15.6177956761
  0
LWPOLYLINE
  5
22A
100
AcDbEntity
  8
ASSI
100
AcDbPolyline
 62
250
  6
CONTINUOUS
 90
15
 70
0
 10
-11.4384445602
 20
-14.7799893294
 10
-11.4382013653
 20
-14.7849011781
 10
-11.4362854704
 20
-14.8021135616
 10
-11.4327232838
 20
-14.8191935263
 10
-11.4275265928
 20
-14.8360845546
 10
-11.4207125933
 20
-14.8527307543
 10
-11.4123038326
 20
-14.8690770433
 10
-11.4023281353
 20
-14.8850693318
 10
-11.3908185109
 20
-14.9006547015
 10
-11.3778130447
 20
-14.9157815805
 10
-11.3633547716
 20
-14.9303999141
 10
-11.347491534
 20
-14.9444613303
 10
-11.3302758231
 20
-14.9579193001
 10
-11.3117646056
 20
-14.9707292911
 10
-11.292019135
 20
-14.9828489152
  0
LWPOLYLINE
  5
22B
100
AcDbEntity
  8
ASSI
100
AcDbPolyline
 62
7
  6
CONTINUOUS
 90
11
 70
0
 10
-11.7322681697
 20
2.1179490655
 10
-11.7312238661
 20
2.092844832
 10
-11.725777341
 20
2.0558121088
 10
-11.7156041854
 20
2.0191332009
 10
-11.7007450369
 20
1.9834071236
 10
-11.681424685
 20
1.9492765469
 10
-11.6578916587
 20
1.9171339708
 10
-11.6303408359
 20
1.8871919766
 10
-11.5988985782
 20
1.8595891033
 10
-11.563638037
 20
1.8344440518
 10
-11.5444298375
 20
1.8227392954
  0
LWPOLYLINE
  5
22C
100
AcDbEntity
  8
ASSI
100
AcDbPolyline
 62
250
  6
CONTINUOUS
 90
13
 70
0
 10
-11.2920197225
 20
-14.9828325323
 10
-11.3381961615
 20
-13.6356771658
 10
-11.3804288203
 20
-12.286018827
 10
-11.4187174735
 20
-10.9338730126
 10
-11.4530617063
 20
-9.579264925
 10
-11.4834616771
 20
-8.2222004683
 10
-11.5099178307
 20
-6.8626660735
 10
-11.532430282
 20
-5.5006777267
 10
-11.5509983651
 20
-4.1362503622
 10
-11.5656208847
 20
-2.7693685521
 10
-11.5762970387
 20
-1.400037332
 10
-11.5830267276
 20
-0.0282823847
 10
-11.5858095997
 20
1.3458808685
  0
LWPOLYLINE
  5
22D
100
AcDbEntity
  8
ASSI
100
AcDbPolyline
 62
250
  6
CONTINUOUS
 90
12
 70
0
 10
-11.5858212477
 20
1.9143853798
 10
-11.5854371572
 20
1.9024661265
 10
-11.5842723695
 20
1.8910642142
 10
-11.582333332
 20
1.8802427567
 10
-11.5796307783
 20
1.8700616553
 10
-11.5761796679
 20
1.8605772664
 10
-11.5719991041
 20
1.8518420898
 10
-11.5671122281
 20
1.8439044782
 10
-11.5615460906
 20
1.8368083695
 10
-11.5553315025
 20
1.8305930435
 10
-11.5485028639
 20
1.8252929044
 10
-11.5444300627
 20
1.8227389056
  0
LWPOLYLINE
  5
22E
100
AcDbEntity
  8
ASSI
100
AcDbPolyline
 62
250
  6
CONTINUOUS
 90
15
 70
0
 10
-11.4384796728
 20
18.7984954666
 10
-11.4382010894
 20
18.7830275689
 10
-11.4362851842
 20
18.7671128964
 10
-11.432722989
 20
18.751246213
 10
-11.4275262909
 20
18.7354800216
 10
-11.4207122859
 20
18.7198664922
 10
-11.4123035213
 20
18.7044572898
 10
-11.4023278218
 20
18.6893034033
 10
-11.3908181967
 20
18.6744549768
 10
-11.3778127313
 20
18.6599611435
 10
-11.3633544605
 20
18.6458698634
 10
-11.3474912266
 20
18.6322277644
 10
-11.3302755209
 20
18.619079988
 10
-11.3117643099
 20
18.60647004
 10
-11.2920188471
 20
18.5944396467
  0
LWPOLYLINE
  5
22F
100
AcDbEntity
  8
ASSI
100
AcDbPolyline
 62
250
  6
CONTINUOUS
 90
4
 70
0
 10
-11.7322681972
 20
2.1179532625
 10
-11.7322491626
 20
2.1153551702
 10
-11.7313530291
 20
2.1004961995
 10
-11.7312238661
 20
2.092844832
  0
LWPOLYLINE
  5
230
100
AcDbEntity
  8
ASSI
100
AcDbPolyline
 62
7
  6
CONTINUOUS
 90
10
 70
0
 10
-11.732268193
 20
1.5505864258
 10
-11.7278837641
 20
-0.2337239507
 10
-11.7163434289
 20
-2.0754649811
 10
-11.6976798308
 20
-3.9128772323
 10
-11.6718933128
 20
-5.7459221128
 10
-11.6389843185
 20
-7.5745633728
 10
-11.5989534033
 20
-9.3987654777
 10
-11.5518012449
 20
-11.2184923114
 10
-11.4975287313
 20
-13.0337052757
 10
-11.4384452177
 20
-14.7799709752
  0
LWPOLYLINE
  5
231
100
AcDbEntity
  8
ASSI
100
AcDbPolyline
 62
250
  6
CONTINUOUS
 90
13
 70
0
 10
-11.5858095998
 20
1.9143786544
 10
-11.5830267277
 20
3.2918817578
 10
-11.5762970388
 20
4.6716929374
 10
-11.5656208847
 20
6.0537963662
 10
-11.5509983651
 20
7.4381652579
 10
-11.532430282
 20
8.8247946388
 10
-11.5099178307
 20
10.2137015215
 10
-11.4834616771
 20
11.6048711901
 10
-11.4530617063
 20
12.9982868036
 10
-11.4187174735
 20
14.3939624452
 10
-11.3804288203
 20
15.791892394
 10
-11.3381961616
 20
17.1920509683
 10
-11.2920197225
 20
18.5944224113
  0
LWPOLYLINE
  5
232
100
AcDbEntity
  8
ASSI
100
AcDbPolyline
 62
250
  6
CONTINUOUS
 90
22
 70
0
 10
-11.5858212477
 20
1.3458875939
 10
-11.5854371563
 20
1.3582504027
 10
-11.5842723655
 20
1.3709974002
 10
-11.5823333233
 20
1.3840580264
 10
-11.5796307631
 20
1.3973599856
 10
-11.5761796449
 20
1.4108296457
 10
-11.5719990725
 20
1.4243924459
 10
-11.5671121873
 20
1.4379733104
 10
-11.5615460405
 20
1.4514970638
 10
-11.5553314435
 20
1.464888846
 10
-11.548502797
 20
1.4780745282
 10
-11.5410979004
 20
1.4909811224
 10
-11.5331577435
 20
1.5035371855
 10
-11.5247262784
 20
1.5156732146
 10
-11.515850177
 20
1.5273220324
 10
-11.5065785723
 20
1.5384191582
 10
-11.4969627866
 20
1.5489031654
 10
-11.4870560472
 20
1.5587160213
 10
-11.476913192
 20
1.5678034086
 10
-11.4665903658
 20
1.5761150253
 10
-11.4561447093
 20
1.5836048642
 10
-11.4456340434
 20
1.5902314667
  0
LWPOLYLINE
  5
233
100
AcDbEntity
  8
ASSI
100
AcDbPolyline
 62
7
  6
CONTINUOUS
 90
10
 70
0
 10
-11.4384708815
 20
18.7987583306
 10
-11.497717672
 20
16.9765122296
 10
-11.5519634338
 20
15.0966098108
 10
-11.5990901712
 20
13.2206835006
 10
-11.6390968234
 20
11.3487730457
 10
-11.671982539
 20
9.4809154853
 10
-11.697746589
 20
7.6171471393
 10
-11.7163883566
 20
5.7575048959
 10
-11.7279073261
 20
3.9020278674
 10
-11.7322681937
 20
2.1179594785
  0
LWPOLYLINE
  5
234
100
AcDbEntity
  8
ASSI
100
AcDbPolyline
 62
250
  6
CONTINUOUS
 90
37
 70
0
 10
-11.2920197142
 20
18.5944224067
 10
-11.2893703708
 20
18.6461421759
 10
-11.2849619275
 20
18.6987325317
 10
-11.2788018449
 20
18.7521050125
 10
-11.2709008022
 20
18.8061696811
 10
-11.2612719937
 20
18.8608357949
 10
-11.2499310163
 20
18.9160119871
 10
-11.2368969346
 20
18.9716065017
 10
-11.2221918972
 20
19.0275249435
 10
-11.2058405391
 20
19.0836709442
 10
-11.1878711457
 20
19.1399493382
 10
-11.1683140385
 20
19.1962663766
 10
-11.1472011457
 20
19.2525274877
 10
-11.1245684922
 20
19.3086382738
 10
-11.1004545419
 20
19.3645044271
 10
-11.0748986566
 20
19.420031904
 10
-11.0479442045
 20
19.4751279139
 10
-11.0196371396
 20
19.5296995363
 10
-10.9900242735
 20
19.5836536456
 10
-10.9591561202
 20
19.6368997649
 10
-10.9270851844
 20
19.6893485336
 10
-10.8938645491
 20
19.7409103525
 10
-10.8595511422
 20
19.7914984919
 10
-10.824203157
 20
19.8410285026
 10
-10.7878783687
 20
19.8894166787
 10
-10.7506387195
 20
19.9365819621
 10
-10.7125475819
 20
19.982445337
 10
-10.6736671547
 20
20.0269291822
 10
-10.634063091
 20
20.0699596465
 10
-10.5938033749
 20
20.1114639454
 10
-10.5529555929
 20
20.151369849
 10
-10.5115901767
 20
20.1896100395
 10
-10.469776848
 20
20.2261214539
 10
-10.4275834786
 20
20.260842512
 10
-10.3850808161
 20
20.2937149846
 10
-10.3423423936
 20
20.3246842181
 10
-10.2994410204
 20
20.3536985497
  0
LWPOLYLINE
  5
235
100
AcDbEntity
  8
ASSI
100
AcDbPolyline
 62
250
  6
CONTINUOUS
 90
3
 70
0
 10
-11.5321492423
 20
1.7299034148
 10
-11.5302825686
 20
1.738886949
 10
-11.527615249
 20
1.7478053521
  0
LWPOLYLINE
  5
236
100
AcDbEntity
  8
ASSI
100
AcDbPolyline
 62
250
  6
CONTINUOUS
 90
7
 70
0
 10
-11.527615249
 20
1.7478053521
 10
-11.5241536093
 20
1.7566592551
 10
-11.5199253158
 20
1.7653779635
 10
-11.5149239667
 20
1.7739606401
 10
-11.5091559638
 20
1.782408122
 10
-11.5026681793
 20
1.7906522268
 10
-11.4979549886
 20
1.7959047729
  0
LWPOLYLINE
  5
237
100
AcDbEntity
  8
ASSI
100
AcDbPolyline
 62
250
  6
CONTINUOUS
 90
14
 70
0
 10
-11.7291189619
 20
2.0856797205
 10
-11.7255529849
 20
2.0709452129
 10
-11.7206647509
 20
2.0563324624
 10
-11.7144673637
 20
2.0418806606
 10
-11.7069772596
 20
2.0276279005
 10
-11.6982140936
 20
2.0136119642
 10
-11.6882015534
 20
1.99987114
 10
-11.6769674627
 20
1.986443249
 10
-11.6645431589
 20
1.9733652218
 10
-11.6509613983
 20
1.9606711347
 10
-11.6362567645
 20
1.9483931721
 10
-11.6204677223
 20
1.9365637885
 10
-11.603637025
 20
1.9252154385
 10
-11.5858095979
 20
1.9143786613
  0
LWPOLYLINE
  5
238
100
AcDbEntity
  8
ASSI
100
AcDbPolyline
 62
7
  6
CONTINUOUS
 90
8
 70
0
 10
-11.618990144
 20
1.7936287552
 10
-11.6495408933
 20
1.7625777748
 10
-11.675498498
 20
1.7292459854
 10
-11.6966917617
 20
1.6940167506
 10
-11.7128814404
 20
1.6576188383
 10
-11.7240730658
 20
1.6207318954
 10
-11.730453609
 20
1.5838025443
 10
-11.7322680104
 20
1.550430862
  0
LINE
  5
239
100
AcDbEntity
  8
ASSI
100
AcDbLine
 62
7
  6
CONTINUOUS
 10
-11.5839093538
 20
1.8221792641
 11
-11.618990144
 21
1.7936287552
  0
LINE
  5
23A
100
AcDbEntity
  8
ASSI
100
AcDbLine
 62
7
  6
CONTINUOUS
 10
-11.5645395855
 20
1.8350869654
 11
-11.5839093538
 21
1.8221792641
  0
LWPOLYLINE
  5
23B
100
AcDbEntity
  8
ASSI
100
AcDbPolyline
 62
250
  6
CONTINUOUS
 90
37
 70
0
 10
4.6672666341
 20
11.7121091275
 10
4.6233521819
 20
11.6836797353
 10
4.5796079415
 20
11.6532912487
 10
4.5361067224
 20
11.6209953304
 10
4.4929204187
 20
11.5868475802
 10
4.4501214169
 20
11.550905281
 10
4.4077825056
 20
11.5132271745
 10
4.3659734331
 20
11.4738763079
 10
4.3247646046
 20
11.4329200147
 10
4.2842284425
 20
11.3904277323
 10
4.244433042
 20
11.3464721812
 10
4.2054439452
 20
11.3011272767
 10
4.1673278543
 20
11.2544680397
 10
4.130148245
 20
11.2065734265
 10
4.0939669563
 20
11.1575245549
 10
4.0588459566
 20
11.1074027095
 10
4.0248435648
 20
11.0562922669
 10
3.9920165832
 20
11.0042800296
 10
3.9604219112
 20
10.9514533931
 10
3.9301122034
 20
10.8979016313
 10
3.901137824
 20
10.8437153081
 10
3.8735489502
 20
10.7889856053
 10
3.8473917058
 20
10.7338053455
 10
3.8227092893
 20
10.6782674175
 10
3.7995439186
 20
10.6224642157
 10
3.7779342379
 20
10.5664899436
 10
3.757916092
 20
10.5104391031
 10
3.7395237242
 20
10.4544049292
 10
3.7227876417
 20
10.3984810634
 10
3.7077359443
 20
10.3427627788
 10
3.6943950247
 20
10.2873454285
 10
3.682787241
 20
10.2323232869
 10
3.6729314482
 20
10.177788231
 10
3.6648443723
 20
10.1238309756
 10
3.6585395839
 20
10.0705420459
 10
3.6540273858
 20
10.0180115966
 10
3.6513152387
 20
9.9663280893
  0
LINE
  5
23C
100
AcDbEntity
  8
ASSI
100
AcDbLine
 62
250
  6
CONTINUOUS
 10
6.8717850719
 20
13.0724110976
 11
4.6672667062
 21
11.712109086
  0
LINE
  5
23D
100
AcDbEntity
  8
CURVE
100
AcDbLine
 62
250
  6
CONTINUOUS
 10
-2.8286592773
 20
8.4067240576
 11
-3.9209088021
 21
7.7750623659
  0
LWPOLYLINE
  5
23E
100
AcDbEntity
  8
ASSI
100
AcDbPolyline
 62
250
  6
CONTINUOUS
 90
28
 70
0
 10
4.3518993262
 20
9.9458522184
 10
4.3306611397
 20
9.9356397985
 10
4.3083439208
 20
9.9261483461
 10
4.285021517
 20
9.9174092683
 10
4.2607711019
 20
9.9094514826
 10
4.2356729199
 20
9.9023013213
 10
4.2098100207
 20
9.8959824443
 10
4.1832679844
 20
9.8905157605
 10
4.1561346385
 20
9.8859193593
 10
4.1284997669
 20
9.8822084501
 10
4.1004548132
 20
9.8793953122
 10
4.0720925779
 20
9.8774892543
 10
4.0435069114
 20
9.8764965836
 10
4.0147924035
 20
9.8764205848
 10
3.9860440701
 20
9.8772615093
 10
3.9573570394
 20
9.8790165745
 10
3.9288262365
 20
9.881679973
 10
3.9005460695
 20
9.8852428916
 10
3.8726101173
 20
9.8896935406
 10
3.8451108197
 20
9.8950171928
 10
3.8181391717
 20
9.9011962324
 10
3.7917844223
 20
9.9082102129
 10
3.766133779
 20
9.9160359252
 10
3.7412721197
 20
9.924647474
 10
3.7172817114
 20
9.9340163637
 10
3.6942419381
 20
9.9441115929
 10
3.6722290383
 20
9.9548997564
 10
3.6513158525
 20
9.9663451564
  0
LINE
  5
23F
100
AcDbEntity
  8
ASSI
100
AcDbLine
 62
7
  6
CONTINUOUS
 10
-6.1707789531
 20
20.6030241039
 11
-6.1494445741
 21
19.9827987559
  0
LWPOLYLINE
  5
240
100
AcDbEntity
  8
CURVE
100
AcDbPolyline
 62
250
  6
CONTINUOUS
 90
4
 70
0
 10
-6.5286421174
 20
-10.49472636
 10
-6.4983406596
 20
-11.9018098205
 10
-6.4637327552
 20
-13.3062759828
 10
-6.4409763352
 20
-14.1450115663
  0
LINE
  5
241
100
AcDbEntity
  8
ASSI
100
AcDbLine
 62
250
  6
CONTINUOUS
 10
-6.3523094374
 20
20.1858642435
 11
-6.3523094374
 21
20.1232604602
  0
LWPOLYLINE
  5
242
100
AcDbEntity
  8
CURVE
100
AcDbPolyline
 62
250
  6
CONTINUOUS
 90
4
 70
0
 10
-6.4679128746
 20
10.8384468039
 10
-6.5019987435
 20
9.3943009357
 10
-6.5317781182
 20
7.9525128775
 10
-6.5475263048
 20
7.0915766976
  0
LWPOLYLINE
  5
243
100
AcDbEntity
  8
ASSI
100
AcDbPolyline
 62
250
  6
CONTINUOUS
 90
37
 70
0
 10
5.0330869855
 20
11.1074405587
 10
5.003570908
 20
11.0885307428
 10
4.9742634847
 20
11.0683848603
 10
4.9451647156
 20
11.0470029115
 10
4.916225703
 20
11.0243444414
 10
4.8874953447
 20
11.000449905
 10
4.8591203338
 20
10.9754406662
 10
4.8311027926
 20
10.9493111436
 10
4.8034405988
 20
10.9220669187
 10
4.7762740783
 20
10.8938460996
 10
4.7496061628
 20
10.8646441328
 10
4.7234339206
 20
10.8344655719
 10
4.6978888818
 20
10.8034621855
 10
4.6729741656
 20
10.7716298207
 10
4.6486866528
 20
10.7389726305
 10
4.6251485164
 20
10.7056548425
 10
4.6023633869
 20
10.6716728908
 10
4.5803276336
 20
10.6370303412
 10
4.5591525384
 20
10.6019021191
 10
4.5388424937
 20
10.5662857717
 10
4.519393107
 20
10.5301837516
 10
4.5009024822
 20
10.4937783417
 10
4.4833755875
 20
10.4570682717
 10
4.4668074548
 20
10.4200548119
 10
4.4512812838
 20
10.382924056
 10
4.4368022905
 20
10.3456754451
 10
4.4233652589
 20
10.3083095382
 10
4.4110377411
 20
10.2710141055
 10
4.3998252241
 20
10.2337889477
 10
4.3897222209
 20
10.1966342642
 10
4.3807798233
 20
10.1597384235
 10
4.3730039882
 20
10.123102126
 10
4.3663887588
 20
10.0867246712
 10
4.3609673557
 20
10.0507923264
 10
4.3567508528
 20
10.0153671805
 10
4.3537281763
 20
9.9803871445
 10
4.3518993262
 20
9.9458522184
  0
LINE
  5
244
100
AcDbEntity
  8
ASSI
100
AcDbLine
 62
250
  6
CONTINUOUS
 10
7.2564118666
 20
12.4793471644
 11
5.0330869855
 21
11.1074405587
  0
LWPOLYLINE
  5
245
100
AcDbEntity
  8
ASSI
100
AcDbPolyline
 62
250
  6
CONTINUOUS
 90
19
 70
0
 10
3.472073038
 20
-6.7604228744
 10
3.4953961584
 20
-6.766947884
 10
3.5192711754
 20
-6.7727733107
 10
3.5436320198
 20
-6.7778827629
 10
3.5684124094
 20
-6.7822625815
 10
3.5935468111
 20
-6.7859013619
 10
3.6189684879
 20
-6.7887891741
 10
3.6446095832
 20
-6.790918464
 10
3.6704010858
 20
-6.7922835978
 10
3.6962736652
 20
-6.7928805465
 10
3.7221579659
 20
-6.7927079236
 10
3.747984594
 20
-6.7917663549
 10
3.7736841137
 20
-6.7900579693
 10
3.7991873475
 20
-6.7875876335
 10
3.8244262259
 20
-6.7843621686
 10
3.8493337443
 20
-6.7803896661
 10
3.8738440478
 20
-6.775680797
 10
3.897890432
 20
-6.7702485046
 10
3.9214063174
 20
-6.7641073899
  0
LWPOLYLINE
  5
246
100
AcDbEntity
  8
ASSI
100
AcDbPolyline
 62
250
  6
CONTINUOUS
 90
25
 70
0
 10
-5.1962772408
 20
-2.4032077813
 10
-5.197407716
 20
-2.3983099047
 10
-5.1987266286
 20
-2.3934022895
 10
-5.2002339813
 20
-2.3884849373
 10
-5.2019353149
 20
-2.3835430874
 10
-5.2038250933
 20
-2.3785915034
 10
-5.2058867049
 20
-2.3736744732
 10
-5.2081216998
 20
-2.3687924154
 10
-5.210528534
 20
-2.3639449151
 10
-5.2130859557
 20
-2.3591750106
 10
-5.2157953384
 20
-2.3544834463
 10
-5.2186553152
 20
-2.3498694817
 10
-5.2216405249
 20
-2.345373928
 10
-5.2247519533
 20
-2.340998018
 10
-5.2279886212
 20
-2.3367405227
 10
-5.2313222201
 20
-2.3326385602
 10
-5.2347536918
 20
-2.3286934175
 10
-5.2382821002
 20
-2.3249038109
 10
-5.2418763201
 20
-2.3213030028
 10
-5.245536933
 20
-2.317892661
 10
-5.2492633614
 20
-2.31467112
 10
-5.2530227415
 20
-2.3116666419
 10
-5.2568041195
 20
-2.3088886476
 10
-5.2606184514
 20
-2.3063277175
 10
-5.2644657377
 20
-2.3039838517
  0
LWPOLYLINE
  5
247
100
AcDbEntity
  8
ASSI
100
AcDbPolyline
 62
250
  6
CONTINUOUS
 90
12
 70
0
 10
-5.2644657377
 20
-1.7354860673
 10
-5.2640816502
 20
-1.7474052757
 10
-5.2629168708
 20
-1.758807152
 10
-5.260977846
 20
-1.769628582
 10
-5.2582753082
 20
-1.7798096643
 10
-5.2548242158
 20
-1.7892940422
 10
-5.2506436712
 20
-1.7980292153
 10
-5.2457568143
 20
-1.8059668301
 10
-5.2401906949
 20
-1.8130629479
 10
-5.2339761229
 20
-1.8192782879
 10
-5.2271474976
 20
-1.8245784445
 10
-5.2230492484
 20
-1.8271471585
  0
LWPOLYLINE
  5
248
100
AcDbEntity
  8
ASSI
100
AcDbPolyline
 62
250
  6
CONTINUOUS
 90
22
 70
0
 10
-5.2644657377
 20
-2.3039838517
 10
-5.2640816471
 20
-2.2916210604
 10
-5.2629168593
 20
-2.2788740804
 10
-5.2609778219
 20
-2.2658134712
 10
-5.2582752681
 20
-2.2525115286
 10
-5.2548241577
 20
-2.2390418839
 10
-5.250643594
 20
-2.2254790972
 10
-5.245756718
 20
-2.2118982438
 10
-5.2401905806
 20
-2.1983744991
 10
-5.2339759924
 20
-2.1849827226
 10
-5.2271473539
 20
-2.1717970429
 10
-5.2197424641
 20
-2.158890448
 10
-5.2118023121
 20
-2.1463343812
 10
-5.2033708499
 20
-2.1341983452
 10
-5.1944947488
 20
-2.1225495179
 10
-5.1852231417
 20
-2.1114523801
 10
-5.1756073506
 20
-2.1009683588
 10
-5.1657006027
 20
-2.0911554875
 10
-5.1555577358
 20
-2.0820680841
 10
-5.1452348948
 20
-2.0737564511
 10
-5.1347892206
 20
-2.0662665967
 10
-5.1242785342
 20
-2.0596399802
  0
LWPOLYLINE
  5
249
100
AcDbEntity
  8
ASSI
100
AcDbPolyline
 62
250
  6
CONTINUOUS
 90
62
 70
0
 10
-5.1962772408
 20
-1.7149122933
 10
-5.1832790354
 20
-1.6721227622
 10
-5.1684753495
 20
-1.6309932314
 10
-5.15186638
 20
-1.591523815
 10
-5.133421854
 20
-1.5536125954
 10
-5.1131724063
 20
-1.5173617
 10
-5.0912097001
 20
-1.4830773719
 10
-5.0675118239
 20
-1.4507829344
 10
-5.0421012708
 20
-1.4204554001
 10
-5.0151365044
 20
-1.3923316569
 10
-4.9866025524
 20
-1.3664409713
 10
-4.9565151063
 20
-1.3427544915
 10
-4.9250787726
 20
-1.3214220116
 10
-4.8923045295
 20
-1.3024739469
 10
-4.8581821788
 20
-1.2858803311
 10
-4.8228846449
 20
-1.2717004332
 10
-4.7864177525
 20
-1.2599430183
 10
-4.7487764203
 20
-1.2505997487
 10
-4.7101172458
 20
-1.2437042575
 10
-4.6704255079
 20
-1.2392620652
 10
-4.6297165943
 20
-1.2372680342
 10
-4.588192279
 20
-1.2377398179
 10
-4.5458404167
 20
-1.2406922508
 10
-4.502673722
 20
-1.2461108253
 10
-4.4589312561
 20
-1.2539691795
 10
-4.4146145571
 20
-1.2642816148
 10
-4.3697225237
 20
-1.2770340805
 10
-4.324490235
 20
-1.2921576727
 10
-4.2789192479
 20
-1.3096635454
 10
-4.2330082783
 20
-1.3295407013
 10
-4.1869881068
 20
-1.351686987
 10
-4.1408589148
 20
-1.3761127143
 10
-4.0946206135
 20
-1.4028076246
 10
-4.0485035327
 20
-1.4316386846
 10
-4.0025076575
 20
-1.4626161845
 10
-3.9566329101
 20
-1.495729781
 10
-3.9111094811
 20
-1.5308154639
 10
-3.8659359799
 20
-1.5678856884
 10
-3.8211135243
 20
-1.6069278427
 10
-3.7768760292
 20
-1.647740294
 10
-3.7332218702
 20
-1.6903386941
 10
-3.6901522349
 20
-1.7347071404
 10
-3.6479052343
 20
-1.7805966559
 10
-3.6064927585
 20
-1.8280078511
 10
-3.565902348
 20
-1.8769397884
 10
-3.5263355863
 20
-1.9271411664
 10
-3.4878074843
 20
-1.9785995732
 10
-3.4503023648
 20
-2.0313270377
 10
-3.4139757924
 20
-2.0851089273
 10
-3.378822637
 20
-2.1399587014
 10
-3.3448472861
 20
-2.1958624734
 10
-3.3122196123
 20
-2.2525646105
 10
-3.2809285972
 20
-2.3101069053
 10
-3.2509844792
 20
-2.368447116
 10
-3.222589098
 20
-2.4272036042
 10
-3.1957568036
 20
-2.4863885692
 10
-3.1704725249
 20
-2.5459893959
 10
-3.1468941163
 20
-2.6055873086
 10
-3.1250433129
 20
-2.665180471
 10
-3.1048977952
 20
-2.7247703818
 10
-3.0865495288
 20
-2.7839433784
 10
-3.0700290881
 20
-2.8425615263
  0
LWPOLYLINE
  5
24A
100
AcDbEntity
  8
ASSI
100
AcDbPolyline
 62
250
  6
CONTINUOUS
 90
14
 70
0
 10
-4.9197941147
 20
-1.7563432431
 10
-4.9084408616
 20
-1.7191019413
 10
-4.8955012821
 20
-1.6831589882
 10
-4.8809778223
 20
-1.6485922477
 10
-4.8648653945
 20
-1.615458837
 10
-4.8471813038
 20
-1.5838561953
 10
-4.8279742826
 20
-1.5539116622
 10
-4.807266468
 20
-1.5256875103
 10
-4.7850840481
 20
-1.4992451172
 10
-4.7615021376
 20
-1.4746872824
 10
-4.7365626761
 20
-1.4520610423
 10
-4.7103043049
 20
-1.4314045815
 10
-4.6828144699
 20
-1.412783099
 10
-4.6642546972
 20
-1.4017513569
  0
LWPOLYLINE
  5
24B
100
AcDbEntity
  8
ASSI
100
AcDbPolyline
 62
7
  6
CONTINUOUS
 90
11
 70
0
 10
-4.4914584289
 20
-1.5161697932
 10
-4.4947952546
 20
-1.5269498168
 10
-4.498709085
 20
-1.537123736
 10
-4.5031999202
 20
-1.5466915508
 10
-4.5082913507
 20
-1.5556892507
 10
-4.513959786
 20
-1.5640808461
 10
-4.5201344539
 20
-1.5717583685
 10
-4.5268026072
 20
-1.5786963284
 10
-4.5339769933
 20
-1.5849202152
 10
-4.5416250818
 20
-1.5903985285
 10
-4.547199162
 20
-1.5937526532
  0
LINE
  5
24C
100
AcDbEntity
  8
ASSI
100
AcDbLine
 62
7
  6
CONTINUOUS
 10
1.7488169962
 20
16.0303486586
 11
1.5672865119
 21
15.6131887983
  0
LWPOLYLINE
  5
24D
100
AcDbEntity
  8
ASSI
100
AcDbPolyline
 62
7
  6
CONTINUOUS
 90
3
 70
0
 10
-3.1813676656
 20
-3.6063836835
 10
-3.1445913625
 20
-3.6089722203
 10
-3.1292701254
 20
-3.6091570611
  0
LWPOLYLINE
  5
24E
100
AcDbEntity
  8
ASSI
100
AcDbPolyline
 62
250
  6
CONTINUOUS
 90
11
 70
0
 10
-3.042378672
 20
-2.9585463321
 10
-3.0521205928
 20
-2.9557089898
 10
-3.0610262702
 20
-2.9524363872
 10
-3.0690464377
 20
-2.9487466284
 10
-3.0761367271
 20
-2.9446601255
 10
-3.0822579149
 20
-2.940199485
 10
-3.0873761382
 20
-2.9353893836
 10
-3.0914630828
 20
-2.9302564308
 10
-3.0944961396
 20
-2.9248290224
 10
-3.0964585296
 20
-2.9191371832
 10
-3.096703487
 20
-2.9180605645
  0
LWPOLYLINE
  5
24F
100
AcDbEntity
  8
ASSI
100
AcDbPolyline
 62
7
  6
CONTINUOUS
 90
10
 70
0
 10
-5.2230158234
 20
-1.8271654687
 10
-5.1942469465
 20
-1.8416913245
 10
-5.163380054
 20
-1.8529699619
 10
-5.1320564775
 20
-1.8602101528
 10
-5.1008334999
 20
-1.863399104
 10
-5.0700489447
 20
-1.8626365232
 10
-5.0399243923
 20
-1.8580143218
 10
-5.0110206905
 20
-1.8496961018
 10
-4.9837750113
 20
-1.8379294991
 10
-4.9758318398
 20
-1.8336878964
  0
LWPOLYLINE
  5
250
100
AcDbEntity
  8
ASSI
100
AcDbPolyline
 62
7
  6
CONTINUOUS
 90
16
 70
0
 10
3.388480503
 20
-6.7993359838
 10
3.4213789208
 20
-6.8167278122
 10
3.4602829588
 20
-6.8336648943
 10
3.500851317
 20
-6.8478146721
 10
3.5429935045
 20
-6.8592488075
 10
3.5864501642
 20
-6.8679487687
 10
3.6306923653
 20
-6.8738562356
 10
3.6754922121
 20
-6.8769796313
 10
3.7206165353
 20
-6.8773053745
 10
3.7654512047
 20
-6.8748294766
 10
3.8097626715
 20
-6.8695627008
 10
3.8533240155
 20
-6.8614937838
 10
3.8956074262
 20
-6.8506739837
 10
3.9363547011
 20
-6.8371178381
 10
3.9754765706
 20
-6.8207527238
 10
4.0051456677
 20
-6.8057590916
  0
LWPOLYLINE
  5
251
100
AcDbEntity
  8
ASSI
100
AcDbPolyline
 62
250
  6
CONTINUOUS
 90
16
 70
0
 10
-2.8340828239
 20
-3.3819702804
 10
-2.8456244185
 20
-3.3757230129
 10
-2.857128212
 20
-3.3702115769
 10
-2.8685603519
 20
-3.3654520743
 10
-2.8798868986
 20
-3.361458455
 10
-2.891074851
 20
-3.358242276
 10
-2.9020922081
 20
-3.3558128477
 10
-2.9129070999
 20
-3.3541773389
 10
-2.923487105
 20
-3.3533407796
 10
-2.9338003167
 20
-3.3533057491
 10
-2.9438160629
 20
-3.354072214
 10
-2.9535053411
 20
-3.3556377955
 10
-2.9628400964
 20
-3.3579979261
 10
-2.9717929402
 20
-3.3611456937
 10
-2.9803375327
 20
-3.3650718419
 10
-2.9849840206
 20
-3.3676351625
  0
LWPOLYLINE
  5
252
100
AcDbEntity
  8
ASSI
100
AcDbPolyline
 62
250
  6
CONTINUOUS
 90
25
 70
0
 10
-2.9742700274
 20
-3.6263141519
 10
-2.9781171658
 20
-3.6242153533
 10
-2.9819310644
 20
-3.6223718388
 10
-2.9857117228
 20
-3.6207836081
 10
-2.9894700912
 20
-3.6194474324
 10
-2.9931952172
 20
-3.6183665392
 10
-2.9968542451
 20
-3.6175506122
 10
-3.0004465911
 20
-3.6170019872
 10
-3.0039728349
 20
-3.616718326
 10
-3.0074018652
 20
-3.6167023008
 10
-3.0107327383
 20
-3.6169562807
 10
-3.0139663923
 20
-3.6174778933
 10
-3.0170745391
 20
-3.6182626985
 10
-3.0200561907
 20
-3.6193130613
 10
-3.0229123284
 20
-3.620626613
 10
-3.0256176183
 20
-3.6221918132
 10
-3.0281706849
 20
-3.6240109859
 10
-3.0305728968
 20
-3.6260818032
 10
-3.0328030367
 20
-3.6283857481
 10
-3.0348595526
 20
-3.6309250231
 10
-3.0367439903
 20
-3.633697422
 10
-3.0384397801
 20
-3.6366778154
 10
-3.0399413977
 20
-3.6398578259
 10
-3.0412543625
 20
-3.643245828
 10
-3.0423786721
 20
-3.6468418202
  0
LWPOLYLINE
  5
253
100
AcDbEntity
  8
ASSI
100
AcDbPolyline
 62
250
  6
CONTINUOUS
 90
25
 70
0
 10
-5.2644657377
 20
-1.7354860673
 10
-5.2606184514
 20
-1.7375847805
 10
-5.2568041195
 20
-1.7394280449
 10
-5.2530227416
 20
-1.7410158601
 10
-5.2492633614
 20
-1.7423514517
 10
-5.245536933
 20
-1.7434315928
 10
-5.2418763201
 20
-1.7442466047
 10
-5.2382821002
 20
-1.7447941477
 10
-5.2347536918
 20
-1.745076559
 10
-5.2313222201
 20
-1.7450911746
 10
-5.2279886212
 20
-1.7448356209
 10
-5.2247519534
 20
-1.7443122682
 10
-5.221640525
 20
-1.7435255681
 10
-5.2186553152
 20
-1.7424731509
 10
-5.2157953384
 20
-1.7411573826
 10
-5.2130859558
 20
-1.7395898193
 10
-5.2105285341
 20
-1.737768132
 10
-5.2081216998
 20
-1.7356946458
 10
-5.2058867049
 20
-1.7333878977
 10
-5.2038250933
 20
-1.7308456806
 10
-5.2019353149
 20
-1.7280701979
 10
-5.2002339813
 20
-1.7250866037
 10
-5.1987266286
 20
-1.7219032818
 10
-5.197407716
 20
-1.7185118455
 10
-5.1962772408
 20
-1.7149122933
  0
LWPOLYLINE
  5
254
100
AcDbEntity
  8
ASSI
100
AcDbPolyline
 62
250
  6
CONTINUOUS
 90
7
 70
0
 10
3.3470738366
 20
-6.7076810807
 10
3.3658479808
 20
-6.7179775922
 10
3.3855184635
 20
-6.7277045661
 10
3.4060323854
 20
-6.7368360592
 10
3.4273336321
 20
-6.7453474407
 10
3.4493658744
 20
-6.7532164325
 10
3.472073038
 20
-6.7604228744
  0
LINE
  5
255
100
AcDbEntity
  8
ASSI
100
AcDbLine
 62
250
  6
CONTINUOUS
 10
3.3470738347
 20
-7.2761788736
 11
-2.9742700274
 21
-3.6263141519
  0
LINE
  5
256
100
AcDbEntity
  8
ASSI
100
AcDbLine
 62
250
  6
CONTINUOUS
 10
-5.2644657377
 20
-2.3039838517
 11
-11.5858095997
 21
1.3458808685
  0
LINE
  5
257
100
AcDbEntity
  8
ASSI
100
AcDbLine
 62
250
  6
CONTINUOUS
 10
3.487272687
 20
-7.0318417262
 11
-2.8340828239
 21
-3.3819702804
  0
LINE
  5
258
100
AcDbEntity
  8
ASSI
100
AcDbLine
 62
250
  6
CONTINUOUS
 10
-5.1242785342
 20
-2.0596399802
 11
-11.4456340434
 21
1.5902314667
  0
LINE
  5
259
100
AcDbEntity
  8
ASSI
100
AcDbLine
 62
7
  6
CONTINUOUS
 10
-11.5444047578
 20
1.8227242874
 11
-5.2230492484
 21
-1.8271471585
  0
LINE
  5
25A
100
AcDbEntity
  8
ASSI
100
AcDbLine
 62
7
  6
CONTINUOUS
 10
-2.9328535375
 20
-3.1494774591
 11
3.3885019734
 21
-6.7993489059
  0
LINE
  5
25B
100
AcDbEntity
  8
ASSI
100
AcDbLine
 62
250
  6
CONTINUOUS
 10
-11.5858095998
 20
1.9143786544
 11
-5.2644657377
 21
-1.7354860673
  0
LINE
  5
25C
100
AcDbEntity
  8
ASSI
100
AcDbLine
 62
250
  6
CONTINUOUS
 10
-2.9742700274
 20
-3.0578163675
 11
3.3470738346
 21
-6.7076810877
  0
LINE
  5
25D
100
AcDbEntity
  8
ASSI
100
AcDbLine
 62
7
  6
CONTINUOUS
 10
-4.6960376062
 20
-1.8113585039
 11
-4.8141280271
 21
-1.7431745748
  0
LWPOLYLINE
  5
25E
100
AcDbEntity
  8
ASSI
100
AcDbPolyline
 62
250
  6
CONTINUOUS
 90
17
 70
0
 10
-11.5858095978
 20
1.3458808638
 10
-11.6036370245
 20
1.3567239981
 10
-11.6204677215
 20
1.3680906287
 10
-11.6362567636
 20
1.3799502081
 10
-11.6509613974
 20
1.3922703913
 10
-11.6645431581
 20
1.4050185852
 10
-11.6769674621
 20
1.4181622214
 10
-11.6882015528
 20
1.4316672852
 10
-11.6982140931
 20
1.4454967322
 10
-11.7069772592
 20
1.4596120884
 10
-11.7144673633
 20
1.4739751011
 10
-11.7206647506
 20
1.4885478763
 10
-11.7255529847
 20
1.5032914409
 10
-11.7291189618
 20
1.5181666275
 10
-11.731353029
 20
1.5331335292
 10
-11.7322491626
 20
1.5481515647
 10
-11.7322680343
 20
1.5504342506
  0
LWPOLYLINE
  5
25F
100
AcDbEntity
  8
ASSI
100
AcDbPolyline
 62
7
  6
CONTINUOUS
 90
24
 70
0
 10
-4.6960376062
 20
-1.8113585039
 10
-4.6845420835
 20
-1.8183526724
 10
-4.6731210332
 20
-1.826019092
 10
-4.6617744554
 20
-1.8343577626
 10
-4.65045381
 20
-1.8434101692
 10
-4.6392076369
 20
-1.8531348269
 10
-4.6281815566
 20
-1.8634072806
 10
-4.6174077841
 20
-1.8742030056
 10
-4.6068541044
 20
-1.8855465267
 10
-4.5965694918
 20
-1.8973869633
 10
-4.5865326824
 20
-1.909753805
 10
-4.5767649403
 20
-1.9226175623
 10
-4.5673790324
 20
-1.9358388855
 10
-4.5583819252
 20
-1.9494243287
 10
-4.5497666522
 20
-1.9633673378
 10
-4.5416250818
 20
-1.9775089006
 10
-4.5339769933
 20
-1.9918190348
 10
-4.5268026072
 20
-2.0063277228
 10
-4.5201344539
 20
-2.020965899
 10
-4.513959786
 20
-2.0357737731
 10
-4.5082913507
 20
-2.0507111355
 10
-4.5031999202
 20
-2.0655882918
 10
-4.498709085
 20
-2.0803420104
 10
-4.4947952546
 20
-2.0950355229
  0
LWPOLYLINE
  5
260
100
AcDbEntity
  8
ASSI
100
AcDbPolyline
 62
250
  6
CONTINUOUS
 90
18
 70
0
 10
-11.4456340434
 20
1.5902314667
 10
-11.4563638997
 20
1.5967641402
 10
-11.4664471806
 20
1.6035766827
 10
-11.4758838861
 20
1.6106690943
 10
-11.4846963121
 20
1.6180620324
 10
-11.4928621627
 20
1.6257348396
 10
-11.5003145505
 20
1.633625543
 10
-11.507047482
 20
1.64173589
 10
-11.5130669507
 20
1.6500641333
 10
-11.5183240499
 20
1.6585430585
 10
-11.522812408
 20
1.6671736337
 10
-11.5265383966
 20
1.6759548909
 10
-11.5294722232
 20
1.6848167114
 10
-11.5316075732
 20
1.6937598808
 10
-11.5329507613
 20
1.7027836135
 10
-11.5334909396
 20
1.7118154342
 10
-11.5332215958
 20
1.7208553805
 10
-11.5321492423
 20
1.7299034148
  0
LWPOLYLINE
  5
261
100
AcDbEntity
  8
ASSI
100
AcDbPolyline
 62
250
  6
CONTINUOUS
 90
22
 70
0
 10
-5.1962771813
 20
-1.7149122591
 10
-5.1857575809
 20
-1.7237737347
 10
-5.1745138208
 20
-1.7321352302
 10
-5.1626081024
 20
-1.7399504892
 10
-5.1501062891
 20
-1.7471762769
 10
-5.1370775417
 20
-1.7537726199
 10
-5.1235939364
 20
-1.7597030267
 10
-5.1097300655
 20
-1.7649346897
 10
-5.0955626249
 20
-1.769438667
 10
-5.08116999
 20
-1.7731900423
 10
-5.066631782
 20
-1.7761680627
 10
-5.0520284273
 20
-1.7783562536
 10
-5.0374407129
 20
-1.7797425096
 10
-5.0229493391
 20
-1.780319162
 10
-5.0086344731
 20
-1.7800830207
 10
-4.9945753061
 20
-1.7790353919
 10
-4.9808496144
 20
-1.7771820713
 10
-4.9675333294
 20
-1.7745333116
 10
-4.9547001181
 20
-1.7711037659
 10
-4.9424209745
 20
-1.7669124067
 10
-4.930763828
 20
-1.761982421
 10
-4.9197931667
 20
-1.7563410818
  0
LWPOLYLINE
  5
262
100
AcDbEntity
  8
ASSI
100
AcDbPolyline
 62
250
  6
CONTINUOUS
 90
14
 70
0
 10
-3.0423786126
 20
-3.6468417858
 10
-3.0521206344
 20
-3.637531346
 10
-3.0610264112
 20
-3.6278199282
 10
-3.0690466755
 20
-3.6177612568
 10
-3.0761370588
 20
-3.6074109771
 10
-3.0822583363
 20
-3.5968263476
 10
-3.0873766449
 20
-3.5860659234
 10
-3.0914636695
 20
-3.5751892318
 10
-3.0944968004
 20
-3.5642564436
 10
-3.0964592582
 20
-3.5533280399
 10
-3.0973401864
 20
-3.5424644773
 10
-3.0971347116
 20
-3.5317258539
 10
-3.0958439705
 20
-3.5211715766
 10
-3.0937053825
 20
-3.5116796094
  0
LWPOLYLINE
  5
263
100
AcDbEntity
  8
ASSI
100
AcDbPolyline
 62
7
  6
CONTINUOUS
 90
17
 70
0
 10
-3.1388639322
 20
-2.7546420608
 10
-3.1478913259
 20
-2.7439767957
 10
-3.193518382
 20
-2.6874352668
 10
-3.2380394639
 20
-2.6295759091
 10
-3.2814496453
 20
-2.570392854
 10
-3.3237538526
 20
-2.5098919702
 10
-3.3647639504
 20
-2.448342328
 10
-3.4044741747
 20
-2.3857392571
 10
-3.4428902896
 20
-2.3220874278
 10
-3.4798414524
 20
-2.257669922
 10
-3.515321138
 20
-2.1924833299
 10
-3.5493358715
 20
-2.1265310613
 10
-3.5817343853
 20
-2.0601064266
 10
-3.6125094805
 20
-1.9932073228
 10
-3.6416683561
 20
-1.925835853
 10
-3.6690813402
 20
-1.8582916377
 10
-3.6944127748
 20
-1.7914392242
  0
LWPOLYLINE
  5
264
100
AcDbEntity
  8
ASSI
100
AcDbPolyline
 62
7
  6
CONTINUOUS
 90
14
 70
0
 10
-3.6584396539
 20
-1.8298886653
 10
-3.6453072863
 20
-1.861640077
 10
-3.6110066735
 20
-1.9396217281
 10
-3.5748085747
 20
-2.0172155199
 10
-3.5367373057
 20
-2.0943879577
 10
-3.4969809788
 20
-2.1707587885
 10
-3.4555542855
 20
-2.2462847494
 10
-3.4124425343
 20
-2.3210091034
 10
-3.3677897629
 20
-2.3946813869
 10
-3.321562319
 20
-2.4673403134
 10
-3.2737938549
 20
-2.5389471694
 10
-3.2247293645
 20
-2.6091353515
 10
-3.1743958572
 20
-2.67785407
 10
-3.154387032
 20
-2.7039359408
  0
LWPOLYLINE
  5
265
100
AcDbEntity
  8
ASSI
100
AcDbPolyline
 62
7
  6
CONTINUOUS
 90
10
 70
0
 10
-3.0967173861
 20
-2.9179896221
 10
-3.0889351629
 20
-2.9481584401
 10
-3.0770003807
 20
-2.981153274
 10
-3.0613966892
 20
-3.0138729777
 10
-3.0421897352
 20
-3.0456473841
 10
-3.0204554733
 20
-3.0746582848
 10
-2.9963530275
 20
-3.1008852719
 10
-2.969647789
 20
-3.1244554965
 10
-2.9415312319
 20
-3.1442663757
 10
-2.9328847263
 20
-3.1494584641
  0
LINE
  5
266
100
AcDbEntity
  8
ASSI
100
AcDbLine
 62
250
  6
CONTINUOUS
 10
-3.0700290881
 20
-2.8425615263
 11
-3.0553055351
 21
-2.9007625491
  0
LWPOLYLINE
  5
267
100
AcDbEntity
  8
ASSI
100
AcDbPolyline
 62
250
  6
CONTINUOUS
 90
25
 70
0
 10
-4.9197941811
 20
-2.3572830628
 10
-4.9232102542
 20
-2.3426808382
 10
-4.9272131124
 20
-2.3279638222
 10
-4.9317910379
 20
-2.3131751744
 10
-4.9369305916
 20
-2.2983582326
 10
-4.9426167591
 20
-2.2835565255
 10
-4.9488329863
 20
-2.2688136442
 10
-4.9555612519
 20
-2.2541725123
 10
-4.9627816655
 20
-2.2396765153
 10
-4.9704724954
 20
-2.2253694677
 10
-4.9786107918
 20
-2.2112939064
 10
-4.9871728568
 20
-2.1974905885
 10
-4.9961338028
 20
-2.1839996232
 10
-5.0054673067
 20
-2.1708606737
 10
-5.0151459633
 20
-2.1581122894
 10
-5.0251417097
 20
-2.1457914395
 10
-5.0354256821
 20
-2.133933914
 10
-5.0459673054
 20
-2.1225751097
 10
-5.0567346634
 20
-2.111749298
 10
-5.0676955892
 20
-2.1014887413
 10
-5.0788184364
 20
-2.0918229442
 10
-5.0900712057
 20
-2.0827795494
 10
-5.1014211267
 20
-2.0743849756
 10
-5.1128347209
 20
-2.0666641992
 10
-5.1242785342
 20
-2.0596399802
  0
LWPOLYLINE
  5
268
100
AcDbEntity
  8
ASSI
100
AcDbPolyline
 62
250
  6
CONTINUOUS
 90
25
 70
0
 10
-3.0423786721
 20
-2.9585463322
 10
-3.0412543625
 20
-2.9634477688
 10
-3.0399413977
 20
-2.9683588182
 10
-3.0384397801
 20
-2.9732794818
 10
-3.0367439903
 20
-2.9782245325
 10
-3.0348595526
 20
-2.9831792002
 10
-3.0328030367
 20
-2.9880991726
 10
-3.0305728968
 20
-2.9929840336
 10
-3.0281706849
 20
-2.9978342028
 10
-3.0256176183
 20
-3.0026066219
 10
-3.0229123284
 20
-3.0073005493
 10
-3.0200561907
 20
-3.0119167305
 10
-3.0170745391
 20
-3.0164143387
 10
-3.0139663924
 20
-3.0207921434
 10
-3.0107327383
 20
-3.0250513789
 10
-3.0074018652
 20
-3.0291549152
 10
-3.0039728349
 20
-3.0331014675
 10
-3.0004465911
 20
-3.036892324
 10
-2.9968542451
 20
-3.040494214
 10
-2.9931952173
 20
-3.043905471
 10
-2.9894700912
 20
-3.047127764
 10
-2.9857117228
 20
-3.0501328263
 10
-2.9819310644
 20
-3.052911236
 10
-2.9781171658
 20
-3.0554724163
 10
-2.9742700274
 20
-3.0578163675
  0
LWPOLYLINE
  5
269
100
AcDbEntity
  8
ASSI
100
AcDbPolyline
 62
7
  6
CONTINUOUS
 90
42
 70
0
 10
-4.4947952546
 20
-2.0950355229
 10
-4.4799807166
 20
-2.160958175
 10
-4.4669686215
 20
-2.2123960398
 10
-4.4524221437
 20
-2.2639824237
 10
-4.436313102
 20
-2.315800812
 10
-4.4186696775
 20
-2.3677677193
 10
-4.3995764136
 20
-2.4196326901
 10
-4.3790202428
 20
-2.4714085581
 10
-4.3570142326
 20
-2.5230824896
 10
-4.3336821279
 20
-2.5743655275
 10
-4.3090270362
 20
-2.6252359685
 10
-4.28304585
 20
-2.6757155159
 10
-4.2558529924
 20
-2.7255803235
 10
-4.2274269352
 20
-2.7748533454
 10
-4.1977892065
 20
-2.8235116274
 10
-4.1671188141
 20
-2.8712624606
 10
-4.1354318555
 20
-2.918069776
 10
-4.1027122331
 20
-2.9639696426
 10
-4.0690906611
 20
-3.0087775594
 10
-4.0345348404
 20
-3.0525230375
 10
-3.99907707
 20
-3.0951765657
 10
-3.962944961
 20
-3.1364651089
 10
-3.9261686579
 20
-3.1763449251
 10
-3.8887180161
 20
-3.2148597564
 10
-3.8507302125
 20
-3.2518677938
 10
-3.8121638334
 20
-3.2873974722
 10
-3.7730602926
 20
-3.3214203567
 10
-3.7336810081
 20
-3.3537093339
 10
-3.6940668711
 20
-3.3842221677
 10
-3.6541769904
 20
-3.4130010943
 10
-3.6141501099
 20
-3.4399457082
 10
-3.5739411444
 20
-3.4650752756
 10
-3.5335951791
 20
-3.4883705303
 10
-3.4933862136
 20
-3.5096732684
 10
-3.4533593331
 20
-3.5289506928
 10
-3.4134694524
 20
-3.5462356006
 10
-3.3738553154
 20
-3.5614681791
 10
-3.3344760308
 20
-3.5746534127
 10
-3.29537249
 20
-3.5857863169
 10
-3.256806111
 20
-3.5947921264
 10
-3.2188183074
 20
-3.6016514524
 10
-3.1813676656
 20
-3.6063836835
  0
LINE
  5
26A
100
AcDbEntity
  8
ASSI
100
AcDbLine
 62
7
  6
CONTINUOUS
 10
-3.096703487
 20
-2.9180605645
 11
-3.0967181881
 21
-2.9179897899
  0
LWPOLYLINE
  5
26B
100
AcDbEntity
  8
ASSI
100
AcDbPolyline
 62
250
  6
CONTINUOUS
 90
12
 70
0
 10
-2.9742700274
 20
-3.0578163675
 10
-2.9738859368
 20
-3.0697356206
 10
-2.9727211491
 20
-3.0811375329
 10
-2.9707821116
 20
-3.0919589902
 10
-2.9680795578
 20
-3.1021400916
 10
-2.9646284474
 20
-3.1116244804
 10
-2.9604478837
 20
-3.1203596569
 10
-2.9555610077
 20
-3.1282972684
 10
-2.9499948703
 20
-3.1353933771
 10
-2.9437802821
 20
-3.1416087031
 10
-2.9369516436
 20
-3.1469088421
 10
-2.9328851486
 20
-3.1494591957
  0
LWPOLYLINE
  5
26C
100
AcDbEntity
  8
ASSI
100
AcDbPolyline
 62
250
  6
CONTINUOUS
 90
22
 70
0
 10
-2.9742700274
 20
-3.6263141519
 10
-2.9738859397
 20
-3.6139514088
 10
-2.9727211601
 20
-3.6012044743
 10
-2.9707821351
 20
-3.588143907
 10
-2.9680795971
 20
-3.5748420016
 10
-2.9646285047
 20
-3.5613723887
 10
-2.96044796
 20
-3.5478096275
 10
-2.955561103
 20
-3.5342287927
 10
-2.9499949835
 20
-3.5207050597
 10
-2.9437804114
 20
-3.5073132877
 10
-2.936951786
 20
-3.4941276057
 10
-2.9295469059
 20
-3.481221002
 10
-2.9216067595
 20
-3.4686649205
 10
-2.9131752982
 20
-3.4565288646
 10
-2.9042991931
 20
-3.444880013
 10
-2.8950275772
 20
-3.4337828478
 10
-2.8854117722
 20
-3.4232987971
 10
-2.8755050056
 20
-3.4134858951
 10
-2.8653621157
 20
-3.4043984615
 10
-2.855039248
 20
-3.3960868
 10
-2.8445935436
 20
-3.3885969196
 10
-2.8340828239
 20
-3.3819702804
  0
LWPOLYLINE
  5
26D
100
AcDbEntity
  8
ASSI
100
AcDbPolyline
 62
7
  6
CONTINUOUS
 90
10
 70
0
 10
-3.0937053825
 20
-3.5116796094
 10
-3.0957464883
 20
-3.5188944713
 10
-3.1130743118
 20
-3.5712228533
 10
-3.1335071515
 20
-3.6190811214
 10
-3.156767257
 20
-3.6621556328
 10
-3.1826228984
 20
-3.7003645895
 10
-3.2109767691
 20
-3.7338219877
 10
-3.2414840716
 20
-3.7623685416
 10
-3.2742346758
 20
-3.7863158358
 10
-3.2833568464
 20
-3.7919474993
  0
LWPOLYLINE
  5
26E
100
AcDbEntity
  8
ASSI
100
AcDbPolyline
 62
250
  6
CONTINUOUS
 90
64
 70
0
 10
-3.0423786721
 20
-3.6468418202
 10
-3.0552981477
 20
-3.6895858938
 10
-3.0700135652
 20
-3.7306644595
 10
-3.0865251212
 20
-3.7700776305
 10
-3.1048632027
 20
-3.8079273905
 10
-3.1249977848
 20
-3.8441119638
 10
-3.1468385516
 20
-3.8783258857
 10
-3.1704080304
 20
-3.9105461882
 10
-3.1956842757
 20
-3.9407961748
 10
-3.2225104561
 20
-3.9688399002
 10
-3.2509023401
 20
-3.9946485574
 10
-3.2808448784
 20
-4.0182513693
 10
-3.3121351592
 20
-4.0394995202
 10
-3.3447631378
 20
-4.0583631336
 10
-3.3787396389
 20
-4.0748725376
 10
-3.4138931376
 20
-4.0889692714
 10
-3.4502186214
 20
-4.1006450388
 10
-3.4877218461
 20
-4.1099085668
 10
-3.5262474714
 20
-4.1167269484
 10
-3.5658108914
 20
-4.1210950515
 10
-3.6063973784
 20
-4.1230183949
 10
-3.6478064229
 20
-4.1224800553
 10
-3.6900508016
 20
-4.1194655627
 10
-3.7331183069
 20
-4.1139897175
 10
-3.7767709498
 20
-4.1060795007
 10
-3.8210077347
 20
-4.095720924
 10
-3.8658300939
 20
-4.0829282292
 10
-3.9110036569
 20
-4.0677707296
 10
-3.9565272337
 20
-4.0502374827
 10
-4.0024022872
 20
-4.0303395894
 10
-4.0483983883
 20
-4.0081794057
 10
-4.0945155356
 20
-3.983746724
 10
-4.1407538232
 20
-3.9570518057
 10
-4.1868829213
 20
-3.9282276844
 10
-4.2329028392
 20
-3.8972640663
 10
-4.278813475
 20
-3.8641711914
 10
-4.324384287
 20
-3.8291128669
 10
-4.3696164865
 20
-3.7920765341
 10
-4.4145085895
 20
-3.7530745932
 10
-4.4588259738
 20
-3.712308269
 10
-4.5025699333
 20
-3.6697617186
 10
-4.5457387375
 20
-3.6254505311
 10
-4.5880932044
 20
-3.5796230654
 10
-4.6296209384
 20
-3.5322784188
 10
-4.6703337659
 20
-3.4834171635
 10
-4.7100288355
 20
-3.4332898688
 10
-4.7486904762
 20
-3.3819085657
 10
-4.7863336927
 20
-3.3292608367
 10
-4.8228016602
 20
-3.2755605868
 10
-4.8580988315
 20
-3.2207939657
 10
-4.8922200111
 20
-3.1649743933
 10
-4.9249939334
 20
-3.1083566984
 10
-4.9564309889
 20
-3.0508987254
 10
-4.9865200071
 20
-2.9926421783
 10
-5.0150574627
 20
-2.9339677221
 10
-5.0420283641
 20
-2.874862787
 10
-5.0674469818
 20
-2.8153395259
 10
-5.0911538294
 20
-2.7558157723
 10
-5.1131266233
 20
-2.6962930457
 10
-5.1333870628
 20
-2.6367694893
 10
-5.1518418292
 20
-2.5776579845
 10
-5.1684597357
 20
-2.5190961121
 10
-5.1832716054
 20
-2.4609460823
 10
-5.1962772408
 20
-2.4032077813
  0
LWPOLYLINE
  5
26F
100
AcDbEntity
  8
ASSI
100
AcDbPolyline
 62
7
  6
CONTINUOUS
 90
6
 70
0
 10
-4.4280563532
 20
-1.3589335266
 10
-4.436313102
 20
-1.3737182517
 10
-4.4524221437
 20
-1.4069343224
 10
-4.4669686215
 20
-1.4417227983
 10
-4.4799807166
 20
-1.4781346219
 10
-4.4914584289
 20
-1.5161697932
  0
LWPOLYLINE
  5
270
100
AcDbEntity
  8
ASSI
100
AcDbPolyline
 62
250
  6
CONTINUOUS
 90
22
 70
0
 10
-5.1962772407
 20
-2.4032077813
 10
-5.1857576513
 20
-2.4055961075
 10
-5.1745139093
 20
-2.407518741
 10
-5.1626082156
 20
-2.4089650456
 10
-5.1501064331
 20
-2.4099270203
 10
-5.1370777221
 20
-2.4103993433
 10
-5.123594158
 20
-2.4103794019
 10
-5.1097303326
 20
-2.4098673062
 10
-5.0955629412
 20
-2.4088658893
 10
-5.0811703584
 20
-2.407380691
 10
-5.0666322046
 20
-2.4054199275
 10
-5.0520289055
 20
-2.4029944459
 10
-5.0374412473
 20
-2.4001176639
 10
-5.0229499296
 20
-2.3968054961
 10
-5.0086351189
 20
-2.3930762656
 10
-4.9945760054
 20
-2.3889506027
 10
-4.9808503649
 20
-2.3844513306
 10
-4.9675341281
 20
-2.3796033395
 10
-4.9547009611
 20
-2.3744334489
 10
-4.9424218576
 20
-2.3689702586
 10
-4.930764746
 20
-2.3632439914
 10
-4.9197941142
 20
-2.3572863251
  0
LINE
  5
271
100
AcDbEntity
  8
ASSI
100
AcDbLine
 62
250
  6
CONTINUOUS
 10
-3.0553055351
 20
-2.9007625491
 11
-3.0423786721
 21
-2.9585463322
  0
LINE
  5
272
100
AcDbEntity
  8
ASSI
100
AcDbLine
 62
7
  6
CONTINUOUS
 10
-4.4707152687
 20
-1.4522070638
 11
-4.3443607674
 21
-1.3725385054
  0
LWPOLYLINE
  5
273
100
AcDbEntity
  8
ASSI
100
AcDbPolyline
 62
250
  6
CONTINUOUS
 90
11
 70
0
 10
-4.9757265115
 20
-1.833629399
 10
-4.9704724954
 20
-1.8304739763
 10
-4.9627816655
 20
-1.8250064855
 10
-4.9555612519
 20
-1.818796291
 10
-4.9488329863
 20
-1.8118621291
 10
-4.9426167632
 20
-1.8042247118
 10
-4.936930599
 20
-1.7959064094
 10
-4.9317910379
 20
-1.786931722
 10
-4.9272130951
 20
-1.7773271132
 10
-4.9232102168
 20
-1.7671209262
 10
-4.9197941243
 20
-1.7563432485
  0
LINE
  5
274
100
AcDbEntity
  8
ASSI
100
AcDbLine
 62
250
  6
CONTINUOUS
 10
-4.6960376062
 20
-1.8113585039
 11
-5.1242785342
 21
-2.0596399802
  0
LINE
  5
275
100
AcDbEntity
  8
ASSI
100
AcDbLine
 62
250
  6
CONTINUOUS
 10
-4.4914584289
 20
-2.1096688292
 11
-4.9197941706
 21
-2.3572830568
  0
LINE
  5
276
100
AcDbEntity
  8
ASSI
100
AcDbLine
 62
250
  6
CONTINUOUS
 10
-4.9197941147
 20
-1.7563432431
 11
-4.4914584289
 21
-1.5161697932
  0
LINE
  5
277
100
AcDbEntity
  8
ASSI
100
AcDbLine
 62
7
  6
CONTINUOUS
 10
-4.9757265105
 20
-1.8336293984
 11
-4.5471955403
 21
-1.5937589955
  0
LWPOLYLINE
  5
278
100
AcDbEntity
  8
ASSI
100
AcDbPolyline
 62
7
  6
CONTINUOUS
 90
28
 70
0
 10
-4.6642381945
 20
-1.4017427593
 10
-4.616544281
 20
-1.3796574571
 10
-4.5650039517
 20
-1.3648371636
 10
-4.5084345112
 20
-1.3570683345
 10
-4.446469211
 20
-1.3568019563
 10
-4.3800835484
 20
-1.3644871136
 10
-4.3104705635
 20
-1.3801768611
 10
-4.2386335918
 20
-1.4036630937
 10
-4.1652546986
 20
-1.4346829283
 10
-4.0910288329
 20
-1.4728827572
 10
-4.0170385184
 20
-1.5175668546
 10
-3.9435505775
 20
-1.5684061613
 10
-3.8697720832
 20
-1.6259808452
 10
-3.7957498029
 20
-1.6905233115
 10
-3.7225842507
 20
-1.7613284784
 10
-3.6509646684
 20
-1.8378782144
 10
-3.5814173181
 20
-1.9197303462
 10
-3.5144699033
 20
-2.0063675563
 10
-3.4507321752
 20
-2.0970709221
 10
-3.3906534862
 20
-2.1912316076
 10
-3.3346430958
 20
-2.2882218146
 10
-3.2831581962
 20
-2.3872277202
 10
-3.2365166174
 20
-2.4875638248
 10
-3.194991056
 20
-2.5885433208
 10
-3.1588641476
 20
-2.6893114673
 10
-3.1283062338
 20
-2.7891287246
 10
-3.1034044609
 20
-2.8873683363
 10
-3.096703487
 20
-2.9180605645
  0
LINE
  5
279
100
AcDbEntity
  8
ASSI
100
AcDbLine
 62
7
  6
CONTINUOUS
 10
7.5662450167
 20
-4.8554421752
 11
7.6538743192
 21
-4.9060382363
  0
LINE
  5
27A
100
AcDbEntity
  8
ASSI
100
AcDbLine
 62
250
  6
CONTINUOUS
 10
1.5672865119
 20
15.6131887983
 11
1.5672865119
 21
15.5505850149
  0
LWPOLYLINE
  5
27B
100
AcDbEntity
  8
ASSI
100
AcDbPolyline
 62
7
  6
CONTINUOUS
 90
8
 70
0
 10
-2.9849898181
 20
-3.3676388036
 10
-2.9909574314
 20
-3.3712913785
 10
-3.0157385494
 20
-3.3893599138
 10
-3.0381946197
 20
-3.4107765593
 10
-3.0578354104
 20
-3.435205719
 10
-3.0742829483
 20
-3.4622761561
 10
-3.0872453735
 20
-3.491597513
 10
-3.0934907982
 20
-3.5109189031
  0
LINE
  5
27C
100
AcDbEntity
  8
ASSI
100
AcDbLine
 62
7
  6
CONTINUOUS
 10
-2.7732794355
 20
-3.2416135456
 11
-2.985514445
 21
-3.3679486803
  0
LINE
  5
27D
100
AcDbEntity
  8
ASSI
100
AcDbLine
 62
250
  6
CONTINUOUS
 10
-2.8340828239
 20
-3.3819702804
 11
-2.6844515869
 21
-3.2929016322
  0
LINE
  5
27E
100
AcDbEntity
  8
ASSI
100
AcDbLine
 62
7
  6
CONTINUOUS
 10
-3.2833678725
 20
-3.7919543847
 11
-3.283995586
 21
-3.7923264958
  0
LWPOLYLINE
  5
27F
100
AcDbEntity
  8
ASSI
100
AcDbPolyline
 62
250
  6
CONTINUOUS
 90
52
 70
0
 10
-3.283995586
 20
-3.7923264958
 10
-3.3025311692
 20
-3.802721327
 10
-3.3321619901
 20
-3.8171093251
 10
-3.3628770062
 20
-3.8294055649
 10
-3.3946143948
 20
-3.8395916324
 10
-3.4273240324
 20
-3.84765754
 10
-3.4609843637
 20
-3.8535999777
 10
-3.4955496231
 20
-3.8574077603
 10
-3.530951096
 20
-3.8590702412
 10
-3.5671335988
 20
-3.8585832294
 10
-3.6040428175
 20
-3.8559443915
 10
-3.6416097898
 20
-3.8511555471
 10
-3.67975476
 20
-3.8442265168
 10
-3.71840797
 20
-3.8351707017
 10
-3.7575073045
 20
-3.8240032104
 10
-3.7969822612
 20
-3.8107454091
 10
-3.8367625391
 20
-3.795422138
 10
-3.8767824821
 20
-3.7780596972
 10
-3.916977796
 20
-3.7586869933
 10
-3.957279385
 20
-3.7373378635
 10
-3.9976187329
 20
-3.7140488877
 10
-4.0379322523
 20
-3.6888567887
 10
-4.0781516097
 20
-3.6618040246
 10
-4.1182075316
 20
-3.6329366651
 10
-4.1580351821
 20
-3.6023003409
 10
-4.1975690669
 20
-3.569944487
 10
-4.2367387275
 20
-3.5359255139
 10
-4.2754726274
 20
-3.500303918
 10
-4.3137089946
 20
-3.4631360002
 10
-4.3513776888
 20
-3.4244891177
 10
-4.3883968141
 20
-3.384446748
 10
-4.4246978365
 20
-3.343086223
 10
-4.4602259453
 20
-3.3004729908
 10
-4.494922491
 20
-3.2566775955
 10
-4.5287186892
 20
-3.2117902904
 10
-4.561568936
 20
-3.1658749902
 10
-4.593448669
 20
-3.1189620884
 10
-4.6243073571
 20
-3.0711204185
 10
-4.6540838364
 20
-3.0224389823
 10
-4.6827355351
 20
-2.9729771585
 10
-4.7102262556
 20
-2.9227858905
 10
-4.7364862586
 20
-2.87198044
 10
-4.7614293848
 20
-2.8207204207
 10
-4.7850171216
 20
-2.7690875187
 10
-4.8072067684
 20
-2.7171781626
 10
-4.827922916
 20
-2.6651784233
 10
-4.8471392028
 20
-2.6131792546
 10
-4.8648329575
 20
-2.561269247
 10
-4.880954704
 20
-2.5096307321
 10
-4.8954867767
 20
-2.458380795
 10
-4.908434162
 20
-2.4075712847
 10
-4.9197941706
 20
-2.3572830568
  0
LWPOLYLINE
  5
280
100
AcDbEntity
  8
ASSI
100
AcDbPolyline
 62
250
  6
CONTINUOUS
 90
37
 70
0
 10
4.3518993262
 20
-23.5978589026
 10
4.3537281762
 20
-23.6303543805
 10
4.3567508527
 20
-23.661963669
 10
4.3609673556
 20
-23.692686768
 10
4.3663887586
 20
-23.7225734179
 10
4.3730039881
 20
-23.7515738784
 10
4.3807798232
 20
-23.7795389287
 10
4.3897222207
 20
-23.8064626262
 10
4.3998252239
 20
-23.8323509135
 10
4.4110377409
 20
-23.8570723971
 10
4.4233652586
 20
-23.8806207591
 10
4.4368022902
 20
-23.9030023173
 10
4.4512812836
 20
-23.9241046326
 10
4.4668074545
 20
-23.9439213294
 10
4.4833755872
 20
-23.9624587832
 10
4.5009024819
 20
-23.9796236807
 10
4.5193931066
 20
-23.9954092114
 10
4.5388424933
 20
-24.0098221858
 10
4.559152538
 20
-24.022789722
 10
4.5803276332
 20
-24.0343044692
 10
4.6023633864
 20
-24.0443737782
 10
4.625148516
 20
-24.05294682
 10
4.6486866523
 20
-24.0600159801
 10
4.6729741651
 20
-24.065588873
 10
4.6978888813
 20
-24.0696375125
 10
4.72343392
 20
-24.0721542674
 10
4.7496061622
 20
-24.073146769
 10
4.7762740777
 20
-24.0726099247
 10
4.8034405982
 20
-24.0705359118
 10
4.831102792
 20
-24.066932553
 10
4.8591203332
 20
-24.0618182252
 10
4.8874953441
 20
-24.0551849801
 10
4.9162257023
 20
-24.0470407658
 10
4.9451647149
 20
-24.0374278036
 10
4.9742634841
 20
-24.0263601673
 10
5.0035709077
 20
-24.013823783
 10
5.0330869855
 20
-23.9998186508
  0
LWPOLYLINE
  5
281
100
AcDbEntity
  8
ASSI
100
AcDbPolyline
 62
250
  6
CONTINUOUS
 90
20
 70
0
 10
3.6513152387
 20
-23.6109268544
 10
3.6540273857
 20
-23.6595509662
 10
3.6585395838
 20
-23.7069906554
 10
3.6648443721
 20
-23.753166076
 10
3.6729314481
 20
-23.7979994053
 10
3.6827872408
 20
-23.8414153545
 10
3.6943950245
 20
-23.8833412196
 10
3.7077359441
 20
-23.9237071392
 10
3.7227876414
 20
-23.9624444152
 10
3.7395237239
 20
-23.9994861424
 10
3.7579160917
 20
-24.0347697113
 10
3.7779342375
 20
-24.0682364946
 10
3.7995439181
 20
-24.0998301272
 10
3.8227092888
 20
-24.1294977081
 10
3.8473917053
 20
-24.1571894507
 10
3.8735489496
 20
-24.1828584148
 10
3.9011378235
 20
-24.2064617919
 10
3.9301122029
 20
-24.2279598262
 10
3.9604219105
 20
-24.2473153924
 10
3.9640928618
 20
-24.249461497
  0
LINE
  5
282
100
AcDbEntity
  8
ASSI
100
AcDbLine
 62
7
  6
CONTINUOUS
 10
1.7488169962
 20
16.0303486586
 11
1.7701513751
 21
15.4101233106
  0
LWPOLYLINE
  5
283
100
AcDbEntity
  8
ASSI
100
AcDbPolyline
 62
250
  6
CONTINUOUS
 90
12
 70
0
 10
3.3470854827
 20
-6.7076878131
 10
3.3474695744
 20
-6.7196070825
 10
3.3486343654
 20
-6.7310090087
 10
3.3505734078
 20
-6.7418304775
 10
3.3532759682
 20
-6.7520115878
 10
3.3567270866
 20
-6.761495983
 10
3.3609076592
 20
-6.7702311628
 10
3.3657945445
 20
-6.7781687748
 10
3.3713606914
 20
-6.7852648813
 10
3.3775752885
 20
-6.7914802026
 10
3.3844039351
 20
-6.7967803349
 10
3.3884802778
 20
-6.7993363737
  0
LWPOLYLINE
  5
284
100
AcDbEntity
  8
ASSI
100
AcDbPolyline
 62
250
  6
CONTINUOUS
 90
12
 70
0
 10
3.3499660435
 20
-8.6504052564
 10
3.3569424959
 20
-10.0223026818
 10
3.3680028404
 20
-11.3918557288
 10
3.3831461217
 20
-12.75903822
 10
3.4023723932
 20
-14.1238456143
 10
3.4256830272
 20
-15.4862948218
 10
3.4530782129
 20
-16.846371402
 10
3.48455721
 20
-18.204058875
 10
3.5201204638
 20
-19.5593708099
 10
3.5597681329
 20
-20.912301303
 10
3.6034998023
 20
-22.2628251517
 10
3.6513152467
 20
-23.6109268592
  0
LINE
  5
285
100
AcDbEntity
  8
ASSI
100
AcDbLine
 62
250
  6
CONTINUOUS
 10
3.3470738347
 20
-7.2761788736
 11
3.3499660435
 21
-8.6504052564
  0
LWPOLYLINE
  5
286
100
AcDbEntity
  8
ASSI
100
AcDbPolyline
 62
250
  6
CONTINUOUS
 90
13
 70
0
 10
3.6513152468
 20
9.9663280845
 10
3.6034998023
 20
8.5649029825
 10
3.5597681329
 20
7.1656099179
 10
3.5201204638
 20
5.7684646478
 10
3.48455721
 20
4.3734928536
 10
3.4530782129
 20
2.9807002564
 10
3.4256830272
 20
1.5900727732
 10
3.4023723932
 20
0.2016267512
 10
3.3831461217
 20
-1.1846226
 10
3.3680028404
 20
-2.5686908104
 10
3.3569424959
 20
-3.9505724124
 10
3.3499660434
 20
-5.3302411138
 10
3.3470738346
 20
-6.7076810877
  0
LINE
  5
287
100
AcDbEntity
  8
CURVE
100
AcDbLine
 62
250
  6
CONTINUOUS
 10
-6.5475263026
 20
7.0915768224
 11
-2.0501574687
 21
4.494852423
  0
LWPOLYLINE
  5
288
100
AcDbEntity
  8
ASSI
100
AcDbPolyline
 62
250
  6
CONTINUOUS
 90
22
 70
0
 10
4.0479667946
 20
-7.2775039505
 10
4.0474845893
 20
-7.2651226669
 10
4.0462282662
 20
-7.2523461536
 10
4.0442048501
 20
-7.2392458485
 10
4.0414256546
 20
-7.2258949997
 10
4.0379062196
 20
-7.2123682565
 10
4.0336662236
 20
-7.1987412522
 10
4.0287293744
 20
-7.1850901801
 10
4.0231232758
 20
-7.1714913676
 10
4.0168792738
 20
-7.158020851
 10
4.0100322811
 20
-7.144753948
 10
4.0026205819
 20
-7.1317648383
 10
3.9946856178
 20
-7.1191261482
 10
3.9862717561
 20
-7.1069085447
 10
3.9774260419
 20
-7.0951803398
 10
3.9681979346
 20
-7.0840071096
 10
3.9586390319
 20
-7.0734513267
 10
3.9488027807
 20
-7.0635720113
 10
3.9387441789
 20
-7.0544244011
 10
3.9285194673
 20
-7.0460596429
 10
3.9181858154
 20
-7.0385245058
 10
3.907801002
 20
-7.0318611204
  0
LWPOLYLINE
  5
289
100
AcDbEntity
  8
ASSI
100
AcDbPolyline
 62
250
  6
CONTINUOUS
 90
6
 70
0
 10
4.1538390475
 20
-16.8392464941
 10
4.1852887674
 20
-18.1957470147
 10
4.2208196477
 20
-19.5498600806
 10
4.2604317136
 20
-20.901580476
 10
4.3041249397
 20
-22.2509134166
 10
4.3518993262
 20
-23.5978589026
  0
LWPOLYLINE
  5
28A
100
AcDbEntity
  8
ASSI
100
AcDbPolyline
 62
250
  6
CONTINUOUS
 90
8
 70
0
 10
4.0479787509
 20
-7.2774971655
 10
4.0508531117
 20
-8.6505357324
 10
4.0578105056
 20
-10.0212173392
 10
4.0688509326
 20
-11.389541986
 10
4.0839750422
 20
-12.7555146218
 10
4.1031821849
 20
-14.1191302977
 10
4.1264704117
 20
-15.4803741662
 10
4.1538390475
 20
-16.8392464941
  0
LWPOLYLINE
  5
28B
100
AcDbEntity
  8
ASSI
100
AcDbPolyline
 62
250
  6
CONTINUOUS
 90
8
 70
0
 10
4.1538390475
 20
2.9663722581
 10
4.1264704117
 20
1.5769797086
 10
4.1031821849
 20
0.1897658996
 10
4.0839750422
 20
-1.1952686827
 10
4.0688509326
 20
-2.5781070176
 10
4.0578105056
 20
-3.9587434318
 10
4.0508531117
 20
-5.3371835986
 10
4.0479787508
 20
-6.7134275182
  0
LWPOLYLINE
  5
28C
100
AcDbEntity
  8
ASSI
100
AcDbPolyline
 62
250
  6
CONTINUOUS
 90
22
 70
0
 10
3.3470854827
 20
-7.2761855989
 10
3.3474695732
 20
-7.2638228076
 10
3.3486343609
 20
-7.2510758276
 10
3.3505733984
 20
-7.2380152183
 10
3.3532759521
 20
-7.2247132755
 10
3.3567270625
 20
-7.2112436308
 10
3.3609076263
 20
-7.197680844
 10
3.3657945023
 20
-7.1840999905
 10
3.3713606398
 20
-7.1705762458
 10
3.3775752279
 20
-7.1571844691
 10
3.3844038665
 20
-7.1439987893
 10
3.3918087564
 20
-7.1310921944
 10
3.3997489084
 20
-7.1185361275
 10
3.4081803707
 20
-7.1064000914
 10
3.4170564719
 20
-7.094751264
 10
3.4263280791
 20
-7.0836541262
 10
3.4359438703
 20
-7.0731701049
 10
3.4458506182
 20
-7.0633572335
 10
3.4559934852
 20
-7.0542698301
 10
3.4663163263
 20
-7.0459581971
 10
3.4767620006
 20
-7.0384683427
 10
3.487272687
 20
-7.0318417262
  0
LWPOLYLINE
  5
28D
100
AcDbEntity
  8
ASSI
100
AcDbPolyline
 62
250
  6
CONTINUOUS
 90
6
 70
0
 10
4.3518993262
 20
9.9458522184
 10
4.3041249397
 20
8.5456309729
 10
4.2604317136
 20
7.1475733916
 10
4.2208196477
 20
5.7516794746
 10
4.1852887674
 20
4.3579440342
 10
4.1538390475
 20
2.9663722581
  0
LWPOLYLINE
  5
28E
100
AcDbEntity
  8
ASSI
100
AcDbPolyline
 62
250
  6
CONTINUOUS
 90
12
 70
0
 10
4.0479667946
 20
-6.7134340663
 10
4.0474845908
 20
-6.7254554717
 10
4.0462282715
 20
-6.7369452042
 10
4.0442048611
 20
-6.7478390209
 10
4.0414256732
 20
-6.7580760109
 10
4.0379062472
 20
-6.7675989361
 10
4.0336662612
 20
-6.7763545506
 10
4.0287294224
 20
-6.784293899
 10
4.0231233342
 20
-6.7913725898
 10
4.0168793421
 20
-6.7975510438
 10
4.0100323583
 20
-6.8027947153
 10
4.0051459085
 20
-6.8057595309
  0
LINE
  5
28F
100
AcDbEntity
  8
CURVE
100
AcDbLine
 62
250
  6
CONTINUOUS
 10
-3.9209088021
 20
7.7750623659
 11
-1.4733979791
 21
6.3619002912
  0
LWPOLYLINE
  5
290
100
AcDbEntity
  8
ASSI
100
AcDbPolyline
 62
250
  6
CONTINUOUS
 90
28
 70
0
 10
5.0330869855
 20
11.1074405587
 10
5.0314063461
 20
11.1308721394
 10
5.0285575014
 20
11.1549263966
 10
5.0245500798
 20
11.1795220328
 10
5.0193976252
 20
11.2045759211
 10
5.0131175516
 20
11.2300033857
 10
5.0057310839
 20
11.2557184882
 10
4.9972631865
 20
11.281634318
 10
4.9877424786
 20
11.3076632861
 10
4.9772011378
 20
11.333717421
 10
4.965674791
 20
11.3597086664
 10
4.9532023945
 20
11.3855491784
 10
4.9398261016
 20
11.4111516222
 10
4.9255911209
 20
11.4364294682
 10
4.9105455629
 20
11.4612972834
 10
4.894740278
 20
11.4856710208
 10
4.878228684
 20
11.509468303
 10
4.8610665858
 20
11.5326087012
 10
4.8433119873
 20
11.5550140065
 10
4.8250248944
 20
11.5766084943
 10
4.806267113
 20
11.5973191808
 10
4.7871020398
 20
11.6170760687
 10
4.767594448
 20
11.6358123847
 10
4.7478102684
 20
11.6534648046
 10
4.7278163666
 20
11.6699736674
 10
4.7076803173
 20
11.6852831772
 10
4.6874701752
 20
11.6993415918
 10
4.6672542455
 20
11.7121013971
  0
LWPOLYLINE
  5
291
100
AcDbEntity
  8
ASSI
100
AcDbPolyline
 62
250
  6
CONTINUOUS
 90
16
 70
0
 10
5.0330869855
 20
-23.9998186508
 10
5.0314063454
 20
-24.0237680099
 10
5.0285574994
 20
-24.046934557
 10
5.0245500759
 20
-24.0692399951
 10
5.019397619
 20
-24.0906089373
 10
5.0131175427
 20
-24.1109691619
 10
5.0057310722
 20
-24.1302518565
 10
4.9972631717
 20
-24.1483918502
 10
4.9877424608
 20
-24.1653278345
 10
4.9772011171
 20
-24.18100257
 10
4.9656747676
 20
-24.19536308
 10
4.9532023686
 20
-24.2083608295
 10
4.9398260737
 20
-24.2199518893
 10
4.9255910913
 20
-24.2300970847
 10
4.9105455322
 20
-24.2387621273
 10
4.9086845597
 20
-24.239702727
  0
LINE
  5
292
100
AcDbEntity
  8
ASSI
100
AcDbLine
 62
7
  6
CONTINUOUS
 10
7.7952956763
 20
5.7897144983
 11
7.2564118666
 21
12.4793471644
  0
LINE
  5
293
100
AcDbEntity
  8
ASSI
100
AcDbLine
 62
7
  6
CONTINUOUS
 10
7.7952956763
 20
-5.1509685583
 11
7.7952956763
 21
-15.6018067537
  0
LINE
  5
294
100
AcDbEntity
  8
ASSI
100
AcDbLine
 62
7
  6
CONTINUOUS
 10
7.7952956763
 20
-4.6611236972
 11
7.7952956763
 21
5.7897144983
  0
LINE
  5
295
100
AcDbEntity
  8
ASSI
100
AcDbLine
 62
7
  6
CONTINUOUS
 10
7.7952956763
 20
-15.6018067537
 11
7.2564118666
 21
-22.89237742
  0
LINE
  5
296
100
AcDbEntity
  8
ASSI
100
AcDbLine
 62
250
  6
CONTINUOUS
 10
7.6538743192
 20
-4.9060382363
 11
3.907801002
 21
-7.0318611204
  0
LINE
  5
297
100
AcDbEntity
  8
ASSI
100
AcDbLine
 62
250
  6
CONTINUOUS
 10
7.7952956763
 20
-5.1509685583
 11
4.0479787509
 21
-7.2774971655
  0
LINE
  5
298
100
AcDbEntity
  8
ASSI
100
AcDbLine
 62
250
  6
CONTINUOUS
 10
4.0479787508
 20
-6.7134275182
 11
7.7952956763
 21
-4.6611236972
  0
LINE
  5
299
100
AcDbEntity
  8
ASSI
100
AcDbLine
 62
7
  6
CONTINUOUS
 10
4.0051053083
 20
-6.8057817851
 11
7.7525746538
 21
-4.7533944878
  0
LWPOLYLINE
  5
29A
100
AcDbEntity
  8
ASSI
100
AcDbPolyline
 62
250
  6
CONTINUOUS
 90
31
 70
0
 10
3.907801002
 20
-7.0318611204
 10
3.896306505
 20
-7.0380523844
 10
3.8843483996
 20
-7.0438646442
 10
3.8719266857
 20
-7.0492979
 10
3.8590052994
 20
-7.0543649599
 10
3.8456203045
 20
-7.0590530156
 10
3.8318798933
 20
-7.0633236427
 10
3.8177812426
 20
-7.0671733288
 10
3.8033271756
 20
-7.0706055862
 10
3.7886343533
 20
-7.0735925276
 10
3.7737012828
 20
-7.0761304319
 10
3.758529457
 20
-7.0782230202
 10
3.7432400161
 20
-7.0798535686
 10
3.7278318217
 20
-7.0810183986
 10
3.7123060122
 20
-7.0817211886
 10
3.696787143
 20
-7.08195625
 10
3.6812752223
 20
-7.0817197899
 10
3.6657702418
 20
-7.0810156013
 10
3.6503967325
 20
-7.0798493748
 10
3.6351559885
 20
-7.078217426
 10
3.6200467156
 20
-7.0761234393
 10
3.6051895622
 20
-7.0735841587
 10
3.5905861353
 20
-7.0705958651
 10
3.5762348279
 20
-7.0671622776
 10
3.5622514673
 20
-7.0633112972
 10
3.5486390015
 20
-7.0590394182
 10
3.5353944825
 20
-7.0543501463
 10
3.5226248932
 20
-7.0492818993
 10
3.5103658947
 20
-7.0438474833
 10
3.498581826
 20
-7.0380340923
 10
3.487272687
 20
-7.0318417262
  0
LWPOLYLINE
  5
29B
100
AcDbEntity
  8
ASSI
100
AcDbPolyline
 62
250
  6
CONTINUOUS
 90
31
 70
0
 10
4.0479787507
 20
-7.2774972094
 10
4.0288961225
 20
-7.2877167759
 10
4.008934677
 20
-7.297350915
 10
3.9881480939
 20
-7.3063741857
 10
3.9665932346
 20
-7.3147626886
 10
3.9443270903
 20
-7.3224944932
 10
3.9214063185
 20
-7.3295493963
 10
3.8978904331
 20
-7.3359090454
 10
3.8738440489
 20
-7.3415559549
 10
3.8493337455
 20
-7.3464739212
 10
3.8244262272
 20
-7.3506498761
 10
3.7991873488
 20
-7.3540731305
 10
3.773684115
 20
-7.3567341535
 10
3.7479845953
 20
-7.3586260104
 10
3.7221579672
 20
-7.359743817
 10
3.6962736665
 20
-7.3600841513
 10
3.6704010872
 20
-7.3596462674
 10
3.6446095845
 20
-7.3584315564
 10
3.6189684892
 20
-7.3564429454
 10
3.5935468124
 20
-7.3536859475
 10
3.5684124107
 20
-7.3501681405
 10
3.5436320211
 20
-7.3458985745
 10
3.5192711766
 20
-7.3408885423
 10
3.4953961596
 20
-7.3351517384
 10
3.4720730392
 20
-7.3287039017
 10
3.4493658757
 20
-7.3215630688
 10
3.4273336335
 20
-7.3137481839
 10
3.4060323868
 20
-7.3052790229
 10
3.3855184645
 20
-7.2961777259
 10
3.3658479815
 20
-7.2864690326
 10
3.3470738367
 20
-7.2761788783
  0
LWPOLYLINE
  5
29C
100
AcDbEntity
  8
ASSI
100
AcDbPolyline
 62
250
  6
CONTINUOUS
 90
7
 70
0
 10
3.9214063174
 20
-6.7641073899
 10
3.9443270891
 20
-6.7572748676
 10
3.9665932333
 20
-6.7497692096
 10
3.9881480927
 20
-6.741609001
 10
4.0089346761
 20
-6.7328155811
 10
4.0288961219
 20
-6.7234132847
 10
4.0479787507
 20
-6.7134274741
  0
LINE
  5
29D
100
AcDbEntity
  8
ASSI
100
AcDbLine
 62
250
  6
CONTINUOUS
 10
-11.2920197142
 20
18.5944224067
 11
3.6513152387
 21
9.9663280893
  0
LINE
  5
29E
100
AcDbEntity
  8
CURVE
100
AcDbLine
 62
250
  6
CONTINUOUS
 10
-2.4975648801
 20
-15.5279960263
 11
-1.464066115
 21
-14.9305387856
  0
LINE
  5
29F
100
AcDbEntity
  8
ASSI
100
AcDbLine
 62
250
  6
CONTINUOUS
 10
-10.2994410925
 20
20.3536985914
 11
4.6672667062
 21
11.712109086
  0
LINE
  5
2A0
100
AcDbEntity
  8
ASSI
100
AcDbLine
 62
7
  6
CONTINUOUS
 10
4.8720015727
 20
14.2270610268
 11
4.1945205822
 21
14.096256773
  0
LINE
  5
2A1
100
AcDbEntity
  8
ASSI
100
AcDbLine
 62
7
  6
CONTINUOUS
 10
4.001335417
 20
14.1218656082
 11
1.6190503209
 21
15.4973671656
  0
LINE
  5
2A2
100
AcDbEntity
  8
ASSI
100
AcDbLine
 62
7
  6
CONTINUOUS
 10
-3.9182605323
 20
18.6945410535
 11
-6.3005456284
 21
20.0700426109
  0
LINE
  5
2A3
100
AcDbEntity
  8
ASSI
100
AcDbLine
 62
7
  6
CONTINUOUS
 10
6.8717850719
 20
13.0724110976
 11
4.8720015727
 21
14.2270610268
  0
LINE
  5
2A4
100
AcDbEntity
  8
ASSI
100
AcDbLine
 62
7
  6
CONTINUOUS
 10
1.7488169962
 20
16.0303486586
 11
-3.0475943766
 21
18.7997364721
  0
LINE
  5
2A5
100
AcDbEntity
  8
ASSI
100
AcDbLine
 62
7
  6
CONTINUOUS
 10
-6.1707789531
 20
20.6030241039
 11
-8.1705624523
 21
21.7576740332
  0
LINE
  5
2A6
100
AcDbEntity
  8
ASSI
100
AcDbLine
 62
7
  6
CONTINUOUS
 10
-3.0475943766
 20
18.7997364721
 11
-3.725075367
 21
18.6689322183
  0
LWPOLYLINE
  5
2A7
100
AcDbEntity
  8
ASSI
100
AcDbPolyline
 62
250
  6
CONTINUOUS
 90
28
 70
0
 10
4.3518993262
 20
-23.5978589026
 10
4.3306611387
 20
-23.6100022964
 10
4.3083439206
 20
-23.6214183334
 10
4.2850215192
 20
-23.6320692378
 10
4.260771108
 20
-23.6419197661
 10
4.2356729316
 20
-23.650937323
 10
4.2098100393
 20
-23.6590920694
 10
4.1832680113
 20
-23.6663570213
 10
4.1561346749
 20
-23.6727081392
 10
4.1284998139
 20
-23.6781244072
 10
4.1004548717
 20
-23.682587903
 10
4.0720926489
 20
-23.6860838569
 10
4.0435069956
 20
-23.6886007009
 10
4.0147925016
 20
-23.6901301067
 10
3.9860441826
 20
-23.6906670135
 10
3.9573571667
 20
-23.6902096448
 10
3.9288263788
 20
-23.6887595139
 10
3.9005462269
 20
-23.6863214194
 10
3.8726102899
 20
-23.6829034288
 10
3.8451110073
 20
-23.6785168522
 10
3.818139374
 20
-23.6731762049
 10
3.7917846389
 20
-23.6668991589
 10
3.7661340095
 20
-23.6597064848
 10
3.7412723634
 20
-23.6516219833
 10
3.7172819675
 20
-23.6426724057
 10
3.6942422058
 20
-23.6328873662
 10
3.6722293166
 20
-23.6222992433
 10
3.6513161404
 20
-23.6109430731
  0
LINE
  5
2A8
100
AcDbEntity
  8
ASSI
100
AcDbLine
 62
250
  6
CONTINUOUS
 10
5.0330869855
 20
-23.9998186508
 11
7.2564118666
 21
-22.89237742
  0
LINE
  5
2A9
100
AcDbEntity
  8
ASSI
100
AcDbLine
 62
7
  6
CONTINUOUS
 10
4.9086845597
 20
-24.239702727
 11
7.1208341936
 21
-23.1378279025
  0
ELLIPSE
  5
2AA
100
AcDbEntity
  8
ASSI
100
AcDbEllipse
 62
7
  6
CONTINUOUS
 10
6.902833274
 20
-22.6878213659
 30
0.0
 11
-0.2148150744
 21
0.4515576038
 31
0.0
 40
0.6258090719
 41
-3.1302698991
 42
-2.3092664522
  0
ELLIPSE
  5
2AB
100
AcDbEntity
  8
ASSI
100
AcDbEllipse
 62
7
  6
CONTINUOUS
 10
7.6538527776
 20
-5.0693260717
 30
0.0
 11
-0.1000238792
 21
0.1731956925
 31
0.0
 40
0.5774195892
 41
-2.3562809449
 42
-0.7856369171
  0
ELLIPSE
  5
2AC
100
AcDbEntity
  8
CURVE
100
AcDbEllipse
 62
250
  6
CONTINUOUS
 10
342.5645220898
 20
205.4226611488
 30
0.0
 11
-353.2405412261
 21
612.2719993188
 31
0.0
 40
0.5775583296
 41
-4.688595664
 42
-4.6855848263
  0
ELLIPSE
  5
2AD
100
AcDbEntity
  8
CURVE
100
AcDbEllipse
 62
250
  6
CONTINUOUS
 10
356.5178989567
 20
197.3661562227
 30
0.0
 11
548.8572444885
 21
259.7032215245
 31
0.0
 40
0.0738986926
 41
-2.327972656
 42
-2.3219876398
  0
ELLIPSE
  5
2AE
100
AcDbEntity
  8
CURVE
100
AcDbEllipse
 62
250
  6
CONTINUOUS
 10
342.3651480915
 20
205.5377771966
 30
0.0
 11
-433.5725779584
 21
643.4193510471
 31
0.0
 40
0.525274846
 41
1.5511578252
 42
1.555868476
  0
ELLIPSE
  5
2AF
100
AcDbEntity
  8
ASSI
100
AcDbEllipse
 62
7
  6
CONTINUOUS
 10
6.902833274
 20
12.683159849
 30
0.0
 11
-0.2807400337
 21
0.4141474974
 31
0.0
 40
0.5245128892
 41
-2.3945640771
 42
-0.8246811388
  0
ELLIPSE
  5
2B0
100
AcDbEntity
  8
ASSI
100
AcDbEllipse
 62
7
  6
CONTINUOUS
 10
7.6538527776
 20
-4.5794314697
 30
0.0
 11
-0.1000390991
 21
0.1732220807
 31
0.0
 40
0.5772437351
 41
-3.1546807054
 42
-2.3564331449
  0
ELLIPSE
  5
2B1
100
AcDbEntity
  8
ASSI
100
AcDbEllipse
 62
7
  6
CONTINUOUS
 10
-8.1399446725
 20
21.368671305
 30
0.0
 11
-0.2805986523
 21
0.4138767202
 31
0.0
 40
0.5251497255
 41
-0.8253745819
 42
-0.0067082778
  0
ELLIPSE
  5
2B2
100
AcDbEntity
  8
ASSI
100
AcDbEllipse
 62
7
  6
CONTINUOUS
 10
4.1427567732
 20
14.2120784057
 30
0.0
 11
0.1999154856
 21
0.0095814127
 31
0.0
 40
0.6067642562
 41
-2.385266879
 42
-1.3380693278
  0
ELLIPSE
  5
2B3
100
AcDbEntity
  8
ASSI
100
AcDbEllipse
 62
7
  6
CONTINUOUS
 10
-3.7768391761
 20
18.7847538509
 30
0.0
 11
0.1999154856
 21
0.0095814127
 31
0.0
 40
0.6067642562
 41
-2.385266879
 42
-1.3380693278
  0
ELLIPSE
  5
2B4
100
AcDbEntity
  8
ASSI
100
AcDbEllipse
 62
7
  6
CONTINUOUS
 10
1.7604716771
 20
15.5875799631
 30
0.0
 11
0.1999154856
 21
0.0095814127
 31
0.0
 40
0.6067642562
 41
2.850720877
 42
3.8979184282
  0
ELLIPSE
  5
2B5
100
AcDbEntity
  8
ASSI
100
AcDbEllipse
 62
7
  6
CONTINUOUS
 10
-6.1591242722
 20
20.1602554084
 30
0.0
 11
0.1999154856
 21
0.0095814127
 31
0.0
 40
0.6067642562
 41
2.850720877
 42
3.8979184282
  0
ELLIPSE
  5
2B6
100
AcDbEntity
  8
CURVE
100
AcDbEllipse
 62
250
  6
CONTINUOUS
 10
358.5519263247
 20
196.1917343128
 30
0.0
 11
-353.3418476313
 21
612.3070658118
 31
0.0
 40
0.5774921628
 41
1.5453659863
 42
1.548376057
  0
ELLIPSE
  5
2B7
100
AcDbEntity
  8
CURVE
100
AcDbEllipse
 62
250
  6
CONTINUOUS
 10
334.5939576605
 20
210.0247651556
 30
0.0
 11
548.8262570271
 21
259.7220955888
 31
0.0
 40
0.0738582661
 41
-2.2758279175
 42
-2.2698409418
  0
ELLIPSE
  5
2B8
100
AcDbEntity
  8
CURVE
100
AcDbEllipse
 62
250
  6
CONTINUOUS
 10
364.329443539
 20
192.8558682825
 30
0.0
 11
-433.6318208322
 21
643.444608308
 31
0.0
 40
0.5252370132
 41
1.4989566332
 42
1.503668981
  0
ENDSEC
  0
SECTION
  2
OBJECTS
  0
DICTIONARY
  5
C
100
AcDbDictionary
280
0
281
1
  3
ACAD_GROUP
350
D
  3
ACAD_MLINESTYLE
350
17
  3
ACAD_LAYOUT
350
1A
  3
ACAD_PLOTSETTINGS
350
19
  3
ACAD_PLOTSTYLENAME
350
E
  0
DICTIONARY
  5
D
102
{ACAD_REACTORS
330
C
102
}
100
AcDbDictionary
280
0
281
1
  0
ACDBDICTIONARYWDFLT
  5
E
102
{ACAD_REACTORS
330
C
102
}
100
AcDbDictionary
281
1
  3
Normal
350
F
100
AcDbDictionaryWithDefault
340
F
  0
DICTIONARY
  5
17
102
{ACAD_REACTORS
330
C
102
}
100
AcDbDictionary
280
0
281
1
  3
Standard
350
18
  0
DICTIONARY
  5
19
102
{ACAD_REACTORS
330
C
102
}
100
AcDbDictionary
281
1
  0
DICTIONARY
  5
1A
102
{ACAD_REACTORS
330
C
102
}
100
AcDbDictionary
281
1
  3
Model
350
2B9
  3
Layout1
350
2BA
  0
ACDBPLACEHOLDER
  5
F
102
{ACAD_REACTORS
330
E
102
}
  0
MLINESTYLE
  5
18
102
{ACAD_REACTORS
330
17
102
}
100
AcDbMlineStyle
  2
STANDARD
 70
0
  3

 62
256
 51
90.0
 52
90.0
 71
2
 49
0.5
 62
256
  6
BYLAYER
 49
-0.5
 62
256
  6
BYLAYER
  0
LAYOUT
  5
2B9
102
{ACAD_REACTORS
330
1A
102
}
100
AcDbPlotSettings
  1

  2
none_device
  4

  6

 40
0.0
 41
0.0
 42
0.0
 43
0.0
 44
210.0
 45
297.0
 46
0.0
 47
0.0
 48
0.0
 49
0.0
140
0.0
141
0.0
142
1.0
143
1.0
 70
1024
 72
1
 73
0
 74
0
  7

 75
0
147
1.0
148
0.0
149
0.0
100
AcDbLayout
  1
Model
 70
0
 71
0
 10
0.0
 20
0.0
 11
210.0
 21
297.0
 12
0.0
 22
0.0
 32
0.0
 14
0.0
 24
0.0
 34
0.0
 15
0.0
 25
0.0
 35
0.0
146
0.0
 13
0.0
 23
0.0
 33
0.0
 16
1.0
 26
0.0
 36
0.0
 17
0.0
 27
1.0
 37
0.0
 76
0
330
216
345
0
346
0
  0
LAYOUT
  5
2BA
102
{ACAD_REACTORS
330
1A
102
}
100
AcDbPlotSettings
  1

  2
none_device
  4

  6

 40
0.0
 41
0.0
 42
0.0
 43
0.0
 44
210.0
 45
297.0
 46
0.0
 47
0.0
 48
0.0
 49
0.0
140
0.0
141
0.0
142
1.0
143
1.0
 70
0
 72
1
 73
0
 74
0
  7

 75
0
147
1.0
148
0.0
149
0.0
100
AcDbLayout
  1
Layout1
 70
0
 71
1
 10
0.0
 20
0.0
 11
210.0
 21
297.0
 12
0.0
 22
0.0
 32
0.0
 14
0.0
 24
0.0
 34
0.0
 15
0.0
 25
0.0
 35
0.0
146
0.0
 13
0.0
 23
0.0
 33
0.0
 16
1.0
 26
0.0
 36
0.0
 17
0.0
 27
1.0
 37
0.0
 76
0
330
217
345
0
346
0
  0
ENDSEC
  0
EOF
