  0
SECTION
  2
HEADER
  9
$ACADVER
  1
AC1024
  9
$DWGCODEPAGE
  3
ANSI_1252
  9
$EXTMAX
 10
297.0
 20
210.0
 30
0.0
  9
$EXTMIN
 10
0.0
 20
0.0
 30
0.0
  9
$LIMMIN
 10
0.0
 20
0.0
  9
$LIMMAX
 10
297.0
 20
210.0
  9
$VIEWCTR
 10
148.5
 20
105.0
  9
$VIEWSIZE
 40
210.0
  9
$CLAYER
  8
0
  9
$LTSCALE
 40
16.335
  9
$CELTYPE
  6
BYLAYER
  9
$DIMSCALE
 40
1.0
  9
$DIMASZ
 40
3.0
  9
$DIMEXO
 40
0.5
  9
$DIMDLI
 40
11.286
  9
$DIMEXE
 40
1.5
  9
$DIMCEN
 40
2.673
  9
$DIMLFAC
 40
1.0
  9
$DIMBLK
  1
_FILLED
  9
$DIMALT
 70
0
  9
$DIMALTF
 40
0.0393700787
  9
$DIMTXT
 40
3.0
  9
$DIMTOL
 70
1
  9
$DIMLIM
 70
0
  9
$DIMTFAC
 40
1.0
  9
$DIMTP
 40
0.01
  9
$DIMTM
 40
0.01
  9
$DIMGAP
 40
0.625
  9
$DIMDSEP
 70
44
  9
$AUNITS
 70
0
  9
$PDMODE
 70
3
  9
$PDSIZE
 40
3.0
  9
$HANDSEED
  5
24C
  9
$TILEMODE
 70
1
  9
$MEASUREMENT
 70
1
  9
$INSUNITS
 70
4
  0
ENDSEC
  0
SECTION
  2
CLASSES
  0
CLASS
  1
ACDBDICTIONARYWDFLT
  2
AcDbDictionaryWithDefault
  3
AutoCAD 2000
 90
0
 91
1
280
0
281
0
  0
CLASS
  1
ACDBPLACEHOLDER
  2
AcDbPlaceHolder
  3
AutoCAD 2000
 90
0
 91
1
280
0
281
0
  0
CLASS
  1
LAYOUT
  2
AcDbLayout
  3
AutoCAD 2000
 90
0
 91
0
280
0
281
0
  0
ENDSEC
  0
SECTION
  2
TABLES
  0
TABLE
  2
VPORT
  5
8
100
AcDbSymbolTable
 70
2
  0
VPORT
  5
1F4
100
AcDbSymbolTableRecord
100
AcDbViewportTableRecord
  2
*ACTIVE
 70
0
 10
0.0
 20
0.0
 11
1.0
 21
1.0
 12
148.5
 22
105.0
 13
0.0
 23
0.0
 14
1.0
 24
1.0
 15
0.0
 25
0.0
 16
0.0
 26
0.0
 36
1.0
 17
0.0
 27
0.0
 37
0.0
 40
210.0
 41
1.4142857143
 42
50.0
 43
0.0
 44
0.0
 50
0.0
 51
0.0
 71
0
 72
100
 73
1
 74
1
 75
0
 76
0
 77
0
 78
0
  0
ENDTAB
  0
TABLE
  2
LTYPE
  5
5
100
AcDbSymbolTable
 70
6
  0
LTYPE
  5
14
100
AcDbSymbolTableRecord
100
AcDbLinetypeTableRecord
  2
BYBLOCK
 70
0
  3

 72
65
 73
0
 40
0.0
  0
LTYPE
  5
15
100
AcDbSymbolTableRecord
100
AcDbLinetypeTableRecord
  2
BYLAYER
 70
0
  3

 72
65
 73
0
 40
0.0
  0
LTYPE
  5
16
100
AcDbSymbolTableRecord
100
AcDbLinetypeTableRecord
  2
CONTINUOUS
 70
64
  3
Solid line
 72
65
 73
0
 40
0.0
  0
LTYPE
  5
1F5
100
AcDbSymbolTableRecord
100
AcDbLinetypeTableRecord
  2
CENTER
 70
64
  3
____ _ ____ _ ____ _ ____ _ ____ _ ____ _ ____
 72
65
 73
4
 40
0.6
 49
0.375
 74
0
 49
-0.075
 74
0
 49
0.075
 74
0
 49
-0.075
 74
0
  0
LTYPE
  5
1F6
100
AcDbSymbolTableRecord
100
AcDbLinetypeTableRecord
  2
HIDDEN
 70
64
  3
- - - - - - - - - - - - - - - - - - - -
 72
65
 73
2
 40
0.2
 49
0.1
 74
0
 49
-0.1
 74
0
  0
LTYPE
  5
1F7
100
AcDbSymbolTableRecord
100
AcDbLinetypeTableRecord
  2
PHANTOM
 70
64
  3
_____ _ _ _____ _ _ _____ _ _ _____
 72
65
 73
6
 40
0.8
 49
0.45
 74
0
 49
-0.05
 74
0
 49
0.1
 74
0
 49
-0.05
 74
0
 49
0.1
 74
0
 49
-0.05
 74
0
  0
LTYPE
  5
1F8
100
AcDbSymbolTableRecord
100
AcDbLinetypeTableRecord
  2
DOT
 70
64
  3
. . . . . . . . . . . . . . . . . . . .
 72
65
 73
2
 40
0.2
 49
0.1
 74
0
 49
-0.1
 74
0
  0
LTYPE
  5
1F9
100
AcDbSymbolTableRecord
100
AcDbLinetypeTableRecord
  2
DASHED
 70
64
  3
- - - - - - - - - - - - - - - - - - - -
 72
65
 73
2
 40
0.2
 49
0.1
 74
0
 49
-0.1
 74
0
  0
ENDTAB
  0
TABLE
  2
LAYER
  5
2
100
AcDbSymbolTable
 70
36
  0
LAYER
  5
10
100
AcDbSymbolTableRecord
100
AcDbLayerTableRecord
  2
0
 70
0
 62
7
  6
CONTINUOUS
370
-3
390
F
  0
LAYER
  5
1FA
100
AcDbSymbolTableRecord
100
AcDbLayerTableRecord
  2
DEFAULT_1
 70
0
 62
7
  6
CENTER
370
-3
390
F
  0
LAYER
  5
1FB
100
AcDbSymbolTableRecord
100
AcDbLayerTableRecord
  2
DEFAULT_2
 70
0
 62
7
  6
HIDDEN
370
-3
390
F
  0
LAYER
  5
1FC
100
AcDbSymbolTableRecord
100
AcDbLayerTableRecord
  2
DEFAULT_3
 70
0
 62
7
  6
PHANTOM
370
-3
390
F
  0
LAYER
  5
1FD
100
AcDbSymbolTableRecord
100
AcDbLayerTableRecord
  2
ASSI
 70
0
 62
7
  6
CONTINUOUS
370
-3
390
F
  0
LAYER
  5
1FE
100
AcDbSymbolTableRecord
100
AcDbLayerTableRecord
  2
COORDINATE
 70
0
 62
7
  6
CONTINUOUS
370
-3
390
F
  0
LAYER
  5
1FF
100
AcDbSymbolTableRecord
100
AcDbLayerTableRecord
  2
COORD_ORIGINE
 70
0
 62
7
  6
CONTINUOUS
370
-3
390
F
  0
LAYER
  5
200
100
AcDbSymbolTableRecord
100
AcDbLayerTableRecord
  2
PIANI
 70
0
 62
7
  6
CONTINUOUS
370
-3
390
F
  0
LAYER
  5
201
100
AcDbSymbolTableRecord
100
AcDbLayerTableRecord
  2
PIANI_ORIGINE
 70
0
 62
7
  6
CONTINUOUS
370
-3
390
F
  0
LAYER
  5
202
100
AcDbSymbolTableRecord
100
AcDbLayerTableRecord
  2
RACCORDO
 70
0
 62
7
  6
CONTINUOUS
370
-3
390
F
  0
LAYER
  5
203
100
AcDbSymbolTableRecord
100
AcDbLayerTableRecord
  2
SNAPLINE
 70
0
 62
7
  6
CONTINUOUS
370
-3
390
F
  0
LAYER
  5
204
100
AcDbSymbolTableRecord
100
AcDbLayerTableRecord
  2
TRASH
 70
0
 62
7
  6
CONTINUOUS
370
-3
390
F
  0
ENDTAB
  0
TABLE
  2
STYLE
  5
3
100
AcDbSymbolTable
 70
1
  0
STYLE
  5
11
100
AcDbSymbolTableRecord
100
AcDbTextStyleTableRecord
  2
STANDARD
 70
0
 40
0.0
 41
0.8
 50
0.0
 71
0
 42
0.2
  3
txt
  4

  0
STYLE
  5
205
100
AcDbSymbolTableRecord
100
AcDbTextStyleTableRecord
  2
TEXTSTYLE_1
 70
0
 40
0.0
 41
0.8
 50
0.0
 71
0
 42
0.2
  3
gdt
  4

  0
ENDTAB
  0
TABLE
  2
VIEW
  5
6
100
AcDbSymbolTable
 70
0
  0
ENDTAB
  0
TABLE
  2
UCS
  5
7
100
AcDbSymbolTable
 70
0
  0
ENDTAB
  0
TABLE
  2
APPID
  5
9
100
AcDbSymbolTable
 70
1
  0
APPID
  5
206
100
AcDbSymbolTableRecord
100
AcDbRegAppTableRecord
  2
ACAD
 70
0
  0
ENDTAB
  0
TABLE
  2
BLOCK_RECORD
  5
1
100
AcDbSymbolTable
 70
0
  0
BLOCK_RECORD
  5
207
100
AcDbSymbolTableRecord
100
AcDbBlockTableRecord
  2
*Model_Space
  0
BLOCK_RECORD
  5
208
100
AcDbSymbolTableRecord
100
AcDbBlockTableRecord
  2
*Paper_Space
  0
BLOCK_RECORD
  5
209
100
AcDbSymbolTableRecord
100
AcDbBlockTableRecord
  2
_FILLED
  0
ENDTAB
  0
TABLE
  2
DIMSTYLE
  5
A
100
AcDbSymbolTable
 70
1
100
AcDbDimStyleTable
 71
0
  0
DIMSTYLE
105
20A
100
AcDbSymbolTableRecord
100
AcDbDimStyleTableRecord
  2
STANDARD
 70
0
  3

  4

 40
1.0
 41
3.0
 42
0.5
 43
0.38
 44
1.5
 45
0.0
 46
0.0
 47
0.01
 48
0.01
140
3.0
141
0.09
142
0.0
143
25.4
144
1.0
145
0.0
146
1.0
147
0.625
 71
1
 72
0
 73
0
 74
0
 75
0
 76
0
 77
1
 78
8
 79
2
170
0
171
1
172
0
173
0
174
0
175
0
176
0
177
0
178
0
270
2
179
2
271
2
272
2
273
2
274
2
275
0
280
0
281
0
282
0
283
1
284
8
285
0
286
0
287
3
288
0
340
11
278
44
341
209
342
209
343
209
344
209
  0
ENDTAB
  0
ENDSEC
  0
SECTION
  2
BLOCKS
  0
BLOCK
  5
20
100
AcDbEntity
  8
0
100
AcDbBlockBegin
  2
*Model_Space
 70
0
 10
0.0
 20
0.0
 30
0.0
  3
*Model_Space
  1

  0
ENDBLK
  5
21
100
AcDbEntity
  8
0
100
AcDbBlockEnd
  0
BLOCK
  5
1C
100
AcDbEntity
  8
0
100
AcDbBlockBegin
  2
*Paper_Space
 70
0
 10
0.0
 20
0.0
 30
0.0
  3
*Paper_Space
  1

  0
ENDBLK
  5
1D
100
AcDbEntity
  8
0
100
AcDbBlockEnd
  0
BLOCK
  5
20B
100
AcDbEntity
  8
0
100
AcDbBlockBegin
  2
_FILLED
 70
64
 10
0.0
 20
0.0
  3
_FILLED
  1

  0
SOLID
  5
20C
100
AcDbEntity
  8
0
  6
BYBLOCK
 62
0
100
AcDbTrace
 10
0.0
 20
0.0
 11
-1.0
 21
0.3166666667
 12
-1.0
 22
-0.3166666667
 13
-1.0
 23
-0.3166666667
  0
ENDBLK
  5
20D
100
AcDbEntity
  8
0
  6
BYBLOCK
 62
0
100
AcDbBlockEnd
  0
ENDSEC
  0
SECTION
  2
ENTITIES
  0
LWPOLYLINE
  5
20E
100
AcDbEntity
  8
0
100
AcDbPolyline
 62
7
  6
CONTINUOUS
 90
16
 70
0
 10
-5.4268582906
 20
9.968916716
 10
-5.5655063349
 20
9.8106693988
 10
-5.6953988149
 20
9.6475577587
 10
-5.8163751858
 20
9.4800215958
 10
-5.9281470993
 20
9.308762381
 10
-6.0307973628
 20
9.1339890807
 10
-6.1246452689
 20
8.9553678211
 10
-6.2096080008
 20
8.7731355397
 10
-6.2854478248
 20
8.5879108254
 10
-6.3521334786
 20
8.3999069886
 10
-6.4095110591
 20
8.2097203652
 10
-6.4575475946
 20
8.0176861869
 10
-6.4963068936
 20
7.8236248229
 10
-6.5257042795
 20
7.6277861237
 10
-6.5456129094
 20
7.4308639185
 10
-6.5559890684
 20
7.2333424036
  0
LWPOLYLINE
  5
20F
100
AcDbEntity
  8
0
100
AcDbPolyline
 62
250
  6
CONTINUOUS
 90
61
 70
0
 10
-4.8339893809
 20
10.2895267874
 10
-4.7126338615
 20
10.4143909663
 10
-4.5825149967
 20
10.5342640218
 10
-4.4439894331
 20
10.6488173903
 10
-4.2974368599
 20
10.7577370888
 10
-4.1432589672
 20
10.8607245761
 10
-3.9818783462
 20
10.9574975706
 10
-3.8137373297
 20
11.0477908243
 10
-3.6392967808
 20
11.1313568496
 10
-3.4590348287
 20
11.2079665979
 10
-3.2734455589
 20
11.2774100872
 10
-3.0830376589
 20
11.3394969776
 10
-2.8883330233
 20
11.3940570934
 10
-2.689865324
 20
11.4409408891
 10
-2.4881785472
 20
11.4800198594
 10
-2.2838255024
 20
11.5111868916
 10
-2.077366307
 20
11.534356559
 10
-1.8693668514
 20
11.5494653551
 10
-1.6603972476
 20
11.5564718679
 10
-1.4510302667
 20
11.555356893
 10
-1.2418397691
 20
11.5461234864
 10
-1.0333991314
 20
11.5287969562
 10
-0.8262796749
 20
11.5034247933
 10
-0.6210490996
 20
11.470076541
 10
-0.4182699284
 20
11.4288436045
 10
-0.2184979647
 20
11.3798390005
 10
-0.0222807697
 20
11.3231970471
 10
0.169843839
 20
11.259072996
 10
0.3573492611
 20
11.1876426069
 10
0.5397215573
 20
11.1091016654
 10
0.7164608579
 20
11.0236654467
 10
0.8870827327
 20
10.9315681257
 10
1.051119519
 20
10.8330621346
 10
1.2081216033
 20
10.7284174716
 10
1.3576586539
 20
10.6179209604
 10
1.4993208001
 20
10.5018754642
 10
1.6327197558
 20
10.3805990557
 10
1.7574898838
 20
10.2544241451
 10
1.8732891977
 20
10.1236965691
 10
1.9798002998
 20
9.9887746428
 10
2.0767312505
 20
9.8500281779
 10
2.1638163688
 20
9.7078374688
 10
2.2408169604
 20
9.5625922504
 10
2.3075219721
 20
9.4146906296
 10
2.3637485701
 20
9.2645379946
 10
2.4093426412
 20
9.1125459033
 10
2.4441792151
 20
8.9591309554
 10
2.4681628074
 20
8.8047136507
 10
2.4812276805
 20
8.6497172362
 10
2.4833380247
 20
8.4945665464
 10
2.4744880555
 20
8.3396868385
 10
2.4547020302
 20
8.185502627
 10
2.4240341808
 20
8.0324365201
 10
2.3825685659
 20
7.8809080614
 10
2.3304188398
 20
7.7313325799
 10
2.2677279411
 20
7.5841200516
 10
2.1946677015
 20
7.4396739757
 10
2.1114383738
 20
7.2983902689
 10
2.0182680839
 20
7.1606561801
 10
1.9154122051
 20
7.0268492288
 10
1.8031526582
 20
6.8973361705
  0
LWPOLYLINE
  5
210
100
AcDbEntity
  8
0
100
AcDbPolyline
 62
7
  6
CONTINUOUS
 90
50
 70
0
 10
-5.9990752639
 20
-8.1137738744
 10
-5.8635985294
 20
-8.2789321112
 10
-5.7148781614
 20
-8.4384724576
 10
-5.5536320944
 20
-8.5914402673
 10
-5.380217219
 20
-8.7373714145
 10
-5.1951254822
 20
-8.8757187841
 10
-4.9995116182
 20
-9.0055699242
 10
-4.7941440087
 20
-9.126450575
 10
-4.5794768196
 20
-9.2381117593
 10
-4.3563654362
 20
-9.3401144176
 10
-4.12552111
 20
-9.4321478581
 10
-3.8875997506
 20
-9.5139508441
 10
-3.6434554296
 20
-9.5852250826
 10
-3.3938242174
 20
-9.6457497174
 10
-3.1394551135
 20
-9.6953254902
 10
-2.8812809894
 20
-9.733753507
 10
-2.620097858
 20
-9.7609000665
 10
-2.3566816728
 20
-9.7766591061
 10
-2.0919706875
 20
-9.7809475251
 10
-1.8267767179
 20
-9.7737253695
 10
-1.5618952821
 20
-9.7549780675
 10
-1.2982479701
 20
-9.7247323924
 10
-1.0366328454
 20
-9.6830397599
 10
-0.7778457813
 20
-9.629977414
 10
-0.5227884976
 20
-9.5656791352
 10
-0.27219968
 20
-9.4902757607
 10
-0.0268789937
 20
-9.4039423068
 10
0.2122226565
 20
-9.3069560013
 10
0.4444104351
 20
-9.1995448905
 10
0.668949918
 20
-9.0819840756
 10
0.8849033493
 20
-8.9547158536
 10
1.0916363772
 20
-8.8180797681
 10
1.2885212107
 20
-8.672446345
 10
1.474726176
 20
-8.518408049
 10
1.649700323
 20
-8.3564245507
 10
1.8129481239
 20
-8.186952504
 10
1.9638273506
 20
-8.0106809179
 10
2.1018293004
 20
-7.8282818737
 10
2.2266819376
 20
-7.6401989849
 10
2.33815268
 20
-7.4468188488
 10
2.4359382402
 20
-7.2486854256
 10
2.5197336977
 20
-7.0464500986
 10
2.5893208105
 20
-6.8406853418
 10
2.6445042333
 20
-6.6320063734
 10
2.6851111942
 20
-6.421142879
 10
2.71103157
 20
-6.2088899493
 10
2.7222362906
 20
-5.9961170698
 10
2.7187819539
 20
-5.7833951387
 10
2.700718666
 20
-5.5710833671
 10
2.6767991552
 20
-5.4160875965
  0
LWPOLYLINE
  5
211
100
AcDbEntity
  8
0
100
AcDbPolyline
 62
250
  6
CONTINUOUS
 90
61
 70
0
 10
-4.8339893809
 20
10.2895267874
 10
-4.9462489279
 20
10.1600137291
 10
-5.0491048067
 20
10.0262067778
 10
-5.1422750965
 20
9.888472689
 10
-5.2255044242
 20
9.7471889822
 10
-5.2985646639
 20
9.6027429063
 10
-5.3612555625
 20
9.4555303779
 10
-5.4134052886
 20
9.3059548964
 10
-5.4548709036
 20
9.1544264378
 10
-5.4855387529
 20
9.0013603309
 10
-5.5053247782
 20
8.8471761194
 10
-5.5141747474
 20
8.6922964115
 10
-5.5120644032
 20
8.5371457217
 10
-5.4989995301
 20
8.3821493072
 10
-5.4750159379
 20
8.2277320025
 10
-5.4401793639
 20
8.0743170546
 10
-5.3945852928
 20
7.9223249633
 10
-5.3383586949
 20
7.7721723283
 10
-5.2716536832
 20
7.6242707075
 10
-5.1946530915
 20
7.479025489
 10
-5.1075679732
 20
7.3368347799
 10
-5.0106370225
 20
7.198088315
 10
-4.9041259205
 20
7.0631663888
 10
-4.7883266065
 20
6.9324388127
 10
-4.6635564785
 20
6.8062639022
 10
-4.5301575228
 20
6.6849874937
 10
-4.3884953766
 20
6.5689419975
 10
-4.238958326
 20
6.4584454863
 10
-4.0819562417
 20
6.3538008233
 10
-3.9179194554
 20
6.2552948322
 10
-3.7472975806
 20
6.1631975112
 10
-3.5705582801
 20
6.0777612925
 10
-3.3881859838
 20
5.999220351
 10
-3.2006805617
 20
5.9277899618
 10
-3.008555953
 20
5.8636659108
 10
-2.812338758
 20
5.8070239574
 10
-2.6125667944
 20
5.7580193534
 10
-2.4097876231
 20
5.7167864169
 10
-2.2045570478
 20
5.6834381646
 10
-1.9974375913
 20
5.6580660017
 10
-1.7889969536
 20
5.6407394715
 10
-1.579806456
 20
5.6315060649
 10
-1.3704394752
 20
5.6303910899
 10
-1.1614698713
 20
5.6373976027
 10
-0.9534704157
 20
5.6525063989
 10
-0.7470112203
 20
5.6756760663
 10
-0.5426581755
 20
5.7068430985
 10
-0.3409713987
 20
5.7459220688
 10
-0.1425036995
 20
5.7928058644
 10
0.0522009361
 20
5.8473659802
 10
0.2426088362
 20
5.9094528707
 10
0.428198106
 20
5.9788963599
 10
0.608460058
 20
6.0555061082
 10
0.782900607
 20
6.1390721335
 10
0.9510416235
 20
6.2293653872
 10
1.1124222445
 20
6.3261383817
 10
1.2666001371
 20
6.429125869
 10
1.4131527104
 20
6.5380455676
 10
1.551678274
 20
6.652598936
 10
1.6817971388
 20
6.7724719916
 10
1.8031526582
 20
6.8973361705
  0
LWPOLYLINE
  5
212
100
AcDbEntity
  8
0
100
AcDbPolyline
 62
7
  6
CONTINUOUS
 90
4
 70
0
 10
-6.3233024843
 20
-7.5910887437
 10
-6.2288680378
 20
-7.7696780248
 10
-6.1208202845
 20
-7.9439219381
 10
-5.9990752639
 20
-8.1137738744
  0
LWPOLYLINE
  5
213
100
AcDbEntity
  8
0
100
AcDbPolyline
 62
7
  6
CONTINUOUS
 90
30
 70
0
 10
-5.7370124049
 20
-8.4147278629
 10
-5.712280109
 20
-8.4591091185
 10
-5.6180570574
 20
-8.60680601
 10
-5.5138397644
 20
-8.7510381139
 10
-5.3998700271
 20
-8.891414633
 10
-5.2764508149
 20
-9.0275211069
 10
-5.1438597859
 20
-9.1590097158
 10
-5.002401292
 20
-9.2855266291
 10
-4.8524730535
 20
-9.4066728892
 10
-4.6944138175
 20
-9.52214153
 10
-4.528606409
 20
-9.631606985
 10
-4.3555769059
 20
-9.7346806975
 10
-4.175746891
 20
-9.8310999737
 10
-3.9895556044
 20
-9.9205963277
 10
-3.7976245641
 20
-10.0028278797
 10
-3.6004733758
 20
-10.0775833456
 10
-3.3985682644
 20
-10.1446754895
 10
-3.1925131205
 20
-10.2038594014
 10
-2.9828866208
 20
-10.2549860682
 10
-2.7701855848
 20
-10.2979466507
 10
-2.5549342048
 20
-10.3326051853
 10
-2.3377200532
 20
-10.3588817808
 10
-2.1190769262
 20
-10.3767271988
 10
-1.8994733952
 20
-10.3860828778
 10
-1.6794893599
 20
-10.386931926
 10
-1.4596838573
 20
-10.3792825124
 10
-1.2405096873
 20
-10.3631354428
 10
-1.0225004869
 20
-10.338524721
 10
-0.8062593208
 20
-10.30552536
 10
-0.59234378
 20
-10.2642262693
  0
LWPOLYLINE
  5
214
100
AcDbEntity
  8
0
100
AcDbPolyline
 62
7
  6
CONTINUOUS
 90
53
 70
0
 10
-6.2703342162
 20
-6.4100808744
 10
-6.1925326382
 20
-6.5544761323
 10
-6.0830345777
 20
-6.7304478789
 10
-5.9597912514
 20
-6.9016144319
 10
-5.8230208129
 20
-7.0674885327
 10
-5.6731397499
 20
-7.2273854886
 10
-5.5108287318
 20
-7.3804755923
 10
-5.336561857
 20
-7.5262546765
 10
-5.1508042118
 20
-7.664264343
 10
-4.9543690165
 20
-7.7938544769
 10
-4.747842278
 20
-7.9146161361
 10
-4.5318056165
 20
-8.0261722267
 10
-4.3071928138
 20
-8.1280179325
 10
-4.0747235814
 20
-8.2198228301
 10
-3.8350461556
 20
-8.3013130325
 10
-3.5890879046
 20
-8.3721553474
 10
-3.3376288837
 20
-8.432113712
 10
-3.0813969582
 20
-8.4809913828
 10
-2.8213058993
 20
-8.5185867967
 10
-2.5581494695
 20
-8.5447566567
 10
-2.2927317457
 20
-8.5593821085
 10
-2.0260179054
 20
-8.5623710712
 10
-1.7588267651
 20
-8.5536755295
 10
-1.4919820419
 20
-8.5332736917
 10
-1.2264648604
 20
-8.5011927616
 10
-0.9630870492
 20
-8.4574833164
 10
-0.7026697631
 20
-8.4022242378
 10
-0.4461884902
 20
-8.3355675072
 10
-0.194425147
 20
-8.2576626569
 10
0.051832453
 20
-8.1686892678
 10
0.2916449389
 20
-8.0689264987
 10
0.5243240141
 20
-7.9585996555
 10
0.7490958409
 20
-7.8380031335
 10
0.9649696816
 20
-7.707617949
 10
1.171322091
 20
-7.5677866041
 10
1.3674959841
 20
-7.4189099608
 10
1.5525684456
 20
-7.2616809727
 10
1.725936606
 20
-7.0966559953
 10
1.8871933051
 20
-6.9242638586
 10
2.035813151
 20
-6.7451045647
 10
2.1712953935
 20
-6.5598552235
 10
2.2933561126
 20
-6.3689841447
 10
2.4018124682
 20
-6.1727977465
 10
2.496349702
 20
-5.9718377436
 10
2.576638986
 20
-5.7667822121
 10
2.6424612283
 20
-5.5581603878
 10
2.6935945534
 20
-5.3465968225
 10
2.7298390144
 20
-5.1328516778
 10
2.7510666054
 20
-4.9177093857
 10
2.7572250588
 20
-4.7019519204
 10
2.7483295163
 20
-4.4862885364
 10
2.7244443109
 20
-4.2714052243
 10
2.7111024028
 20
-4.1979398716
  0
LWPOLYLINE
  5
215
100
AcDbEntity
  8
0
100
AcDbPolyline
 62
7
  6
CONTINUOUS
 90
49
 70
0
 10
-5.9772410004
 20
-4.3473486604
 10
-5.8495095922
 20
-4.5172705918
 10
-5.7081076278
 20
-4.6818967869
 10
-5.55378946
 20
-4.8401625795
 10
-5.3869763448
 20
-4.9915373133
 10
-5.2081068335
 20
-5.1355155757
 10
-5.018199822
 20
-5.2712324583
 10
-4.8179618803
 20
-5.3982077546
 10
-4.6078758628
 20
-5.516142455
 10
-4.3887820159
 20
-5.6245642412
 10
-4.1613812838
 20
-5.7231347949
 10
-3.9263208727
 20
-5.8115673972
 10
-3.6844460371
 20
-5.8895326317
 10
-3.4364876554
 20
-5.9567818428
 10
-3.1831942601
 20
-6.0130868119
 10
-2.925503303
 20
-6.0582147102
 10
-2.6642000395
 20
-6.0920044622
 10
-2.4000834381
 20
-6.1143185895
 10
-2.1341559128
 20
-6.1250409733
 10
-1.8672429196
 20
-6.1241102309
 10
-1.600157305
 20
-6.1114913017
 10
-1.3338971355
 20
-6.0871948382
 10
-1.0692873687
 20
-6.0512620814
 10
-0.8071353587
 20
-6.0037590304
 10
-0.5483978998
 20
-5.9448157016
 10
-0.2938680434
 20
-5.8745702224
 10
-0.0443261809
 20
-5.7931854138
 10
0.1993276829
 20
-5.7009022119
 10
0.4363603886
 20
-5.5979447954
 10
0.6660305554
 20
-5.4845707375
 10
0.8874806889
 20
-5.3611423697
 10
1.1000975025
 20
-5.2279365175
 10
1.3031484617
 20
-5.0853351167
 10
1.4956886532
 20
-4.9339588449
 10
1.6771702759
 20
-4.7742229306
 10
1.847021341
 20
-4.6066073445
 10
2.0044085904
 20
-4.4319669934
 10
2.1487737405
 20
-4.2510489447
 10
2.2799033727
 20
-4.0642581579
 10
2.397569548
 20
-3.8719979458
 10
2.5014001545
 20
-3.6749678817
 10
2.5911861839
 20
-3.4736900562
 10
2.6668694589
 20
-3.2682901053
 10
2.728187078
 20
-3.0592993367
 10
2.7748503039
 20
-2.8475003891
 10
2.8066860669
 20
-2.6334198392
 10
2.8235248362
 20
-2.4176815039
 10
2.8252346234
 20
-2.2011298458
 10
2.823285672
 20
-2.1697772639
  0
LWPOLYLINE
  5
216
100
AcDbEntity
  8
0
100
AcDbPolyline
 62
7
  6
CONTINUOUS
 90
49
 70
0
 10
-5.9651452214
 20
-4.9943492865
 10
-5.8568283987
 20
-5.1547125036
 10
-5.7357266256
 20
-5.3103900711
 10
-5.6024227351
 20
-5.4606561918
 10
-5.4572011015
 20
-5.6052084614
 10
-5.3000040873
 20
-5.7439968474
 10
-5.1307803221
 20
-5.876819007
 10
-4.9503794274
 20
-6.0027727873
 10
-4.7601896519
 20
-6.1208224848
 10
-4.5611480886
 20
-6.2304449924
 10
-4.3536974222
 20
-6.3314508853
 10
-4.1386779584
 20
-6.4234678979
 10
-3.9170404097
 20
-6.5061514792
 10
-3.6893433006
 20
-6.5793527055
 10
-3.4558339342
 20
-6.6429956784
 10
-3.2173138763
 20
-6.6968322
 10
-2.9744851343
 20
-6.7406740481
 10
-2.7273944395
 20
-6.7744315786
 10
-2.476555703
 20
-6.7978907538
 10
-2.2229986961
 20
-6.8108116576
 10
-1.9675435082
 20
-6.8130253552
 10
-1.7106082925
 20
-6.8043755956
 10
-1.4534438497
 20
-6.7847509346
 10
-1.1981290403
 20
-6.7542606719
 10
-0.9457407316
 20
-6.7130800749
 10
-0.6968371864
 20
-6.6613479831
 10
-0.4526617707
 20
-6.5993867705
 10
-0.2144361339
 20
-6.5276388203
 10
0.0176356265
 20
-6.4463014133
 10
0.2438327438
 20
-6.3553059896
 10
0.4633770595
 20
-6.2549246735
 10
0.6756244529
 20
-6.1454108643
 10
0.8808977107
 20
-6.0264541669
 10
1.0789090359
 20
-5.8979163143
 10
1.2683165085
 20
-5.7603482154
 10
1.4478424809
 20
-5.6144665311
 10
1.6169269996
 20
-5.4605573943
 10
1.7748044397
 20
-5.2991393691
 10
1.9201886904
 20
-5.1314951455
 10
2.0526025247
 20
-4.9583139335
 10
2.171807381
 20
-4.7800634356
 10
2.2772299631
 20
-4.5978565398
 10
2.368498675
 20
-4.4128614715
 10
2.4458575231
 20
-4.2251888115
 10
2.5096109232
 20
-4.0343437906
 10
2.5596128881
 20
-3.8405792159
 10
2.5955762035
 20
-3.6447820755
 10
2.6173859984
 20
-3.4473594184
 10
2.6192786165
 20
-3.3974488487
  0
LWPOLYLINE
  5
217
100
AcDbEntity
  8
0
100
AcDbPolyline
 62
7
  6
CONTINUOUS
 90
52
 70
0
 10
-6.1388916974
 20
-5.3688589485
 10
-6.0265487934
 20
-5.5444196199
 10
-5.900562368
 20
-5.714894519
 10
-5.7611380081
 20
-5.8798694191
 10
-5.6084509524
 20
-6.038934208
 10
-5.4430121428
 20
-6.1913559917
 10
-5.2656055489
 20
-6.3362982093
 10
-5.076705803
 20
-6.4733018439
 10
-4.8768498506
 20
-6.6018938225
 10
-4.6670979463
 20
-6.7213545856
 10
-4.4481792357
 20
-6.8312796428
 10
-4.2206644888
 20
-6.9313773091
 10
-3.985522422
 20
-7.0212182357
 10
-3.7435139243
 20
-7.1005217938
 10
-3.4953427847
 20
-7.1690538312
 10
-3.2419803808
 20
-7.2265428629
 10
-2.9842399169
 20
-7.272806757
 10
-2.7228849314
 20
-7.3076993543
 10
-2.4588648287
 20
-7.3310816654
 10
-2.1930064133
 20
-7.3428683818
 10
-1.9261157062
 20
-7.3430016184
 10
-1.6591323086
 20
-7.33145591
 10
-1.392877901
 20
-7.3082400016
 10
-1.128169856
 20
-7.2733888396
 10
-0.8659361709
 20
-7.2269864092
 10
-0.6069723672
 20
-7.1691329221
 10
-0.3520814376
 20
-7.0999574098
 10
-0.1021739459
 20
-7.0196565881
 10
0.1420224116
 20
-6.9284103482
 10
0.379718884
 20
-6.8264487733
 10
0.6099680832
 20
-6.7141243433
 10
0.8320817155
 20
-6.5917264954
 10
1.04537005
 20
-6.4595780351
 10
1.2489630534
 20
-6.318174346
 10
1.4422605173
 20
-6.167901992
 10
1.6246649665
 20
-6.0091854941
 10
1.7954079612
 20
-5.842678397
 10
1.9539704026
 20
-5.668904508
 10
2.0999088671
 20
-5.4883647659
 10
2.2326806076
 20
-5.3017680527
 10
2.3518564665
 20
-5.1098105164
 10
2.4572016487
 20
-4.9129953537
 10
2.5485259377
 20
-4.7117793851
 10
2.6255757017
 20
-4.506807584
 10
2.6881497666
 20
-4.2987318893
 10
2.73612794
 20
-4.0880451141
 10
2.7693642232
 20
-3.8754592349
 10
2.7877728284
 20
-3.6616854224
 10
2.7913213393
 20
-3.4472445235
 10
2.7800018561
 20
-3.2329065363
 10
2.7538658873
 20
-3.0193607943
 10
2.7459909004
 20
-2.9784898603
  0
LWPOLYLINE
  5
218
100
AcDbEntity
  8
0
100
AcDbPolyline
 62
7
  6
CONTINUOUS
 90
50
 70
0
 10
-6.1211220582
 20
-5.9974638061
 10
-6.0308029393
 20
-6.1617764495
 10
-5.9271906032
 20
-6.322566189
 10
-5.8105314045
 20
-6.4792617412
 10
-5.6809824876
 20
-6.6314469454
 10
-5.5389905063
 20
-6.7784076156
 10
-5.38540919
 20
-6.9191908046
 10
-5.221001907
 20
-7.0531401795
 10
-5.046113858
 20
-7.1800128042
 10
-4.8610877417
 20
-7.2995348476
 10
-4.6664029266
 20
-7.4113338357
 10
-4.4627613204
 20
-7.5149451308
 10
-4.2508532016
 20
-7.6099709024
 10
-4.0312589079
 20
-7.6961010488
 10
-3.8047666964
 20
-7.7729770037
 10
-3.5724509165
 20
-7.8402184835
 10
-3.3354767174
 20
-7.8975258265
 10
-3.0942362519
 20
-7.9448404577
 10
-2.8486460218
 20
-7.9821298228
 10
-2.5988524093
 20
-8.0092268032
 10
-2.3462399916
 20
-8.0258367173
 10
-2.0925899629
 20
-8.0317990998
 10
-1.8393007548
 20
-8.027135581
 10
-1.5866086919
 20
-8.0119051533
 10
-1.3345693086
 20
-7.9860827319
 10
-1.0836058231
 20
-7.9496107532
 10
-0.8349237973
 20
-7.9025625524
 10
-0.5897429121
 20
-7.8451192607
 10
-0.3489145258
 20
-7.7774635348
 10
-0.1131359567
 20
-7.6997749291
 10
0.1166554425
 20
-7.6123560363
 10
0.3394676672
 20
-7.5156166547
 10
0.5549119774
 20
-7.4097602085
 10
0.7629410069
 20
-7.2947656404
 10
0.9632647745
 20
-7.1706463851
 10
1.1547420432
 20
-7.0379571461
 10
1.3361087424
 20
-6.8975369067
 10
1.5064669195
 20
-6.7501742172
 10
1.6657369889
 20
-6.5960392755
 10
1.8139290683
 20
-6.4350899555
 10
1.9507879103
 20
-6.2674202387
 10
2.0754958656
 20
-6.0938349259
 10
2.1872754419
 20
-5.9153769156
 10
2.2856836645
 20
-5.7328866242
 10
2.370642992
 20
-5.5466634789
 10
2.4420415914
 20
-5.3569850872
 10
2.4995746943
 20
-5.1647000631
 10
2.5431682699
 20
-4.9701125725
 10
2.5728115046
 20
-4.7726453753
 10
2.5848983778
 20
-4.6150195226
  0
LINE
  5
219
100
AcDbEntity
  8
0
100
AcDbLine
 62
7
  6
CONTINUOUS
 10
-0.1402753883
 20
-4.9948440341
 11
0.081145064
 21
-4.9489751291
  0
LINE
  5
21A
100
AcDbEntity
  8
0
100
AcDbLine
 62
7
  6
CONTINUOUS
 10
0.081145064
 20
-4.9489751291
 11
0.113467095
 21
-4.9424632111
  0
LINE
  5
21B
100
AcDbEntity
  8
0
100
AcDbLine
 62
7
  6
CONTINUOUS
 10
-0.2111989599
 20
-5.009124076
 11
-0.1402753883
 21
-4.9948440341
  0
LINE
  5
21C
100
AcDbEntity
  8
0
100
AcDbLine
 62
7
  6
CONTINUOUS
 10
0.113467095
 20
-4.9424632111
 11
0.1337241194
 21
-4.9384807268
  0
LINE
  5
21D
100
AcDbEntity
  8
0
100
AcDbLine
 62
7
  6
CONTINUOUS
 10
-0.2692984704
 20
-5.0204974341
 11
-0.2111989599
 21
-5.009124076
  0
LINE
  5
21E
100
AcDbEntity
  8
0
100
AcDbLine
 62
7
  6
CONTINUOUS
 10
0.1337241194
 20
-4.9384807268
 11
0.1530363228
 21
-4.9347810852
  0
LINE
  5
21F
100
AcDbEntity
  8
0
100
AcDbLine
 62
7
  6
CONTINUOUS
 10
-0.3320903675
 20
-5.0324096621
 11
-0.2692984704
 21
-5.0204974341
  0
LINE
  5
220
100
AcDbEntity
  8
0
100
AcDbLine
 62
7
  6
CONTINUOUS
 10
0.1530363228
 20
-4.9347810852
 11
0.1714818689
 21
-4.9313640461
  0
LINE
  5
221
100
AcDbEntity
  8
0
100
AcDbLine
 62
7
  6
CONTINUOUS
 10
-0.3767348313
 20
-5.040618374
 11
-0.3320903675
 21
-5.0324096621
  0
LINE
  5
222
100
AcDbEntity
  8
0
100
AcDbLine
 62
7
  6
CONTINUOUS
 10
-0.4237397258
 20
-5.0490136031
 11
-0.3767348313
 21
-5.040618374
  0
LWPOLYLINE
  5
223
100
AcDbEntity
  8
0
100
AcDbPolyline
 62
7
  6
CONTINUOUS
 90
113
 70
0
 10
0.1714818689
 20
-4.9313640461
 10
0.1891121568
 20
-4.928233782
 10
0.1976474606
 20
-4.9267768512
 10
0.2059971705
 20
-4.9253939599
 10
0.2141855856
 20
-4.9240887283
 10
0.2222129751
 20
-4.9228594906
 10
0.2300798681
 20
-4.921709263
 10
0.2378108076
 20
-4.9206484547
 10
0.2454287848
 20
-4.9196717514
 10
0.2529114065
 20
-4.9187854769
 10
0.2602151819
 20
-4.9180175547
 10
0.2673506054
 20
-4.9173650482
 10
0.274308008
 20
-4.9168322167
 10
0.2810139463
 20
-4.9164582058
 10
0.2874637874
 20
-4.9162366573
 10
0.2936633143
 20
-4.9161756985
 10
0.2995549974
 20
-4.9163366247
 10
0.3051692394
 20
-4.9166982388
 10
0.3104768592
 20
-4.9172835726
 10
0.315331327
 20
-4.9182208039
 10
0.3198159748
 20
-4.9194952557
 10
0.3238489341
 20
-4.9211237557
 10
0.3270366565
 20
-4.9232828646
 10
0.3293267239
 20
-4.9260839401
 10
0.3307733752
 20
-4.9294182593
 10
0.331143393
 20
-4.9331327544
 10
0.330234351
 20
-4.937266775
 10
0.3282485374
 20
-4.9417807725
 10
0.3255595422
 20
-4.9464029503
 10
0.3221956195
 20
-4.9510659357
 10
0.3181269827
 20
-4.9558348817
 10
0.3136405608
 20
-4.9606373527
 10
0.30878743
 20
-4.9654529004
 10
0.303515152
 20
-4.9702999715
 10
0.2979559718
 20
-4.9751653181
 10
0.2921398308
 20
-4.9800384341
 10
0.2860356677
 20
-4.9849281445
 10
0.2796845343
 20
-4.9898506438
 10
0.2730739609
 20
-4.9948201603
 10
0.2662152917
 20
-4.9998207403
 10
0.2591855557
 20
-5.004823676
 10
0.2519908698
 20
-5.0098252415
 10
0.2446243248
 20
-5.0148278986
 10
0.2371437399
 20
-5.0198127088
 10
0.2295696559
 20
-5.0247675632
 10
0.2218810412
 20
-5.0297037351
 10
0.2140734944
 20
-5.0346375615
 10
0.2061573046
 20
-5.0395642535
 10
0.1981216433
 20
-5.0444876662
 10
0.1899303223
 20
-5.0494369248
 10
0.1815829765
 20
-5.054412999
 10
0.1730792001
 20
-5.0594135935
 10
0.164382538
 20
-5.0644626051
 10
0.1554930566
 20
-5.0695598701
 10
0.1464096836
 20
-5.0747038091
 10
0.1370940311
 20
-5.0799158248
 10
0.1275458487
 20
-5.0851953033
 10
0.1177641065
 20
-5.0905406101
 10
0.1077089975
 20
-5.0959711936
 10
0.097379955
 20
-5.1014860474
 10
0.0867759507
 20
-5.1070833251
 10
0.0758562093
 20
-5.1127807353
 10
0.0646198116
 20
-5.1185768896
 10
0.0530657258
 20
-5.1244696062
 10
0.0411527069
 20
-5.1304748607
 10
0.0288794093
 20
-5.1365908765
 10
0.0162448319
 20
-5.1428150167
 10
0.0032079236
 20
-5.1491613616
 10
-0.0102331778
 20
-5.1556277258
 10
-0.0240793852
 20
-5.1622109032
 10
-0.0383706644
 20
-5.1689227803
 10
-0.0531095125
 20
-5.1757607432
 10
-0.0682966561
 20
-5.1827209004
 10
-0.0839697491
 20
-5.1898125094
 10
-0.1001315042
 20
-5.1970322753
 10
-0.1167828772
 20
-5.2043757519
 10
-0.133959225
 20
-5.211849719
 10
-0.1516624203
 20
-5.2194497156
 10
-0.1698946811
 20
-5.2271711082
 10
-0.1886922229
 20
-5.235019602
 10
-0.2080609882
 20
-5.2429915077
 10
-0.2279995553
 20
-5.2510798493
 10
-0.2485333892
 20
-5.2592846044
 10
-0.2696728274
 20
-5.2676028172
 10
-0.2914123397
 20
-5.2760252502
 10
-0.3137537045
 20
-5.2845419608
 10
-0.3366996488
 20
-5.2931464058
 10
-0.3602521776
 20
-5.30183192
 10
-0.3844119509
 20
-5.3105881316
 10
-0.4091813489
 20
-5.3194078944
 10
-0.4345625557
 20
-5.3282840991
 10
-0.460555868
 20
-5.3372061986
 10
-0.487163665
 20
-5.3461665893
 10
-0.5143878496
 20
-5.3551575728
 10
-0.5422278992
 20
-5.3641682453
 10
-0.5706860507
 20
-5.3731905197
 10
-0.5997639387
 20
-5.3822161553
 10
-0.6294599951
 20
-5.3912338269
 10
-0.6597762498
 20
-5.4002349754
 10
-0.6907139977
 20
-5.4092108397
 10
-0.7222703838
 20
-5.4181496346
 10
-0.7544474379
 20
-5.4270424214
 10
-0.7872457665
 20
-5.4358798718
 10
-0.820660147
 20
-5.444649517
 10
-0.854691694
 20
-5.4533418582
 10
-0.8893410826
 20
-5.4619472837
 10
-0.9246021539
 20
-5.4704531124
 10
-0.9604533206
 20
-5.4788444418
 10
-0.9969169093
 20
-5.4871165376
 10
-1.0340526114
 20
-5.4952707847
 10
-1.0718805125
 20
-5.5032994777
 10
-1.1103807929
 20
-5.5111869908
 10
-1.1495532342
 20
-5.5189214769
  0
LINE
  5
224
100
AcDbEntity
  8
0
100
AcDbLine
 62
7
  6
CONTINUOUS
 10
-0.4732295893
 20
-5.0575686516
 11
-0.4237397258
 21
-5.0490136031
  0
LINE
  5
225
100
AcDbEntity
  8
0
100
AcDbLine
 62
7
  6
CONTINUOUS
 10
-0.5252935587
 20
-5.0662417699
 11
-0.4732295893
 21
-5.0575686516
  0
LWPOLYLINE
  5
226
100
AcDbEntity
  8
0
100
AcDbPolyline
 62
7
  6
CONTINUOUS
 90
16
 70
0
 10
-1.1495532342
 20
-5.5189214769
 10
-0.8952606114
 20
-5.4786983678
 10
-0.6435523819
 20
-5.4280016313
 10
-0.3952129601
 20
-5.36692271
 10
-0.1509032226
 20
-5.2955487189
 10
0.0884854163
 20
-5.2140636437
 10
0.3218602795
 20
-5.1227961297
 10
0.5483431682
 20
-5.0220858932
 10
0.7674173874
 20
-4.9121599987
 10
0.9785728231
 20
-4.7932439961
 10
1.1812298137
 20
-4.6656106753
 10
1.3746662707
 20
-4.5296602208
 10
1.5581926592
 20
-4.3858408073
 10
1.7312202118
 20
-4.234591653
 10
1.8932479227
 20
-4.0763292969
 10
2.0437802714
 20
-3.9115131406
  0
LINE
  5
227
100
AcDbEntity
  8
0
100
AcDbLine
 62
7
  6
CONTINUOUS
 10
-0.5800566262
 20
-5.0749942095
 11
-0.5252935587
 21
-5.0662417699
  0
LINE
  5
228
100
AcDbEntity
  8
0
100
AcDbLine
 62
7
  6
CONTINUOUS
 10
-0.6376422729
 20
-5.0837803356
 11
-0.5800566262
 21
-5.0749942095
  0
LINE
  5
229
100
AcDbEntity
  8
0
100
AcDbLine
 62
7
  6
CONTINUOUS
 10
-0.698138049
 20
-5.0925388395
 11
-0.6376422729
 21
-5.0837803356
  0
LWPOLYLINE
  5
22A
100
AcDbEntity
  8
0
100
AcDbPolyline
 62
7
  6
CONTINUOUS
 90
32
 70
0
 10
-2.2343048389
 20
-5.1432338209
 10
-2.1552571194
 20
-5.1489363736
 10
-2.0837904209
 20
-5.1532898171
 10
-2.0147522001
 20
-5.1567793151
 10
-1.9481584403
 20
-5.1594873013
 10
-1.8837380479
 20
-5.1614869656
 10
-1.8215085646
 20
-5.1628448019
 10
-1.7614790028
 20
-5.1636270137
 10
-1.7033612832
 20
-5.1638854268
 10
-1.6471649277
 20
-5.1636720706
 10
-1.5928946239
 20
-5.1630390801
 10
-1.5402529813
 20
-5.1620195445
 10
-1.4892448266
 20
-5.1606530831
 10
-1.4398721344
 20
-5.1589799028
 10
-1.3918327176
 20
-5.1570170868
 10
-1.3451277218
 20
-5.1547937165
 10
-1.2997588351
 20
-5.1523400375
 10
-1.255425252
 20
-5.1496598498
 10
-1.2120718857
 20
-5.146769891
 10
-1.1697551593
 20
-5.1436949449
 10
-1.1283422601
 20
-5.1404408368
 10
-1.0878009789
 20
-5.1370218517
 10
-1.0481634236
 20
-5.1334576403
 10
-1.0093933862
 20
-5.1297581184
 10
-0.9714879288
 20
-5.1259386305
 10
-0.9344482878
 20
-5.1220146818
 10
-0.8982443908
 20
-5.117994707
 10
-0.8628760453
 20
-5.1138928985
 10
-0.8283405528
 20
-5.1097229192
 10
-0.7946040498
 20
-5.1054908621
 10
-0.761665273
 20
-5.1012093511
 10
-0.698138049
 20
-5.0925388395
  0
LWPOLYLINE
  5
22B
100
AcDbEntity
  8
0
100
AcDbPolyline
 62
7
  6
CONTINUOUS
 90
47
 70
0
 10
-6.6455122539
 20
0.198622221
 10
-6.6308949836
 20
0.0252087897
 10
-6.6015150831
 20
-0.1639524086
 10
-6.55884028
 20
-0.3518857197
 10
-6.502987543
 20
-0.5380760316
 10
-6.4341099604
 20
-0.7220130095
 10
-6.3523963211
 20
-0.903192495
 10
-6.2580705963
 20
-1.0811178876
 10
-6.1513913264
 20
-1.2553015062
 10
-6.0326509118
 20
-1.4252659257
 10
-5.9021748118
 20
-1.5905452854
 10
-5.7603206522
 20
-1.750686566
 10
-5.6074772454
 20
-1.9052508315
 10
-5.4440635247
 20
-2.0538144319
 10
-5.2705273956
 20
-2.1959701647
 10
-5.0873445086
 20
-2.3313283909
 10
-4.8950169553
 20
-2.4595181031
 10
-4.6940718921
 20
-2.5801879422
 10
-4.4850600955
 20
-2.6930071604
 10
-4.2685544523
 20
-2.7976665283
 10
-4.0451483894
 20
-2.8938791817
 10
-3.8154542473
 20
-2.9813814084
 10
-3.5801016017
 20
-3.0599333709
 10
-3.3397355378
 20
-3.1293197638
 10
-3.0950148823
 20
-3.1893504037
 10
-2.8466103975
 20
-3.2398607509
 10
-2.5952029428
 20
-3.28071236
 10
-2.3414816086
 20
-3.3117932596
 10
-2.0861418274
 20
-3.3330182591
 10
-1.8298834679
 20
-3.3443291822
 10
-1.5734089163
 20
-3.3456950265
 10
-1.3174211516
 20
-3.3371120483
 10
-1.0626218184
 20
-3.318603773
 10
-0.8097093041
 20
-3.2902209304
 10
-0.5593768242
 20
-3.252041316
 10
-0.3123105227
 20
-3.2041695774
 10
-0.0691875911
 20
-3.1467369277
 10
0.1693255876
 20
-3.0799007858
 10
0.4025752651
 20
-3.003844345
 10
0.6299221206
 20
-2.9187760707
 10
0.8507430119
 20
-2.824929129
 10
1.0644326844
 20
-2.722560748
 10
1.2704054295
 20
-2.6119515123
 10
1.4680966903
 20
-2.493404594
 10
1.6569646088
 20
-2.3672449221
 10
1.836491511
 20
-2.2338182914
 10
2.0061853264
 20
-2.093490415
  0
LWPOLYLINE
  5
22C
100
AcDbEntity
  8
0
100
AcDbPolyline
 62
250
  6
CONTINUOUS
 90
54
 70
0
 10
-6.7311766776
 20
0.8533950498
 10
-6.7191568094
 20
0.6771769931
 10
-6.6958436638
 20
0.5014376272
 10
-6.6612900526
 20
0.3265750582
 10
-6.6155742507
 20
0.1529854061
 10
-6.5587998193
 20
-0.0189380926
 10
-6.4910953706
 20
-0.188805976
 10
-6.412614277
 20
-0.3562334387
 10
-6.3235343235
 20
-0.5208412036
 10
-6.2240573047
 20
-0.6822563811
 10
-6.1144085682
 20
-0.8401133141
 10
-5.9948365035
 20
-0.9940544057
 10
-5.8656119798
 20
-1.1437309299
 10
-5.7270277324
 20
-1.2888038212
 10
-5.579397699
 20
-1.4289444429
 10
-5.4230563091
 20
-1.5638353313
 10
-5.2583577264
 20
-1.6931709153
 10
-5.085675046
 20
-1.8166582081
 10
-4.9053994498
 20
-1.9340174713
 10
-4.71793932
 20
-2.0449828483
 10
-4.523719314
 20
-2.1493029671
 10
-4.3231794027
 20
-2.2467415088
 10
-4.1167738734
 20
-2.337077744
 10
-3.9049703011
 20
-2.4201070319
 10
-3.688248489
 20
-2.4956412845
 10
-3.4670993816
 20
-2.5635093924
 10
-3.2420239529
 20
-2.6235576126
 10
-3.0135320711
 20
-2.6756499165
 10
-2.7821413438
 20
-2.7196682983
 10
-2.5483759454
 20
-2.7555130422
 10
-2.3127654296
 20
-2.7831029484
 10
-2.0758435302
 20
-2.8023755167
 10
-1.8381469515
 20
-2.8132870887
 10
-1.6002141525
 20
-2.8158129461
 10
-1.3625841277
 20
-2.809947367
 10
-1.1257951854
 20
-2.7957036389
 10
-0.8903837289
 20
-2.7731140285
 10
-0.6568830407
 20
-2.7422297083
 10
-0.425822075
 20
-2.7031206414
 10
-0.1977242592
 20
-2.6558754223
 10
0.0268936917
 20
-2.6006010768
 10
0.2475229459
 20
-2.5374228189
 10
0.4636637071
 20
-2.4664837677
 10
0.674826347
 20
-2.387944623
 10
0.8805325143
 20
-2.3019833012
 10
1.0803162184
 20
-2.2087945324
 10
1.2737248849
 20
-2.108589419
 10
1.460320381
 20
-2.001594958
 10
1.6396800079
 20
-1.8880535261
 10
1.8113974583
 20
-1.7682223313
 10
1.9750837369
 20
-1.6423728297
 10
2.1303680418
 20
-1.5107901109
 10
2.276898604
 20
-1.3737722522
 10
2.4143434846
 20
-1.2316296429
  0
LWPOLYLINE
  5
22D
100
AcDbEntity
  8
0
100
AcDbPolyline
 62
7
  6
CONTINUOUS
 90
46
 70
0
 10
-6.7318618849
 20
1.0301934671
 10
-6.7306573392
 20
0.8135632048
 10
-6.7146558448
 20
0.5960886999
 10
-6.6836929622
 20
0.3785438018
 10
-6.6377281281
 20
0.1619405494
 10
-6.5767063893
 20
-0.0531702462
 10
-6.5003920627
 20
-0.2666988963
 10
-6.4084195526
 20
-0.4785225379
 10
-6.3010217651
 20
-0.6871598937
 10
-6.1790546711
 20
-0.8906087083
 10
-6.0434226783
 20
-1.0875029082
 10
-5.8940747047
 20
-1.278039296
 10
-5.7305074448
 20
-1.4626329168
 10
-5.5520644648
 20
-1.6414636306
 10
-5.3597859946
 20
-1.8129531176
 10
-5.1558652091
 20
-1.9750351991
 10
-4.9416616061
 20
-2.126847142
 10
-4.7171620929
 20
-2.2685812107
 10
-4.4828111518
 20
-2.4000052563
 10
-4.238773147
 20
-2.5209859237
 10
-3.9861484425
 20
-2.6309163855
 10
-3.7269230725
 20
-2.7290035656
 10
-3.4623853354
 20
-2.8149527716
 10
-3.1928471623
 20
-2.8888281062
 10
-2.9189600649
 20
-2.9505441386
 10
-2.641316726
 20
-3.0000153543
 10
-2.3608930931
 20
-3.0370955017
 10
-2.0789467797
 20
-3.0616706404
 10
-1.7964621022
 20
-3.0737309655
 10
-1.5140526879
 20
-3.073306971
 10
-1.2324311965
 20
-3.0604203026
 10
-0.9521739237
 20
-3.0350798548
 10
-0.6742793076
 20
-2.9973393932
 10
-0.4000638606
 20
-2.9473735489
 10
-0.1304906649
 20
-2.8853874761
 10
0.1339207147
 20
-2.8115113174
 10
0.3925670014
 20
-2.7258793001
 10
0.6452567763
 20
-2.6284452119
 10
0.8907081362
 20
-2.5195691475
 10
1.1268397456
 20
-2.4001901096
 10
1.3524398858
 20
-2.2711171008
 10
1.5676968454
 20
-2.132426753
 10
1.7727288803
 20
-1.9840681777
 10
1.9671524521
 20
-1.8262202565
 10
2.1501746423
 20
-1.6594030234
 10
2.3212258322
 20
-1.4840160267
  0
LWPOLYLINE
  5
22E
100
AcDbEntity
  8
0
100
AcDbPolyline
 62
250
  6
CONTINUOUS
 90
55
 70
0
 10
-6.5559890684
 20
7.2333424036
 10
-6.5553038611
 20
7.0565439863
 10
-6.5432839929
 20
6.8803259296
 10
-6.5199708473
 20
6.7045865636
 10
-6.4854172361
 20
6.5297239946
 10
-6.4397014342
 20
6.3561343426
 10
-6.3829270028
 20
6.1842108439
 10
-6.3152225541
 20
6.0143429605
 10
-6.2367414605
 20
5.8469154978
 10
-6.147661507
 20
5.6823077329
 10
-6.0481844882
 20
5.5208925553
 10
-5.9385357517
 20
5.3630356224
 10
-5.818963687
 20
5.2090945308
 10
-5.6897391633
 20
5.0594180066
 10
-5.5511549159
 20
4.9143451152
 10
-5.4035248825
 20
4.7742044936
 10
-5.2471834926
 20
4.6393136051
 10
-5.0824849099
 20
4.5099780212
 10
-4.9098022295
 20
4.3864907284
 10
-4.7295266333
 20
4.2691314652
 10
-4.5420665035
 20
4.1581660881
 10
-4.3478464975
 20
4.0538459694
 10
-4.1473065862
 20
3.9564074276
 10
-3.9409010569
 20
3.8660711925
 10
-3.7290974846
 20
3.7830419046
 10
-3.5123756725
 20
3.707507652
 10
-3.2912265651
 20
3.639639544
 10
-3.0661511364
 20
3.5795913238
 10
-2.8376592546
 20
3.5274990199
 10
-2.6062685273
 20
3.4834806381
 10
-2.3725031289
 20
3.4476358942
 10
-2.1368926131
 20
3.4200459881
 10
-1.8999707137
 20
3.4007734198
 10
-1.662274135
 20
3.3898618478
 10
-1.424341336
 20
3.3873359904
 10
-1.1867113112
 20
3.3932015694
 10
-0.9499223689
 20
3.4074452975
 10
-0.7145109124
 20
3.430034908
 10
-0.4810102242
 20
3.4609192282
 10
-0.2499492585
 20
3.5000282951
 10
-0.0218514427
 20
3.5472735141
 10
0.2027665082
 20
3.6025478597
 10
0.4233957624
 20
3.6657261176
 10
0.6395365236
 20
3.7366651688
 10
0.8506991635
 20
3.8152043135
 10
1.0564053308
 20
3.9011656353
 10
1.2561890349
 20
3.9943544041
 10
1.4495977014
 20
4.0945595174
 10
1.6361931975
 20
4.2015539785
 10
1.8155528244
 20
4.3150954103
 10
1.9872702748
 20
4.4349266052
 10
2.1509565534
 20
4.5607761068
 10
2.3062408583
 20
4.6923588255
 10
2.4527714205
 20
4.8293766843
 10
2.5902163011
 20
4.9715192935
  0
LWPOLYLINE
  5
22F
100
AcDbEntity
  8
0
100
AcDbPolyline
 62
7
  6
CONTINUOUS
 90
45
 70
0
 10
-6.4608740117
 20
-1.7615764105
 10
-6.4604271971
 20
-1.9054659998
 10
-6.4473951273
 20
-2.0833361429
 10
-6.4207986139
 20
-2.2598094514
 10
-6.3810316537
 20
-2.4340324304
 10
-6.3284091736
 20
-2.6058010987
 10
-6.2634340973
 20
-2.7743426798
 10
-6.1871632618
 20
-2.9380473186
 10
-6.100382118
 20
-3.0965081521
 10
-6.0038117073
 20
-3.2494911893
 10
-5.8988802761
 20
-3.395828731
 10
-5.7863763214
 20
-3.5355535076
 10
-5.667317138
 20
-3.6684057384
 10
-5.5439002618
 20
-3.7930413156
 10
-5.4175550753
 20
-3.9092960258
 10
-5.2889786555
 20
-4.0176855138
 10
-5.1594939585
 20
-4.1181115188
 10
-5.0303520848
 20
-4.2106439835
 10
-4.902100728
 20
-4.2958508363
 10
-4.7748918884
 20
-4.3744062056
 10
-4.6494602708
 20
-4.4465760804
 10
-4.5263366475
 20
-4.5127326506
 10
-4.4051562289
 20
-4.573614356
 10
-4.2864065908
 20
-4.6294702577
 10
-4.1704501001
 20
-4.6806023502
 10
-4.0565537775
 20
-4.7277013124
 10
-3.9450246871
 20
-4.770965991
 10
-3.8361030807
 20
-4.8106206326
 10
-3.7288152434
 20
-4.8472576281
 10
-3.6233540547
 20
-4.8810116654
 10
-3.5198679214
 20
-4.9120360837
 10
-3.4172111944
 20
-4.9408154267
 10
-3.3150850907
 20
-4.9675266802
 10
-3.2139885658
 20
-4.9921348468
 10
-3.1139230792
 20
-5.0147354719
 10
-3.0145301014
 20
-5.0354949578
 10
-2.9163312438
 20
-5.0543837698
 10
-2.8206586759
 20
-5.0712595991
 10
-2.7280543768
 20
-5.086189821
 10
-2.6381466109
 20
-5.0993864518
 10
-2.5509031831
 20
-5.11097597
 10
-2.4664366829
 20
-5.1210739011
 10
-2.3847493771
 20
-5.1298054396
 10
-2.3056299161
 20
-5.1372925111
 10
-2.2343048389
 20
-5.1432338209
  0
LINE
  5
230
100
AcDbEntity
  8
0
100
AcDbLine
 62
7
  6
CONTINUOUS
 10
-6.7318618849
 20
1.0301934671
 11
-6.5559890684
 21
7.2333424036
  0
LINE
  5
231
100
AcDbEntity
  8
0
100
AcDbLine
 62
7
  6
CONTINUOUS
 10
-6.4608738617
 20
-1.761571121
 11
-6.431560395
 21
-0.727666031
  0
LWPOLYLINE
  5
232
100
AcDbEntity
  8
0
100
AcDbPolyline
 62
7
  6
CONTINUOUS
 90
29
 70
0
 10
-6.1748397503
 20
-2.9605498325
 10
-6.1565964312
 20
-3.0542860773
 10
-6.1095586541
 20
-3.2229719971
 10
-6.0486177943
 20
-3.3899307787
 10
-5.973994225
 20
-3.5543893989
 10
-5.8860583543
 20
-3.7155302769
 10
-5.7849655606
 20
-3.8730618993
 10
-5.6705840946
 20
-4.0269808067
 10
-5.5427666711
 20
-4.1770970068
 10
-5.4020576039
 20
-4.3224131376
 10
-5.2494548431
 20
-4.4617508188
 10
-5.0856219304
 20
-4.5945046702
 10
-4.9109552588
 20
-4.7203498955
 10
-4.7263171676
 20
-4.838667003
 10
-4.5329027485
 20
-4.9487859778
 10
-4.3308741753
 20
-5.0507047394
 10
-4.1194459801
 20
-5.1447179867
 10
-3.89839625
 20
-5.2306415152
 10
-3.6690143186
 20
-5.3076963208
 10
-3.4327342533
 20
-5.3752416947
 10
-3.1901940174
 20
-5.4329942881
 10
-2.942223315
 20
-5.4806558273
 10
-2.690719135
 20
-5.5178380971
 10
-2.4371274397
 20
-5.5444203774
 10
-2.1816751339
 20
-5.5604712409
 10
-1.9244687345
 20
-5.5659900662
 10
-1.6660659692
 20
-5.56091556
 10
-1.4074965487
 20
-5.5452211456
 10
-1.1495532342
 20
-5.5189214769
  0
LWPOLYLINE
  5
233
100
AcDbEntity
  8
0
100
AcDbPolyline
 62
7
  6
CONTINUOUS
 90
8
 70
0
 10
-6.3729503009
 20
-4.8665381248
 10
-6.3752834122
 20
-5.0046553079
 10
-6.3651057124
 20
-5.1730851278
 10
-6.341907081
 20
-5.3411291529
 10
-6.3057684265
 20
-5.5081166578
 10
-6.2568214896
 20
-5.6734824282
 10
-6.1952097218
 20
-5.8367660193
 10
-6.1211220582
 20
-5.9974638061
  0
LWPOLYLINE
  5
234
100
AcDbEntity
  8
0
100
AcDbPolyline
 62
7
  6
CONTINUOUS
 90
9
 70
0
 10
-6.3382573553
 20
-3.6505342973
 10
-6.3406415651
 20
-3.7906614495
 10
-6.3292559812
 20
-3.9675544306
 10
-6.3035712545
 20
-4.1436447541
 10
-6.2636765956
 20
-4.318505156
 10
-6.2097049681
 20
-4.4915576728
 10
-6.1418430218
 20
-4.6621983035
 10
-6.0602575588
 20
-4.8299626642
 10
-5.9651452214
 20
-4.9943492865
  0
LWPOLYLINE
  5
235
100
AcDbEntity
  8
0
100
AcDbPolyline
 62
7
  6
CONTINUOUS
 90
37
 70
0
 10
-6.4080178339
 20
-6.0853121185
 10
-6.4089280218
 20
-6.0972455067
 10
-6.408218778
 20
-6.2717425528
 10
-6.3935352942
 20
-6.4460836866
 10
-6.3649344563
 20
-6.619665606
 10
-6.322533549
 20
-6.791857309
 10
-6.2664694533
 20
-6.9621464574
 10
-6.196864582
 20
-7.1301101258
 10
-6.1138460269
 20
-7.2953099944
 10
-6.0176991938
 20
-7.4570619971
 10
-5.9088687601
 20
-7.6145968844
 10
-5.7878792978
 20
-7.7672214648
 10
-5.6550178242
 20
-7.9146297764
 10
-5.5104078496
 20
-8.056641271
 10
-5.3542176946
 20
-8.1929557035
 10
-5.1871015061
 20
-8.3228739788
 10
-5.0099661064
 20
-8.4456534874
 10
-4.8236798231
 20
-8.5607349733
 10
-4.6285991588
 20
-8.667937132
 10
-4.4249201862
 20
-8.7671195856
 10
-4.212962907
 20
-8.8580303916
 10
-3.9936352938
 20
-8.9401859276
 10
-3.7680416721
 20
-9.0131363603
 10
-3.5371324654
 20
-9.0765870296
 10
-3.3014242813
 20
-9.1304077434
 10
-3.0614167777
 20
-9.1744633266
 10
-2.8182341833
 20
-9.2085346622
 10
-2.5722614916
 20
-9.2325548832
 10
-2.3228520237
 20
-9.2464618992
 10
-2.0699543334
 20
-9.2499946958
 10
-1.8151596431
 20
-9.2428653464
 10
-1.5602917648
 20
-9.2249711047
 10
-1.3061138476
 20
-9.1962700099
 10
-1.0535291024
 20
-9.1567677735
 10
-0.8045443575
 20
-9.1067640137
 10
-0.5601499157
 20
-9.0465377817
 10
-0.320878776
 20
-8.9763026868
  0
LWPOLYLINE
  5
236
100
AcDbEntity
  8
0
100
AcDbPolyline
 62
7
  6
CONTINUOUS
 90
13
 70
0
 10
-6.4248733006
 20
-2.2327730718
 10
-6.4376814302
 20
-2.285378936
 10
-6.4691712566
 20
-2.4773791623
 10
-6.4857840848
 20
-2.6705390693
 10
-6.487501487
 20
-2.8640378703
 10
-6.4743744919
 20
-3.0571727548
 10
-6.4464900655
 20
-3.2493003143
 10
-6.4040265431
 20
-3.4395518752
 10
-6.3471621718
 20
-3.6273790822
 10
-6.2759078938
 20
-3.8126617471
 10
-6.1904035758
 20
-3.994781966
 10
-6.0908605047
 20
-4.1730755524
 10
-5.9772410004
 20
-4.3473486604
  0
LWPOLYLINE
  5
237
100
AcDbEntity
  8
0
100
AcDbPolyline
 62
250
  6
CONTINUOUS
 90
37
 70
0
 10
-5.4947551302
 20
-2.0077293945
 10
-5.4189640227
 20
-2.0843738315
 10
-5.2638877367
 20
-2.2253576564
 10
-5.0992054917
 20
-2.3602605457
 10
-4.9253686704
 20
-2.48871274
 10
-4.7428537473
 20
-2.6103621607
 10
-4.5521609833
 20
-2.7248753753
 10
-4.3538130539
 20
-2.831938511
 10
-4.148353617
 20
-2.9312581152
 10
-3.9363458226
 20
-3.0225619598
 10
-3.7183707694
 20
-3.1055997872
 10
-3.4950259118
 20
-3.1801439965
 10
-3.2669234226
 20
-3.2459902673
 10
-3.0346885148
 20
-3.3029581195
 10
-2.7989577282
 20
-3.3508914081
 10
-2.5603771845
 20
-3.3896587514
 10
-2.3196008163
 20
-3.4191538908
 10
-2.077288575
 20
-3.4392959822
 10
-1.8341046216
 20
-3.4500298174
 10
-1.5907155063
 20
-3.4513259757
 10
-1.3477883418
 20
-3.4431809046
 10
-1.1059889746
 20
-3.425616929
 10
-0.86598016
 20
-3.3986821907
 10
-0.6284197454
 20
-3.3624505158
 10
-0.3939588674
 20
-3.3170212128
 10
-0.163240167
 20
-3.2625188004
 10
0.0631039719
 20
-3.1990926657
 10
0.2844531557
 20
-3.1269166556
 10
0.5002006818
 20
-3.0461885993
 10
0.7097552011
 20
-2.9571297669
 10
0.9125423393
 20
-2.8599842625
 10
1.1080062709
 20
-2.7550183551
 10
1.2956112428
 20
-2.642519749
 10
1.474843043
 20
-2.522796795
 10
1.6452104095
 20
-2.3961776455
 10
1.8062463771
 20
-2.2630093546
 10
1.8505672306
 20
-2.2221784102
  0
LWPOLYLINE
  5
238
100
AcDbEntity
  8
0
100
AcDbPolyline
 62
7
  6
CONTINUOUS
 90
11
 70
0
 10
-6.46377961
 20
-4.5446092897
 10
-6.5072442013
 20
-4.7243817025
 10
-6.5381339999
 20
-4.9130532809
 10
-6.5546689795
 20
-5.1030474848
 10
-6.5567599953
 20
-5.2945338796
 10
-6.5441988991
 20
-5.4867739968
 10
-6.5168381733
 20
-5.6790255871
 10
-6.4743566573
 20
-5.8714380812
 10
-6.4164124054
 20
-6.0635409765
 10
-6.3428809299
 20
-6.2542432886
 10
-6.2703645273
 20
-6.4100205725
  0
LWPOLYLINE
  5
239
100
AcDbEntity
  8
0
100
AcDbPolyline
 62
7
  6
CONTINUOUS
 90
12
 70
0
 10
-6.4287236507
 20
-3.3289001202
 10
-6.4643653556
 20
-3.4665058635
 10
-6.4987020949
 20
-3.6578855232
 10
-6.5182658291
 20
-3.8512951671
 10
-6.5228586721
 20
-4.0458100755
 10
-6.5124007169
 20
-4.240471791
 10
-6.4869071648
 20
-4.4344852915
 10
-6.4464511236
 20
-4.6271204854
 10
-6.3911939911
 20
-4.8175552363
 10
-6.3213903481
 20
-5.0049725858
 10
-6.2372523388
 20
-5.1888502703
 10
-6.1388916974
 20
-5.3688589485
  0
LWPOLYLINE
  5
23A
100
AcDbEntity
  8
0
100
AcDbPolyline
 62
7
  6
CONTINUOUS
 90
11
 70
0
 10
-6.4976559824
 20
-5.7659079193
 10
-6.5291699621
 20
-5.8839637581
 10
-6.5648443347
 20
-6.0741477005
 10
-6.5858914641
 20
-6.2660760606
 10
-6.592187288
 20
-6.4588607297
 10
-6.5837034134
 20
-6.6517377302
 10
-6.5604740926
 20
-6.843968491
 10
-6.5226186143
 20
-7.0347117134
 10
-6.4703568737
 20
-7.2231185408
 10
-6.403885994
 20
-7.4086730516
 10
-6.3233024843
 20
-7.5910887437
  0
LWPOLYLINE
  5
23B
100
AcDbEntity
  8
0
100
AcDbPolyline
 62
7
  6
CONTINUOUS
 90
27
 70
0
 10
2.6325135629
 20
-6.677349714
 10
2.6358301128
 20
-6.7014400276
 10
2.6485123762
 20
-6.8768017631
 10
2.6493074071
 20
-7.0607943869
 10
2.6366329174
 20
-7.2509076747
 10
2.6100916661
 20
-7.4409264416
 10
2.5699185373
 20
-7.6288436395
 10
2.5158918559
 20
-7.8155027078
 10
2.4484800363
 20
-7.9990726276
 10
2.3682380006
 20
-8.1784684136
 10
2.2753046418
 20
-8.3537379649
 10
2.1697657241
 20
-8.5247930532
 10
2.0517292705
 20
-8.6913828831
 10
1.921714296
 20
-8.8527095126
 10
1.7804812644
 20
-9.0078939951
 10
1.6287962352
 20
-9.1562748839
 10
1.4669865748
 20
-9.2976998486
 10
1.2952227742
 20
-9.4320838974
 10
1.1137876486
 20
-9.5591921854
 10
0.9234832236
 20
-9.678451218
 10
0.7252910971
 20
-9.7892980893
 10
0.5201062039
 20
-9.8913449868
 10
0.3084130132
 20
-9.9844594825
 10
0.0906365833
 20
-10.068513804
 10
-0.1326123743
 20
-10.1433053637
 10
-0.3605184104
 20
-10.208598829
 10
-0.59234378
 20
-10.2642262693
  0
LINE
  5
23C
100
AcDbEntity
  8
0
100
AcDbLine
 62
7
  6
CONTINUOUS
 10
2.8372130912
 20
-1.9608567089
 11
2.8647640802
 21
-0.9891153589
  0
LINE
  5
23D
100
AcDbEntity
  8
0
100
AcDbLine
 62
7
  6
CONTINUOUS
 10
3.2641213051
 20
0.7467855181
 11
3.4399941216
 21
6.9499344546
  0
LWPOLYLINE
  5
23E
100
AcDbEntity
  8
0
100
AcDbPolyline
 62
250
  6
CONTINUOUS
 90
13
 70
0
 10
3.4399941216
 20
6.9499344546
 10
3.4293855477
 20
6.7744576285
 10
3.4074647924
 20
6.5991984586
 10
3.3742956681
 20
6.4250548236
 10
3.3299533134
 20
6.2524212148
 10
3.274538178
 20
6.081688703
 10
3.208175795
 20
5.9132440521
 10
3.1310164967
 20
5.7474688435
 10
3.0432350735
 20
5.5847386114
 10
2.9450303788
 20
5.425421992
 10
2.8366248776
 20
5.2698798887
 10
2.7182641433
 20
5.1184646545
 10
2.5902163011
 20
4.9715192935
  0
LWPOLYLINE
  5
23F
100
AcDbEntity
  8
0
100
AcDbPolyline
 62
250
  6
CONTINUOUS
 90
12
 70
0
 10
3.2535127312
 20
0.571308692
 10
3.2315919759
 20
0.3960495221
 10
3.1984228516
 20
0.2219058871
 10
3.1540804969
 20
0.0492722784
 10
3.0986653615
 20
-0.1214602335
 10
3.0323029785
 20
-0.2899048843
 10
2.9551436802
 20
-0.4556800929
 10
2.867362257
 20
-0.6184103251
 10
2.7691575623
 20
-0.7777269445
 10
2.6607520611
 20
-0.9332690477
 10
2.5423913268
 20
-1.084684282
 10
2.4143434846
 20
-1.2316296429
  0
LWPOLYLINE
  5
240
100
AcDbEntity
  8
0
100
AcDbPolyline
 62
7
  6
CONTINUOUS
 90
11
 70
0
 10
3.1294314746
 20
-0.0828818576
 10
3.1123894278
 20
-0.2156833936
 10
3.0748213123
 20
-0.4031893745
 10
3.024025934
 20
-0.5888117364
 10
2.9601425195
 20
-0.7720417012
 10
2.8833461687
 20
-0.9523770485
 10
2.7938473751
 20
-1.1293234914
 10
2.6918914487
 20
-1.3023960322
 10
2.5777578436
 20
-1.471120291
 10
2.4517593921
 20
-1.6350338064
 10
2.3142414471
 20
-1.7936873028
  0
LWPOLYLINE
  5
241
100
AcDbEntity
  8
0
100
AcDbPolyline
 62
7
  6
CONTINUOUS
 90
12
 70
0
 10
2.4658572774
 20
-1.3175097224
 10
2.5988228425
 20
-1.1458541082
 10
2.7199433278
 20
-0.9695619812
 10
2.8290302956
 20
-0.7892282473
 10
2.9260220203
 20
-0.6053094629
 10
3.0109268136
 20
-0.4181273636
 10
3.0836195182
 20
-0.2283194739
 10
3.1440845853
 20
-0.0363631393
 10
3.1924090409
 20
0.1576502571
 10
3.228551784
 20
0.353310004
 10
3.2524477137
 20
0.549881727
 10
3.2641213051
 20
0.7467855181
  0
LINE
  5
242
100
AcDbEntity
  8
0
100
AcDbLine
 62
7
  6
CONTINUOUS
 10
2.3212258322
 20
-1.4840160267
 11
2.4658572774
 21
-1.3175097224
  0
LINE
  5
243
100
AcDbEntity
  8
0
100
AcDbLine
 62
7
  6
CONTINUOUS
 10
2.1655809358
 20
-1.946645922
 11
2.3142414471
 21
-1.7936873028
  0
LINE
  5
244
100
AcDbEntity
  8
0
100
AcDbLine
 62
7
  6
CONTINUOUS
 10
2.0061853264
 20
-2.093490415
 11
2.1655809358
 21
-1.946645922
  0
LWPOLYLINE
  5
245
100
AcDbEntity
  8
0
100
AcDbPolyline
 62
7
  6
CONTINUOUS
 90
46
 70
0
 10
3.4399941216
 20
6.9499344546
 10
3.439876075
 20
7.1862769676
 10
3.426026458
 20
7.4235225272
 10
3.3982963585
 20
7.660821492
 10
3.3567880711
 20
7.8964548835
 10
3.3014260061
 20
8.1304331223
 10
3.2314565323
 20
8.3644082864
 10
3.1460356004
 20
8.598785933
 10
3.0453561016
 20
8.831077972
 10
2.9301778496
 20
9.0586483023
 10
2.8011922164
 20
9.2799261668
 10
2.6583458091
 20
9.4948546606
 10
2.5014971259
 20
9.7032799538
 10
2.3305687158
 20
9.9047945681
 10
2.1461806765
 20
10.098202992
 10
1.9491824152
 20
10.2823313686
 10
1.7398394044
 20
10.456710119
 10
1.518700811
 20
10.6206478294
 10
1.2871389103
 20
10.7730106103
 10
1.0449584779
 20
10.9138094486
 10
0.7932170378
 20
11.0422613639
 10
0.5354200808
 20
11.1567263238
 10
0.2732179083
 20
11.2569327919
 10
0.0060641375
 20
11.3434514362
 10
-0.2656917291
 20
11.4163351274
 10
-0.5427894614
 20
11.4757619903
 10
-0.8237372856
 20
11.5213066384
 10
-1.1047472298
 20
11.5525133483
 10
-1.3843431002
 20
11.5696225374
 10
-1.6632222655
 20
11.5729871518
 10
-1.9407832266
 20
11.5627613012
 10
-2.2175936183
 20
11.5389522509
 10
-2.4923833539
 20
11.5016144482
 10
-2.7617935702
 20
11.4513641116
 10
-3.0239942555
 20
11.3889760253
 10
-3.2802479685
 20
11.3145182842
 10
-3.5318120906
 20
11.2276851767
 10
-3.7806516387
 20
11.1274571225
 10
-4.0238508499
 20
11.0145888935
 10
-4.2555232052
 20
10.8920653455
 10
-4.4721197095
 20
10.7628752346
 10
-4.6771977793
 20
10.626005673
 10
-4.8754132975
 20
10.4785497551
 10
-5.067670977
 20
10.3192515534
 10
-5.2517135577
 20
10.149331779
 10
-5.4268582906
 20
9.968916716
  0
LWPOLYLINE
  5
246
100
AcDbEntity
  8
0
100
AcDbPolyline
 62
7
  6
CONTINUOUS
 90
12
 70
0
 10
2.0437802714
 20
-3.9115131406
 10
2.1714947933
 20
-3.7548002442
 10
2.2891431411
 20
-3.5928470707
 10
2.39632431
 20
-3.4260122173
 10
2.4926976155
 20
-3.254601494
 10
2.5778626224
 20
-3.0790785472
 10
2.6514083912
 20
-2.9000780338
 10
2.7131306062
 20
-2.7178690321
 10
2.7627299633
 20
-2.5330669806
 10
2.7998883731
 20
-2.3468810119
 10
2.824560257
 20
-2.1601294071
 10
2.8372130912
 20
-1.9608567089
  0
LWPOLYLINE
  5
247
100
AcDbEntity
  8
0
100
AcDbPolyline
 62
7
  6
CONTINUOUS
 90
20
 70
0
 10
0.1374242161
 20
-8.8078057287
 10
0.3552253123
 20
-8.7103544329
 10
0.5660281932
 20
-8.6039703883
 10
0.7692883979
 20
-8.4888764096
 10
0.9642517057
 20
-8.3654468505
 10
1.1510008799
 20
-8.2335090346
 10
1.329225375
 20
-8.0930265832
 10
1.497815065
 20
-7.9446046222
 10
1.6556700563
 20
-7.7890510958
 10
1.8023250238
 20
-7.6267167136
 10
1.9371838673
 20
-7.4581474533
 10
2.0592549484
 20
-7.2846194163
 10
2.1680578962
 20
-7.1070872194
 10
2.2636509193
 20
-6.9257626675
 10
2.3460102999
 20
-6.7408696281
 10
2.41495155
 20
-6.5529311605
 10
2.4703040364
 20
-6.3625489696
 10
2.5120036877
 20
-6.1700399477
 10
2.5399236175
 20
-5.9760336075
 10
2.5501467196
 20
-5.8344423718
  0
LWPOLYLINE
  5
248
100
AcDbEntity
  8
0
100
AcDbPolyline
 62
7
  6
CONTINUOUS
 90
3
 70
0
 10
-0.320878776
 20
-8.9763026868
 10
-0.0879478578
 20
-8.8965224206
 10
0.1374242161
 20
-8.8078057287
  0
LWPOLYLINE
  5
249
100
AcDbEntity
  8
0
100
AcDbPolyline
 62
7
  6
CONTINUOUS
 90
23
 70
0
 10
-0.59234378
 20
-10.2642262693
 10
-0.3511130363
 20
-10.1932542618
 10
-0.1162910495
 20
-10.1125604885
 10
0.1114491332
 20
-10.0225194498
 10
0.3312501759
 20
-9.923636847
 10
0.5427628881
 20
-9.8162425832
 10
0.7460686182
 20
-9.7003958955
 10
0.9404839857
 20
-9.5765406067
 10
1.1255673024
 20
-9.4450166007
 10
1.3016107008
 20
-9.3055668235
 10
1.4682431181
 20
-9.1582912218
 10
1.6245711536
 20
-9.0037744436
 10
1.7700077914
 20
-8.8424212409
 10
1.9041927665
 20
-8.6744022183
 10
2.0263753604
 20
-8.5004098012
 10
2.1355997464
 20
-8.3217435701
 10
2.2314621939
 20
-8.1392296086
 10
2.3138978504
 20
-7.953184291
 10
2.3827065592
 20
-7.764228758
 10
2.4377313885
 20
-7.5730523999
 10
2.4789310966
 20
-7.3801289551
 10
2.5062960361
 20
-7.1857526567
 10
2.5151446033
 20
-7.0575256036
  0
ENDSEC
  0
SECTION
  2
OBJECTS
  0
DICTIONARY
  5
C
100
AcDbDictionary
280
0
281
1
  3
ACAD_GROUP
350
D
  3
ACAD_MLINESTYLE
350
17
  3
ACAD_LAYOUT
350
1A
  3
ACAD_PLOTSETTINGS
350
19
  3
ACAD_PLOTSTYLENAME
350
E
  0
DICTIONARY
  5
D
102
{ACAD_REACTORS
330
C
102
}
100
AcDbDictionary
280
0
281
1
  0
ACDBDICTIONARYWDFLT
  5
E
102
{ACAD_REACTORS
330
C
102
}
100
AcDbDictionary
281
1
  3
Normal
350
F
100
AcDbDictionaryWithDefault
340
F
  0
DICTIONARY
  5
17
102
{ACAD_REACTORS
330
C
102
}
100
AcDbDictionary
280
0
281
1
  3
Standard
350
18
  0
DICTIONARY
  5
19
102
{ACAD_REACTORS
330
C
102
}
100
AcDbDictionary
281
1
  0
DICTIONARY
  5
1A
102
{ACAD_REACTORS
330
C
102
}
100
AcDbDictionary
281
1
  3
Model
350
24A
  3
Layout1
350
24B
  0
ACDBPLACEHOLDER
  5
F
102
{ACAD_REACTORS
330
E
102
}
  0
MLINESTYLE
  5
18
102
{ACAD_REACTORS
330
17
102
}
100
AcDbMlineStyle
  2
STANDARD
 70
0
  3

 62
256
 51
90.0
 52
90.0
 71
2
 49
0.5
 62
256
  6
BYLAYER
 49
-0.5
 62
256
  6
BYLAYER
  0
LAYOUT
  5
24A
102
{ACAD_REACTORS
330
1A
102
}
100
AcDbPlotSettings
  1

  2
none_device
  4
ISO_A4_(297.00_x_210.00_MM)
  6

 40
0.0
 41
0.0
 42
0.0
 43
0.0
 44
297.0
 45
210.0
 46
0.0
 47
0.0
 48
0.0
 49
0.0
140
0.0
141
0.0
142
1.0
143
1.0
 70
1024
 72
1
 73
0
 74
0
  7

 75
0
147
1.0
148
0.0
149
0.0
100
AcDbLayout
  1
Model
 70
0
 71
0
 10
0.0
 20
0.0
 11
297.0
 21
210.0
 12
0.0
 22
0.0
 32
0.0
 14
0.0
 24
0.0
 34
0.0
 15
0.0
 25
0.0
 35
0.0
146
0.0
 13
0.0
 23
0.0
 33
0.0
 16
1.0
 26
0.0
 36
0.0
 17
0.0
 27
1.0
 37
0.0
 76
0
330
207
345
0
346
0
  0
LAYOUT
  5
24B
102
{ACAD_REACTORS
330
1A
102
}
100
AcDbPlotSettings
  1

  2
none_device
  4
ISO_A4_(297.00_x_210.00_MM)
  6

 40
0.0
 41
0.0
 42
0.0
 43
0.0
 44
297.0
 45
210.0
 46
0.0
 47
0.0
 48
0.0
 49
0.0
140
0.0
141
0.0
142
1.0
143
1.0
 70
0
 72
1
 73
0
 74
0
  7

 75
0
147
1.0
148
0.0
149
0.0
100
AcDbLayout
  1
Layout1
 70
0
 71
1
 10
0.0
 20
0.0
 11
297.0
 21
210.0
 12
0.0
 22
0.0
 32
0.0
 14
0.0
 24
0.0
 34
0.0
 15
0.0
 25
0.0
 35
0.0
146
0.0
 13
0.0
 23
0.0
 33
0.0
 16
1.0
 26
0.0
 36
0.0
 17
0.0
 27
1.0
 37
0.0
 76
0
330
208
345
0
346
0
  0
ENDSEC
  0
EOF
