  0
SECTION
  2
HEADER
  9
$ACADVER
  1
AC1015
  9
$DWGCODEPAGE
  3
ANSI_1252
  9
$EXTMAX
 10
297.0
 20
210.0
 30
0.0
  9
$EXTMIN
 10
0.0
 20
0.0
 30
0.0
  9
$LIMMIN
 10
0.0
 20
0.0
  9
$LIMMAX
 10
297.0
 20
210.0
  9
$VIEWCTR
 10
148.5
 20
105.0
  9
$VIEWSIZE
 40
210.0
  9
$CLAYER
  8
0
  9
$LTSCALE
 40
16.335
  9
$CELTYPE
  6
BYLAYER
  9
$DIMSCALE
 40
1.0
  9
$DIMASZ
 40
3.0
  9
$DIMEXO
 40
1.85625
  9
$DIMDLI
 40
11.286
  9
$DIMEXE
 40
5.346
  9
$DIMCEN
 40
2.673
  9
$DIMLFAC
 40
1.0
  9
$DIMBLK
  1
_FILLED
  9
$DIMTXT
 40
3.0
  9
$DIMTOL
 70
1
  9
$DIMLIM
 70
0
  9
$DIMTFAC
 40
1.0
  9
$DIMTP
 40
0.01
  9
$DIMTM
 40
0.01
  9
$PDMODE
 70
3
  9
$PDSIZE
 40
3.0
  9
$HANDSEED
  5
2BE
  9
$TILEMODE
 70
1
  9
$MEASUREMENT
 70
1
  9
$INSUNITS
 70
4
  0
ENDSEC
  0
SECTION
  2
CLASSES
  0
CLASS
  1
ACDBDICTIONARYWDFLT
  2
AcDbDictionaryWithDefault
  3
AutoCAD 2000
 90
0
280
0
281
0
  0
CLASS
  1
ACDBPLACEHOLDER
  2
AcDbPlaceHolder
  3
AutoCAD 2000
 90
0
280
0
281
0
  0
CLASS
  1
LAYOUT
  2
AcDbLayout
  3
AutoCAD 2000
 90
0
280
0
281
0
  0
ENDSEC
  0
SECTION
  2
TABLES
  0
TABLE
  2
VPORT
  5
8
100
AcDbSymbolTable
 70
2
  0
VPORT
  5
1F4
100
AcDbSymbolTableRecord
100
AcDbViewportTableRecord
  2
*ACTIVE
 70
0
 10
0.0
 20
0.0
 11
1.0
 21
1.0
 12
148.5
 22
105.0
 13
0.0
 23
0.0
 14
1.0
 24
1.0
 15
0.0
 25
0.0
 16
0.0
 26
0.0
 36
1.0
 17
0.0
 27
0.0
 37
0.0
 40
210.0
 41
1.4142857143
 42
50.0
 43
0.0
 44
0.0
 50
0.0
 51
0.0
 71
0
 72
100
 73
1
 74
1
 75
0
 76
0
 77
0
 78
0
  0
ENDTAB
  0
TABLE
  2
LTYPE
  5
5
100
AcDbSymbolTable
 70
6
  0
LTYPE
  5
14
100
AcDbSymbolTableRecord
100
AcDbLinetypeTableRecord
  2
BYBLOCK
 70
0
  3

 72
65
 73
0
 40
0.0
  0
LTYPE
  5
15
100
AcDbSymbolTableRecord
100
AcDbLinetypeTableRecord
  2
BYLAYER
 70
0
  3

 72
65
 73
0
 40
0.0
  0
LTYPE
  5
16
100
AcDbSymbolTableRecord
100
AcDbLinetypeTableRecord
  2
CONTINUOUS
 70
64
  3
Solid line
 72
65
 73
0
 40
0.0
  0
LTYPE
  5
1F5
100
AcDbSymbolTableRecord
100
AcDbLinetypeTableRecord
  2
CENTER
 70
64
  3
____ _ ____ _ ____ _ ____ _ ____ _ ____ _ ____
 72
65
 73
4
 40
0.6
 49
0.375
 74
0
 49
-0.075
 74
0
 49
0.075
 74
0
 49
-0.075
 74
0
  0
LTYPE
  5
1F6
100
AcDbSymbolTableRecord
100
AcDbLinetypeTableRecord
  2
HIDDEN
 70
64
  3
- - - - - - - - - - - - - - - - - - - -
 72
65
 73
2
 40
0.2
 49
0.1
 74
0
 49
-0.1
 74
0
  0
LTYPE
  5
1F7
100
AcDbSymbolTableRecord
100
AcDbLinetypeTableRecord
  2
PHANTOM
 70
64
  3
_____ _ _ _____ _ _ _____ _ _ _____
 72
65
 73
6
 40
0.8
 49
0.45
 74
0
 49
-0.05
 74
0
 49
0.1
 74
0
 49
-0.05
 74
0
 49
0.1
 74
0
 49
-0.05
 74
0
  0
LTYPE
  5
1F8
100
AcDbSymbolTableRecord
100
AcDbLinetypeTableRecord
  2
DOT
 70
64
  3
. . . . . . . . . . . . . . . . . . . .
 72
65
 73
2
 40
0.2
 49
0.1
 74
0
 49
-0.1
 74
0
  0
LTYPE
  5
1F9
100
AcDbSymbolTableRecord
100
AcDbLinetypeTableRecord
  2
DASHED
 70
64
  3
- - - - - - - - - - - - - - - - - - - -
 72
65
 73
2
 40
0.2
 49
0.1
 74
0
 49
-0.1
 74
0
  0
ENDTAB
  0
TABLE
  2
LAYER
  5
2
100
AcDbSymbolTable
 70
36
  0
LAYER
  5
10
100
AcDbSymbolTableRecord
100
AcDbLayerTableRecord
  2
0
 70
0
 62
7
  6
CONTINUOUS
370
-3
390
F
  0
LAYER
  5
1FA
100
AcDbSymbolTableRecord
100
AcDbLayerTableRecord
  2
DEFAULT_1
 70
0
 62
7
  6
CENTER
370
-3
390
F
  0
LAYER
  5
1FB
100
AcDbSymbolTableRecord
100
AcDbLayerTableRecord
  2
DEFAULT_2
 70
0
 62
7
  6
HIDDEN
370
-3
390
F
  0
LAYER
  5
1FC
100
AcDbSymbolTableRecord
100
AcDbLayerTableRecord
  2
DEFAULT_3
 70
0
 62
7
  6
PHANTOM
370
-3
390
F
  0
LAYER
  5
1FD
100
AcDbSymbolTableRecord
100
AcDbLayerTableRecord
  2
ASSI
 70
0
 62
7
  6
CONTINUOUS
370
-3
390
F
  0
LAYER
  5
1FE
100
AcDbSymbolTableRecord
100
AcDbLayerTableRecord
  2
COORDINATE
 70
0
 62
7
  6
CONTINUOUS
370
-3
390
F
  0
LAYER
  5
1FF
100
AcDbSymbolTableRecord
100
AcDbLayerTableRecord
  2
COORD_ORIGINE
 70
0
 62
7
  6
CONTINUOUS
370
-3
390
F
  0
LAYER
  5
200
100
AcDbSymbolTableRecord
100
AcDbLayerTableRecord
  2
COPY_PUBLISH
 70
0
 62
7
  6
CONTINUOUS
370
-3
390
F
  0
LAYER
  5
201
100
AcDbSymbolTableRecord
100
AcDbLayerTableRecord
  2
COSMETIC
 70
0
 62
7
  6
CONTINUOUS
370
-3
390
F
  0
LAYER
  5
202
100
AcDbSymbolTableRecord
100
AcDbLayerTableRecord
  2
CURVE
 70
0
 62
7
  6
CONTINUOUS
370
-3
390
F
  0
LAYER
  5
203
100
AcDbSymbolTableRecord
100
AcDbLayerTableRecord
  2
DRAFT
 70
0
 62
7
  6
CONTINUOUS
370
-3
390
F
  0
LAYER
  5
204
100
AcDbSymbolTableRecord
100
AcDbLayerTableRecord
  2
IGES
 70
0
 62
7
  6
CONTINUOUS
370
-3
390
F
  0
LAYER
  5
205
100
AcDbSymbolTableRecord
100
AcDbLayerTableRecord
  2
IMPORT_IGES
 70
0
 62
7
  6
CONTINUOUS
370
-3
390
F
  0
LAYER
  5
206
100
AcDbSymbolTableRecord
100
AcDbLayerTableRecord
  2
INTF_6
 70
0
 62
7
  6
CONTINUOUS
370
-3
390
F
  0
LAYER
  5
207
100
AcDbSymbolTableRecord
100
AcDbLayerTableRecord
  2
NOTE
 70
0
 62
7
  6
CONTINUOUS
370
-3
390
F
  0
LAYER
  5
208
100
AcDbSymbolTableRecord
100
AcDbLayerTableRecord
  2
PIANI
 70
0
 62
7
  6
CONTINUOUS
370
-3
390
F
  0
LAYER
  5
209
100
AcDbSymbolTableRecord
100
AcDbLayerTableRecord
  2
PIANI_ORIGINE
 70
0
 62
7
  6
CONTINUOUS
370
-3
390
F
  0
LAYER
  5
20A
100
AcDbSymbolTableRecord
100
AcDbLayerTableRecord
  2
PIANI_RIFERIMENTO
 70
0
 62
7
  6
CONTINUOUS
370
-3
390
F
  0
LAYER
  5
20B
100
AcDbSymbolTableRecord
100
AcDbLayerTableRecord
  2
PUNTI
 70
0
 62
7
  6
CONTINUOUS
370
-3
390
F
  0
LAYER
  5
20C
100
AcDbSymbolTableRecord
100
AcDbLayerTableRecord
  2
RACCORDO
 70
0
 62
7
  6
CONTINUOUS
370
-3
390
F
  0
LAYER
  5
20D
100
AcDbSymbolTableRecord
100
AcDbLayerTableRecord
  2
SMUSSO
 70
0
 62
7
  6
CONTINUOUS
370
-3
390
F
  0
LAYER
  5
20E
100
AcDbSymbolTableRecord
100
AcDbLayerTableRecord
  2
SUPERFICI
 70
0
 62
7
  6
CONTINUOUS
370
-3
390
F
  0
LAYER
  5
20F
100
AcDbSymbolTableRecord
100
AcDbLayerTableRecord
  2
TRASH
 70
0
 62
7
  6
CONTINUOUS
370
-3
390
F
  0
LAYER
  5
210
100
AcDbSymbolTableRecord
100
AcDbLayerTableRecord
  2
XSEC_DATUMS
 70
0
 62
7
  6
CONTINUOUS
370
-3
390
F
  0
ENDTAB
  0
TABLE
  2
STYLE
  5
3
100
AcDbSymbolTable
 70
1
  0
STYLE
  5
11
100
AcDbSymbolTableRecord
100
AcDbTextStyleTableRecord
  2
STANDARD
 70
0
 40
0.0
 41
0.8
 50
0.0
 71
0
 42
0.2
  3
txt
  4

  0
STYLE
  5
211
100
AcDbSymbolTableRecord
100
AcDbTextStyleTableRecord
  2
TEXTSTYLE_1
 70
0
 40
0.0
 41
0.8
 50
0.0
 71
0
 42
0.2
  3
gdt
  4

  0
ENDTAB
  0
TABLE
  2
VIEW
  5
6
100
AcDbSymbolTable
 70
0
  0
ENDTAB
  0
TABLE
  2
UCS
  5
7
100
AcDbSymbolTable
 70
0
  0
ENDTAB
  0
TABLE
  2
APPID
  5
9
100
AcDbSymbolTable
 70
1
  0
APPID
  5
212
100
AcDbSymbolTableRecord
100
AcDbRegAppTableRecord
  2
ACAD
 70
0
  0
ENDTAB
  0
TABLE
  2
BLOCK_RECORD
  5
1
100
AcDbSymbolTable
 70
0
  0
BLOCK_RECORD
  5
213
100
AcDbSymbolTableRecord
100
AcDbBlockTableRecord
  2
*Model_Space
  0
BLOCK_RECORD
  5
214
100
AcDbSymbolTableRecord
100
AcDbBlockTableRecord
  2
*Paper_Space
  0
ENDTAB
  0
TABLE
  2
DIMSTYLE
  5
A
100
AcDbSymbolTable
 70
1
100
AcDbDimStyleTable
 71
0
  0
DIMSTYLE
105
215
100
AcDbSymbolTableRecord
100
AcDbDimStyleTableRecord
  2
STANDARD
 70
0
  3

  4

 40
1.0
 41
3.0
 42
0.0625
 43
0.38
 44
0.18
 45
0.0
 46
0.0
 47
0.01
 48
0.01
140
3.0
141
0.09
142
0.0
143
25.4
144
1.0
145
0.0
146
1.0
147
0.09
 71
1.0
 72
0.0
 73
0
 74
0
 75
0
 76
0
 77
1
 78
8
170
0
171
2
172
0
173
0
174
0
175
0
176
0
177
0
178
0
270
2
271
2
272
2
273
2
274
2
275
0
280
0
281
0
282
0
283
1
284
8
285
0
286
0
287
3
288
0
340
11
  0
ENDTAB
  0
ENDSEC
  0
SECTION
  2
BLOCKS
  0
BLOCK
  5
20
100
AcDbEntity
  8
0
100
AcDbBlockBegin
  2
*Model_Space
 70
0
 10
0.0
 20
0.0
 30
0.0
  3
*Model_Space
  1

  0
ENDBLK
  5
21
100
AcDbEntity
  8
0
100
AcDbBlockEnd
  0
BLOCK
  5
1C
100
AcDbEntity
  8
0
100
AcDbBlockBegin
  2
*Paper_Space
 70
0
 10
0.0
 20
0.0
 30
0.0
  3
*Paper_Space
  1

  0
ENDBLK
  5
1D
100
AcDbEntity
  8
0
100
AcDbBlockEnd
  0
ENDSEC
  0
SECTION
  2
ENTITIES
  0
LWPOLYLINE
  5
216
100
AcDbEntity
  8
RACCORDO
100
AcDbPolyline
 62
7
  6
CONTINUOUS
 90
16
 70
0
 10
-9.8157116819
 20
12.1470120159
 10
-9.8369058676
 20
12.1343484584
 10
-9.8566620841
 20
12.1210219762
 10
-9.8749854002
 20
12.1070948681
 10
-9.8919330866
 20
12.0925919729
 10
-9.907577416
 20
12.0775055485
 10
-9.921927658
 20
12.0618729874
 10
-9.9349857147
 20
12.04574287
 10
-9.9467727388
 20
12.0291360163
 10
-9.9572742727
 20
12.012119538
 10
-9.9664945378
 20
11.9947443152
 10
-9.9744550241
 20
11.9770227334
 10
-9.9811435033
 20
11.9590321449
 10
-9.9865590401
 20
11.9408379707
 10
-9.9907182717
 20
11.9224437167
 10
-9.9936193071
 20
11.9039029026
  0
LWPOLYLINE
  5
217
100
AcDbEntity
  8
ASSI
100
AcDbPolyline
 62
7
  6
CONTINUOUS
 90
11
 70
0
 10
-9.8048965088
 20
12.1529063128
 10
-9.8179709203
 20
12.1457345027
 10
-9.8505320432
 20
12.1253303627
 10
-9.8802630571
 20
12.1027606301
 10
-9.9070313058
 20
12.0780637916
 10
-9.930552763
 20
12.0514538794
 10
-9.9506998487
 20
12.02305686
 10
-9.9673082759
 20
11.9930678956
 10
-9.9801065306
 20
11.962077215
 10
-9.9890352637
 20
11.9305909183
 10
-9.9941844768
 20
11.8988912395
  0
LINE
  5
218
100
AcDbEntity
  8
RACCORDO
100
AcDbLine
 62
7
  6
CONTINUOUS
 10
-9.8049635235
 20
12.1528708978
 11
-9.8157116819
 21
12.1470120159
  0
LINE
  5
219
100
AcDbEntity
  8
RACCORDO
100
AcDbLine
 62
7
  6
CONTINUOUS
 10
-9.8049399942
 20
12.1528838553
 11
-6.1861353396
 21
14.0659404033
  0
LINE
  5
21A
100
AcDbEntity
  8
ASSI
100
AcDbLine
 62
7
  6
CONTINUOUS
 10
-9.8049399942
 20
12.1528838553
 11
-6.1861353396
 21
14.0659404033
  0
LINE
  5
21B
100
AcDbEntity
  8
RACCORDO
100
AcDbLine
 62
253
  6
CONTINUOUS
 10
-9.7127027259
 20
12.1486515383
 11
-6.0951617738
 21
14.0610400385
  0
LINE
  5
21C
100
AcDbEntity
  8
ASSI
100
AcDbLine
 62
253
  6
CONTINUOUS
 10
-9.7127027259
 20
12.1486515383
 11
-6.0951617738
 21
14.0610400385
  0
LINE
  5
21D
100
AcDbEntity
  8
DRAFT
100
AcDbLine
 62
7
  6
CONTINUOUS
 10
-4.3715649472
 20
12.274541944
 11
-5.4385503635
 21
11.5887409222
  0
LINE
  5
21E
100
AcDbEntity
  8
ASSI
100
AcDbLine
 62
7
  6
CONTINUOUS
 10
-4.3715649472
 20
12.274541944
 11
-5.4385503635
 21
11.5887409222
  0
LINE
  5
21F
100
AcDbEntity
  8
DRAFT
100
AcDbLine
 62
7
  6
CONTINUOUS
 10
-4.3715649472
 20
13.1992416252
 11
-6.307293809
 21
12.0231126449
  0
LINE
  5
220
100
AcDbEntity
  8
ASSI
100
AcDbLine
 62
7
  6
CONTINUOUS
 10
-4.3715649472
 20
13.1992416252
 11
-6.307293809
 21
12.0231126449
  0
LINE
  5
221
100
AcDbEntity
  8
ASSI
100
AcDbLine
 62
7
  6
CONTINUOUS
 10
-9.9941844768
 20
11.8988912395
 11
-9.995665671
 21
11.87005238
  0
LWPOLYLINE
  5
222
100
AcDbEntity
  8
RACCORDO
100
AcDbPolyline
 62
7
  6
CONTINUOUS
 90
3
 70
0
 10
-9.9936193071
 20
11.9039029026
 10
-9.9952580197
 20
11.885317065
 10
-9.9956657366
 20
11.8701136595
  0
LWPOLYLINE
  5
223
100
AcDbEntity
  8
RACCORDO
100
AcDbPolyline
 62
7
  6
CONTINUOUS
 90
19
 70
0
 10
5.8133343708
 20
-13.9087099954
 10
5.8506378508
 20
-13.9245279978
 10
5.8888083342
 20
-13.9387002238
 10
5.9278014572
 20
-13.9511885709
 10
5.9676074889
 20
-13.9619640203
 10
6.0081696334
 20
-13.9709825399
 10
6.0494198809
 20
-13.978204153
 10
6.091337503
 20
-13.9835991671
 10
6.1338620683
 20
-13.9871309113
 10
6.176928288
 20
-13.9887656102
 10
6.2205156218
 20
-13.9884748144
 10
6.2645601756
 20
-13.9862298904
 10
6.3090046045
 20
-13.9820040461
 10
6.3538485405
 20
-13.9757632805
 10
6.3990415163
 20
-13.9674787819
 10
6.444524949
 20
-13.9571249959
 10
6.4902976479
 20
-13.9446607415
 10
6.5363252699
 20
-13.9300497892
 10
6.5825314004
 20
-13.9132724656
  0
LWPOLYLINE
  5
224
100
AcDbEntity
  8
ASSI
100
AcDbPolyline
 62
7
  6
CONTINUOUS
 90
10
 70
0
 10
5.7803858518
 20
-13.8930216344
 10
5.8373207341
 20
-13.9191100944
 10
5.912283994
 20
-13.9464530742
 10
5.9902495773
 20
-13.9672370775
 10
6.0708124564
 20
-13.9811982735
 10
6.1537505743
 20
-13.988125909
 10
6.2386101369
 20
-13.9877881291
 10
6.3249205562
 20
-13.9800155794
 10
6.4125682848
 20
-13.9646108235
 10
6.5012989376
 20
-13.9413582184
  0
LINE
  5
225
100
AcDbEntity
  8
RACCORDO
100
AcDbLine
 62
7
  6
CONTINUOUS
 10
-9.2479502946
 20
-6.3737903171
 11
-9.2101457805
 21
-6.3964812117
  0
LWPOLYLINE
  5
226
100
AcDbEntity
  8
ASSI
100
AcDbPolyline
 62
7
  6
CONTINUOUS
 90
12
 70
0
 10
-9.7000627666
 20
-5.5226351336
 10
-9.6900820161
 20
-5.6266263352
 10
-9.6729654929
 20
-5.7261095269
 10
-9.6489709312
 20
-5.8208015403
 10
-9.6183138187
 20
-5.9105693006
 10
-9.5811576769
 20
-5.9953085368
 10
-9.5377462683
 20
-6.0746945264
 10
-9.4883539011
 20
-6.1484016187
 10
-9.4332610455
 20
-6.2161500038
 10
-9.3728781675
 20
-6.2775430217
 10
-9.3076979531
 20
-6.3322161719
 10
-9.2382700787
 20
-6.3798519888
  0
LWPOLYLINE
  5
227
100
AcDbEntity
  8
RACCORDO
100
AcDbPolyline
 62
7
  6
CONTINUOUS
 90
22
 70
0
 10
-9.7018801217
 20
-5.4836134216
 10
-9.6996924816
 20
-5.5286373865
 10
-9.6948843394
 20
-5.5861316727
 10
-9.6879088729
 20
-5.6422181564
 10
-9.6788172916
 20
-5.6968459336
 10
-9.6676580681
 20
-5.7499998565
 10
-9.6544692636
 20
-5.8016800611
 10
-9.6392930651
 20
-5.851856861
 10
-9.6221756055
 20
-5.900492011
 10
-9.6031568785
 20
-5.947557132
 10
-9.5822832012
 20
-5.9930096267
 10
-9.5596055675
 20
-6.036808012
 10
-9.5351765826
 20
-6.0789085214
 10
-9.5090577666
 20
-6.1192569572
 10
-9.4813113528
 20
-6.1578115458
 10
-9.4520019055
 20
-6.1945316319
 10
-9.4212045026
 20
-6.2293671794
 10
-9.3890002491
 20
-6.2622716117
 10
-9.3554770642
 20
-6.2932032781
 10
-9.3207266678
 20
-6.3221240747
 10
-9.284847344
 20
-6.3489977154
 10
-9.2479502946
 20
-6.3737903171
  0
LINE
  5
228
100
AcDbEntity
  8
ASSI
100
AcDbLine
 62
7
  6
CONTINUOUS
 10
-9.7018794331
 20
-5.4836338567
 11
-9.7000627666
 21
-5.5226351336
  0
LWPOLYLINE
  5
229
100
AcDbEntity
  8
RACCORDO
100
AcDbPolyline
 62
7
  6
CONTINUOUS
 90
3
 70
0
 10
-9.7900292699
 20
-2.6220554632
 10
-9.7477021462
 20
-4.0608043806
 10
-9.7018805233
 20
-5.4836096268
  0
LWPOLYLINE
  5
22A
100
AcDbEntity
  8
RACCORDO
100
AcDbPolyline
 62
7
  6
CONTINUOUS
 90
10
 70
0
 10
-9.9929183553
 20
10.4242653385
 10
-9.9862052207
 20
8.966195036
 10
-9.9755341846
 20
7.5102053996
 10
-9.9609053251
 20
6.056314782
 10
-9.942318816
 20
4.6045394305
 10
-9.9197748421
 20
3.1548948984
 10
-9.8932736149
 20
1.707397315
 10
-9.8628154158
 20
0.2620626741
 10
-9.828400525
 20
-1.181093669
 10
-9.7900292699
 20
-2.6220554632
  0
LWPOLYLINE
  5
22B
100
AcDbEntity
  8
ASSI
100
AcDbPolyline
 62
7
  6
CONTINUOUS
 90
10
 70
0
 10
-9.9956657895
 20
11.8701543129
 10
-9.9912818864
 20
9.9772603095
 10
-9.9797429529
 20
8.0226273067
 10
-9.9610816502
 20
6.0717593078
 10
-9.935298343
 20
4.1246972841
 10
-9.9023934971
 20
2.1814797676
 10
-9.8623676913
 20
0.2421445775
 10
-9.8152216268
 20
-1.6932698684
 10
-9.7609562149
 20
-3.624722529
 10
-9.7018805232
 20
-5.4836096296
  0
LINE
  5
22C
100
AcDbEntity
  8
RACCORDO
100
AcDbLine
 62
7
  6
CONTINUOUS
 10
-9.9956657895
 20
11.8701543105
 11
-9.9929183553
 21
10.4242653385
  0
LINE
  5
22D
100
AcDbEntity
  8
RACCORDO
100
AcDbLine
 62
7
  6
CONTINUOUS
 10
5.7812799665
 20
-13.8934699464
 11
5.8133343708
 21
-13.9087099954
  0
LINE
  5
22E
100
AcDbEntity
  8
RACCORDO
100
AcDbLine
 62
7
  6
CONTINUOUS
 10
5.7813939694
 20
-13.8935271914
 11
-9.1710074803
 21
-6.4173264665
  0
LINE
  5
22F
100
AcDbEntity
  8
ASSI
100
AcDbLine
 62
7
  6
CONTINUOUS
 10
5.7813939694
 20
-13.8935271914
 11
-9.1710074803
 21
-6.4173264665
  0
LINE
  5
230
100
AcDbEntity
  8
RACCORDO
100
AcDbLine
 62
7
  6
CONTINUOUS
 10
5.7812687158
 20
-13.8934645476
 11
5.7813871191
 21
-13.8935237662
  0
LINE
  5
231
100
AcDbEntity
  8
RACCORDO
100
AcDbLine
 62
253
  6
CONTINUOUS
 10
5.3879176519
 20
-13.1329066229
 11
-9.555417301
 21
-5.6612391469
  0
LINE
  5
232
100
AcDbEntity
  8
ASSI
100
AcDbLine
 62
253
  6
CONTINUOUS
 10
5.3879176519
 20
-13.1329066229
 11
-9.555417301
 21
-5.6612391469
  0
LINE
  5
233
100
AcDbEntity
  8
RACCORDO
100
AcDbLine
 62
7
  6
CONTINUOUS
 10
-9.2101457805
 20
-6.3964812117
 11
-9.1707976333
 21
-6.4174311256
  0
LINE
  5
234
100
AcDbEntity
  8
ASSI
100
AcDbLine
 62
7
  6
CONTINUOUS
 10
-9.2382700787
 20
-6.3798519888
 11
-9.1700384528
 21
-6.4178096348
  0
LINE
  5
235
100
AcDbEntity
  8
DRAFT
100
AcDbLine
 62
7
  6
CONTINUOUS
 10
-2.5772407416
 20
5.6205967744
 11
-2.7473818994
 21
5.5307776339
  0
LINE
  5
236
100
AcDbEntity
  8
ASSI
100
AcDbLine
 62
7
  6
CONTINUOUS
 10
-2.887288026
 20
5.5882142423
 11
-2.8860984495
 21
5.5887785308
  0
LINE
  5
237
100
AcDbEntity
  8
RACCORDO
100
AcDbLine
 62
7
  6
CONTINUOUS
 10
-2.8862084166
 20
5.5887265309
 11
-2.8860984495
 21
5.5887785308
  0
LINE
  5
238
100
AcDbEntity
  8
RACCORDO
100
AcDbLine
 62
7
  6
CONTINUOUS
 10
-2.8862204216
 20
5.58872047
 11
-2.8717342735
 21
5.5952469698
  0
LWPOLYLINE
  5
239
100
AcDbEntity
  8
ASSI
100
AcDbPolyline
 62
7
  6
CONTINUOUS
 90
25
 70
0
 10
-2.8872998533
 20
5.5882083007
 10
-2.8458784809
 20
5.6053515628
 10
-2.7777524866
 20
5.6235544455
 10
-2.7049200525
 20
5.6314800185
 10
-2.6278851546
 20
5.6289045377
 10
-2.5473949637
 20
5.6157008413
 10
-2.464262274
 20
5.591883788
 10
-2.3793418267
 20
5.5576007406
 10
-2.2936260556
 20
5.5131923239
 10
-2.20797179
 20
5.459077224
 10
-2.122958293
 20
5.395566452
 10
-2.0393618675
 20
5.3231423977
 10
-1.9580954396
 20
5.2425192359
 10
-1.8798373549
 20
5.154308094
 10
-1.8052960297
 20
5.0592315104
 10
-1.7352351499
 20
4.9582020064
 10
-1.6703258175
 20
4.8521557964
 10
-1.6111658114
 20
4.7420613214
 10
-1.5582937051
 20
4.6289326878
 10
-1.5121875922
 20
4.5138317653
 10
-1.4732471374
 20
4.3978350192
 10
-1.4417852697
 20
4.2820023912
 10
-1.418041889
 20
4.1674140349
 10
-1.4021747591
 20
4.0551478769
 10
-1.3942485542
 20
3.94622926
  0
LINE
  5
23A
100
AcDbEntity
  8
RACCORDO
100
AcDbLine
 62
7
  6
CONTINUOUS
 10
-2.8717342735
 20
5.5952469698
 11
-2.8422413076
 21
5.6066221922
  0
LWPOLYLINE
  5
23B
100
AcDbEntity
  8
RACCORDO
100
AcDbPolyline
 62
7
  6
CONTINUOUS
 90
54
 70
0
 10
-2.8422413076
 20
5.6066221922
 10
-2.8120013129
 20
5.6158364265
 10
-2.7809370872
 20
5.6229508988
 10
-2.7490835697
 20
5.6279808922
 10
-2.716511419
 20
5.6309336777
 10
-2.6831950273
 20
5.6318228979
 10
-2.6491877199
 20
5.630652641
 10
-2.6145666319
 20
5.6274283415
 10
-2.5793454941
 20
5.6221514019
 10
-2.5435935748
 20
5.6148308855
 10
-2.5073912596
 20
5.6054802243
 10
-2.4707682522
 20
5.5941024033
 10
-2.4337991962
 20
5.5807159437
 10
-2.3965655503
 20
5.5653443521
 10
-2.3591027463
 20
5.547994573
 10
-2.3214851986
 20
5.5286939967
 10
-2.2837935224
 20
5.5074757549
 10
-2.2460672814
 20
5.4843518881
 10
-2.2083804083
 20
5.4593586507
 10
-2.1708103157
 20
5.4325373153
 10
-2.133397688
 20
5.4039041129
 10
-2.0962067874
 20
5.3734960633
 10
-2.0593209093
 20
5.3413683231
 10
-2.0228060036
 20
5.3075645579
 10
-1.9867291621
 20
5.2721360475
 10
-1.9511651886
 20
5.2351450448
 10
-1.9161878921
 20
5.1966562054
 10
-1.8818644604
 20
5.1567353189
 10
-1.8482609831
 20
5.1154513232
 10
-1.8154456484
 20
5.0728782682
 10
-1.7834796751
 20
5.0290893197
 10
-1.7524245653
 20
4.9841634234
 10
-1.7223449478
 20
4.9381870043
 10
-1.6932964066
 20
4.8912413928
 10
-1.6653328933
 20
4.8434120572
 10
-1.6385124356
 20
4.7947946369
 10
-1.6128843442
 20
4.7454783205
 10
-1.5884932135
 20
4.6955518282
 10
-1.5653862193
 20
4.6451121434
 10
-1.5436053432
 20
4.5942543103
 10
-1.5231856123
 20
4.5430683028
 10
-1.5041613639
 20
4.4916447313
 10
-1.4865651281
 20
4.4400771005
 10
-1.4704249069
 20
4.3884600766
 10
-1.4557668945
 20
4.3368871677
 10
-1.4426135775
 20
4.2854471946
 10
-1.4309852372
 20
4.2342410717
 10
-1.4209018914
 20
4.1833818529
 10
-1.4123758597
 20
4.1329607444
 10
-1.4054145878
 20
4.0830703157
 10
-1.4000252432
 20
4.0338263953
 10
-1.3962083017
 20
3.9853272921
 10
-1.3939562384
 20
3.9376577074
 10
-1.3932947801
 20
3.9033971508
  0
LINE
  5
23C
100
AcDbEntity
  8
DRAFT
100
AcDbLine
 62
7
  6
CONTINUOUS
 10
-5.3526996544
 20
11.6439211553
 11
-5.3526996544
 21
11.5458155676
  0
LINE
  5
23D
100
AcDbEntity
  8
ASSI
100
AcDbLine
 62
7
  6
CONTINUOUS
 10
-5.3526996544
 20
11.6439211553
 11
-5.3526996544
 21
11.5458155676
  0
LINE
  5
23E
100
AcDbEntity
  8
DRAFT
100
AcDbLine
 62
7
  6
CONTINUOUS
 10
-4.3715649472
 20
13.1992416252
 11
-4.3715649472
 21
12.274541944
  0
LINE
  5
23F
100
AcDbEntity
  8
ASSI
100
AcDbLine
 62
7
  6
CONTINUOUS
 10
-4.3715649472
 20
13.1992416252
 11
-4.3715649472
 21
12.274541944
  0
LWPOLYLINE
  5
240
100
AcDbEntity
  8
RACCORDO
100
AcDbPolyline
 62
7
  6
CONTINUOUS
 90
3
 70
0
 10
-1.6526873008
 20
3.2565256484
 10
-1.6788570655
 20
3.2403082634
 10
-1.6912245509
 20
3.2335205954
  0
LINE
  5
241
100
AcDbEntity
  8
ASSI
100
AcDbLine
 62
7
  6
CONTINUOUS
 10
-1.6648576578
 20
3.2486580457
 11
-1.6921995289
 21
3.2330078097
  0
LINE
  5
242
100
AcDbEntity
  8
RACCORDO
100
AcDbLine
 62
7
  6
CONTINUOUS
 10
-1.6910476409
 20
3.2336139396
 11
-1.6912225217
 21
3.2335216627
  0
LINE
  5
243
100
AcDbEntity
  8
ASSI
100
AcDbLine
 62
7
  6
CONTINUOUS
 10
-1.6910476409
 20
3.2336139396
 11
-1.6921987842
 21
3.2330082025
  0
LINE
  5
244
100
AcDbEntity
  8
DRAFT
100
AcDbLine
 62
7
  6
CONTINUOUS
 10
-1.4819299888
 20
3.4600654393
 11
-1.6680389498
 21
3.3720917328
  0
LINE
  5
245
100
AcDbEntity
  8
DRAFT
100
AcDbLine
 62
7
  6
CONTINUOUS
 10
7.6668799059
 20
7.1800191987
 11
5.3599680806
 21
6.1894817002
  0
LINE
  5
246
100
AcDbEntity
  8
ASSI
100
AcDbLine
 62
7
  6
CONTINUOUS
 10
7.6668799059
 20
7.1800191987
 11
5.3599680806
 21
6.1894817002
  0
LINE
  5
247
100
AcDbEntity
  8
ASSI
100
AcDbLine
 62
7
  6
CONTINUOUS
 10
-1.3942485542
 20
3.94622926
 11
-1.3932950436
 21
3.9034385327
  0
LWPOLYLINE
  5
248
100
AcDbEntity
  8
RACCORDO
100
AcDbPolyline
 62
7
  6
CONTINUOUS
 90
21
 70
0
 10
-1.393294613
 20
3.9033919688
 10
-1.393420807
 20
3.8721343991
 10
-1.3948338379
 20
3.8280282125
 10
-1.3976936707
 20
3.784861917
 10
-1.4019904861
 20
3.7427412648
 10
-1.4077115351
 20
3.7017247875
 10
-1.4148492094
 20
3.6618380192
 10
-1.4233900615
 20
3.6231556575
 10
-1.4333142881
 20
3.5857544213
 10
-1.4446092844
 20
3.5496743834
 10
-1.4572529442
 20
3.5149919833
 10
-1.4712185404
 20
3.4817774468
 10
-1.4864883451
 20
3.450068853
 10
-1.5030296617
 20
3.4199383468
 10
-1.5208127235
 20
3.3914398723
 10
-1.5398293211
 20
3.3645888888
 10
-1.5600432124
 20
3.3394483824
 10
-1.5814299474
 20
3.3160579445
 10
-1.6040151135
 20
3.2944063149
 10
-1.6277696126
 20
3.2745511242
 10
-1.6526873008
 20
3.2565256484
  0
LINE
  5
249
100
AcDbEntity
  8
ASSI
100
AcDbLine
 62
7
  6
CONTINUOUS
 10
-1.3932944168
 20
3.9033670256
 11
-1.3953397122
 21
3.8184329717
  0
LWPOLYLINE
  5
24A
100
AcDbEntity
  8
ASSI
100
AcDbPolyline
 62
7
  6
CONTINUOUS
 90
9
 70
0
 10
-1.3953397122
 20
3.8184329717
 10
-1.4048255141
 20
3.721007219
 10
-1.4219116492
 20
3.6293384331
 10
-1.4464659281
 20
3.5442493795
 10
-1.4781800209
 20
3.4667965484
 10
-1.5164525161
 20
3.3980982691
 10
-1.5606048751
 20
3.3387941415
 10
-1.610167658
 20
3.2889924365
 10
-1.6648576578
 20
3.2486580457
  0
LINE
  5
24B
100
AcDbEntity
  8
RACCORDO
100
AcDbLine
 62
253
  6
CONTINUOUS
 10
9.3904767325
 20
6.3182207854
 11
5.6444034152
 21
4.4700984677
  0
LINE
  5
24C
100
AcDbEntity
  8
ASSI
100
AcDbLine
 62
253
  6
CONTINUOUS
 10
9.3904767325
 20
6.3182207854
 11
5.6444034152
 21
4.4700984677
  0
LINE
  5
24D
100
AcDbEntity
  8
RACCORDO
100
AcDbLine
 62
253
  6
CONTINUOUS
 10
9.5318980896
 20
6.0743248107
 11
5.7845811641
 21
4.2255889599
  0
LINE
  5
24E
100
AcDbEntity
  8
ASSI
100
AcDbLine
 62
253
  6
CONTINUOUS
 10
9.5318980896
 20
6.0743248107
 11
5.7845811641
 21
4.2255889599
  0
LINE
  5
24F
100
AcDbEntity
  8
RACCORDO
100
AcDbLine
 62
253
  6
CONTINUOUS
 10
5.083676248
 20
4.2262994267
 11
-9.8492071864
 21
11.6927411439
  0
LINE
  5
250
100
AcDbEntity
  8
ASSI
100
AcDbLine
 62
253
  6
CONTINUOUS
 10
5.083676248
 20
4.2262994267
 11
-9.8492071864
 21
11.6927411439
  0
LINE
  5
251
100
AcDbEntity
  8
RACCORDO
100
AcDbLine
 62
253
  6
CONTINUOUS
 10
5.2238751003
 20
4.4697062918
 11
-9.7090316301
 21
11.936159657
  0
LINE
  5
252
100
AcDbEntity
  8
ASSI
100
AcDbLine
 62
253
  6
CONTINUOUS
 10
5.2238751003
 20
4.4697062918
 11
-9.7090316301
 21
11.936159657
  0
LINE
  5
253
100
AcDbEntity
  8
DRAFT
100
AcDbLine
 62
7
  6
CONTINUOUS
 10
-6.307293809
 20
12.0231126449
 11
5.3599680806
 21
6.1894817002
  0
LINE
  5
254
100
AcDbEntity
  8
ASSI
100
AcDbLine
 62
7
  6
CONTINUOUS
 10
-6.307293809
 20
12.0231126449
 11
5.3599680806
 21
6.1894817002
  0
LINE
  5
255
100
AcDbEntity
  8
RACCORDO
100
AcDbLine
 62
7
  6
CONTINUOUS
 10
9.5318980896
 20
6.0743248107
 11
9.5318980896
 21
-5.0108201424
  0
LINE
  5
256
100
AcDbEntity
  8
ASSI
100
AcDbLine
 62
7
  6
CONTINUOUS
 10
9.5318980896
 20
6.0743248107
 11
9.5318980896
 21
-5.0108201424
  0
LINE
  5
257
100
AcDbEntity
  8
RACCORDO
100
AcDbLine
 62
7
  6
CONTINUOUS
 10
9.5318980896
 20
-5.0108201424
 11
8.9930142799
 21
-12.6853784593
  0
LINE
  5
258
100
AcDbEntity
  8
ASSI
100
AcDbLine
 62
7
  6
CONTINUOUS
 10
9.5318980896
 20
-5.0108201424
 11
8.9930142799
 21
-12.6853784593
  0
LINE
  5
259
100
AcDbEntity
  8
RACCORDO
100
AcDbLine
 62
7
  6
CONTINUOUS
 10
-6.0951617738
 20
14.0610400385
 11
-4.3715649472
 21
13.1992416252
  0
LINE
  5
25A
100
AcDbEntity
  8
ASSI
100
AcDbLine
 62
7
  6
CONTINUOUS
 10
-6.0951617738
 20
14.0610400385
 11
-4.3715649472
 21
13.1992416252
  0
LINE
  5
25B
100
AcDbEntity
  8
RACCORDO
100
AcDbLine
 62
7
  6
CONTINUOUS
 10
7.6668799059
 20
7.1800191987
 11
9.3904767325
 21
6.3182207854
  0
LINE
  5
25C
100
AcDbEntity
  8
ASSI
100
AcDbLine
 62
7
  6
CONTINUOUS
 10
7.6668799059
 20
7.1800191987
 11
9.3904767325
 21
6.3182207854
  0
LINE
  5
25D
100
AcDbEntity
  8
RACCORDO
100
AcDbLine
 62
253
  6
CONTINUOUS
 10
6.7696893988
 20
-13.618639936
 11
8.9930142799
 21
-12.6853784593
  0
LINE
  5
25E
100
AcDbEntity
  8
ASSI
100
AcDbLine
 62
253
  6
CONTINUOUS
 10
6.7696893988
 20
-13.618639936
 11
8.9930142799
 21
-12.6853784593
  0
LINE
  5
25F
100
AcDbEntity
  8
RACCORDO
100
AcDbLine
 62
7
  6
CONTINUOUS
 10
6.6158821534
 20
-13.8998356344
 11
8.8266811035
 21
-12.9718320347
  0
LINE
  5
260
100
AcDbEntity
  8
ASSI
100
AcDbLine
 62
7
  6
CONTINUOUS
 10
6.6158821534
 20
-13.8998356344
 11
8.8266811035
 21
-12.9718320347
  0
LINE
  5
261
100
AcDbEntity
  8
RACCORDO
100
AcDbLine
 62
7
  6
CONTINUOUS
 10
6.5825314004
 20
-13.9132724656
 11
6.6158682745
 21
-13.8998412538
  0
LWPOLYLINE
  5
262
100
AcDbEntity
  8
ASSI
100
AcDbPolyline
 62
7
  6
CONTINUOUS
 90
3
 70
0
 10
6.5012989376
 20
-13.9413582184
 10
6.5906005734
 20
-13.9101239189
 10
6.615700105
 20
-13.8999117376
  0
ARC
  5
263
100
AcDbEntity
  8
ASSI
100
AcDbCircle
 62
253
  6
CONTINUOUS
 10
523.1111742591
 20
4.5229625503
 40
518.0275803887
100
AcDbArc
 50
180.1137635295
 51
180.3367370449
  0
ARC
  5
264
100
AcDbEntity
  8
RACCORDO
100
AcDbCircle
 62
253
  6
CONTINUOUS
 10
516.4272669721
 20
4.4713920852
 40
510.6427009096
100
AcDbArc
 50
180.0275799125
 51
181.2598968168
  0
ARC
  5
265
100
AcDbEntity
  8
ASSI
100
AcDbCircle
 62
253
  6
CONTINUOUS
 10
516.4272669729
 20
4.4713920852
 40
510.6427009096
100
AcDbArc
 50
180.0275799125
 51
181.2598968168
  0
ARC
  5
266
100
AcDbEntity
  8
RACCORDO
100
AcDbCircle
 62
253
  6
CONTINUOUS
 10
505.9591711
 20
4.2474922098
 40
500.1722280064
100
AcDbArc
 50
181.2606210499
 51
181.9896906447
  0
ARC
  5
267
100
AcDbEntity
  8
ASSI
100
AcDbCircle
 62
253
  6
CONTINUOUS
 10
505.9591711
 20
4.2474922098
 40
500.1722280064
100
AcDbArc
 50
181.2606210499
 51
181.9896906447
  0
ARC
  5
268
100
AcDbEntity
  8
CURVE
100
AcDbCircle
 62
253
  6
CONTINUOUS
 10
-4.8593213726
 20
-4.3053265162
 40
4.5847091689
100
AcDbArc
 50
25.4028256209
 51
26.8398309212
  0
ARC
  5
269
100
AcDbEntity
  8
CURVE
100
AcDbCircle
 62
253
  6
CONTINUOUS
 10
-3.0278644224
 20
-3.9716651698
 40
2.7097830042
100
AcDbArc
 50
356.2004837146
 51
1.3068650434
  0
ARC
  5
26A
100
AcDbEntity
  8
CURVE
100
AcDbCircle
 62
253
  6
CONTINUOUS
 10
-2.6776922543
 20
-3.9930802247
 40
2.3589621408
100
AcDbArc
 50
352.4365431798
 51
356.1558816579
  0
ARC
  5
26B
100
AcDbEntity
  8
CURVE
100
AcDbCircle
 62
253
  6
CONTINUOUS
 10
-2.5191445033
 20
-4.0132208085
 40
2.199143002
100
AcDbArc
 50
350.4699183885
 51
352.4130072908
  0
ARC
  5
26C
100
AcDbEntity
  8
ASSI
100
AcDbCircle
 62
253
  6
CONTINUOUS
 10
-2.9733083785
 20
3.8542228491
 40
1.6093869689
100
AcDbArc
 50
1.7736577592
 51
4.1484313483
  0
ARC
  5
26D
100
AcDbEntity
  8
RACCORDO
100
AcDbCircle
 62
253
  6
CONTINUOUS
 10
-2.9104488798
 20
3.8565433367
 40
1.5464863614
100
AcDbArc
 50
0.4239617853
 51
2.311089802
  0
ARC
  5
26E
100
AcDbEntity
  8
ASSI
100
AcDbCircle
 62
253
  6
CONTINUOUS
 10
-2.9001364961
 20
3.8567163721
 40
1.5361729827
100
AcDbArc
 50
0.4203541752
 51
1.7651699455
  0
ARC
  5
26F
100
AcDbEntity
  8
ASSI
100
AcDbCircle
 62
253
  6
CONTINUOUS
 10
-2.8328506799
 20
3.8571324964
 40
1.4688859265
100
AcDbArc
 50
358.4706486447
 51
0.4233783041
  0
ARC
  5
270
100
AcDbEntity
  8
RACCORDO
100
AcDbCircle
 62
7
  6
CONTINUOUS
 10
-1.7469809716
 20
4.3914028821
 40
1.1007054639
100
AcDbArc
 50
237.1726665365
 51
240.9484598453
  0
ARC
  5
271
100
AcDbEntity
  8
RACCORDO
100
AcDbCircle
 62
7
  6
CONTINUOUS
 10
-1.7803881631
 20
4.331856244
 40
1.0324284262
100
AcDbArc
 50
240.9644641986
 51
243.4252663163
  0
ARC
  5
272
100
AcDbEntity
  8
RACCORDO
100
AcDbCircle
 62
253
  6
CONTINUOUS
 10
-8.9212058245
 20
-5.9188935491
 40
0.5575366565
100
AcDbArc
 50
237.2828405986
 51
239.1307429259
  0
ARC
  5
273
100
AcDbEntity
  8
RACCORDO
100
AcDbCircle
 62
253
  6
CONTINUOUS
 10
-8.9226748273
 20
-5.9213511973
 40
0.5546734408
100
AcDbArc
 50
239.1307359386
 51
240.8543340767
  0
ARC
  5
274
100
AcDbEntity
  8
ASSI
100
AcDbCircle
 62
253
  6
CONTINUOUS
 10
-8.9226748273
 20
-5.9213511973
 40
0.5546734408
100
AcDbArc
 50
239.1307359386
 51
240.8543340767
  0
ARC
  5
275
100
AcDbEntity
  8
RACCORDO
100
AcDbCircle
 62
253
  6
CONTINUOUS
 10
-8.9235742271
 20
-5.9229486082
 40
0.552840251
100
AcDbArc
 50
240.8551146843
 51
241.1322443118
  0
ARC
  5
276
100
AcDbEntity
  8
ASSI
100
AcDbCircle
 62
253
  6
CONTINUOUS
 10
-8.9246865134
 20
-5.9249830514
 40
0.5505216817
100
AcDbArc
 50
240.8531004996
 51
243.4218763643
  0
ARC
  5
277
100
AcDbEntity
  8
RACCORDO
100
AcDbCircle
 62
253
  6
CONTINUOUS
 10
-8.9248190025
 20
-5.9252387445
 40
0.550233731
100
AcDbArc
 50
241.1306241622
 51
243.4223019095
  0
ARC
  5
278
100
AcDbEntity
  8
RACCORDO
100
AcDbCircle
 62
253
  6
CONTINUOUS
 10
-2.6781653836
 20
5.1486489216
 40
0.4867731251
100
AcDbArc
 50
115.4110493643
 51
121.2294727049
  0
ARC
  5
279
100
AcDbEntity
  8
RACCORDO
100
AcDbCircle
 62
253
  6
CONTINUOUS
 10
-1.916622187
 20
3.6608343896
 40
0.4831159081
100
AcDbArc
 50
293.2646624662
 51
297.692312034
  0
ARC
  5
27A
100
AcDbEntity
  8
RACCORDO
100
AcDbCircle
 62
253
  6
CONTINUOUS
 10
-1.915881202
 20
3.659404778
 40
0.481505697
100
AcDbArc
 50
297.6932954141
 51
297.8122085731
  0
SPLINE
  5
27B
100
AcDbEntity
  8
RACCORDO
100
AcDbSpline
 62
7
  6
CONTINUOUS
 70
0
 71
3
 72
10
 73
6
 74
4
 42
0.0000001
 43
0.0000001
 44
0.0000000001
 12
0.5309507646
 22
-0.2654753776
 32
0.0
 13
0.5366819963
 23
0.2536896016
 33
0.0
 40
0.0
 40
0.0
 40
0.0
 40
0.0
 40
0.3683960887
 40
0.69741576
 40
1.0
 40
1.0
 40
1.0
 40
1.0
 10
-2.2422602373
 20
3.4085022262
 30
0.0
 10
-2.1770601756
 20
3.375902196
 30
0.0
 10
-2.0459749227
 20
3.3273225694
 30
0.0
 10
-1.8456272531
 20
3.3131201585
 30
0.0
 10
-1.7221693324
 20
3.3465042987
 30
0.0
 10
-1.6680388277
 20
3.3720917905
 30
0.0
 11
-2.2422602373
 21
3.4085022262
 31
0.0
 11
-2.0361628906
 21
3.3353710172
 31
0.0
 11
-1.8411674459
 21
3.3242382311
 31
0.0
 11
-1.6680388277
 21
3.3720917905
 31
0.0
  0
SPLINE
  5
27C
100
AcDbEntity
  8
RACCORDO
100
AcDbSpline
 62
7
  6
CONTINUOUS
 70
0
 71
3
 72
14
 73
10
 74
8
 42
0.0000001
 43
0.0000001
 44
0.0000000001
 12
-2.1334127319
 22
-1.1262489471
 32
0.0
 13
2.0328953942
 23
-1.3102034695
 33
0.0
 40
0.0
 40
0.0
 40
0.0
 40
0.0
 40
0.1126354234
 40
0.2431064815
 40
0.3946442942
 40
0.5607875776
 40
0.7319683022
 40
0.897607205
 40
1.0
 40
1.0
 40
1.0
 40
1.0
 10
-2.7473817406
 20
5.5307777177
 30
0.0
 10
-2.8274810227
 20
5.4884925421
 30
0.0
 10
-2.9762641401
 20
5.3470531393
 30
0.0
 10
-3.0840545282
 20
5.0396428713
 30
0.0
 10
-3.0853582087
 20
4.6744476971
 30
0.0
 10
-2.9881053906
 20
4.2900247157
 30
0.0
 10
-2.8058809668
 20
3.9254422777
 30
0.0
 10
-2.5827074858
 20
3.6482733346
 30
0.0
 10
-2.4130680871
 20
3.511189651
 30
0.0
 10
-2.3436834733
 20
3.4664711859
 30
0.0
 11
-2.7473817406
 21
5.5307777177
 31
0.0
 11
-2.9476640802
 21
5.3471411927
 31
0.0
 11
-3.0619891661
 21
5.0538837692
 31
0.0
 11
-3.0707251823
 21
4.6884117055
 31
0.0
 11
-2.9757392159
 21
4.2990180827
 31
0.0
 11
-2.7911870113
 21
3.9295865595
 31
0.0
 11
-2.5377974107
 21
3.6206051491
 31
0.0
 11
-2.3436834733
 21
3.4664711859
 31
0.0
  0
SPLINE
  5
27D
100
AcDbEntity
  8
RACCORDO
100
AcDbSpline
 62
253
  6
CONTINUOUS
 70
0
 71
3
 72
9
 73
5
 74
3
 42
0.0000001
 43
0.0000001
 44
0.0000000001
 12
0.3395855464
 22
0.1619021856
 32
0.0
 13
0.150727241
 23
0.3448598941
 33
0.0
 40
0.0
 40
0.0
 40
0.0
 40
0.0
 40
0.6211298308
 40
1.0
 40
1.0
 40
1.0
 40
1.0
 10
-1.6680466735
 20
3.3721220338
 30
0.0
 10
-1.5977377691
 20
3.4056427929
 30
0.0
 10
-1.4987321102
 20
3.4906357601
 30
0.0
 10
-1.4367556994
 20
3.6002153445
 30
0.0
 10
-1.4177203477
 20
3.64376772
 30
0.0
 11
-1.6680466735
 21
3.3721220338
 31
0.0
 11
-1.4890330006
 21
3.5207117002
 31
0.0
 11
-1.4177203477
 21
3.64376772
 31
0.0
  0
SPLINE
  5
27E
100
AcDbEntity
  8
RACCORDO
100
AcDbSpline
 62
253
  6
CONTINUOUS
 70
0
 71
3
 72
8
 73
4
 74
2
 42
0.0000001
 43
0.0000001
 44
0.0000000001
 12
0.0835988337
 22
-0.0417994168
 32
0.0
 13
0.0882735387
 23
-0.032464483
 33
0.0
 40
0.0
 40
0.0
 40
0.0
 40
0.0
 40
1.0
 40
1.0
 40
1.0
 40
1.0
 10
-2.2678062195
 20
3.4531287
 30
0.0
 10
-2.2399399416
 20
3.439195561
 30
0.0
 10
-2.2112086342
 20
3.4265703569
 30
0.0
 10
-2.1817841213
 20
3.4157488625
 30
0.0
 11
-2.2678062195
 21
3.4531287
 31
0.0
 11
-2.1817841213
 21
3.4157488625
 31
0.0
  0
SPLINE
  5
27F
100
AcDbEntity
  8
RACCORDO
100
AcDbSpline
 62
253
  6
CONTINUOUS
 70
0
 71
3
 72
10
 73
6
 74
4
 42
0.0000001
 43
0.0000001
 44
0.0000000001
 12
0.4497329471
 22
-0.165398916
 32
0.0
 13
0.3975809252
 23
0.2706053485
 33
0.0
 40
0.0
 40
0.0
 40
0.0
 40
0.0
 40
0.3604798126
 40
0.8430695357
 40
1.0
 40
1.0
 40
1.0
 40
1.0
 10
-2.1817841213
 20
3.4157488625
 30
0.0
 10
-2.1277442385
 20
3.3958745391
 30
0.0
 10
-1.9958905263
 20
3.3636221178
 30
0.0
 10
-1.8312293272
 20
3.3847623449
 30
0.0
 10
-1.7417318029
 20
3.4349870078
 30
0.0
 10
-1.7209342832
 20
3.4491424155
 30
0.0
 11
-2.1817841213
 21
3.4157488625
 31
0.0
 11
-2.0137144102
 21
3.3774485183
 31
0.0
 11
-1.7866068071
 21
3.4125481687
 31
0.0
 11
-1.7209342832
 21
3.4491424155
 31
0.0
  0
SPLINE
  5
280
100
AcDbEntity
  8
RACCORDO
100
AcDbSpline
 62
253
  6
CONTINUOUS
 70
0
 71
3
 72
20
 73
16
 74
14
 42
0.0000001
 43
0.0000001
 44
0.0000000001
 12
1.9147547356
 22
1.3032387614
 32
0.0
 13
-2.0512188492
 23
1.0256094246
 33
0.0
 40
0.0
 40
0.0
 40
0.0
 40
0.0
 40
0.0662565476
 40
0.172252553
 40
0.2807617212
 40
0.3876493116
 40
0.4891401078
 40
0.5827829581
 40
0.667365994
 40
0.7427209878
 40
0.8091277958
 40
0.8672357412
 40
0.9178505631
 40
0.9617902467
 40
1.0
 40
1.0
 40
1.0
 40
1.0
 10
-1.7209342832
 20
3.4491424155
 30
0.0
 10
-1.6786459371
 20
3.4779251158
 30
0.0
 10
-1.5812178257
 20
3.5724334723
 30
0.0
 10
-1.4950968853
 20
3.77473932
 30
0.0
 10
-1.4687236242
 20
4.0212117704
 30
0.0
 10
-1.4928400456
 20
4.2635532201
 30
0.0
 10
-1.5512517768
 20
4.4876798148
 30
0.0
 10
-1.6313192355
 20
4.6864937652
 30
0.0
 10
-1.723471774
 20
4.857448482
 30
0.0
 10
-1.8207891869
 20
5.0008539015
 30
0.0
 10
-1.9184761108
 20
5.1186299394
 30
0.0
 10
-2.0132847471
 20
5.2134184449
 30
0.0
 10
-2.1031391768
 20
5.2881432039
 30
0.0
 10
-2.1868492027
 20
5.3457613279
 30
0.0
 10
-2.2416806974
 20
5.3765821108
 30
0.0
 10
-2.2678062195
 20
5.3896448718
 30
0.0
 11
-1.7209342832
 21
3.4491424155
 31
0.0
 11
-1.6102923957
 21
3.5550108805
 31
0.0
 11
-1.5076359086
 21
3.7753549569
 31
0.0
 11
-1.4772362451
 21
4.0223387288
 31
0.0
 11
-1.4996820087
 21
4.2664376909
 31
0.0
 11
-1.5576703821
 21
4.4918504295
 31
0.0
 11
-1.637708953
 21
4.6911321041
 31
0.0
 11
-1.7298020493
 21
4.8618539372
 31
0.0
 11
-1.8269917928
 21
5.0047484753
 31
0.0
 11
-1.9243954563
 21
5.1218196024
 31
0.0
 11
-2.0188077139
 21
5.2158662679
 31
0.0
 11
-2.1082042026
 21
5.2899071172
 31
0.0
 11
-2.1913302863
 21
5.346865913
 31
0.0
 11
-2.2678062195
 21
5.3896448718
 31
0.0
  0
SPLINE
  5
281
100
AcDbEntity
  8
RACCORDO
100
AcDbSpline
 62
253
  6
CONTINUOUS
 70
0
 71
3
 72
22
 73
18
 74
16
 42
0.0000001
 43
0.0000001
 44
0.0000000001
 12
-2.5607350466
 22
1.2803675233
 32
0.0
 13
2.5607350466
 23
-1.2803675233
 33
0.0
 40
0.0
 40
0.0
 40
0.0
 40
0.0
 40
0.0926031929
 40
0.1728708975
 40
0.252045775
 40
0.3369516027
 40
0.4238704212
 40
0.5094903106
 40
0.590787205
 40
0.6657976871
 40
0.733551015
 40
0.7939124321
 40
0.8471061098
 40
0.8936521728
 40
0.9341960337
 40
0.9693929376
 40
1.0
 40
1.0
 40
1.0
 40
1.0
 10
-2.2678062195
 20
5.3896448718
 30
0.0
 10
-2.3468502999
 20
5.4291669121
 30
0.0
 10
-2.5074018152
 20
5.4833020896
 30
0.0
 10
-2.7569251151
 20
5.4512654013
 30
0.0
 10
-2.9443997111
 20
5.2938194923
 30
0.0
 10
-3.0405163027
 20
5.0680340403
 30
0.0
 10
-3.0668894787
 20
4.8215614526
 30
0.0
 10
-3.0427731882
 20
4.5792199885
 30
0.0
 10
-2.9843612469
 20
4.3550934489
 30
0.0
 10
-2.9042937057
 20
4.1562795487
 30
0.0
 10
-2.8121410241
 20
3.9853249035
 30
0.0
 10
-2.7148235218
 20
3.8419195318
 30
0.0
 10
-2.6171365219
 20
3.7241435285
 30
0.0
 10
-2.5223278039
 20
3.6293550835
 30
0.0
 10
-2.4324733676
 20
3.5546302896
 30
0.0
 10
-2.3487632556
 20
3.4970122507
 30
0.0
 10
-2.2939317453
 20
3.4661914629
 30
0.0
 10
-2.2678062195
 20
3.4531287
 30
0.0
 11
-2.2678062195
 21
5.3896448718
 31
0.0
 11
-2.5218968437
 21
5.465325646
 31
0.0
 11
-2.7490059544
 21
5.4302252418
 31
0.0
 11
-2.9253203068
 21
5.2877625595
 31
0.0
 11
-3.027977208
 21
5.067418276
 31
0.0
 11
-3.0583768962
 21
4.8204344918
 31
0.0
 11
-3.0359311637
 21
4.5763355142
 31
0.0
 11
-2.9779426594
 21
4.3509228411
 31
0.0
 11
-2.8979039754
 21
4.151641223
 31
0.0
 11
-2.805810754
 21
3.9809194524
 31
0.0
 11
-2.7086209155
 21
3.8380249619
 31
0.0
 11
-2.6112171718
 21
3.7209538748
 31
0.0
 11
-2.5168048452
 21
3.6269072438
 31
0.0
 11
-2.4274083345
 21
3.5528664055
 31
0.0
 11
-2.3442821725
 21
3.4959076488
 31
0.0
 11
-2.2678062195
 21
3.4531287
 31
0.0
  0
SPLINE
  5
282
100
AcDbEntity
  8
RACCORDO
100
AcDbSpline
 62
253
  6
CONTINUOUS
 70
0
 71
3
 72
10
 73
6
 74
4
 42
0.0000001
 43
0.0000001
 44
0.0000000001
 12
-0.3299144048
 22
0.0551632938
 32
0.0
 13
-0.2948151155
 23
-0.1575324314
 33
0.0
 40
0.0
 40
0.0
 40
0.0
 40
0.0
 40
0.1558001164
 40
0.902949814
 40
1.0
 40
1.0
 40
1.0
 40
1.0
 10
-2.4212719516
 20
5.5763236657
 30
0.0
 10
-2.4384055191
 20
5.5791884815
 30
0.0
 10
-2.5384701509
 20
5.5917471977
 30
0.0
 10
-2.6532757866
 20
5.5770163441
 30
0.0
 10
-2.7377898365
 20
5.5357715323
 30
0.0
 10
-2.7473271238
 20
5.5306753484
 30
0.0
 11
-2.4212719516
 21
5.5763236657
 31
0.0
 11
-2.4730441173
 21
5.5827524841
 31
0.0
 11
-2.7181942291
 21
5.544873892
 31
0.0
 11
-2.7473271238
 21
5.5306753484
 31
0.0
  0
SPLINE
  5
283
100
AcDbEntity
  8
RACCORDO
100
AcDbSpline
 62
253
  6
CONTINUOUS
 70
0
 71
3
 72
25
 73
21
 74
19
 42
0.0000001
 43
0.0000001
 44
0.0000000001
 12
-2.3248498876
 22
-1.0001863859
 32
0.0
 13
-0.0204362378
 23
2.5263069234
 33
0.0
 40
0.0
 40
0.0
 40
0.0
 40
0.0
 40
0.0267192735
 40
0.0677533337
 40
0.1107331811
 40
0.1563602845
 40
0.2050655163
 40
0.2570134971
 40
0.3121554317
 40
0.3702585293
 40
0.4309683043
 40
0.4938385151
 40
0.5583065137
 40
0.6236700999
 40
0.6892836167
 40
0.7546938874
 40
0.8193502232
 40
0.8823545119
 40
0.9428153147
 40
1.0
 40
1.0
 40
1.0
 40
1.0
 10
-1.7258015633
 20
3.2170005578
 30
0.0
 10
-1.7465076633
 20
3.2080924733
 30
0.0
 10
-1.8005792956
 20
3.1891301286
 30
0.0
 10
-1.8931384187
 20
3.1735792361
 30
0.0
 10
-2.0028660664
 20
3.1760024713
 30
0.0
 10
-2.1168825059
 20
3.1979702875
 30
0.0
 10
-2.2334660225
 20
3.2389554893
 30
0.0
 10
-2.3508794574
 20
3.2982158506
 30
0.0
 10
-2.4673533125
 20
3.3747743232
 30
0.0
 10
-2.581124405
 20
3.4674208772
 30
0.0
 10
-2.690467837
 20
3.5747282409
 30
0.0
 10
-2.7937037698
 20
3.6950536274
 30
0.0
 10
-2.8891789755
 20
3.8264854249
 30
0.0
 10
-2.9753594526
 20
3.9668998601
 30
0.0
 10
-3.0509566719
 20
4.1141737361
 30
0.0
 10
-3.1148722802
 20
4.2662387164
 30
0.0
 10
-3.1660347017
 20
4.4207504947
 30
0.0
 10
-3.2034725169
 20
4.5748803691
 30
0.0
 10
-3.2265554033
 20
4.7254403007
 30
0.0
 10
-3.2324844308
 20
4.8245190289
 30
0.0
 10
-3.2328739775
 20
4.8726743844
 30
0.0
 11
-1.7258015633
 21
3.2170005578
 31
0.0
 11
-1.7895535482
 21
3.1946057131
 31
0.0
 11
-1.8917228414
 21
3.1770417054
 31
0.0
 11
-2.0002908007
 21
3.1788986401
 31
0.0
 11
-2.1135904245
 21
3.2001305034
 31
0.0
 11
-2.2298599854
 21
3.2404082332
 31
0.0
 11
-2.3472486247
 21
3.2990943884
 31
0.0
 11
-2.4638947519
 21
3.3752584193
 31
0.0
 11
-2.5779366137
 21
3.4676817341
 31
0.0
 11
-2.687591432
 21
3.5749206486
 31
0.0
 11
-2.7911649522
 21
3.6953406242
 31
0.0
 11
-2.8869902634
 21
3.8270393848
 31
0.0
 11
-2.9734223838
 21
3.9677471952
 31
0.0
 11
-3.049119105
 21
4.1152197107
 31
0.0
 11
-3.113090904
 21
4.267586948
 31
0.0
 11
-3.1643117309
 21
4.4226956186
 31
0.0
 11
-3.2016885118
 21
4.5774184053
 31
0.0
 11
-3.2245696586
 21
4.7284424587
 31
0.0
 11
-3.2328739775
 21
4.8726743844
 31
0.0
  0
SPLINE
  5
284
100
AcDbEntity
  8
RACCORDO
100
AcDbSpline
 62
253
  6
CONTINUOUS
 70
0
 71
3
 72
11
 73
7
 74
5
 42
0.0000001
 43
0.0000001
 44
0.0000000001
 12
0.0847555746
 22
0.0449312092
 32
0.0
 13
0.085994776
 23
-0.0415064383
 33
0.0
 40
0.0
 40
0.0
 40
0.0
 40
0.0
 40
0.0328334328
 40
0.3273058314
 40
0.6454080415
 40
1.0
 40
1.0
 40
1.0
 40
1.0
 10
-9.8049389213
 20
12.1528818315
 30
0.0
 10
-9.8040113159
 20
12.1533735801
 30
0.0
 10
-9.794663254
 20
12.1580818895
 30
0.0
 10
-9.7743585533
 20
12.1634149736
 30
0.0
 10
-9.7432126688
 20
12.1609540588
 30
0.0
 10
-9.7228670779
 20
12.1535574881
 30
0.0
 10
-9.7127027259
 20
12.1486515383
 30
0.0
 11
-9.8049389213
 21
12.1528818315
 31
0.0
 11
-9.8021262782
 21
12.1542980375
 31
0.0
 11
-9.7749967803
 21
12.1616898334
 31
0.0
 11
-9.7446823297
 21
12.1597756786
 31
0.0
 11
-9.7127027259
 21
12.1486515383
 31
0.0
  0
SPLINE
  5
285
100
AcDbEntity
  8
RACCORDO
100
AcDbSpline
 62
253
  6
CONTINUOUS
 70
0
 71
3
 72
12
 73
8
 74
6
 42
0.0000001
 43
0.0000001
 44
0.0000000001
 12
0.0080563836
 22
-0.241968271
 32
0.0
 13
0.215443045
 23
-0.1079044076
 33
0.0
 40
0.0
 40
0.0
 40
0.0
 40
0.0
 40
0.0846371422
 40
0.2789746407
 40
0.492065353
 40
0.7314831739
 40
1.0
 40
1.0
 40
1.0
 40
1.0
 10
-9.701859842
 20
-5.4836127465
 30
0.0
 10
-9.7016325523
 20
-5.4904392475
 30
0.0
 10
-9.6992425414
 20
-5.5128823615
 30
0.0
 10
-9.6854588052
 20
-5.5506134117
 30
0.0
 10
-9.654262761
 20
-5.5928581354
 30
0.0
 10
-9.6100306489
 20
-5.6308077588
 30
0.0
 10
-9.5747000826
 20
-5.6515985386
 30
0.0
 10
-9.5554167217
 20
-5.6612565883
 30
0.0
 11
-9.701859842
 21
-5.4836127465
 31
0.0
 11
-9.6996830571
 21
-5.5039603276
 31
0.0
 11
-9.68411018
 21
-5.5481214638
 31
0.0
 11
-9.6542160977
 21
-5.5898667596
 31
0.0
 11
-9.6108891207
 21
-5.6279557425
 31
0.0
 11
-9.5554167217
 21
-5.6612565883
 31
0.0
  0
SPLINE
  5
286
100
AcDbEntity
  8
RACCORDO
100
AcDbSpline
 62
253
  6
CONTINUOUS
 70
0
 71
3
 72
11
 73
7
 74
5
 42
0.0000001
 43
0.0000001
 44
0.0000000001
 12
-0.5827885381
 22
17.347419697
 32
0.0
 13
-0.0096986774
 23
17.3572036503
 33
0.0
 40
0.0
 40
0.0
 40
0.0
 40
0.0
 40
0.2483879525
 40
0.4978454065
 40
0.7483799274
 40
1.0
 40
1.0
 40
1.0
 40
1.0
 10
-9.5554173092
 20
-5.6612391429
 30
0.0
 10
-9.6036698598
 20
-4.2249424563
 30
0.0
 10
-9.6882656135
 20
-1.3457435077
 30
0.0
 10
-9.779388213
 20
2.9832735402
 30
0.0
 10
-9.8350228198
 20
7.3315934766
 30
0.0
 10
-9.8483937258
 20
10.2369341963
 30
0.0
 10
-9.8492071864
 20
11.6927411439
 30
0.0
 11
-9.5554173092
 21
-5.6612391429
 31
0.0
 11
-9.6821150602
 21
-1.3517802435
 31
0.0
 11
-9.7733154174
 21
2.9771436798
 31
0.0
 11
-9.8290184715
 21
7.3253662816
 31
0.0
 11
-9.8492071864
 21
11.6927411439
 31
0.0
  0
SPLINE
  5
287
100
AcDbEntity
  8
RACCORDO
100
AcDbSpline
 62
253
  6
CONTINUOUS
 70
0
 71
3
 72
19
 73
15
 74
13
 42
0.0000001
 43
0.0000001
 44
0.0000000001
 12
0.0358343204
 22
-1.0299006361
 32
0.0
 13
0.9502173517
 23
0.3988312968
 33
0.0
 40
0.0
 40
0.0
 40
0.0
 40
0.0
 40
0.0989515448
 40
0.1924322361
 40
0.2804644318
 40
0.3634604866
 40
0.4422569605
 40
0.5180992661
 40
0.5925624004
 40
0.667392461
 40
0.7442933308
 40
0.8247208973
 40
0.9097432116
 40
1.0
 40
1.0
 40
1.0
 40
1.0
 10
6.0885017395
 20
-13.1183242679
 30
0.0
 10
6.0896836933
 20
-13.1522943542
 30
0.0
 10
6.095371768
 20
-13.2183105184
 30
0.0
 10
6.1148860288
 20
-13.3129002489
 30
0.0
 10
6.144921946
 20
-13.3989721744
 30
0.0
 10
6.1851240507
 20
-13.4751962277
 30
0.0
 10
6.2349955936
 20
-13.5403557091
 30
0.0
 10
6.293856875
 20
-13.5933161842
 30
0.0
 10
6.3607808359
 20
-13.6330836998
 30
0.0
 10
6.4345919103
 20
-13.6589227469
 30
0.0
 10
6.5139672874
 20
-13.6704485779
 30
0.0
 10
6.5975687879
 20
-13.6676031835
 30
0.0
 10
6.6840703132
 20
-13.6505861127
 30
0.0
 10
6.7411015433
 20
-13.6306390134
 30
0.0
 10
6.7696893988
 20
-13.618639936
 30
0.0
 11
6.0885017395
 21
-13.1183242679
 31
0.0
 11
6.0975697689
 21
-13.2198922001
 31
0.0
 11
6.1173822364
 21
-13.3141669135
 31
0.0
 11
6.1476401542
 21
-13.3996914467
 31
0.0
 11
6.1878836968
 21
-13.4751615601
 31
0.0
 11
6.2375048951
 21
-13.53943787
 31
0.0
 11
6.2957549512
 21
-13.5915482848
 31
0.0
 11
6.3617509292
 21
-13.6307011922
 31
0.0
 11
6.4344912945
 21
-13.6563026244
 31
0.0
 11
6.5128764909
 21
-13.6679660359
 31
0.0
 11
6.5957227464
 21
-13.6655142867
 31
0.0
 11
6.6817671282
 21
-13.6489856832
 31
0.0
 11
6.7696893988
 21
-13.618639936
 31
0.0
  0
SPLINE
  5
288
100
AcDbEntity
  8
RACCORDO
100
AcDbSpline
 62
253
  6
CONTINUOUS
 70
0
 71
3
 72
32
 73
28
 74
26
 42
0.0000001
 43
0.0000001
 44
0.0000000001
 12
-0.0268585246
 22
3.5901034385
 32
0.0
 13
0.1443713267
 23
-3.5884598174
 33
0.0
 40
0.0
 40
0.0
 40
0.0
 40
0.0
 40
0.0411212481
 40
0.0804024156
 40
0.1175156341
 40
0.1523463096
 40
0.1850591991
 40
0.2162233139
 40
0.2466172851
 40
0.2770276966
 40
0.3082022968
 40
0.3408226516
 40
0.3754183619
 40
0.4123181708
 40
0.451651834
 40
0.4933887285
 40
0.5373590991
 40
0.5833005663
 40
0.6308803482
 40
0.6796763176
 40
0.7291592866
 40
0.7788413516
 40
0.8283789517
 40
0.8773531692
 40
0.9250802582
 40
0.9708805577
 40
1.0
 40
1.0
 40
1.0
 40
1.0
 10
-3.3730476276
 20
4.872507889
 30
0.0
 10
-3.3734157796
 20
4.9217177338
 30
0.0
 10
-3.3694131667
 20
5.0180659913
 30
0.0
 10
-3.3476972578
 20
5.1573484862
 30
0.0
 10
-3.3102992652
 20
5.28553822
 30
0.0
 10
-3.2576589886
 20
5.3997584151
 30
0.0
 10
-3.1906054691
 20
5.4977663102
 30
0.0
 10
-3.1101446822
 20
5.5778729617
 30
0.0
 10
-3.0174491844
 20
5.6386624804
 30
0.0
 10
-2.9141430833
 20
5.6789032491
 30
0.0
 10
-2.8022719528
 20
5.6978674376
 30
0.0
 10
-2.6839231263
 20
5.6954429106
 30
0.0
 10
-2.5610341103
 20
5.671930876
 30
0.0
 10
-2.4354754913
 20
5.6278911761
 30
0.0
 10
-2.3091274808
 20
5.5641212828
 30
0.0
 10
-2.1838972055
 20
5.4816756025
 30
0.0
 10
-2.061677686
 20
5.3818624309
 30
0.0
 10
-1.9443143687
 20
5.2662264188
 30
0.0
 10
-1.8335988194
 20
5.1365462505
 30
0.0
 10
-1.7312894424
 20
4.9948916323
 30
0.0
 10
-1.6390131693
 20
4.8435615103
 30
0.0
 10
-1.5581316298
 20
4.6848539124
 30
0.0
 10
-1.4898026449
 20
4.5210070544
 30
0.0
 10
-1.4351555417
 20
4.3545559834
 30
0.0
 10
-1.3952151225
 20
4.1885555617
 30
0.0
 10
-1.3731890966
 20
4.0432600331
 30
0.0
 10
-1.3666217544
 20
3.9537370084
 30
0.0
 10
-1.3652204169
 20
3.9189056921
 30
0.0
 11
-3.3730476276
 21
4.872507889
 31
0.0
 11
-3.3664821572
 21
5.0199954946
 31
0.0
 11
-3.3442377511
 21
5.159257529
 31
0.0
 11
-3.3063394372
 21
5.2869982318
 31
0.0
 11
-3.2534265809
 21
5.4003010955
 31
0.0
 11
-3.1866351333
 21
5.4969057131
 31
0.0
 11
-3.1070513996
 21
5.5755492151
 31
0.0
 11
-3.0157148651
 21
5.6352562737
 31
0.0
 11
-2.9140346924
 21
5.6750221219
 31
0.0
 11
-2.8037554031
 21
5.6941342825
 31
0.0
 11
-2.6866559389
 21
5.692306676
 31
0.0
 11
-2.5645472887
 21
5.6695795548
 31
0.0
 11
-2.4393381715
 21
5.6263007546
 31
0.0
 11
-2.3130277138
 21
5.5631533828
 31
0.0
 11
-2.1876205727
 21
5.4811395926
 31
0.0
 11
-2.0651154548
 21
5.3815750642
 31
0.0
 11
-1.9474202319
 21
5.2660208096
 31
0.0
 11
-1.8363424093
 21
5.1362457273
 31
0.0
 11
-1.7336556179
 21
4.994308854
 31
0.0
 11
-1.6411062121
 21
4.8426660734
 31
0.0
 11
-1.5601137893
 21
4.683745854
 31
0.0
 11
-1.4917199192
 21
4.5195723741
 31
0.0
 11
-1.437006183
 21
4.3524745253
 31
0.0
 11
-1.397127438
 21
4.1858296881
 31
0.0
 11
-1.3727673516
 21
4.0232117157
 31
0.0
 11
-1.3652204169
 21
3.9189056921
 31
0.0
  0
SPLINE
  5
289
100
AcDbEntity
  8
RACCORDO
100
AcDbSpline
 62
253
  6
CONTINUOUS
 70
0
 71
3
 72
14
 73
10
 74
8
 42
0.0000001
 43
0.0000001
 44
0.0000000001
 12
-0.6996308843
 22
0.4494386689
 32
0.0
 13
-0.0280376488
 23
0.829627346
 33
0.0
 40
0.0
 40
0.0
 40
0.0
 40
0.0
 40
0.0451329533
 40
0.1831149597
 40
0.3272655377
 40
0.479922523
 40
0.6425933916
 40
0.8159553086
 40
1.0
 40
1.0
 40
1.0
 40
1.0
 10
-9.2225501047
 20
-6.3879764289
 30
0.0
 10
-9.233075574
 20
-6.3812149307
 30
0.0
 10
-9.2748576975
 20
-6.3523485051
 30
0.0
 10
-9.3421742494
 20
-6.2909250528
 30
0.0
 10
-9.4147970014
 20
-6.1942174168
 30
0.0
 10
-9.4733149339
 20
-6.0807546254
 30
0.0
 10
-9.517028589
 20
-5.9523349917
 30
0.0
 10
-9.5454297769
 20
-5.8109097848
 30
0.0
 10
-9.5536972408
 20
-5.7121353166
 30
0.0
 10
-9.555417301
 20
-5.6612391469
 30
0.0
 11
-9.2225501047
 21
-6.3879764289
 31
0.0
 11
-9.2534218596
 21
-6.3666510902
 31
0.0
 11
-9.3382962428
 21
-6.2897386633
 31
0.0
 11
-9.410598732
 21
-6.1943932137
 31
0.0
 11
-9.4692381255
 21
-6.0820563952
 31
0.0
 11
-9.5133286028
 21
-5.95442408
 31
0.0
 11
-9.5421994315
 21
-5.8134419595
 31
0.0
 11
-9.555417301
 21
-5.6612391469
 31
0.0
  0
SPLINE
  5
28A
100
AcDbEntity
  8
RACCORDO
100
AcDbSpline
 62
253
  6
CONTINUOUS
 70
0
 71
3
 72
32
 73
28
 74
26
 42
0.0000001
 43
0.0000001
 44
0.0000000001
 12
0.026291423
 22
-3.6377119464
 32
0.0
 13
-0.0274021686
 23
3.6377037489
 33
0.0
 40
0.0
 40
0.0
 40
0.0
 40
0.0
 40
0.0405636353
 40
0.0792949854
 40
0.1158668938
 40
0.1501649885
 40
0.182353851
 40
0.2130002308
 40
0.2428810987
 40
0.2727835989
 40
0.3034557187
 40
0.3355764279
 40
0.3696703201
 40
0.4060601525
 40
0.4448699637
 40
0.4860643499
 40
0.529470363
 40
0.5748240229
 40
0.6217926615
 40
0.6699564939
 40
0.7187913688
 40
0.7678153219
 40
0.8166900315
 40
0.8650040467
 40
0.9120861895
 40
0.9572703602
 40
1.0
 40
1.0
 40
1.0
 40
1.0
 10
-1.3640048556
 20
3.867986503
 30
0.0
 10
-1.3636493637
 20
3.8188002294
 30
0.0
 10
-1.3676461441
 20
3.7225212813
 30
0.0
 10
-1.3892587654
 20
3.5833621126
 30
0.0
 10
-1.4264642561
 20
3.4553319963
 30
0.0
 10
-1.4788377907
 20
3.3412961953
 30
0.0
 10
-1.5455729819
 20
3.2434863506
 30
0.0
 10
-1.6256894401
 20
3.1635836781
 30
0.0
 10
-1.7180372343
 20
3.1029999954
 30
0.0
 10
-1.8210081643
 20
3.0629608686
 30
0.0
 10
-1.9325696777
 20
3.0441801321
 30
0.0
 10
-2.0506510975
 20
3.0467518582
 30
0.0
 10
-2.1733342556
 20
3.0703608866
 30
0.0
 10
-2.2987652398
 20
3.1144403723
 30
0.0
 10
-2.4250743076
 20
3.1781915673
 30
0.0
 10
-2.5503576802
 20
3.2605628769
 30
0.0
 10
-2.6727189165
 20
3.3602519154
 30
0.0
 10
-2.790303178
 20
3.4757224431
 30
0.0
 10
-2.9013044305
 20
3.6052061935
 30
0.0
 10
-3.0039456171
 20
3.7466455098
 30
0.0
 10
-3.0965782758
 20
3.8977544367
 30
0.0
 10
-3.1778182184
 20
4.0562476612
 30
0.0
 10
-3.2464855289
 20
4.2198988163
 30
0.0
 10
-3.3014297925
 20
4.3861840974
 30
0.0
 10
-3.3416072212
 20
4.5520588143
 30
0.0
 10
-3.366343359
 20
4.7140807533
 30
0.0
 10
-3.3726573327
 20
4.8206952987
 30
0.0
 10
-3.3730476276
 20
4.872507889
 30
0.0
 11
-1.3640048556
 21
3.867986503
 31
0.0
 11
-1.3705631731
 21
3.7205696403
 31
0.0
 11
-1.392708131
 21
3.5814236209
 31
0.0
 11
-1.4304204829
 21
3.4538390193
 31
0.0
 11
-1.4830742101
 21
3.3407235919
 31
0.0
 11
-1.5495523382
 21
3.244326834
 31
0.0
 11
-1.6287887239
 21
3.1659008359
 31
0.0
 11
-1.7197647799
 21
3.1064094292
 31
0.0
 11
-1.8210940344
 21
3.0668447119
 31
0.0
 11
-1.9310544168
 21
3.047906825
 31
0.0
 11
-2.0478868429
 21
3.0498712107
 31
0.0
 11
-2.1697967911
 21
3.0726892038
 31
0.0
 11
-2.2948879351
 21
3.1160072643
 31
0.0
 11
-2.4211686178
 21
3.1791397921
 31
0.0
 11
-2.5466360545
 21
3.2610855674
 31
0.0
 11
-2.6692877028
 21
3.3605332153
 31
0.0
 11
-2.7872063785
 21
3.4759289677
 31
0.0
 11
-2.8985704532
 21
3.6055135081
 31
0.0
 11
-3.0015880317
 21
3.7472392165
 31
0.0
 11
-3.0944912713
 21
3.898663016
 31
0.0
 11
-3.1758383018
 21
4.0573693524
 31
0.0
 11
-3.2445663239
 21
4.2213454064
 31
0.0
 11
-3.2995733112
 21
4.3882728627
 31
0.0
 11
-3.3396855992
 21
4.5547852817
 31
0.0
 11
-3.3642057184
 21
4.717317386
 31
0.0
 11
-3.3730476276
 21
4.872507889
 31
0.0
  0
SPLINE
  5
28B
100
AcDbEntity
  8
RACCORDO
100
AcDbSpline
 62
253
  6
CONTINUOUS
 70
0
 71
3
 72
17
 73
13
 74
11
 42
0.0000001
 43
0.0000001
 44
0.0000000001
 12
-0.3882100219
 22
-0.1914956984
 32
0.0
 13
-0.3871832493
 23
0.1935633102
 33
0.0
 40
0.0
 40
0.0
 40
0.0
 40
0.0
 40
0.0899749204
 40
0.1866926925
 40
0.2887145724
 40
0.3943429537
 40
0.501743173
 40
0.6089913359
 40
0.7141671611
 40
0.8154559107
 40
0.911195113
 40
1.0
 40
1.0
 40
1.0
 40
1.0
 10
5.6444034152
 20
4.4700984677
 30
0.0
 10
5.63276036
 20
4.4643551977
 30
0.0
 10
5.6078395088
 20
4.4539510681
 30
0.0
 10
5.567898726
 20
4.441907188
 30
0.0
 10
5.5248212362
 20
4.433074644
 30
0.0
 10
5.479635368
 20
4.4276708438
 30
0.0
 10
5.4334121293
 20
4.425824057
 30
0.0
 10
5.3872504683
 20
4.4275794409
 30
0.0
 10
5.3422477681
 20
4.4328939415
 30
0.0
 10
5.2994703375
 20
4.4416413742
 30
0.0
 10
5.2599384288
 20
4.4536065311
 30
0.0
 10
5.2353363552
 20
4.4639765025
 30
0.0
 10
5.2238751003
 20
4.4697062918
 30
0.0
 11
5.6444034152
 21
4.4700984677
 31
0.0
 11
5.608529099
 21
4.4549344835
 31
0.0
 11
5.5684823065
 21
4.4427260413
 31
0.0
 11
5.5252367666
 21
4.433774141
 31
0.0
 11
5.4798424293
 21
4.4282975729
 31
0.0
 11
5.4333895562
 21
4.426427993
 31
0.0
 11
5.3869991457
 21
4.4282109128
 31
0.0
 11
5.3417919754
 21
4.433602985
 31
0.0
 11
5.2988538806
 21
4.4424745139
 31
0.0
 11
5.2592273065
 21
4.4546086377
 31
0.0
 11
5.2238751003
 21
4.4697062918
 31
0.0
  0
SPLINE
  5
28C
100
AcDbEntity
  8
RACCORDO
100
AcDbSpline
 62
253
  6
CONTINUOUS
 70
0
 71
3
 72
15
 73
11
 74
9
 42
0.0000001
 43
0.0000001
 44
0.0000000001
 12
-0.1804002461
 22
0.0902133182
 32
0.0
 13
0.1189039078
 23
0.1633742119
 33
0.0
 40
0.0
 40
0.0
 40
0.0
 40
0.0
 40
0.1737705109
 40
0.3299747676
 40
0.4694134977
 40
0.5951779005
 40
0.7129962891
 40
0.8305469404
 40
0.9555843687
 40
1.0
 40
1.0
 40
1.0
 40
1.0
 10
-9.7090316301
 20
11.936159657
 30
0.0
 10
-9.7194810445
 20
11.9413851284
 30
0.0
 10
-9.7387753164
 20
11.9524962203
 30
0.0
 10
-9.7635504375
 20
11.9722795874
 30
0.0
 10
-9.7820993368
 20
11.9939783083
 30
0.0
 10
-9.7938408338
 20
12.017239374
 30
0.0
 10
-9.7981562019
 20
12.0415262295
 30
0.0
 10
-9.7946965045
 20
12.0659035182
 30
0.0
 10
-9.7864583744
 20
12.0836116207
 30
0.0
 10
-9.7800859746
 20
12.0930897727
 30
0.0
 10
-9.7783255772
 20
12.0955085623
 30
0.0
 11
-9.7090316301
 21
11.936159657
 31
0.0
 11
-9.7392814729
 21
11.9538630272
 31
0.0
 11
-9.7637121373
 21
11.9737575226
 31
0.0
 11
-9.7817216367
 21
11.9953597908
 31
0.0
 11
-9.79286981
 21
12.0181453904
 31
0.0
 11
-9.7968885264
 21
12.0415670339
 31
0.0
 11
-9.7936801553
 21
12.0650588648
 31
0.0
 11
-9.7833229026
 21
12.0880539751
 31
0.0
 11
-9.7783255772
 21
12.0955085623
 31
0.0
  0
SPLINE
  5
28D
100
AcDbEntity
  8
RACCORDO
100
AcDbSpline
 62
253
  6
CONTINUOUS
 70
0
 71
3
 72
10
 73
6
 74
4
 42
0.0000001
 43
0.0000001
 44
0.0000000001
 12
0.0501383954
 22
0.0688902575
 32
0.0
 13
0.075188527
 23
0.0397535984
 33
0.0
 40
0.0
 40
0.0
 40
0.0
 40
0.0
 40
0.2229233844
 40
0.5906320453
 40
1.0
 40
1.0
 40
1.0
 40
1.0
 10
-9.7783255772
 20
12.0955085623
 30
0.0
 10
-9.7745999036
 20
12.1006276454
 30
0.0
 10
-9.7636593524
 20
12.1134127382
 30
0.0
 10
-9.7418613892
 20
12.1317483142
 30
0.0
 10
-9.7229626504
 20
12.1432269219
 30
0.0
 10
-9.7127027259
 20
12.1486515383
 30
0.0
 11
-9.7783255772
 21
12.0955085623
 31
0.0
 11
-9.7660657661
 21
12.1100000771
 31
0.0
 11
-9.7423305953
 21
12.1303643301
 31
0.0
 11
-9.7127027259
 21
12.1486515383
 31
0.0
  0
SPLINE
  5
28E
100
AcDbEntity
  8
RACCORDO
100
AcDbSpline
 62
253
  6
CONTINUOUS
 70
0
 71
3
 72
11
 73
7
 74
5
 42
0.0000001
 43
0.0000001
 44
0.0000000001
 12
0.0100459851
 22
-17.3626608548
 32
0.0
 13
0.6032800413
 23
-17.3521798651
 33
0.0
 40
0.0
 40
0.0
 40
0.0
 40
0.0
 40
0.2515625028
 40
0.502076692
 40
0.7515529309
 40
1.0
 40
1.0
 40
1.0
 40
1.0
 10
5.083676248
 20
4.2262994267
 30
0.0
 10
5.0845186457
 20
2.7703679536
 30
0.0
 10
5.0984015997
 20
-0.1354357262
 30
0.0
 10
5.1560000877
 20
-4.4847585908
 30
0.0
 10
5.2503639829
 20
-8.8154046472
 30
0.0
 10
5.3379566073
 20
-11.695873884
 30
0.0
 10
5.38791766
 20
-13.1329066271
 30
0.0
 11
5.083676248
 21
4.2262994267
 31
0.0
 11
5.1046052536
 21
-0.141445581
 31
0.0
 11
5.1622854404
 21
-4.4906567492
 31
0.0
 11
5.2567228771
 21
-8.8211992121
 31
0.0
 11
5.38791766
 21
-13.1329066271
 31
0.0
  0
SPLINE
  5
28F
100
AcDbEntity
  8
RACCORDO
100
AcDbSpline
 62
253
  6
CONTINUOUS
 70
0
 71
3
 72
14
 73
10
 74
8
 42
0.0000001
 43
0.0000001
 44
0.0000000001
 12
-0.0021352354
 22
0.293580377
 32
0.0
 13
-0.2606943534
 23
0.1350275937
 33
0.0
 40
0.0
 40
0.0
 40
0.0
 40
0.0
 40
0.1375417359
 40
0.2843592423
 40
0.4361806324
 40
0.5881835054
 40
0.7355262397
 40
0.8738772597
 40
1.0
 40
1.0
 40
1.0
 40
1.0
 10
5.7845692078
 20
4.2255830613
 30
0.0
 10
5.7844713132
 20
4.2390429129
 30
0.0
 10
5.7816836065
 20
4.2668827668
 30
0.0
 10
5.7710656734
 20
4.3083633092
 30
0.0
 10
5.7543589778
 20
4.3493232126
 30
0.0
 10
5.7323755996
 20
4.3877621816
 30
0.0
 10
5.7061688671
 20
4.4218310721
 30
0.0
 10
5.6770128278
 20
4.449877198
 30
0.0
 10
5.655363244
 20
4.4644217844
 30
0.0
 10
5.6444034152
 20
4.4700984677
 30
0.0
 11
5.7845692078
 21
4.2255830613
 31
0.0
 11
5.7808072633
 21
4.2657880667
 31
0.0
 11
5.7702686369
 21
4.3075837809
 31
0.0
 11
5.7534816871
 21
4.3488747855
 31
0.0
 11
5.731288031
 21
4.387590971
 31
0.0
 11
5.7048003478
 21
4.4217913232
 31
0.0
 11
5.6753465921
 21
4.4497612352
 31
0.0
 11
5.6444034152
 21
4.4700984677
 31
0.0
  0
SPLINE
  5
290
100
AcDbEntity
  8
RACCORDO
100
AcDbSpline
 62
253
  6
CONTINUOUS
 70
0
 71
3
 72
14
 73
10
 74
8
 42
0.0000001
 43
0.0000001
 44
0.0000000001
 12
-0.0001666295
 22
0.2930098836
 32
0.0
 13
0.260950915
 23
0.1332645476
 33
0.0
 40
0.0
 40
0.0
 40
0.0
 40
0.0
 40
0.137354997
 40
0.2837129603
 40
0.4350144585
 40
0.5866467148
 40
0.7339613452
 40
0.8727885915
 40
1.0
 40
1.0
 40
1.0
 40
1.0
 10
5.0836878959
 20
4.2262936027
 30
0.0
 10
5.0836802668
 20
4.2397090599
 30
0.0
 10
5.0862727241
 20
4.2674537628
 30
0.0
 10
5.0966936483
 20
4.3087855951
 30
0.0
 10
5.1132929379
 20
4.349558552
 30
0.0
 10
5.1352715993
 20
4.3878019749
 30
0.0
 10
5.1615874085
 20
4.4216945609
 30
0.0
 10
5.1909745819
 20
4.4496067534
 30
0.0
 10
5.2128097891
 20
4.4640553682
 30
0.0
 10
5.2238751003
 20
4.4697062918
 30
0.0
 11
5.0836878959
 21
4.2262936027
 31
0.0
 11
5.0871758116
 21
4.2663885575
 31
0.0
 11
5.0975100395
 21
4.3080091062
 31
0.0
 11
5.1141776412
 21
4.3490894165
 31
0.0
 11
5.1363513217
 21
4.387590471
 31
0.0
 11
5.1629304923
 21
4.4216012732
 31
0.0
 11
5.1925958985
 21
4.4494337002
 31
0.0
 11
5.2238751003
 21
4.4697062918
 31
0.0
  0
SPLINE
  5
291
100
AcDbEntity
  8
RACCORDO
100
AcDbSpline
 62
253
  6
CONTINUOUS
 70
0
 71
3
 72
14
 73
10
 74
8
 42
0.0000001
 43
0.0000001
 44
0.0000000001
 12
-0.0001666322
 22
0.2930098843
 32
0.0
 13
0.2609509171
 23
0.1332645449
 33
0.0
 40
0.0
 40
0.0
 40
0.0
 40
0.0
 40
0.1373551825
 40
0.2837133145
 40
0.435014922
 40
0.5866471981
 40
0.7339617476
 40
0.872788823
 40
1.0
 40
1.0
 40
1.0
 40
1.0
 10
-9.8492188345
 20
11.6927469679
 30
0.0
 10
-9.8492264638
 20
11.7061624433
 30
0.0
 10
-9.846634
 20
11.733907181
 30
0.0
 10
-9.8362130536
 20
11.7752390549
 30
0.0
 10
-9.8196137379
 20
11.8160120329
 30
0.0
 10
-9.7976350579
 20
11.8542554507
 30
0.0
 10
-9.7713192477
 20
11.8881480073
 30
0.0
 10
-9.7419320979
 20
11.9160601557
 30
0.0
 10
-9.7200969212
 20
11.9305087438
 30
0.0
 10
-9.7090316301
 20
11.936159657
 30
0.0
 11
-9.8492188345
 21
11.6927469679
 31
0.0
 11
-9.8457309101
 21
11.7328419766
 31
0.0
 11
-9.8353966592
 21
11.7744625706
 31
0.0
 11
-9.8187290303
 21
11.8155429045
 31
0.0
 11
-9.7965553302
 21
11.8540439545
 31
0.0
 11
-9.769976159
 21
11.8880547264
 31
0.0
 11
-9.7403107787
 21
11.9158871079
 31
0.0
 11
-9.7090316301
 21
11.936159657
 31
0.0
  0
SPLINE
  5
292
100
AcDbEntity
  8
RACCORDO
100
AcDbSpline
 62
253
  6
CONTINUOUS
 70
0
 71
3
 72
14
 73
10
 74
8
 42
0.0000001
 43
0.0000001
 44
0.0000000001
 12
-0.0063618531
 22
0.7889053253
 32
0.0
 13
0.6759016109
 23
0.4095786524
 33
0.0
 40
0.0
 40
0.0
 40
0.0
 40
0.0
 40
0.1739017859
 40
0.3399806681
 40
0.4968835058
 40
0.6441301847
 40
0.7824226442
 40
0.9141726329
 40
1.0
 40
1.0
 40
1.0
 40
1.0
 10
-3.2328739775
 20
4.8726743844
 30
0.0
 10
-3.2332427567
 20
4.918405066
 30
0.0
 10
-3.2295712279
 20
5.0079332567
 30
0.0
 10
-3.2094562155
 20
5.1373554742
 30
0.0
 10
-3.1747581627
 20
5.256460475
 30
0.0
 10
-3.1258852061
 20
5.3625835607
 30
0.0
 10
-3.0636062504
 20
5.4536404478
 30
0.0
 10
-2.996860865
 20
5.5200920527
 30
0.0
 10
-2.9498781064
 20
5.5531698039
 30
0.0
 10
-2.9305411545
 20
5.5648874897
 30
0.0
 11
-3.2328739775
 21
4.8726743844
 31
0.0
 11
-3.2268463847
 21
5.009738418
 31
0.0
 11
-3.2062403384
 21
5.1391327086
 31
0.0
 11
-3.1710773234
 21
5.2578189108
 31
0.0
 11
-3.1219511039
 21
5.3630875896
 31
0.0
 11
-3.059916703
 21
5.4528385923
 31
0.0
 11
-2.9859836761
 21
5.5258986605
 31
0.0
 11
-2.9305411545
 21
5.5648874897
 31
0.0
  0
LINE
  5
293
100
AcDbEntity
  8
RACCORDO
100
AcDbLine
 62
253
  6
CONTINUOUS
 10
-2.8870442739
 20
5.5883279915
 11
-2.886207486
 21
5.5887245625
  0
SPLINE
  5
294
100
AcDbEntity
  8
RACCORDO
100
AcDbSpline
 62
253
  6
CONTINUOUS
 70
0
 71
3
 72
13
 73
9
 74
7
 42
0.0000001
 43
0.0000001
 44
0.0000000001
 12
-0.2159492194
 22
0.1079796307
 32
0.0
 13
-0.0001006786
 23
0.242249891
 33
0.0
 40
0.0
 40
0.0
 40
0.0
 40
0.0
 40
0.2420619941
 40
0.4593934318
 40
0.6532565223
 40
0.827923501
 40
0.9913738525
 40
1.0
 40
1.0
 40
1.0
 40
1.0
 10
-9.8492071845
 20
11.6927411387
 30
0.0
 10
-9.8666315507
 20
11.7014537269
 30
0.0
 10
-9.8987889972
 20
11.7199634088
 30
0.0
 10
-9.9400825389
 20
11.7528893706
 30
0.0
 10
-9.9709906041
 20
11.7889644975
 30
0.0
 10
-9.990561138
 20
11.8276129648
 30
0.0
 10
-9.9955422776
 20
11.8555255882
 30
0.0
 10
-9.9956649524
 20
11.8694204035
 30
0.0
 10
-9.9956652419
 20
11.8701169646
 30
0.0
 11
-9.8492071845
 21
11.6927411387
 31
0.0
 11
-9.8996543503
 21
11.7222494943
 31
0.0
 11
-9.9403650489
 21
11.7553557031
 31
0.0
 11
-9.9703748459
 21
11.7912758503
 31
0.0
 11
-9.9889505714
 21
11.8291360913
 31
0.0
 11
-9.9956467494
 21
11.8680274245
 31
0.0
 11
-9.9956652419
 21
11.8701169646
 31
0.0
  0
SPLINE
  5
295
100
AcDbEntity
  8
RACCORDO
100
AcDbSpline
 62
253
  6
CONTINUOUS
 70
0
 71
3
 72
14
 73
10
 74
8
 42
0.0000001
 43
0.0000001
 44
0.0000000001
 12
0.0309975472
 22
-0.8964478619
 32
0.0
 13
0.8027049286
 23
-0.4035115767
 33
0.0
 40
0.0
 40
0.0
 40
0.0
 40
0.0
 40
0.1705247916
 40
0.3314848355
 40
0.4829539656
 40
0.6256264744
 40
0.7609349571
 40
0.8910293405
 40
1.0
 40
1.0
 40
1.0
 40
1.0
 10
5.3879176519
 20
-13.1329066229
 30
0.0
 10
5.389679602
 20
-13.1838621512
 30
0.0
 10
5.3981606361
 20
-13.2828473601
 30
0.0
 10
5.4272615347
 20
-13.4246492012
 30
0.0
 10
5.4720486863
 20
-13.5536151194
 30
0.0
 10
5.5319947859
 20
-13.6677724861
 30
0.0
 10
5.606364569
 20
-13.7653014925
 30
0.0
 10
5.6899863348
 20
-13.8407460213
 30
0.0
 10
5.7512183181
 20
-13.8783575517
 30
0.0
 10
5.7803754132
 20
-13.8930145259
 30
0.0
 11
5.3879176519
 21
-13.1329066229
 31
0.0
 11
5.4014467854
 21
-13.2852650672
 31
0.0
 11
5.4309974378
 21
-13.4265870996
 31
0.0
 11
5.4761261372
 21
-13.5547385259
 31
0.0
 11
5.5361463314
 21
-13.6677657449
 31
0.0
 11
5.6101513629
 21
-13.7639624659
 31
0.0
 11
5.6970243238
 21
-13.8418741818
 31
0.0
 11
5.7803754132
 21
-13.8930145259
 31
0.0
  0
LINE
  5
296
100
AcDbEntity
  8
RACCORDO
100
AcDbLine
 62
253
  6
CONTINUOUS
 10
5.7803754132
 20
-13.8930145259
 11
5.7812694927
 21
-13.8934629954
  0
SPLINE
  5
297
100
AcDbEntity
  8
RACCORDO
100
AcDbSpline
 62
253
  6
CONTINUOUS
 70
0
 71
3
 72
17
 73
13
 74
11
 42
0.0000001
 43
0.0000001
 44
0.0000000001
 12
-0.6478787095
 22
-0.3171133083
 32
0.0
 13
-0.6451774021
 23
0.3225737007
 33
0.0
 40
0.0
 40
0.0
 40
0.0
 40
0.0
 40
0.0899352243
 40
0.1865809494
 40
0.2885603482
 40
0.3941667178
 40
0.5015619733
 40
0.6088199202
 40
0.7140203969
 40
0.8153431384
 40
0.9111132669
 40
1.0
 40
1.0
 40
1.0
 40
1.0
 10
5.7845811639
 20
4.2255889134
 30
0.0
 10
5.7651587916
 20
4.2160823612
 30
0.0
 10
5.7236027477
 20
4.1988847656
 30
0.0
 10
5.6570247874
 20
4.1790193928
 30
0.0
 10
5.5852353
 20
4.1645001602
 30
0.0
 10
5.5099347482
 20
4.1556783054
 30
0.0
 10
5.4329081788
 20
4.1527636656
 30
0.0
 10
5.3559847411
 20
4.1558268795
 30
0.0
 10
5.2809909491
 20
4.1647935076
 30
0.0
 10
5.2097032281
 20
4.1794502829
 30
0.0
 10
5.1438090366
 20
4.1994429254
 30
0.0
 10
5.1027921538
 20
4.216741914
 30
0.0
 10
5.0836762499
 20
4.2262994215
 30
0.0
 11
5.7845811639
 21
4.2255889134
 31
0.0
 11
5.7247505072
 21
4.2005146188
 31
0.0
 11
5.6580087317
 21
4.1803796938
 31
0.0
 11
5.5859361588
 21
4.1656610387
 31
0.0
 11
5.5102865283
 21
4.1567183577
 31
0.0
 11
5.4328760798
 21
4.1537660105
 31
0.0
 11
5.3555709024
 21
4.1568753549
 31
0.0
 11
5.2802344344
 21
4.1659712106
 31
0.0
 11
5.2086754525
 21
4.1808354527
 31
0.0
 11
5.1426348
 21
4.2011049194
 31
0.0
 11
5.0836762499
 21
4.2262994215
 31
0.0
  0
SPLINE
  5
298
100
AcDbEntity
  8
RACCORDO
100
AcDbSpline
 62
253
  6
CONTINUOUS
 70
0
 71
3
 72
16
 73
12
 74
10
 42
0.0000001
 43
0.0000001
 44
0.0000000001
 12
-0.6379991046
 22
-0.3396733917
 32
0.0
 13
-0.6466996827
 23
0.3228008533
 33
0.0
 40
0.0
 40
0.0
 40
0.0
 40
0.0
 40
0.1015166317
 40
0.2107208998
 40
0.3256469076
 40
0.4439751589
 40
0.5631922282
 40
0.6807357597
 40
0.7941361023
 40
0.9011644343
 40
1.0
 40
1.0
 40
1.0
 40
1.0
 10
6.0885017395
 20
-13.1183242679
 30
0.0
 10
6.0669125661
 20
-13.1298184341
 30
0.0
 10
6.0203873658
 20
-13.150530238
 30
0.0
 10
5.9454193728
 20
-13.1741236612
 30
0.0
 10
5.8644949296
 20
-13.1908743335
 30
0.0
 10
5.7799802269
 20
-13.200285231
 30
0.0
 10
5.6943322417
 20
-13.2020827959
 30
0.0
 10
5.6100536918
 20
-13.1962149826
 30
0.0
 10
5.5295912889
 20
-13.1828520775
 30
0.0
 10
5.4552944345
 20
-13.1623917197
 30
0.0
 10
5.4092241966
 20
-13.1435586585
 30
0.0
 10
5.3879185536
 20
-13.1329239235
 30
0.0
 11
6.0885017395
 21
-13.1183242679
 31
0.0
 11
6.0216239324
 21
-13.1485109089
 31
0.0
 11
5.9464124526
 21
-13.172456704
 31
0.0
 11
5.8651022271
 21
-13.1894500981
 31
0.0
 11
5.7801094089
 21
-13.1989861285
 31
0.0
 11
5.69395958
 21
-13.2007814297
 31
0.0
 11
5.6092127031
 21
-13.1947826539
 31
0.0
 11
5.5283870522
 21
-13.1811680562
 31
0.0
 11
5.4538843808
 21
-13.1603421976
 31
0.0
 11
5.3879185536
 21
-13.1329239235
 31
0.0
  0
SPLINE
  5
299
100
AcDbEntity
  8
RACCORDO
100
AcDbSpline
 62
253
  6
CONTINUOUS
 70
0
 71
3
 72
13
 73
9
 74
7
 42
0.0000001
 43
0.0000001
 44
0.0000000001
 12
-0.0143748292
 22
-0.3372111877
 32
0.0
 13
-0.3122832359
 23
-0.1308988728
 33
0.0
 40
0.0
 40
0.0
 40
0.0
 40
0.0
 40
0.2203895712
 40
0.4242798477
 40
0.6117673044
 40
0.7852201422
 40
0.9494899101
 40
1.0
 40
1.0
 40
1.0
 40
1.0
 10
6.7696893988
 20
-13.618639936
 30
0.0
 10
6.768633378
 20
-13.6434125457
 30
0.0
 10
6.7633912357
 20
-13.6910641645
 30
0.0
 10
6.7449584009
 20
-13.7577236272
 30
0.0
 10
6.7166094839
 20
-13.8151007466
 30
0.0
 10
6.6789156114
 20
-13.8613594211
 30
0.0
 10
6.6430857452
 20
-13.8872869735
 30
0.0
 10
6.6211367379
 20
-13.8976240154
 30
0.0
 10
6.6158789198
 20
-13.8998279201
 30
0.0
 11
6.7696893988
 21
-13.618639936
 31
0.0
 11
6.7611524892
 21
-13.692533762
 31
0.0
 11
6.7423334854
 21
-13.7587271078
 31
0.0
 11
6.7138035304
 21
-13.8152110547
 31
0.0
 11
6.6764284869
 21
-13.8602713568
 31
0.0
 11
6.6313426599
 21
-13.8925404673
 31
0.0
 11
6.6158789198
 21
-13.8998279201
 31
0.0
  0
SPLINE
  5
29A
100
AcDbEntity
  8
ASSI
100
AcDbSpline
 62
253
  6
CONTINUOUS
 70
0
 71
3
 72
8
 73
4
 74
2
 42
0.0000001
 43
0.0000001
 44
0.0000000001
 12
0.000423478
 22
-0.7319048631
 32
0.0
 13
0.0014543262
 23
-0.7319046652
 33
0.0
 40
0.0
 40
0.0
 40
0.0
 40
0.0
 40
1.0
 40
1.0
 40
1.0
 40
1.0
 10
5.083676248
 20
4.2262994267
 30
0.0
 10
5.0838174073
 20
3.982331139
 30
0.0
 10
5.084130231
 20
3.73836274
 30
0.0
 10
5.0846150064
 20
3.4943945183
 30
0.0
 11
5.083676248
 21
4.2262994267
 31
0.0
 11
5.0846150064
 21
3.4943945183
 31
0.0
  0
SPLINE
  5
29B
100
AcDbEntity
  8
ASSI
100
AcDbSpline
 62
253
  6
CONTINUOUS
 70
0
 71
3
 72
11
 73
7
 74
5
 42
0.0000001
 43
0.0000001
 44
0.0000000001
 12
0.0859153294
 22
-14.6146012205
 32
0.0
 13
0.5078031549
 23
-14.6059724782
 33
0.0
 40
0.0
 40
0.0
 40
0.0
 40
0.0
 40
0.1108416718
 40
0.4084574093
 40
0.7048400416
 40
1.0
 40
1.0
 40
1.0
 40
1.0
 10
5.0925404733
 20
1.4784438467
 30
0.0
 10
5.0957148062
 20
0.9384749025
 30
0.0
 10
5.1105307618
 20
-1.0513216099
 30
0.0
 10
5.1560000877
 20
-4.4847585908
 30
0.0
 10
5.2503639829
 20
-8.8154046472
 30
0.0
 10
5.3379566073
 20
-11.695873884
 30
0.0
 10
5.38791766
 20
-13.1329066271
 30
0.0
 11
5.0925404733
 21
1.4784438467
 31
0.0
 11
5.1046052536
 21
-0.141445581
 31
0.0
 11
5.1622854404
 21
-4.4906567492
 31
0.0
 11
5.2567228771
 21
-8.8211992121
 31
0.0
 11
5.38791766
 21
-13.1329066271
 31
0.0
  0
SPLINE
  5
29C
100
AcDbEntity
  8
ASSI
100
AcDbSpline
 62
253
  6
CONTINUOUS
 70
0
 71
3
 72
26
 73
22
 74
20
 42
0.0000001
 43
0.0000001
 44
0.0000000001
 12
-2.2740123845
 22
-1.1929185112
 32
0.0
 13
-0.0207368764
 23
2.5634715605
 33
0.0
 40
0.0
 40
0.0
 40
0.0
 40
0.0
 40
0.0014123126
 40
0.0408296797
 40
0.0812688373
 40
0.1236255724
 40
0.1685911843
 40
0.2165902985
 40
0.2677851492
 40
0.3221276484
 40
0.3793883802
 40
0.4392179985
 40
0.5011767311
 40
0.564710087
 40
0.6291260466
 40
0.6937883133
 40
0.7582502805
 40
0.8219692432
 40
0.8840601099
 40
0.9436443654
 40
1.0
 40
1.0
 40
1.0
 40
1.0
 10
-1.6921988456
 20
3.2330083196
 30
0.0
 10
-1.6932693844
 20
3.2324467283
 30
0.0
 10
-1.7242795832
 20
3.2163278488
 30
0.0
 10
-1.7894805739
 20
3.1909948289
 30
0.0
 10
-1.8931384187
 20
3.1735792361
 30
0.0
 10
-2.0028660664
 20
3.1760024713
 30
0.0
 10
-2.1168825059
 20
3.1979702875
 30
0.0
 10
-2.2334660225
 20
3.2389554893
 30
0.0
 10
-2.3508794574
 20
3.2982158506
 30
0.0
 10
-2.4673533125
 20
3.3747743232
 30
0.0
 10
-2.581124405
 20
3.4674208772
 30
0.0
 10
-2.690467837
 20
3.5747282409
 30
0.0
 10
-2.7937037698
 20
3.6950536274
 30
0.0
 10
-2.8891789755
 20
3.8264854249
 30
0.0
 10
-2.9753594526
 20
3.9668998601
 30
0.0
 10
-3.0509566719
 20
4.1141737361
 30
0.0
 10
-3.1148722802
 20
4.2662387164
 30
0.0
 10
-3.1660347017
 20
4.4207504947
 30
0.0
 10
-3.2034725169
 20
4.5748803691
 30
0.0
 10
-3.2265554033
 20
4.7254403007
 30
0.0
 10
-3.2324844308
 20
4.8245190289
 30
0.0
 10
-3.2328739775
 20
4.8726743844
 30
0.0
 11
-1.6921988456
 21
3.2330083196
 31
0.0
 11
-1.6954167815
 21
3.231335671
 31
0.0
 11
-1.7895535482
 21
3.1946057131
 31
0.0
 11
-1.8917228414
 21
3.1770417054
 31
0.0
 11
-2.0002908007
 21
3.1788986401
 31
0.0
 11
-2.1135904245
 21
3.2001305034
 31
0.0
 11
-2.2298599854
 21
3.2404082332
 31
0.0
 11
-2.3472486247
 21
3.2990943884
 31
0.0
 11
-2.4638947519
 21
3.3752584193
 31
0.0
 11
-2.5779366137
 21
3.4676817341
 31
0.0
 11
-2.687591432
 21
3.5749206486
 31
0.0
 11
-2.7911649522
 21
3.6953406242
 31
0.0
 11
-2.8869902634
 21
3.8270393848
 31
0.0
 11
-2.9734223838
 21
3.9677471952
 31
0.0
 11
-3.049119105
 21
4.1152197107
 31
0.0
 11
-3.113090904
 21
4.267586948
 31
0.0
 11
-3.1643117309
 21
4.4226956186
 31
0.0
 11
-3.2016885118
 21
4.5774184053
 31
0.0
 11
-3.2245696586
 21
4.7284424587
 31
0.0
 11
-3.2328739775
 21
4.8726743844
 31
0.0
  0
SPLINE
  5
29D
100
AcDbEntity
  8
ASSI
100
AcDbSpline
 62
253
  6
CONTINUOUS
 70
0
 71
3
 72
11
 73
7
 74
5
 42
0.0000001
 43
0.0000001
 44
0.0000000001
 12
0.0847410944
 22
0.0448531075
 32
0.0
 13
0.0859509054
 23
-0.0414852637
 33
0.0
 40
0.0
 40
0.0
 40
0.0
 40
0.0
 40
0.0323397767
 40
0.3269624784
 40
0.6452270526
 40
1.0
 40
1.0
 40
1.0
 40
1.0
 10
-9.8048956756
 20
12.1529047393
 30
0.0
 10
-9.8039821729
 20
12.1533882524
 30
0.0
 10
-9.7946472044
 20
12.158086105
 30
0.0
 10
-9.7743585533
 20
12.1634149736
 30
0.0
 10
-9.7432126688
 20
12.1609540588
 30
0.0
 10
-9.7228670779
 20
12.1535574881
 30
0.0
 10
-9.7127027259
 20
12.1486515383
 30
0.0
 11
-9.8048956756
 21
12.1529047393
 31
0.0
 11
-9.8021262782
 21
12.1542980375
 31
0.0
 11
-9.7749967803
 21
12.1616898334
 31
0.0
 11
-9.7446823297
 21
12.1597756786
 31
0.0
 11
-9.7127027259
 21
12.1486515383
 31
0.0
  0
SPLINE
  5
29E
100
AcDbEntity
  8
ASSI
100
AcDbSpline
 62
253
  6
CONTINUOUS
 70
0
 71
3
 72
19
 73
15
 74
13
 42
0.0000001
 43
0.0000001
 44
0.0000000001
 12
0.0358343204
 22
-1.0299006361
 32
0.0
 13
0.9502173517
 23
0.3988312968
 33
0.0
 40
0.0
 40
0.0
 40
0.0
 40
0.0
 40
0.0989515448
 40
0.1924322361
 40
0.2804644318
 40
0.3634604866
 40
0.4422569605
 40
0.5180992661
 40
0.5925624004
 40
0.667392461
 40
0.7442933308
 40
0.8247208973
 40
0.9097432116
 40
1.0
 40
1.0
 40
1.0
 40
1.0
 10
6.0885017395
 20
-13.1183242679
 30
0.0
 10
6.0896836933
 20
-13.1522943542
 30
0.0
 10
6.095371768
 20
-13.2183105184
 30
0.0
 10
6.1148860288
 20
-13.3129002489
 30
0.0
 10
6.144921946
 20
-13.3989721744
 30
0.0
 10
6.1851240507
 20
-13.4751962277
 30
0.0
 10
6.2349955936
 20
-13.5403557091
 30
0.0
 10
6.293856875
 20
-13.5933161842
 30
0.0
 10
6.3607808359
 20
-13.6330836998
 30
0.0
 10
6.4345919103
 20
-13.6589227469
 30
0.0
 10
6.5139672874
 20
-13.6704485779
 30
0.0
 10
6.5975687879
 20
-13.6676031835
 30
0.0
 10
6.6840703132
 20
-13.6505861127
 30
0.0
 10
6.7411015433
 20
-13.6306390134
 30
0.0
 10
6.7696893988
 20
-13.618639936
 30
0.0
 11
6.0885017395
 21
-13.1183242679
 31
0.0
 11
6.0975697689
 21
-13.2198922001
 31
0.0
 11
6.1173822364
 21
-13.3141669135
 31
0.0
 11
6.1476401542
 21
-13.3996914467
 31
0.0
 11
6.1878836968
 21
-13.4751615601
 31
0.0
 11
6.2375048951
 21
-13.53943787
 31
0.0
 11
6.2957549512
 21
-13.5915482848
 31
0.0
 11
6.3617509292
 21
-13.6307011922
 31
0.0
 11
6.4344912945
 21
-13.6563026244
 31
0.0
 11
6.5128764909
 21
-13.6679660359
 31
0.0
 11
6.5957227464
 21
-13.6655142867
 31
0.0
 11
6.6817671282
 21
-13.6489856832
 31
0.0
 11
6.7696893988
 21
-13.618639936
 31
0.0
  0
SPLINE
  5
29F
100
AcDbEntity
  8
ASSI
100
AcDbSpline
 62
253
  6
CONTINUOUS
 70
0
 71
3
 72
12
 73
8
 74
6
 42
0.0000001
 43
0.0000001
 44
0.0000000001
 12
0.0080909092
 22
-0.2419465937
 32
0.0
 13
0.2154248525
 23
-0.1078952959
 33
0.0
 40
0.0
 40
0.0
 40
0.0
 40
0.0
 40
0.0845598402
 40
0.2789137504
 40
0.4920224582
 40
0.7314604977
 40
1.0
 40
1.0
 40
1.0
 40
1.0
 10
-9.7018591602
 20
-5.4836331788
 30
0.0
 10
-9.7016311049
 20
-5.4904528339
 30
0.0
 10
-9.699240176
 20
-5.5128888365
 30
0.0
 10
-9.6854588052
 20
-5.5506134117
 30
0.0
 10
-9.654262761
 20
-5.5928581354
 30
0.0
 10
-9.6100306489
 20
-5.6308077588
 30
0.0
 10
-9.5747000826
 20
-5.6515985386
 30
0.0
 10
-9.5554167217
 20
-5.6612565883
 30
0.0
 11
-9.7018591602
 21
-5.4836331788
 31
0.0
 11
-9.6996830571
 21
-5.5039603276
 31
0.0
 11
-9.68411018
 21
-5.5481214638
 31
0.0
 11
-9.6542160977
 21
-5.5898667596
 31
0.0
 11
-9.6108891207
 21
-5.6279557425
 31
0.0
 11
-9.5554167217
 21
-5.6612565883
 31
0.0
  0
SPLINE
  5
2A0
100
AcDbEntity
  8
ASSI
100
AcDbSpline
 62
253
  6
CONTINUOUS
 70
0
 71
3
 72
14
 73
10
 74
8
 42
0.0000001
 43
0.0000001
 44
0.0000000001
 12
-0.7291948935
 22
0.4358697704
 32
0.0
 13
-0.028643939
 23
0.847567329
 33
0.0
 40
0.0
 40
0.0
 40
0.0
 40
0.0
 40
0.0653440893
 40
0.2004055078
 40
0.3415049313
 40
0.4909307116
 40
0.6501584171
 40
0.8198508795
 40
1.0
 40
1.0
 40
1.0
 40
1.0
 10
-9.2072671617
 20
-6.3974497471
 30
0.0
 10
-9.2231500204
 20
-6.3879559094
 30
0.0
 10
-9.2704097407
 20
-6.3564070739
 30
0.0
 10
-9.3421742494
 20
-6.2909250528
 30
0.0
 10
-9.4147970014
 20
-6.1942174168
 30
0.0
 10
-9.4733149339
 20
-6.0807546254
 30
0.0
 10
-9.517028589
 20
-5.9523349917
 30
0.0
 10
-9.5454297769
 20
-5.8109097848
 30
0.0
 10
-9.5536972408
 20
-5.7121353166
 30
0.0
 10
-9.555417301
 20
-5.6612391469
 30
0.0
 11
-9.2072671617
 21
-6.3974497471
 31
0.0
 11
-9.2534218596
 21
-6.3666510902
 31
0.0
 11
-9.3382962428
 21
-6.2897386633
 31
0.0
 11
-9.410598732
 21
-6.1943932137
 31
0.0
 11
-9.4692381255
 21
-6.0820563952
 31
0.0
 11
-9.5133286028
 21
-5.95442408
 31
0.0
 11
-9.5421994315
 21
-5.8134419595
 31
0.0
 11
-9.555417301
 21
-5.6612391469
 31
0.0
  0
SPLINE
  5
2A1
100
AcDbEntity
  8
ASSI
100
AcDbSpline
 62
253
  6
CONTINUOUS
 70
0
 71
3
 72
11
 73
7
 74
5
 42
0.0000001
 43
0.0000001
 44
0.0000000001
 12
-0.5827885381
 22
17.347419697
 32
0.0
 13
-0.0096986774
 23
17.3572036503
 33
0.0
 40
0.0
 40
0.0
 40
0.0
 40
0.0
 40
0.2483879525
 40
0.4978454065
 40
0.7483799274
 40
1.0
 40
1.0
 40
1.0
 40
1.0
 10
-9.5554173092
 20
-5.6612391429
 30
0.0
 10
-9.6036698598
 20
-4.2249424563
 30
0.0
 10
-9.6882656135
 20
-1.3457435077
 30
0.0
 10
-9.779388213
 20
2.9832735402
 30
0.0
 10
-9.8350228198
 20
7.3315934766
 30
0.0
 10
-9.8483937258
 20
10.2369341963
 30
0.0
 10
-9.8492071864
 20
11.6927411439
 30
0.0
 11
-9.5554173092
 21
-5.6612391429
 31
0.0
 11
-9.6821150602
 21
-1.3517802435
 31
0.0
 11
-9.7733154174
 21
2.9771436798
 31
0.0
 11
-9.8290184715
 21
7.3253662816
 31
0.0
 11
-9.8492071864
 21
11.6927411439
 31
0.0
  0
SPLINE
  5
2A2
100
AcDbEntity
  8
ASSI
100
AcDbSpline
 62
253
  6
CONTINUOUS
 70
0
 71
3
 72
16
 73
12
 74
10
 42
0.0000001
 43
0.0000001
 44
0.0000000001
 12
-0.0077162649
 22
1.0314114242
 32
0.0
 13
1.0115667214
 23
0.2095410735
 33
0.0
 40
0.0
 40
0.0
 40
0.0
 40
0.0
 40
0.1431335069
 40
0.279862121
 40
0.4090446083
 40
0.5302820943
 40
0.6441480589
 40
0.7526230992
 40
0.8584174487
 40
0.9642690226
 40
1.0
 40
1.0
 40
1.0
 40
1.0
 10
-3.3730476276
 20
4.872507889
 30
0.0
 10
-3.3734157796
 20
4.9217177338
 30
0.0
 10
-3.3694131667
 20
5.0180659913
 30
0.0
 10
-3.3476972578
 20
5.1573484862
 30
0.0
 10
-3.3102992652
 20
5.28553822
 30
0.0
 10
-3.2576589886
 20
5.3997584151
 30
0.0
 10
-3.1906054691
 20
5.4977663102
 30
0.0
 10
-3.1101446822
 20
5.5778729617
 30
0.0
 10
-3.0174491844
 20
5.6386624804
 30
0.0
 10
-2.9376273897
 20
5.6697554202
 30
0.0
 10
-2.8902130889
 20
5.6812055817
 30
0.0
 10
-2.8781649997
 20
5.6837012841
 30
0.0
 11
-3.3730476276
 21
4.872507889
 31
0.0
 11
-3.3664821572
 21
5.0199954946
 31
0.0
 11
-3.3442377511
 21
5.159257529
 31
0.0
 11
-3.3063394372
 21
5.2869982318
 31
0.0
 11
-3.2534265809
 21
5.4003010955
 31
0.0
 11
-3.1866351333
 21
5.4969057131
 31
0.0
 11
-3.1070513996
 21
5.5755492151
 31
0.0
 11
-3.0157148651
 21
5.6352562737
 31
0.0
 11
-2.9140346924
 21
5.6750221219
 31
0.0
 11
-2.8781649997
 21
5.6837012841
 31
0.0
  0
SPLINE
  5
2A3
100
AcDbEntity
  8
ASSI
100
AcDbSpline
 62
253
  6
CONTINUOUS
 70
0
 71
3
 72
24
 73
20
 74
18
 42
0.0000001
 43
0.0000001
 44
0.0000000001
 12
2.4586575719
 22
0.5092988293
 32
0.0
 13
0.1809290519
 23
-2.5017661291
 33
0.0
 40
0.0
 40
0.0
 40
0.0
 40
0.0
 40
0.0299441425
 40
0.0766595554
 40
0.1262038629
 40
0.1790478561
 40
0.2353773573
 40
0.2951485115
 40
0.3581182132
 40
0.4239107106
 40
0.4920494286
 40
0.5619298413
 40
0.632794102
 40
0.7039434868
 40
0.7748859844
 40
0.8450216651
 40
0.9133713406
 40
0.9789616725
 40
1.0
 40
1.0
 40
1.0
 40
1.0
 10
-2.8781649997
 20
5.6837012841
 30
0.0
 10
-2.8536242021
 20
5.6887847897
 30
0.0
 10
-2.7899244274
 20
5.6976144827
 30
0.0
 10
-2.6839231263
 20
5.6954429106
 30
0.0
 10
-2.5610341103
 20
5.671930876
 30
0.0
 10
-2.4354754913
 20
5.6278911761
 30
0.0
 10
-2.3091274808
 20
5.5641212828
 30
0.0
 10
-2.1838972055
 20
5.4816756025
 30
0.0
 10
-2.061677686
 20
5.3818624309
 30
0.0
 10
-1.9443143687
 20
5.2662264188
 30
0.0
 10
-1.8335988194
 20
5.1365462505
 30
0.0
 10
-1.7312894424
 20
4.9948916323
 30
0.0
 10
-1.6390131693
 20
4.8435615103
 30
0.0
 10
-1.5581316298
 20
4.6848539124
 30
0.0
 10
-1.4898026449
 20
4.5210070544
 30
0.0
 10
-1.4351555417
 20
4.3545559834
 30
0.0
 10
-1.3952151225
 20
4.1885555617
 30
0.0
 10
-1.3757803575
 20
4.0603533852
 30
0.0
 10
-1.3694068332
 20
3.9881910996
 30
0.0
 10
-1.3681380183
 20
3.9706467745
 30
0.0
 11
-2.8781649997
 21
5.6837012841
 31
0.0
 11
-2.8037554031
 21
5.6941342825
 31
0.0
 11
-2.6866559389
 21
5.692306676
 31
0.0
 11
-2.5645472887
 21
5.6695795548
 31
0.0
 11
-2.4393381715
 21
5.6263007546
 31
0.0
 11
-2.3130277138
 21
5.5631533828
 31
0.0
 11
-2.1876205727
 21
5.4811395926
 31
0.0
 11
-2.0651154548
 21
5.3815750642
 31
0.0
 11
-1.9474202319
 21
5.2660208096
 31
0.0
 11
-1.8363424093
 21
5.1362457273
 31
0.0
 11
-1.7336556179
 21
4.994308854
 31
0.0
 11
-1.6411062121
 21
4.8426660734
 31
0.0
 11
-1.5601137893
 21
4.683745854
 31
0.0
 11
-1.4917199192
 21
4.5195723741
 31
0.0
 11
-1.437006183
 21
4.3524745253
 31
0.0
 11
-1.397127438
 21
4.1858296881
 31
0.0
 11
-1.3727673516
 21
4.0232117157
 31
0.0
 11
-1.3681380183
 21
3.9706467745
 31
0.0
  0
SPLINE
  5
2A4
100
AcDbEntity
  8
ASSI
100
AcDbSpline
 62
253
  6
CONTINUOUS
 70
0
 71
3
 72
17
 73
13
 74
11
 42
0.0000001
 43
0.0000001
 44
0.0000000001
 12
-0.3882100219
 22
-0.1914956984
 32
0.0
 13
-0.3871832493
 23
0.1935633102
 33
0.0
 40
0.0
 40
0.0
 40
0.0
 40
0.0
 40
0.0899749204
 40
0.1866926925
 40
0.2887145724
 40
0.3943429537
 40
0.501743173
 40
0.6089913359
 40
0.7141671611
 40
0.8154559107
 40
0.911195113
 40
1.0
 40
1.0
 40
1.0
 40
1.0
 10
5.6444034152
 20
4.4700984677
 30
0.0
 10
5.63276036
 20
4.4643551977
 30
0.0
 10
5.6078395088
 20
4.4539510681
 30
0.0
 10
5.567898726
 20
4.441907188
 30
0.0
 10
5.5248212362
 20
4.433074644
 30
0.0
 10
5.479635368
 20
4.4276708438
 30
0.0
 10
5.4334121293
 20
4.425824057
 30
0.0
 10
5.3872504683
 20
4.4275794409
 30
0.0
 10
5.3422477681
 20
4.4328939415
 30
0.0
 10
5.2994703375
 20
4.4416413742
 30
0.0
 10
5.2599384288
 20
4.4536065311
 30
0.0
 10
5.2353363552
 20
4.4639765025
 30
0.0
 10
5.2238751003
 20
4.4697062918
 30
0.0
 11
5.6444034152
 21
4.4700984677
 31
0.0
 11
5.608529099
 21
4.4549344835
 31
0.0
 11
5.5684823065
 21
4.4427260413
 31
0.0
 11
5.5252367666
 21
4.433774141
 31
0.0
 11
5.4798424293
 21
4.4282975729
 31
0.0
 11
5.4333895562
 21
4.426427993
 31
0.0
 11
5.3869991457
 21
4.4282109128
 31
0.0
 11
5.3417919754
 21
4.433602985
 31
0.0
 11
5.2988538806
 21
4.4424745139
 31
0.0
 11
5.2592273065
 21
4.4546086377
 31
0.0
 11
5.2238751003
 21
4.4697062918
 31
0.0
  0
SPLINE
  5
2A5
100
AcDbEntity
  8
ASSI
100
AcDbSpline
 62
253
  6
CONTINUOUS
 70
0
 71
3
 72
13
 73
9
 74
7
 42
0.0000001
 43
0.0000001
 44
0.0000000001
 12
-0.1426851185
 22
0.0713529958
 32
0.0
 13
0.0295346599
 23
0.1574391586
 33
0.0
 40
0.0
 40
0.0
 40
0.0
 40
0.0
 40
0.2197022595
 40
0.4171950789
 40
0.5934908375
 40
0.7524978134
 40
0.9014584516
 40
1.0
 40
1.0
 40
1.0
 40
1.0
 10
-9.7090316301
 20
11.936159657
 30
0.0
 10
-9.7194810445
 20
11.9413851284
 30
0.0
 10
-9.7387753164
 20
11.9524962203
 30
0.0
 10
-9.7635504375
 20
11.9722795874
 30
0.0
 10
-9.7820993368
 20
11.9939783083
 30
0.0
 10
-9.7938408338
 20
12.017239374
 30
0.0
 10
-9.7976828752
 20
12.0388623504
 30
0.0
 10
-9.7965136228
 20
12.0520903903
 30
0.0
 10
-9.7955434925
 20
12.0572618232
 30
0.0
 11
-9.7090316301
 21
11.936159657
 31
0.0
 11
-9.7392814729
 21
11.9538630272
 31
0.0
 11
-9.7637121373
 21
11.9737575226
 31
0.0
 11
-9.7817216367
 21
11.9953597908
 31
0.0
 11
-9.79286981
 21
12.0181453904
 31
0.0
 11
-9.7968885264
 21
12.0415670339
 31
0.0
 11
-9.7955434925
 21
12.0572618232
 31
0.0
  0
SPLINE
  5
2A6
100
AcDbEntity
  8
ASSI
100
AcDbSpline
 62
253
  6
CONTINUOUS
 70
0
 71
3
 72
12
 73
8
 74
6
 42
0.0000001
 43
0.0000001
 44
0.0000000001
 12
0.0235525246
 22
0.1255504435
 32
0.0
 13
0.1124667953
 23
0.0594633249
 33
0.0
 40
0.0
 40
0.0
 40
0.0
 40
0.0
 40
0.062800613
 40
0.2610413881
 40
0.4804933674
 40
0.7263212361
 40
1.0
 40
1.0
 40
1.0
 40
1.0
 10
-9.7955434925
 20
12.0572618232
 30
0.0
 10
-9.7950504548
 20
12.0598900381
 30
0.0
 10
-9.7924593186
 20
12.0707124149
 30
0.0
 10
-9.7837601935
 20
12.0894114398
 30
0.0
 10
-9.7659553819
 20
12.11148141
 30
0.0
 10
-9.7418613892
 20
12.1317483142
 30
0.0
 10
-9.7229626504
 20
12.1432269219
 30
0.0
 10
-9.7127027259
 20
12.1486515383
 30
0.0
 11
-9.7955434925
 21
12.0572618232
 31
0.0
 11
-9.7936801553
 21
12.0650588648
 31
0.0
 11
-9.7833229026
 21
12.0880539751
 31
0.0
 11
-9.7660657661
 21
12.1100000771
 31
0.0
 11
-9.7423305953
 21
12.1303643301
 31
0.0
 11
-9.7127027259
 21
12.1486515383
 31
0.0
  0
SPLINE
  5
2A7
100
AcDbEntity
  8
ASSI
100
AcDbSpline
 62
253
  6
CONTINUOUS
 70
0
 71
3
 72
13
 73
9
 74
7
 42
0.0000001
 43
0.0000001
 44
0.0000000001
 12
-0.0184861225
 22
-0.6881737366
 32
0.0
 13
-0.5053631422
 23
-0.4685855246
 33
0.0
 40
0.0
 40
0.0
 40
0.0
 40
0.0
 40
0.1417113146
 40
0.3464696438
 40
0.5398118029
 40
0.7211331501
 40
0.891303766
 40
1.0
 40
1.0
 40
1.0
 40
1.0
 10
-1.3644879942
 20
3.8179293307
 30
0.0
 10
-1.3653612251
 20
3.7854219957
 30
0.0
 10
-1.3702124262
 20
3.7059975252
 30
0.0
 10
-1.3892587654
 20
3.5833621126
 30
0.0
 10
-1.4264642561
 20
3.4553319963
 30
0.0
 10
-1.4788377907
 20
3.3412961953
 30
0.0
 10
-1.5386435673
 20
3.2536423859
 30
0.0
 10
-1.5827255032
 20
3.2069538467
 30
0.0
 10
-1.60103586
 20
3.1899760194
 30
0.0
 11
-1.3644879942
 21
3.8179293307
 31
0.0
 11
-1.3705631731
 21
3.7205696403
 31
0.0
 11
-1.392708131
 21
3.5814236209
 31
0.0
 11
-1.4304204829
 21
3.4538390193
 31
0.0
 11
-1.4830742101
 21
3.3407235919
 31
0.0
 11
-1.5495523382
 21
3.244326834
 31
0.0
 11
-1.60103586
 21
3.1899760194
 31
0.0
  0
SPLINE
  5
2A8
100
AcDbEntity
  8
ASSI
100
AcDbSpline
 62
253
  6
CONTINUOUS
 70
0
 71
3
 72
27
 73
23
 74
21
 42
0.0000001
 43
0.0000001
 44
0.0000000001
 12
-2.1295480651
 22
-1.9745709849
 32
0.0
 13
-0.0218418729
 23
2.899561129
 33
0.0
 40
0.0
 40
0.0
 40
0.0
 40
0.0
 40
0.0126533349
 40
0.0501409892
 40
0.0876557827
 40
0.1261361184
 40
0.1664338113
 40
0.2092070015
 40
0.2548606103
 40
0.3035502532
 40
0.3552315133
 40
0.4096874153
 40
0.4665867774
 40
0.5255122442
 40
0.5859371656
 40
0.6472039573
 40
0.7087079608
 40
0.7700247279
 40
0.8306380643
 40
0.88970593
 40
0.946392656
 40
1.0
 40
1.0
 40
1.0
 40
1.0
 10
-1.60103586
 20
3.1899760194
 30
0.0
 10
-1.6100178216
 20
3.1816477168
 30
0.0
 10
-1.6466861265
 20
3.1498090492
 30
0.0
 10
-1.7180372343
 20
3.1029999954
 30
0.0
 10
-1.8210081643
 20
3.0629608686
 30
0.0
 10
-1.9325696777
 20
3.0441801321
 30
0.0
 10
-2.0506510975
 20
3.0467518582
 30
0.0
 10
-2.1733342556
 20
3.0703608866
 30
0.0
 10
-2.2987652398
 20
3.1144403723
 30
0.0
 10
-2.4250743076
 20
3.1781915673
 30
0.0
 10
-2.5503576802
 20
3.2605628769
 30
0.0
 10
-2.6727189165
 20
3.3602519154
 30
0.0
 10
-2.790303178
 20
3.4757224431
 30
0.0
 10
-2.9013044305
 20
3.6052061935
 30
0.0
 10
-3.0039456171
 20
3.7466455098
 30
0.0
 10
-3.0965782758
 20
3.8977544367
 30
0.0
 10
-3.1778182184
 20
4.0562476612
 30
0.0
 10
-3.2464855289
 20
4.2198988163
 30
0.0
 10
-3.3014297925
 20
4.3861840974
 30
0.0
 10
-3.3416072212
 20
4.5520588143
 30
0.0
 10
-3.366343359
 20
4.7140807533
 30
0.0
 10
-3.3726573327
 20
4.8206952987
 30
0.0
 10
-3.3730476276
 20
4.872507889
 30
0.0
 11
-1.60103586
 21
3.1899760194
 31
0.0
 11
-1.6287887239
 21
3.1659008359
 31
0.0
 11
-1.7197647799
 21
3.1064094292
 31
0.0
 11
-1.8210940344
 21
3.0668447119
 31
0.0
 11
-1.9310544168
 21
3.047906825
 31
0.0
 11
-2.0478868429
 21
3.0498712107
 31
0.0
 11
-2.1697967911
 21
3.0726892038
 31
0.0
 11
-2.2948879351
 21
3.1160072643
 31
0.0
 11
-2.4211686178
 21
3.1791397921
 31
0.0
 11
-2.5466360545
 21
3.2610855674
 31
0.0
 11
-2.6692877028
 21
3.3605332153
 31
0.0
 11
-2.7872063785
 21
3.4759289677
 31
0.0
 11
-2.8985704532
 21
3.6055135081
 31
0.0
 11
-3.0015880317
 21
3.7472392165
 31
0.0
 11
-3.0944912713
 21
3.898663016
 31
0.0
 11
-3.1758383018
 21
4.0573693524
 31
0.0
 11
-3.2445663239
 21
4.2213454064
 31
0.0
 11
-3.2995733112
 21
4.3882728627
 31
0.0
 11
-3.3396855992
 21
4.5547852817
 31
0.0
 11
-3.3642057184
 21
4.717317386
 31
0.0
 11
-3.3730476276
 21
4.872507889
 31
0.0
  0
SPLINE
  5
2A9
100
AcDbEntity
  8
ASSI
100
AcDbSpline
 62
253
  6
CONTINUOUS
 70
0
 71
3
 72
14
 73
10
 74
8
 42
0.0000001
 43
0.0000001
 44
0.0000000001
 12
-0.0021352354
 22
0.293580377
 32
0.0
 13
-0.2606943534
 23
0.1350275937
 33
0.0
 40
0.0
 40
0.0
 40
0.0
 40
0.0
 40
0.1375417359
 40
0.2843592423
 40
0.4361806324
 40
0.5881835054
 40
0.7355262397
 40
0.8738772597
 40
1.0
 40
1.0
 40
1.0
 40
1.0
 10
5.7845692078
 20
4.2255830613
 30
0.0
 10
5.7844713132
 20
4.2390429129
 30
0.0
 10
5.7816836065
 20
4.2668827668
 30
0.0
 10
5.7710656734
 20
4.3083633092
 30
0.0
 10
5.7543589778
 20
4.3493232126
 30
0.0
 10
5.7323755996
 20
4.3877621816
 30
0.0
 10
5.7061688671
 20
4.4218310721
 30
0.0
 10
5.6770128278
 20
4.449877198
 30
0.0
 10
5.655363244
 20
4.4644217844
 30
0.0
 10
5.6444034152
 20
4.4700984677
 30
0.0
 11
5.7845692078
 21
4.2255830613
 31
0.0
 11
5.7808072633
 21
4.2657880667
 31
0.0
 11
5.7702686369
 21
4.3075837809
 31
0.0
 11
5.7534816871
 21
4.3488747855
 31
0.0
 11
5.731288031
 21
4.387590971
 31
0.0
 11
5.7048003478
 21
4.4217913232
 31
0.0
 11
5.6753465921
 21
4.4497612352
 31
0.0
 11
5.6444034152
 21
4.4700984677
 31
0.0
  0
SPLINE
  5
2AA
100
AcDbEntity
  8
ASSI
100
AcDbSpline
 62
253
  6
CONTINUOUS
 70
0
 71
3
 72
14
 73
10
 74
8
 42
0.0000001
 43
0.0000001
 44
0.0000000001
 12
-0.0001666295
 22
0.2930098836
 32
0.0
 13
0.260950915
 23
0.1332645476
 33
0.0
 40
0.0
 40
0.0
 40
0.0
 40
0.0
 40
0.137354997
 40
0.2837129603
 40
0.4350144585
 40
0.5866467148
 40
0.7339613452
 40
0.8727885915
 40
1.0
 40
1.0
 40
1.0
 40
1.0
 10
5.0836878959
 20
4.2262936027
 30
0.0
 10
5.0836802668
 20
4.2397090599
 30
0.0
 10
5.0862727241
 20
4.2674537628
 30
0.0
 10
5.0966936483
 20
4.3087855951
 30
0.0
 10
5.1132929379
 20
4.349558552
 30
0.0
 10
5.1352715993
 20
4.3878019749
 30
0.0
 10
5.1615874085
 20
4.4216945609
 30
0.0
 10
5.1909745819
 20
4.4496067534
 30
0.0
 10
5.2128097891
 20
4.4640553682
 30
0.0
 10
5.2238751003
 20
4.4697062918
 30
0.0
 11
5.0836878959
 21
4.2262936027
 31
0.0
 11
5.0871758116
 21
4.2663885575
 31
0.0
 11
5.0975100395
 21
4.3080091062
 31
0.0
 11
5.1141776412
 21
4.3490894165
 31
0.0
 11
5.1363513217
 21
4.387590471
 31
0.0
 11
5.1629304923
 21
4.4216012732
 31
0.0
 11
5.1925958985
 21
4.4494337002
 31
0.0
 11
5.2238751003
 21
4.4697062918
 31
0.0
  0
SPLINE
  5
2AB
100
AcDbEntity
  8
ASSI
100
AcDbSpline
 62
253
  6
CONTINUOUS
 70
0
 71
3
 72
14
 73
10
 74
8
 42
0.0000001
 43
0.0000001
 44
0.0000000001
 12
-0.0001666322
 22
0.2930098843
 32
0.0
 13
0.2609509171
 23
0.1332645449
 33
0.0
 40
0.0
 40
0.0
 40
0.0
 40
0.0
 40
0.1373551825
 40
0.2837133145
 40
0.435014922
 40
0.5866471981
 40
0.7339617476
 40
0.872788823
 40
1.0
 40
1.0
 40
1.0
 40
1.0
 10
-9.8492188345
 20
11.6927469679
 30
0.0
 10
-9.8492264638
 20
11.7061624433
 30
0.0
 10
-9.846634
 20
11.733907181
 30
0.0
 10
-9.8362130536
 20
11.7752390549
 30
0.0
 10
-9.8196137379
 20
11.8160120329
 30
0.0
 10
-9.7976350579
 20
11.8542554507
 30
0.0
 10
-9.7713192477
 20
11.8881480073
 30
0.0
 10
-9.7419320979
 20
11.9160601557
 30
0.0
 10
-9.7200969212
 20
11.9305087438
 30
0.0
 10
-9.7090316301
 20
11.936159657
 30
0.0
 11
-9.8492188345
 21
11.6927469679
 31
0.0
 11
-9.8457309101
 21
11.7328419766
 31
0.0
 11
-9.8353966592
 21
11.7744625706
 31
0.0
 11
-9.8187290303
 21
11.8155429045
 31
0.0
 11
-9.7965553302
 21
11.8540439545
 31
0.0
 11
-9.769976159
 21
11.8880547264
 31
0.0
 11
-9.7403107787
 21
11.9158871079
 31
0.0
 11
-9.7090316301
 21
11.936159657
 31
0.0
  0
SPLINE
  5
2AC
100
AcDbEntity
  8
ASSI
100
AcDbSpline
 62
253
  6
CONTINUOUS
 70
0
 71
3
 72
15
 73
11
 74
9
 42
0.0000001
 43
0.0000001
 44
0.0000000001
 12
-0.0067576227
 22
0.8379829669
 32
0.0
 13
0.7580287499
 23
0.3606374832
 33
0.0
 40
0.0
 40
0.0
 40
0.0
 40
0.0
 40
0.1637169852
 40
0.3200692259
 40
0.46778283
 40
0.6064058017
 40
0.7365989704
 40
0.8606328372
 40
0.9816118788
 40
1.0
 40
1.0
 40
1.0
 40
1.0
 10
-3.2328739775
 20
4.8726743844
 30
0.0
 10
-3.2332427567
 20
4.918405066
 30
0.0
 10
-3.2295712279
 20
5.0079332567
 30
0.0
 10
-3.2094562155
 20
5.1373554742
 30
0.0
 10
-3.1747581627
 20
5.256460475
 30
0.0
 10
-3.1258852061
 20
5.3625835607
 30
0.0
 10
-3.0636062504
 20
5.4536404478
 30
0.0
 10
-2.9888564118
 20
5.5280612742
 30
0.0
 10
-2.9268828111
 20
5.5686921456
 30
0.0
 10
-2.891933439
 20
5.586002019
 30
0.0
 10
-2.8872871975
 20
5.5882125009
 30
0.0
 11
-3.2328739775
 21
4.8726743844
 31
0.0
 11
-3.2268463847
 21
5.009738418
 31
0.0
 11
-3.2062403384
 21
5.1391327086
 31
0.0
 11
-3.1710773234
 21
5.2578189108
 31
0.0
 11
-3.1219511039
 21
5.3630875896
 31
0.0
 11
-3.059916703
 21
5.4528385923
 31
0.0
 11
-2.9859836761
 21
5.5258986605
 31
0.0
 11
-2.9011183083
 21
5.5813613765
 31
0.0
 11
-2.8872871975
 21
5.5882125009
 31
0.0
  0
SPLINE
  5
2AD
100
AcDbEntity
  8
ASSI
100
AcDbSpline
 62
253
  6
CONTINUOUS
 70
0
 71
3
 72
13
 73
9
 74
7
 42
0.0000001
 43
0.0000001
 44
0.0000000001
 12
-0.215894351
 22
0.1079521952
 32
0.0
 13
-0.0002206955
 23
0.2421879479
 33
0.0
 40
0.0
 40
0.0
 40
0.0
 40
0.0
 40
0.2421235129
 40
0.4595101842
 40
0.6534225439
 40
0.8281339132
 40
0.9916258048
 40
1.0
 40
1.0
 40
1.0
 40
1.0
 10
-9.8492071845
 20
11.6927411387
 30
0.0
 10
-9.8666315507
 20
11.7014537269
 30
0.0
 10
-9.8987889972
 20
11.7199634088
 30
0.0
 10
-9.9400825389
 20
11.7528893706
 30
0.0
 10
-9.9709906041
 20
11.7889644975
 30
0.0
 10
-9.990561138
 20
11.8276129648
 30
0.0
 10
-9.9955386276
 20
11.8555051349
 30
0.0
 10
-9.995664585
 20
11.8693793707
 30
0.0
 10
-9.9956652011
 20
11.8700554138
 30
0.0
 11
-9.8492071845
 21
11.6927411387
 31
0.0
 11
-9.8996543503
 21
11.7222494943
 31
0.0
 11
-9.9403650489
 21
11.7553557031
 31
0.0
 11
-9.9703748459
 21
11.7912758503
 31
0.0
 11
-9.9889505714
 21
11.8291360913
 31
0.0
 11
-9.9956467494
 21
11.8680274245
 31
0.0
 11
-9.9956652011
 21
11.8700554138
 31
0.0
  0
SPLINE
  5
2AE
100
AcDbEntity
  8
ASSI
100
AcDbSpline
 62
253
  6
CONTINUOUS
 70
0
 71
3
 72
17
 73
13
 74
11
 42
0.0000001
 43
0.0000001
 44
0.0000000001
 12
-0.6478787095
 22
-0.3171133083
 32
0.0
 13
-0.6451774021
 23
0.3225737007
 33
0.0
 40
0.0
 40
0.0
 40
0.0
 40
0.0
 40
0.0899352243
 40
0.1865809494
 40
0.2885603482
 40
0.3941667178
 40
0.5015619733
 40
0.6088199202
 40
0.7140203969
 40
0.8153431384
 40
0.9111132669
 40
1.0
 40
1.0
 40
1.0
 40
1.0
 10
5.7845811639
 20
4.2255889134
 30
0.0
 10
5.7651587916
 20
4.2160823612
 30
0.0
 10
5.7236027477
 20
4.1988847656
 30
0.0
 10
5.6570247874
 20
4.1790193928
 30
0.0
 10
5.5852353
 20
4.1645001602
 30
0.0
 10
5.5099347482
 20
4.1556783054
 30
0.0
 10
5.4329081788
 20
4.1527636656
 30
0.0
 10
5.3559847411
 20
4.1558268795
 30
0.0
 10
5.2809909491
 20
4.1647935076
 30
0.0
 10
5.2097032281
 20
4.1794502829
 30
0.0
 10
5.1438090366
 20
4.1994429254
 30
0.0
 10
5.1027921538
 20
4.216741914
 30
0.0
 10
5.0836762499
 20
4.2262994215
 30
0.0
 11
5.7845811639
 21
4.2255889134
 31
0.0
 11
5.7247505072
 21
4.2005146188
 31
0.0
 11
5.6580087317
 21
4.1803796938
 31
0.0
 11
5.5859361588
 21
4.1656610387
 31
0.0
 11
5.5102865283
 21
4.1567183577
 31
0.0
 11
5.4328760798
 21
4.1537660105
 31
0.0
 11
5.3555709024
 21
4.1568753549
 31
0.0
 11
5.2802344344
 21
4.1659712106
 31
0.0
 11
5.2086754525
 21
4.1808354527
 31
0.0
 11
5.1426348
 21
4.2011049194
 31
0.0
 11
5.0836762499
 21
4.2262994215
 31
0.0
  0
SPLINE
  5
2AF
100
AcDbEntity
  8
ASSI
100
AcDbSpline
 62
253
  6
CONTINUOUS
 70
0
 71
3
 72
14
 73
10
 74
8
 42
0.0000001
 43
0.0000001
 44
0.0000000001
 12
0.0309975359
 22
-0.8964475369
 32
0.0
 13
0.8027044092
 23
-0.403511886
 33
0.0
 40
0.0
 40
0.0
 40
0.0
 40
0.0
 40
0.1705248534
 40
0.3314849556
 40
0.4829541407
 40
0.6256267012
 40
0.760935233
 40
0.8910296635
 40
1.0
 40
1.0
 40
1.0
 40
1.0
 10
5.3879176519
 20
-13.1329066229
 30
0.0
 10
5.389679602
 20
-13.1838621512
 30
0.0
 10
5.3981606361
 20
-13.2828473601
 30
0.0
 10
5.4272615347
 20
-13.4246492012
 30
0.0
 10
5.4720486863
 20
-13.5536151194
 30
0.0
 10
5.5319947859
 20
-13.6677724861
 30
0.0
 10
5.606364569
 20
-13.7653014925
 30
0.0
 10
5.6899862538
 20
-13.8407459482
 30
0.0
 10
5.7512181324
 20
-13.8783574376
 30
0.0
 10
5.7803751222
 20
-13.8930143796
 30
0.0
 11
5.3879176519
 21
-13.1329066229
 31
0.0
 11
5.4014467854
 21
-13.2852650672
 31
0.0
 11
5.4309974378
 21
-13.4265870996
 31
0.0
 11
5.4761261372
 21
-13.5547385259
 31
0.0
 11
5.5361463314
 21
-13.6677657449
 31
0.0
 11
5.6101513629
 21
-13.7639624659
 31
0.0
 11
5.6970243238
 21
-13.8418741818
 31
0.0
 11
5.7803751222
 21
-13.8930143796
 31
0.0
  0
SPLINE
  5
2B0
100
AcDbEntity
  8
ASSI
100
AcDbSpline
 62
253
  6
CONTINUOUS
 70
0
 71
3
 72
16
 73
12
 74
10
 42
0.0000001
 43
0.0000001
 44
0.0000000001
 12
-0.6379991046
 22
-0.3396733917
 32
0.0
 13
-0.6466996827
 23
0.3228008533
 33
0.0
 40
0.0
 40
0.0
 40
0.0
 40
0.0
 40
0.1015166317
 40
0.2107208998
 40
0.3256469076
 40
0.4439751589
 40
0.5631922282
 40
0.6807357597
 40
0.7941361023
 40
0.9011644343
 40
1.0
 40
1.0
 40
1.0
 40
1.0
 10
6.0885017395
 20
-13.1183242679
 30
0.0
 10
6.0669125661
 20
-13.1298184341
 30
0.0
 10
6.0203873658
 20
-13.150530238
 30
0.0
 10
5.9454193728
 20
-13.1741236612
 30
0.0
 10
5.8644949296
 20
-13.1908743335
 30
0.0
 10
5.7799802269
 20
-13.200285231
 30
0.0
 10
5.6943322417
 20
-13.2020827959
 30
0.0
 10
5.6100536918
 20
-13.1962149826
 30
0.0
 10
5.5295912889
 20
-13.1828520775
 30
0.0
 10
5.4552944345
 20
-13.1623917197
 30
0.0
 10
5.4092241966
 20
-13.1435586585
 30
0.0
 10
5.3879185536
 20
-13.1329239235
 30
0.0
 11
6.0885017395
 21
-13.1183242679
 31
0.0
 11
6.0216239324
 21
-13.1485109089
 31
0.0
 11
5.9464124526
 21
-13.172456704
 31
0.0
 11
5.8651022271
 21
-13.1894500981
 31
0.0
 11
5.7801094089
 21
-13.1989861285
 31
0.0
 11
5.69395958
 21
-13.2007814297
 31
0.0
 11
5.6092127031
 21
-13.1947826539
 31
0.0
 11
5.5283870522
 21
-13.1811680562
 31
0.0
 11
5.4538843808
 21
-13.1603421976
 31
0.0
 11
5.3879185536
 21
-13.1329239235
 31
0.0
  0
SPLINE
  5
2B1
100
AcDbEntity
  8
ASSI
100
AcDbSpline
 62
253
  6
CONTINUOUS
 70
0
 71
3
 72
13
 73
9
 74
7
 42
0.0000001
 43
0.0000001
 44
0.0000000001
 12
-0.0143748292
 22
-0.3372111877
 32
0.0
 13
-0.3122832359
 23
-0.1308988728
 33
0.0
 40
0.0
 40
0.0
 40
0.0
 40
0.0
 40
0.2203895712
 40
0.4242798477
 40
0.6117673044
 40
0.7852201422
 40
0.9494899101
 40
1.0
 40
1.0
 40
1.0
 40
1.0
 10
6.7696893988
 20
-13.618639936
 30
0.0
 10
6.768633378
 20
-13.6434125457
 30
0.0
 10
6.7633912357
 20
-13.6910641645
 30
0.0
 10
6.7449584009
 20
-13.7577236272
 30
0.0
 10
6.7166094839
 20
-13.8151007466
 30
0.0
 10
6.6789156114
 20
-13.8613594211
 30
0.0
 10
6.6430857452
 20
-13.8872869735
 30
0.0
 10
6.6211367379
 20
-13.8976240154
 30
0.0
 10
6.6158789198
 20
-13.8998279201
 30
0.0
 11
6.7696893988
 21
-13.618639936
 31
0.0
 11
6.7611524892
 21
-13.692533762
 31
0.0
 11
6.7423334854
 21
-13.7587271078
 31
0.0
 11
6.7138035304
 21
-13.8152110547
 31
0.0
 11
6.6764284869
 21
-13.8602713568
 31
0.0
 11
6.6313426599
 21
-13.8925404673
 31
0.0
 11
6.6158789198
 21
-13.8998279201
 31
0.0
  0
SPLINE
  5
2B2
100
AcDbEntity
  8
CURVE
100
AcDbSpline
 62
253
  6
CONTINUOUS
 70
0
 71
3
 72
19
 73
15
 74
13
 42
0.0000001
 43
0.0000001
 44
0.0000000001
 12
-0.1263348215
 22
5.8858948118
 32
0.0
 13
3.063213795
 23
-6.0536565775
 33
0.0
 40
0.0
 40
0.0
 40
0.0
 40
0.0
 40
0.0847457627
 40
0.1694915254
 40
0.2542372881
 40
0.3389830508
 40
0.4237288136
 40
0.5084745763
 40
0.593220339
 40
0.6779661017
 40
0.7627118644
 40
0.8474576271
 40
0.9322033898
 40
1.0
 40
1.0
 40
1.0
 40
1.0
 10
-4.2078735732
 20
-1.9653191749
 30
0.0
 10
-4.2114423534
 20
-1.7990509598
 30
0.0
 10
-4.1898933515
 20
-1.4884214858
 30
0.0
 10
-4.0733373591
 20
-1.0779913087
 30
0.0
 10
-3.8761739553
 20
-0.7493690297
 30
0.0
 10
-3.6102568863
 20
-0.5175480015
 30
0.0
 10
-3.2822948868
 20
-0.3902220613
 30
0.0
 10
-2.9139135604
 20
-0.3748592241
 30
0.0
 10
-2.5122769209
 20
-0.4723649287
 30
0.0
 10
-2.1053895231
 20
-0.6757513276
 30
0.0
 10
-1.7001572442
 20
-0.9816085947
 30
0.0
 10
-1.3248712273
 20
-1.3686800402
 30
0.0
 10
-1.0089265311
 20
-1.7985655608
 30
0.0
 10
-0.8377381834
 20
-2.0985339719
 30
0.0
 10
-0.7685130129
 20
-2.2353397703
 30
0.0
 11
-4.2078735732
 21
-1.9653191749
 31
0.0
 11
-4.1758546033
 21
-1.4976738248
 31
0.0
 11
-4.0599027906
 21
-1.0916259583
 31
0.0
 11
-3.8647150111
 21
-0.7655025715
 31
0.0
 11
-3.5999160646
 21
-0.5349638495
 31
0.0
 11
-3.2755583323
 21
-0.4088825785
 31
0.0
 11
-2.9083710082
 21
-0.3936706477
 31
0.0
 11
-2.5114017945
 21
-0.4900117111
 31
0.0
 11
-2.1056653762
 21
-0.6928298056
 31
0.0
 11
-1.7051482879
 21
-0.9951442911
 31
0.0
 11
-1.331000201
 21
-1.3809334041
 31
0.0
 11
-0.9962105827
 21
-1.8365597662
 31
0.0
 11
-0.7685130129
 21
-2.2353397703
 31
0.0
  0
SPLINE
  5
2B3
100
AcDbEntity
  8
CURVE
100
AcDbSpline
 62
253
  6
CONTINUOUS
 70
0
 71
3
 72
9
 73
5
 74
3
 42
0.0000001
 43
0.0000001
 44
0.0000000001
 12
0.4438887966
 22
-0.9347091748
 32
0.0
 13
0.1991709802
 23
-0.9494691673
 33
0.0
 40
0.0
 40
0.0
 40
0.0
 40
0.0
 40
0.5555555556
 40
1.0
 40
1.0
 40
1.0
 40
1.0
 10
-0.7178887606
 20
-2.3385794343
 30
0.0
 10
-0.6356871316
 20
-2.5116737259
 30
0.0
 10
-0.5074030641
 20
-2.8322210499
 30
0.0
 10
-0.4213892201
 20
-3.1538537148
 30
0.0
 10
-0.3918824083
 20
-3.2945158136
 30
0.0
 11
-0.7178887606
 21
-2.3385794343
 31
0.0
 11
-0.5061956441
 21
-2.868172401
 31
0.0
 11
-0.3918824083
 21
-3.2945158136
 31
0.0
  0
SPLINE
  5
2B4
100
AcDbEntity
  8
CURVE
100
AcDbSpline
 62
253
  6
CONTINUOUS
 70
0
 71
3
 72
9
 73
5
 74
3
 42
0.0000001
 43
0.0000001
 44
0.0000000001
 12
0.1327806534
 22
-0.6329794449
 32
0.0
 13
0.0128623335
 23
-0.5992515862
 33
0.0
 40
0.0
 40
0.0
 40
0.0
 40
0.0
 40
0.1666666667
 40
1.0
 40
1.0
 40
1.0
 40
1.0
 10
-0.3918824083
 20
-3.2945158136
 30
0.0
 10
-0.3845057053
 20
-3.3296813384
 30
0.0
 10
-0.3435160737
 20
-3.5398173296
 30
0.0
 10
-0.3223591471
 20
-3.7434040492
 30
0.0
 10
-0.3187862766
 20
-3.9098628231
 30
0.0
 11
-0.3918824083
 21
-3.2945158136
 31
0.0
 11
-0.3713934032
 21
-3.3995447445
 31
0.0
 11
-0.3187862766
 21
-3.9098628231
 31
0.0
  0
SPLINE
  5
2B5
100
AcDbEntity
  8
CURVE
100
AcDbSpline
 62
253
  6
CONTINUOUS
 70
0
 71
3
 72
21
 73
17
 74
15
 42
0.0000001
 43
0.0000001
 44
0.0000000001
 12
-1.0296588426
 22
-6.1287151148
 32
0.0
 13
-0.1500786078
 23
6.9921094494
 33
0.0
 40
0.0
 40
0.0
 40
0.0
 40
0.0
 40
0.0714285714
 40
0.1428571429
 40
0.2142857143
 40
0.2857142857
 40
0.3571428571
 40
0.4285714286
 40
0.5
 40
0.5714285714
 40
0.6428571429
 40
0.7142857143
 40
0.7857142857
 40
0.8571428571
 40
0.9285714286
 40
1.0
 40
1.0
 40
1.0
 40
1.0
 10
-0.3503522877
 20
-4.3773228122
 30
0.0
 10
-0.3748679745
 20
-4.5232446007
 30
0.0
 10
-0.4516916531
 20
-4.7964318059
 30
0.0
 10
-0.6468852089
 20
-5.1240464818
 30
0.0
 10
-0.9105328844
 20
-5.3547004871
 30
0.0
 10
-1.2362778841
 20
-5.4809053378
 30
0.0
 10
-1.6029387135
 20
-5.4954185174
 30
0.0
 10
-2.0036366599
 20
-5.3974449004
 30
0.0
 10
-2.4105258414
 20
-5.1940568768
 30
0.0
 10
-2.8166946983
 20
-4.8886683382
 30
0.0
 10
-3.19364738
 20
-4.5024744609
 30
0.0
 10
-3.5343239426
 20
-4.0430323437
 30
0.0
 10
-3.8159983293
 20
-3.5398772029
 30
0.0
 10
-4.0318195934
 20
-3.0066162972
 30
0.0
 10
-4.1687151424
 20
-2.4709858181
 30
0.0
 10
-4.204300273
 20
-2.1317979713
 30
0.0
 10
-4.2078735732
 20
-1.9653191749
 30
0.0
 11
-0.3503522877
 21
-4.3773228122
 31
0.0
 11
-0.4650179927
 21
-4.7827374505
 31
0.0
 11
-0.6582942288
 21
-5.10788637
 31
0.0
 11
-0.9208824384
 21
-5.3372922947
 31
0.0
 11
-1.243097189
 21
-5.4622900593
 31
0.0
 11
-1.6086115663
 21
-5.476670718
 31
0.0
 11
-2.0046685324
 21
-5.3798758327
 31
0.0
 11
-2.4104057873
 21
-5.177056791
 31
0.0
 11
-2.8118253358
 21
-4.8752007817
 31
0.0
 11
-3.1876013602
 21
-4.4902664209
 31
0.0
 11
-3.5244902466
 21
-4.0357468398
 31
0.0
 11
-3.8050228089
 21
-3.5348595754
 31
0.0
 11
-4.0186653076
 21
-3.0062213683
 31
0.0
 11
-4.1547955002
 21
-2.4754606029
 31
0.0
 11
-4.2078735732
 21
-1.9653191749
 31
0.0
  0
ELLIPSE
  5
2B6
100
AcDbEntity
  8
RACCORDO
100
AcDbEllipse
 62
7
  6
CONTINUOUS
 10
-6.0951402322
 20
13.8878175916
 30
0.0
 11
-0.0894818401
 21
0.1789012953
 31
0.0
 40
0.6122950388
 41
-0.6847996396
 42
0.013822208
  0
ELLIPSE
  5
2B7
100
AcDbEntity
  8
RACCORDO
100
AcDbEllipse
 62
7
  6
CONTINUOUS
 10
8.6394356873
 20
-12.5081667566
 30
0.0
 11
-0.1825210626
 21
0.4655826378
 31
0.0
 40
0.6539056002
 41
-3.1260688269
 42
-2.199353272
  0
ELLIPSE
  5
2B8
100
AcDbEntity
  8
RACCORDO
100
AcDbEllipse
 62
7
  6
CONTINUOUS
 10
9.3904551909
 20
6.14501988
 30
0.0
 11
-0.0894578232
 21
0.1788799337
 31
0.0
 40
0.6124778111
 41
-2.255529033
 42
-0.6848850053
  0
ELLIPSE
  5
2B9
100
AcDbEntity
  8
ASSI
100
AcDbEllipse
 62
7
  6
CONTINUOUS
 10
-6.0951402322
 20
13.8878175916
 30
0.0
 11
-0.0894818401
 21
0.1789012953
 31
0.0
 40
0.6122950388
 41
-0.6847996396
 42
0.013822208
  0
ELLIPSE
  5
2BA
100
AcDbEntity
  8
ASSI
100
AcDbEllipse
 62
7
  6
CONTINUOUS
 10
8.6394356873
 20
-12.5081667566
 30
0.0
 11
-0.1825210626
 21
0.4655826378
 31
0.0
 40
0.6539056002
 41
-3.1260688269
 42
-2.199353272
  0
ELLIPSE
  5
2BB
100
AcDbEntity
  8
ASSI
100
AcDbEllipse
 62
7
  6
CONTINUOUS
 10
9.3904551909
 20
6.14501988
 30
0.0
 11
-0.0894578232
 21
0.1788799337
 31
0.0
 40
0.6124778111
 41
-2.255529033
 42
-0.6848850053
  0
ENDSEC
  0
SECTION
  2
OBJECTS
  0
DICTIONARY
  5
C
100
AcDbDictionary
280
0
281
1
  3
ACAD_GROUP
350
D
  3
ACAD_MLINESTYLE
350
17
  3
ACAD_LAYOUT
350
1A
  3
ACAD_PLOTSETTINGS
350
19
  3
ACAD_PLOTSTYLENAME
350
E
  0
DICTIONARY
  5
D
102
{ACAD_REACTORS
330
C
102
}
100
AcDbDictionary
280
0
281
1
  0
ACDBDICTIONARYWDFLT
  5
E
102
{ACAD_REACTORS
330
C
102
}
100
AcDbDictionary
281
1
  3
Normal
350
F
100
AcDbDictionaryWithDefault
340
F
  0
DICTIONARY
  5
17
102
{ACAD_REACTORS
330
C
102
}
100
AcDbDictionary
280
0
281
1
  3
Standard
350
18
  0
DICTIONARY
  5
19
102
{ACAD_REACTORS
330
C
102
}
100
AcDbDictionary
281
1
  0
DICTIONARY
  5
1A
102
{ACAD_REACTORS
330
C
102
}
100
AcDbDictionary
281
1
  3
Model
350
2BC
  3
Layout1
350
2BD
  0
ACDBPLACEHOLDER
  5
F
102
{ACAD_REACTORS
330
E
102
}
  0
MLINESTYLE
  5
18
102
{ACAD_REACTORS
330
17
102
}
100
AcDbMlineStyle
  2
STANDARD
 70
0
  3

 62
256
 51
90.0
 52
90.0
 71
2
 49
0.5
 62
256
  6
BYLAYER
 49
-0.5
 62
256
  6
BYLAYER
  0
LAYOUT
  5
2BC
102
{ACAD_REACTORS
330
1A
102
}
100
AcDbPlotSettings
  1

  2
none_device
  4
ISO_A4_(297.00_x_210.00_MM)
  6

 40
0.0
 41
0.0
 42
0.0
 43
0.0
 44
297.0
 45
210.0
 46
0.0
 47
0.0
 48
0.0
 49
0.0
140
0.0
141
0.0
142
1.0
143
1.0
 70
1024
 72
1
 73
0
 74
0
  7

 75
0
147
1.0
148
0.0
149
0.0
100
AcDbLayout
  1
Model
 70
0
 71
0
 10
0.0
 20
0.0
 11
297.0
 21
210.0
 12
0.0
 22
0.0
 32
0.0
 14
0.0
 24
0.0
 34
0.0
 15
0.0
 25
0.0
 35
0.0
146
0.0
 13
0.0
 23
0.0
 33
0.0
 16
1.0
 26
0.0
 36
0.0
 17
0.0
 27
1.0
 37
0.0
 76
0
330
213
345
0
346
0
  0
LAYOUT
  5
2BD
102
{ACAD_REACTORS
330
1A
102
}
100
AcDbPlotSettings
  1

  2
none_device
  4
ISO_A4_(297.00_x_210.00_MM)
  6

 40
0.0
 41
0.0
 42
0.0
 43
0.0
 44
297.0
 45
210.0
 46
0.0
 47
0.0
 48
0.0
 49
0.0
140
0.0
141
0.0
142
1.0
143
1.0
 70
0
 72
1
 73
0
 74
0
  7

 75
0
147
1.0
148
0.0
149
0.0
100
AcDbLayout
  1
Layout1
 70
0
 71
1
 10
0.0
 20
0.0
 11
297.0
 21
210.0
 12
0.0
 22
0.0
 32
0.0
 14
0.0
 24
0.0
 34
0.0
 15
0.0
 25
0.0
 35
0.0
146
0.0
 13
0.0
 23
0.0
 33
0.0
 16
1.0
 26
0.0
 36
0.0
 17
0.0
 27
1.0
 37
0.0
 76
0
330
214
345
0
346
0
  0
ENDSEC
  0
EOF
