  0
SECTION
  2
HEADER
  9
$ACADVER
  1
AC1015
  9
$DWGCODEPAGE
  3
ANSI_1252
  9
$EXTMAX
 10
297.0
 20
210.0
 30
0.0
  9
$EXTMIN
 10
0.0
 20
0.0
 30
0.0
  9
$LIMMIN
 10
0.0
 20
0.0
  9
$LIMMAX
 10
297.0
 20
210.0
  9
$VIEWCTR
 10
148.5
 20
105.0
  9
$VIEWSIZE
 40
210.0
  9
$CLAYER
  8
0
  9
$LTSCALE
 40
16.335
  9
$CELTYPE
  6
BYLAYER
  9
$DIMSCALE
 40
1.0
  9
$DIMASZ
 40
3.0
  9
$DIMEXO
 40
1.85625
  9
$DIMDLI
 40
11.286
  9
$DIMEXE
 40
5.346
  9
$DIMCEN
 40
2.673
  9
$DIMLFAC
 40
1.0
  9
$DIMBLK
  1
_FILLED
  9
$DIMTXT
 40
3.0
  9
$DIMTOL
 70
1
  9
$DIMLIM
 70
0
  9
$DIMTFAC
 40
1.0
  9
$DIMTP
 40
0.01
  9
$DIMTM
 40
0.01
  9
$PDMODE
 70
3
  9
$PDSIZE
 40
3.0
  9
$HANDSEED
  5
2B7
  9
$TILEMODE
 70
1
  9
$MEASUREMENT
 70
1
  9
$INSUNITS
 70
4
  0
ENDSEC
  0
SECTION
  2
CLASSES
  0
CLASS
  1
ACDBDICTIONARYWDFLT
  2
AcDbDictionaryWithDefault
  3
AutoCAD 2000
 90
0
280
0
281
0
  0
CLASS
  1
ACDBPLACEHOLDER
  2
AcDbPlaceHolder
  3
AutoCAD 2000
 90
0
280
0
281
0
  0
CLASS
  1
LAYOUT
  2
AcDbLayout
  3
AutoCAD 2000
 90
0
280
0
281
0
  0
ENDSEC
  0
SECTION
  2
TABLES
  0
TABLE
  2
VPORT
  5
8
100
AcDbSymbolTable
 70
2
  0
VPORT
  5
1F4
100
AcDbSymbolTableRecord
100
AcDbViewportTableRecord
  2
*ACTIVE
 70
0
 10
0.0
 20
0.0
 11
1.0
 21
1.0
 12
148.5
 22
105.0
 13
0.0
 23
0.0
 14
1.0
 24
1.0
 15
0.0
 25
0.0
 16
0.0
 26
0.0
 36
1.0
 17
0.0
 27
0.0
 37
0.0
 40
210.0
 41
1.4142857143
 42
50.0
 43
0.0
 44
0.0
 50
0.0
 51
0.0
 71
0
 72
100
 73
1
 74
1
 75
0
 76
0
 77
0
 78
0
  0
ENDTAB
  0
TABLE
  2
LTYPE
  5
5
100
AcDbSymbolTable
 70
6
  0
LTYPE
  5
14
100
AcDbSymbolTableRecord
100
AcDbLinetypeTableRecord
  2
BYBLOCK
 70
0
  3

 72
65
 73
0
 40
0.0
  0
LTYPE
  5
15
100
AcDbSymbolTableRecord
100
AcDbLinetypeTableRecord
  2
BYLAYER
 70
0
  3

 72
65
 73
0
 40
0.0
  0
LTYPE
  5
16
100
AcDbSymbolTableRecord
100
AcDbLinetypeTableRecord
  2
CONTINUOUS
 70
64
  3
Solid line
 72
65
 73
0
 40
0.0
  0
LTYPE
  5
1F5
100
AcDbSymbolTableRecord
100
AcDbLinetypeTableRecord
  2
CENTER
 70
64
  3
____ _ ____ _ ____ _ ____ _ ____ _ ____ _ ____
 72
65
 73
4
 40
0.6
 49
0.375
 74
0
 49
-0.075
 74
0
 49
0.075
 74
0
 49
-0.075
 74
0
  0
LTYPE
  5
1F6
100
AcDbSymbolTableRecord
100
AcDbLinetypeTableRecord
  2
HIDDEN
 70
64
  3
- - - - - - - - - - - - - - - - - - - -
 72
65
 73
2
 40
0.2
 49
0.1
 74
0
 49
-0.1
 74
0
  0
LTYPE
  5
1F7
100
AcDbSymbolTableRecord
100
AcDbLinetypeTableRecord
  2
PHANTOM
 70
64
  3
_____ _ _ _____ _ _ _____ _ _ _____
 72
65
 73
6
 40
0.8
 49
0.45
 74
0
 49
-0.05
 74
0
 49
0.1
 74
0
 49
-0.05
 74
0
 49
0.1
 74
0
 49
-0.05
 74
0
  0
LTYPE
  5
1F8
100
AcDbSymbolTableRecord
100
AcDbLinetypeTableRecord
  2
DOT
 70
64
  3
. . . . . . . . . . . . . . . . . . . .
 72
65
 73
2
 40
0.2
 49
0.1
 74
0
 49
-0.1
 74
0
  0
LTYPE
  5
1F9
100
AcDbSymbolTableRecord
100
AcDbLinetypeTableRecord
  2
DASHED
 70
64
  3
- - - - - - - - - - - - - - - - - - - -
 72
65
 73
2
 40
0.2
 49
0.1
 74
0
 49
-0.1
 74
0
  0
ENDTAB
  0
TABLE
  2
LAYER
  5
2
100
AcDbSymbolTable
 70
36
  0
LAYER
  5
10
100
AcDbSymbolTableRecord
100
AcDbLayerTableRecord
  2
0
 70
0
 62
7
  6
CONTINUOUS
370
-3
390
F
  0
LAYER
  5
1FA
100
AcDbSymbolTableRecord
100
AcDbLayerTableRecord
  2
DEFAULT_1
 70
0
 62
7
  6
CENTER
370
-3
390
F
  0
LAYER
  5
1FB
100
AcDbSymbolTableRecord
100
AcDbLayerTableRecord
  2
DEFAULT_2
 70
0
 62
7
  6
HIDDEN
370
-3
390
F
  0
LAYER
  5
1FC
100
AcDbSymbolTableRecord
100
AcDbLayerTableRecord
  2
DEFAULT_3
 70
0
 62
7
  6
PHANTOM
370
-3
390
F
  0
LAYER
  5
1FD
100
AcDbSymbolTableRecord
100
AcDbLayerTableRecord
  2
ASSI
 70
0
 62
7
  6
CONTINUOUS
370
-3
390
F
  0
LAYER
  5
1FE
100
AcDbSymbolTableRecord
100
AcDbLayerTableRecord
  2
COORDINATE
 70
0
 62
7
  6
CONTINUOUS
370
-3
390
F
  0
LAYER
  5
1FF
100
AcDbSymbolTableRecord
100
AcDbLayerTableRecord
  2
COORD_ORIGINE
 70
0
 62
7
  6
CONTINUOUS
370
-3
390
F
  0
LAYER
  5
200
100
AcDbSymbolTableRecord
100
AcDbLayerTableRecord
  2
COPY_PUBLISH
 70
0
 62
7
  6
CONTINUOUS
370
-3
390
F
  0
LAYER
  5
201
100
AcDbSymbolTableRecord
100
AcDbLayerTableRecord
  2
COSMETIC
 70
0
 62
7
  6
CONTINUOUS
370
-3
390
F
  0
LAYER
  5
202
100
AcDbSymbolTableRecord
100
AcDbLayerTableRecord
  2
CURVE
 70
0
 62
7
  6
CONTINUOUS
370
-3
390
F
  0
LAYER
  5
203
100
AcDbSymbolTableRecord
100
AcDbLayerTableRecord
  2
DRAFT
 70
0
 62
7
  6
CONTINUOUS
370
-3
390
F
  0
LAYER
  5
204
100
AcDbSymbolTableRecord
100
AcDbLayerTableRecord
  2
IGES
 70
0
 62
7
  6
CONTINUOUS
370
-3
390
F
  0
LAYER
  5
205
100
AcDbSymbolTableRecord
100
AcDbLayerTableRecord
  2
IMPORT_IGES
 70
0
 62
7
  6
CONTINUOUS
370
-3
390
F
  0
LAYER
  5
206
100
AcDbSymbolTableRecord
100
AcDbLayerTableRecord
  2
INTF_6
 70
0
 62
7
  6
CONTINUOUS
370
-3
390
F
  0
LAYER
  5
207
100
AcDbSymbolTableRecord
100
AcDbLayerTableRecord
  2
NOTE
 70
0
 62
7
  6
CONTINUOUS
370
-3
390
F
  0
LAYER
  5
208
100
AcDbSymbolTableRecord
100
AcDbLayerTableRecord
  2
PIANI
 70
0
 62
7
  6
CONTINUOUS
370
-3
390
F
  0
LAYER
  5
209
100
AcDbSymbolTableRecord
100
AcDbLayerTableRecord
  2
PIANI_ORIGINE
 70
0
 62
7
  6
CONTINUOUS
370
-3
390
F
  0
LAYER
  5
20A
100
AcDbSymbolTableRecord
100
AcDbLayerTableRecord
  2
PIANI_RIFERIMENTO
 70
0
 62
7
  6
CONTINUOUS
370
-3
390
F
  0
LAYER
  5
20B
100
AcDbSymbolTableRecord
100
AcDbLayerTableRecord
  2
PUNTI
 70
0
 62
7
  6
CONTINUOUS
370
-3
390
F
  0
LAYER
  5
20C
100
AcDbSymbolTableRecord
100
AcDbLayerTableRecord
  2
RACCORDO
 70
0
 62
7
  6
CONTINUOUS
370
-3
390
F
  0
LAYER
  5
20D
100
AcDbSymbolTableRecord
100
AcDbLayerTableRecord
  2
SMUSSO
 70
0
 62
7
  6
CONTINUOUS
370
-3
390
F
  0
LAYER
  5
20E
100
AcDbSymbolTableRecord
100
AcDbLayerTableRecord
  2
SUPERFICI
 70
0
 62
7
  6
CONTINUOUS
370
-3
390
F
  0
LAYER
  5
20F
100
AcDbSymbolTableRecord
100
AcDbLayerTableRecord
  2
TRASH
 70
0
 62
7
  6
CONTINUOUS
370
-3
390
F
  0
LAYER
  5
210
100
AcDbSymbolTableRecord
100
AcDbLayerTableRecord
  2
XSEC_DATUMS
 70
0
 62
7
  6
CONTINUOUS
370
-3
390
F
  0
ENDTAB
  0
TABLE
  2
STYLE
  5
3
100
AcDbSymbolTable
 70
1
  0
STYLE
  5
11
100
AcDbSymbolTableRecord
100
AcDbTextStyleTableRecord
  2
STANDARD
 70
0
 40
0.0
 41
0.8
 50
0.0
 71
0
 42
0.2
  3
txt
  4

  0
STYLE
  5
211
100
AcDbSymbolTableRecord
100
AcDbTextStyleTableRecord
  2
TEXTSTYLE_1
 70
0
 40
0.0
 41
0.8
 50
0.0
 71
0
 42
0.2
  3
gdt
  4

  0
ENDTAB
  0
TABLE
  2
VIEW
  5
6
100
AcDbSymbolTable
 70
0
  0
ENDTAB
  0
TABLE
  2
UCS
  5
7
100
AcDbSymbolTable
 70
0
  0
ENDTAB
  0
TABLE
  2
APPID
  5
9
100
AcDbSymbolTable
 70
1
  0
APPID
  5
212
100
AcDbSymbolTableRecord
100
AcDbRegAppTableRecord
  2
ACAD
 70
0
  0
ENDTAB
  0
TABLE
  2
BLOCK_RECORD
  5
1
100
AcDbSymbolTable
 70
0
  0
BLOCK_RECORD
  5
213
100
AcDbSymbolTableRecord
100
AcDbBlockTableRecord
  2
*Model_Space
  0
BLOCK_RECORD
  5
214
100
AcDbSymbolTableRecord
100
AcDbBlockTableRecord
  2
*Paper_Space
  0
ENDTAB
  0
TABLE
  2
DIMSTYLE
  5
A
100
AcDbSymbolTable
 70
1
100
AcDbDimStyleTable
 71
0
  0
DIMSTYLE
105
215
100
AcDbSymbolTableRecord
100
AcDbDimStyleTableRecord
  2
STANDARD
 70
0
  3

  4

 40
1.0
 41
3.0
 42
0.0625
 43
0.38
 44
0.18
 45
0.0
 46
0.0
 47
0.01
 48
0.01
140
3.0
141
0.09
142
0.0
143
25.4
144
1.0
145
0.0
146
1.0
147
0.09
 71
1.0
 72
0.0
 73
0
 74
0
 75
0
 76
0
 77
1
 78
8
170
0
171
2
172
0
173
0
174
0
175
0
176
0
177
0
178
0
270
2
271
2
272
2
273
2
274
2
275
0
280
0
281
0
282
0
283
1
284
8
285
0
286
0
287
3
288
0
340
11
  0
ENDTAB
  0
ENDSEC
  0
SECTION
  2
BLOCKS
  0
BLOCK
  5
20
100
AcDbEntity
  8
0
100
AcDbBlockBegin
  2
*Model_Space
 70
0
 10
0.0
 20
0.0
 30
0.0
  3
*Model_Space
  1

  0
ENDBLK
  5
21
100
AcDbEntity
  8
0
100
AcDbBlockEnd
  0
BLOCK
  5
1C
100
AcDbEntity
  8
0
100
AcDbBlockBegin
  2
*Paper_Space
 70
0
 10
0.0
 20
0.0
 30
0.0
  3
*Paper_Space
  1

  0
ENDBLK
  5
1D
100
AcDbEntity
  8
0
100
AcDbBlockEnd
  0
ENDSEC
  0
SECTION
  2
ENTITIES
  0
LWPOLYLINE
  5
216
100
AcDbEntity
  8
RACCORDO
100
AcDbPolyline
 62
7
  6
CONTINUOUS
 90
16
 70
0
 10
-9.7095314453
 20
11.9952950051
 10
-9.730725631
 20
11.9826314475
 10
-9.7504818475
 20
11.9693049654
 10
-9.7688051636
 20
11.9553778572
 10
-9.78575285
 20
11.940874962
 10
-9.8013971794
 20
11.9257885376
 10
-9.8157474214
 20
11.9101559765
 10
-9.8288054781
 20
11.8940258592
 10
-9.8405925022
 20
11.8774190055
 10
-9.851094036
 20
11.8604025271
 10
-9.8603143011
 20
11.8430273043
 10
-9.8682747875
 20
11.8253057226
 10
-9.8749632667
 20
11.8073151341
 10
-9.8803788035
 20
11.7891209598
 10
-9.8845380351
 20
11.7707267059
 10
-9.8874390705
 20
11.7521858918
  0
LWPOLYLINE
  5
217
100
AcDbEntity
  8
ASSI
100
AcDbPolyline
 62
7
  6
CONTINUOUS
 90
11
 70
0
 10
-9.6987162722
 20
12.001189302
 10
-9.7117906837
 20
11.9940174918
 10
-9.7443518066
 20
11.9736133518
 10
-9.7740828204
 20
11.9510436193
 10
-9.8008510692
 20
11.9263467808
 10
-9.8243725264
 20
11.8997368686
 10
-9.844519612
 20
11.8713398492
 10
-9.8611280393
 20
11.8413508848
 10
-9.873926294
 20
11.8103602041
 10
-9.882855027
 20
11.7788739075
 10
-9.8880042401
 20
11.7471742286
  0
LINE
  5
218
100
AcDbEntity
  8
RACCORDO
100
AcDbLine
 62
7
  6
CONTINUOUS
 10
-9.6987832869
 20
12.001153887
 11
-9.7095314453
 21
11.9952950051
  0
LINE
  5
219
100
AcDbEntity
  8
RACCORDO
100
AcDbLine
 62
7
  6
CONTINUOUS
 10
-9.6987597576
 20
12.0011668445
 11
-6.0799551029
 21
13.9142233925
  0
LINE
  5
21A
100
AcDbEntity
  8
ASSI
100
AcDbLine
 62
7
  6
CONTINUOUS
 10
-9.6987597576
 20
12.0011668445
 11
-6.0799551029
 21
13.9142233925
  0
LINE
  5
21B
100
AcDbEntity
  8
RACCORDO
100
AcDbLine
 62
253
  6
CONTINUOUS
 10
-9.6065224893
 20
11.9969345275
 11
-5.9889815372
 21
13.9093230277
  0
LINE
  5
21C
100
AcDbEntity
  8
ASSI
100
AcDbLine
 62
253
  6
CONTINUOUS
 10
-9.6065224893
 20
11.9969345275
 11
-5.9889815372
 21
13.9093230277
  0
LINE
  5
21D
100
AcDbEntity
  8
DRAFT
100
AcDbLine
 62
7
  6
CONTINUOUS
 10
-4.2653847106
 20
12.1228249332
 11
-5.3323701268
 21
11.4370239113
  0
LINE
  5
21E
100
AcDbEntity
  8
ASSI
100
AcDbLine
 62
7
  6
CONTINUOUS
 10
-4.2653847106
 20
12.1228249332
 11
-5.3323701268
 21
11.4370239113
  0
LINE
  5
21F
100
AcDbEntity
  8
DRAFT
100
AcDbLine
 62
7
  6
CONTINUOUS
 10
-4.2653847106
 20
13.0475246144
 11
-6.2011135724
 21
11.8713956341
  0
LINE
  5
220
100
AcDbEntity
  8
ASSI
100
AcDbLine
 62
7
  6
CONTINUOUS
 10
-4.2653847106
 20
13.0475246144
 11
-6.2011135724
 21
11.8713956341
  0
LINE
  5
221
100
AcDbEntity
  8
ASSI
100
AcDbLine
 62
7
  6
CONTINUOUS
 10
-9.8880042401
 20
11.7471742286
 11
-9.8894854344
 21
11.7183353691
  0
LWPOLYLINE
  5
222
100
AcDbEntity
  8
RACCORDO
100
AcDbPolyline
 62
7
  6
CONTINUOUS
 90
3
 70
0
 10
-9.8874390705
 20
11.7521858918
 10
-9.8890777831
 20
11.7336000542
 10
-9.8894855
 20
11.7183966487
  0
LWPOLYLINE
  5
223
100
AcDbEntity
  8
RACCORDO
100
AcDbPolyline
 62
7
  6
CONTINUOUS
 90
19
 70
0
 10
5.9195146075
 20
-14.0604270062
 10
5.9568180874
 20
-14.0762450086
 10
5.9949885709
 20
-14.0904172346
 10
6.0339816938
 20
-14.1029055818
 10
6.0737877255
 20
-14.1136810311
 10
6.11434987
 20
-14.1226995507
 10
6.1556001176
 20
-14.1299211638
 10
6.1975177397
 20
-14.1353161779
 10
6.2400423049
 20
-14.1388479222
 10
6.2831085246
 20
-14.1404826211
 10
6.3266958584
 20
-14.1401918253
 10
6.3707404122
 20
-14.1379469012
 10
6.4151848411
 20
-14.1337210569
 10
6.4600287771
 20
-14.1274802913
 10
6.5052217529
 20
-14.1191957927
 10
6.5507051856
 20
-14.1088420067
 10
6.5964778846
 20
-14.0963777523
 10
6.6425055066
 20
-14.0817668
 10
6.688711637
 20
-14.0649894765
  0
LWPOLYLINE
  5
224
100
AcDbEntity
  8
ASSI
100
AcDbPolyline
 62
7
  6
CONTINUOUS
 90
10
 70
0
 10
5.8865660885
 20
-14.0447386452
 10
5.9435009707
 20
-14.0708271053
 10
6.0184642307
 20
-14.098170085
 10
6.096429814
 20
-14.1189540884
 10
6.176992693
 20
-14.1329152843
 10
6.2599308109
 20
-14.1398429199
 10
6.3447903735
 20
-14.1395051399
 10
6.4311007928
 20
-14.1317325902
 10
6.5187485215
 20
-14.1163278343
 10
6.6074791743
 20
-14.0930752292
  0
LINE
  5
225
100
AcDbEntity
  8
RACCORDO
100
AcDbLine
 62
7
  6
CONTINUOUS
 10
-9.141770058
 20
-6.5255073279
 11
-9.1039655439
 21
-6.5481982226
  0
LWPOLYLINE
  5
226
100
AcDbEntity
  8
ASSI
100
AcDbPolyline
 62
7
  6
CONTINUOUS
 90
12
 70
0
 10
-9.5938825299
 20
-5.6743521444
 10
-9.5839017795
 20
-5.7783433461
 10
-9.5667852563
 20
-5.8778265377
 10
-9.5427906946
 20
-5.9725185512
 10
-9.512133582
 20
-6.0622863115
 10
-9.4749774402
 20
-6.1470255476
 10
-9.4315660316
 20
-6.2264115372
 10
-9.3821736645
 20
-6.3001186295
 10
-9.3270808088
 20
-6.3678670147
 10
-9.2666979308
 20
-6.4292600325
 10
-9.2015177165
 20
-6.4839331827
 10
-9.132089842
 20
-6.5315689996
  0
LWPOLYLINE
  5
227
100
AcDbEntity
  8
RACCORDO
100
AcDbPolyline
 62
7
  6
CONTINUOUS
 90
22
 70
0
 10
-9.5956998851
 20
-5.6353304325
 10
-9.5935122449
 20
-5.6803543974
 10
-9.5887041028
 20
-5.7378486836
 10
-9.5817286362
 20
-5.7939351673
 10
-9.5726370549
 20
-5.8485629444
 10
-9.5614778314
 20
-5.9017168674
 10
-9.548289027
 20
-5.9533970719
 10
-9.5331128285
 20
-6.0035738718
 10
-9.5159953689
 20
-6.0522090218
 10
-9.4969766419
 20
-6.0992741429
 10
-9.4761029646
 20
-6.1447266376
 10
-9.4534253309
 20
-6.1885250229
 10
-9.428996346
 20
-6.2306255323
 10
-9.40287753
 20
-6.270973968
 10
-9.3751311162
 20
-6.3095285566
 10
-9.3458216689
 20
-6.3462486427
 10
-9.315024266
 20
-6.3810841902
 10
-9.2828200124
 20
-6.4139886226
 10
-9.2492968276
 20
-6.4449202889
 10
-9.2145464311
 20
-6.4738410855
 10
-9.1786671074
 20
-6.5007147262
 10
-9.141770058
 20
-6.5255073279
  0
LINE
  5
228
100
AcDbEntity
  8
ASSI
100
AcDbLine
 62
7
  6
CONTINUOUS
 10
-9.5956991965
 20
-5.6353508676
 11
-9.5938825299
 21
-5.6743521444
  0
LWPOLYLINE
  5
229
100
AcDbEntity
  8
RACCORDO
100
AcDbPolyline
 62
7
  6
CONTINUOUS
 90
3
 70
0
 10
-9.6838490333
 20
-2.773772474
 10
-9.6415219096
 20
-4.2125213914
 10
-9.5957002867
 20
-5.6353266376
  0
LWPOLYLINE
  5
22A
100
AcDbEntity
  8
RACCORDO
100
AcDbPolyline
 62
7
  6
CONTINUOUS
 90
10
 70
0
 10
-9.8867381186
 20
10.2725483276
 10
-9.8800249841
 20
8.8144780252
 10
-9.869353948
 20
7.3584883887
 10
-9.8547250884
 20
5.9045977712
 10
-9.8361385794
 20
4.4528224196
 10
-9.8135946055
 20
3.0031778876
 10
-9.7870933783
 20
1.5556803041
 10
-9.7566351792
 20
0.1103456632
 10
-9.7222202884
 20
-1.3328106798
 10
-9.6838490333
 20
-2.773772474
  0
LWPOLYLINE
  5
22B
100
AcDbEntity
  8
ASSI
100
AcDbPolyline
 62
7
  6
CONTINUOUS
 90
10
 70
0
 10
-9.8894855529
 20
11.7184373021
 10
-9.8851016498
 20
9.8255432986
 10
-9.8735627162
 20
7.8709102958
 10
-9.8549014136
 20
5.9200422969
 10
-9.8291181064
 20
3.9729802733
 10
-9.7962132604
 20
2.0297627568
 10
-9.7561874546
 20
0.0904275667
 10
-9.7090413902
 20
-1.8449868793
 10
-9.6547759783
 20
-3.7764395399
 10
-9.5957002866
 20
-5.6353266404
  0
LINE
  5
22C
100
AcDbEntity
  8
RACCORDO
100
AcDbLine
 62
7
  6
CONTINUOUS
 10
-9.8894855529
 20
11.7184372997
 11
-9.8867381186
 21
10.2725483276
  0
LINE
  5
22D
100
AcDbEntity
  8
RACCORDO
100
AcDbLine
 62
7
  6
CONTINUOUS
 10
5.8874602031
 20
-14.0451869573
 11
5.9195146075
 21
-14.0604270062
  0
LINE
  5
22E
100
AcDbEntity
  8
RACCORDO
100
AcDbLine
 62
7
  6
CONTINUOUS
 10
5.8875742061
 20
-14.0452442022
 11
-9.0648272437
 21
-6.5690434774
  0
LINE
  5
22F
100
AcDbEntity
  8
ASSI
100
AcDbLine
 62
7
  6
CONTINUOUS
 10
5.8875742061
 20
-14.0452442022
 11
-9.0648272437
 21
-6.5690434774
  0
LINE
  5
230
100
AcDbEntity
  8
RACCORDO
100
AcDbLine
 62
7
  6
CONTINUOUS
 10
5.8874489525
 20
-14.0451815584
 11
5.8875673557
 21
-14.0452407771
  0
LINE
  5
231
100
AcDbEntity
  8
RACCORDO
100
AcDbLine
 62
253
  6
CONTINUOUS
 10
5.4940978886
 20
-13.2846236338
 11
-9.4492370643
 21
-5.8129561578
  0
LINE
  5
232
100
AcDbEntity
  8
ASSI
100
AcDbLine
 62
253
  6
CONTINUOUS
 10
5.4940978886
 20
-13.2846236338
 11
-9.4492370643
 21
-5.8129561578
  0
LINE
  5
233
100
AcDbEntity
  8
RACCORDO
100
AcDbLine
 62
7
  6
CONTINUOUS
 10
-9.1039655439
 20
-6.5481982226
 11
-9.0646173967
 21
-6.5691481365
  0
LINE
  5
234
100
AcDbEntity
  8
ASSI
100
AcDbLine
 62
7
  6
CONTINUOUS
 10
-9.132089842
 20
-6.5315689996
 11
-9.0638582161
 21
-6.5695266457
  0
LINE
  5
235
100
AcDbEntity
  8
DRAFT
100
AcDbLine
 62
7
  6
CONTINUOUS
 10
-2.4710605049
 20
5.4688797636
 11
-2.6412016628
 21
5.379060623
  0
LINE
  5
236
100
AcDbEntity
  8
ASSI
100
AcDbLine
 62
7
  6
CONTINUOUS
 10
-2.7811077893
 20
5.4364972314
 11
-2.7799182129
 21
5.4370615199
  0
LINE
  5
237
100
AcDbEntity
  8
RACCORDO
100
AcDbLine
 62
7
  6
CONTINUOUS
 10
-2.78002818
 20
5.4370095201
 11
-2.7799182129
 21
5.4370615199
  0
LINE
  5
238
100
AcDbEntity
  8
RACCORDO
100
AcDbLine
 62
7
  6
CONTINUOUS
 10
-2.780040185
 20
5.4370034592
 11
-2.7655540368
 21
5.443529959
  0
LWPOLYLINE
  5
239
100
AcDbEntity
  8
ASSI
100
AcDbPolyline
 62
7
  6
CONTINUOUS
 90
25
 70
0
 10
-2.7811196166
 20
5.4364912898
 10
-2.7396982442
 20
5.453634552
 10
-2.6715722499
 20
5.4718374347
 10
-2.5987398159
 20
5.4797630077
 10
-2.521704918
 20
5.4771875269
 10
-2.4412147271
 20
5.4639838305
 10
-2.3580820374
 20
5.4401667772
 10
-2.2731615901
 20
5.4058837297
 10
-2.187445819
 20
5.361475313
 10
-2.1017915534
 20
5.3073602131
 10
-2.0167780563
 20
5.2438494412
 10
-1.9331816308
 20
5.1714253869
 10
-1.8519152029
 20
5.0908022251
 10
-1.7736571183
 20
5.0025910832
 10
-1.6991157931
 20
4.9075144995
 10
-1.6290549132
 20
4.8064849955
 10
-1.5641455809
 20
4.7004387856
 10
-1.5049855748
 20
4.5903443106
 10
-1.4521134685
 20
4.477215677
 10
-1.4060073556
 20
4.3621147545
 10
-1.3670669008
 20
4.2461180084
 10
-1.3356050331
 20
4.1302853804
 10
-1.3118616524
 20
4.0156970241
 10
-1.2959945225
 20
3.903430866
 10
-1.2880683176
 20
3.7945122492
  0
LINE
  5
23A
100
AcDbEntity
  8
RACCORDO
100
AcDbLine
 62
7
  6
CONTINUOUS
 10
-2.7655540368
 20
5.443529959
 11
-2.7360610709
 21
5.4549051814
  0
LWPOLYLINE
  5
23B
100
AcDbEntity
  8
RACCORDO
100
AcDbPolyline
 62
7
  6
CONTINUOUS
 90
54
 70
0
 10
-2.7360610709
 20
5.4549051814
 10
-2.7058210763
 20
5.4641194156
 10
-2.6747568506
 20
5.4712338879
 10
-2.642903333
 20
5.4762638813
 10
-2.6103311824
 20
5.4792166669
 10
-2.5770147906
 20
5.4801058871
 10
-2.5430074833
 20
5.4789356302
 10
-2.5083863953
 20
5.4757113307
 10
-2.4731652574
 20
5.4704343911
 10
-2.4374133381
 20
5.4631138747
 10
-2.4012110229
 20
5.4537632135
 10
-2.3645880156
 20
5.4423853925
 10
-2.3276189596
 20
5.4289989329
 10
-2.2903853136
 20
5.4136273412
 10
-2.2529225097
 20
5.3962775622
 10
-2.215304962
 20
5.3769769859
 10
-2.1776132858
 20
5.3557587441
 10
-2.1398870448
 20
5.3326348773
 10
-2.1022001716
 20
5.3076416398
 10
-2.0646300791
 20
5.2808203045
 10
-2.0272174513
 20
5.2521871021
 10
-1.9900265507
 20
5.2217790524
 10
-1.9531406726
 20
5.1896513122
 10
-1.916625767
 20
5.1558475471
 10
-1.8805489255
 20
5.1204190366
 10
-1.8449849519
 20
5.083428034
 10
-1.8100076555
 20
5.0449391946
 10
-1.7756842238
 20
5.005018308
 10
-1.7420807465
 20
4.9637343124
 10
-1.7092654118
 20
4.9211612574
 10
-1.6772994385
 20
4.8773723089
 10
-1.6462443286
 20
4.8324464125
 10
-1.6161647111
 20
4.7864699934
 10
-1.58711617
 20
4.7395243819
 10
-1.5591526567
 20
4.6916950464
 10
-1.532332199
 20
4.6430776261
 10
-1.5067041076
 20
4.5937613097
 10
-1.4823129768
 20
4.5438348173
 10
-1.4592059827
 20
4.4933951326
 10
-1.4374251066
 20
4.4425372995
 10
-1.4170053757
 20
4.391351292
 10
-1.3979811273
 20
4.3399277205
 10
-1.3803848915
 20
4.2883600897
 10
-1.3642446702
 20
4.2367430658
 10
-1.3495866579
 20
4.1851701569
 10
-1.3364333408
 20
4.1337301838
 10
-1.3248050006
 20
4.0825240608
 10
-1.3147216548
 20
4.0316648421
 10
-1.3061956231
 20
3.9812437335
 10
-1.2992343511
 20
3.9313533048
 10
-1.2938450066
 20
3.8821093845
 10
-1.2900280651
 20
3.8336102813
 10
-1.2877760018
 20
3.7859406966
 10
-1.2871145435
 20
3.75168014
  0
LINE
  5
23C
100
AcDbEntity
  8
DRAFT
100
AcDbLine
 62
7
  6
CONTINUOUS
 10
-5.2465194178
 20
11.4922041444
 11
-5.2465194178
 21
11.3940985568
  0
LINE
  5
23D
100
AcDbEntity
  8
ASSI
100
AcDbLine
 62
7
  6
CONTINUOUS
 10
-5.2465194178
 20
11.4922041444
 11
-5.2465194178
 21
11.3940985568
  0
LINE
  5
23E
100
AcDbEntity
  8
DRAFT
100
AcDbLine
 62
7
  6
CONTINUOUS
 10
-4.2653847106
 20
13.0475246144
 11
-4.2653847106
 21
12.1228249332
  0
LINE
  5
23F
100
AcDbEntity
  8
ASSI
100
AcDbLine
 62
7
  6
CONTINUOUS
 10
-4.2653847106
 20
13.0475246144
 11
-4.2653847106
 21
12.1228249332
  0
LWPOLYLINE
  5
240
100
AcDbEntity
  8
RACCORDO
100
AcDbPolyline
 62
7
  6
CONTINUOUS
 90
3
 70
0
 10
-1.5465070642
 20
3.1048086376
 10
-1.5726768289
 20
3.0885912525
 10
-1.5850443143
 20
3.0818035846
  0
LINE
  5
241
100
AcDbEntity
  8
ASSI
100
AcDbLine
 62
7
  6
CONTINUOUS
 10
-1.5586774212
 20
3.0969410348
 11
-1.5860192922
 21
3.0812907989
  0
LINE
  5
242
100
AcDbEntity
  8
RACCORDO
100
AcDbLine
 62
7
  6
CONTINUOUS
 10
-1.5848674042
 20
3.0818969288
 11
-1.5850422851
 21
3.0818046519
  0
LINE
  5
243
100
AcDbEntity
  8
ASSI
100
AcDbLine
 62
7
  6
CONTINUOUS
 10
-1.5848674042
 20
3.0818969288
 11
-1.5860185476
 21
3.0812911916
  0
LINE
  5
244
100
AcDbEntity
  8
DRAFT
100
AcDbLine
 62
7
  6
CONTINUOUS
 10
-1.3757497522
 20
3.3083484284
 11
-1.5618587132
 21
3.2203747219
  0
LINE
  5
245
100
AcDbEntity
  8
DRAFT
100
AcDbLine
 62
7
  6
CONTINUOUS
 10
7.7730601425
 20
7.0283021878
 11
5.4661483172
 21
6.0377646893
  0
LINE
  5
246
100
AcDbEntity
  8
ASSI
100
AcDbLine
 62
7
  6
CONTINUOUS
 10
7.7730601425
 20
7.0283021878
 11
5.4661483172
 21
6.0377646893
  0
LINE
  5
247
100
AcDbEntity
  8
ASSI
100
AcDbLine
 62
7
  6
CONTINUOUS
 10
-1.2880683176
 20
3.7945122492
 11
-1.287114807
 21
3.7517215218
  0
LWPOLYLINE
  5
248
100
AcDbEntity
  8
RACCORDO
100
AcDbPolyline
 62
7
  6
CONTINUOUS
 90
21
 70
0
 10
-1.2871143764
 20
3.751674958
 10
-1.2872405704
 20
3.7204173883
 10
-1.2886536012
 20
3.6763112016
 10
-1.2915134341
 20
3.6331449061
 10
-1.2958102495
 20
3.591024254
 10
-1.3015312985
 20
3.5500077767
 10
-1.3086689727
 20
3.5101210084
 10
-1.3172098249
 20
3.4714386466
 10
-1.3271340514
 20
3.4340374105
 10
-1.3384290478
 20
3.3979573726
 10
-1.3510727075
 20
3.3632749725
 10
-1.3650383037
 20
3.330060436
 10
-1.3803081085
 20
3.2983518422
 10
-1.3968494251
 20
3.268221336
 10
-1.4146324869
 20
3.2397228614
 10
-1.4336490845
 20
3.2128718779
 10
-1.4538629758
 20
3.1877313716
 10
-1.4752497108
 20
3.1643409336
 10
-1.4978348769
 20
3.1426893041
 10
-1.5215893759
 20
3.1228341134
 10
-1.5465070642
 20
3.1048086376
  0
LINE
  5
249
100
AcDbEntity
  8
ASSI
100
AcDbLine
 62
7
  6
CONTINUOUS
 10
-1.2871141802
 20
3.7516500147
 11
-1.2891594755
 21
3.6667159608
  0
LWPOLYLINE
  5
24A
100
AcDbEntity
  8
ASSI
100
AcDbPolyline
 62
7
  6
CONTINUOUS
 90
9
 70
0
 10
-1.2891594755
 20
3.6667159608
 10
-1.2986452774
 20
3.5692902081
 10
-1.3157314125
 20
3.4776214222
 10
-1.3402856915
 20
3.3925323687
 10
-1.3719997843
 20
3.3150795376
 10
-1.4102722794
 20
3.2463812583
 10
-1.4544246385
 20
3.1870771307
 10
-1.5039874214
 20
3.1372754257
 10
-1.5586774212
 20
3.0969410348
  0
LINE
  5
24B
100
AcDbEntity
  8
RACCORDO
100
AcDbLine
 62
253
  6
CONTINUOUS
 10
9.4966569691
 20
6.1665037745
 11
5.7505836519
 21
4.3183814569
  0
LINE
  5
24C
100
AcDbEntity
  8
ASSI
100
AcDbLine
 62
253
  6
CONTINUOUS
 10
9.4966569691
 20
6.1665037745
 11
5.7505836519
 21
4.3183814569
  0
LINE
  5
24D
100
AcDbEntity
  8
RACCORDO
100
AcDbLine
 62
253
  6
CONTINUOUS
 10
9.6380783262
 20
5.9226077998
 11
5.8907614007
 21
4.0738719491
  0
LINE
  5
24E
100
AcDbEntity
  8
ASSI
100
AcDbLine
 62
253
  6
CONTINUOUS
 10
9.6380783262
 20
5.9226077998
 11
5.8907614007
 21
4.0738719491
  0
LINE
  5
24F
100
AcDbEntity
  8
RACCORDO
100
AcDbLine
 62
253
  6
CONTINUOUS
 10
5.1898564846
 20
4.0745824158
 11
-9.7430269498
 21
11.541024133
  0
LINE
  5
250
100
AcDbEntity
  8
ASSI
100
AcDbLine
 62
253
  6
CONTINUOUS
 10
5.1898564846
 20
4.0745824158
 11
-9.7430269498
 21
11.541024133
  0
LINE
  5
251
100
AcDbEntity
  8
RACCORDO
100
AcDbLine
 62
253
  6
CONTINUOUS
 10
5.3300553369
 20
4.3179892809
 11
-9.6028513935
 21
11.7844426461
  0
LINE
  5
252
100
AcDbEntity
  8
ASSI
100
AcDbLine
 62
253
  6
CONTINUOUS
 10
5.3300553369
 20
4.3179892809
 11
-9.6028513935
 21
11.7844426461
  0
LINE
  5
253
100
AcDbEntity
  8
DRAFT
100
AcDbLine
 62
7
  6
CONTINUOUS
 10
-6.2011135724
 20
11.8713956341
 11
5.4661483172
 21
6.0377646893
  0
LINE
  5
254
100
AcDbEntity
  8
ASSI
100
AcDbLine
 62
7
  6
CONTINUOUS
 10
-6.2011135724
 20
11.8713956341
 11
5.4661483172
 21
6.0377646893
  0
LINE
  5
255
100
AcDbEntity
  8
RACCORDO
100
AcDbLine
 62
7
  6
CONTINUOUS
 10
9.6380783262
 20
5.9226077998
 11
9.6380783262
 21
-5.1625371532
  0
LINE
  5
256
100
AcDbEntity
  8
ASSI
100
AcDbLine
 62
7
  6
CONTINUOUS
 10
9.6380783262
 20
5.9226077998
 11
9.6380783262
 21
-5.1625371532
  0
LINE
  5
257
100
AcDbEntity
  8
RACCORDO
100
AcDbLine
 62
7
  6
CONTINUOUS
 10
9.6380783262
 20
-5.1625371532
 11
9.0991945165
 21
-12.8370954702
  0
LINE
  5
258
100
AcDbEntity
  8
ASSI
100
AcDbLine
 62
7
  6
CONTINUOUS
 10
9.6380783262
 20
-5.1625371532
 11
9.0991945165
 21
-12.8370954702
  0
LINE
  5
259
100
AcDbEntity
  8
RACCORDO
100
AcDbLine
 62
7
  6
CONTINUOUS
 10
-5.9889815372
 20
13.9093230277
 11
-4.2653847106
 21
13.0475246144
  0
LINE
  5
25A
100
AcDbEntity
  8
ASSI
100
AcDbLine
 62
7
  6
CONTINUOUS
 10
-5.9889815372
 20
13.9093230277
 11
-4.2653847106
 21
13.0475246144
  0
LINE
  5
25B
100
AcDbEntity
  8
RACCORDO
100
AcDbLine
 62
7
  6
CONTINUOUS
 10
7.7730601425
 20
7.0283021878
 11
9.4966569691
 21
6.1665037745
  0
LINE
  5
25C
100
AcDbEntity
  8
ASSI
100
AcDbLine
 62
7
  6
CONTINUOUS
 10
7.7730601425
 20
7.0283021878
 11
9.4966569691
 21
6.1665037745
  0
LINE
  5
25D
100
AcDbEntity
  8
RACCORDO
100
AcDbLine
 62
253
  6
CONTINUOUS
 10
6.8758696354
 20
-13.7703569469
 11
9.0991945165
 21
-12.8370954702
  0
LINE
  5
25E
100
AcDbEntity
  8
ASSI
100
AcDbLine
 62
253
  6
CONTINUOUS
 10
6.8758696354
 20
-13.7703569469
 11
9.0991945165
 21
-12.8370954702
  0
LINE
  5
25F
100
AcDbEntity
  8
RACCORDO
100
AcDbLine
 62
7
  6
CONTINUOUS
 10
6.72206239
 20
-14.0515526453
 11
8.9328613401
 21
-13.1235490456
  0
LINE
  5
260
100
AcDbEntity
  8
ASSI
100
AcDbLine
 62
7
  6
CONTINUOUS
 10
6.72206239
 20
-14.0515526453
 11
8.9328613401
 21
-13.1235490456
  0
LINE
  5
261
100
AcDbEntity
  8
RACCORDO
100
AcDbLine
 62
7
  6
CONTINUOUS
 10
6.688711637
 20
-14.0649894765
 11
6.7220485112
 21
-14.0515582646
  0
LWPOLYLINE
  5
262
100
AcDbEntity
  8
ASSI
100
AcDbPolyline
 62
7
  6
CONTINUOUS
 90
3
 70
0
 10
6.6074791743
 20
-14.0930752292
 10
6.69678081
 20
-14.0618409297
 10
6.7218803416
 20
-14.0516287484
  0
ARC
  5
263
100
AcDbEntity
  8
ASSI
100
AcDbCircle
 62
253
  6
CONTINUOUS
 10
523.2173544957
 20
4.3712455395
 40
518.0275803887
100
AcDbArc
 50
180.1137635295
 51
180.3367370449
  0
ARC
  5
264
100
AcDbEntity
  8
RACCORDO
100
AcDbCircle
 62
253
  6
CONTINUOUS
 10
516.5334472094
 20
4.3196750744
 40
510.6427009096
100
AcDbArc
 50
180.0275799125
 51
181.2598968168
  0
ARC
  5
265
100
AcDbEntity
  8
ASSI
100
AcDbCircle
 62
253
  6
CONTINUOUS
 10
516.5334472094
 20
4.3196750744
 40
510.6427009096
100
AcDbArc
 50
180.0275799125
 51
181.2598968168
  0
ARC
  5
266
100
AcDbEntity
  8
RACCORDO
100
AcDbCircle
 62
253
  6
CONTINUOUS
 10
506.0653513367
 20
4.095775199
 40
500.1722280064
100
AcDbArc
 50
181.2606210499
 51
181.9896906447
  0
ARC
  5
267
100
AcDbEntity
  8
ASSI
100
AcDbCircle
 62
253
  6
CONTINUOUS
 10
506.0653513367
 20
4.095775199
 40
500.1722280064
100
AcDbArc
 50
181.2606210499
 51
181.9896906447
  0
ARC
  5
268
100
AcDbEntity
  8
ASSI
100
AcDbCircle
 62
253
  6
CONTINUOUS
 10
-2.8671281419
 20
3.7025058382
 40
1.6093869689
100
AcDbArc
 50
1.7736577592
 51
4.1484313484
  0
ARC
  5
269
100
AcDbEntity
  8
RACCORDO
100
AcDbCircle
 62
253
  6
CONTINUOUS
 10
-2.8042686431
 20
3.7048263258
 40
1.5464863614
100
AcDbArc
 50
0.4239617853
 51
2.311089802
  0
ARC
  5
26A
100
AcDbEntity
  8
ASSI
100
AcDbCircle
 62
253
  6
CONTINUOUS
 10
-2.7939562595
 20
3.7049993613
 40
1.5361729827
100
AcDbArc
 50
0.4203541752
 51
1.7651699455
  0
ARC
  5
26B
100
AcDbEntity
  8
ASSI
100
AcDbCircle
 62
253
  6
CONTINUOUS
 10
-2.7266704433
 20
3.7054154855
 40
1.4688859265
100
AcDbArc
 50
358.4706486447
 51
0.423378304
  0
ARC
  5
26C
100
AcDbEntity
  8
RACCORDO
100
AcDbCircle
 62
7
  6
CONTINUOUS
 10
-1.640800735
 20
4.2396858713
 40
1.1007054639
100
AcDbArc
 50
237.1726665365
 51
240.9484598453
  0
ARC
  5
26D
100
AcDbEntity
  8
RACCORDO
100
AcDbCircle
 62
7
  6
CONTINUOUS
 10
-1.6742079264
 20
4.1801392332
 40
1.0324284262
100
AcDbArc
 50
240.9644641986
 51
243.4252663163
  0
ARC
  5
26E
100
AcDbEntity
  8
RACCORDO
100
AcDbCircle
 62
253
  6
CONTINUOUS
 10
-8.8150255878
 20
-6.0706105599
 40
0.5575366565
100
AcDbArc
 50
237.2828405986
 51
239.1307429259
  0
ARC
  5
26F
100
AcDbEntity
  8
RACCORDO
100
AcDbCircle
 62
253
  6
CONTINUOUS
 10
-8.8164945907
 20
-6.0730682081
 40
0.5546734408
100
AcDbArc
 50
239.1307359386
 51
240.8543340768
  0
ARC
  5
270
100
AcDbEntity
  8
ASSI
100
AcDbCircle
 62
253
  6
CONTINUOUS
 10
-8.8164945907
 20
-6.0730682081
 40
0.5546734408
100
AcDbArc
 50
239.1307359386
 51
240.8543340768
  0
ARC
  5
271
100
AcDbEntity
  8
RACCORDO
100
AcDbCircle
 62
253
  6
CONTINUOUS
 10
-8.8173939904
 20
-6.074665619
 40
0.5528402511
100
AcDbArc
 50
240.8551146842
 51
241.1322443117
  0
ARC
  5
272
100
AcDbEntity
  8
ASSI
100
AcDbCircle
 62
253
  6
CONTINUOUS
 10
-8.8185062768
 20
-6.0767000622
 40
0.5505216817
100
AcDbArc
 50
240.8531004996
 51
243.4218763644
  0
ARC
  5
273
100
AcDbEntity
  8
RACCORDO
100
AcDbCircle
 62
253
  6
CONTINUOUS
 10
-8.8186387658
 20
-6.0769557553
 40
0.550233731
100
AcDbArc
 50
241.1306241623
 51
243.4223019095
  0
ARC
  5
274
100
AcDbEntity
  8
RACCORDO
100
AcDbCircle
 62
253
  6
CONTINUOUS
 10
-2.5719851469
 20
4.9969319108
 40
0.4867731251
100
AcDbArc
 50
115.4110493643
 51
121.2294727049
  0
ARC
  5
275
100
AcDbEntity
  8
RACCORDO
100
AcDbCircle
 62
253
  6
CONTINUOUS
 10
-1.8104419503
 20
3.5091173788
 40
0.4831159082
100
AcDbArc
 50
293.2646624662
 51
297.692312034
  0
ARC
  5
276
100
AcDbEntity
  8
RACCORDO
100
AcDbCircle
 62
253
  6
CONTINUOUS
 10
-1.8097009686
 20
3.5076877732
 40
0.481505704
100
AcDbArc
 50
297.6932954149
 51
297.8122085722
  0
SPLINE
  5
277
100
AcDbEntity
  8
RACCORDO
100
AcDbSpline
 62
7
  6
CONTINUOUS
 70
0
 71
3
 72
10
 73
6
 74
4
 42
0.0000001
 43
0.0000001
 44
0.0000000001
 12
0.5309507646
 22
-0.2654753776
 32
0.0
 13
0.5366819963
 23
0.2536896016
 33
0.0
 40
0.0
 40
0.0
 40
0.0
 40
0.0
 40
0.3683960887
 40
0.69741576
 40
1.0
 40
1.0
 40
1.0
 40
1.0
 10
-2.1360800007
 20
3.2567852154
 30
0.0
 10
-2.070879939
 20
3.2241851851
 30
0.0
 10
-1.939794686
 20
3.1756055586
 30
0.0
 10
-1.7394470164
 20
3.1614031476
 30
0.0
 10
-1.6159890957
 20
3.1947872879
 30
0.0
 10
-1.5618585911
 20
3.2203747796
 30
0.0
 11
-2.1360800007
 21
3.2567852154
 31
0.0
 11
-1.929982654
 21
3.1836540064
 31
0.0
 11
-1.7349872092
 21
3.1725212202
 31
0.0
 11
-1.5618585911
 21
3.2203747796
 31
0.0
  0
SPLINE
  5
278
100
AcDbEntity
  8
RACCORDO
100
AcDbSpline
 62
7
  6
CONTINUOUS
 70
0
 71
3
 72
14
 73
10
 74
8
 42
0.0000001
 43
0.0000001
 44
0.0000000001
 12
-2.1334127319
 22
-1.1262489471
 32
0.0
 13
2.0328953942
 23
-1.3102034695
 33
0.0
 40
0.0
 40
0.0
 40
0.0
 40
0.0
 40
0.1126354234
 40
0.2431064815
 40
0.3946442942
 40
0.5607875776
 40
0.7319683022
 40
0.897607205
 40
1.0
 40
1.0
 40
1.0
 40
1.0
 10
-2.641201504
 20
5.3790607069
 30
0.0
 10
-2.7213007861
 20
5.3367755312
 30
0.0
 10
-2.8700839035
 20
5.1953361284
 30
0.0
 10
-2.9778742916
 20
4.8879258604
 30
0.0
 10
-2.9791779721
 20
4.5227306863
 30
0.0
 10
-2.8819251539
 20
4.1383077048
 30
0.0
 10
-2.6997007302
 20
3.7737252669
 30
0.0
 10
-2.4765272491
 20
3.4965563238
 30
0.0
 10
-2.3068878504
 20
3.3594726401
 30
0.0
 10
-2.2375032367
 20
3.314754175
 30
0.0
 11
-2.641201504
 21
5.3790607069
 31
0.0
 11
-2.8414838436
 21
5.1954241819
 31
0.0
 11
-2.9558089294
 21
4.9021667583
 31
0.0
 11
-2.9645449456
 21
4.5366946947
 31
0.0
 11
-2.8695589792
 21
4.1473010718
 31
0.0
 11
-2.6850067747
 21
3.7778695487
 31
0.0
 11
-2.4316171741
 21
3.4688881382
 31
0.0
 11
-2.2375032367
 21
3.314754175
 31
0.0
  0
SPLINE
  5
279
100
AcDbEntity
  8
RACCORDO
100
AcDbSpline
 62
253
  6
CONTINUOUS
 70
0
 71
3
 72
9
 73
5
 74
3
 42
0.0000001
 43
0.0000001
 44
0.0000000001
 12
0.3395855464
 22
0.1619021856
 32
0.0
 13
0.150727241
 23
0.3448598941
 33
0.0
 40
0.0
 40
0.0
 40
0.0
 40
0.0
 40
0.6211298308
 40
1.0
 40
1.0
 40
1.0
 40
1.0
 10
-1.5618664368
 20
3.220405023
 30
0.0
 10
-1.4915575325
 20
3.253925782
 30
0.0
 10
-1.3925518736
 20
3.3389187493
 30
0.0
 10
-1.3305754628
 20
3.4484983337
 30
0.0
 10
-1.311540111
 20
3.4920507091
 30
0.0
 11
-1.5618664368
 21
3.220405023
 31
0.0
 11
-1.382852764
 21
3.3689946894
 31
0.0
 11
-1.311540111
 21
3.4920507091
 31
0.0
  0
SPLINE
  5
27A
100
AcDbEntity
  8
RACCORDO
100
AcDbSpline
 62
253
  6
CONTINUOUS
 70
0
 71
3
 72
8
 73
4
 74
2
 42
0.0000001
 43
0.0000001
 44
0.0000000001
 12
0.0835988337
 22
-0.0417994168
 32
0.0
 13
0.0882735387
 23
-0.032464483
 33
0.0
 40
0.0
 40
0.0
 40
0.0
 40
0.0
 40
1.0
 40
1.0
 40
1.0
 40
1.0
 10
-2.1616259828
 20
3.3014116891
 30
0.0
 10
-2.1337597049
 20
3.2874785502
 30
0.0
 10
-2.1050283976
 20
3.274853346
 30
0.0
 10
-2.0756038847
 20
3.2640318517
 30
0.0
 11
-2.1616259828
 21
3.3014116891
 31
0.0
 11
-2.0756038847
 21
3.2640318517
 31
0.0
  0
SPLINE
  5
27B
100
AcDbEntity
  8
RACCORDO
100
AcDbSpline
 62
253
  6
CONTINUOUS
 70
0
 71
3
 72
10
 73
6
 74
4
 42
0.0000001
 43
0.0000001
 44
0.0000000001
 12
0.4497329471
 22
-0.165398916
 32
0.0
 13
0.3975809252
 23
0.2706053485
 33
0.0
 40
0.0
 40
0.0
 40
0.0
 40
0.0
 40
0.3604798126
 40
0.8430695357
 40
1.0
 40
1.0
 40
1.0
 40
1.0
 10
-2.0756038847
 20
3.2640318517
 30
0.0
 10
-2.0215640019
 20
3.2441575283
 30
0.0
 10
-1.8897102897
 20
3.2119051069
 30
0.0
 10
-1.7250490905
 20
3.233045334
 30
0.0
 10
-1.6355515663
 20
3.283269997
 30
0.0
 10
-1.6147540466
 20
3.2974254046
 30
0.0
 11
-2.0756038847
 21
3.2640318517
 31
0.0
 11
-1.9075341735
 21
3.2257315075
 31
0.0
 11
-1.6804265705
 21
3.2608311578
 31
0.0
 11
-1.6147540466
 21
3.2974254046
 31
0.0
  0
SPLINE
  5
27C
100
AcDbEntity
  8
RACCORDO
100
AcDbSpline
 62
253
  6
CONTINUOUS
 70
0
 71
3
 72
20
 73
16
 74
14
 42
0.0000001
 43
0.0000001
 44
0.0000000001
 12
1.9147547356
 22
1.3032387614
 32
0.0
 13
-2.0512188492
 23
1.0256094246
 33
0.0
 40
0.0
 40
0.0
 40
0.0
 40
0.0
 40
0.0662565476
 40
0.172252553
 40
0.2807617212
 40
0.3876493116
 40
0.4891401078
 40
0.5827829581
 40
0.667365994
 40
0.7427209878
 40
0.8091277958
 40
0.8672357412
 40
0.9178505631
 40
0.9617902467
 40
1.0
 40
1.0
 40
1.0
 40
1.0
 10
-1.6147540466
 20
3.2974254046
 30
0.0
 10
-1.5724657005
 20
3.326208105
 30
0.0
 10
-1.4750375891
 20
3.4207164615
 30
0.0
 10
-1.3889166486
 20
3.6230223091
 30
0.0
 10
-1.3625433875
 20
3.8694947596
 30
0.0
 10
-1.3866598089
 20
4.1118362092
 30
0.0
 10
-1.4450715401
 20
4.3359628039
 30
0.0
 10
-1.5251389989
 20
4.5347767543
 30
0.0
 10
-1.6172915373
 20
4.7057314711
 30
0.0
 10
-1.7146089502
 20
4.8491368907
 30
0.0
 10
-1.8122958742
 20
4.9669129286
 30
0.0
 10
-1.9071045104
 20
5.0617014341
 30
0.0
 10
-1.9969589401
 20
5.1364261931
 30
0.0
 10
-2.0806689661
 20
5.194044317
 30
0.0
 10
-2.1355004607
 20
5.2248650999
 30
0.0
 10
-2.1616259828
 20
5.237927861
 30
0.0
 11
-1.6147540466
 21
3.2974254046
 31
0.0
 11
-1.5041121591
 21
3.4032938697
 31
0.0
 11
-1.4014556719
 21
3.6236379461
 31
0.0
 11
-1.3710560085
 21
3.870621718
 31
0.0
 11
-1.3935017721
 21
4.11472068
 31
0.0
 11
-1.4514901454
 21
4.3401334186
 31
0.0
 11
-1.5315287163
 21
4.5394150933
 31
0.0
 11
-1.6236218126
 21
4.7101369263
 31
0.0
 11
-1.7208115561
 21
4.8530314644
 31
0.0
 11
-1.8182152197
 21
4.9701025915
 31
0.0
 11
-1.9126274773
 21
5.0641492571
 31
0.0
 11
-2.0020239659
 21
5.1381901063
 31
0.0
 11
-2.0851500497
 21
5.1951489022
 31
0.0
 11
-2.1616259828
 21
5.237927861
 31
0.0
  0
SPLINE
  5
27D
100
AcDbEntity
  8
RACCORDO
100
AcDbSpline
 62
253
  6
CONTINUOUS
 70
0
 71
3
 72
22
 73
18
 74
16
 42
0.0000001
 43
0.0000001
 44
0.0000000001
 12
-2.5607350466
 22
1.2803675233
 32
0.0
 13
2.5607350466
 23
-1.2803675233
 33
0.0
 40
0.0
 40
0.0
 40
0.0
 40
0.0
 40
0.0926031929
 40
0.1728708975
 40
0.252045775
 40
0.3369516027
 40
0.4238704212
 40
0.5094903106
 40
0.590787205
 40
0.6657976871
 40
0.733551015
 40
0.7939124321
 40
0.8471061098
 40
0.8936521728
 40
0.9341960337
 40
0.9693929376
 40
1.0
 40
1.0
 40
1.0
 40
1.0
 10
-2.1616259828
 20
5.237927861
 30
0.0
 10
-2.2406700633
 20
5.2774499012
 30
0.0
 10
-2.4012215785
 20
5.3315850788
 30
0.0
 10
-2.6507448785
 20
5.2995483905
 30
0.0
 10
-2.8382194745
 20
5.1421024814
 30
0.0
 10
-2.934336066
 20
4.9163170294
 30
0.0
 10
-2.9607092421
 20
4.6698444418
 30
0.0
 10
-2.9365929516
 20
4.4275029777
 30
0.0
 10
-2.8781810103
 20
4.2033764381
 30
0.0
 10
-2.7981134691
 20
4.0045625379
 30
0.0
 10
-2.7059607875
 20
3.8336078927
 30
0.0
 10
-2.6086432851
 20
3.690202521
 30
0.0
 10
-2.5109562852
 20
3.5724265176
 30
0.0
 10
-2.4161475673
 20
3.4776380727
 30
0.0
 10
-2.326293131
 20
3.4029132788
 30
0.0
 10
-2.242583019
 20
3.3452952398
 30
0.0
 10
-2.1877515086
 20
3.314474452
 30
0.0
 10
-2.1616259828
 20
3.3014116891
 30
0.0
 11
-2.1616259828
 21
5.237927861
 31
0.0
 11
-2.4157166071
 21
5.3136086351
 31
0.0
 11
-2.6428257177
 21
5.278508231
 31
0.0
 11
-2.8191400701
 21
5.1360455487
 31
0.0
 11
-2.9217969714
 21
4.9157012652
 31
0.0
 11
-2.9521966596
 21
4.6687174809
 31
0.0
 11
-2.9297509271
 21
4.4246185033
 31
0.0
 11
-2.8717624227
 21
4.1992058302
 31
0.0
 11
-2.7917237387
 21
3.9999242121
 31
0.0
 11
-2.6996305173
 21
3.8292024416
 31
0.0
 11
-2.6024406789
 21
3.686307951
 31
0.0
 11
-2.5050369351
 21
3.569236864
 31
0.0
 11
-2.4106246085
 21
3.4751902329
 31
0.0
 11
-2.3212280979
 21
3.4011493946
 31
0.0
 11
-2.2381019359
 21
3.344190638
 31
0.0
 11
-2.1616259828
 21
3.3014116891
 31
0.0
  0
SPLINE
  5
27E
100
AcDbEntity
  8
RACCORDO
100
AcDbSpline
 62
253
  6
CONTINUOUS
 70
0
 71
3
 72
10
 73
6
 74
4
 42
0.0000001
 43
0.0000001
 44
0.0000000001
 12
-0.3299144048
 22
0.0551632938
 32
0.0
 13
-0.2948151155
 23
-0.1575324314
 33
0.0
 40
0.0
 40
0.0
 40
0.0
 40
0.0
 40
0.1558001164
 40
0.902949814
 40
1.0
 40
1.0
 40
1.0
 40
1.0
 10
-2.3150917149
 20
5.4246066548
 30
0.0
 10
-2.3322252825
 20
5.4274714707
 30
0.0
 10
-2.4322899143
 20
5.4400301868
 30
0.0
 10
-2.5470955499
 20
5.4252993332
 30
0.0
 10
-2.6316095999
 20
5.3840545215
 30
0.0
 10
-2.6411468872
 20
5.3789583376
 30
0.0
 11
-2.3150917149
 21
5.4246066548
 31
0.0
 11
-2.3668638807
 21
5.4310354732
 31
0.0
 11
-2.6120139925
 21
5.3931568812
 31
0.0
 11
-2.6411468872
 21
5.3789583376
 31
0.0
  0
SPLINE
  5
27F
100
AcDbEntity
  8
RACCORDO
100
AcDbSpline
 62
253
  6
CONTINUOUS
 70
0
 71
3
 72
25
 73
21
 74
19
 42
0.0000001
 43
0.0000001
 44
0.0000000001
 12
-2.3248498876
 22
-1.0001863859
 32
0.0
 13
-0.0204362378
 23
2.5263069234
 33
0.0
 40
0.0
 40
0.0
 40
0.0
 40
0.0
 40
0.0267192735
 40
0.0677533337
 40
0.1107331811
 40
0.1563602845
 40
0.2050655163
 40
0.2570134971
 40
0.3121554317
 40
0.3702585293
 40
0.4309683043
 40
0.4938385151
 40
0.5583065137
 40
0.6236700999
 40
0.6892836167
 40
0.7546938874
 40
0.8193502232
 40
0.8823545119
 40
0.9428153147
 40
1.0
 40
1.0
 40
1.0
 40
1.0
 10
-1.6196213267
 20
3.065283547
 30
0.0
 10
-1.6403274266
 20
3.0563754624
 30
0.0
 10
-1.6943990589
 20
3.0374131177
 30
0.0
 10
-1.786958182
 20
3.0218622252
 30
0.0
 10
-1.8966858297
 20
3.0242854605
 30
0.0
 10
-2.0107022692
 20
3.0462532767
 30
0.0
 10
-2.1272857859
 20
3.0872384784
 30
0.0
 10
-2.2446992208
 20
3.1464988397
 30
0.0
 10
-2.3611730758
 20
3.2230573124
 30
0.0
 10
-2.4749441684
 20
3.3157038664
 30
0.0
 10
-2.5842876004
 20
3.42301123
 30
0.0
 10
-2.6875235332
 20
3.5433366166
 30
0.0
 10
-2.7829987389
 20
3.674768414
 30
0.0
 10
-2.869179216
 20
3.8151828493
 30
0.0
 10
-2.9447764353
 20
3.9624567252
 30
0.0
 10
-3.0086920435
 20
4.1145217056
 30
0.0
 10
-3.0598544651
 20
4.2690334839
 30
0.0
 10
-3.0972922803
 20
4.4231633583
 30
0.0
 10
-3.1203751666
 20
4.5737232898
 30
0.0
 10
-3.1263041942
 20
4.672802018
 30
0.0
 10
-3.1266937408
 20
4.7209573735
 30
0.0
 11
-1.6196213267
 21
3.065283547
 31
0.0
 11
-1.6833733116
 21
3.0428887022
 31
0.0
 11
-1.7855426048
 21
3.0253246945
 31
0.0
 11
-1.894110564
 21
3.0271816293
 31
0.0
 11
-2.0074101878
 21
3.0484134926
 31
0.0
 11
-2.1236797488
 21
3.0886912223
 31
0.0
 11
-2.241068388
 21
3.1473773776
 31
0.0
 11
-2.3577145152
 21
3.2235414084
 31
0.0
 11
-2.4717563771
 21
3.3159647233
 31
0.0
 11
-2.5814111954
 21
3.4232036377
 31
0.0
 11
-2.6849847155
 21
3.5436236134
 31
0.0
 11
-2.7808100268
 21
3.6753223739
 31
0.0
 11
-2.8672421472
 21
3.8160301844
 31
0.0
 11
-2.9429388684
 21
3.9635026999
 31
0.0
 11
-3.0069106674
 21
4.1158699372
 31
0.0
 11
-3.0581314943
 21
4.2709786078
 31
0.0
 11
-3.0955082752
 21
4.4257013944
 31
0.0
 11
-3.1183894219
 21
4.5767254479
 31
0.0
 11
-3.1266937408
 21
4.7209573735
 31
0.0
  0
SPLINE
  5
280
100
AcDbEntity
  8
RACCORDO
100
AcDbSpline
 62
253
  6
CONTINUOUS
 70
0
 71
3
 72
11
 73
7
 74
5
 42
0.0000001
 43
0.0000001
 44
0.0000000001
 12
0.0847555746
 22
0.0449312092
 32
0.0
 13
0.085994776
 23
-0.0415064383
 33
0.0
 40
0.0
 40
0.0
 40
0.0
 40
0.0
 40
0.0328334328
 40
0.3273058314
 40
0.6454080415
 40
1.0
 40
1.0
 40
1.0
 40
1.0
 10
-9.6987586847
 20
12.0011648207
 30
0.0
 10
-9.6978310792
 20
12.0016565693
 30
0.0
 10
-9.6884830173
 20
12.0063648787
 30
0.0
 10
-9.6681783166
 20
12.0116979627
 30
0.0
 10
-9.6370324321
 20
12.009237048
 30
0.0
 10
-9.6166868413
 20
12.0018404772
 30
0.0
 10
-9.6065224893
 20
11.9969345275
 30
0.0
 11
-9.6987586847
 21
12.0011648207
 31
0.0
 11
-9.6959460416
 21
12.0025810266
 31
0.0
 11
-9.6688165437
 21
12.0099728225
 31
0.0
 11
-9.6385020931
 21
12.0080586678
 31
0.0
 11
-9.6065224893
 21
11.9969345275
 31
0.0
  0
SPLINE
  5
281
100
AcDbEntity
  8
RACCORDO
100
AcDbSpline
 62
253
  6
CONTINUOUS
 70
0
 71
3
 72
12
 73
8
 74
6
 42
0.0000001
 43
0.0000001
 44
0.0000000001
 12
0.0080563836
 22
-0.241968271
 32
0.0
 13
0.215443045
 23
-0.1079044076
 33
0.0
 40
0.0
 40
0.0
 40
0.0
 40
0.0
 40
0.0846371422
 40
0.2789746407
 40
0.492065353
 40
0.7314831739
 40
1.0
 40
1.0
 40
1.0
 40
1.0
 10
-9.5956796054
 20
-5.6353297573
 30
0.0
 10
-9.5954523156
 20
-5.6421562583
 30
0.0
 10
-9.5930623048
 20
-5.6645993724
 30
0.0
 10
-9.5792785686
 20
-5.7023304226
 30
0.0
 10
-9.5480825244
 20
-5.7445751463
 30
0.0
 10
-9.5038504123
 20
-5.7825247696
 30
0.0
 10
-9.468519846
 20
-5.8033155494
 30
0.0
 10
-9.4492364851
 20
-5.8129735991
 30
0.0
 11
-9.5956796054
 21
-5.6353297573
 31
0.0
 11
-9.5935028205
 21
-5.6556773384
 31
0.0
 11
-9.5779299434
 21
-5.6998384746
 31
0.0
 11
-9.548035861
 21
-5.7415837704
 31
0.0
 11
-9.5047088841
 21
-5.7796727534
 31
0.0
 11
-9.4492364851
 21
-5.8129735991
 31
0.0
  0
SPLINE
  5
282
100
AcDbEntity
  8
RACCORDO
100
AcDbSpline
 62
253
  6
CONTINUOUS
 70
0
 71
3
 72
11
 73
7
 74
5
 42
0.0000001
 43
0.0000001
 44
0.0000000001
 12
-0.5827885381
 22
17.347419697
 32
0.0
 13
-0.0096986774
 23
17.3572036503
 33
0.0
 40
0.0
 40
0.0
 40
0.0
 40
0.0
 40
0.2483879525
 40
0.4978454065
 40
0.7483799274
 40
1.0
 40
1.0
 40
1.0
 40
1.0
 10
-9.4492370726
 20
-5.8129561537
 30
0.0
 10
-9.4974896232
 20
-4.3766594671
 30
0.0
 10
-9.5820853769
 20
-1.4974605185
 30
0.0
 10
-9.6732079763
 20
2.8315565294
 30
0.0
 10
-9.7288425832
 20
7.1798764657
 30
0.0
 10
-9.7422134892
 20
10.0852171855
 30
0.0
 10
-9.7430269498
 20
11.541024133
 30
0.0
 11
-9.4492370726
 21
-5.8129561537
 31
0.0
 11
-9.5759348236
 21
-1.5034972543
 31
0.0
 11
-9.6671351808
 21
2.8254266689
 31
0.0
 11
-9.7228382348
 21
7.1736492707
 31
0.0
 11
-9.7430269498
 21
11.541024133
 31
0.0
  0
SPLINE
  5
283
100
AcDbEntity
  8
RACCORDO
100
AcDbSpline
 62
253
  6
CONTINUOUS
 70
0
 71
3
 72
19
 73
15
 74
13
 42
0.0000001
 43
0.0000001
 44
0.0000000001
 12
0.0358343204
 22
-1.0299006361
 32
0.0
 13
0.9502173517
 23
0.3988312968
 33
0.0
 40
0.0
 40
0.0
 40
0.0
 40
0.0
 40
0.0989515448
 40
0.1924322361
 40
0.2804644318
 40
0.3634604866
 40
0.4422569605
 40
0.5180992661
 40
0.5925624004
 40
0.667392461
 40
0.7442933308
 40
0.8247208973
 40
0.9097432116
 40
1.0
 40
1.0
 40
1.0
 40
1.0
 10
6.1946819761
 20
-13.2700412788
 30
0.0
 10
6.1958639299
 20
-13.3040113651
 30
0.0
 10
6.2015520047
 20
-13.3700275292
 30
0.0
 10
6.2210662655
 20
-13.4646172597
 30
0.0
 10
6.2511021827
 20
-13.5506891852
 30
0.0
 10
6.2913042873
 20
-13.6269132386
 30
0.0
 10
6.3411758303
 20
-13.6920727199
 30
0.0
 10
6.4000371116
 20
-13.7450331951
 30
0.0
 10
6.4669610726
 20
-13.7848007107
 30
0.0
 10
6.540772147
 20
-13.8106397577
 30
0.0
 10
6.620147524
 20
-13.8221655888
 30
0.0
 10
6.7037490245
 20
-13.8193201944
 30
0.0
 10
6.7902505498
 20
-13.8023031235
 30
0.0
 10
6.8472817799
 20
-13.7823560242
 30
0.0
 10
6.8758696354
 20
-13.7703569469
 30
0.0
 11
6.1946819761
 21
-13.2700412788
 31
0.0
 11
6.2037500055
 21
-13.371609211
 31
0.0
 11
6.2235624731
 21
-13.4658839244
 31
0.0
 11
6.2538203908
 21
-13.5514084575
 31
0.0
 11
6.2940639334
 21
-13.626878571
 31
0.0
 11
6.3436851318
 21
-13.6911548809
 31
0.0
 11
6.4019351879
 21
-13.7432652956
 31
0.0
 11
6.4679311659
 21
-13.7824182031
 31
0.0
 11
6.5406715312
 21
-13.8080196353
 31
0.0
 11
6.6190567276
 21
-13.8196830467
 31
0.0
 11
6.701902983
 21
-13.8172312975
 31
0.0
 11
6.7879473648
 21
-13.8007026941
 31
0.0
 11
6.8758696354
 21
-13.7703569469
 31
0.0
  0
SPLINE
  5
284
100
AcDbEntity
  8
RACCORDO
100
AcDbSpline
 62
253
  6
CONTINUOUS
 70
0
 71
3
 72
32
 73
28
 74
26
 42
0.0000001
 43
0.0000001
 44
0.0000000001
 12
-0.0268585246
 22
3.5901034385
 32
0.0
 13
0.1443713267
 23
-3.5884598174
 33
0.0
 40
0.0
 40
0.0
 40
0.0
 40
0.0
 40
0.0411212481
 40
0.0804024156
 40
0.1175156341
 40
0.1523463096
 40
0.1850591991
 40
0.2162233139
 40
0.2466172851
 40
0.2770276966
 40
0.3082022968
 40
0.3408226516
 40
0.3754183619
 40
0.4123181708
 40
0.451651834
 40
0.4933887285
 40
0.5373590991
 40
0.5833005663
 40
0.6308803482
 40
0.6796763176
 40
0.7291592866
 40
0.7788413516
 40
0.8283789517
 40
0.8773531692
 40
0.9250802582
 40
0.9708805577
 40
1.0
 40
1.0
 40
1.0
 40
1.0
 10
-3.266867391
 20
4.7207908782
 30
0.0
 10
-3.267235543
 20
4.7700007229
 30
0.0
 10
-3.2632329301
 20
4.8663489805
 30
0.0
 10
-3.2415170211
 20
5.0056314753
 30
0.0
 10
-3.2041190286
 20
5.1338212091
 30
0.0
 10
-3.151478752
 20
5.2480414043
 30
0.0
 10
-3.0844252325
 20
5.3460492994
 30
0.0
 10
-3.0039644456
 20
5.4261559509
 30
0.0
 10
-2.9112689478
 20
5.4869454696
 30
0.0
 10
-2.8079628466
 20
5.5271862383
 30
0.0
 10
-2.6960917162
 20
5.5461504267
 30
0.0
 10
-2.5777428897
 20
5.5437258998
 30
0.0
 10
-2.4548538737
 20
5.5202138651
 30
0.0
 10
-2.3292952547
 20
5.4761741653
 30
0.0
 10
-2.2029472442
 20
5.412404272
 30
0.0
 10
-2.0777169688
 20
5.3299585917
 30
0.0
 10
-1.9554974493
 20
5.2301454201
 30
0.0
 10
-1.838134132
 20
5.1145094079
 30
0.0
 10
-1.7274185827
 20
4.9848292397
 30
0.0
 10
-1.6251092058
 20
4.8431746214
 30
0.0
 10
-1.5328329327
 20
4.6918444994
 30
0.0
 10
-1.4519513932
 20
4.5331369015
 30
0.0
 10
-1.3836224083
 20
4.3692900436
 30
0.0
 10
-1.3289753051
 20
4.2028389725
 30
0.0
 10
-1.2890348859
 20
4.0368385508
 30
0.0
 10
-1.26700886
 20
3.8915430223
 30
0.0
 10
-1.2604415178
 20
3.8020199975
 30
0.0
 10
-1.2590401803
 20
3.7671886813
 30
0.0
 11
-3.266867391
 21
4.7207908782
 31
0.0
 11
-3.2603019206
 21
4.8682784838
 31
0.0
 11
-3.2380575144
 21
5.0075405182
 31
0.0
 11
-3.2001592006
 21
5.135281221
 31
0.0
 11
-3.1472463443
 21
5.2485840847
 31
0.0
 11
-3.0804548967
 21
5.3451887023
 31
0.0
 11
-3.000871163
 21
5.4238322043
 31
0.0
 11
-2.9095346285
 21
5.4835392629
 31
0.0
 11
-2.8078544557
 21
5.523305111
 31
0.0
 11
-2.6975751665
 21
5.5424172717
 31
0.0
 11
-2.5804757023
 21
5.5405896652
 31
0.0
 11
-2.458367052
 21
5.517862544
 31
0.0
 11
-2.3331579349
 21
5.4745837437
 31
0.0
 11
-2.2068474772
 21
5.4114363719
 31
0.0
 11
-2.081440336
 21
5.3294225817
 31
0.0
 11
-1.9589352182
 21
5.2298580533
 31
0.0
 11
-1.8412399952
 21
5.1143037987
 31
0.0
 11
-1.7301621726
 21
4.9845287165
 31
0.0
 11
-1.6274753813
 21
4.8425918431
 31
0.0
 11
-1.5349259755
 21
4.6909490626
 31
0.0
 11
-1.4539335527
 21
4.5320288432
 31
0.0
 11
-1.3855396826
 21
4.3678553633
 31
0.0
 11
-1.3308259464
 21
4.2007575145
 31
0.0
 11
-1.2909472013
 21
4.0341126773
 31
0.0
 11
-1.2665871149
 21
3.8714947048
 31
0.0
 11
-1.2590401803
 21
3.7671886813
 31
0.0
  0
SPLINE
  5
285
100
AcDbEntity
  8
RACCORDO
100
AcDbSpline
 62
253
  6
CONTINUOUS
 70
0
 71
3
 72
14
 73
10
 74
8
 42
0.0000001
 43
0.0000001
 44
0.0000000001
 12
-0.6996308843
 22
0.4494386689
 32
0.0
 13
-0.0280376488
 23
0.829627346
 33
0.0
 40
0.0
 40
0.0
 40
0.0
 40
0.0
 40
0.0451329533
 40
0.1831149597
 40
0.3272655377
 40
0.479922523
 40
0.6425933916
 40
0.8159553086
 40
1.0
 40
1.0
 40
1.0
 40
1.0
 10
-9.116369868
 20
-6.5396934397
 30
0.0
 10
-9.1268953374
 20
-6.5329319416
 30
0.0
 10
-9.1686774608
 20
-6.5040655159
 30
0.0
 10
-9.2359940128
 20
-6.4426420637
 30
0.0
 10
-9.3086167648
 20
-6.3459344277
 30
0.0
 10
-9.3671346973
 20
-6.2324716362
 30
0.0
 10
-9.4108483524
 20
-6.1040520025
 30
0.0
 10
-9.4392495403
 20
-5.9626267957
 30
0.0
 10
-9.4475170042
 20
-5.8638523274
 30
0.0
 10
-9.4492370643
 20
-5.8129561578
 30
0.0
 11
-9.116369868
 21
-6.5396934397
 31
0.0
 11
-9.147241623
 21
-6.5183681011
 31
0.0
 11
-9.2321160062
 21
-6.4414556741
 31
0.0
 11
-9.3044184954
 21
-6.3461102245
 31
0.0
 11
-9.3630578889
 21
-6.233773406
 31
0.0
 11
-9.4071483662
 21
-6.1061410908
 31
0.0
 11
-9.4360191949
 21
-5.9651589703
 31
0.0
 11
-9.4492370643
 21
-5.8129561578
 31
0.0
  0
SPLINE
  5
286
100
AcDbEntity
  8
RACCORDO
100
AcDbSpline
 62
253
  6
CONTINUOUS
 70
0
 71
3
 72
32
 73
28
 74
26
 42
0.0000001
 43
0.0000001
 44
0.0000000001
 12
0.026291423
 22
-3.6377119464
 32
0.0
 13
-0.0274021686
 23
3.6377037489
 33
0.0
 40
0.0
 40
0.0
 40
0.0
 40
0.0
 40
0.0405636353
 40
0.0792949854
 40
0.1158668938
 40
0.1501649885
 40
0.182353851
 40
0.2130002308
 40
0.2428810987
 40
0.2727835989
 40
0.3034557187
 40
0.3355764279
 40
0.3696703201
 40
0.4060601525
 40
0.4448699637
 40
0.4860643499
 40
0.529470363
 40
0.5748240229
 40
0.6217926615
 40
0.6699564939
 40
0.7187913688
 40
0.7678153219
 40
0.8166900315
 40
0.8650040467
 40
0.9120861895
 40
0.9572703602
 40
1.0
 40
1.0
 40
1.0
 40
1.0
 10
-1.257824619
 20
3.7162694922
 30
0.0
 10
-1.2574691271
 20
3.6670832186
 30
0.0
 10
-1.2614659075
 20
3.5708042705
 30
0.0
 10
-1.2830785288
 20
3.4316451018
 30
0.0
 10
-1.3202840195
 20
3.3036149854
 30
0.0
 10
-1.3726575541
 20
3.1895791844
 30
0.0
 10
-1.4393927452
 20
3.0917693397
 30
0.0
 10
-1.5195092035
 20
3.0118666672
 30
0.0
 10
-1.6118569977
 20
2.9512829845
 30
0.0
 10
-1.7148279276
 20
2.9112438577
 30
0.0
 10
-1.826389441
 20
2.8924631213
 30
0.0
 10
-1.9444708609
 20
2.8950348474
 30
0.0
 10
-2.067154019
 20
2.9186438758
 30
0.0
 10
-2.1925850032
 20
2.9627233614
 30
0.0
 10
-2.318894071
 20
3.0264745564
 30
0.0
 10
-2.4441774435
 20
3.1088458661
 30
0.0
 10
-2.5665386799
 20
3.2085349046
 30
0.0
 10
-2.6841229414
 20
3.3240054322
 30
0.0
 10
-2.7951241938
 20
3.4534891827
 30
0.0
 10
-2.8977653804
 20
3.5949284989
 30
0.0
 10
-2.9903980391
 20
3.7460374259
 30
0.0
 10
-3.0716379818
 20
3.9045306504
 30
0.0
 10
-3.1403052923
 20
4.0681818055
 30
0.0
 10
-3.1952495559
 20
4.2344670866
 30
0.0
 10
-3.2354269846
 20
4.4003418034
 30
0.0
 10
-3.2601631224
 20
4.5623637425
 30
0.0
 10
-3.2664770961
 20
4.6689782879
 30
0.0
 10
-3.266867391
 20
4.7207908782
 30
0.0
 11
-1.257824619
 21
3.7162694922
 31
0.0
 11
-1.2643829365
 21
3.5688526294
 31
0.0
 11
-1.2865278943
 21
3.4297066101
 31
0.0
 11
-1.3242402463
 21
3.3021220085
 31
0.0
 11
-1.3768939735
 21
3.1890065811
 31
0.0
 11
-1.4433721016
 21
3.0926098232
 31
0.0
 11
-1.5226084873
 21
3.0141838251
 31
0.0
 11
-1.6135845433
 21
2.9546924184
 31
0.0
 11
-1.7149137977
 21
2.9151277011
 31
0.0
 11
-1.8248741801
 21
2.8961898141
 31
0.0
 11
-1.9417066062
 21
2.8981541998
 31
0.0
 11
-2.0636165545
 21
2.9209721929
 31
0.0
 11
-2.1887076985
 21
2.9642902535
 31
0.0
 11
-2.3149883812
 21
3.0274227812
 31
0.0
 11
-2.4404558179
 21
3.1093685566
 31
0.0
 11
-2.5631074662
 21
3.2088162045
 31
0.0
 11
-2.6810261418
 21
3.3242119569
 31
0.0
 11
-2.7923902166
 21
3.4537964972
 31
0.0
 11
-2.8954077951
 21
3.5955222057
 31
0.0
 11
-2.9883110347
 21
3.7469460051
 31
0.0
 11
-3.0696580652
 21
3.9056523415
 31
0.0
 11
-3.1383860873
 21
4.0696283956
 31
0.0
 11
-3.1933930746
 21
4.2365558518
 31
0.0
 11
-3.2335053626
 21
4.4030682709
 31
0.0
 11
-3.2580254817
 21
4.5656003751
 31
0.0
 11
-3.266867391
 21
4.7207908782
 31
0.0
  0
SPLINE
  5
287
100
AcDbEntity
  8
RACCORDO
100
AcDbSpline
 62
253
  6
CONTINUOUS
 70
0
 71
3
 72
17
 73
13
 74
11
 42
0.0000001
 43
0.0000001
 44
0.0000000001
 12
-0.3882100219
 22
-0.1914956984
 32
0.0
 13
-0.3871832493
 23
0.1935633102
 33
0.0
 40
0.0
 40
0.0
 40
0.0
 40
0.0
 40
0.0899749204
 40
0.1866926925
 40
0.2887145724
 40
0.3943429537
 40
0.501743173
 40
0.6089913359
 40
0.7141671611
 40
0.8154559107
 40
0.911195113
 40
1.0
 40
1.0
 40
1.0
 40
1.0
 10
5.7505836519
 20
4.3183814569
 30
0.0
 10
5.7389405966
 20
4.3126381868
 30
0.0
 10
5.7140197454
 20
4.3022340572
 30
0.0
 10
5.6740789626
 20
4.2901901772
 30
0.0
 10
5.6310014728
 20
4.2813576331
 30
0.0
 10
5.5858156046
 20
4.275953833
 30
0.0
 10
5.5395923659
 20
4.2741070462
 30
0.0
 10
5.4934307049
 20
4.2758624301
 30
0.0
 10
5.4484280048
 20
4.2811769306
 30
0.0
 10
5.4056505741
 20
4.2899243633
 30
0.0
 10
5.3661186654
 20
4.3018895203
 30
0.0
 10
5.3415165918
 20
4.3122594916
 30
0.0
 10
5.3300553369
 20
4.3179892809
 30
0.0
 11
5.7505836519
 21
4.3183814569
 31
0.0
 11
5.7147093356
 21
4.3032174726
 31
0.0
 11
5.6746625432
 21
4.2910090304
 31
0.0
 11
5.6314170032
 21
4.2820571302
 31
0.0
 11
5.586022666
 21
4.2765805621
 31
0.0
 11
5.5395697929
 21
4.2747109822
 31
0.0
 11
5.4931793824
 21
4.276493902
 31
0.0
 11
5.4479722121
 21
4.2818859741
 31
0.0
 11
5.4050341172
 21
4.290757503
 31
0.0
 11
5.3654075431
 21
4.3028916268
 31
0.0
 11
5.3300553369
 21
4.3179892809
 31
0.0
  0
SPLINE
  5
288
100
AcDbEntity
  8
RACCORDO
100
AcDbSpline
 62
253
  6
CONTINUOUS
 70
0
 71
3
 72
15
 73
11
 74
9
 42
0.0000001
 43
0.0000001
 44
0.0000000001
 12
-0.1804002461
 22
0.0902133182
 32
0.0
 13
0.1189039078
 23
0.1633742119
 33
0.0
 40
0.0
 40
0.0
 40
0.0
 40
0.0
 40
0.1737705109
 40
0.3299747676
 40
0.4694134977
 40
0.5951779005
 40
0.7129962891
 40
0.8305469404
 40
0.9555843687
 40
1.0
 40
1.0
 40
1.0
 40
1.0
 10
-9.6028513935
 20
11.7844426461
 30
0.0
 10
-9.6133008078
 20
11.7896681176
 30
0.0
 10
-9.6325950797
 20
11.8007792094
 30
0.0
 10
-9.6573702009
 20
11.8205625765
 30
0.0
 10
-9.6759191002
 20
11.8422612975
 30
0.0
 10
-9.6876605972
 20
11.8655223632
 30
0.0
 10
-9.6919759653
 20
11.8898092186
 30
0.0
 10
-9.6885162679
 20
11.9141865073
 30
0.0
 10
-9.6802781378
 20
11.9318946099
 30
0.0
 10
-9.673905738
 20
11.9413727618
 30
0.0
 10
-9.6721453406
 20
11.9437915514
 30
0.0
 11
-9.6028513935
 21
11.7844426461
 31
0.0
 11
-9.6331012362
 21
11.8021460164
 31
0.0
 11
-9.6575319006
 21
11.8220405118
 31
0.0
 11
-9.6755414
 21
11.8436427799
 31
0.0
 11
-9.6866895734
 21
11.8664283795
 31
0.0
 11
-9.6907082897
 21
11.8898500231
 31
0.0
 11
-9.6874999187
 21
11.9133418539
 31
0.0
 11
-9.677142666
 21
11.9363369643
 31
0.0
 11
-9.6721453406
 21
11.9437915514
 31
0.0
  0
SPLINE
  5
289
100
AcDbEntity
  8
RACCORDO
100
AcDbSpline
 62
253
  6
CONTINUOUS
 70
0
 71
3
 72
10
 73
6
 74
4
 42
0.0000001
 43
0.0000001
 44
0.0000000001
 12
0.0501383954
 22
0.0688902575
 32
0.0
 13
0.075188527
 23
0.0397535984
 33
0.0
 40
0.0
 40
0.0
 40
0.0
 40
0.0
 40
0.2229233844
 40
0.5906320453
 40
1.0
 40
1.0
 40
1.0
 40
1.0
 10
-9.6721453406
 20
11.9437915514
 30
0.0
 10
-9.668419667
 20
11.9489106345
 30
0.0
 10
-9.6574791158
 20
11.9616957274
 30
0.0
 10
-9.6356811526
 20
11.9800313034
 30
0.0
 10
-9.6167824138
 20
11.9915099111
 30
0.0
 10
-9.6065224893
 20
11.9969345275
 30
0.0
 11
-9.6721453406
 21
11.9437915514
 31
0.0
 11
-9.6598855294
 21
11.9582830662
 31
0.0
 11
-9.6361503587
 21
11.9786473193
 31
0.0
 11
-9.6065224893
 21
11.9969345275
 31
0.0
  0
SPLINE
  5
28A
100
AcDbEntity
  8
RACCORDO
100
AcDbSpline
 62
253
  6
CONTINUOUS
 70
0
 71
3
 72
11
 73
7
 74
5
 42
0.0000001
 43
0.0000001
 44
0.0000000001
 12
0.0100459851
 22
-17.3626608548
 32
0.0
 13
0.6032800413
 23
-17.3521798651
 33
0.0
 40
0.0
 40
0.0
 40
0.0
 40
0.0
 40
0.2515625028
 40
0.502076692
 40
0.7515529309
 40
1.0
 40
1.0
 40
1.0
 40
1.0
 10
5.1898564846
 20
4.0745824158
 30
0.0
 10
5.1906988823
 20
2.6186509427
 30
0.0
 10
5.2045818363
 20
-0.287152737
 30
0.0
 10
5.2621803244
 20
-4.6364756016
 30
0.0
 10
5.3565442195
 20
-8.9671216581
 30
0.0
 10
5.4441368439
 20
-11.8475908948
 30
0.0
 10
5.4940978966
 20
-13.2846236379
 30
0.0
 11
5.1898564846
 21
4.0745824158
 31
0.0
 11
5.2107854903
 21
-0.2931625918
 31
0.0
 11
5.2684656771
 21
-4.64237376
 31
0.0
 11
5.3629031137
 21
-8.9729162229
 31
0.0
 11
5.4940978966
 21
-13.2846236379
 31
0.0
  0
SPLINE
  5
28B
100
AcDbEntity
  8
RACCORDO
100
AcDbSpline
 62
253
  6
CONTINUOUS
 70
0
 71
3
 72
14
 73
10
 74
8
 42
0.0000001
 43
0.0000001
 44
0.0000000001
 12
-0.0021352354
 22
0.293580377
 32
0.0
 13
-0.2606943534
 23
0.1350275937
 33
0.0
 40
0.0
 40
0.0
 40
0.0
 40
0.0
 40
0.1375417359
 40
0.2843592423
 40
0.4361806324
 40
0.5881835054
 40
0.7355262397
 40
0.8738772597
 40
1.0
 40
1.0
 40
1.0
 40
1.0
 10
5.8907494444
 20
4.0738660505
 30
0.0
 10
5.8906515498
 20
4.087325902
 30
0.0
 10
5.8878638431
 20
4.1151657559
 30
0.0
 10
5.8772459101
 20
4.1566462984
 30
0.0
 10
5.8605392144
 20
4.1976062018
 30
0.0
 10
5.8385558362
 20
4.2360451708
 30
0.0
 10
5.8123491038
 20
4.2701140612
 30
0.0
 10
5.7831930645
 20
4.2981601871
 30
0.0
 10
5.7615434806
 20
4.3127047735
 30
0.0
 10
5.7505836519
 20
4.3183814569
 30
0.0
 11
5.8907494444
 21
4.0738660505
 31
0.0
 11
5.8869875
 21
4.1140710559
 31
0.0
 11
5.8764488735
 21
4.1558667701
 31
0.0
 11
5.8596619237
 21
4.1971577747
 31
0.0
 11
5.8374682676
 21
4.2358739602
 31
0.0
 11
5.8109805845
 21
4.2700743123
 31
0.0
 11
5.7815268288
 21
4.2980442244
 31
0.0
 11
5.7505836519
 21
4.3183814569
 31
0.0
  0
SPLINE
  5
28C
100
AcDbEntity
  8
RACCORDO
100
AcDbSpline
 62
253
  6
CONTINUOUS
 70
0
 71
3
 72
14
 73
10
 74
8
 42
0.0000001
 43
0.0000001
 44
0.0000000001
 12
-0.0001666295
 22
0.2930098836
 32
0.0
 13
0.260950915
 23
0.1332645476
 33
0.0
 40
0.0
 40
0.0
 40
0.0
 40
0.0
 40
0.137354997
 40
0.2837129603
 40
0.4350144585
 40
0.5866467148
 40
0.7339613452
 40
0.8727885915
 40
1.0
 40
1.0
 40
1.0
 40
1.0
 10
5.1898681326
 20
4.0745765919
 30
0.0
 10
5.1898605034
 20
4.0879920491
 30
0.0
 10
5.1924529607
 20
4.115736752
 30
0.0
 10
5.2028738849
 20
4.1570685843
 30
0.0
 10
5.2194731746
 20
4.1978415411
 30
0.0
 10
5.2414518359
 20
4.236084964
 30
0.0
 10
5.2677676452
 20
4.2699775501
 30
0.0
 10
5.2971548186
 20
4.2978897425
 30
0.0
 10
5.3189900257
 20
4.3123383573
 30
0.0
 10
5.3300553369
 20
4.3179892809
 30
0.0
 11
5.1898681326
 21
4.0745765919
 31
0.0
 11
5.1933560482
 21
4.1146715467
 31
0.0
 11
5.2036902762
 21
4.1562920953
 31
0.0
 11
5.2203578778
 21
4.1973724057
 31
0.0
 11
5.2425315583
 21
4.2358734601
 31
0.0
 11
5.269110729
 21
4.2698842624
 31
0.0
 11
5.2987761351
 21
4.2977166893
 31
0.0
 11
5.3300553369
 21
4.3179892809
 31
0.0
  0
SPLINE
  5
28D
100
AcDbEntity
  8
RACCORDO
100
AcDbSpline
 62
253
  6
CONTINUOUS
 70
0
 71
3
 72
14
 73
10
 74
8
 42
0.0000001
 43
0.0000001
 44
0.0000000001
 12
-0.0001666322
 22
0.2930098843
 32
0.0
 13
0.2609509171
 23
0.1332645449
 33
0.0
 40
0.0
 40
0.0
 40
0.0
 40
0.0
 40
0.1373551825
 40
0.2837133145
 40
0.435014922
 40
0.5866471981
 40
0.7339617476
 40
0.872788823
 40
1.0
 40
1.0
 40
1.0
 40
1.0
 10
-9.7430385979
 20
11.5410299571
 30
0.0
 10
-9.7430462271
 20
11.5544454324
 30
0.0
 10
-9.7404537633
 20
11.5821901701
 30
0.0
 10
-9.730032817
 20
11.623522044
 30
0.0
 10
-9.7134335013
 20
11.664295022
 30
0.0
 10
-9.6914548213
 20
11.7025384399
 30
0.0
 10
-9.6651390111
 20
11.7364309965
 30
0.0
 10
-9.6357518613
 20
11.7643431449
 30
0.0
 10
-9.6139166846
 20
11.7787917329
 30
0.0
 10
-9.6028513935
 20
11.7844426461
 30
0.0
 11
-9.7430385979
 21
11.5410299571
 31
0.0
 11
-9.7395506734
 21
11.5811249658
 31
0.0
 11
-9.7292164226
 21
11.6227455598
 31
0.0
 11
-9.7125487936
 21
11.6638258937
 31
0.0
 11
-9.6903750936
 21
11.7023269437
 31
0.0
 11
-9.6637959224
 21
11.7363377156
 31
0.0
 11
-9.6341305421
 21
11.764170097
 31
0.0
 11
-9.6028513935
 21
11.7844426461
 31
0.0
  0
SPLINE
  5
28E
100
AcDbEntity
  8
RACCORDO
100
AcDbSpline
 62
253
  6
CONTINUOUS
 70
0
 71
3
 72
14
 73
10
 74
8
 42
0.0000001
 43
0.0000001
 44
0.0000000001
 12
-0.0063618531
 22
0.7889053253
 32
0.0
 13
0.6759016109
 23
0.4095786524
 33
0.0
 40
0.0
 40
0.0
 40
0.0
 40
0.0
 40
0.1739017859
 40
0.3399806681
 40
0.4968835058
 40
0.6441301847
 40
0.7824226442
 40
0.9141726329
 40
1.0
 40
1.0
 40
1.0
 40
1.0
 10
-3.1266937408
 20
4.7209573735
 30
0.0
 10
-3.12706252
 20
4.7666880552
 30
0.0
 10
-3.1233909913
 20
4.8562162458
 30
0.0
 10
-3.1032759788
 20
4.9856384634
 30
0.0
 10
-3.0685779261
 20
5.1047434642
 30
0.0
 10
-3.0197049695
 20
5.2108665498
 30
0.0
 10
-2.9574260137
 20
5.301923437
 30
0.0
 10
-2.8906806284
 20
5.3683750418
 30
0.0
 10
-2.8436978698
 20
5.401452793
 30
0.0
 10
-2.8243609179
 20
5.4131704788
 30
0.0
 11
-3.1266937408
 21
4.7209573735
 31
0.0
 11
-3.1206661481
 21
4.8580214072
 31
0.0
 11
-3.1000601018
 21
4.9874156978
 31
0.0
 11
-3.0648970868
 21
5.1061018999
 31
0.0
 11
-3.0157708673
 21
5.2113705788
 31
0.0
 11
-2.9537364664
 21
5.3011215814
 31
0.0
 11
-2.8798034395
 21
5.3741816496
 31
0.0
 11
-2.8243609179
 21
5.4131704788
 31
0.0
  0
LINE
  5
28F
100
AcDbEntity
  8
RACCORDO
100
AcDbLine
 62
253
  6
CONTINUOUS
 10
-2.7808640373
 20
5.4366109806
 11
-2.7800272494
 21
5.4370075517
  0
SPLINE
  5
290
100
AcDbEntity
  8
RACCORDO
100
AcDbSpline
 62
253
  6
CONTINUOUS
 70
0
 71
3
 72
13
 73
9
 74
7
 42
0.0000001
 43
0.0000001
 44
0.0000000001
 12
-0.2159492194
 22
0.1079796307
 32
0.0
 13
-0.0001006786
 23
0.242249891
 33
0.0
 40
0.0
 40
0.0
 40
0.0
 40
0.0
 40
0.2420619941
 40
0.4593934318
 40
0.6532565223
 40
0.827923501
 40
0.9913738525
 40
1.0
 40
1.0
 40
1.0
 40
1.0
 10
-9.7430269479
 20
11.5410241278
 30
0.0
 10
-9.7604513141
 20
11.5497367161
 30
0.0
 10
-9.7926087605
 20
11.568246398
 30
0.0
 10
-9.8339023023
 20
11.6011723597
 30
0.0
 10
-9.8648103675
 20
11.6372474867
 30
0.0
 10
-9.8843809014
 20
11.675895954
 30
0.0
 10
-9.8893620409
 20
11.7038085774
 30
0.0
 10
-9.8894847158
 20
11.7177033927
 30
0.0
 10
-9.8894850053
 20
11.7183999537
 30
0.0
 11
-9.7430269479
 21
11.5410241278
 31
0.0
 11
-9.7934741137
 21
11.5705324835
 31
0.0
 11
-9.8341848122
 21
11.6036386922
 31
0.0
 11
-9.8641946093
 21
11.6395588394
 31
0.0
 11
-9.8827703348
 21
11.6774190804
 31
0.0
 11
-9.8894665127
 21
11.7163104136
 31
0.0
 11
-9.8894850053
 21
11.7183999537
 31
0.0
  0
SPLINE
  5
291
100
AcDbEntity
  8
RACCORDO
100
AcDbSpline
 62
253
  6
CONTINUOUS
 70
0
 71
3
 72
14
 73
10
 74
8
 42
0.0000001
 43
0.0000001
 44
0.0000000001
 12
0.0309975472
 22
-0.8964478619
 32
0.0
 13
0.8027049286
 23
-0.4035115767
 33
0.0
 40
0.0
 40
0.0
 40
0.0
 40
0.0
 40
0.1705247916
 40
0.3314848355
 40
0.4829539656
 40
0.6256264744
 40
0.7609349571
 40
0.8910293405
 40
1.0
 40
1.0
 40
1.0
 40
1.0
 10
5.4940978886
 20
-13.2846236338
 30
0.0
 10
5.4958598386
 20
-13.3355791621
 30
0.0
 10
5.5043408727
 20
-13.4345643709
 30
0.0
 10
5.5334417713
 20
-13.5763662121
 30
0.0
 10
5.5782289229
 20
-13.7053321302
 30
0.0
 10
5.6381750225
 20
-13.8194894969
 30
0.0
 10
5.7125448057
 20
-13.9170185033
 30
0.0
 10
5.7961665714
 20
-13.9924630321
 30
0.0
 10
5.8573985547
 20
-14.0300745625
 30
0.0
 10
5.8865556499
 20
-14.0447315367
 30
0.0
 11
5.4940978886
 21
-13.2846236338
 31
0.0
 11
5.507627022
 21
-13.436982078
 31
0.0
 11
5.5371776744
 21
-13.5783041104
 31
0.0
 11
5.5823063738
 21
-13.7064555368
 31
0.0
 11
5.642326568
 21
-13.8194827558
 31
0.0
 11
5.7163315995
 21
-13.9156794767
 31
0.0
 11
5.8032045604
 21
-13.9935911926
 31
0.0
 11
5.8865556499
 21
-14.0447315367
 31
0.0
  0
LINE
  5
292
100
AcDbEntity
  8
RACCORDO
100
AcDbLine
 62
253
  6
CONTINUOUS
 10
5.8865556499
 20
-14.0447315367
 11
5.8874497294
 21
-14.0451800062
  0
SPLINE
  5
293
100
AcDbEntity
  8
RACCORDO
100
AcDbSpline
 62
253
  6
CONTINUOUS
 70
0
 71
3
 72
17
 73
13
 74
11
 42
0.0000001
 43
0.0000001
 44
0.0000000001
 12
-0.6478787095
 22
-0.3171133083
 32
0.0
 13
-0.6451774021
 23
0.3225737007
 33
0.0
 40
0.0
 40
0.0
 40
0.0
 40
0.0
 40
0.0899352243
 40
0.1865809494
 40
0.2885603482
 40
0.3941667178
 40
0.5015619733
 40
0.6088199202
 40
0.7140203969
 40
0.8153431384
 40
0.9111132669
 40
1.0
 40
1.0
 40
1.0
 40
1.0
 10
5.8907614006
 20
4.0738719026
 30
0.0
 10
5.8713390282
 20
4.0643653504
 30
0.0
 10
5.8297829843
 20
4.0471677548
 30
0.0
 10
5.763205024
 20
4.027302382
 30
0.0
 10
5.6914155366
 20
4.0127831494
 30
0.0
 10
5.6161149848
 20
4.0039612945
 30
0.0
 10
5.5390884155
 20
4.0010466548
 30
0.0
 10
5.4621649778
 20
4.0041098686
 30
0.0
 10
5.3871711857
 20
4.0130764968
 30
0.0
 10
5.3158834647
 20
4.027733272
 30
0.0
 10
5.2499892732
 20
4.0477259146
 30
0.0
 10
5.2089723904
 20
4.0650249031
 30
0.0
 10
5.1898564866
 20
4.0745824106
 30
0.0
 11
5.8907614006
 21
4.0738719026
 31
0.0
 11
5.8309307438
 21
4.048797608
 31
0.0
 11
5.7641889684
 21
4.0286626829
 31
0.0
 11
5.6921163954
 21
4.0139440278
 31
0.0
 11
5.6164667649
 21
4.0050013469
 31
0.0
 11
5.5390563164
 21
4.0020489997
 31
0.0
 11
5.4617511391
 21
4.0051583441
 31
0.0
 11
5.386414671
 21
4.0142541997
 31
0.0
 11
5.3148556891
 21
4.0291184419
 31
0.0
 11
5.2488150367
 21
4.0493879085
 31
0.0
 11
5.1898564866
 21
4.0745824106
 31
0.0
  0
SPLINE
  5
294
100
AcDbEntity
  8
RACCORDO
100
AcDbSpline
 62
253
  6
CONTINUOUS
 70
0
 71
3
 72
16
 73
12
 74
10
 42
0.0000001
 43
0.0000001
 44
0.0000000001
 12
-0.6379991046
 22
-0.3396733917
 32
0.0
 13
-0.6466996827
 23
0.3228008533
 33
0.0
 40
0.0
 40
0.0
 40
0.0
 40
0.0
 40
0.1015166317
 40
0.2107208998
 40
0.3256469076
 40
0.4439751589
 40
0.5631922282
 40
0.6807357597
 40
0.7941361023
 40
0.9011644343
 40
1.0
 40
1.0
 40
1.0
 40
1.0
 10
6.1946819761
 20
-13.2700412788
 30
0.0
 10
6.1730928027
 20
-13.281535445
 30
0.0
 10
6.1265676025
 20
-13.3022472488
 30
0.0
 10
6.0515996095
 20
-13.325840672
 30
0.0
 10
5.9706751662
 20
-13.3425913443
 30
0.0
 10
5.8861604635
 20
-13.3520022418
 30
0.0
 10
5.8005124783
 20
-13.3537998068
 30
0.0
 10
5.7162339284
 20
-13.3479319935
 30
0.0
 10
5.6357715256
 20
-13.3345690884
 30
0.0
 10
5.5614746711
 20
-13.3141087306
 30
0.0
 10
5.5154044332
 20
-13.2952756694
 30
0.0
 10
5.4940987903
 20
-13.2846409344
 30
0.0
 11
6.1946819761
 21
-13.2700412788
 31
0.0
 11
6.127804169
 21
-13.3002279197
 31
0.0
 11
6.0525926892
 21
-13.3241737148
 31
0.0
 11
5.9712824637
 21
-13.3411671089
 31
0.0
 11
5.8862896455
 21
-13.3507031393
 31
0.0
 11
5.8001398166
 21
-13.3524984405
 31
0.0
 11
5.7153929397
 21
-13.3464996648
 31
0.0
 11
5.6345672888
 21
-13.3328850671
 31
0.0
 11
5.5600646174
 21
-13.3120592085
 31
0.0
 11
5.4940987903
 21
-13.2846409344
 31
0.0
  0
SPLINE
  5
295
100
AcDbEntity
  8
RACCORDO
100
AcDbSpline
 62
253
  6
CONTINUOUS
 70
0
 71
3
 72
13
 73
9
 74
7
 42
0.0000001
 43
0.0000001
 44
0.0000000001
 12
-0.0143748292
 22
-0.3372111877
 32
0.0
 13
-0.3122832359
 23
-0.1308988728
 33
0.0
 40
0.0
 40
0.0
 40
0.0
 40
0.0
 40
0.2203895712
 40
0.4242798477
 40
0.6117673044
 40
0.7852201422
 40
0.9494899101
 40
1.0
 40
1.0
 40
1.0
 40
1.0
 10
6.8758696354
 20
-13.7703569469
 30
0.0
 10
6.8748136146
 20
-13.7951295566
 30
0.0
 10
6.8695714723
 20
-13.8427811753
 30
0.0
 10
6.8511386375
 20
-13.909440638
 30
0.0
 10
6.8227897205
 20
-13.9668177574
 30
0.0
 10
6.785095848
 20
-14.013076432
 30
0.0
 10
6.7492659818
 20
-14.0390039844
 30
0.0
 10
6.7273169745
 20
-14.0493410263
 30
0.0
 10
6.7220591564
 20
-14.0515449309
 30
0.0
 11
6.8758696354
 21
-13.7703569469
 31
0.0
 11
6.8673327258
 21
-13.8442507728
 31
0.0
 11
6.8485137221
 21
-13.9104441187
 31
0.0
 11
6.819983767
 21
-13.9669280656
 31
0.0
 11
6.7826087235
 21
-14.0119883677
 31
0.0
 11
6.7375228966
 21
-14.0442574782
 31
0.0
 11
6.7220591564
 21
-14.0515449309
 31
0.0
  0
SPLINE
  5
296
100
AcDbEntity
  8
ASSI
100
AcDbSpline
 62
253
  6
CONTINUOUS
 70
0
 71
3
 72
8
 73
4
 74
2
 42
0.0000001
 43
0.0000001
 44
0.0000000001
 12
0.000423478
 22
-0.7319048631
 32
0.0
 13
0.0014543262
 23
-0.7319046652
 33
0.0
 40
0.0
 40
0.0
 40
0.0
 40
0.0
 40
1.0
 40
1.0
 40
1.0
 40
1.0
 10
5.1898564846
 20
4.0745824158
 30
0.0
 10
5.189997644
 20
3.8306141281
 30
0.0
 10
5.1903104676
 20
3.5866457292
 30
0.0
 10
5.190795243
 20
3.3426775075
 30
0.0
 11
5.1898564846
 21
4.0745824158
 31
0.0
 11
5.190795243
 21
3.3426775075
 31
0.0
  0
SPLINE
  5
297
100
AcDbEntity
  8
ASSI
100
AcDbSpline
 62
253
  6
CONTINUOUS
 70
0
 71
3
 72
11
 73
7
 74
5
 42
0.0000001
 43
0.0000001
 44
0.0000000001
 12
0.0859153294
 22
-14.6146012205
 32
0.0
 13
0.5078031549
 23
-14.6059724782
 33
0.0
 40
0.0
 40
0.0
 40
0.0
 40
0.0
 40
0.1108416718
 40
0.4084574093
 40
0.7048400416
 40
1.0
 40
1.0
 40
1.0
 40
1.0
 10
5.19872071
 20
1.3267268359
 30
0.0
 10
5.2018950429
 20
0.7867578917
 30
0.0
 10
5.2167109984
 20
-1.2030386207
 30
0.0
 10
5.2621803244
 20
-4.6364756016
 30
0.0
 10
5.3565442195
 20
-8.9671216581
 30
0.0
 10
5.4441368439
 20
-11.8475908948
 30
0.0
 10
5.4940978966
 20
-13.2846236379
 30
0.0
 11
5.19872071
 21
1.3267268359
 31
0.0
 11
5.2107854903
 21
-0.2931625918
 31
0.0
 11
5.2684656771
 21
-4.64237376
 31
0.0
 11
5.3629031137
 21
-8.9729162229
 31
0.0
 11
5.4940978966
 21
-13.2846236379
 31
0.0
  0
SPLINE
  5
298
100
AcDbEntity
  8
ASSI
100
AcDbSpline
 62
253
  6
CONTINUOUS
 70
0
 71
3
 72
26
 73
22
 74
20
 42
0.0000001
 43
0.0000001
 44
0.0000000001
 12
-2.2740123845
 22
-1.1929185112
 32
0.0
 13
-0.0207368764
 23
2.5634715605
 33
0.0
 40
0.0
 40
0.0
 40
0.0
 40
0.0
 40
0.0014123126
 40
0.0408296797
 40
0.0812688373
 40
0.1236255724
 40
0.1685911843
 40
0.2165902985
 40
0.2677851492
 40
0.3221276484
 40
0.3793883802
 40
0.4392179985
 40
0.5011767311
 40
0.564710087
 40
0.6291260466
 40
0.6937883133
 40
0.7582502805
 40
0.8219692432
 40
0.8840601099
 40
0.9436443654
 40
1.0
 40
1.0
 40
1.0
 40
1.0
 10
-1.586018609
 20
3.0812913087
 30
0.0
 10
-1.5870891478
 20
3.0807297174
 30
0.0
 10
-1.6180993465
 20
3.0646108379
 30
0.0
 10
-1.6833003373
 20
3.0392778181
 30
0.0
 10
-1.786958182
 20
3.0218622252
 30
0.0
 10
-1.8966858297
 20
3.0242854605
 30
0.0
 10
-2.0107022692
 20
3.0462532767
 30
0.0
 10
-2.1272857859
 20
3.0872384784
 30
0.0
 10
-2.2446992208
 20
3.1464988397
 30
0.0
 10
-2.3611730758
 20
3.2230573124
 30
0.0
 10
-2.4749441684
 20
3.3157038664
 30
0.0
 10
-2.5842876004
 20
3.42301123
 30
0.0
 10
-2.6875235332
 20
3.5433366166
 30
0.0
 10
-2.7829987389
 20
3.674768414
 30
0.0
 10
-2.869179216
 20
3.8151828493
 30
0.0
 10
-2.9447764353
 20
3.9624567252
 30
0.0
 10
-3.0086920435
 20
4.1145217056
 30
0.0
 10
-3.0598544651
 20
4.2690334839
 30
0.0
 10
-3.0972922803
 20
4.4231633583
 30
0.0
 10
-3.1203751666
 20
4.5737232898
 30
0.0
 10
-3.1263041942
 20
4.672802018
 30
0.0
 10
-3.1266937408
 20
4.7209573735
 30
0.0
 11
-1.586018609
 21
3.0812913087
 31
0.0
 11
-1.5892365448
 21
3.0796186602
 31
0.0
 11
-1.6833733116
 21
3.0428887022
 31
0.0
 11
-1.7855426048
 21
3.0253246945
 31
0.0
 11
-1.894110564
 21
3.0271816293
 31
0.0
 11
-2.0074101878
 21
3.0484134926
 31
0.0
 11
-2.1236797488
 21
3.0886912223
 31
0.0
 11
-2.241068388
 21
3.1473773776
 31
0.0
 11
-2.3577145152
 21
3.2235414084
 31
0.0
 11
-2.4717563771
 21
3.3159647233
 31
0.0
 11
-2.5814111954
 21
3.4232036377
 31
0.0
 11
-2.6849847155
 21
3.5436236134
 31
0.0
 11
-2.7808100268
 21
3.6753223739
 31
0.0
 11
-2.8672421472
 21
3.8160301844
 31
0.0
 11
-2.9429388684
 21
3.9635026999
 31
0.0
 11
-3.0069106674
 21
4.1158699372
 31
0.0
 11
-3.0581314943
 21
4.2709786078
 31
0.0
 11
-3.0955082752
 21
4.4257013944
 31
0.0
 11
-3.1183894219
 21
4.5767254479
 31
0.0
 11
-3.1266937408
 21
4.7209573735
 31
0.0
  0
SPLINE
  5
299
100
AcDbEntity
  8
ASSI
100
AcDbSpline
 62
253
  6
CONTINUOUS
 70
0
 71
3
 72
11
 73
7
 74
5
 42
0.0000001
 43
0.0000001
 44
0.0000000001
 12
0.0847410944
 22
0.0448531075
 32
0.0
 13
0.0859509054
 23
-0.0414852637
 33
0.0
 40
0.0
 40
0.0
 40
0.0
 40
0.0
 40
0.0323397767
 40
0.3269624784
 40
0.6452270526
 40
1.0
 40
1.0
 40
1.0
 40
1.0
 10
-9.6987154389
 20
12.0011877284
 30
0.0
 10
-9.6978019363
 20
12.0016712416
 30
0.0
 10
-9.6884669678
 20
12.0063690941
 30
0.0
 10
-9.6681783166
 20
12.0116979627
 30
0.0
 10
-9.6370324321
 20
12.009237048
 30
0.0
 10
-9.6166868413
 20
12.0018404772
 30
0.0
 10
-9.6065224893
 20
11.9969345275
 30
0.0
 11
-9.6987154389
 21
12.0011877284
 31
0.0
 11
-9.6959460416
 21
12.0025810266
 31
0.0
 11
-9.6688165437
 21
12.0099728225
 31
0.0
 11
-9.6385020931
 21
12.0080586678
 31
0.0
 11
-9.6065224893
 21
11.9969345275
 31
0.0
  0
SPLINE
  5
29A
100
AcDbEntity
  8
ASSI
100
AcDbSpline
 62
253
  6
CONTINUOUS
 70
0
 71
3
 72
19
 73
15
 74
13
 42
0.0000001
 43
0.0000001
 44
0.0000000001
 12
0.0358343204
 22
-1.0299006361
 32
0.0
 13
0.9502173517
 23
0.3988312968
 33
0.0
 40
0.0
 40
0.0
 40
0.0
 40
0.0
 40
0.0989515448
 40
0.1924322361
 40
0.2804644318
 40
0.3634604866
 40
0.4422569605
 40
0.5180992661
 40
0.5925624004
 40
0.667392461
 40
0.7442933308
 40
0.8247208973
 40
0.9097432116
 40
1.0
 40
1.0
 40
1.0
 40
1.0
 10
6.1946819761
 20
-13.2700412788
 30
0.0
 10
6.1958639299
 20
-13.3040113651
 30
0.0
 10
6.2015520047
 20
-13.3700275292
 30
0.0
 10
6.2210662655
 20
-13.4646172597
 30
0.0
 10
6.2511021827
 20
-13.5506891852
 30
0.0
 10
6.2913042873
 20
-13.6269132386
 30
0.0
 10
6.3411758303
 20
-13.6920727199
 30
0.0
 10
6.4000371116
 20
-13.7450331951
 30
0.0
 10
6.4669610726
 20
-13.7848007107
 30
0.0
 10
6.540772147
 20
-13.8106397577
 30
0.0
 10
6.620147524
 20
-13.8221655888
 30
0.0
 10
6.7037490245
 20
-13.8193201944
 30
0.0
 10
6.7902505498
 20
-13.8023031235
 30
0.0
 10
6.8472817799
 20
-13.7823560242
 30
0.0
 10
6.8758696354
 20
-13.7703569469
 30
0.0
 11
6.1946819761
 21
-13.2700412788
 31
0.0
 11
6.2037500055
 21
-13.371609211
 31
0.0
 11
6.2235624731
 21
-13.4658839244
 31
0.0
 11
6.2538203908
 21
-13.5514084575
 31
0.0
 11
6.2940639334
 21
-13.626878571
 31
0.0
 11
6.3436851318
 21
-13.6911548809
 31
0.0
 11
6.4019351879
 21
-13.7432652956
 31
0.0
 11
6.4679311659
 21
-13.7824182031
 31
0.0
 11
6.5406715312
 21
-13.8080196353
 31
0.0
 11
6.6190567276
 21
-13.8196830467
 31
0.0
 11
6.701902983
 21
-13.8172312975
 31
0.0
 11
6.7879473648
 21
-13.8007026941
 31
0.0
 11
6.8758696354
 21
-13.7703569469
 31
0.0
  0
SPLINE
  5
29B
100
AcDbEntity
  8
ASSI
100
AcDbSpline
 62
253
  6
CONTINUOUS
 70
0
 71
3
 72
12
 73
8
 74
6
 42
0.0000001
 43
0.0000001
 44
0.0000000001
 12
0.0080909092
 22
-0.2419465937
 32
0.0
 13
0.2154248525
 23
-0.1078952959
 33
0.0
 40
0.0
 40
0.0
 40
0.0
 40
0.0
 40
0.0845598402
 40
0.2789137504
 40
0.4920224582
 40
0.7314604977
 40
1.0
 40
1.0
 40
1.0
 40
1.0
 10
-9.5956789236
 20
-5.6353501897
 30
0.0
 10
-9.5954508683
 20
-5.6421698448
 30
0.0
 10
-9.5930599394
 20
-5.6646058473
 30
0.0
 10
-9.5792785686
 20
-5.7023304226
 30
0.0
 10
-9.5480825244
 20
-5.7445751463
 30
0.0
 10
-9.5038504123
 20
-5.7825247696
 30
0.0
 10
-9.468519846
 20
-5.8033155494
 30
0.0
 10
-9.4492364851
 20
-5.8129735991
 30
0.0
 11
-9.5956789236
 21
-5.6353501897
 31
0.0
 11
-9.5935028205
 21
-5.6556773384
 31
0.0
 11
-9.5779299434
 21
-5.6998384746
 31
0.0
 11
-9.548035861
 21
-5.7415837704
 31
0.0
 11
-9.5047088841
 21
-5.7796727534
 31
0.0
 11
-9.4492364851
 21
-5.8129735991
 31
0.0
  0
SPLINE
  5
29C
100
AcDbEntity
  8
ASSI
100
AcDbSpline
 62
253
  6
CONTINUOUS
 70
0
 71
3
 72
14
 73
10
 74
8
 42
0.0000001
 43
0.0000001
 44
0.0000000001
 12
-0.7291948935
 22
0.4358697704
 32
0.0
 13
-0.028643939
 23
0.847567329
 33
0.0
 40
0.0
 40
0.0
 40
0.0
 40
0.0
 40
0.0653440893
 40
0.2004055078
 40
0.3415049313
 40
0.4909307116
 40
0.6501584171
 40
0.8198508795
 40
1.0
 40
1.0
 40
1.0
 40
1.0
 10
-9.101086925
 20
-6.549166758
 30
0.0
 10
-9.1169697838
 20
-6.5396729203
 30
0.0
 10
-9.1642295041
 20
-6.5081240848
 30
0.0
 10
-9.2359940128
 20
-6.4426420637
 30
0.0
 10
-9.3086167648
 20
-6.3459344277
 30
0.0
 10
-9.3671346973
 20
-6.2324716362
 30
0.0
 10
-9.4108483524
 20
-6.1040520025
 30
0.0
 10
-9.4392495403
 20
-5.9626267957
 30
0.0
 10
-9.4475170042
 20
-5.8638523274
 30
0.0
 10
-9.4492370643
 20
-5.8129561578
 30
0.0
 11
-9.101086925
 21
-6.549166758
 31
0.0
 11
-9.147241623
 21
-6.5183681011
 31
0.0
 11
-9.2321160062
 21
-6.4414556741
 31
0.0
 11
-9.3044184954
 21
-6.3461102245
 31
0.0
 11
-9.3630578889
 21
-6.233773406
 31
0.0
 11
-9.4071483662
 21
-6.1061410908
 31
0.0
 11
-9.4360191949
 21
-5.9651589703
 31
0.0
 11
-9.4492370643
 21
-5.8129561578
 31
0.0
  0
SPLINE
  5
29D
100
AcDbEntity
  8
ASSI
100
AcDbSpline
 62
253
  6
CONTINUOUS
 70
0
 71
3
 72
11
 73
7
 74
5
 42
0.0000001
 43
0.0000001
 44
0.0000000001
 12
-0.5827885381
 22
17.347419697
 32
0.0
 13
-0.0096986774
 23
17.3572036503
 33
0.0
 40
0.0
 40
0.0
 40
0.0
 40
0.0
 40
0.2483879525
 40
0.4978454065
 40
0.7483799274
 40
1.0
 40
1.0
 40
1.0
 40
1.0
 10
-9.4492370726
 20
-5.8129561537
 30
0.0
 10
-9.4974896232
 20
-4.3766594671
 30
0.0
 10
-9.5820853769
 20
-1.4974605185
 30
0.0
 10
-9.6732079763
 20
2.8315565294
 30
0.0
 10
-9.7288425832
 20
7.1798764657
 30
0.0
 10
-9.7422134892
 20
10.0852171855
 30
0.0
 10
-9.7430269498
 20
11.541024133
 30
0.0
 11
-9.4492370726
 21
-5.8129561537
 31
0.0
 11
-9.5759348236
 21
-1.5034972543
 31
0.0
 11
-9.6671351808
 21
2.8254266689
 31
0.0
 11
-9.7228382348
 21
7.1736492707
 31
0.0
 11
-9.7430269498
 21
11.541024133
 31
0.0
  0
SPLINE
  5
29E
100
AcDbEntity
  8
ASSI
100
AcDbSpline
 62
253
  6
CONTINUOUS
 70
0
 71
3
 72
16
 73
12
 74
10
 42
0.0000001
 43
0.0000001
 44
0.0000000001
 12
-0.0077162649
 22
1.0314114242
 32
0.0
 13
1.0115667214
 23
0.2095410735
 33
0.0
 40
0.0
 40
0.0
 40
0.0
 40
0.0
 40
0.1431335069
 40
0.279862121
 40
0.4090446083
 40
0.5302820943
 40
0.6441480589
 40
0.7526230992
 40
0.8584174487
 40
0.9642690226
 40
1.0
 40
1.0
 40
1.0
 40
1.0
 10
-3.266867391
 20
4.7207908782
 30
0.0
 10
-3.267235543
 20
4.7700007229
 30
0.0
 10
-3.2632329301
 20
4.8663489805
 30
0.0
 10
-3.2415170211
 20
5.0056314753
 30
0.0
 10
-3.2041190286
 20
5.1338212091
 30
0.0
 10
-3.151478752
 20
5.2480414043
 30
0.0
 10
-3.0844252325
 20
5.3460492994
 30
0.0
 10
-3.0039644456
 20
5.4261559509
 30
0.0
 10
-2.9112689478
 20
5.4869454696
 30
0.0
 10
-2.8314471531
 20
5.5180384093
 30
0.0
 10
-2.7840328523
 20
5.5294885709
 30
0.0
 10
-2.7719847631
 20
5.5319842733
 30
0.0
 11
-3.266867391
 21
4.7207908782
 31
0.0
 11
-3.2603019206
 21
4.8682784838
 31
0.0
 11
-3.2380575144
 21
5.0075405182
 31
0.0
 11
-3.2001592006
 21
5.135281221
 31
0.0
 11
-3.1472463443
 21
5.2485840847
 31
0.0
 11
-3.0804548967
 21
5.3451887023
 31
0.0
 11
-3.000871163
 21
5.4238322043
 31
0.0
 11
-2.9095346285
 21
5.4835392629
 31
0.0
 11
-2.8078544557
 21
5.523305111
 31
0.0
 11
-2.7719847631
 21
5.5319842733
 31
0.0
  0
SPLINE
  5
29F
100
AcDbEntity
  8
ASSI
100
AcDbSpline
 62
253
  6
CONTINUOUS
 70
0
 71
3
 72
24
 73
20
 74
18
 42
0.0000001
 43
0.0000001
 44
0.0000000001
 12
2.4586575719
 22
0.5092988293
 32
0.0
 13
0.1809290519
 23
-2.5017661291
 33
0.0
 40
0.0
 40
0.0
 40
0.0
 40
0.0
 40
0.0299441425
 40
0.0766595554
 40
0.1262038629
 40
0.1790478561
 40
0.2353773573
 40
0.2951485115
 40
0.3581182132
 40
0.4239107106
 40
0.4920494286
 40
0.5619298413
 40
0.632794102
 40
0.7039434868
 40
0.7748859844
 40
0.8450216651
 40
0.9133713406
 40
0.9789616725
 40
1.0
 40
1.0
 40
1.0
 40
1.0
 10
-2.7719847631
 20
5.5319842733
 30
0.0
 10
-2.7474439655
 20
5.5370677789
 30
0.0
 10
-2.6837441907
 20
5.5458974719
 30
0.0
 10
-2.5777428897
 20
5.5437258998
 30
0.0
 10
-2.4548538737
 20
5.5202138651
 30
0.0
 10
-2.3292952547
 20
5.4761741653
 30
0.0
 10
-2.2029472442
 20
5.412404272
 30
0.0
 10
-2.0777169688
 20
5.3299585917
 30
0.0
 10
-1.9554974493
 20
5.2301454201
 30
0.0
 10
-1.838134132
 20
5.1145094079
 30
0.0
 10
-1.7274185827
 20
4.9848292397
 30
0.0
 10
-1.6251092058
 20
4.8431746214
 30
0.0
 10
-1.5328329327
 20
4.6918444994
 30
0.0
 10
-1.4519513932
 20
4.5331369015
 30
0.0
 10
-1.3836224083
 20
4.3692900436
 30
0.0
 10
-1.3289753051
 20
4.2028389725
 30
0.0
 10
-1.2890348859
 20
4.0368385508
 30
0.0
 10
-1.2696001209
 20
3.9086363743
 30
0.0
 10
-1.2632265966
 20
3.8364740887
 30
0.0
 10
-1.2619577817
 20
3.8189297637
 30
0.0
 11
-2.7719847631
 21
5.5319842733
 31
0.0
 11
-2.6975751665
 21
5.5424172717
 31
0.0
 11
-2.5804757023
 21
5.5405896652
 31
0.0
 11
-2.458367052
 21
5.517862544
 31
0.0
 11
-2.3331579349
 21
5.4745837437
 31
0.0
 11
-2.2068474772
 21
5.4114363719
 31
0.0
 11
-2.081440336
 21
5.3294225817
 31
0.0
 11
-1.9589352182
 21
5.2298580533
 31
0.0
 11
-1.8412399952
 21
5.1143037987
 31
0.0
 11
-1.7301621726
 21
4.9845287165
 31
0.0
 11
-1.6274753813
 21
4.8425918431
 31
0.0
 11
-1.5349259755
 21
4.6909490626
 31
0.0
 11
-1.4539335527
 21
4.5320288432
 31
0.0
 11
-1.3855396826
 21
4.3678553633
 31
0.0
 11
-1.3308259464
 21
4.2007575145
 31
0.0
 11
-1.2909472013
 21
4.0341126773
 31
0.0
 11
-1.2665871149
 21
3.8714947048
 31
0.0
 11
-1.2619577817
 21
3.8189297637
 31
0.0
  0
SPLINE
  5
2A0
100
AcDbEntity
  8
ASSI
100
AcDbSpline
 62
253
  6
CONTINUOUS
 70
0
 71
3
 72
13
 73
9
 74
7
 42
0.0000001
 43
0.0000001
 44
0.0000000001
 12
-0.0184861225
 22
-0.6881737366
 32
0.0
 13
-0.5053631422
 23
-0.4685855246
 33
0.0
 40
0.0
 40
0.0
 40
0.0
 40
0.0
 40
0.1417113146
 40
0.3464696438
 40
0.5398118029
 40
0.7211331501
 40
0.891303766
 40
1.0
 40
1.0
 40
1.0
 40
1.0
 10
-1.2583077576
 20
3.6662123198
 30
0.0
 10
-1.2591809885
 20
3.6337049849
 30
0.0
 10
-1.2640321896
 20
3.5542805143
 30
0.0
 10
-1.2830785288
 20
3.4316451018
 30
0.0
 10
-1.3202840195
 20
3.3036149854
 30
0.0
 10
-1.3726575541
 20
3.1895791844
 30
0.0
 10
-1.4324633307
 20
3.1019253751
 30
0.0
 10
-1.4765452666
 20
3.0552368359
 30
0.0
 10
-1.4948556233
 20
3.0382590086
 30
0.0
 11
-1.2583077576
 21
3.6662123198
 31
0.0
 11
-1.2643829365
 21
3.5688526294
 31
0.0
 11
-1.2865278943
 21
3.4297066101
 31
0.0
 11
-1.3242402463
 21
3.3021220085
 31
0.0
 11
-1.3768939735
 21
3.1890065811
 31
0.0
 11
-1.4433721016
 21
3.0926098232
 31
0.0
 11
-1.4948556233
 21
3.0382590086
 31
0.0
  0
SPLINE
  5
2A1
100
AcDbEntity
  8
ASSI
100
AcDbSpline
 62
253
  6
CONTINUOUS
 70
0
 71
3
 72
27
 73
23
 74
21
 42
0.0000001
 43
0.0000001
 44
0.0000000001
 12
-2.1295480651
 22
-1.9745709849
 32
0.0
 13
-0.0218418729
 23
2.899561129
 33
0.0
 40
0.0
 40
0.0
 40
0.0
 40
0.0
 40
0.0126533349
 40
0.0501409892
 40
0.0876557827
 40
0.1261361184
 40
0.1664338113
 40
0.2092070015
 40
0.2548606103
 40
0.3035502532
 40
0.3552315133
 40
0.4096874153
 40
0.4665867774
 40
0.5255122442
 40
0.5859371656
 40
0.6472039573
 40
0.7087079608
 40
0.7700247279
 40
0.8306380643
 40
0.88970593
 40
0.946392656
 40
1.0
 40
1.0
 40
1.0
 40
1.0
 10
-1.4948556233
 20
3.0382590086
 30
0.0
 10
-1.503837585
 20
3.0299307059
 30
0.0
 10
-1.5405058899
 20
2.9980920384
 30
0.0
 10
-1.6118569977
 20
2.9512829845
 30
0.0
 10
-1.7148279276
 20
2.9112438577
 30
0.0
 10
-1.826389441
 20
2.8924631213
 30
0.0
 10
-1.9444708609
 20
2.8950348474
 30
0.0
 10
-2.067154019
 20
2.9186438758
 30
0.0
 10
-2.1925850032
 20
2.9627233614
 30
0.0
 10
-2.318894071
 20
3.0264745564
 30
0.0
 10
-2.4441774435
 20
3.1088458661
 30
0.0
 10
-2.5665386799
 20
3.2085349046
 30
0.0
 10
-2.6841229414
 20
3.3240054322
 30
0.0
 10
-2.7951241938
 20
3.4534891827
 30
0.0
 10
-2.8977653804
 20
3.5949284989
 30
0.0
 10
-2.9903980391
 20
3.7460374259
 30
0.0
 10
-3.0716379818
 20
3.9045306504
 30
0.0
 10
-3.1403052923
 20
4.0681818055
 30
0.0
 10
-3.1952495559
 20
4.2344670866
 30
0.0
 10
-3.2354269846
 20
4.4003418034
 30
0.0
 10
-3.2601631224
 20
4.5623637425
 30
0.0
 10
-3.2664770961
 20
4.6689782879
 30
0.0
 10
-3.266867391
 20
4.7207908782
 30
0.0
 11
-1.4948556233
 21
3.0382590086
 31
0.0
 11
-1.5226084873
 21
3.0141838251
 31
0.0
 11
-1.6135845433
 21
2.9546924184
 31
0.0
 11
-1.7149137977
 21
2.9151277011
 31
0.0
 11
-1.8248741801
 21
2.8961898141
 31
0.0
 11
-1.9417066062
 21
2.8981541998
 31
0.0
 11
-2.0636165545
 21
2.9209721929
 31
0.0
 11
-2.1887076985
 21
2.9642902535
 31
0.0
 11
-2.3149883812
 21
3.0274227812
 31
0.0
 11
-2.4404558179
 21
3.1093685566
 31
0.0
 11
-2.5631074662
 21
3.2088162045
 31
0.0
 11
-2.6810261418
 21
3.3242119569
 31
0.0
 11
-2.7923902166
 21
3.4537964972
 31
0.0
 11
-2.8954077951
 21
3.5955222057
 31
0.0
 11
-2.9883110347
 21
3.7469460051
 31
0.0
 11
-3.0696580652
 21
3.9056523415
 31
0.0
 11
-3.1383860873
 21
4.0696283956
 31
0.0
 11
-3.1933930746
 21
4.2365558518
 31
0.0
 11
-3.2335053626
 21
4.4030682709
 31
0.0
 11
-3.2580254817
 21
4.5656003751
 31
0.0
 11
-3.266867391
 21
4.7207908782
 31
0.0
  0
SPLINE
  5
2A2
100
AcDbEntity
  8
ASSI
100
AcDbSpline
 62
253
  6
CONTINUOUS
 70
0
 71
3
 72
17
 73
13
 74
11
 42
0.0000001
 43
0.0000001
 44
0.0000000001
 12
-0.3882100219
 22
-0.1914956984
 32
0.0
 13
-0.3871832493
 23
0.1935633102
 33
0.0
 40
0.0
 40
0.0
 40
0.0
 40
0.0
 40
0.0899749204
 40
0.1866926925
 40
0.2887145724
 40
0.3943429537
 40
0.501743173
 40
0.6089913359
 40
0.7141671611
 40
0.8154559107
 40
0.911195113
 40
1.0
 40
1.0
 40
1.0
 40
1.0
 10
5.7505836519
 20
4.3183814569
 30
0.0
 10
5.7389405966
 20
4.3126381868
 30
0.0
 10
5.7140197454
 20
4.3022340572
 30
0.0
 10
5.6740789626
 20
4.2901901772
 30
0.0
 10
5.6310014728
 20
4.2813576331
 30
0.0
 10
5.5858156046
 20
4.275953833
 30
0.0
 10
5.5395923659
 20
4.2741070462
 30
0.0
 10
5.4934307049
 20
4.2758624301
 30
0.0
 10
5.4484280048
 20
4.2811769306
 30
0.0
 10
5.4056505741
 20
4.2899243633
 30
0.0
 10
5.3661186654
 20
4.3018895203
 30
0.0
 10
5.3415165918
 20
4.3122594916
 30
0.0
 10
5.3300553369
 20
4.3179892809
 30
0.0
 11
5.7505836519
 21
4.3183814569
 31
0.0
 11
5.7147093356
 21
4.3032174726
 31
0.0
 11
5.6746625432
 21
4.2910090304
 31
0.0
 11
5.6314170032
 21
4.2820571302
 31
0.0
 11
5.586022666
 21
4.2765805621
 31
0.0
 11
5.5395697929
 21
4.2747109822
 31
0.0
 11
5.4931793824
 21
4.276493902
 31
0.0
 11
5.4479722121
 21
4.2818859741
 31
0.0
 11
5.4050341172
 21
4.290757503
 31
0.0
 11
5.3654075431
 21
4.3028916268
 31
0.0
 11
5.3300553369
 21
4.3179892809
 31
0.0
  0
SPLINE
  5
2A3
100
AcDbEntity
  8
ASSI
100
AcDbSpline
 62
253
  6
CONTINUOUS
 70
0
 71
3
 72
13
 73
9
 74
7
 42
0.0000001
 43
0.0000001
 44
0.0000000001
 12
-0.1426851185
 22
0.0713529958
 32
0.0
 13
0.0295346599
 23
0.1574391586
 33
0.0
 40
0.0
 40
0.0
 40
0.0
 40
0.0
 40
0.2197022595
 40
0.4171950789
 40
0.5934908375
 40
0.7524978134
 40
0.9014584516
 40
1.0
 40
1.0
 40
1.0
 40
1.0
 10
-9.6028513935
 20
11.7844426461
 30
0.0
 10
-9.6133008078
 20
11.7896681176
 30
0.0
 10
-9.6325950797
 20
11.8007792094
 30
0.0
 10
-9.6573702009
 20
11.8205625765
 30
0.0
 10
-9.6759191002
 20
11.8422612975
 30
0.0
 10
-9.6876605972
 20
11.8655223632
 30
0.0
 10
-9.6915026385
 20
11.8871453395
 30
0.0
 10
-9.6903333862
 20
11.9003733795
 30
0.0
 10
-9.6893632558
 20
11.9055448123
 30
0.0
 11
-9.6028513935
 21
11.7844426461
 31
0.0
 11
-9.6331012362
 21
11.8021460164
 31
0.0
 11
-9.6575319006
 21
11.8220405118
 31
0.0
 11
-9.6755414
 21
11.8436427799
 31
0.0
 11
-9.6866895734
 21
11.8664283795
 31
0.0
 11
-9.6907082897
 21
11.8898500231
 31
0.0
 11
-9.6893632558
 21
11.9055448123
 31
0.0
  0
SPLINE
  5
2A4
100
AcDbEntity
  8
ASSI
100
AcDbSpline
 62
253
  6
CONTINUOUS
 70
0
 71
3
 72
12
 73
8
 74
6
 42
0.0000001
 43
0.0000001
 44
0.0000000001
 12
0.0235525246
 22
0.1255504435
 32
0.0
 13
0.1124667953
 23
0.0594633249
 33
0.0
 40
0.0
 40
0.0
 40
0.0
 40
0.0
 40
0.062800613
 40
0.2610413881
 40
0.4804933674
 40
0.7263212361
 40
1.0
 40
1.0
 40
1.0
 40
1.0
 10
-9.6893632558
 20
11.9055448123
 30
0.0
 10
-9.6888702182
 20
11.9081730272
 30
0.0
 10
-9.686279082
 20
11.9189954041
 30
0.0
 10
-9.6775799569
 20
11.937694429
 30
0.0
 10
-9.6597751452
 20
11.9597643991
 30
0.0
 10
-9.6356811526
 20
11.9800313034
 30
0.0
 10
-9.6167824138
 20
11.9915099111
 30
0.0
 10
-9.6065224893
 20
11.9969345275
 30
0.0
 11
-9.6893632558
 21
11.9055448123
 31
0.0
 11
-9.6874999187
 21
11.9133418539
 31
0.0
 11
-9.677142666
 21
11.9363369643
 31
0.0
 11
-9.6598855294
 21
11.9582830662
 31
0.0
 11
-9.6361503587
 21
11.9786473193
 31
0.0
 11
-9.6065224893
 21
11.9969345275
 31
0.0
  0
SPLINE
  5
2A5
100
AcDbEntity
  8
ASSI
100
AcDbSpline
 62
253
  6
CONTINUOUS
 70
0
 71
3
 72
14
 73
10
 74
8
 42
0.0000001
 43
0.0000001
 44
0.0000000001
 12
-0.0021352354
 22
0.293580377
 32
0.0
 13
-0.2606943534
 23
0.1350275937
 33
0.0
 40
0.0
 40
0.0
 40
0.0
 40
0.0
 40
0.1375417359
 40
0.2843592423
 40
0.4361806324
 40
0.5881835054
 40
0.7355262397
 40
0.8738772597
 40
1.0
 40
1.0
 40
1.0
 40
1.0
 10
5.8907494444
 20
4.0738660505
 30
0.0
 10
5.8906515498
 20
4.087325902
 30
0.0
 10
5.8878638431
 20
4.1151657559
 30
0.0
 10
5.8772459101
 20
4.1566462984
 30
0.0
 10
5.8605392144
 20
4.1976062018
 30
0.0
 10
5.8385558362
 20
4.2360451708
 30
0.0
 10
5.8123491038
 20
4.2701140612
 30
0.0
 10
5.7831930645
 20
4.2981601871
 30
0.0
 10
5.7615434806
 20
4.3127047735
 30
0.0
 10
5.7505836519
 20
4.3183814569
 30
0.0
 11
5.8907494444
 21
4.0738660505
 31
0.0
 11
5.8869875
 21
4.1140710559
 31
0.0
 11
5.8764488735
 21
4.1558667701
 31
0.0
 11
5.8596619237
 21
4.1971577747
 31
0.0
 11
5.8374682676
 21
4.2358739602
 31
0.0
 11
5.8109805845
 21
4.2700743123
 31
0.0
 11
5.7815268288
 21
4.2980442244
 31
0.0
 11
5.7505836519
 21
4.3183814569
 31
0.0
  0
SPLINE
  5
2A6
100
AcDbEntity
  8
ASSI
100
AcDbSpline
 62
253
  6
CONTINUOUS
 70
0
 71
3
 72
14
 73
10
 74
8
 42
0.0000001
 43
0.0000001
 44
0.0000000001
 12
-0.0001666295
 22
0.2930098836
 32
0.0
 13
0.260950915
 23
0.1332645476
 33
0.0
 40
0.0
 40
0.0
 40
0.0
 40
0.0
 40
0.137354997
 40
0.2837129603
 40
0.4350144585
 40
0.5866467148
 40
0.7339613452
 40
0.8727885915
 40
1.0
 40
1.0
 40
1.0
 40
1.0
 10
5.1898681326
 20
4.0745765919
 30
0.0
 10
5.1898605034
 20
4.0879920491
 30
0.0
 10
5.1924529607
 20
4.115736752
 30
0.0
 10
5.2028738849
 20
4.1570685843
 30
0.0
 10
5.2194731746
 20
4.1978415411
 30
0.0
 10
5.2414518359
 20
4.236084964
 30
0.0
 10
5.2677676452
 20
4.2699775501
 30
0.0
 10
5.2971548186
 20
4.2978897425
 30
0.0
 10
5.3189900257
 20
4.3123383573
 30
0.0
 10
5.3300553369
 20
4.3179892809
 30
0.0
 11
5.1898681326
 21
4.0745765919
 31
0.0
 11
5.1933560482
 21
4.1146715467
 31
0.0
 11
5.2036902762
 21
4.1562920953
 31
0.0
 11
5.2203578778
 21
4.1973724057
 31
0.0
 11
5.2425315583
 21
4.2358734601
 31
0.0
 11
5.269110729
 21
4.2698842624
 31
0.0
 11
5.2987761351
 21
4.2977166893
 31
0.0
 11
5.3300553369
 21
4.3179892809
 31
0.0
  0
SPLINE
  5
2A7
100
AcDbEntity
  8
ASSI
100
AcDbSpline
 62
253
  6
CONTINUOUS
 70
0
 71
3
 72
14
 73
10
 74
8
 42
0.0000001
 43
0.0000001
 44
0.0000000001
 12
-0.0001666322
 22
0.2930098843
 32
0.0
 13
0.2609509171
 23
0.1332645449
 33
0.0
 40
0.0
 40
0.0
 40
0.0
 40
0.0
 40
0.1373551825
 40
0.2837133145
 40
0.435014922
 40
0.5866471981
 40
0.7339617476
 40
0.872788823
 40
1.0
 40
1.0
 40
1.0
 40
1.0
 10
-9.7430385979
 20
11.5410299571
 30
0.0
 10
-9.7430462271
 20
11.5544454324
 30
0.0
 10
-9.7404537633
 20
11.5821901701
 30
0.0
 10
-9.730032817
 20
11.623522044
 30
0.0
 10
-9.7134335013
 20
11.664295022
 30
0.0
 10
-9.6914548213
 20
11.7025384399
 30
0.0
 10
-9.6651390111
 20
11.7364309965
 30
0.0
 10
-9.6357518613
 20
11.7643431449
 30
0.0
 10
-9.6139166846
 20
11.7787917329
 30
0.0
 10
-9.6028513935
 20
11.7844426461
 30
0.0
 11
-9.7430385979
 21
11.5410299571
 31
0.0
 11
-9.7395506734
 21
11.5811249658
 31
0.0
 11
-9.7292164226
 21
11.6227455598
 31
0.0
 11
-9.7125487936
 21
11.6638258937
 31
0.0
 11
-9.6903750936
 21
11.7023269437
 31
0.0
 11
-9.6637959224
 21
11.7363377156
 31
0.0
 11
-9.6341305421
 21
11.764170097
 31
0.0
 11
-9.6028513935
 21
11.7844426461
 31
0.0
  0
SPLINE
  5
2A8
100
AcDbEntity
  8
ASSI
100
AcDbSpline
 62
253
  6
CONTINUOUS
 70
0
 71
3
 72
15
 73
11
 74
9
 42
0.0000001
 43
0.0000001
 44
0.0000000001
 12
-0.0067576227
 22
0.8379829669
 32
0.0
 13
0.7580287499
 23
0.3606374832
 33
0.0
 40
0.0
 40
0.0
 40
0.0
 40
0.0
 40
0.1637169852
 40
0.3200692259
 40
0.46778283
 40
0.6064058017
 40
0.7365989704
 40
0.8606328372
 40
0.9816118788
 40
1.0
 40
1.0
 40
1.0
 40
1.0
 10
-3.1266937408
 20
4.7209573735
 30
0.0
 10
-3.12706252
 20
4.7666880552
 30
0.0
 10
-3.1233909913
 20
4.8562162458
 30
0.0
 10
-3.1032759788
 20
4.9856384634
 30
0.0
 10
-3.0685779261
 20
5.1047434642
 30
0.0
 10
-3.0197049695
 20
5.2108665498
 30
0.0
 10
-2.9574260137
 20
5.301923437
 30
0.0
 10
-2.8826761751
 20
5.3763442634
 30
0.0
 10
-2.8207025744
 20
5.4169751347
 30
0.0
 10
-2.7857532024
 20
5.4342850081
 30
0.0
 10
-2.7811069609
 20
5.43649549
 30
0.0
 11
-3.1266937408
 21
4.7209573735
 31
0.0
 11
-3.1206661481
 21
4.8580214072
 31
0.0
 11
-3.1000601018
 21
4.9874156978
 31
0.0
 11
-3.0648970868
 21
5.1061018999
 31
0.0
 11
-3.0157708673
 21
5.2113705788
 31
0.0
 11
-2.9537364664
 21
5.3011215814
 31
0.0
 11
-2.8798034395
 21
5.3741816496
 31
0.0
 11
-2.7949380717
 21
5.4296443657
 31
0.0
 11
-2.7811069609
 21
5.43649549
 31
0.0
  0
SPLINE
  5
2A9
100
AcDbEntity
  8
ASSI
100
AcDbSpline
 62
253
  6
CONTINUOUS
 70
0
 71
3
 72
13
 73
9
 74
7
 42
0.0000001
 43
0.0000001
 44
0.0000000001
 12
-0.215894351
 22
0.1079521952
 32
0.0
 13
-0.0002206955
 23
0.2421879479
 33
0.0
 40
0.0
 40
0.0
 40
0.0
 40
0.0
 40
0.2421235129
 40
0.4595101842
 40
0.6534225439
 40
0.8281339132
 40
0.9916258048
 40
1.0
 40
1.0
 40
1.0
 40
1.0
 10
-9.7430269479
 20
11.5410241278
 30
0.0
 10
-9.7604513141
 20
11.5497367161
 30
0.0
 10
-9.7926087605
 20
11.568246398
 30
0.0
 10
-9.8339023023
 20
11.6011723597
 30
0.0
 10
-9.8648103675
 20
11.6372474867
 30
0.0
 10
-9.8843809014
 20
11.675895954
 30
0.0
 10
-9.8893583909
 20
11.7037881241
 30
0.0
 10
-9.8894843484
 20
11.7176623599
 30
0.0
 10
-9.8894849644
 20
11.718338403
 30
0.0
 11
-9.7430269479
 21
11.5410241278
 31
0.0
 11
-9.7934741137
 21
11.5705324835
 31
0.0
 11
-9.8341848122
 21
11.6036386922
 31
0.0
 11
-9.8641946093
 21
11.6395588394
 31
0.0
 11
-9.8827703348
 21
11.6774190804
 31
0.0
 11
-9.8894665127
 21
11.7163104136
 31
0.0
 11
-9.8894849644
 21
11.718338403
 31
0.0
  0
SPLINE
  5
2AA
100
AcDbEntity
  8
ASSI
100
AcDbSpline
 62
253
  6
CONTINUOUS
 70
0
 71
3
 72
17
 73
13
 74
11
 42
0.0000001
 43
0.0000001
 44
0.0000000001
 12
-0.6478787095
 22
-0.3171133083
 32
0.0
 13
-0.6451774021
 23
0.3225737007
 33
0.0
 40
0.0
 40
0.0
 40
0.0
 40
0.0
 40
0.0899352243
 40
0.1865809494
 40
0.2885603482
 40
0.3941667178
 40
0.5015619733
 40
0.6088199202
 40
0.7140203969
 40
0.8153431384
 40
0.9111132669
 40
1.0
 40
1.0
 40
1.0
 40
1.0
 10
5.8907614006
 20
4.0738719026
 30
0.0
 10
5.8713390282
 20
4.0643653504
 30
0.0
 10
5.8297829843
 20
4.0471677548
 30
0.0
 10
5.763205024
 20
4.027302382
 30
0.0
 10
5.6914155366
 20
4.0127831494
 30
0.0
 10
5.6161149848
 20
4.0039612945
 30
0.0
 10
5.5390884155
 20
4.0010466548
 30
0.0
 10
5.4621649778
 20
4.0041098686
 30
0.0
 10
5.3871711857
 20
4.0130764968
 30
0.0
 10
5.3158834647
 20
4.027733272
 30
0.0
 10
5.2499892732
 20
4.0477259146
 30
0.0
 10
5.2089723904
 20
4.0650249031
 30
0.0
 10
5.1898564866
 20
4.0745824106
 30
0.0
 11
5.8907614006
 21
4.0738719026
 31
0.0
 11
5.8309307438
 21
4.048797608
 31
0.0
 11
5.7641889684
 21
4.0286626829
 31
0.0
 11
5.6921163954
 21
4.0139440278
 31
0.0
 11
5.6164667649
 21
4.0050013469
 31
0.0
 11
5.5390563164
 21
4.0020489997
 31
0.0
 11
5.4617511391
 21
4.0051583441
 31
0.0
 11
5.386414671
 21
4.0142541997
 31
0.0
 11
5.3148556891
 21
4.0291184419
 31
0.0
 11
5.2488150367
 21
4.0493879085
 31
0.0
 11
5.1898564866
 21
4.0745824106
 31
0.0
  0
SPLINE
  5
2AB
100
AcDbEntity
  8
ASSI
100
AcDbSpline
 62
253
  6
CONTINUOUS
 70
0
 71
3
 72
16
 73
12
 74
10
 42
0.0000001
 43
0.0000001
 44
0.0000000001
 12
-0.6379991046
 22
-0.3396733917
 32
0.0
 13
-0.6466996827
 23
0.3228008533
 33
0.0
 40
0.0
 40
0.0
 40
0.0
 40
0.0
 40
0.1015166317
 40
0.2107208998
 40
0.3256469076
 40
0.4439751589
 40
0.5631922282
 40
0.6807357597
 40
0.7941361023
 40
0.9011644343
 40
1.0
 40
1.0
 40
1.0
 40
1.0
 10
6.1946819761
 20
-13.2700412788
 30
0.0
 10
6.1730928027
 20
-13.281535445
 30
0.0
 10
6.1265676025
 20
-13.3022472488
 30
0.0
 10
6.0515996095
 20
-13.325840672
 30
0.0
 10
5.9706751662
 20
-13.3425913443
 30
0.0
 10
5.8861604635
 20
-13.3520022418
 30
0.0
 10
5.8005124783
 20
-13.3537998068
 30
0.0
 10
5.7162339284
 20
-13.3479319935
 30
0.0
 10
5.6357715256
 20
-13.3345690884
 30
0.0
 10
5.5614746711
 20
-13.3141087306
 30
0.0
 10
5.5154044332
 20
-13.2952756694
 30
0.0
 10
5.4940987903
 20
-13.2846409344
 30
0.0
 11
6.1946819761
 21
-13.2700412788
 31
0.0
 11
6.127804169
 21
-13.3002279197
 31
0.0
 11
6.0525926892
 21
-13.3241737148
 31
0.0
 11
5.9712824637
 21
-13.3411671089
 31
0.0
 11
5.8862896455
 21
-13.3507031393
 31
0.0
 11
5.8001398166
 21
-13.3524984405
 31
0.0
 11
5.7153929397
 21
-13.3464996648
 31
0.0
 11
5.6345672888
 21
-13.3328850671
 31
0.0
 11
5.5600646174
 21
-13.3120592085
 31
0.0
 11
5.4940987903
 21
-13.2846409344
 31
0.0
  0
SPLINE
  5
2AC
100
AcDbEntity
  8
ASSI
100
AcDbSpline
 62
253
  6
CONTINUOUS
 70
0
 71
3
 72
14
 73
10
 74
8
 42
0.0000001
 43
0.0000001
 44
0.0000000001
 12
0.0309975359
 22
-0.8964475369
 32
0.0
 13
0.8027044092
 23
-0.403511886
 33
0.0
 40
0.0
 40
0.0
 40
0.0
 40
0.0
 40
0.1705248534
 40
0.3314849556
 40
0.4829541407
 40
0.6256267012
 40
0.760935233
 40
0.8910296635
 40
1.0
 40
1.0
 40
1.0
 40
1.0
 10
5.4940978886
 20
-13.2846236338
 30
0.0
 10
5.4958598386
 20
-13.3355791621
 30
0.0
 10
5.5043408727
 20
-13.4345643709
 30
0.0
 10
5.5334417713
 20
-13.5763662121
 30
0.0
 10
5.5782289229
 20
-13.7053321302
 30
0.0
 10
5.6381750225
 20
-13.8194894969
 30
0.0
 10
5.7125448057
 20
-13.9170185033
 30
0.0
 10
5.7961664905
 20
-13.9924629591
 30
0.0
 10
5.857398369
 20
-14.0300744484
 30
0.0
 10
5.8865553588
 20
-14.0447313904
 30
0.0
 11
5.4940978886
 21
-13.2846236338
 31
0.0
 11
5.507627022
 21
-13.436982078
 31
0.0
 11
5.5371776744
 21
-13.5783041104
 31
0.0
 11
5.5823063738
 21
-13.7064555368
 31
0.0
 11
5.642326568
 21
-13.8194827558
 31
0.0
 11
5.7163315995
 21
-13.9156794767
 31
0.0
 11
5.8032045604
 21
-13.9935911926
 31
0.0
 11
5.8865553588
 21
-14.0447313904
 31
0.0
  0
SPLINE
  5
2AD
100
AcDbEntity
  8
ASSI
100
AcDbSpline
 62
253
  6
CONTINUOUS
 70
0
 71
3
 72
13
 73
9
 74
7
 42
0.0000001
 43
0.0000001
 44
0.0000000001
 12
-0.0143748292
 22
-0.3372111877
 32
0.0
 13
-0.3122832359
 23
-0.1308988728
 33
0.0
 40
0.0
 40
0.0
 40
0.0
 40
0.0
 40
0.2203895712
 40
0.4242798477
 40
0.6117673044
 40
0.7852201422
 40
0.9494899101
 40
1.0
 40
1.0
 40
1.0
 40
1.0
 10
6.8758696354
 20
-13.7703569469
 30
0.0
 10
6.8748136146
 20
-13.7951295566
 30
0.0
 10
6.8695714723
 20
-13.8427811753
 30
0.0
 10
6.8511386375
 20
-13.909440638
 30
0.0
 10
6.8227897205
 20
-13.9668177574
 30
0.0
 10
6.785095848
 20
-14.013076432
 30
0.0
 10
6.7492659818
 20
-14.0390039844
 30
0.0
 10
6.7273169745
 20
-14.0493410263
 30
0.0
 10
6.7220591564
 20
-14.0515449309
 30
0.0
 11
6.8758696354
 21
-13.7703569469
 31
0.0
 11
6.8673327258
 21
-13.8442507728
 31
0.0
 11
6.8485137221
 21
-13.9104441187
 31
0.0
 11
6.819983767
 21
-13.9669280656
 31
0.0
 11
6.7826087235
 21
-14.0119883677
 31
0.0
 11
6.7375228966
 21
-14.0442574782
 31
0.0
 11
6.7220591564
 21
-14.0515449309
 31
0.0
  0
SPLINE
  5
2AE
100
AcDbEntity
  8
CURVE
100
AcDbSpline
 62
253
  6
CONTINUOUS
 70
0
 71
3
 72
40
 73
36
 74
34
 42
0.0000001
 43
0.0000001
 44
0.0000000001
 12
-0.1101667423
 22
4.4774048959
 32
0.0
 13
-0.0960412431
 23
5.1759786505
 33
0.0
 40
0.0
 40
0.0
 40
0.0
 40
0.0
 40
0.125
 40
0.25
 40
0.3125
 40
0.375
 40
0.4375
 40
0.5
 40
0.53125
 40
0.5625
 40
0.59375
 40
0.609375
 40
0.625
 40
0.640625
 40
0.6484375
 40
0.65625
 40
0.66015625
 40
0.6640625
 40
0.666015625
 40
0.6669921875
 40
0.66796875
 40
0.669921875
 40
0.671875
 40
0.6796875
 40
0.6875
 40
0.6953125
 40
0.703125
 40
0.71875
 40
0.75
 40
0.78125
 40
0.8125
 40
0.84375
 40
0.875
 40
0.9375
 40
1.0
 40
1.0
 40
1.0
 40
1.0
 10
-2.1012207275
 20
-5.4429133898
 30
0.0
 10
-2.1058110084
 20
-5.2563548525
 30
0.0
 10
-2.1150192286
 20
-4.8832525563
 30
0.0
 10
-2.126391212
 20
-4.4168007938
 30
0.0
 10
-2.1357792118
 20
-4.0437945575
 30
0.0
 10
-2.1420319474
 20
-3.7636186946
 30
0.0
 10
-2.1480628488
 20
-3.4833243036
 30
0.0
 10
-2.1531392324
 20
-3.2497726909
 30
0.0
 10
-2.1571897386
 20
-3.0629257534
 30
0.0
 10
-2.1602290407
 20
-2.9227912643
 30
0.0
 10
-2.162761468
 20
-2.8060124966
 30
0.0
 10
-2.1647874772
 20
-2.7125891896
 30
0.0
 10
-2.1663069766
 20
-2.642522604
 30
0.0
 10
-2.1675732232
 20
-2.5841309225
 30
0.0
 10
-2.1685862312
 20
-2.5374239943
 30
0.0
 10
-2.1692193358
 20
-2.5082175518
 30
0.0
 10
-2.1697258778
 20
-2.4848858632
 30
0.0
 10
-2.1700423333
 20
-2.4702272006
 30
0.0
 10
-2.1702641192
 20
-2.4601191663
 30
0.0
 10
-2.1703904363
 20
-2.4541037176
 30
0.0
 10
-2.1705151799
 20
-2.4471864616
 30
0.0
 10
-2.1706716473
 20
-2.4388481332
 30
0.0
 10
-2.1710467264
 20
-2.418582448
 30
0.0
 10
-2.1716095309
 20
-2.3882904757
 30
0.0
 10
-2.1723598307
 20
-2.3478402769
 30
0.0
 10
-2.1731101589
 20
-2.3074063692
 30
0.0
 10
-2.1741105865
 20
-2.2534888097
 30
0.0
 10
-2.1758613396
 20
-2.1591357283
 30
0.0
 10
-2.1783624129
 20
-2.0243442275
 30
0.0
 10
-2.181363702
 20
-1.8625950201
 30
0.0
 10
-2.1843649908
 20
-1.7008456537
 30
0.0
 10
-2.1873662796
 20
-1.5390963298
 30
0.0
 10
-2.1913679981
 20
-1.3234305497
 30
0.0
 10
-2.1963701462
 20
-1.0538483298
 30
0.0
 10
-2.2003718646
 20
-0.8381825523
 30
0.0
 10
-2.2023727239
 20
-0.7303496638
 30
0.0
 11
-2.1012207275
 21
-5.4429133898
 31
0.0
 11
-2.1149915703
 21
-4.8832377779
 31
0.0
 11
-2.128762413
 21
-4.3235621659
 31
0.0
 11
-2.1356478344
 21
-4.0437243599
 31
0.0
 11
-2.1419949751
 21
-3.7635989399
 31
0.0
 11
-2.1480729753
 21
-3.4833297129
 31
0.0
 11
-2.1541509755
 21
-3.2030604859
 31
0.0
 11
-2.1571899757
 21
-3.0629258724
 31
0.0
 11
-2.1602289758
 21
-2.9227912589
 31
0.0
 11
-2.1632679759
 21
-2.7826566454
 31
0.0
 11
-2.164787476
 21
-2.7125893387
 31
0.0
 11
-2.166306976
 21
-2.6425220319
 31
0.0
 11
-2.1678264761
 21
-2.5724547252
 31
0.0
 11
-2.1685862261
 21
-2.5374210718
 31
0.0
 11
-2.1693459761
 21
-2.5023874184
 31
0.0
 11
-2.1697258512
 21
-2.4848705918
 31
0.0
 11
-2.1701057262
 21
-2.4673537651
 31
0.0
 11
-2.1702956637
 21
-2.4585953517
 31
0.0
 11
-2.1703902396
 21
-2.4539909917
 31
0.0
 11
-2.1704840299
 21
-2.4489363251
 31
0.0
 11
-2.1706716104
 21
-2.4388269918
 31
0.0
 11
-2.170859191
 21
-2.4287176585
 31
0.0
 11
-2.1716095132
 21
-2.3882803253
 31
0.0
 11
-2.1723598354
 21
-2.3478429921
 31
0.0
 11
-2.1731101576
 21
-2.3074056589
 31
0.0
 11
-2.1738604798
 21
-2.2669683256
 31
0.0
 11
-2.1753611243
 21
-2.1860936592
 31
0.0
 11
-2.1783624131
 21
-2.0243443264
 31
0.0
 11
-2.1813637019
 21
-1.8625949936
 31
0.0
 11
-2.1843649908
 21
-1.7008456607
 31
0.0
 11
-2.1873662796
 21
-1.5390963279
 31
0.0
 11
-2.1903675685
 21
-1.3773469951
 31
0.0
 11
-2.1963701462
 21
-1.0538483294
 31
0.0
 11
-2.2023727239
 21
-0.7303496638
 31
0.0
  0
ELLIPSE
  5
2AF
100
AcDbEntity
  8
RACCORDO
100
AcDbEllipse
 62
7
  6
CONTINUOUS
 10
-5.9889599956
 20
13.7361005807
 30
0.0
 11
-0.0894818401
 21
0.1789012953
 31
0.0
 40
0.6122950388
 41
-0.6847996396
 42
0.013822208
  0
ELLIPSE
  5
2B0
100
AcDbEntity
  8
RACCORDO
100
AcDbEllipse
 62
7
  6
CONTINUOUS
 10
8.7456159239
 20
-12.6598837675
 30
0.0
 11
-0.1825210626
 21
0.4655826378
 31
0.0
 40
0.6539056002
 41
-3.1260688269
 42
-2.199353272
  0
ELLIPSE
  5
2B1
100
AcDbEntity
  8
RACCORDO
100
AcDbEllipse
 62
7
  6
CONTINUOUS
 10
9.4966354275
 20
5.9933028692
 30
0.0
 11
-0.0894578232
 21
0.1788799337
 31
0.0
 40
0.6124778111
 41
-2.255529033
 42
-0.6848850053
  0
ELLIPSE
  5
2B2
100
AcDbEntity
  8
ASSI
100
AcDbEllipse
 62
7
  6
CONTINUOUS
 10
-5.9889599956
 20
13.7361005807
 30
0.0
 11
-0.0894818401
 21
0.1789012953
 31
0.0
 40
0.6122950388
 41
-0.6847996396
 42
0.013822208
  0
ELLIPSE
  5
2B3
100
AcDbEntity
  8
ASSI
100
AcDbEllipse
 62
7
  6
CONTINUOUS
 10
8.7456159239
 20
-12.6598837675
 30
0.0
 11
-0.1825210626
 21
0.4655826378
 31
0.0
 40
0.6539056002
 41
-3.1260688269
 42
-2.199353272
  0
ELLIPSE
  5
2B4
100
AcDbEntity
  8
ASSI
100
AcDbEllipse
 62
7
  6
CONTINUOUS
 10
9.4966354275
 20
5.9933028692
 30
0.0
 11
-0.0894578232
 21
0.1788799337
 31
0.0
 40
0.6124778111
 41
-2.255529033
 42
-0.6848850053
  0
ENDSEC
  0
SECTION
  2
OBJECTS
  0
DICTIONARY
  5
C
100
AcDbDictionary
280
0
281
1
  3
ACAD_GROUP
350
D
  3
ACAD_MLINESTYLE
350
17
  3
ACAD_LAYOUT
350
1A
  3
ACAD_PLOTSETTINGS
350
19
  3
ACAD_PLOTSTYLENAME
350
E
  0
DICTIONARY
  5
D
102
{ACAD_REACTORS
330
C
102
}
100
AcDbDictionary
280
0
281
1
  0
ACDBDICTIONARYWDFLT
  5
E
102
{ACAD_REACTORS
330
C
102
}
100
AcDbDictionary
281
1
  3
Normal
350
F
100
AcDbDictionaryWithDefault
340
F
  0
DICTIONARY
  5
17
102
{ACAD_REACTORS
330
C
102
}
100
AcDbDictionary
280
0
281
1
  3
Standard
350
18
  0
DICTIONARY
  5
19
102
{ACAD_REACTORS
330
C
102
}
100
AcDbDictionary
281
1
  0
DICTIONARY
  5
1A
102
{ACAD_REACTORS
330
C
102
}
100
AcDbDictionary
281
1
  3
Model
350
2B5
  3
Layout1
350
2B6
  0
ACDBPLACEHOLDER
  5
F
102
{ACAD_REACTORS
330
E
102
}
  0
MLINESTYLE
  5
18
102
{ACAD_REACTORS
330
17
102
}
100
AcDbMlineStyle
  2
STANDARD
 70
0
  3

 62
256
 51
90.0
 52
90.0
 71
2
 49
0.5
 62
256
  6
BYLAYER
 49
-0.5
 62
256
  6
BYLAYER
  0
LAYOUT
  5
2B5
102
{ACAD_REACTORS
330
1A
102
}
100
AcDbPlotSettings
  1

  2
none_device
  4
ISO_A4_(297.00_x_210.00_MM)
  6

 40
0.0
 41
0.0
 42
0.0
 43
0.0
 44
297.0
 45
210.0
 46
0.0
 47
0.0
 48
0.0
 49
0.0
140
0.0
141
0.0
142
1.0
143
1.0
 70
1024
 72
1
 73
0
 74
0
  7

 75
0
147
1.0
148
0.0
149
0.0
100
AcDbLayout
  1
Model
 70
0
 71
0
 10
0.0
 20
0.0
 11
297.0
 21
210.0
 12
0.0
 22
0.0
 32
0.0
 14
0.0
 24
0.0
 34
0.0
 15
0.0
 25
0.0
 35
0.0
146
0.0
 13
0.0
 23
0.0
 33
0.0
 16
1.0
 26
0.0
 36
0.0
 17
0.0
 27
1.0
 37
0.0
 76
0
330
213
345
0
346
0
  0
LAYOUT
  5
2B6
102
{ACAD_REACTORS
330
1A
102
}
100
AcDbPlotSettings
  1

  2
none_device
  4
ISO_A4_(297.00_x_210.00_MM)
  6

 40
0.0
 41
0.0
 42
0.0
 43
0.0
 44
297.0
 45
210.0
 46
0.0
 47
0.0
 48
0.0
 49
0.0
140
0.0
141
0.0
142
1.0
143
1.0
 70
0
 72
1
 73
0
 74
0
  7

 75
0
147
1.0
148
0.0
149
0.0
100
AcDbLayout
  1
Layout1
 70
0
 71
1
 10
0.0
 20
0.0
 11
297.0
 21
210.0
 12
0.0
 22
0.0
 32
0.0
 14
0.0
 24
0.0
 34
0.0
 15
0.0
 25
0.0
 35
0.0
146
0.0
 13
0.0
 23
0.0
 33
0.0
 16
1.0
 26
0.0
 36
0.0
 17
0.0
 27
1.0
 37
0.0
 76
0
330
214
345
0
346
0
  0
ENDSEC
  0
EOF
