  0
SECTION
  2
HEADER
  9
$ACADVER
  1
AC1015
  9
$DWGCODEPAGE
  3
ANSI_1252
  9
$EXTMAX
 10
297.0
 20
210.0
 30
0.0
  9
$EXTMIN
 10
0.0
 20
0.0
 30
0.0
  9
$LIMMIN
 10
0.0
 20
0.0
  9
$LIMMAX
 10
297.0
 20
210.0
  9
$VIEWCTR
 10
148.5
 20
105.0
  9
$VIEWSIZE
 40
210.0
  9
$CLAYER
  8
0
  9
$LTSCALE
 40
16.335
  9
$CELTYPE
  6
BYLAYER
  9
$DIMSCALE
 40
1.0
  9
$DIMASZ
 40
3.0
  9
$DIMEXO
 40
1.85625
  9
$DIMDLI
 40
11.286
  9
$DIMEXE
 40
5.346
  9
$DIMCEN
 40
2.673
  9
$DIMLFAC
 40
1.0
  9
$DIMBLK
  1
_FILLED
  9
$DIMTXT
 40
3.0
  9
$DIMTOL
 70
1
  9
$DIMLIM
 70
0
  9
$DIMTFAC
 40
1.0
  9
$DIMTP
 40
0.01
  9
$DIMTM
 40
0.01
  9
$PDMODE
 70
3
  9
$PDSIZE
 40
3.0
  9
$HANDSEED
  5
2BE
  9
$TILEMODE
 70
1
  9
$MEASUREMENT
 70
1
  9
$INSUNITS
 70
4
  0
ENDSEC
  0
SECTION
  2
CLASSES
  0
CLASS
  1
ACDBDICTIONARYWDFLT
  2
AcDbDictionaryWithDefault
  3
AutoCAD 2000
 90
0
280
0
281
0
  0
CLASS
  1
ACDBPLACEHOLDER
  2
AcDbPlaceHolder
  3
AutoCAD 2000
 90
0
280
0
281
0
  0
CLASS
  1
LAYOUT
  2
AcDbLayout
  3
AutoCAD 2000
 90
0
280
0
281
0
  0
ENDSEC
  0
SECTION
  2
TABLES
  0
TABLE
  2
VPORT
  5
8
100
AcDbSymbolTable
 70
2
  0
VPORT
  5
1F4
100
AcDbSymbolTableRecord
100
AcDbViewportTableRecord
  2
*ACTIVE
 70
0
 10
0.0
 20
0.0
 11
1.0
 21
1.0
 12
148.5
 22
105.0
 13
0.0
 23
0.0
 14
1.0
 24
1.0
 15
0.0
 25
0.0
 16
0.0
 26
0.0
 36
1.0
 17
0.0
 27
0.0
 37
0.0
 40
210.0
 41
1.4142857143
 42
50.0
 43
0.0
 44
0.0
 50
0.0
 51
0.0
 71
0
 72
100
 73
1
 74
1
 75
0
 76
0
 77
0
 78
0
  0
ENDTAB
  0
TABLE
  2
LTYPE
  5
5
100
AcDbSymbolTable
 70
6
  0
LTYPE
  5
14
100
AcDbSymbolTableRecord
100
AcDbLinetypeTableRecord
  2
BYBLOCK
 70
0
  3

 72
65
 73
0
 40
0.0
  0
LTYPE
  5
15
100
AcDbSymbolTableRecord
100
AcDbLinetypeTableRecord
  2
BYLAYER
 70
0
  3

 72
65
 73
0
 40
0.0
  0
LTYPE
  5
16
100
AcDbSymbolTableRecord
100
AcDbLinetypeTableRecord
  2
CONTINUOUS
 70
64
  3
Solid line
 72
65
 73
0
 40
0.0
  0
LTYPE
  5
1F5
100
AcDbSymbolTableRecord
100
AcDbLinetypeTableRecord
  2
CENTER
 70
64
  3
____ _ ____ _ ____ _ ____ _ ____ _ ____ _ ____
 72
65
 73
4
 40
0.6
 49
0.375
 74
0
 49
-0.075
 74
0
 49
0.075
 74
0
 49
-0.075
 74
0
  0
LTYPE
  5
1F6
100
AcDbSymbolTableRecord
100
AcDbLinetypeTableRecord
  2
HIDDEN
 70
64
  3
- - - - - - - - - - - - - - - - - - - -
 72
65
 73
2
 40
0.2
 49
0.1
 74
0
 49
-0.1
 74
0
  0
LTYPE
  5
1F7
100
AcDbSymbolTableRecord
100
AcDbLinetypeTableRecord
  2
PHANTOM
 70
64
  3
_____ _ _ _____ _ _ _____ _ _ _____
 72
65
 73
6
 40
0.8
 49
0.45
 74
0
 49
-0.05
 74
0
 49
0.1
 74
0
 49
-0.05
 74
0
 49
0.1
 74
0
 49
-0.05
 74
0
  0
LTYPE
  5
1F8
100
AcDbSymbolTableRecord
100
AcDbLinetypeTableRecord
  2
DOT
 70
64
  3
. . . . . . . . . . . . . . . . . . . .
 72
65
 73
2
 40
0.2
 49
0.1
 74
0
 49
-0.1
 74
0
  0
LTYPE
  5
1F9
100
AcDbSymbolTableRecord
100
AcDbLinetypeTableRecord
  2
DASHED
 70
64
  3
- - - - - - - - - - - - - - - - - - - -
 72
65
 73
2
 40
0.2
 49
0.1
 74
0
 49
-0.1
 74
0
  0
ENDTAB
  0
TABLE
  2
LAYER
  5
2
100
AcDbSymbolTable
 70
36
  0
LAYER
  5
10
100
AcDbSymbolTableRecord
100
AcDbLayerTableRecord
  2
0
 70
0
 62
7
  6
CONTINUOUS
370
-3
390
F
  0
LAYER
  5
1FA
100
AcDbSymbolTableRecord
100
AcDbLayerTableRecord
  2
DEFAULT_1
 70
0
 62
7
  6
CENTER
370
-3
390
F
  0
LAYER
  5
1FB
100
AcDbSymbolTableRecord
100
AcDbLayerTableRecord
  2
DEFAULT_2
 70
0
 62
7
  6
HIDDEN
370
-3
390
F
  0
LAYER
  5
1FC
100
AcDbSymbolTableRecord
100
AcDbLayerTableRecord
  2
DEFAULT_3
 70
0
 62
7
  6
PHANTOM
370
-3
390
F
  0
LAYER
  5
1FD
100
AcDbSymbolTableRecord
100
AcDbLayerTableRecord
  2
ASSI
 70
0
 62
7
  6
CONTINUOUS
370
-3
390
F
  0
LAYER
  5
1FE
100
AcDbSymbolTableRecord
100
AcDbLayerTableRecord
  2
COORDINATE
 70
0
 62
7
  6
CONTINUOUS
370
-3
390
F
  0
LAYER
  5
1FF
100
AcDbSymbolTableRecord
100
AcDbLayerTableRecord
  2
COORD_ORIGINE
 70
0
 62
7
  6
CONTINUOUS
370
-3
390
F
  0
LAYER
  5
200
100
AcDbSymbolTableRecord
100
AcDbLayerTableRecord
  2
COPY_PUBLISH
 70
0
 62
7
  6
CONTINUOUS
370
-3
390
F
  0
LAYER
  5
201
100
AcDbSymbolTableRecord
100
AcDbLayerTableRecord
  2
COSMETIC
 70
0
 62
7
  6
CONTINUOUS
370
-3
390
F
  0
LAYER
  5
202
100
AcDbSymbolTableRecord
100
AcDbLayerTableRecord
  2
CURVE
 70
0
 62
7
  6
CONTINUOUS
370
-3
390
F
  0
LAYER
  5
203
100
AcDbSymbolTableRecord
100
AcDbLayerTableRecord
  2
DRAFT
 70
0
 62
7
  6
CONTINUOUS
370
-3
390
F
  0
LAYER
  5
204
100
AcDbSymbolTableRecord
100
AcDbLayerTableRecord
  2
IGES
 70
0
 62
7
  6
CONTINUOUS
370
-3
390
F
  0
LAYER
  5
205
100
AcDbSymbolTableRecord
100
AcDbLayerTableRecord
  2
IMPORT_IGES
 70
0
 62
7
  6
CONTINUOUS
370
-3
390
F
  0
LAYER
  5
206
100
AcDbSymbolTableRecord
100
AcDbLayerTableRecord
  2
INTF_6
 70
0
 62
7
  6
CONTINUOUS
370
-3
390
F
  0
LAYER
  5
207
100
AcDbSymbolTableRecord
100
AcDbLayerTableRecord
  2
NOTE
 70
0
 62
7
  6
CONTINUOUS
370
-3
390
F
  0
LAYER
  5
208
100
AcDbSymbolTableRecord
100
AcDbLayerTableRecord
  2
PIANI
 70
0
 62
7
  6
CONTINUOUS
370
-3
390
F
  0
LAYER
  5
209
100
AcDbSymbolTableRecord
100
AcDbLayerTableRecord
  2
PIANI_ORIGINE
 70
0
 62
7
  6
CONTINUOUS
370
-3
390
F
  0
LAYER
  5
20A
100
AcDbSymbolTableRecord
100
AcDbLayerTableRecord
  2
PIANI_RIFERIMENTO
 70
0
 62
7
  6
CONTINUOUS
370
-3
390
F
  0
LAYER
  5
20B
100
AcDbSymbolTableRecord
100
AcDbLayerTableRecord
  2
PUNTI
 70
0
 62
7
  6
CONTINUOUS
370
-3
390
F
  0
LAYER
  5
20C
100
AcDbSymbolTableRecord
100
AcDbLayerTableRecord
  2
RACCORDO
 70
0
 62
7
  6
CONTINUOUS
370
-3
390
F
  0
LAYER
  5
20D
100
AcDbSymbolTableRecord
100
AcDbLayerTableRecord
  2
SMUSSO
 70
0
 62
7
  6
CONTINUOUS
370
-3
390
F
  0
LAYER
  5
20E
100
AcDbSymbolTableRecord
100
AcDbLayerTableRecord
  2
SUPERFICI
 70
0
 62
7
  6
CONTINUOUS
370
-3
390
F
  0
LAYER
  5
20F
100
AcDbSymbolTableRecord
100
AcDbLayerTableRecord
  2
TRASH
 70
0
 62
7
  6
CONTINUOUS
370
-3
390
F
  0
LAYER
  5
210
100
AcDbSymbolTableRecord
100
AcDbLayerTableRecord
  2
XSEC_DATUMS
 70
0
 62
7
  6
CONTINUOUS
370
-3
390
F
  0
ENDTAB
  0
TABLE
  2
STYLE
  5
3
100
AcDbSymbolTable
 70
1
  0
STYLE
  5
11
100
AcDbSymbolTableRecord
100
AcDbTextStyleTableRecord
  2
STANDARD
 70
0
 40
0.0
 41
0.8
 50
0.0
 71
0
 42
0.2
  3
txt
  4

  0
STYLE
  5
211
100
AcDbSymbolTableRecord
100
AcDbTextStyleTableRecord
  2
TEXTSTYLE_1
 70
0
 40
0.0
 41
0.8
 50
0.0
 71
0
 42
0.2
  3
gdt
  4

  0
ENDTAB
  0
TABLE
  2
VIEW
  5
6
100
AcDbSymbolTable
 70
0
  0
ENDTAB
  0
TABLE
  2
UCS
  5
7
100
AcDbSymbolTable
 70
0
  0
ENDTAB
  0
TABLE
  2
APPID
  5
9
100
AcDbSymbolTable
 70
1
  0
APPID
  5
212
100
AcDbSymbolTableRecord
100
AcDbRegAppTableRecord
  2
ACAD
 70
0
  0
ENDTAB
  0
TABLE
  2
BLOCK_RECORD
  5
1
100
AcDbSymbolTable
 70
0
  0
BLOCK_RECORD
  5
213
100
AcDbSymbolTableRecord
100
AcDbBlockTableRecord
  2
*Model_Space
  0
BLOCK_RECORD
  5
214
100
AcDbSymbolTableRecord
100
AcDbBlockTableRecord
  2
*Paper_Space
  0
ENDTAB
  0
TABLE
  2
DIMSTYLE
  5
A
100
AcDbSymbolTable
 70
1
100
AcDbDimStyleTable
 71
0
  0
DIMSTYLE
105
215
100
AcDbSymbolTableRecord
100
AcDbDimStyleTableRecord
  2
STANDARD
 70
0
  3

  4

 40
1.0
 41
3.0
 42
0.0625
 43
0.38
 44
0.18
 45
0.0
 46
0.0
 47
0.01
 48
0.01
140
3.0
141
0.09
142
0.0
143
25.4
144
1.0
145
0.0
146
1.0
147
0.09
 71
1.0
 72
0.0
 73
0
 74
0
 75
0
 76
0
 77
1
 78
8
170
0
171
2
172
0
173
0
174
0
175
0
176
0
177
0
178
0
270
2
271
2
272
2
273
2
274
2
275
0
280
0
281
0
282
0
283
1
284
8
285
0
286
0
287
3
288
0
340
11
  0
ENDTAB
  0
ENDSEC
  0
SECTION
  2
BLOCKS
  0
BLOCK
  5
20
100
AcDbEntity
  8
0
100
AcDbBlockBegin
  2
*Model_Space
 70
0
 10
0.0
 20
0.0
 30
0.0
  3
*Model_Space
  1

  0
ENDBLK
  5
21
100
AcDbEntity
  8
0
100
AcDbBlockEnd
  0
BLOCK
  5
1C
100
AcDbEntity
  8
0
100
AcDbBlockBegin
  2
*Paper_Space
 70
0
 10
0.0
 20
0.0
 30
0.0
  3
*Paper_Space
  1

  0
ENDBLK
  5
1D
100
AcDbEntity
  8
0
100
AcDbBlockEnd
  0
ENDSEC
  0
SECTION
  2
ENTITIES
  0
LWPOLYLINE
  5
216
100
AcDbEntity
  8
RACCORDO
100
AcDbPolyline
 62
7
  6
CONTINUOUS
 90
16
 70
0
 10
-9.7182721707
 20
12.0316121036
 10
-9.7394663564
 20
12.018948546
 10
-9.7592225729
 20
12.0056220638
 10
-9.777545889
 20
11.9916949557
 10
-9.7944935754
 20
11.9771920605
 10
-9.8101379047
 20
11.9621056361
 10
-9.8244881467
 20
11.946473075
 10
-9.8375462034
 20
11.9303429576
 10
-9.8493332276
 20
11.913736104
 10
-9.8598347614
 20
11.8967196256
 10
-9.8690550265
 20
11.8793444028
 10
-9.8770155128
 20
11.861622821
 10
-9.8837039921
 20
11.8436322325
 10
-9.8891195289
 20
11.8254380583
 10
-9.8932787605
 20
11.8070438043
 10
-9.8961797959
 20
11.7885029902
  0
LWPOLYLINE
  5
217
100
AcDbEntity
  8
ASSI
100
AcDbPolyline
 62
7
  6
CONTINUOUS
 90
11
 70
0
 10
-9.7074569976
 20
12.0375064004
 10
-9.7205314091
 20
12.0303345903
 10
-9.753092532
 20
12.0099304503
 10
-9.7828235458
 20
11.9873607178
 10
-9.8095917946
 20
11.9626638792
 10
-9.8331132518
 20
11.936053967
 10
-9.8532603374
 20
11.9076569476
 10
-9.8698687647
 20
11.8776679832
 10
-9.8826670194
 20
11.8466773026
 10
-9.8915957524
 20
11.8151910059
 10
-9.8967449655
 20
11.7834913271
  0
LINE
  5
218
100
AcDbEntity
  8
RACCORDO
100
AcDbLine
 62
7
  6
CONTINUOUS
 10
-9.7075240123
 20
12.0374709855
 11
-9.7182721707
 21
12.0316121036
  0
LINE
  5
219
100
AcDbEntity
  8
RACCORDO
100
AcDbLine
 62
7
  6
CONTINUOUS
 10
-9.707500483
 20
12.0374839429
 11
-6.0886958283
 21
13.9505404909
  0
LINE
  5
21A
100
AcDbEntity
  8
ASSI
100
AcDbLine
 62
7
  6
CONTINUOUS
 10
-9.707500483
 20
12.0374839429
 11
-6.0886958283
 21
13.9505404909
  0
LINE
  5
21B
100
AcDbEntity
  8
RACCORDO
100
AcDbLine
 62
253
  6
CONTINUOUS
 10
-9.6152632147
 20
12.0332516259
 11
-5.9977222626
 21
13.9456401261
  0
LINE
  5
21C
100
AcDbEntity
  8
ASSI
100
AcDbLine
 62
253
  6
CONTINUOUS
 10
-9.6152632147
 20
12.0332516259
 11
-5.9977222626
 21
13.9456401261
  0
LINE
  5
21D
100
AcDbEntity
  8
DRAFT
100
AcDbLine
 62
7
  6
CONTINUOUS
 10
-4.274125436
 20
12.1591420316
 11
-5.3411108522
 21
11.4733410098
  0
LINE
  5
21E
100
AcDbEntity
  8
ASSI
100
AcDbLine
 62
7
  6
CONTINUOUS
 10
-4.274125436
 20
12.1591420316
 11
-5.3411108522
 21
11.4733410098
  0
LINE
  5
21F
100
AcDbEntity
  8
DRAFT
100
AcDbLine
 62
7
  6
CONTINUOUS
 10
-4.274125436
 20
13.0838417128
 11
-6.2098542978
 21
11.9077127325
  0
LINE
  5
220
100
AcDbEntity
  8
ASSI
100
AcDbLine
 62
7
  6
CONTINUOUS
 10
-4.274125436
 20
13.0838417128
 11
-6.2098542978
 21
11.9077127325
  0
LINE
  5
221
100
AcDbEntity
  8
ASSI
100
AcDbLine
 62
7
  6
CONTINUOUS
 10
-9.8967449655
 20
11.7834913271
 11
-9.8982261598
 21
11.7546524676
  0
LWPOLYLINE
  5
222
100
AcDbEntity
  8
RACCORDO
100
AcDbPolyline
 62
7
  6
CONTINUOUS
 90
3
 70
0
 10
-9.8961797959
 20
11.7885029902
 10
-9.8978185084
 20
11.7699171526
 10
-9.8982262254
 20
11.7547137471
  0
LWPOLYLINE
  5
223
100
AcDbEntity
  8
RACCORDO
100
AcDbPolyline
 62
7
  6
CONTINUOUS
 90
19
 70
0
 10
5.9107738821
 20
-14.0241099078
 10
5.948077362
 20
-14.0399279102
 10
5.9862478455
 20
-14.0541001362
 10
6.0252409685
 20
-14.0665884833
 10
6.0650470001
 20
-14.0773639327
 10
6.1056091446
 20
-14.0863824523
 10
6.1468593922
 20
-14.0936040654
 10
6.1887770143
 20
-14.0989990795
 10
6.2313015795
 20
-14.1025308237
 10
6.2743677992
 20
-14.1041655226
 10
6.317955133
 20
-14.1038747268
 10
6.3619996868
 20
-14.1016298028
 10
6.4064441157
 20
-14.0974039585
 10
6.4512880517
 20
-14.0911631929
 10
6.4964810275
 20
-14.0828786943
 10
6.5419644602
 20
-14.0725249083
 10
6.5877371592
 20
-14.0600606539
 10
6.6337647812
 20
-14.0454497016
 10
6.6799709117
 20
-14.028672378
  0
LWPOLYLINE
  5
224
100
AcDbEntity
  8
ASSI
100
AcDbPolyline
 62
7
  6
CONTINUOUS
 90
10
 70
0
 10
5.8778253631
 20
-14.0084215468
 10
5.9347602453
 20
-14.0345100068
 10
6.0097235053
 20
-14.0618529866
 10
6.0876890886
 20
-14.0826369899
 10
6.1682519676
 20
-14.0965981859
 10
6.2511900855
 20
-14.1035258214
 10
6.3360496481
 20
-14.1031880415
 10
6.4223600674
 20
-14.0954154918
 10
6.5100077961
 20
-14.0800107359
 10
6.5987384489
 20
-14.0567581308
  0
LINE
  5
225
100
AcDbEntity
  8
RACCORDO
100
AcDbLine
 62
7
  6
CONTINUOUS
 10
-9.1505107834
 20
-6.4891902295
 11
-9.1127062692
 21
-6.5118811241
  0
LWPOLYLINE
  5
226
100
AcDbEntity
  8
ASSI
100
AcDbPolyline
 62
7
  6
CONTINUOUS
 90
12
 70
0
 10
-9.6026232553
 20
-5.638035046
 10
-9.5926425049
 20
-5.7420262476
 10
-9.5755259817
 20
-5.8415094393
 10
-9.55153142
 20
-5.9362014527
 10
-9.5208743074
 20
-6.025969213
 10
-9.4837181656
 20
-6.1107084492
 10
-9.440306757
 20
-6.1900944388
 10
-9.3909143899
 20
-6.2638015311
 10
-9.3358215342
 20
-6.3315499162
 10
-9.2754386562
 20
-6.3929429341
 10
-9.2102584419
 20
-6.4476160843
 10
-9.1408305674
 20
-6.4952519012
  0
LWPOLYLINE
  5
227
100
AcDbEntity
  8
RACCORDO
100
AcDbPolyline
 62
7
  6
CONTINUOUS
 90
22
 70
0
 10
-9.6044406105
 20
-5.599013334
 10
-9.6022529703
 20
-5.6440372989
 10
-9.5974448281
 20
-5.7015315851
 10
-9.5904693616
 20
-5.7576180688
 10
-9.5813777803
 20
-5.812245846
 10
-9.5702185568
 20
-5.8653997689
 10
-9.5570297524
 20
-5.9170799735
 10
-9.5418535539
 20
-5.9672567734
 10
-9.5247360943
 20
-6.0158919234
 10
-9.5057173673
 20
-6.0629570444
 10
-9.48484369
 20
-6.1084095391
 10
-9.4621660563
 20
-6.1522079244
 10
-9.4377370714
 20
-6.1943084338
 10
-9.4116182554
 20
-6.2346568696
 10
-9.3838718416
 20
-6.2732114582
 10
-9.3545623943
 20
-6.3099315443
 10
-9.3237649914
 20
-6.3447670918
 10
-9.2915607378
 20
-6.3776715241
 10
-9.258037553
 20
-6.4086031905
 10
-9.2232871565
 20
-6.4375239871
 10
-9.1874078328
 20
-6.4643976278
 10
-9.1505107834
 20
-6.4891902295
  0
LINE
  5
228
100
AcDbEntity
  8
ASSI
100
AcDbLine
 62
7
  6
CONTINUOUS
 10
-9.6044399219
 20
-5.5990337691
 11
-9.6026232553
 21
-5.638035046
  0
LWPOLYLINE
  5
229
100
AcDbEntity
  8
RACCORDO
100
AcDbPolyline
 62
7
  6
CONTINUOUS
 90
3
 70
0
 10
-9.6925897587
 20
-2.7374553756
 10
-9.650262635
 20
-4.176204293
 10
-9.604441012
 20
-5.5990095392
  0
LWPOLYLINE
  5
22A
100
AcDbEntity
  8
RACCORDO
100
AcDbPolyline
 62
7
  6
CONTINUOUS
 90
10
 70
0
 10
-9.895478844
 20
10.3088654261
 10
-9.8887657095
 20
8.8507951236
 10
-9.8780946733
 20
7.3948054872
 10
-9.8634658138
 20
5.9409148696
 10
-9.8448793048
 20
4.4891395181
 10
-9.8223353309
 20
3.039494986
 10
-9.7958341036
 20
1.5919974026
 10
-9.7653759046
 20
0.1466627617
 10
-9.7309610138
 20
-1.2964935814
 10
-9.6925897587
 20
-2.7374553756
  0
LWPOLYLINE
  5
22B
100
AcDbEntity
  8
ASSI
100
AcDbPolyline
 62
7
  6
CONTINUOUS
 90
10
 70
0
 10
-9.8982262783
 20
11.7547544005
 10
-9.8938423752
 20
9.8618603971
 10
-9.8823034416
 20
7.9072273943
 10
-9.8636421389
 20
5.9563593954
 10
-9.8378588318
 20
4.0092973717
 10
-9.8049539858
 20
2.0660798552
 10
-9.76492818
 20
0.1267446651
 10
-9.7177821156
 20
-1.8086697808
 10
-9.6635167037
 20
-3.7401224414
 10
-9.6044410119
 20
-5.599009542
  0
LINE
  5
22C
100
AcDbEntity
  8
RACCORDO
100
AcDbLine
 62
7
  6
CONTINUOUS
 10
-9.8982262783
 20
11.7547543981
 11
-9.895478844
 21
10.3088654261
  0
LINE
  5
22D
100
AcDbEntity
  8
RACCORDO
100
AcDbLine
 62
7
  6
CONTINUOUS
 10
5.8787194777
 20
-14.0088698588
 11
5.9107738821
 21
-14.0241099078
  0
LINE
  5
22E
100
AcDbEntity
  8
RACCORDO
100
AcDbLine
 62
7
  6
CONTINUOUS
 10
5.8788334807
 20
-14.0089271038
 11
-9.0735679691
 21
-6.5327263789
  0
LINE
  5
22F
100
AcDbEntity
  8
ASSI
100
AcDbLine
 62
7
  6
CONTINUOUS
 10
5.8788334807
 20
-14.0089271038
 11
-9.0735679691
 21
-6.5327263789
  0
LINE
  5
230
100
AcDbEntity
  8
RACCORDO
100
AcDbLine
 62
7
  6
CONTINUOUS
 10
5.8787082271
 20
-14.00886446
 11
5.8788266303
 21
-14.0089236786
  0
LINE
  5
231
100
AcDbEntity
  8
RACCORDO
100
AcDbLine
 62
253
  6
CONTINUOUS
 10
5.4853571632
 20
-13.2483065353
 11
-9.4579777897
 21
-5.7766390593
  0
LINE
  5
232
100
AcDbEntity
  8
ASSI
100
AcDbLine
 62
253
  6
CONTINUOUS
 10
5.4853571632
 20
-13.2483065353
 11
-9.4579777897
 21
-5.7766390593
  0
LINE
  5
233
100
AcDbEntity
  8
RACCORDO
100
AcDbLine
 62
7
  6
CONTINUOUS
 10
-9.1127062692
 20
-6.5118811241
 11
-9.073358122
 21
-6.532831038
  0
LINE
  5
234
100
AcDbEntity
  8
ASSI
100
AcDbLine
 62
7
  6
CONTINUOUS
 10
-9.1408305674
 20
-6.4952519012
 11
-9.0725989415
 21
-6.5332095472
  0
LINE
  5
235
100
AcDbEntity
  8
DRAFT
100
AcDbLine
 62
7
  6
CONTINUOUS
 10
-2.4798012303
 20
5.505196862
 11
-2.6499423882
 21
5.4153777215
  0
LINE
  5
236
100
AcDbEntity
  8
ASSI
100
AcDbLine
 62
7
  6
CONTINUOUS
 10
-2.7898485147
 20
5.4728143299
 11
-2.7886589383
 21
5.4733786184
  0
LINE
  5
237
100
AcDbEntity
  8
RACCORDO
100
AcDbLine
 62
7
  6
CONTINUOUS
 10
-2.7887689054
 20
5.4733266185
 11
-2.7886589383
 21
5.4733786184
  0
LINE
  5
238
100
AcDbEntity
  8
RACCORDO
100
AcDbLine
 62
7
  6
CONTINUOUS
 10
-2.7887809103
 20
5.4733205576
 11
-2.7742947622
 21
5.4798470574
  0
LWPOLYLINE
  5
239
100
AcDbEntity
  8
ASSI
100
AcDbPolyline
 62
7
  6
CONTINUOUS
 90
25
 70
0
 10
-2.789860342
 20
5.4728083883
 10
-2.7484389696
 20
5.4899516504
 10
-2.6803129753
 20
5.5081545331
 10
-2.6074805413
 20
5.5160801061
 10
-2.5304456434
 20
5.5135046253
 10
-2.4499554525
 20
5.5003009289
 10
-2.3668227628
 20
5.4764838757
 10
-2.2819023155
 20
5.4422008282
 10
-2.1961865444
 20
5.3977924115
 10
-2.1105322788
 20
5.3436773116
 10
-2.0255187817
 20
5.2801665396
 10
-1.9419223562
 20
5.2077424853
 10
-1.8606559283
 20
5.1271193235
 10
-1.7823978437
 20
5.0389081816
 10
-1.7078565184
 20
4.943831598
 10
-1.6377956386
 20
4.842802094
 10
-1.5728863063
 20
4.736755884
 10
-1.5137263001
 20
4.626661409
 10
-1.4608541939
 20
4.5135327754
 10
-1.4147480809
 20
4.3984318529
 10
-1.3758076262
 20
4.2824351068
 10
-1.3443457585
 20
4.1666024788
 10
-1.3206023778
 20
4.0520141225
 10
-1.3047352478
 20
3.9397479645
 10
-1.296809043
 20
3.8308293476
  0
LINE
  5
23A
100
AcDbEntity
  8
RACCORDO
100
AcDbLine
 62
7
  6
CONTINUOUS
 10
-2.7742947622
 20
5.4798470574
 11
-2.7448017963
 21
5.4912222798
  0
LWPOLYLINE
  5
23B
100
AcDbEntity
  8
RACCORDO
100
AcDbPolyline
 62
7
  6
CONTINUOUS
 90
54
 70
0
 10
-2.7448017963
 20
5.4912222798
 10
-2.7145618016
 20
5.5004365141
 10
-2.683497576
 20
5.5075509864
 10
-2.6516440584
 20
5.5125809798
 10
-2.6190719078
 20
5.5155337653
 10
-2.585755516
 20
5.5164229855
 10
-2.5517482087
 20
5.5152527286
 10
-2.5171271206
 20
5.5120284291
 10
-2.4819059828
 20
5.5067514896
 10
-2.4461540635
 20
5.4994309731
 10
-2.4099517483
 20
5.4900803119
 10
-2.373328741
 20
5.4787024909
 10
-2.336359685
 20
5.4653160313
 10
-2.299126039
 20
5.4499444397
 10
-2.2616632351
 20
5.4325946606
 10
-2.2240456874
 20
5.4132940843
 10
-2.1863540112
 20
5.3920758425
 10
-2.1486277702
 20
5.3689519757
 10
-2.110940897
 20
5.3439587383
 10
-2.0733708045
 20
5.3171374029
 10
-2.0359581767
 20
5.2885042005
 10
-1.9987672761
 20
5.2580961509
 10
-1.961881398
 20
5.2259684107
 10
-1.9253664924
 20
5.1921646455
 10
-1.8892896509
 20
5.1567361351
 10
-1.8537256773
 20
5.1197451324
 10
-1.8187483809
 20
5.081256293
 10
-1.7844249492
 20
5.0413354065
 10
-1.7508214719
 20
5.0000514108
 10
-1.7180061371
 20
4.9574783558
 10
-1.6860401639
 20
4.9136894073
 10
-1.654985054
 20
4.868763511
 10
-1.6249054365
 20
4.8227870919
 10
-1.5958568953
 20
4.7758414804
 10
-1.5678933821
 20
4.7280121448
 10
-1.5410729244
 20
4.6793947245
 10
-1.5154448329
 20
4.6300784081
 10
-1.4910537022
 20
4.5801519158
 10
-1.4679467081
 20
4.529712231
 10
-1.446165832
 20
4.4788543979
 10
-1.4257461011
 20
4.4276683904
 10
-1.4067218526
 20
4.3762448189
 10
-1.3891256169
 20
4.3246771881
 10
-1.3729853956
 20
4.2730601642
 10
-1.3583273833
 20
4.2214872553
 10
-1.3451740662
 20
4.1700472822
 10
-1.333545726
 20
4.1188411593
 10
-1.3234623802
 20
4.0679819405
 10
-1.3149363485
 20
4.017560832
 10
-1.3079750765
 20
3.9676704033
 10
-1.302585732
 20
3.9184264829
 10
-1.2987687905
 20
3.8699273797
 10
-1.2965167272
 20
3.822257795
 10
-1.2958552689
 20
3.7879972384
  0
LINE
  5
23C
100
AcDbEntity
  8
DRAFT
100
AcDbLine
 62
7
  6
CONTINUOUS
 10
-5.2552601432
 20
11.5285212429
 11
-5.2552601432
 21
11.4304156552
  0
LINE
  5
23D
100
AcDbEntity
  8
ASSI
100
AcDbLine
 62
7
  6
CONTINUOUS
 10
-5.2552601432
 20
11.5285212429
 11
-5.2552601432
 21
11.4304156552
  0
LINE
  5
23E
100
AcDbEntity
  8
DRAFT
100
AcDbLine
 62
7
  6
CONTINUOUS
 10
-4.274125436
 20
13.0838417128
 11
-4.274125436
 21
12.1591420316
  0
LINE
  5
23F
100
AcDbEntity
  8
ASSI
100
AcDbLine
 62
7
  6
CONTINUOUS
 10
-4.274125436
 20
13.0838417128
 11
-4.274125436
 21
12.1591420316
  0
LWPOLYLINE
  5
240
100
AcDbEntity
  8
RACCORDO
100
AcDbPolyline
 62
7
  6
CONTINUOUS
 90
3
 70
0
 10
-1.5552477896
 20
3.141125736
 10
-1.5814175543
 20
3.124908351
 10
-1.5937850397
 20
3.118120683
  0
LINE
  5
241
100
AcDbEntity
  8
ASSI
100
AcDbLine
 62
7
  6
CONTINUOUS
 10
-1.5674181466
 20
3.1332581333
 11
-1.5947600176
 21
3.1176078973
  0
LINE
  5
242
100
AcDbEntity
  8
RACCORDO
100
AcDbLine
 62
7
  6
CONTINUOUS
 10
-1.5936081296
 20
3.1182140273
 11
-1.5937830105
 21
3.1181217503
  0
LINE
  5
243
100
AcDbEntity
  8
ASSI
100
AcDbLine
 62
7
  6
CONTINUOUS
 10
-1.5936081296
 20
3.1182140273
 11
-1.5947592729
 21
3.1176082901
  0
LINE
  5
244
100
AcDbEntity
  8
DRAFT
100
AcDbLine
 62
7
  6
CONTINUOUS
 10
-1.3844904775
 20
3.3446655269
 11
-1.5705994386
 21
3.2566918204
  0
LINE
  5
245
100
AcDbEntity
  8
DRAFT
100
AcDbLine
 62
7
  6
CONTINUOUS
 10
7.7643194171
 20
7.0646192863
 11
5.4574075918
 21
6.0740817878
  0
LINE
  5
246
100
AcDbEntity
  8
ASSI
100
AcDbLine
 62
7
  6
CONTINUOUS
 10
7.7643194171
 20
7.0646192863
 11
5.4574075918
 21
6.0740817878
  0
LINE
  5
247
100
AcDbEntity
  8
ASSI
100
AcDbLine
 62
7
  6
CONTINUOUS
 10
-1.296809043
 20
3.8308293476
 11
-1.2958555324
 21
3.7880386203
  0
LWPOLYLINE
  5
248
100
AcDbEntity
  8
RACCORDO
100
AcDbPolyline
 62
7
  6
CONTINUOUS
 90
21
 70
0
 10
-1.2958551018
 20
3.7879920564
 10
-1.2959812958
 20
3.7567344867
 10
-1.2973943266
 20
3.7126283001
 10
-1.3002541594
 20
3.6694620046
 10
-1.3045509749
 20
3.6273413524
 10
-1.3102720239
 20
3.5863248751
 10
-1.3174096981
 20
3.5464381068
 10
-1.3259505503
 20
3.5077557451
 10
-1.3358747768
 20
3.4703545089
 10
-1.3471697732
 20
3.434274471
 10
-1.3598134329
 20
3.3995920709
 10
-1.3737790291
 20
3.3663775345
 10
-1.3890488338
 20
3.3346689406
 10
-1.4055901504
 20
3.3045384344
 10
-1.4233732122
 20
3.2760399599
 10
-1.4423898099
 20
3.2491889764
 10
-1.4626037011
 20
3.22404847
 10
-1.4839904362
 20
3.2006580321
 10
-1.5065756022
 20
3.1790064025
 10
-1.5303301013
 20
3.1591512118
 10
-1.5552477896
 20
3.141125736
  0
LINE
  5
249
100
AcDbEntity
  8
ASSI
100
AcDbLine
 62
7
  6
CONTINUOUS
 10
-1.2958549056
 20
3.7879671132
 11
-1.2979002009
 21
3.7030330593
  0
LWPOLYLINE
  5
24A
100
AcDbEntity
  8
ASSI
100
AcDbPolyline
 62
7
  6
CONTINUOUS
 90
9
 70
0
 10
-1.2979002009
 20
3.7030330593
 10
-1.3073860028
 20
3.6056073066
 10
-1.3244721379
 20
3.5139385207
 10
-1.3490264169
 20
3.4288494671
 10
-1.3807405097
 20
3.351396636
 10
-1.4190130048
 20
3.2826983567
 10
-1.4631653639
 20
3.2233942291
 10
-1.5127281468
 20
3.1735925241
 10
-1.5674181466
 20
3.1332581333
  0
LINE
  5
24B
100
AcDbEntity
  8
RACCORDO
100
AcDbLine
 62
253
  6
CONTINUOUS
 10
9.4879162438
 20
6.202820873
 11
5.7418429265
 21
4.3546985553
  0
LINE
  5
24C
100
AcDbEntity
  8
ASSI
100
AcDbLine
 62
253
  6
CONTINUOUS
 10
9.4879162438
 20
6.202820873
 11
5.7418429265
 21
4.3546985553
  0
LINE
  5
24D
100
AcDbEntity
  8
RACCORDO
100
AcDbLine
 62
253
  6
CONTINUOUS
 10
9.6293376008
 20
5.9589248983
 11
5.8820206754
 21
4.1101890475
  0
LINE
  5
24E
100
AcDbEntity
  8
ASSI
100
AcDbLine
 62
253
  6
CONTINUOUS
 10
9.6293376008
 20
5.9589248983
 11
5.8820206754
 21
4.1101890475
  0
LINE
  5
24F
100
AcDbEntity
  8
RACCORDO
100
AcDbLine
 62
253
  6
CONTINUOUS
 10
5.1811157592
 20
4.1108995143
 11
-9.7517676752
 21
11.5773412315
  0
LINE
  5
250
100
AcDbEntity
  8
ASSI
100
AcDbLine
 62
253
  6
CONTINUOUS
 10
5.1811157592
 20
4.1108995143
 11
-9.7517676752
 21
11.5773412315
  0
LINE
  5
251
100
AcDbEntity
  8
RACCORDO
100
AcDbLine
 62
253
  6
CONTINUOUS
 10
5.3213146115
 20
4.3543063794
 11
-9.6115921189
 21
11.8207597446
  0
LINE
  5
252
100
AcDbEntity
  8
ASSI
100
AcDbLine
 62
253
  6
CONTINUOUS
 10
5.3213146115
 20
4.3543063794
 11
-9.6115921189
 21
11.8207597446
  0
LINE
  5
253
100
AcDbEntity
  8
DRAFT
100
AcDbLine
 62
7
  6
CONTINUOUS
 10
-6.2098542978
 20
11.9077127325
 11
5.4574075918
 21
6.0740817878
  0
LINE
  5
254
100
AcDbEntity
  8
ASSI
100
AcDbLine
 62
7
  6
CONTINUOUS
 10
-6.2098542978
 20
11.9077127325
 11
5.4574075918
 21
6.0740817878
  0
LINE
  5
255
100
AcDbEntity
  8
RACCORDO
100
AcDbLine
 62
7
  6
CONTINUOUS
 10
9.6293376008
 20
5.9589248983
 11
9.6293376008
 21
-5.1262200548
  0
LINE
  5
256
100
AcDbEntity
  8
ASSI
100
AcDbLine
 62
7
  6
CONTINUOUS
 10
9.6293376008
 20
5.9589248983
 11
9.6293376008
 21
-5.1262200548
  0
LINE
  5
257
100
AcDbEntity
  8
RACCORDO
100
AcDbLine
 62
7
  6
CONTINUOUS
 10
9.6293376008
 20
-5.1262200548
 11
9.0904537911
 21
-12.8007783717
  0
LINE
  5
258
100
AcDbEntity
  8
ASSI
100
AcDbLine
 62
7
  6
CONTINUOUS
 10
9.6293376008
 20
-5.1262200548
 11
9.0904537911
 21
-12.8007783717
  0
LINE
  5
259
100
AcDbEntity
  8
RACCORDO
100
AcDbLine
 62
7
  6
CONTINUOUS
 10
-5.9977222626
 20
13.9456401261
 11
-4.274125436
 21
13.0838417128
  0
LINE
  5
25A
100
AcDbEntity
  8
ASSI
100
AcDbLine
 62
7
  6
CONTINUOUS
 10
-5.9977222626
 20
13.9456401261
 11
-4.274125436
 21
13.0838417128
  0
LINE
  5
25B
100
AcDbEntity
  8
RACCORDO
100
AcDbLine
 62
7
  6
CONTINUOUS
 10
7.7643194171
 20
7.0646192863
 11
9.4879162438
 21
6.202820873
  0
LINE
  5
25C
100
AcDbEntity
  8
ASSI
100
AcDbLine
 62
7
  6
CONTINUOUS
 10
7.7643194171
 20
7.0646192863
 11
9.4879162438
 21
6.202820873
  0
LINE
  5
25D
100
AcDbEntity
  8
RACCORDO
100
AcDbLine
 62
253
  6
CONTINUOUS
 10
6.86712891
 20
-13.7340398484
 11
9.0904537911
 21
-12.8007783717
  0
LINE
  5
25E
100
AcDbEntity
  8
ASSI
100
AcDbLine
 62
253
  6
CONTINUOUS
 10
6.86712891
 20
-13.7340398484
 11
9.0904537911
 21
-12.8007783717
  0
LINE
  5
25F
100
AcDbEntity
  8
RACCORDO
100
AcDbLine
 62
7
  6
CONTINUOUS
 10
6.7133216646
 20
-14.0152355468
 11
8.9241206148
 21
-13.0872319471
  0
LINE
  5
260
100
AcDbEntity
  8
ASSI
100
AcDbLine
 62
7
  6
CONTINUOUS
 10
6.7133216646
 20
-14.0152355468
 11
8.9241206148
 21
-13.0872319471
  0
LINE
  5
261
100
AcDbEntity
  8
RACCORDO
100
AcDbLine
 62
7
  6
CONTINUOUS
 10
6.6799709117
 20
-14.028672378
 11
6.7133077858
 21
-14.0152411662
  0
LWPOLYLINE
  5
262
100
AcDbEntity
  8
ASSI
100
AcDbPolyline
 62
7
  6
CONTINUOUS
 90
3
 70
0
 10
6.5987384489
 20
-14.0567581308
 10
6.6880400846
 20
-14.0255238313
 10
6.7131396162
 20
-14.01531165
  0
ARC
  5
263
100
AcDbEntity
  8
ASSI
100
AcDbCircle
 62
253
  6
CONTINUOUS
 10
523.2086137703
 20
4.4075626379
 40
518.0275803887
100
AcDbArc
 50
180.1137635295
 51
180.3367370449
  0
ARC
  5
264
100
AcDbEntity
  8
RACCORDO
100
AcDbCircle
 62
253
  6
CONTINUOUS
 10
516.5247064834
 20
4.3559921728
 40
510.6427009096
100
AcDbArc
 50
180.0275799125
 51
181.2598968168
  0
ARC
  5
265
100
AcDbEntity
  8
ASSI
100
AcDbCircle
 62
253
  6
CONTINUOUS
 10
516.5247064841
 20
4.3559921728
 40
510.6427009096
100
AcDbArc
 50
180.0275799125
 51
181.2598968168
  0
ARC
  5
266
100
AcDbEntity
  8
RACCORDO
100
AcDbCircle
 62
253
  6
CONTINUOUS
 10
506.0566106113
 20
4.1320922975
 40
500.1722280064
100
AcDbArc
 50
181.2606210499
 51
181.9896906447
  0
ARC
  5
267
100
AcDbEntity
  8
ASSI
100
AcDbCircle
 62
253
  6
CONTINUOUS
 10
506.0566106113
 20
4.1320922975
 40
500.1722280064
100
AcDbArc
 50
181.2606210499
 51
181.9896906447
  0
ARC
  5
268
100
AcDbEntity
  8
CURVE
100
AcDbCircle
 62
253
  6
CONTINUOUS
 10
-4.9069742344
 20
-4.5054236497
 40
4.9024874467
100
AcDbArc
 50
21.0556951265
 51
22.5131643712
  0
ARC
  5
269
100
AcDbEntity
  8
CURVE
100
AcDbCircle
 62
253
  6
CONTINUOUS
 10
-4.6272007186
 20
-4.402554351
 40
4.6044377702
100
AcDbArc
 50
13.5117504084
 51
21.111875807
  0
ARC
  5
26A
100
AcDbEntity
  8
ASSI
100
AcDbCircle
 62
253
  6
CONTINUOUS
 10
-2.8758688673
 20
3.7388229367
 40
1.6093869689
100
AcDbArc
 50
1.7736577592
 51
4.1484313484
  0
ARC
  5
26B
100
AcDbEntity
  8
RACCORDO
100
AcDbCircle
 62
253
  6
CONTINUOUS
 10
-2.8130093685
 20
3.7411434243
 40
1.5464863614
100
AcDbArc
 50
0.4239617853
 51
2.311089802
  0
ARC
  5
26C
100
AcDbEntity
  8
ASSI
100
AcDbCircle
 62
253
  6
CONTINUOUS
 10
-2.8026969849
 20
3.7413164597
 40
1.5361729827
100
AcDbArc
 50
0.4203541752
 51
1.7651699455
  0
ARC
  5
26D
100
AcDbEntity
  8
ASSI
100
AcDbCircle
 62
253
  6
CONTINUOUS
 10
-2.7354111687
 20
3.741732584
 40
1.4688859265
100
AcDbArc
 50
358.4706486447
 51
0.4233783041
  0
ARC
  5
26E
100
AcDbEntity
  8
CURVE
100
AcDbCircle
 62
253
  6
CONTINUOUS
 10
-1.2851300793
 20
-4.717040667
 40
1.1186116487
100
AcDbArc
 50
309.2029893696
 51
313.103347895
  0
ARC
  5
26F
100
AcDbEntity
  8
RACCORDO
100
AcDbCircle
 62
7
  6
CONTINUOUS
 10
-1.6495414603
 20
4.2760029697
 40
1.1007054639
100
AcDbArc
 50
237.1726665364
 51
240.9484598453
  0
ARC
  5
270
100
AcDbEntity
  8
RACCORDO
100
AcDbCircle
 62
7
  6
CONTINUOUS
 10
-1.6829486518
 20
4.2164563317
 40
1.0324284262
100
AcDbArc
 50
240.9644641986
 51
243.4252663163
  0
ARC
  5
271
100
AcDbEntity
  8
RACCORDO
100
AcDbCircle
 62
253
  6
CONTINUOUS
 10
-8.8237663132
 20
-6.0342934615
 40
0.5575366565
100
AcDbArc
 50
237.2828405986
 51
239.1307429259
  0
ARC
  5
272
100
AcDbEntity
  8
RACCORDO
100
AcDbCircle
 62
253
  6
CONTINUOUS
 10
-8.825235316
 20
-6.0367511096
 40
0.5546734409
100
AcDbArc
 50
239.1307359387
 51
240.8543340767
  0
ARC
  5
273
100
AcDbEntity
  8
ASSI
100
AcDbCircle
 62
253
  6
CONTINUOUS
 10
-8.825235316
 20
-6.0367511096
 40
0.5546734409
100
AcDbArc
 50
239.1307359387
 51
240.8543340767
  0
ARC
  5
274
100
AcDbEntity
  8
RACCORDO
100
AcDbCircle
 62
253
  6
CONTINUOUS
 10
-8.8261347158
 20
-6.0383485206
 40
0.552840251
100
AcDbArc
 50
240.8551146843
 51
241.1322443118
  0
ARC
  5
275
100
AcDbEntity
  8
ASSI
100
AcDbCircle
 62
253
  6
CONTINUOUS
 10
-8.8272470022
 20
-6.0403829638
 40
0.5505216817
100
AcDbArc
 50
240.8531004996
 51
243.4218763643
  0
ARC
  5
276
100
AcDbEntity
  8
RACCORDO
100
AcDbCircle
 62
253
  6
CONTINUOUS
 10
-8.8273794912
 20
-6.0406386569
 40
0.550233731
100
AcDbArc
 50
241.1306241622
 51
243.4223019095
  0
ARC
  5
277
100
AcDbEntity
  8
RACCORDO
100
AcDbCircle
 62
253
  6
CONTINUOUS
 10
-2.5807258723
 20
5.0332490092
 40
0.4867731251
100
AcDbArc
 50
115.4110493643
 51
121.2294727049
  0
ARC
  5
278
100
AcDbEntity
  8
RACCORDO
100
AcDbCircle
 62
253
  6
CONTINUOUS
 10
-1.8191826757
 20
3.5454344772
 40
0.4831159081
100
AcDbArc
 50
293.2646624662
 51
297.692312034
  0
ARC
  5
279
100
AcDbEntity
  8
RACCORDO
100
AcDbCircle
 62
253
  6
CONTINUOUS
 10
-1.8184416922
 20
3.5440048683
 40
0.4815057002
100
AcDbArc
 50
297.6932954146
 51
297.8122085729
  0
SPLINE
  5
27A
100
AcDbEntity
  8
RACCORDO
100
AcDbSpline
 62
7
  6
CONTINUOUS
 70
0
 71
3
 72
10
 73
6
 74
4
 42
0.0000001
 43
0.0000001
 44
0.0000000001
 12
0.5309507646
 22
-0.2654753776
 32
0.0
 13
0.5366819963
 23
0.2536896016
 33
0.0
 40
0.0
 40
0.0
 40
0.0
 40
0.0
 40
0.3683960887
 40
0.69741576
 40
1.0
 40
1.0
 40
1.0
 40
1.0
 10
-2.1448207261
 20
3.2931023138
 30
0.0
 10
-2.0796206644
 20
3.2605022836
 30
0.0
 10
-1.9485354114
 20
3.211922657
 30
0.0
 10
-1.7481877418
 20
3.1977202461
 30
0.0
 10
-1.6247298211
 20
3.2311043863
 30
0.0
 10
-1.5705993165
 20
3.2566918781
 30
0.0
 11
-2.1448207261
 21
3.2931023138
 31
0.0
 11
-1.9387233793
 21
3.2199711048
 31
0.0
 11
-1.7437279346
 21
3.2088383187
 31
0.0
 11
-1.5705993165
 21
3.2566918781
 31
0.0
  0
SPLINE
  5
27B
100
AcDbEntity
  8
RACCORDO
100
AcDbSpline
 62
7
  6
CONTINUOUS
 70
0
 71
3
 72
14
 73
10
 74
8
 42
0.0000001
 43
0.0000001
 44
0.0000000001
 12
-2.1334127319
 22
-1.1262489471
 32
0.0
 13
2.0328953942
 23
-1.3102034695
 33
0.0
 40
0.0
 40
0.0
 40
0.0
 40
0.0
 40
0.1126354234
 40
0.2431064815
 40
0.3946442942
 40
0.5607875776
 40
0.7319683022
 40
0.897607205
 40
1.0
 40
1.0
 40
1.0
 40
1.0
 10
-2.6499422293
 20
5.4153778053
 30
0.0
 10
-2.7300415115
 20
5.3730926297
 30
0.0
 10
-2.8788246289
 20
5.2316532269
 30
0.0
 10
-2.986615017
 20
4.9242429589
 30
0.0
 10
-2.9879186974
 20
4.5590477847
 30
0.0
 10
-2.8906658793
 20
4.1746248033
 30
0.0
 10
-2.7084414556
 20
3.8100423653
 30
0.0
 10
-2.4852679745
 20
3.5328734222
 30
0.0
 10
-2.3156285758
 20
3.3957897386
 30
0.0
 10
-2.246243962
 20
3.3510712735
 30
0.0
 11
-2.6499422293
 21
5.4153778053
 31
0.0
 11
-2.850224569
 21
5.2317412803
 31
0.0
 11
-2.9645496548
 21
4.9384838568
 31
0.0
 11
-2.973285671
 21
4.5730117931
 31
0.0
 11
-2.8782997046
 21
4.1836181703
 31
0.0
 11
-2.6937475001
 21
3.8141866471
 31
0.0
 11
-2.4403578995
 21
3.5052052367
 31
0.0
 11
-2.246243962
 21
3.3510712735
 31
0.0
  0
SPLINE
  5
27C
100
AcDbEntity
  8
RACCORDO
100
AcDbSpline
 62
253
  6
CONTINUOUS
 70
0
 71
3
 72
9
 73
5
 74
3
 42
0.0000001
 43
0.0000001
 44
0.0000000001
 12
0.3395855464
 22
0.1619021856
 32
0.0
 13
0.150727241
 23
0.3448598941
 33
0.0
 40
0.0
 40
0.0
 40
0.0
 40
0.0
 40
0.6211298308
 40
1.0
 40
1.0
 40
1.0
 40
1.0
 10
-1.5706071622
 20
3.2567221214
 30
0.0
 10
-1.5002982579
 20
3.2902428805
 30
0.0
 10
-1.4012925989
 20
3.3752358477
 30
0.0
 10
-1.3393161882
 20
3.4848154321
 30
0.0
 10
-1.3202808364
 20
3.5283678076
 30
0.0
 11
-1.5706071622
 21
3.2567221214
 31
0.0
 11
-1.3915934894
 21
3.4053117878
 31
0.0
 11
-1.3202808364
 21
3.5283678076
 31
0.0
  0
SPLINE
  5
27D
100
AcDbEntity
  8
RACCORDO
100
AcDbSpline
 62
253
  6
CONTINUOUS
 70
0
 71
3
 72
8
 73
4
 74
2
 42
0.0000001
 43
0.0000001
 44
0.0000000001
 12
0.0835988337
 22
-0.0417994168
 32
0.0
 13
0.0882735387
 23
-0.032464483
 33
0.0
 40
0.0
 40
0.0
 40
0.0
 40
0.0
 40
1.0
 40
1.0
 40
1.0
 40
1.0
 10
-2.1703667082
 20
3.3377287876
 30
0.0
 10
-2.1425004303
 20
3.3237956486
 30
0.0
 10
-2.113769123
 20
3.3111704445
 30
0.0
 10
-2.0843446101
 20
3.3003489501
 30
0.0
 11
-2.1703667082
 21
3.3377287876
 31
0.0
 11
-2.0843446101
 21
3.3003489501
 31
0.0
  0
SPLINE
  5
27E
100
AcDbEntity
  8
RACCORDO
100
AcDbSpline
 62
253
  6
CONTINUOUS
 70
0
 71
3
 72
10
 73
6
 74
4
 42
0.0000001
 43
0.0000001
 44
0.0000000001
 12
0.4497329471
 22
-0.165398916
 32
0.0
 13
0.3975809252
 23
0.2706053485
 33
0.0
 40
0.0
 40
0.0
 40
0.0
 40
0.0
 40
0.3604798126
 40
0.8430695357
 40
1.0
 40
1.0
 40
1.0
 40
1.0
 10
-2.0843446101
 20
3.3003489501
 30
0.0
 10
-2.0303047273
 20
3.2804746267
 30
0.0
 10
-1.8984510151
 20
3.2482222054
 30
0.0
 10
-1.7337898159
 20
3.2693624325
 30
0.0
 10
-1.6442922917
 20
3.3195870954
 30
0.0
 10
-1.6234947719
 20
3.3337425031
 30
0.0
 11
-2.0843446101
 21
3.3003489501
 31
0.0
 11
-1.9162748989
 21
3.2620486059
 31
0.0
 11
-1.6891672958
 21
3.2971482563
 31
0.0
 11
-1.6234947719
 21
3.3337425031
 31
0.0
  0
SPLINE
  5
27F
100
AcDbEntity
  8
RACCORDO
100
AcDbSpline
 62
253
  6
CONTINUOUS
 70
0
 71
3
 72
20
 73
16
 74
14
 42
0.0000001
 43
0.0000001
 44
0.0000000001
 12
1.9147547356
 22
1.3032387614
 32
0.0
 13
-2.0512188492
 23
1.0256094246
 33
0.0
 40
0.0
 40
0.0
 40
0.0
 40
0.0
 40
0.0662565476
 40
0.172252553
 40
0.2807617212
 40
0.3876493116
 40
0.4891401078
 40
0.5827829581
 40
0.667365994
 40
0.7427209878
 40
0.8091277958
 40
0.8672357412
 40
0.9178505631
 40
0.9617902467
 40
1.0
 40
1.0
 40
1.0
 40
1.0
 10
-1.6234947719
 20
3.3337425031
 30
0.0
 10
-1.5812064258
 20
3.3625252034
 30
0.0
 10
-1.4837783145
 20
3.4570335599
 30
0.0
 10
-1.397657374
 20
3.6593394076
 30
0.0
 10
-1.3712841129
 20
3.905811858
 30
0.0
 10
-1.3954005343
 20
4.1481533077
 30
0.0
 10
-1.4538122655
 20
4.3722799024
 30
0.0
 10
-1.5338797242
 20
4.5710938528
 30
0.0
 10
-1.6260322627
 20
4.7420485696
 30
0.0
 10
-1.7233496756
 20
4.8854539891
 30
0.0
 10
-1.8210365996
 20
5.003230027
 30
0.0
 10
-1.9158452358
 20
5.0980185325
 30
0.0
 10
-2.0056996655
 20
5.1727432915
 30
0.0
 10
-2.0894096915
 20
5.2303614155
 30
0.0
 10
-2.1442411861
 20
5.2611821984
 30
0.0
 10
-2.1703667082
 20
5.2742449594
 30
0.0
 11
-1.6234947719
 21
3.3337425031
 31
0.0
 11
-1.5128528844
 21
3.4396109681
 31
0.0
 11
-1.4101963973
 21
3.6599550445
 31
0.0
 11
-1.3797967339
 21
3.9069388164
 31
0.0
 11
-1.4022424975
 21
4.1510377785
 31
0.0
 11
-1.4602308708
 21
4.3764505171
 31
0.0
 11
-1.5402694417
 21
4.5757321917
 31
0.0
 11
-1.632362538
 21
4.7464540248
 31
0.0
 11
-1.7295522815
 21
4.8893485629
 31
0.0
 11
-1.826955945
 21
5.00641969
 31
0.0
 11
-1.9213682027
 21
5.1004663555
 31
0.0
 11
-2.0107646913
 21
5.1745072048
 31
0.0
 11
-2.0938907751
 21
5.2314660006
 31
0.0
 11
-2.1703667082
 21
5.2742449594
 31
0.0
  0
SPLINE
  5
280
100
AcDbEntity
  8
RACCORDO
100
AcDbSpline
 62
253
  6
CONTINUOUS
 70
0
 71
3
 72
22
 73
18
 74
16
 42
0.0000001
 43
0.0000001
 44
0.0000000001
 12
-2.5607350466
 22
1.2803675233
 32
0.0
 13
2.5607350466
 23
-1.2803675233
 33
0.0
 40
0.0
 40
0.0
 40
0.0
 40
0.0
 40
0.0926031929
 40
0.1728708975
 40
0.252045775
 40
0.3369516027
 40
0.4238704212
 40
0.5094903106
 40
0.590787205
 40
0.6657976871
 40
0.733551015
 40
0.7939124321
 40
0.8471061098
 40
0.8936521728
 40
0.9341960337
 40
0.9693929376
 40
1.0
 40
1.0
 40
1.0
 40
1.0
 10
-2.1703667082
 20
5.2742449594
 30
0.0
 10
-2.2494107887
 20
5.3137669997
 30
0.0
 10
-2.4099623039
 20
5.3679021772
 30
0.0
 10
-2.6594856039
 20
5.335865489
 30
0.0
 10
-2.8469601999
 20
5.1784195799
 30
0.0
 10
-2.9430767914
 20
4.9526341279
 30
0.0
 10
-2.9694499675
 20
4.7061615402
 30
0.0
 10
-2.945333677
 20
4.4638200761
 30
0.0
 10
-2.8869217357
 20
4.2396935365
 30
0.0
 10
-2.8068541945
 20
4.0408796363
 30
0.0
 10
-2.7147015128
 20
3.8699249911
 30
0.0
 10
-2.6173840105
 20
3.7265196194
 30
0.0
 10
-2.5196970106
 20
3.6087436161
 30
0.0
 10
-2.4248882926
 20
3.5139551711
 30
0.0
 10
-2.3350338564
 20
3.4392303772
 30
0.0
 10
-2.2513237444
 20
3.3816123383
 30
0.0
 10
-2.196492234
 20
3.3507915505
 30
0.0
 10
-2.1703667082
 20
3.3377287876
 30
0.0
 11
-2.1703667082
 21
5.2742449594
 31
0.0
 11
-2.4244573325
 21
5.3499257336
 31
0.0
 11
-2.6515664431
 21
5.3148253294
 31
0.0
 11
-2.8278807955
 21
5.1723626471
 31
0.0
 11
-2.9305376968
 21
4.9520183636
 31
0.0
 11
-2.960937385
 21
4.7050345794
 31
0.0
 11
-2.9384916525
 21
4.4609356018
 31
0.0
 11
-2.8805031481
 21
4.2355229287
 31
0.0
 11
-2.8004644641
 21
4.0362413106
 31
0.0
 11
-2.7083712427
 21
3.86551954
 31
0.0
 11
-2.6111814043
 21
3.7226250495
 31
0.0
 11
-2.5137776605
 21
3.6055539624
 31
0.0
 11
-2.4193653339
 21
3.5115073314
 31
0.0
 11
-2.3299688233
 21
3.4374664931
 31
0.0
 11
-2.2468426613
 21
3.3805077364
 31
0.0
 11
-2.1703667082
 21
3.3377287876
 31
0.0
  0
SPLINE
  5
281
100
AcDbEntity
  8
RACCORDO
100
AcDbSpline
 62
253
  6
CONTINUOUS
 70
0
 71
3
 72
10
 73
6
 74
4
 42
0.0000001
 43
0.0000001
 44
0.0000000001
 12
-0.3299144048
 22
0.0551632938
 32
0.0
 13
-0.2948151155
 23
-0.1575324314
 33
0.0
 40
0.0
 40
0.0
 40
0.0
 40
0.0
 40
0.1558001164
 40
0.902949814
 40
1.0
 40
1.0
 40
1.0
 40
1.0
 10
-2.3238324403
 20
5.4609237533
 30
0.0
 10
-2.3409660079
 20
5.4637885691
 30
0.0
 10
-2.4410306397
 20
5.4763472853
 30
0.0
 10
-2.5558362753
 20
5.4616164317
 30
0.0
 10
-2.6403503253
 20
5.4203716199
 30
0.0
 10
-2.6498876126
 20
5.415275436
 30
0.0
 11
-2.3238324403
 21
5.4609237533
 31
0.0
 11
-2.375604606
 21
5.4673525717
 31
0.0
 11
-2.6207547179
 21
5.4294739796
 31
0.0
 11
-2.6498876126
 21
5.415275436
 31
0.0
  0
SPLINE
  5
282
100
AcDbEntity
  8
RACCORDO
100
AcDbSpline
 62
253
  6
CONTINUOUS
 70
0
 71
3
 72
25
 73
21
 74
19
 42
0.0000001
 43
0.0000001
 44
0.0000000001
 12
-2.3248498876
 22
-1.0001863859
 32
0.0
 13
-0.0204362378
 23
2.5263069234
 33
0.0
 40
0.0
 40
0.0
 40
0.0
 40
0.0
 40
0.0267192735
 40
0.0677533337
 40
0.1107331811
 40
0.1563602845
 40
0.2050655163
 40
0.2570134971
 40
0.3121554317
 40
0.3702585293
 40
0.4309683043
 40
0.4938385151
 40
0.5583065137
 40
0.6236700999
 40
0.6892836167
 40
0.7546938874
 40
0.8193502232
 40
0.8823545119
 40
0.9428153147
 40
1.0
 40
1.0
 40
1.0
 40
1.0
 10
-1.628362052
 20
3.1016006454
 30
0.0
 10
-1.649068152
 20
3.0926925609
 30
0.0
 10
-1.7031397843
 20
3.0737302162
 30
0.0
 10
-1.7956989074
 20
3.0581793237
 30
0.0
 10
-1.9054265551
 20
3.0606025589
 30
0.0
 10
-2.0194429946
 20
3.0825703751
 30
0.0
 10
-2.1360265113
 20
3.1235555769
 30
0.0
 10
-2.2534399462
 20
3.1828159382
 30
0.0
 10
-2.3699138012
 20
3.2593744108
 30
0.0
 10
-2.4836848938
 20
3.3520209648
 30
0.0
 10
-2.5930283257
 20
3.4593283285
 30
0.0
 10
-2.6962642586
 20
3.579653715
 30
0.0
 10
-2.7917394643
 20
3.7110855125
 30
0.0
 10
-2.8779199414
 20
3.8514999477
 30
0.0
 10
-2.9535171607
 20
3.9987738237
 30
0.0
 10
-3.0174327689
 20
4.150838804
 30
0.0
 10
-3.0685951904
 20
4.3053505823
 30
0.0
 10
-3.1060330057
 20
4.4594804567
 30
0.0
 10
-3.129115892
 20
4.6100403883
 30
0.0
 10
-3.1350449196
 20
4.7091191165
 30
0.0
 10
-3.1354344662
 20
4.757274472
 30
0.0
 11
-1.628362052
 21
3.1016006454
 31
0.0
 11
-1.6921140369
 21
3.0792058007
 31
0.0
 11
-1.7942833302
 21
3.061641793
 31
0.0
 11
-1.9028512894
 21
3.0634987277
 31
0.0
 11
-2.0161509132
 21
3.084730591
 31
0.0
 11
-2.1324204742
 21
3.1250083208
 31
0.0
 11
-2.2498091134
 21
3.183694476
 31
0.0
 11
-2.3664552406
 21
3.2598585069
 31
0.0
 11
-2.4804971025
 21
3.3522818217
 31
0.0
 11
-2.5901519208
 21
3.4595207362
 31
0.0
 11
-2.6937254409
 21
3.5799407118
 31
0.0
 11
-2.7895507522
 21
3.7116394724
 31
0.0
 11
-2.8759828725
 21
3.8523472828
 31
0.0
 11
-2.9516795938
 21
3.9998197983
 31
0.0
 11
-3.0156513928
 21
4.1521870356
 31
0.0
 11
-3.0668722197
 21
4.3072957062
 31
0.0
 11
-3.1042490006
 21
4.4620184929
 31
0.0
 11
-3.1271301473
 21
4.6130425463
 31
0.0
 11
-3.1354344662
 21
4.757274472
 31
0.0
  0
SPLINE
  5
283
100
AcDbEntity
  8
RACCORDO
100
AcDbSpline
 62
253
  6
CONTINUOUS
 70
0
 71
3
 72
11
 73
7
 74
5
 42
0.0000001
 43
0.0000001
 44
0.0000000001
 12
0.0847555746
 22
0.0449312092
 32
0.0
 13
0.085994776
 23
-0.0415064383
 33
0.0
 40
0.0
 40
0.0
 40
0.0
 40
0.0
 40
0.0328334328
 40
0.3273058314
 40
0.6454080415
 40
1.0
 40
1.0
 40
1.0
 40
1.0
 10
-9.7074994101
 20
12.0374819191
 30
0.0
 10
-9.7065718046
 20
12.0379736677
 30
0.0
 10
-9.6972237427
 20
12.0426819771
 30
0.0
 10
-9.676919042
 20
12.0480150612
 30
0.0
 10
-9.6457731575
 20
12.0455541464
 30
0.0
 10
-9.6254275667
 20
12.0381575757
 30
0.0
 10
-9.6152632147
 20
12.0332516259
 30
0.0
 11
-9.7074994101
 21
12.0374819191
 31
0.0
 11
-9.704686767
 21
12.0388981251
 31
0.0
 11
-9.6775572691
 21
12.046289921
 31
0.0
 11
-9.6472428185
 21
12.0443757662
 31
0.0
 11
-9.6152632147
 21
12.0332516259
 31
0.0
  0
SPLINE
  5
284
100
AcDbEntity
  8
RACCORDO
100
AcDbSpline
 62
253
  6
CONTINUOUS
 70
0
 71
3
 72
12
 73
8
 74
6
 42
0.0000001
 43
0.0000001
 44
0.0000000001
 12
0.0080563836
 22
-0.241968271
 32
0.0
 13
0.215443045
 23
-0.1079044076
 33
0.0
 40
0.0
 40
0.0
 40
0.0
 40
0.0
 40
0.0846371422
 40
0.2789746407
 40
0.492065353
 40
0.7314831739
 40
1.0
 40
1.0
 40
1.0
 40
1.0
 10
-9.6044203308
 20
-5.5990126589
 30
0.0
 10
-9.604193041
 20
-5.6058391599
 30
0.0
 10
-9.6018030302
 20
-5.6282822739
 30
0.0
 10
-9.588019294
 20
-5.6660133241
 30
0.0
 10
-9.5568232498
 20
-5.7082580478
 30
0.0
 10
-9.5125911377
 20
-5.7462076712
 30
0.0
 10
-9.4772605714
 20
-5.766998451
 30
0.0
 10
-9.4579772105
 20
-5.7766565007
 30
0.0
 11
-9.6044203308
 21
-5.5990126589
 31
0.0
 11
-9.6022435459
 21
-5.61936024
 31
0.0
 11
-9.5866706688
 21
-5.6635213762
 31
0.0
 11
-9.5567765864
 21
-5.705266672
 31
0.0
 11
-9.5134496095
 21
-5.7433556549
 31
0.0
 11
-9.4579772105
 21
-5.7766565007
 31
0.0
  0
SPLINE
  5
285
100
AcDbEntity
  8
RACCORDO
100
AcDbSpline
 62
253
  6
CONTINUOUS
 70
0
 71
3
 72
11
 73
7
 74
5
 42
0.0000001
 43
0.0000001
 44
0.0000000001
 12
-0.5827885381
 22
17.347419697
 32
0.0
 13
-0.0096986774
 23
17.3572036503
 33
0.0
 40
0.0
 40
0.0
 40
0.0
 40
0.0
 40
0.2483879525
 40
0.4978454065
 40
0.7483799274
 40
1.0
 40
1.0
 40
1.0
 40
1.0
 10
-9.457977798
 20
-5.7766390553
 30
0.0
 10
-9.5062303486
 20
-4.3403423687
 30
0.0
 10
-9.5908261023
 20
-1.4611434201
 30
0.0
 10
-9.6819487017
 20
2.8678736278
 30
0.0
 10
-9.7375833085
 20
7.2161935642
 30
0.0
 10
-9.7509542146
 20
10.1215342839
 30
0.0
 10
-9.7517676752
 20
11.5773412315
 30
0.0
 11
-9.457977798
 21
-5.7766390553
 31
0.0
 11
-9.584675549
 21
-1.4671801559
 31
0.0
 11
-9.6758759062
 21
2.8617437674
 31
0.0
 11
-9.7315789602
 21
7.2099663692
 31
0.0
 11
-9.7517676752
 21
11.5773412315
 31
0.0
  0
SPLINE
  5
286
100
AcDbEntity
  8
RACCORDO
100
AcDbSpline
 62
253
  6
CONTINUOUS
 70
0
 71
3
 72
19
 73
15
 74
13
 42
0.0000001
 43
0.0000001
 44
0.0000000001
 12
0.0358343204
 22
-1.0299006361
 32
0.0
 13
0.9502173517
 23
0.3988312968
 33
0.0
 40
0.0
 40
0.0
 40
0.0
 40
0.0
 40
0.0989515448
 40
0.1924322361
 40
0.2804644318
 40
0.3634604866
 40
0.4422569605
 40
0.5180992661
 40
0.5925624004
 40
0.667392461
 40
0.7442933308
 40
0.8247208973
 40
0.9097432116
 40
1.0
 40
1.0
 40
1.0
 40
1.0
 10
6.1859412507
 20
-13.2337241803
 30
0.0
 10
6.1871232045
 20
-13.2676942666
 30
0.0
 10
6.1928112793
 20
-13.3337104308
 30
0.0
 10
6.2123255401
 20
-13.4283001613
 30
0.0
 10
6.2423614573
 20
-13.5143720868
 30
0.0
 10
6.2825635619
 20
-13.5905961401
 30
0.0
 10
6.3324351049
 20
-13.6557556215
 30
0.0
 10
6.3912963862
 20
-13.7087160966
 30
0.0
 10
6.4582203472
 20
-13.7484836122
 30
0.0
 10
6.5320314216
 20
-13.7743226593
 30
0.0
 10
6.6114067987
 20
-13.7858484903
 30
0.0
 10
6.6950082991
 20
-13.7830030959
 30
0.0
 10
6.7815098244
 20
-13.7659860251
 30
0.0
 10
6.8385410545
 20
-13.7460389258
 30
0.0
 10
6.86712891
 20
-13.7340398484
 30
0.0
 11
6.1859412507
 21
-13.2337241803
 31
0.0
 11
6.1950092801
 21
-13.3352921125
 31
0.0
 11
6.2148217477
 21
-13.4295668259
 31
0.0
 11
6.2450796654
 21
-13.5150913591
 31
0.0
 11
6.2853232081
 21
-13.5905614725
 31
0.0
 11
6.3349444064
 21
-13.6548377824
 31
0.0
 11
6.3931944625
 21
-13.7069481972
 31
0.0
 11
6.4591904405
 21
-13.7461011046
 31
0.0
 11
6.5319308058
 21
-13.7717025368
 31
0.0
 11
6.6103160022
 21
-13.7833659483
 31
0.0
 11
6.6931622577
 21
-13.7809141991
 31
0.0
 11
6.7792066394
 21
-13.7643855956
 31
0.0
 11
6.86712891
 21
-13.7340398484
 31
0.0
  0
SPLINE
  5
287
100
AcDbEntity
  8
RACCORDO
100
AcDbSpline
 62
253
  6
CONTINUOUS
 70
0
 71
3
 72
32
 73
28
 74
26
 42
0.0000001
 43
0.0000001
 44
0.0000000001
 12
-0.0268585246
 22
3.5901034385
 32
0.0
 13
0.1443713267
 23
-3.5884598174
 33
0.0
 40
0.0
 40
0.0
 40
0.0
 40
0.0
 40
0.0411212481
 40
0.0804024156
 40
0.1175156341
 40
0.1523463096
 40
0.1850591991
 40
0.2162233139
 40
0.2466172851
 40
0.2770276966
 40
0.3082022968
 40
0.3408226516
 40
0.3754183619
 40
0.4123181708
 40
0.451651834
 40
0.4933887285
 40
0.5373590991
 40
0.5833005663
 40
0.6308803482
 40
0.6796763176
 40
0.7291592866
 40
0.7788413516
 40
0.8283789517
 40
0.8773531692
 40
0.9250802582
 40
0.9708805577
 40
1.0
 40
1.0
 40
1.0
 40
1.0
 10
-3.2756081164
 20
4.7571079766
 30
0.0
 10
-3.2759762684
 20
4.8063178214
 30
0.0
 10
-3.2719736555
 20
4.9026660789
 30
0.0
 10
-3.2502577465
 20
5.0419485738
 30
0.0
 10
-3.2128597539
 20
5.1701383076
 30
0.0
 10
-3.1602194774
 20
5.2843585027
 30
0.0
 10
-3.0931659579
 20
5.3823663978
 30
0.0
 10
-3.0127051709
 20
5.4624730493
 30
0.0
 10
-2.9200096732
 20
5.523262568
 30
0.0
 10
-2.816703572
 20
5.5635033367
 30
0.0
 10
-2.7048324416
 20
5.5824675252
 30
0.0
 10
-2.5864836151
 20
5.5800429982
 30
0.0
 10
-2.463594599
 20
5.5565309636
 30
0.0
 10
-2.3380359801
 20
5.5124912637
 30
0.0
 10
-2.2116879696
 20
5.4487213704
 30
0.0
 10
-2.0864576942
 20
5.3662756901
 30
0.0
 10
-1.9642381747
 20
5.2664625185
 30
0.0
 10
-1.8468748574
 20
5.1508265064
 30
0.0
 10
-1.7361593081
 20
5.0211463381
 30
0.0
 10
-1.6338499312
 20
4.8794917199
 30
0.0
 10
-1.5415736581
 20
4.7281615979
 30
0.0
 10
-1.4606921185
 20
4.569454
 30
0.0
 10
-1.3923631336
 20
4.405607142
 30
0.0
 10
-1.3377160305
 20
4.239156071
 30
0.0
 10
-1.2977756113
 20
4.0731556493
 30
0.0
 10
-1.2757495854
 20
3.9278601207
 30
0.0
 10
-1.2691822431
 20
3.838337096
 30
0.0
 10
-1.2677809056
 20
3.8035057797
 30
0.0
 11
-3.2756081164
 21
4.7571079766
 31
0.0
 11
-3.269042646
 21
4.9045955822
 31
0.0
 11
-3.2467982398
 21
5.0438576166
 31
0.0
 11
-3.2088999259
 21
5.1715983194
 31
0.0
 11
-3.1559870697
 21
5.2849011831
 31
0.0
 11
-3.0891956221
 21
5.3815058007
 31
0.0
 11
-3.0096118884
 21
5.4601493027
 31
0.0
 11
-2.9182753539
 21
5.5198563613
 31
0.0
 11
-2.8165951811
 21
5.5596222095
 31
0.0
 11
-2.7063158919
 21
5.5787343702
 31
0.0
 11
-2.5892164277
 21
5.5769067636
 31
0.0
 11
-2.4671077774
 21
5.5541796425
 31
0.0
 11
-2.3418986603
 21
5.5109008422
 31
0.0
 11
-2.2155882026
 21
5.4477534704
 31
0.0
 11
-2.0901810614
 21
5.3657396802
 31
0.0
 11
-1.9676759436
 21
5.2661751518
 31
0.0
 11
-1.8499807206
 21
5.1506208972
 31
0.0
 11
-1.738902898
 21
5.0208458149
 31
0.0
 11
-1.6362161067
 21
4.8789089416
 31
0.0
 11
-1.5436667009
 21
4.727266161
 31
0.0
 11
-1.4626742781
 21
4.5683459416
 31
0.0
 11
-1.394280408
 21
4.4041724617
 31
0.0
 11
-1.3395666718
 21
4.2370746129
 31
0.0
 11
-1.2996879267
 21
4.0704297757
 31
0.0
 11
-1.2753278403
 21
3.9078118033
 31
0.0
 11
-1.2677809056
 21
3.8035057797
 31
0.0
  0
SPLINE
  5
288
100
AcDbEntity
  8
RACCORDO
100
AcDbSpline
 62
253
  6
CONTINUOUS
 70
0
 71
3
 72
14
 73
10
 74
8
 42
0.0000001
 43
0.0000001
 44
0.0000000001
 12
-0.6996308843
 22
0.4494386689
 32
0.0
 13
-0.0280376488
 23
0.829627346
 33
0.0
 40
0.0
 40
0.0
 40
0.0
 40
0.0
 40
0.0451329533
 40
0.1831149597
 40
0.3272655377
 40
0.479922523
 40
0.6425933916
 40
0.8159553086
 40
1.0
 40
1.0
 40
1.0
 40
1.0
 10
-9.1251105934
 20
-6.5033763413
 30
0.0
 10
-9.1356360628
 20
-6.4966148431
 30
0.0
 10
-9.1774181862
 20
-6.4677484175
 30
0.0
 10
-9.2447347382
 20
-6.4063249652
 30
0.0
 10
-9.3173574902
 20
-6.3096173292
 30
0.0
 10
-9.3758754227
 20
-6.1961545378
 30
0.0
 10
-9.4195890778
 20
-6.0677349041
 30
0.0
 10
-9.4479902657
 20
-5.9263096972
 30
0.0
 10
-9.4562577296
 20
-5.827535229
 30
0.0
 10
-9.4579777897
 20
-5.7766390593
 30
0.0
 11
-9.1251105934
 21
-6.5033763413
 31
0.0
 11
-9.1559823484
 21
-6.4820510026
 31
0.0
 11
-9.2408567316
 21
-6.4051385757
 31
0.0
 11
-9.3131592208
 21
-6.3097931261
 31
0.0
 11
-9.3717986142
 21
-6.1974563076
 31
0.0
 11
-9.4158890916
 21
-6.0698239924
 31
0.0
 11
-9.4447599203
 21
-5.9288418719
 31
0.0
 11
-9.4579777897
 21
-5.7766390593
 31
0.0
  0
SPLINE
  5
289
100
AcDbEntity
  8
RACCORDO
100
AcDbSpline
 62
253
  6
CONTINUOUS
 70
0
 71
3
 72
32
 73
28
 74
26
 42
0.0000001
 43
0.0000001
 44
0.0000000001
 12
0.026291423
 22
-3.6377119464
 32
0.0
 13
-0.0274021686
 23
3.6377037489
 33
0.0
 40
0.0
 40
0.0
 40
0.0
 40
0.0
 40
0.0405636353
 40
0.0792949854
 40
0.1158668938
 40
0.1501649885
 40
0.182353851
 40
0.2130002308
 40
0.2428810987
 40
0.2727835989
 40
0.3034557187
 40
0.3355764279
 40
0.3696703201
 40
0.4060601525
 40
0.4448699637
 40
0.4860643499
 40
0.529470363
 40
0.5748240229
 40
0.6217926615
 40
0.6699564939
 40
0.7187913688
 40
0.7678153219
 40
0.8166900315
 40
0.8650040467
 40
0.9120861895
 40
0.9572703602
 40
1.0
 40
1.0
 40
1.0
 40
1.0
 10
-1.2665653444
 20
3.7525865906
 30
0.0
 10
-1.2662098525
 20
3.703400317
 30
0.0
 10
-1.2702066329
 20
3.6071213689
 30
0.0
 10
-1.2918192541
 20
3.4679622002
 30
0.0
 10
-1.3290247449
 20
3.3399320839
 30
0.0
 10
-1.3813982795
 20
3.2258962829
 30
0.0
 10
-1.4481334706
 20
3.1280864382
 30
0.0
 10
-1.5282499289
 20
3.0481837657
 30
0.0
 10
-1.620597723
 20
2.987600083
 30
0.0
 10
-1.723568653
 20
2.9475609562
 30
0.0
 10
-1.8351301664
 20
2.9287802197
 30
0.0
 10
-1.9532115863
 20
2.9313519458
 30
0.0
 10
-2.0758947444
 20
2.9549609742
 30
0.0
 10
-2.2013257286
 20
2.9990404599
 30
0.0
 10
-2.3276347964
 20
3.0627916549
 30
0.0
 10
-2.4529181689
 20
3.1451629645
 30
0.0
 10
-2.5752794053
 20
3.244852003
 30
0.0
 10
-2.6928636668
 20
3.3603225307
 30
0.0
 10
-2.8038649192
 20
3.4898062811
 30
0.0
 10
-2.9065061058
 20
3.6312455974
 30
0.0
 10
-2.9991387645
 20
3.7823545243
 30
0.0
 10
-3.0803787072
 20
3.9408477488
 30
0.0
 10
-3.1490460176
 20
4.1044989039
 30
0.0
 10
-3.2039902813
 20
4.270784185
 30
0.0
 10
-3.24416771
 20
4.4366589019
 30
0.0
 10
-3.2689038478
 20
4.5986808409
 30
0.0
 10
-3.2752178215
 20
4.7052953863
 30
0.0
 10
-3.2756081164
 20
4.7571079766
 30
0.0
 11
-1.2665653444
 21
3.7525865906
 31
0.0
 11
-1.2731236619
 21
3.6051697279
 31
0.0
 11
-1.2952686197
 21
3.4660237085
 31
0.0
 11
-1.3329809717
 21
3.3384391069
 31
0.0
 11
-1.3856346989
 21
3.2253236795
 31
0.0
 11
-1.452112827
 21
3.1289269216
 31
0.0
 11
-1.5313492127
 21
3.0505009235
 31
0.0
 11
-1.6223252686
 21
2.9910095168
 31
0.0
 11
-1.7236545231
 21
2.9514447996
 31
0.0
 11
-1.8336149055
 21
2.9325069126
 31
0.0
 11
-1.9504473316
 21
2.9344712983
 31
0.0
 11
-2.0723572799
 21
2.9572892914
 31
0.0
 11
-2.1974484239
 21
3.0006073519
 31
0.0
 11
-2.3237291066
 21
3.0637398797
 31
0.0
 11
-2.4491965433
 21
3.145685655
 31
0.0
 11
-2.5718481916
 21
3.2451333029
 31
0.0
 11
-2.6897668672
 21
3.3605290553
 31
0.0
 11
-2.801130942
 21
3.4901135957
 31
0.0
 11
-2.9041485205
 21
3.6318393041
 31
0.0
 11
-2.9970517601
 21
3.7832631036
 31
0.0
 11
-3.0783987906
 21
3.94196944
 31
0.0
 11
-3.1471268127
 21
4.105945494
 31
0.0
 11
-3.2021338
 21
4.2728729503
 31
0.0
 11
-3.242246088
 21
4.4393853693
 31
0.0
 11
-3.2667662071
 21
4.6019174736
 31
0.0
 11
-3.2756081164
 21
4.7571079766
 31
0.0
  0
SPLINE
  5
28A
100
AcDbEntity
  8
RACCORDO
100
AcDbSpline
 62
253
  6
CONTINUOUS
 70
0
 71
3
 72
17
 73
13
 74
11
 42
0.0000001
 43
0.0000001
 44
0.0000000001
 12
-0.3882100219
 22
-0.1914956984
 32
0.0
 13
-0.3871832493
 23
0.1935633102
 33
0.0
 40
0.0
 40
0.0
 40
0.0
 40
0.0
 40
0.0899749204
 40
0.1866926925
 40
0.2887145724
 40
0.3943429537
 40
0.501743173
 40
0.6089913359
 40
0.7141671611
 40
0.8154559107
 40
0.911195113
 40
1.0
 40
1.0
 40
1.0
 40
1.0
 10
5.7418429265
 20
4.3546985553
 30
0.0
 10
5.7301998712
 20
4.3489552853
 30
0.0
 10
5.70527902
 20
4.3385511557
 30
0.0
 10
5.6653382373
 20
4.3265072756
 30
0.0
 10
5.6222607474
 20
4.3176747316
 30
0.0
 10
5.5770748793
 20
4.3122709314
 30
0.0
 10
5.5308516405
 20
4.3104241446
 30
0.0
 10
5.4846899795
 20
4.3121795285
 30
0.0
 10
5.4396872794
 20
4.3174940291
 30
0.0
 10
5.3969098487
 20
4.3262414618
 30
0.0
 10
5.35737794
 20
4.3382066187
 30
0.0
 10
5.3327758664
 20
4.3485765901
 30
0.0
 10
5.3213146115
 20
4.3543063794
 30
0.0
 11
5.7418429265
 21
4.3546985553
 31
0.0
 11
5.7059686102
 21
4.3395345711
 31
0.0
 11
5.6659218178
 21
4.3273261289
 31
0.0
 11
5.6226762778
 21
4.3183742286
 31
0.0
 11
5.5772819406
 21
4.3128976605
 31
0.0
 11
5.5308290675
 21
4.3110280806
 31
0.0
 11
5.484438657
 21
4.3128110004
 31
0.0
 11
5.4392314867
 21
4.3182030726
 31
0.0
 11
5.3962933918
 21
4.3270746015
 31
0.0
 11
5.3566668177
 21
4.3392087253
 31
0.0
 11
5.3213146115
 21
4.3543063794
 31
0.0
  0
SPLINE
  5
28B
100
AcDbEntity
  8
RACCORDO
100
AcDbSpline
 62
253
  6
CONTINUOUS
 70
0
 71
3
 72
15
 73
11
 74
9
 42
0.0000001
 43
0.0000001
 44
0.0000000001
 12
-0.1804002461
 22
0.0902133182
 32
0.0
 13
0.1189039078
 23
0.1633742119
 33
0.0
 40
0.0
 40
0.0
 40
0.0
 40
0.0
 40
0.1737705109
 40
0.3299747676
 40
0.4694134977
 40
0.5951779005
 40
0.7129962891
 40
0.8305469404
 40
0.9555843687
 40
1.0
 40
1.0
 40
1.0
 40
1.0
 10
-9.6115921189
 20
11.8207597446
 30
0.0
 10
-9.6220415332
 20
11.825985216
 30
0.0
 10
-9.6413358051
 20
11.8370963079
 30
0.0
 10
-9.6661109263
 20
11.856879675
 30
0.0
 10
-9.6846598255
 20
11.878578396
 30
0.0
 10
-9.6964013225
 20
11.9018394616
 30
0.0
 10
-9.7007166907
 20
11.9261263171
 30
0.0
 10
-9.6972569933
 20
11.9505036058
 30
0.0
 10
-9.6890188632
 20
11.9682117083
 30
0.0
 10
-9.6826464634
 20
11.9776898603
 30
0.0
 10
-9.680886066
 20
11.9801086499
 30
0.0
 11
-9.6115921189
 21
11.8207597446
 31
0.0
 11
-9.6418419616
 21
11.8384631148
 31
0.0
 11
-9.666272626
 21
11.8583576102
 31
0.0
 11
-9.6842821254
 21
11.8799598784
 31
0.0
 11
-9.6954302987
 21
11.902745478
 31
0.0
 11
-9.6994490151
 21
11.9261671215
 31
0.0
 11
-9.6962406441
 21
11.9496589524
 31
0.0
 11
-9.6858833913
 21
11.9726540627
 31
0.0
 11
-9.680886066
 21
11.9801086499
 31
0.0
  0
SPLINE
  5
28C
100
AcDbEntity
  8
RACCORDO
100
AcDbSpline
 62
253
  6
CONTINUOUS
 70
0
 71
3
 72
10
 73
6
 74
4
 42
0.0000001
 43
0.0000001
 44
0.0000000001
 12
0.0501383954
 22
0.0688902575
 32
0.0
 13
0.075188527
 23
0.0397535984
 33
0.0
 40
0.0
 40
0.0
 40
0.0
 40
0.0
 40
0.2229233844
 40
0.5906320453
 40
1.0
 40
1.0
 40
1.0
 40
1.0
 10
-9.680886066
 20
11.9801086499
 30
0.0
 10
-9.6771603924
 20
11.985227733
 30
0.0
 10
-9.6662198412
 20
11.9980128258
 30
0.0
 10
-9.644421878
 20
12.0163484018
 30
0.0
 10
-9.6255231392
 20
12.0278270095
 30
0.0
 10
-9.6152632147
 20
12.0332516259
 30
0.0
 11
-9.680886066
 21
11.9801086499
 31
0.0
 11
-9.6686262548
 21
11.9946001647
 31
0.0
 11
-9.644891084
 21
12.0149644177
 31
0.0
 11
-9.6152632147
 21
12.0332516259
 31
0.0
  0
SPLINE
  5
28D
100
AcDbEntity
  8
RACCORDO
100
AcDbSpline
 62
253
  6
CONTINUOUS
 70
0
 71
3
 72
11
 73
7
 74
5
 42
0.0000001
 43
0.0000001
 44
0.0000000001
 12
0.0100459851
 22
-17.3626608548
 32
0.0
 13
0.6032800413
 23
-17.3521798651
 33
0.0
 40
0.0
 40
0.0
 40
0.0
 40
0.0
 40
0.2515625028
 40
0.502076692
 40
0.7515529309
 40
1.0
 40
1.0
 40
1.0
 40
1.0
 10
5.1811157592
 20
4.1108995143
 30
0.0
 10
5.181958157
 20
2.6549680412
 30
0.0
 10
5.1958411109
 20
-0.2508356386
 30
0.0
 10
5.253439599
 20
-4.6001585032
 30
0.0
 10
5.3478034941
 20
-8.9308045596
 30
0.0
 10
5.4353961185
 20
-11.8112737964
 30
0.0
 10
5.4853571712
 20
-13.2483065395
 30
0.0
 11
5.1811157592
 21
4.1108995143
 31
0.0
 11
5.2020447649
 21
-0.2568454934
 31
0.0
 11
5.2597249517
 21
-4.6060566616
 31
0.0
 11
5.3541623883
 21
-8.9365991245
 31
0.0
 11
5.4853571712
 21
-13.2483065395
 31
0.0
  0
SPLINE
  5
28E
100
AcDbEntity
  8
RACCORDO
100
AcDbSpline
 62
253
  6
CONTINUOUS
 70
0
 71
3
 72
14
 73
10
 74
8
 42
0.0000001
 43
0.0000001
 44
0.0000000001
 12
-0.0021352354
 22
0.293580377
 32
0.0
 13
-0.2606943534
 23
0.1350275937
 33
0.0
 40
0.0
 40
0.0
 40
0.0
 40
0.0
 40
0.1375417359
 40
0.2843592423
 40
0.4361806324
 40
0.5881835054
 40
0.7355262397
 40
0.8738772597
 40
1.0
 40
1.0
 40
1.0
 40
1.0
 10
5.8820087191
 20
4.1101831489
 30
0.0
 10
5.8819108244
 20
4.1236430005
 30
0.0
 10
5.8791231177
 20
4.1514828544
 30
0.0
 10
5.8685051847
 20
4.1929633968
 30
0.0
 10
5.851798489
 20
4.2339233002
 30
0.0
 10
5.8298151108
 20
4.2723622692
 30
0.0
 10
5.8036083784
 20
4.3064311597
 30
0.0
 10
5.7744523391
 20
4.3344772856
 30
0.0
 10
5.7528027552
 20
4.349021872
 30
0.0
 10
5.7418429265
 20
4.3546985553
 30
0.0
 11
5.8820087191
 21
4.1101831489
 31
0.0
 11
5.8782467746
 21
4.1503881543
 31
0.0
 11
5.8677081481
 21
4.1921838685
 31
0.0
 11
5.8509211983
 21
4.2334748731
 31
0.0
 11
5.8287275423
 21
4.2721910586
 31
0.0
 11
5.8022398591
 21
4.3063914108
 31
0.0
 11
5.7727861034
 21
4.3343613228
 31
0.0
 11
5.7418429265
 21
4.3546985553
 31
0.0
  0
SPLINE
  5
28F
100
AcDbEntity
  8
RACCORDO
100
AcDbSpline
 62
253
  6
CONTINUOUS
 70
0
 71
3
 72
14
 73
10
 74
8
 42
0.0000001
 43
0.0000001
 44
0.0000000001
 12
-0.0001666295
 22
0.2930098836
 32
0.0
 13
0.260950915
 23
0.1332645476
 33
0.0
 40
0.0
 40
0.0
 40
0.0
 40
0.0
 40
0.137354997
 40
0.2837129603
 40
0.4350144585
 40
0.5866467148
 40
0.7339613452
 40
0.8727885915
 40
1.0
 40
1.0
 40
1.0
 40
1.0
 10
5.1811274072
 20
4.1108936903
 30
0.0
 10
5.181119778
 20
4.1243091475
 30
0.0
 10
5.1837122354
 20
4.1520538505
 30
0.0
 10
5.1941331595
 20
4.1933856827
 30
0.0
 10
5.2107324492
 20
4.2341586396
 30
0.0
 10
5.2327111105
 20
4.2724020625
 30
0.0
 10
5.2590269198
 20
4.3062946485
 30
0.0
 10
5.2884140932
 20
4.334206841
 30
0.0
 10
5.3102493004
 20
4.3486554558
 30
0.0
 10
5.3213146115
 20
4.3543063794
 30
0.0
 11
5.1811274072
 21
4.1108936903
 31
0.0
 11
5.1846153229
 21
4.1509886451
 31
0.0
 11
5.1949495508
 21
4.1926091938
 31
0.0
 11
5.2116171524
 21
4.2336895041
 31
0.0
 11
5.2337908329
 21
4.2721905586
 31
0.0
 11
5.2603700036
 21
4.3062013608
 31
0.0
 11
5.2900354097
 21
4.3340337878
 31
0.0
 11
5.3213146115
 21
4.3543063794
 31
0.0
  0
SPLINE
  5
290
100
AcDbEntity
  8
RACCORDO
100
AcDbSpline
 62
253
  6
CONTINUOUS
 70
0
 71
3
 72
14
 73
10
 74
8
 42
0.0000001
 43
0.0000001
 44
0.0000000001
 12
-0.0001666322
 22
0.2930098843
 32
0.0
 13
0.2609509171
 23
0.1332645449
 33
0.0
 40
0.0
 40
0.0
 40
0.0
 40
0.0
 40
0.1373551825
 40
0.2837133145
 40
0.435014922
 40
0.5866471981
 40
0.7339617476
 40
0.872788823
 40
1.0
 40
1.0
 40
1.0
 40
1.0
 10
-9.7517793232
 20
11.5773470555
 30
0.0
 10
-9.7517869525
 20
11.5907625309
 30
0.0
 10
-9.7491944887
 20
11.6185072686
 30
0.0
 10
-9.7387735424
 20
11.6598391425
 30
0.0
 10
-9.7221742267
 20
11.7006121205
 30
0.0
 10
-9.7001955467
 20
11.7388555383
 30
0.0
 10
-9.6738797365
 20
11.7727480949
 30
0.0
 10
-9.6444925867
 20
11.8006602433
 30
0.0
 10
-9.62265741
 20
11.8151088314
 30
0.0
 10
-9.6115921189
 20
11.8207597446
 30
0.0
 11
-9.7517793232
 21
11.5773470555
 31
0.0
 11
-9.7482913988
 21
11.6174420642
 31
0.0
 11
-9.737957148
 21
11.6590626582
 31
0.0
 11
-9.721289519
 21
11.7001429921
 31
0.0
 11
-9.699115819
 21
11.7386440421
 31
0.0
 11
-9.6725366478
 21
11.772654814
 31
0.0
 11
-9.6428712675
 21
11.8004871955
 31
0.0
 11
-9.6115921189
 21
11.8207597446
 31
0.0
  0
SPLINE
  5
291
100
AcDbEntity
  8
RACCORDO
100
AcDbSpline
 62
253
  6
CONTINUOUS
 70
0
 71
3
 72
14
 73
10
 74
8
 42
0.0000001
 43
0.0000001
 44
0.0000000001
 12
-0.0063618531
 22
0.7889053253
 32
0.0
 13
0.6759016109
 23
0.4095786524
 33
0.0
 40
0.0
 40
0.0
 40
0.0
 40
0.0
 40
0.1739017859
 40
0.3399806681
 40
0.4968835058
 40
0.6441301847
 40
0.7824226442
 40
0.9141726329
 40
1.0
 40
1.0
 40
1.0
 40
1.0
 10
-3.1354344662
 20
4.757274472
 30
0.0
 10
-3.1358032454
 20
4.8030051536
 30
0.0
 10
-3.1321317167
 20
4.8925333443
 30
0.0
 10
-3.1120167042
 20
5.0219555618
 30
0.0
 10
-3.0773186515
 20
5.1410605626
 30
0.0
 10
-3.0284456949
 20
5.2471836483
 30
0.0
 10
-2.9661667391
 20
5.3382405354
 30
0.0
 10
-2.8994213538
 20
5.4046921403
 30
0.0
 10
-2.8524385952
 20
5.4377698915
 30
0.0
 10
-2.8331016433
 20
5.4494875773
 30
0.0
 11
-3.1354344662
 21
4.757274472
 31
0.0
 11
-3.1294068735
 21
4.8943385056
 31
0.0
 11
-3.1088008272
 21
5.0237327962
 31
0.0
 11
-3.0736378122
 21
5.1424189984
 31
0.0
 11
-3.0245115926
 21
5.2476876772
 31
0.0
 11
-2.9624771918
 21
5.3374386799
 31
0.0
 11
-2.8885441649
 21
5.4104987481
 31
0.0
 11
-2.8331016433
 21
5.4494875773
 31
0.0
  0
LINE
  5
292
100
AcDbEntity
  8
RACCORDO
100
AcDbLine
 62
253
  6
CONTINUOUS
 10
-2.7896047627
 20
5.4729280791
 11
-2.7887679748
 21
5.4733246501
  0
SPLINE
  5
293
100
AcDbEntity
  8
RACCORDO
100
AcDbSpline
 62
253
  6
CONTINUOUS
 70
0
 71
3
 72
13
 73
9
 74
7
 42
0.0000001
 43
0.0000001
 44
0.0000000001
 12
-0.2159492194
 22
0.1079796307
 32
0.0
 13
-0.0001006786
 23
0.242249891
 33
0.0
 40
0.0
 40
0.0
 40
0.0
 40
0.0
 40
0.2420619941
 40
0.4593934318
 40
0.6532565223
 40
0.827923501
 40
0.9913738525
 40
1.0
 40
1.0
 40
1.0
 40
1.0
 10
-9.7517676733
 20
11.5773412263
 30
0.0
 10
-9.7691920395
 20
11.5860538145
 30
0.0
 10
-9.8013494859
 20
11.6045634964
 30
0.0
 10
-9.8426430277
 20
11.6374894582
 30
0.0
 10
-9.8735510929
 20
11.6735645851
 30
0.0
 10
-9.8931216268
 20
11.7122130524
 30
0.0
 10
-9.8981027663
 20
11.7401256758
 30
0.0
 10
-9.8982254412
 20
11.7540204911
 30
0.0
 10
-9.8982257307
 20
11.7547170522
 30
0.0
 11
-9.7517676733
 21
11.5773412263
 31
0.0
 11
-9.8022148391
 21
11.606849582
 31
0.0
 11
-9.8429255376
 21
11.6399557907
 31
0.0
 11
-9.8729353347
 21
11.6758759379
 31
0.0
 11
-9.8915110602
 21
11.7137361789
 31
0.0
 11
-9.8982072381
 21
11.7526275121
 31
0.0
 11
-9.8982257307
 21
11.7547170522
 31
0.0
  0
SPLINE
  5
294
100
AcDbEntity
  8
RACCORDO
100
AcDbSpline
 62
253
  6
CONTINUOUS
 70
0
 71
3
 72
14
 73
10
 74
8
 42
0.0000001
 43
0.0000001
 44
0.0000000001
 12
0.0309975472
 22
-0.8964478619
 32
0.0
 13
0.8027049286
 23
-0.4035115767
 33
0.0
 40
0.0
 40
0.0
 40
0.0
 40
0.0
 40
0.1705247916
 40
0.3314848355
 40
0.4829539656
 40
0.6256264744
 40
0.7609349571
 40
0.8910293405
 40
1.0
 40
1.0
 40
1.0
 40
1.0
 10
5.4853571632
 20
-13.2483065353
 30
0.0
 10
5.4871191133
 20
-13.2992620636
 30
0.0
 10
5.4956001473
 20
-13.3982472725
 30
0.0
 10
5.5247010459
 20
-13.5400491136
 30
0.0
 10
5.5694881975
 20
-13.6690150318
 30
0.0
 10
5.6294342971
 20
-13.7831723985
 30
0.0
 10
5.7038040803
 20
-13.8807014049
 30
0.0
 10
5.787425846
 20
-13.9561459337
 30
0.0
 10
5.8486578293
 20
-13.993757464
 30
0.0
 10
5.8778149245
 20
-14.0084144383
 30
0.0
 11
5.4853571632
 21
-13.2483065353
 31
0.0
 11
5.4988862966
 21
-13.4006649795
 31
0.0
 11
5.528436949
 21
-13.541987012
 31
0.0
 11
5.5735656484
 21
-13.6701384383
 31
0.0
 11
5.6335858426
 21
-13.7831656573
 31
0.0
 11
5.7075908741
 21
-13.8793623783
 31
0.0
 11
5.794463835
 21
-13.9572740942
 31
0.0
 11
5.8778149245
 21
-14.0084144383
 31
0.0
  0
LINE
  5
295
100
AcDbEntity
  8
RACCORDO
100
AcDbLine
 62
253
  6
CONTINUOUS
 10
5.8778149245
 20
-14.0084144383
 11
5.878709004
 21
-14.0088629077
  0
SPLINE
  5
296
100
AcDbEntity
  8
RACCORDO
100
AcDbSpline
 62
253
  6
CONTINUOUS
 70
0
 71
3
 72
17
 73
13
 74
11
 42
0.0000001
 43
0.0000001
 44
0.0000000001
 12
-0.6478787095
 22
-0.3171133083
 32
0.0
 13
-0.6451774021
 23
0.3225737007
 33
0.0
 40
0.0
 40
0.0
 40
0.0
 40
0.0
 40
0.0899352243
 40
0.1865809494
 40
0.2885603482
 40
0.3941667178
 40
0.5015619733
 40
0.6088199202
 40
0.7140203969
 40
0.8153431384
 40
0.9111132669
 40
1.0
 40
1.0
 40
1.0
 40
1.0
 10
5.8820206752
 20
4.110189001
 30
0.0
 10
5.8625983028
 20
4.1006824488
 30
0.0
 10
5.8210422589
 20
4.0834848532
 30
0.0
 10
5.7544642986
 20
4.0636194804
 30
0.0
 10
5.6826748112
 20
4.0491002478
 30
0.0
 10
5.6073742594
 20
4.040278393
 30
0.0
 10
5.5303476901
 20
4.0373637532
 30
0.0
 10
5.4534242524
 20
4.0404269671
 30
0.0
 10
5.3784304603
 20
4.0493935952
 30
0.0
 10
5.3071427393
 20
4.0640503705
 30
0.0
 10
5.2412485478
 20
4.084043013
 30
0.0
 10
5.200231665
 20
4.1013420016
 30
0.0
 10
5.1811157612
 20
4.1108995091
 30
0.0
 11
5.8820206752
 21
4.110189001
 31
0.0
 11
5.8221900184
 21
4.0851147064
 31
0.0
 11
5.755448243
 21
4.0649797814
 31
0.0
 11
5.68337567
 21
4.0502611263
 31
0.0
 11
5.6077260395
 21
4.0413184453
 31
0.0
 11
5.5303155911
 21
4.0383660981
 31
0.0
 11
5.4530104137
 21
4.0414754425
 31
0.0
 11
5.3776739456
 21
4.0505712982
 31
0.0
 11
5.3061149637
 21
4.0654355403
 31
0.0
 11
5.2400743113
 21
4.085705007
 31
0.0
 11
5.1811157612
 21
4.1108995091
 31
0.0
  0
SPLINE
  5
297
100
AcDbEntity
  8
RACCORDO
100
AcDbSpline
 62
253
  6
CONTINUOUS
 70
0
 71
3
 72
16
 73
12
 74
10
 42
0.0000001
 43
0.0000001
 44
0.0000000001
 12
-0.6379991046
 22
-0.3396733917
 32
0.0
 13
-0.6466996827
 23
0.3228008533
 33
0.0
 40
0.0
 40
0.0
 40
0.0
 40
0.0
 40
0.1015166317
 40
0.2107208998
 40
0.3256469076
 40
0.4439751589
 40
0.5631922282
 40
0.6807357597
 40
0.7941361023
 40
0.9011644343
 40
1.0
 40
1.0
 40
1.0
 40
1.0
 10
6.1859412507
 20
-13.2337241803
 30
0.0
 10
6.1643520773
 20
-13.2452183465
 30
0.0
 10
6.1178268771
 20
-13.2659301504
 30
0.0
 10
6.0428588841
 20
-13.2895235736
 30
0.0
 10
5.9619344408
 20
-13.3062742459
 30
0.0
 10
5.8774197381
 20
-13.3156851434
 30
0.0
 10
5.7917717529
 20
-13.3174827083
 30
0.0
 10
5.7074932031
 20
-13.311614895
 30
0.0
 10
5.6270308002
 20
-13.2982519899
 30
0.0
 10
5.5527339457
 20
-13.2777916321
 30
0.0
 10
5.5066637079
 20
-13.2589585709
 30
0.0
 10
5.4853580649
 20
-13.2483238359
 30
0.0
 11
6.1859412507
 21
-13.2337241803
 31
0.0
 11
6.1190634437
 21
-13.2639108213
 31
0.0
 11
6.0438519638
 21
-13.2878566164
 31
0.0
 11
5.9625417384
 21
-13.3048500105
 31
0.0
 11
5.8775489201
 21
-13.3143860409
 31
0.0
 11
5.7913990912
 21
-13.3161813421
 31
0.0
 11
5.7066522144
 21
-13.3101825663
 31
0.0
 11
5.6258265634
 21
-13.2965679686
 31
0.0
 11
5.551323892
 21
-13.27574211
 31
0.0
 11
5.4853580649
 21
-13.2483238359
 31
0.0
  0
SPLINE
  5
298
100
AcDbEntity
  8
RACCORDO
100
AcDbSpline
 62
253
  6
CONTINUOUS
 70
0
 71
3
 72
13
 73
9
 74
7
 42
0.0000001
 43
0.0000001
 44
0.0000000001
 12
-0.0143748292
 22
-0.3372111877
 32
0.0
 13
-0.3122832359
 23
-0.1308988728
 33
0.0
 40
0.0
 40
0.0
 40
0.0
 40
0.0
 40
0.2203895712
 40
0.4242798477
 40
0.6117673044
 40
0.7852201422
 40
0.9494899101
 40
1.0
 40
1.0
 40
1.0
 40
1.0
 10
6.86712891
 20
-13.7340398484
 30
0.0
 10
6.8660728892
 20
-13.7588124581
 30
0.0
 10
6.8608307469
 20
-13.8064640769
 30
0.0
 10
6.8423979121
 20
-13.8731235396
 30
0.0
 10
6.8140489951
 20
-13.930500659
 30
0.0
 10
6.7763551227
 20
-13.9767593335
 30
0.0
 10
6.7405252565
 20
-14.0026868859
 30
0.0
 10
6.7185762491
 20
-14.0130239278
 30
0.0
 10
6.713318431
 20
-14.0152278325
 30
0.0
 11
6.86712891
 21
-13.7340398484
 31
0.0
 11
6.8585920004
 21
-13.8079336744
 31
0.0
 11
6.8397729967
 21
-13.8741270202
 31
0.0
 11
6.8112430416
 21
-13.9306109671
 31
0.0
 11
6.7738679982
 21
-13.9756712692
 31
0.0
 11
6.7287821712
 21
-14.0079403797
 31
0.0
 11
6.713318431
 21
-14.0152278325
 31
0.0
  0
SPLINE
  5
299
100
AcDbEntity
  8
ASSI
100
AcDbSpline
 62
253
  6
CONTINUOUS
 70
0
 71
3
 72
26
 73
22
 74
20
 42
0.0000001
 43
0.0000001
 44
0.0000000001
 12
-2.2740123845
 22
-1.1929185112
 32
0.0
 13
-0.0207368764
 23
2.5634715605
 33
0.0
 40
0.0
 40
0.0
 40
0.0
 40
0.0
 40
0.0014123126
 40
0.0408296797
 40
0.0812688373
 40
0.1236255724
 40
0.1685911843
 40
0.2165902985
 40
0.2677851492
 40
0.3221276484
 40
0.3793883802
 40
0.4392179985
 40
0.5011767311
 40
0.564710087
 40
0.6291260466
 40
0.6937883133
 40
0.7582502805
 40
0.8219692432
 40
0.8840601099
 40
0.9436443654
 40
1.0
 40
1.0
 40
1.0
 40
1.0
 10
-1.5947593344
 20
3.1176084072
 30
0.0
 10
-1.5958298732
 20
3.1170468159
 30
0.0
 10
-1.6268400719
 20
3.1009279364
 30
0.0
 10
-1.6920410626
 20
3.0755949165
 30
0.0
 10
-1.7956989074
 20
3.0581793237
 30
0.0
 10
-1.9054265551
 20
3.0606025589
 30
0.0
 10
-2.0194429946
 20
3.0825703751
 30
0.0
 10
-2.1360265113
 20
3.1235555769
 30
0.0
 10
-2.2534399462
 20
3.1828159382
 30
0.0
 10
-2.3699138012
 20
3.2593744108
 30
0.0
 10
-2.4836848938
 20
3.3520209648
 30
0.0
 10
-2.5930283257
 20
3.4593283285
 30
0.0
 10
-2.6962642586
 20
3.579653715
 30
0.0
 10
-2.7917394643
 20
3.7110855125
 30
0.0
 10
-2.8779199414
 20
3.8514999477
 30
0.0
 10
-2.9535171607
 20
3.9987738237
 30
0.0
 10
-3.0174327689
 20
4.150838804
 30
0.0
 10
-3.0685951904
 20
4.3053505823
 30
0.0
 10
-3.1060330057
 20
4.4594804567
 30
0.0
 10
-3.129115892
 20
4.6100403883
 30
0.0
 10
-3.1350449196
 20
4.7091191165
 30
0.0
 10
-3.1354344662
 20
4.757274472
 30
0.0
 11
-1.5947593344
 21
3.1176084072
 31
0.0
 11
-1.5979772702
 21
3.1159357586
 31
0.0
 11
-1.6921140369
 21
3.0792058007
 31
0.0
 11
-1.7942833302
 21
3.061641793
 31
0.0
 11
-1.9028512894
 21
3.0634987277
 31
0.0
 11
-2.0161509132
 21
3.084730591
 31
0.0
 11
-2.1324204742
 21
3.1250083208
 31
0.0
 11
-2.2498091134
 21
3.183694476
 31
0.0
 11
-2.3664552406
 21
3.2598585069
 31
0.0
 11
-2.4804971025
 21
3.3522818217
 31
0.0
 11
-2.5901519208
 21
3.4595207362
 31
0.0
 11
-2.6937254409
 21
3.5799407118
 31
0.0
 11
-2.7895507522
 21
3.7116394724
 31
0.0
 11
-2.8759828725
 21
3.8523472828
 31
0.0
 11
-2.9516795938
 21
3.9998197983
 31
0.0
 11
-3.0156513928
 21
4.1521870356
 31
0.0
 11
-3.0668722197
 21
4.3072957062
 31
0.0
 11
-3.1042490006
 21
4.4620184929
 31
0.0
 11
-3.1271301473
 21
4.6130425463
 31
0.0
 11
-3.1354344662
 21
4.757274472
 31
0.0
  0
SPLINE
  5
29A
100
AcDbEntity
  8
ASSI
100
AcDbSpline
 62
253
  6
CONTINUOUS
 70
0
 71
3
 72
8
 73
4
 74
2
 42
0.0000001
 43
0.0000001
 44
0.0000000001
 12
0.000423478
 22
-0.7319048631
 32
0.0
 13
0.0014543262
 23
-0.7319046652
 33
0.0
 40
0.0
 40
0.0
 40
0.0
 40
0.0
 40
1.0
 40
1.0
 40
1.0
 40
1.0
 10
5.1811157592
 20
4.1108995143
 30
0.0
 10
5.1812569186
 20
3.8669312266
 30
0.0
 10
5.1815697422
 20
3.6229628276
 30
0.0
 10
5.1820545176
 20
3.3789946059
 30
0.0
 11
5.1811157592
 21
4.1108995143
 31
0.0
 11
5.1820545176
 21
3.3789946059
 31
0.0
  0
SPLINE
  5
29B
100
AcDbEntity
  8
ASSI
100
AcDbSpline
 62
253
  6
CONTINUOUS
 70
0
 71
3
 72
11
 73
7
 74
5
 42
0.0000001
 43
0.0000001
 44
0.0000000001
 12
0.0859153294
 22
-14.6146012205
 32
0.0
 13
0.5078031549
 23
-14.6059724782
 33
0.0
 40
0.0
 40
0.0
 40
0.0
 40
0.0
 40
0.1108416718
 40
0.4084574093
 40
0.7048400416
 40
1.0
 40
1.0
 40
1.0
 40
1.0
 10
5.1899799846
 20
1.3630439343
 30
0.0
 10
5.1931543175
 20
0.8230749901
 30
0.0
 10
5.2079702731
 20
-1.1667215223
 30
0.0
 10
5.253439599
 20
-4.6001585032
 30
0.0
 10
5.3478034941
 20
-8.9308045596
 30
0.0
 10
5.4353961185
 20
-11.8112737964
 30
0.0
 10
5.4853571712
 20
-13.2483065395
 30
0.0
 11
5.1899799846
 21
1.3630439343
 31
0.0
 11
5.2020447649
 21
-0.2568454934
 31
0.0
 11
5.2597249517
 21
-4.6060566616
 31
0.0
 11
5.3541623883
 21
-8.9365991245
 31
0.0
 11
5.4853571712
 21
-13.2483065395
 31
0.0
  0
SPLINE
  5
29C
100
AcDbEntity
  8
ASSI
100
AcDbSpline
 62
253
  6
CONTINUOUS
 70
0
 71
3
 72
11
 73
7
 74
5
 42
0.0000001
 43
0.0000001
 44
0.0000000001
 12
0.0847410944
 22
0.0448531075
 32
0.0
 13
0.0859509054
 23
-0.0414852637
 33
0.0
 40
0.0
 40
0.0
 40
0.0
 40
0.0
 40
0.0323397767
 40
0.3269624784
 40
0.6452270526
 40
1.0
 40
1.0
 40
1.0
 40
1.0
 10
-9.7074561643
 20
12.0375048269
 30
0.0
 10
-9.7065426616
 20
12.03798834
 30
0.0
 10
-9.6972076931
 20
12.0426861926
 30
0.0
 10
-9.676919042
 20
12.0480150612
 30
0.0
 10
-9.6457731575
 20
12.0455541464
 30
0.0
 10
-9.6254275667
 20
12.0381575757
 30
0.0
 10
-9.6152632147
 20
12.0332516259
 30
0.0
 11
-9.7074561643
 21
12.0375048269
 31
0.0
 11
-9.704686767
 21
12.0388981251
 31
0.0
 11
-9.6775572691
 21
12.046289921
 31
0.0
 11
-9.6472428185
 21
12.0443757662
 31
0.0
 11
-9.6152632147
 21
12.0332516259
 31
0.0
  0
SPLINE
  5
29D
100
AcDbEntity
  8
ASSI
100
AcDbSpline
 62
253
  6
CONTINUOUS
 70
0
 71
3
 72
19
 73
15
 74
13
 42
0.0000001
 43
0.0000001
 44
0.0000000001
 12
0.0358343204
 22
-1.0299006361
 32
0.0
 13
0.9502173517
 23
0.3988312968
 33
0.0
 40
0.0
 40
0.0
 40
0.0
 40
0.0
 40
0.0989515448
 40
0.1924322361
 40
0.2804644318
 40
0.3634604866
 40
0.4422569605
 40
0.5180992661
 40
0.5925624004
 40
0.667392461
 40
0.7442933308
 40
0.8247208973
 40
0.9097432116
 40
1.0
 40
1.0
 40
1.0
 40
1.0
 10
6.1859412507
 20
-13.2337241803
 30
0.0
 10
6.1871232045
 20
-13.2676942666
 30
0.0
 10
6.1928112793
 20
-13.3337104308
 30
0.0
 10
6.2123255401
 20
-13.4283001613
 30
0.0
 10
6.2423614573
 20
-13.5143720868
 30
0.0
 10
6.2825635619
 20
-13.5905961401
 30
0.0
 10
6.3324351049
 20
-13.6557556215
 30
0.0
 10
6.3912963862
 20
-13.7087160966
 30
0.0
 10
6.4582203472
 20
-13.7484836122
 30
0.0
 10
6.5320314216
 20
-13.7743226593
 30
0.0
 10
6.6114067987
 20
-13.7858484903
 30
0.0
 10
6.6950082991
 20
-13.7830030959
 30
0.0
 10
6.7815098244
 20
-13.7659860251
 30
0.0
 10
6.8385410545
 20
-13.7460389258
 30
0.0
 10
6.86712891
 20
-13.7340398484
 30
0.0
 11
6.1859412507
 21
-13.2337241803
 31
0.0
 11
6.1950092801
 21
-13.3352921125
 31
0.0
 11
6.2148217477
 21
-13.4295668259
 31
0.0
 11
6.2450796654
 21
-13.5150913591
 31
0.0
 11
6.2853232081
 21
-13.5905614725
 31
0.0
 11
6.3349444064
 21
-13.6548377824
 31
0.0
 11
6.3931944625
 21
-13.7069481972
 31
0.0
 11
6.4591904405
 21
-13.7461011046
 31
0.0
 11
6.5319308058
 21
-13.7717025368
 31
0.0
 11
6.6103160022
 21
-13.7833659483
 31
0.0
 11
6.6931622577
 21
-13.7809141991
 31
0.0
 11
6.7792066394
 21
-13.7643855956
 31
0.0
 11
6.86712891
 21
-13.7340398484
 31
0.0
  0
SPLINE
  5
29E
100
AcDbEntity
  8
ASSI
100
AcDbSpline
 62
253
  6
CONTINUOUS
 70
0
 71
3
 72
12
 73
8
 74
6
 42
0.0000001
 43
0.0000001
 44
0.0000000001
 12
0.0080909092
 22
-0.2419465937
 32
0.0
 13
0.2154248525
 23
-0.1078952959
 33
0.0
 40
0.0
 40
0.0
 40
0.0
 40
0.0
 40
0.0845598402
 40
0.2789137504
 40
0.4920224582
 40
0.7314604977
 40
1.0
 40
1.0
 40
1.0
 40
1.0
 10
-9.604419649
 20
-5.5990330912
 30
0.0
 10
-9.6041915937
 20
-5.6058527463
 30
0.0
 10
-9.6018006648
 20
-5.6282887489
 30
0.0
 10
-9.588019294
 20
-5.6660133241
 30
0.0
 10
-9.5568232498
 20
-5.7082580478
 30
0.0
 10
-9.5125911377
 20
-5.7462076712
 30
0.0
 10
-9.4772605714
 20
-5.766998451
 30
0.0
 10
-9.4579772105
 20
-5.7766565007
 30
0.0
 11
-9.604419649
 21
-5.5990330912
 31
0.0
 11
-9.6022435459
 21
-5.61936024
 31
0.0
 11
-9.5866706688
 21
-5.6635213762
 31
0.0
 11
-9.5567765864
 21
-5.705266672
 31
0.0
 11
-9.5134496095
 21
-5.7433556549
 31
0.0
 11
-9.4579772105
 21
-5.7766565007
 31
0.0
  0
SPLINE
  5
29F
100
AcDbEntity
  8
ASSI
100
AcDbSpline
 62
253
  6
CONTINUOUS
 70
0
 71
3
 72
14
 73
10
 74
8
 42
0.0000001
 43
0.0000001
 44
0.0000000001
 12
-0.7291948935
 22
0.4358697704
 32
0.0
 13
-0.028643939
 23
0.847567329
 33
0.0
 40
0.0
 40
0.0
 40
0.0
 40
0.0
 40
0.0653440893
 40
0.2004055078
 40
0.3415049313
 40
0.4909307116
 40
0.6501584171
 40
0.8198508795
 40
1.0
 40
1.0
 40
1.0
 40
1.0
 10
-9.1098276504
 20
-6.5128496595
 30
0.0
 10
-9.1257105092
 20
-6.5033558218
 30
0.0
 10
-9.1729702295
 20
-6.4718069863
 30
0.0
 10
-9.2447347382
 20
-6.4063249652
 30
0.0
 10
-9.3173574902
 20
-6.3096173292
 30
0.0
 10
-9.3758754227
 20
-6.1961545378
 30
0.0
 10
-9.4195890778
 20
-6.0677349041
 30
0.0
 10
-9.4479902657
 20
-5.9263096972
 30
0.0
 10
-9.4562577296
 20
-5.827535229
 30
0.0
 10
-9.4579777897
 20
-5.7766390593
 30
0.0
 11
-9.1098276504
 21
-6.5128496595
 31
0.0
 11
-9.1559823484
 21
-6.4820510026
 31
0.0
 11
-9.2408567316
 21
-6.4051385757
 31
0.0
 11
-9.3131592208
 21
-6.3097931261
 31
0.0
 11
-9.3717986142
 21
-6.1974563076
 31
0.0
 11
-9.4158890916
 21
-6.0698239924
 31
0.0
 11
-9.4447599203
 21
-5.9288418719
 31
0.0
 11
-9.4579777897
 21
-5.7766390593
 31
0.0
  0
SPLINE
  5
2A0
100
AcDbEntity
  8
ASSI
100
AcDbSpline
 62
253
  6
CONTINUOUS
 70
0
 71
3
 72
11
 73
7
 74
5
 42
0.0000001
 43
0.0000001
 44
0.0000000001
 12
-0.5827885381
 22
17.347419697
 32
0.0
 13
-0.0096986774
 23
17.3572036503
 33
0.0
 40
0.0
 40
0.0
 40
0.0
 40
0.0
 40
0.2483879525
 40
0.4978454065
 40
0.7483799274
 40
1.0
 40
1.0
 40
1.0
 40
1.0
 10
-9.457977798
 20
-5.7766390553
 30
0.0
 10
-9.5062303486
 20
-4.3403423687
 30
0.0
 10
-9.5908261023
 20
-1.4611434201
 30
0.0
 10
-9.6819487017
 20
2.8678736278
 30
0.0
 10
-9.7375833085
 20
7.2161935642
 30
0.0
 10
-9.7509542146
 20
10.1215342839
 30
0.0
 10
-9.7517676752
 20
11.5773412315
 30
0.0
 11
-9.457977798
 21
-5.7766390553
 31
0.0
 11
-9.584675549
 21
-1.4671801559
 31
0.0
 11
-9.6758759062
 21
2.8617437674
 31
0.0
 11
-9.7315789602
 21
7.2099663692
 31
0.0
 11
-9.7517676752
 21
11.5773412315
 31
0.0
  0
SPLINE
  5
2A1
100
AcDbEntity
  8
ASSI
100
AcDbSpline
 62
253
  6
CONTINUOUS
 70
0
 71
3
 72
16
 73
12
 74
10
 42
0.0000001
 43
0.0000001
 44
0.0000000001
 12
-0.0077162649
 22
1.0314114242
 32
0.0
 13
1.0115667214
 23
0.2095410735
 33
0.0
 40
0.0
 40
0.0
 40
0.0
 40
0.0
 40
0.1431335069
 40
0.279862121
 40
0.4090446083
 40
0.5302820943
 40
0.6441480589
 40
0.7526230992
 40
0.8584174487
 40
0.9642690226
 40
1.0
 40
1.0
 40
1.0
 40
1.0
 10
-3.2756081164
 20
4.7571079766
 30
0.0
 10
-3.2759762684
 20
4.8063178214
 30
0.0
 10
-3.2719736555
 20
4.9026660789
 30
0.0
 10
-3.2502577465
 20
5.0419485738
 30
0.0
 10
-3.2128597539
 20
5.1701383076
 30
0.0
 10
-3.1602194774
 20
5.2843585027
 30
0.0
 10
-3.0931659579
 20
5.3823663978
 30
0.0
 10
-3.0127051709
 20
5.4624730493
 30
0.0
 10
-2.9200096732
 20
5.523262568
 30
0.0
 10
-2.8401878784
 20
5.5543555078
 30
0.0
 10
-2.7927735777
 20
5.5658056693
 30
0.0
 10
-2.7807254885
 20
5.5683013717
 30
0.0
 11
-3.2756081164
 21
4.7571079766
 31
0.0
 11
-3.269042646
 21
4.9045955822
 31
0.0
 11
-3.2467982398
 21
5.0438576166
 31
0.0
 11
-3.2088999259
 21
5.1715983194
 31
0.0
 11
-3.1559870697
 21
5.2849011831
 31
0.0
 11
-3.0891956221
 21
5.3815058007
 31
0.0
 11
-3.0096118884
 21
5.4601493027
 31
0.0
 11
-2.9182753539
 21
5.5198563613
 31
0.0
 11
-2.8165951811
 21
5.5596222095
 31
0.0
 11
-2.7807254885
 21
5.5683013717
 31
0.0
  0
SPLINE
  5
2A2
100
AcDbEntity
  8
ASSI
100
AcDbSpline
 62
253
  6
CONTINUOUS
 70
0
 71
3
 72
24
 73
20
 74
18
 42
0.0000001
 43
0.0000001
 44
0.0000000001
 12
2.4586575719
 22
0.5092988293
 32
0.0
 13
0.1809290519
 23
-2.5017661291
 33
0.0
 40
0.0
 40
0.0
 40
0.0
 40
0.0
 40
0.0299441425
 40
0.0766595554
 40
0.1262038629
 40
0.1790478561
 40
0.2353773573
 40
0.2951485115
 40
0.3581182132
 40
0.4239107106
 40
0.4920494286
 40
0.5619298413
 40
0.632794102
 40
0.7039434868
 40
0.7748859844
 40
0.8450216651
 40
0.9133713406
 40
0.9789616725
 40
1.0
 40
1.0
 40
1.0
 40
1.0
 10
-2.7807254885
 20
5.5683013717
 30
0.0
 10
-2.7561846909
 20
5.5733848773
 30
0.0
 10
-2.6924849161
 20
5.5822145703
 30
0.0
 10
-2.5864836151
 20
5.5800429982
 30
0.0
 10
-2.463594599
 20
5.5565309636
 30
0.0
 10
-2.3380359801
 20
5.5124912637
 30
0.0
 10
-2.2116879696
 20
5.4487213704
 30
0.0
 10
-2.0864576942
 20
5.3662756901
 30
0.0
 10
-1.9642381747
 20
5.2664625185
 30
0.0
 10
-1.8468748574
 20
5.1508265064
 30
0.0
 10
-1.7361593081
 20
5.0211463381
 30
0.0
 10
-1.6338499312
 20
4.8794917199
 30
0.0
 10
-1.5415736581
 20
4.7281615979
 30
0.0
 10
-1.4606921185
 20
4.569454
 30
0.0
 10
-1.3923631336
 20
4.405607142
 30
0.0
 10
-1.3377160305
 20
4.239156071
 30
0.0
 10
-1.2977756113
 20
4.0731556493
 30
0.0
 10
-1.2783408462
 20
3.9449534728
 30
0.0
 10
-1.271967322
 20
3.8727911872
 30
0.0
 10
-1.2706985071
 20
3.8552468621
 30
0.0
 11
-2.7807254885
 21
5.5683013717
 31
0.0
 11
-2.7063158919
 21
5.5787343702
 31
0.0
 11
-2.5892164277
 21
5.5769067636
 31
0.0
 11
-2.4671077774
 21
5.5541796425
 31
0.0
 11
-2.3418986603
 21
5.5109008422
 31
0.0
 11
-2.2155882026
 21
5.4477534704
 31
0.0
 11
-2.0901810614
 21
5.3657396802
 31
0.0
 11
-1.9676759436
 21
5.2661751518
 31
0.0
 11
-1.8499807206
 21
5.1506208972
 31
0.0
 11
-1.738902898
 21
5.0208458149
 31
0.0
 11
-1.6362161067
 21
4.8789089416
 31
0.0
 11
-1.5436667009
 21
4.727266161
 31
0.0
 11
-1.4626742781
 21
4.5683459416
 31
0.0
 11
-1.394280408
 21
4.4041724617
 31
0.0
 11
-1.3395666718
 21
4.2370746129
 31
0.0
 11
-1.2996879267
 21
4.0704297757
 31
0.0
 11
-1.2753278403
 21
3.9078118033
 31
0.0
 11
-1.2706985071
 21
3.8552468621
 31
0.0
  0
SPLINE
  5
2A3
100
AcDbEntity
  8
ASSI
100
AcDbSpline
 62
253
  6
CONTINUOUS
 70
0
 71
3
 72
17
 73
13
 74
11
 42
0.0000001
 43
0.0000001
 44
0.0000000001
 12
-0.3882100219
 22
-0.1914956984
 32
0.0
 13
-0.3871832493
 23
0.1935633102
 33
0.0
 40
0.0
 40
0.0
 40
0.0
 40
0.0
 40
0.0899749204
 40
0.1866926925
 40
0.2887145724
 40
0.3943429537
 40
0.501743173
 40
0.6089913359
 40
0.7141671611
 40
0.8154559107
 40
0.911195113
 40
1.0
 40
1.0
 40
1.0
 40
1.0
 10
5.7418429265
 20
4.3546985553
 30
0.0
 10
5.7301998712
 20
4.3489552853
 30
0.0
 10
5.70527902
 20
4.3385511557
 30
0.0
 10
5.6653382373
 20
4.3265072756
 30
0.0
 10
5.6222607474
 20
4.3176747316
 30
0.0
 10
5.5770748793
 20
4.3122709314
 30
0.0
 10
5.5308516405
 20
4.3104241446
 30
0.0
 10
5.4846899795
 20
4.3121795285
 30
0.0
 10
5.4396872794
 20
4.3174940291
 30
0.0
 10
5.3969098487
 20
4.3262414618
 30
0.0
 10
5.35737794
 20
4.3382066187
 30
0.0
 10
5.3327758664
 20
4.3485765901
 30
0.0
 10
5.3213146115
 20
4.3543063794
 30
0.0
 11
5.7418429265
 21
4.3546985553
 31
0.0
 11
5.7059686102
 21
4.3395345711
 31
0.0
 11
5.6659218178
 21
4.3273261289
 31
0.0
 11
5.6226762778
 21
4.3183742286
 31
0.0
 11
5.5772819406
 21
4.3128976605
 31
0.0
 11
5.5308290675
 21
4.3110280806
 31
0.0
 11
5.484438657
 21
4.3128110004
 31
0.0
 11
5.4392314867
 21
4.3182030726
 31
0.0
 11
5.3962933918
 21
4.3270746015
 31
0.0
 11
5.3566668177
 21
4.3392087253
 31
0.0
 11
5.3213146115
 21
4.3543063794
 31
0.0
  0
SPLINE
  5
2A4
100
AcDbEntity
  8
ASSI
100
AcDbSpline
 62
253
  6
CONTINUOUS
 70
0
 71
3
 72
13
 73
9
 74
7
 42
0.0000001
 43
0.0000001
 44
0.0000000001
 12
-0.1426851185
 22
0.0713529958
 32
0.0
 13
0.0295346599
 23
0.1574391586
 33
0.0
 40
0.0
 40
0.0
 40
0.0
 40
0.0
 40
0.2197022595
 40
0.4171950789
 40
0.5934908375
 40
0.7524978134
 40
0.9014584516
 40
1.0
 40
1.0
 40
1.0
 40
1.0
 10
-9.6115921189
 20
11.8207597446
 30
0.0
 10
-9.6220415332
 20
11.825985216
 30
0.0
 10
-9.6413358051
 20
11.8370963079
 30
0.0
 10
-9.6661109263
 20
11.856879675
 30
0.0
 10
-9.6846598255
 20
11.878578396
 30
0.0
 10
-9.6964013225
 20
11.9018394616
 30
0.0
 10
-9.7002433639
 20
11.923462438
 30
0.0
 10
-9.6990741116
 20
11.9366904779
 30
0.0
 10
-9.6981039812
 20
11.9418619108
 30
0.0
 11
-9.6115921189
 21
11.8207597446
 31
0.0
 11
-9.6418419616
 21
11.8384631148
 31
0.0
 11
-9.666272626
 21
11.8583576102
 31
0.0
 11
-9.6842821254
 21
11.8799598784
 31
0.0
 11
-9.6954302987
 21
11.902745478
 31
0.0
 11
-9.6994490151
 21
11.9261671215
 31
0.0
 11
-9.6981039812
 21
11.9418619108
 31
0.0
  0
SPLINE
  5
2A5
100
AcDbEntity
  8
ASSI
100
AcDbSpline
 62
253
  6
CONTINUOUS
 70
0
 71
3
 72
12
 73
8
 74
6
 42
0.0000001
 43
0.0000001
 44
0.0000000001
 12
0.0235525246
 22
0.1255504435
 32
0.0
 13
0.1124667953
 23
0.0594633249
 33
0.0
 40
0.0
 40
0.0
 40
0.0
 40
0.0
 40
0.062800613
 40
0.2610413881
 40
0.4804933674
 40
0.7263212361
 40
1.0
 40
1.0
 40
1.0
 40
1.0
 10
-9.6981039812
 20
11.9418619108
 30
0.0
 10
-9.6976109436
 20
11.9444901257
 30
0.0
 10
-9.6950198074
 20
11.9553125025
 30
0.0
 10
-9.6863206823
 20
11.9740115274
 30
0.0
 10
-9.6685158706
 20
11.9960814976
 30
0.0
 10
-9.644421878
 20
12.0163484018
 30
0.0
 10
-9.6255231392
 20
12.0278270095
 30
0.0
 10
-9.6152632147
 20
12.0332516259
 30
0.0
 11
-9.6981039812
 21
11.9418619108
 31
0.0
 11
-9.6962406441
 21
11.9496589524
 31
0.0
 11
-9.6858833913
 21
11.9726540627
 31
0.0
 11
-9.6686262548
 21
11.9946001647
 31
0.0
 11
-9.644891084
 21
12.0149644177
 31
0.0
 11
-9.6152632147
 21
12.0332516259
 31
0.0
  0
SPLINE
  5
2A6
100
AcDbEntity
  8
ASSI
100
AcDbSpline
 62
253
  6
CONTINUOUS
 70
0
 71
3
 72
13
 73
9
 74
7
 42
0.0000001
 43
0.0000001
 44
0.0000000001
 12
-0.0184861225
 22
-0.6881737366
 32
0.0
 13
-0.5053631422
 23
-0.4685855246
 33
0.0
 40
0.0
 40
0.0
 40
0.0
 40
0.0
 40
0.1417113146
 40
0.3464696438
 40
0.5398118029
 40
0.7211331501
 40
0.891303766
 40
1.0
 40
1.0
 40
1.0
 40
1.0
 10
-1.267048483
 20
3.7025294183
 30
0.0
 10
-1.2679217139
 20
3.6700220833
 30
0.0
 10
-1.272772915
 20
3.5905976128
 30
0.0
 10
-1.2918192541
 20
3.4679622002
 30
0.0
 10
-1.3290247449
 20
3.3399320839
 30
0.0
 10
-1.3813982795
 20
3.2258962829
 30
0.0
 10
-1.4412040561
 20
3.1382424735
 30
0.0
 10
-1.485285992
 20
3.0915539343
 30
0.0
 10
-1.5035963487
 20
3.074576107
 30
0.0
 11
-1.267048483
 21
3.7025294183
 31
0.0
 11
-1.2731236619
 21
3.6051697279
 31
0.0
 11
-1.2952686197
 21
3.4660237085
 31
0.0
 11
-1.3329809717
 21
3.3384391069
 31
0.0
 11
-1.3856346989
 21
3.2253236795
 31
0.0
 11
-1.452112827
 21
3.1289269216
 31
0.0
 11
-1.5035963487
 21
3.074576107
 31
0.0
  0
SPLINE
  5
2A7
100
AcDbEntity
  8
ASSI
100
AcDbSpline
 62
253
  6
CONTINUOUS
 70
0
 71
3
 72
27
 73
23
 74
21
 42
0.0000001
 43
0.0000001
 44
0.0000000001
 12
-2.1295480651
 22
-1.9745709849
 32
0.0
 13
-0.0218418729
 23
2.899561129
 33
0.0
 40
0.0
 40
0.0
 40
0.0
 40
0.0
 40
0.0126533349
 40
0.0501409892
 40
0.0876557827
 40
0.1261361184
 40
0.1664338113
 40
0.2092070015
 40
0.2548606103
 40
0.3035502532
 40
0.3552315133
 40
0.4096874153
 40
0.4665867774
 40
0.5255122442
 40
0.5859371656
 40
0.6472039573
 40
0.7087079608
 40
0.7700247279
 40
0.8306380643
 40
0.88970593
 40
0.946392656
 40
1.0
 40
1.0
 40
1.0
 40
1.0
 10
-1.5035963487
 20
3.074576107
 30
0.0
 10
-1.5125783104
 20
3.0662478044
 30
0.0
 10
-1.5492466153
 20
3.0344091368
 30
0.0
 10
-1.620597723
 20
2.987600083
 30
0.0
 10
-1.723568653
 20
2.9475609562
 30
0.0
 10
-1.8351301664
 20
2.9287802197
 30
0.0
 10
-1.9532115863
 20
2.9313519458
 30
0.0
 10
-2.0758947444
 20
2.9549609742
 30
0.0
 10
-2.2013257286
 20
2.9990404599
 30
0.0
 10
-2.3276347964
 20
3.0627916549
 30
0.0
 10
-2.4529181689
 20
3.1451629645
 30
0.0
 10
-2.5752794053
 20
3.244852003
 30
0.0
 10
-2.6928636668
 20
3.3603225307
 30
0.0
 10
-2.8038649192
 20
3.4898062811
 30
0.0
 10
-2.9065061058
 20
3.6312455974
 30
0.0
 10
-2.9991387645
 20
3.7823545243
 30
0.0
 10
-3.0803787072
 20
3.9408477488
 30
0.0
 10
-3.1490460176
 20
4.1044989039
 30
0.0
 10
-3.2039902813
 20
4.270784185
 30
0.0
 10
-3.24416771
 20
4.4366589019
 30
0.0
 10
-3.2689038478
 20
4.5986808409
 30
0.0
 10
-3.2752178215
 20
4.7052953863
 30
0.0
 10
-3.2756081164
 20
4.7571079766
 30
0.0
 11
-1.5035963487
 21
3.074576107
 31
0.0
 11
-1.5313492127
 21
3.0505009235
 31
0.0
 11
-1.6223252686
 21
2.9910095168
 31
0.0
 11
-1.7236545231
 21
2.9514447996
 31
0.0
 11
-1.8336149055
 21
2.9325069126
 31
0.0
 11
-1.9504473316
 21
2.9344712983
 31
0.0
 11
-2.0723572799
 21
2.9572892914
 31
0.0
 11
-2.1974484239
 21
3.0006073519
 31
0.0
 11
-2.3237291066
 21
3.0637398797
 31
0.0
 11
-2.4491965433
 21
3.145685655
 31
0.0
 11
-2.5718481916
 21
3.2451333029
 31
0.0
 11
-2.6897668672
 21
3.3605290553
 31
0.0
 11
-2.801130942
 21
3.4901135957
 31
0.0
 11
-2.9041485205
 21
3.6318393041
 31
0.0
 11
-2.9970517601
 21
3.7832631036
 31
0.0
 11
-3.0783987906
 21
3.94196944
 31
0.0
 11
-3.1471268127
 21
4.105945494
 31
0.0
 11
-3.2021338
 21
4.2728729503
 31
0.0
 11
-3.242246088
 21
4.4393853693
 31
0.0
 11
-3.2667662071
 21
4.6019174736
 31
0.0
 11
-3.2756081164
 21
4.7571079766
 31
0.0
  0
SPLINE
  5
2A8
100
AcDbEntity
  8
ASSI
100
AcDbSpline
 62
253
  6
CONTINUOUS
 70
0
 71
3
 72
14
 73
10
 74
8
 42
0.0000001
 43
0.0000001
 44
0.0000000001
 12
-0.0021352354
 22
0.293580377
 32
0.0
 13
-0.2606943534
 23
0.1350275937
 33
0.0
 40
0.0
 40
0.0
 40
0.0
 40
0.0
 40
0.1375417359
 40
0.2843592423
 40
0.4361806324
 40
0.5881835054
 40
0.7355262397
 40
0.8738772597
 40
1.0
 40
1.0
 40
1.0
 40
1.0
 10
5.8820087191
 20
4.1101831489
 30
0.0
 10
5.8819108244
 20
4.1236430005
 30
0.0
 10
5.8791231177
 20
4.1514828544
 30
0.0
 10
5.8685051847
 20
4.1929633968
 30
0.0
 10
5.851798489
 20
4.2339233002
 30
0.0
 10
5.8298151108
 20
4.2723622692
 30
0.0
 10
5.8036083784
 20
4.3064311597
 30
0.0
 10
5.7744523391
 20
4.3344772856
 30
0.0
 10
5.7528027552
 20
4.349021872
 30
0.0
 10
5.7418429265
 20
4.3546985553
 30
0.0
 11
5.8820087191
 21
4.1101831489
 31
0.0
 11
5.8782467746
 21
4.1503881543
 31
0.0
 11
5.8677081481
 21
4.1921838685
 31
0.0
 11
5.8509211983
 21
4.2334748731
 31
0.0
 11
5.8287275423
 21
4.2721910586
 31
0.0
 11
5.8022398591
 21
4.3063914108
 31
0.0
 11
5.7727861034
 21
4.3343613228
 31
0.0
 11
5.7418429265
 21
4.3546985553
 31
0.0
  0
SPLINE
  5
2A9
100
AcDbEntity
  8
ASSI
100
AcDbSpline
 62
253
  6
CONTINUOUS
 70
0
 71
3
 72
14
 73
10
 74
8
 42
0.0000001
 43
0.0000001
 44
0.0000000001
 12
-0.0001666295
 22
0.2930098836
 32
0.0
 13
0.260950915
 23
0.1332645476
 33
0.0
 40
0.0
 40
0.0
 40
0.0
 40
0.0
 40
0.137354997
 40
0.2837129603
 40
0.4350144585
 40
0.5866467148
 40
0.7339613452
 40
0.8727885915
 40
1.0
 40
1.0
 40
1.0
 40
1.0
 10
5.1811274072
 20
4.1108936903
 30
0.0
 10
5.181119778
 20
4.1243091475
 30
0.0
 10
5.1837122354
 20
4.1520538505
 30
0.0
 10
5.1941331595
 20
4.1933856827
 30
0.0
 10
5.2107324492
 20
4.2341586396
 30
0.0
 10
5.2327111105
 20
4.2724020625
 30
0.0
 10
5.2590269198
 20
4.3062946485
 30
0.0
 10
5.2884140932
 20
4.334206841
 30
0.0
 10
5.3102493004
 20
4.3486554558
 30
0.0
 10
5.3213146115
 20
4.3543063794
 30
0.0
 11
5.1811274072
 21
4.1108936903
 31
0.0
 11
5.1846153229
 21
4.1509886451
 31
0.0
 11
5.1949495508
 21
4.1926091938
 31
0.0
 11
5.2116171524
 21
4.2336895041
 31
0.0
 11
5.2337908329
 21
4.2721905586
 31
0.0
 11
5.2603700036
 21
4.3062013608
 31
0.0
 11
5.2900354097
 21
4.3340337878
 31
0.0
 11
5.3213146115
 21
4.3543063794
 31
0.0
  0
SPLINE
  5
2AA
100
AcDbEntity
  8
ASSI
100
AcDbSpline
 62
253
  6
CONTINUOUS
 70
0
 71
3
 72
14
 73
10
 74
8
 42
0.0000001
 43
0.0000001
 44
0.0000000001
 12
-0.0001666322
 22
0.2930098843
 32
0.0
 13
0.2609509171
 23
0.1332645449
 33
0.0
 40
0.0
 40
0.0
 40
0.0
 40
0.0
 40
0.1373551825
 40
0.2837133145
 40
0.435014922
 40
0.5866471981
 40
0.7339617476
 40
0.872788823
 40
1.0
 40
1.0
 40
1.0
 40
1.0
 10
-9.7517793232
 20
11.5773470555
 30
0.0
 10
-9.7517869525
 20
11.5907625309
 30
0.0
 10
-9.7491944887
 20
11.6185072686
 30
0.0
 10
-9.7387735424
 20
11.6598391425
 30
0.0
 10
-9.7221742267
 20
11.7006121205
 30
0.0
 10
-9.7001955467
 20
11.7388555383
 30
0.0
 10
-9.6738797365
 20
11.7727480949
 30
0.0
 10
-9.6444925867
 20
11.8006602433
 30
0.0
 10
-9.62265741
 20
11.8151088314
 30
0.0
 10
-9.6115921189
 20
11.8207597446
 30
0.0
 11
-9.7517793232
 21
11.5773470555
 31
0.0
 11
-9.7482913988
 21
11.6174420642
 31
0.0
 11
-9.737957148
 21
11.6590626582
 31
0.0
 11
-9.721289519
 21
11.7001429921
 31
0.0
 11
-9.699115819
 21
11.7386440421
 31
0.0
 11
-9.6725366478
 21
11.772654814
 31
0.0
 11
-9.6428712675
 21
11.8004871955
 31
0.0
 11
-9.6115921189
 21
11.8207597446
 31
0.0
  0
SPLINE
  5
2AB
100
AcDbEntity
  8
ASSI
100
AcDbSpline
 62
253
  6
CONTINUOUS
 70
0
 71
3
 72
15
 73
11
 74
9
 42
0.0000001
 43
0.0000001
 44
0.0000000001
 12
-0.0067576227
 22
0.8379829669
 32
0.0
 13
0.7580287499
 23
0.3606374832
 33
0.0
 40
0.0
 40
0.0
 40
0.0
 40
0.0
 40
0.1637169852
 40
0.3200692259
 40
0.46778283
 40
0.6064058017
 40
0.7365989704
 40
0.8606328372
 40
0.9816118788
 40
1.0
 40
1.0
 40
1.0
 40
1.0
 10
-3.1354344662
 20
4.757274472
 30
0.0
 10
-3.1358032454
 20
4.8030051536
 30
0.0
 10
-3.1321317167
 20
4.8925333443
 30
0.0
 10
-3.1120167042
 20
5.0219555618
 30
0.0
 10
-3.0773186515
 20
5.1410605626
 30
0.0
 10
-3.0284456949
 20
5.2471836483
 30
0.0
 10
-2.9661667391
 20
5.3382405354
 30
0.0
 10
-2.8914169005
 20
5.4126613618
 30
0.0
 10
-2.8294432998
 20
5.4532922332
 30
0.0
 10
-2.7944939277
 20
5.4706021066
 30
0.0
 10
-2.7898476862
 20
5.4728125885
 30
0.0
 11
-3.1354344662
 21
4.757274472
 31
0.0
 11
-3.1294068735
 21
4.8943385056
 31
0.0
 11
-3.1088008272
 21
5.0237327962
 31
0.0
 11
-3.0736378122
 21
5.1424189984
 31
0.0
 11
-3.0245115926
 21
5.2476876772
 31
0.0
 11
-2.9624771918
 21
5.3374386799
 31
0.0
 11
-2.8885441649
 21
5.4104987481
 31
0.0
 11
-2.8036787971
 21
5.4659614641
 31
0.0
 11
-2.7898476862
 21
5.4728125885
 31
0.0
  0
SPLINE
  5
2AC
100
AcDbEntity
  8
ASSI
100
AcDbSpline
 62
253
  6
CONTINUOUS
 70
0
 71
3
 72
13
 73
9
 74
7
 42
0.0000001
 43
0.0000001
 44
0.0000000001
 12
-0.215894351
 22
0.1079521952
 32
0.0
 13
-0.0002206955
 23
0.2421879479
 33
0.0
 40
0.0
 40
0.0
 40
0.0
 40
0.0
 40
0.2421235129
 40
0.4595101842
 40
0.6534225439
 40
0.8281339132
 40
0.9916258048
 40
1.0
 40
1.0
 40
1.0
 40
1.0
 10
-9.7517676733
 20
11.5773412263
 30
0.0
 10
-9.7691920395
 20
11.5860538145
 30
0.0
 10
-9.8013494859
 20
11.6045634964
 30
0.0
 10
-9.8426430277
 20
11.6374894582
 30
0.0
 10
-9.8735510929
 20
11.6735645851
 30
0.0
 10
-9.8931216268
 20
11.7122130524
 30
0.0
 10
-9.8980991163
 20
11.7401052225
 30
0.0
 10
-9.8982250738
 20
11.7539794584
 30
0.0
 10
-9.8982256898
 20
11.7546555014
 30
0.0
 11
-9.7517676733
 21
11.5773412263
 31
0.0
 11
-9.8022148391
 21
11.606849582
 31
0.0
 11
-9.8429255376
 21
11.6399557907
 31
0.0
 11
-9.8729353347
 21
11.6758759379
 31
0.0
 11
-9.8915110602
 21
11.7137361789
 31
0.0
 11
-9.8982072381
 21
11.7526275121
 31
0.0
 11
-9.8982256898
 21
11.7546555014
 31
0.0
  0
SPLINE
  5
2AD
100
AcDbEntity
  8
ASSI
100
AcDbSpline
 62
253
  6
CONTINUOUS
 70
0
 71
3
 72
14
 73
10
 74
8
 42
0.0000001
 43
0.0000001
 44
0.0000000001
 12
0.0309975359
 22
-0.8964475369
 32
0.0
 13
0.8027044092
 23
-0.403511886
 33
0.0
 40
0.0
 40
0.0
 40
0.0
 40
0.0
 40
0.1705248534
 40
0.3314849556
 40
0.4829541407
 40
0.6256267012
 40
0.760935233
 40
0.8910296635
 40
1.0
 40
1.0
 40
1.0
 40
1.0
 10
5.4853571632
 20
-13.2483065353
 30
0.0
 10
5.4871191133
 20
-13.2992620636
 30
0.0
 10
5.4956001473
 20
-13.3982472725
 30
0.0
 10
5.5247010459
 20
-13.5400491136
 30
0.0
 10
5.5694881975
 20
-13.6690150318
 30
0.0
 10
5.6294342971
 20
-13.7831723985
 30
0.0
 10
5.7038040803
 20
-13.8807014049
 30
0.0
 10
5.7874257651
 20
-13.9561458606
 30
0.0
 10
5.8486576436
 20
-13.99375735
 30
0.0
 10
5.8778146335
 20
-14.008414292
 30
0.0
 11
5.4853571632
 21
-13.2483065353
 31
0.0
 11
5.4988862966
 21
-13.4006649795
 31
0.0
 11
5.528436949
 21
-13.541987012
 31
0.0
 11
5.5735656484
 21
-13.6701384383
 31
0.0
 11
5.6335858426
 21
-13.7831656573
 31
0.0
 11
5.7075908741
 21
-13.8793623783
 31
0.0
 11
5.794463835
 21
-13.9572740942
 31
0.0
 11
5.8778146335
 21
-14.008414292
 31
0.0
  0
SPLINE
  5
2AE
100
AcDbEntity
  8
ASSI
100
AcDbSpline
 62
253
  6
CONTINUOUS
 70
0
 71
3
 72
17
 73
13
 74
11
 42
0.0000001
 43
0.0000001
 44
0.0000000001
 12
-0.6478787095
 22
-0.3171133083
 32
0.0
 13
-0.6451774021
 23
0.3225737007
 33
0.0
 40
0.0
 40
0.0
 40
0.0
 40
0.0
 40
0.0899352243
 40
0.1865809494
 40
0.2885603482
 40
0.3941667178
 40
0.5015619733
 40
0.6088199202
 40
0.7140203969
 40
0.8153431384
 40
0.9111132669
 40
1.0
 40
1.0
 40
1.0
 40
1.0
 10
5.8820206752
 20
4.110189001
 30
0.0
 10
5.8625983028
 20
4.1006824488
 30
0.0
 10
5.8210422589
 20
4.0834848532
 30
0.0
 10
5.7544642986
 20
4.0636194804
 30
0.0
 10
5.6826748112
 20
4.0491002478
 30
0.0
 10
5.6073742594
 20
4.040278393
 30
0.0
 10
5.5303476901
 20
4.0373637532
 30
0.0
 10
5.4534242524
 20
4.0404269671
 30
0.0
 10
5.3784304603
 20
4.0493935952
 30
0.0
 10
5.3071427393
 20
4.0640503705
 30
0.0
 10
5.2412485478
 20
4.084043013
 30
0.0
 10
5.200231665
 20
4.1013420016
 30
0.0
 10
5.1811157612
 20
4.1108995091
 30
0.0
 11
5.8820206752
 21
4.110189001
 31
0.0
 11
5.8221900184
 21
4.0851147064
 31
0.0
 11
5.755448243
 21
4.0649797814
 31
0.0
 11
5.68337567
 21
4.0502611263
 31
0.0
 11
5.6077260395
 21
4.0413184453
 31
0.0
 11
5.5303155911
 21
4.0383660981
 31
0.0
 11
5.4530104137
 21
4.0414754425
 31
0.0
 11
5.3776739456
 21
4.0505712982
 31
0.0
 11
5.3061149637
 21
4.0654355403
 31
0.0
 11
5.2400743113
 21
4.085705007
 31
0.0
 11
5.1811157612
 21
4.1108995091
 31
0.0
  0
SPLINE
  5
2AF
100
AcDbEntity
  8
ASSI
100
AcDbSpline
 62
253
  6
CONTINUOUS
 70
0
 71
3
 72
16
 73
12
 74
10
 42
0.0000001
 43
0.0000001
 44
0.0000000001
 12
-0.6379991046
 22
-0.3396733917
 32
0.0
 13
-0.6466996827
 23
0.3228008533
 33
0.0
 40
0.0
 40
0.0
 40
0.0
 40
0.0
 40
0.1015166317
 40
0.2107208998
 40
0.3256469076
 40
0.4439751589
 40
0.5631922282
 40
0.6807357597
 40
0.7941361023
 40
0.9011644343
 40
1.0
 40
1.0
 40
1.0
 40
1.0
 10
6.1859412507
 20
-13.2337241803
 30
0.0
 10
6.1643520773
 20
-13.2452183465
 30
0.0
 10
6.1178268771
 20
-13.2659301504
 30
0.0
 10
6.0428588841
 20
-13.2895235736
 30
0.0
 10
5.9619344408
 20
-13.3062742459
 30
0.0
 10
5.8774197381
 20
-13.3156851434
 30
0.0
 10
5.7917717529
 20
-13.3174827083
 30
0.0
 10
5.7074932031
 20
-13.311614895
 30
0.0
 10
5.6270308002
 20
-13.2982519899
 30
0.0
 10
5.5527339457
 20
-13.2777916321
 30
0.0
 10
5.5066637079
 20
-13.2589585709
 30
0.0
 10
5.4853580649
 20
-13.2483238359
 30
0.0
 11
6.1859412507
 21
-13.2337241803
 31
0.0
 11
6.1190634437
 21
-13.2639108213
 31
0.0
 11
6.0438519638
 21
-13.2878566164
 31
0.0
 11
5.9625417384
 21
-13.3048500105
 31
0.0
 11
5.8775489201
 21
-13.3143860409
 31
0.0
 11
5.7913990912
 21
-13.3161813421
 31
0.0
 11
5.7066522144
 21
-13.3101825663
 31
0.0
 11
5.6258265634
 21
-13.2965679686
 31
0.0
 11
5.551323892
 21
-13.27574211
 31
0.0
 11
5.4853580649
 21
-13.2483238359
 31
0.0
  0
SPLINE
  5
2B0
100
AcDbEntity
  8
ASSI
100
AcDbSpline
 62
253
  6
CONTINUOUS
 70
0
 71
3
 72
13
 73
9
 74
7
 42
0.0000001
 43
0.0000001
 44
0.0000000001
 12
-0.0143748292
 22
-0.3372111877
 32
0.0
 13
-0.3122832359
 23
-0.1308988728
 33
0.0
 40
0.0
 40
0.0
 40
0.0
 40
0.0
 40
0.2203895712
 40
0.4242798477
 40
0.6117673044
 40
0.7852201422
 40
0.9494899101
 40
1.0
 40
1.0
 40
1.0
 40
1.0
 10
6.86712891
 20
-13.7340398484
 30
0.0
 10
6.8660728892
 20
-13.7588124581
 30
0.0
 10
6.8608307469
 20
-13.8064640769
 30
0.0
 10
6.8423979121
 20
-13.8731235396
 30
0.0
 10
6.8140489951
 20
-13.930500659
 30
0.0
 10
6.7763551227
 20
-13.9767593335
 30
0.0
 10
6.7405252565
 20
-14.0026868859
 30
0.0
 10
6.7185762491
 20
-14.0130239278
 30
0.0
 10
6.713318431
 20
-14.0152278325
 30
0.0
 11
6.86712891
 21
-13.7340398484
 31
0.0
 11
6.8585920004
 21
-13.8079336744
 31
0.0
 11
6.8397729967
 21
-13.8741270202
 31
0.0
 11
6.8112430416
 21
-13.9306109671
 31
0.0
 11
6.7738679982
 21
-13.9756712692
 31
0.0
 11
6.7287821712
 21
-14.0079403797
 31
0.0
 11
6.713318431
 21
-14.0152278325
 31
0.0
  0
SPLINE
  5
2B1
100
AcDbEntity
  8
CURVE
100
AcDbSpline
 62
253
  6
CONTINUOUS
 70
0
 71
3
 72
11
 73
7
 74
5
 42
0.0000001
 43
0.0000001
 44
0.0000000001
 12
0.0397257346
 22
-1.850807977
 32
0.0
 13
-0.950243035
 23
-0.8889929278
 33
0.0
 40
0.0
 40
0.0
 40
0.0
 40
0.0
 40
0.2941176471
 40
0.5882352941
 40
0.8823529412
 40
1.0
 40
1.0
 40
1.0
 40
1.0
 10
-0.0445700701
 20
-4.1136510832
 30
0.0
 10
-0.0406753902
 20
-4.2951028456
 30
0.0
 10
-0.0638478899
 20
-4.633878431
 30
0.0
 10
-0.1894955903
 20
-5.080819849
 30
0.0
 10
-0.3597836141
 20
-5.3667038932
 30
0.0
 10
-0.4834999202
 20
-5.4989015655
 30
0.0
 10
-0.5207643529
 20
-5.5337640332
 30
0.0
 11
-0.0445700701
 21
-4.1136510832
 31
0.0
 11
-0.0789960484
 21
-4.623674771
 31
0.0
 11
-0.2040309785
 21
-5.0658887885
 31
0.0
 11
-0.4147952249
 21
-5.4205381593
 31
0.0
 11
-0.5207643529
 21
-5.5337640332
 31
0.0
  0
SPLINE
  5
2B2
100
AcDbEntity
  8
CURVE
100
AcDbSpline
 62
253
  6
CONTINUOUS
 70
0
 71
3
 72
19
 73
15
 74
13
 42
0.0000001
 43
0.0000001
 44
0.0000000001
 12
-3.3484360239
 22
-2.7302345534
 32
0.0
 13
-0.1333462891
 23
6.2125566186
 33
0.0
 40
0.0
 40
0.0
 40
0.0
 40
0.0
 40
0.0350877193
 40
0.1228070175
 40
0.2105263158
 40
0.298245614
 40
0.3859649123
 40
0.4736842105
 40
0.5614035088
 40
0.649122807
 40
0.7368421053
 40
0.8245614035
 40
0.9122807018
 40
1.0
 40
1.0
 40
1.0
 40
1.0
 10
-0.5780895121
 20
-5.583865711
 30
0.0
 10
-0.6172525065
 20
-5.6157982789
 30
0.0
 10
-0.7609037103
 20
-5.7172320024
 30
0.0
 10
-1.0451054353
 20
-5.8273220537
 30
0.0
 10
-1.4450077647
 20
-5.8430997693
 30
0.0
 10
-1.882068813
 20
-5.7361960655
 30
0.0
 10
-2.3259478254
 20
-5.5143140336
 30
0.0
 10
-2.7690595472
 20
-5.1812075049
 30
0.0
 10
-3.1803634113
 20
-4.7599535678
 30
0.0
 10
-3.552102598
 20
-4.2588286994
 30
0.0
 10
-3.8594988457
 20
-3.710004166
 30
0.0
 10
-4.0950460104
 20
-3.1283162588
 30
0.0
 10
-4.2444581373
 20
-2.5440645648
 30
0.0
 10
-4.2833117429
 20
-2.1739844419
 30
0.0
 10
-4.2872107572
 20
-1.9923307396
 30
0.0
 11
-0.5780895121
 21
-5.583865711
 31
0.0
 11
-0.7011456953
 21
-5.670722486
 31
0.0
 11
-1.0525471308
 21
-5.8070162456
 31
0.0
 11
-1.4512008845
 21
-5.8226528661
 31
0.0
 11
-1.8832051403
 21
-5.7170330108
 31
0.0
 11
-2.3258199436
 21
-5.4957766175
 31
0.0
 11
-2.7637582376
 21
-5.1665162702
 31
0.0
 11
-3.1737692984
 21
-4.7466417459
 31
0.0
 11
-3.5413787749
 21
-4.2508787553
 31
0.0
 11
-3.8475239985
 21
-3.7045269371
 31
0.0
 11
-4.0806901708
 21
-3.127888961
 31
0.0
 11
-4.2292695175
 21
-2.5489198164
 31
0.0
 11
-4.2872107572
 21
-1.9923307396
 31
0.0
  0
SPLINE
  5
2B3
100
AcDbEntity
  8
CURVE
100
AcDbSpline
 62
253
  6
CONTINUOUS
 70
0
 71
3
 72
20
 73
16
 74
14
 42
0.0000001
 43
0.0000001
 44
0.0000000001
 12
-0.1448631027
 22
6.749120906
 32
0.0
 13
2.9660536082
 23
-7.1566977086
 33
0.0
 40
0.0
 40
0.0
 40
0.0
 40
0.0
 40
0.0806451613
 40
0.1612903226
 40
0.2419354839
 40
0.3225806452
 40
0.4032258065
 40
0.4838709677
 40
0.564516129
 40
0.6451612903
 40
0.7258064516
 40
0.8064516129
 40
0.8870967742
 40
0.9677419355
 40
1.0
 40
1.0
 40
1.0
 40
1.0
 10
-4.2872107572
 20
-1.9923307396
 30
0.0
 10
-4.2911049266
 20
-1.8109027583
 30
0.0
 10
-4.2675633266
 20
-1.4719729989
 30
0.0
 10
-4.1403444158
 20
-1.0242594789
 30
0.0
 10
-3.9251406076
 20
-0.6657056572
 30
0.0
 10
-3.6349428863
 20
-0.4127819649
 30
0.0
 10
-3.2770521526
 20
-0.2738345243
 30
0.0
 10
-2.8751017847
 20
-0.2570453944
 30
0.0
 10
-2.4369231937
 20
-0.3633923212
 30
0.0
 10
-1.993045959
 20
-0.5852726497
 30
0.0
 10
-1.5510484199
 20
-0.9189373338
 30
0.0
 10
-1.1417275484
 20
-1.3412363056
 30
0.0
 10
-0.7725638397
 20
-1.8437298274
 30
0.0
 10
-0.5288096863
 20
-2.2838985141
 30
0.0
 10
-0.4099906491
 20
-2.5513285761
 30
0.0
 10
-0.3780975995
 20
-2.6282823149
 30
0.0
 11
-4.2872107572
 21
-1.9923307396
 31
0.0
 11
-4.2522455748
 21
-1.4820865187
 31
0.0
 11
-4.1256802662
 21
-1.0391194286
 31
0.0
 11
-3.9126416221
 21
-0.6833106788
 31
0.0
 11
-3.6236607175
 21
-0.4317780068
 31
0.0
 11
-3.2697088802
 21
-0.2941942427
 31
0.0
 11
-2.8690637475
 21
-0.2775680705
 31
0.0
 11
-2.4359734197
 21
-0.3826478882
 31
0.0
 11
-1.9933592416
 21
-0.6039033757
 31
0.0
 11
-1.5564945312
 21
-0.9337097151
 31
0.0
 11
-1.1484204089
 21
-1.3546020639
 31
0.0
 11
-0.7833090092
 21
-1.8516827168
 31
0.0
 11
-0.4797950692
 21
-2.3993820096
 31
0.0
 11
-0.3780975995
 21
-2.6282823149
 31
0.0
  0
SPLINE
  5
2B4
100
AcDbEntity
  8
CURVE
100
AcDbSpline
 62
253
  6
CONTINUOUS
 70
0
 71
3
 72
9
 73
5
 74
3
 42
0.0000001
 43
0.0000001
 44
0.0000000001
 12
0.1937590692
 22
-0.8112804686
 32
0.0
 13
0.0163737166
 23
-0.7628456843
 33
0.0
 40
0.0
 40
0.0
 40
0.0
 40
0.0
 40
0.2857142857
 40
1.0
 40
1.0
 40
1.0
 40
1.0
 10
-0.1502044656
 20
-3.3267515205
 30
0.0
 10
-0.1317512209
 20
-3.4040163271
 30
0.0
 10
-0.0753964138
 20
-3.6728622559
 30
0.0
 10
-0.048468574
 20
-3.9320211583
 30
0.0
 10
-0.0445700701
 20
-4.1136510832
 30
0.0
 11
-0.1502044656
 21
-3.3267515205
 31
0.0
 11
-0.1019506754
 21
-3.5568517944
 31
0.0
 11
-0.0445700701
 21
-4.1136510832
 31
0.0
  0
SPLINE
  5
2B5
100
AcDbEntity
  8
CURVE
100
AcDbSpline
 62
253
  6
CONTINUOUS
 70
0
 71
3
 72
45
 73
41
 74
39
 42
0.0000001
 43
0.0000001
 44
0.0000000001
 12
-0.0675203495
 22
2.9881059404
 32
0.0
 13
-0.0465043622
 23
2.3242393856
 33
0.0
 40
0.0
 40
0.0
 40
0.0
 40
0.0
 40
0.125
 40
0.1875
 40
0.25
 40
0.3125
 40
0.34375
 40
0.375
 40
0.40625
 40
0.421875
 40
0.4375
 40
0.453125
 40
0.46875
 40
0.4765625
 40
0.484375
 40
0.48828125
 40
0.4921875
 40
0.49609375
 40
0.498046875
 40
0.4990234375
 40
0.5
 40
0.5009765625
 40
0.501953125
 40
0.50390625
 40
0.5078125
 40
0.51171875
 40
0.515625
 40
0.5234375
 40
0.53125
 40
0.546875
 40
0.5625
 40
0.578125
 40
0.59375
 40
0.625
 40
0.65625
 40
0.6875
 40
0.75
 40
0.8125
 40
0.875
 40
1.0
 40
1.0
 40
1.0
 40
1.0
 10
-2.1356836843
 20
-4.3802269226
 30
0.0
 10
-2.1384970322
 20
-4.2557225084
 30
0.0
 10
-2.1427170541
 20
-4.0689658871
 30
0.0
 10
-2.1483437499
 20
-3.8199570588
 30
0.0
 10
-2.1525637717
 20
-3.6332004375
 30
0.0
 10
-2.1560804566
 20
-3.4775699199
 30
0.0
 10
-2.1588938045
 20
-3.3530655053
 30
0.0
 10
-2.1610038154
 20
-3.2596871959
 30
0.0
 10
-2.1627621579
 20
-3.1818719334
 30
0.0
 10
-2.1641688317
 20
-3.1196197337
 30
0.0
 10
-2.1652238378
 20
-3.0729305558
 30
0.0
 10
-2.1662788406
 20
-3.026241485
 30
0.0
 10
-2.1671580202
 20
-2.9873335926
 30
0.0
 10
-2.1678613402
 20
-2.9562080253
 30
0.0
 10
-2.168300969
 20
-2.936752846
 30
0.0
 10
-2.1686525488
 20
-2.9211925954
 30
0.0
 10
-2.1689165711
 20
-2.9095117486
 30
0.0
 10
-2.1691355162
 20
-2.899811617
 30
0.0
 10
-2.1692908844
 20
-2.8929549826
 30
0.0
 10
-2.169376377
 20
-2.8891408061
 30
0.0
 10
-2.1694497621
 20
-2.8859874849
 30
0.0
 10
-2.1694877293
 20
-2.8839529688
 30
0.0
 10
-2.1695507063
 20
-2.880850029
 30
0.0
 10
-2.1696551601
 20
-2.8756017099
 30
0.0
 10
-2.1698073891
 20
-2.8680090507
 30
0.0
 10
-2.1699887759
 20
-2.8589385486
 30
0.0
 10
-2.1702310748
 20
-2.8468303339
 30
0.0
 10
-2.1705337943
 20
-2.8316999318
 30
0.0
 10
-2.1710182318
 20
-2.8074885686
 30
0.0
 10
-2.171623749
 20
-2.7772252979
 30
0.0
 10
-2.1723503823
 20
-2.740908973
 30
0.0
 10
-2.1730770123
 20
-2.7045927551
 30
0.0
 10
-2.1740458534
 20
-2.6561710938
 30
0.0
 10
-2.1752569044
 20
-2.5956440301
 30
0.0
 10
-2.1767101657
 20
-2.5230115482
 30
0.0
 10
-2.1786478475
 20
-2.4261682408
 30
0.0
 10
-2.1810699497
 20
-2.305114106
 30
0.0
 10
-2.1839764723
 20
-2.1598491444
 30
0.0
 10
-2.1878518358
 20
-1.9661625289
 30
0.0
 10
-2.1907583585
 20
-1.8208975674
 30
0.0
 10
-2.1926960402
 20
-1.7240542596
 30
0.0
 11
-2.1356836843
 21
-4.3802269226
 31
0.0
 11
-2.144123728
 21
-4.0067136801
 31
0.0
 11
-2.1483437499
 21
-3.8199570588
 31
0.0
 11
-2.1525637717
 21
-3.6332004375
 31
0.0
 11
-2.1567837936
 21
-3.4464438162
 31
0.0
 11
-2.1588938045
 21
-3.3530655056
 31
0.0
 11
-2.1610038154
 21
-3.259687195
 31
0.0
 11
-2.1631138263
 21
-3.1663088843
 31
0.0
 11
-2.1641688318
 21
-3.119619729
 31
0.0
 11
-2.1652238373
 21
-3.0729305737
 31
0.0
 11
-2.1662788427
 21
-3.0262414184
 31
0.0
 11
-2.1673338482
 21
-2.979552263
 31
0.0
 11
-2.1678613509
 21
-2.9562076854
 31
0.0
 11
-2.1683888536
 21
-2.9328631077
 31
0.0
 11
-2.168652605
 21
-2.9211908189
 31
0.0
 11
-2.1689163564
 21
-2.9095185301
 31
0.0
 11
-2.1691801077
 21
-2.8978462412
 31
0.0
 11
-2.1693119834
 21
-2.8920100968
 31
0.0
 11
-2.1693779213
 21
-2.8890920246
 31
0.0
 11
-2.1694438591
 21
-2.8861739524
 31
0.0
 11
-2.1694892735
 21
-2.8839041874
 31
0.0
 11
-2.1695346879
 21
-2.8816344224
 31
0.0
 11
-2.1696255168
 21
-2.8770948923
 31
0.0
 11
-2.1698071744
 21
-2.8680158322
 31
0.0
 11
-2.1699888321
 21
-2.8589367721
 31
0.0
 11
-2.1701704898
 21
-2.849857712
 31
0.0
 11
-2.1705338051
 21
-2.8316995918
 31
0.0
 11
-2.1708971204
 21
-2.8135414716
 31
0.0
 11
-2.1716237511
 21
-2.7772252312
 31
0.0
 11
-2.1723503817
 21
-2.7409089908
 31
0.0
 11
-2.1730770124
 21
-2.7045927504
 31
0.0
 11
-2.1738036431
 21
-2.66827651
 31
0.0
 11
-2.1752569044
 21
-2.5956440292
 31
0.0
 11
-2.1767101657
 21
-2.5230115484
 31
0.0
 11
-2.178163427
 21
-2.4503790676
 31
0.0
 11
-2.1810699497
 21
-2.305114106
 31
0.0
 11
-2.1839764723
 21
-2.1598491444
 31
0.0
 11
-2.1868829949
 21
-2.0145841828
 31
0.0
 11
-2.1926960402
 21
-1.7240542596
 31
0.0
  0
ELLIPSE
  5
2B6
100
AcDbEntity
  8
RACCORDO
100
AcDbEllipse
 62
7
  6
CONTINUOUS
 10
-5.997700721
 20
13.7724176792
 30
0.0
 11
-0.0894818401
 21
0.1789012953
 31
0.0
 40
0.6122950388
 41
-0.6847996396
 42
0.013822208
  0
ELLIPSE
  5
2B7
100
AcDbEntity
  8
RACCORDO
100
AcDbEllipse
 62
7
  6
CONTINUOUS
 10
8.7368751985
 20
-12.623566669
 30
0.0
 11
-0.1825210626
 21
0.4655826378
 31
0.0
 40
0.6539056002
 41
-3.1260688269
 42
-2.199353272
  0
ELLIPSE
  5
2B8
100
AcDbEntity
  8
RACCORDO
100
AcDbEllipse
 62
7
  6
CONTINUOUS
 10
9.4878947021
 20
6.0296199676
 30
0.0
 11
-0.0894578232
 21
0.1788799337
 31
0.0
 40
0.6124778111
 41
-2.255529033
 42
-0.6848850053
  0
ELLIPSE
  5
2B9
100
AcDbEntity
  8
ASSI
100
AcDbEllipse
 62
7
  6
CONTINUOUS
 10
-5.997700721
 20
13.7724176792
 30
0.0
 11
-0.0894818401
 21
0.1789012953
 31
0.0
 40
0.6122950388
 41
-0.6847996396
 42
0.013822208
  0
ELLIPSE
  5
2BA
100
AcDbEntity
  8
ASSI
100
AcDbEllipse
 62
7
  6
CONTINUOUS
 10
8.7368751985
 20
-12.623566669
 30
0.0
 11
-0.1825210626
 21
0.4655826378
 31
0.0
 40
0.6539056002
 41
-3.1260688269
 42
-2.199353272
  0
ELLIPSE
  5
2BB
100
AcDbEntity
  8
ASSI
100
AcDbEllipse
 62
7
  6
CONTINUOUS
 10
9.4878947021
 20
6.0296199676
 30
0.0
 11
-0.0894578232
 21
0.1788799337
 31
0.0
 40
0.6124778111
 41
-2.255529033
 42
-0.6848850053
  0
ENDSEC
  0
SECTION
  2
OBJECTS
  0
DICTIONARY
  5
C
100
AcDbDictionary
280
0
281
1
  3
ACAD_GROUP
350
D
  3
ACAD_MLINESTYLE
350
17
  3
ACAD_LAYOUT
350
1A
  3
ACAD_PLOTSETTINGS
350
19
  3
ACAD_PLOTSTYLENAME
350
E
  0
DICTIONARY
  5
D
102
{ACAD_REACTORS
330
C
102
}
100
AcDbDictionary
280
0
281
1
  0
ACDBDICTIONARYWDFLT
  5
E
102
{ACAD_REACTORS
330
C
102
}
100
AcDbDictionary
281
1
  3
Normal
350
F
100
AcDbDictionaryWithDefault
340
F
  0
DICTIONARY
  5
17
102
{ACAD_REACTORS
330
C
102
}
100
AcDbDictionary
280
0
281
1
  3
Standard
350
18
  0
DICTIONARY
  5
19
102
{ACAD_REACTORS
330
C
102
}
100
AcDbDictionary
281
1
  0
DICTIONARY
  5
1A
102
{ACAD_REACTORS
330
C
102
}
100
AcDbDictionary
281
1
  3
Model
350
2BC
  3
Layout1
350
2BD
  0
ACDBPLACEHOLDER
  5
F
102
{ACAD_REACTORS
330
E
102
}
  0
MLINESTYLE
  5
18
102
{ACAD_REACTORS
330
17
102
}
100
AcDbMlineStyle
  2
STANDARD
 70
0
  3

 62
256
 51
90.0
 52
90.0
 71
2
 49
0.5
 62
256
  6
BYLAYER
 49
-0.5
 62
256
  6
BYLAYER
  0
LAYOUT
  5
2BC
102
{ACAD_REACTORS
330
1A
102
}
100
AcDbPlotSettings
  1

  2
none_device
  4
ISO_A4_(297.00_x_210.00_MM)
  6

 40
0.0
 41
0.0
 42
0.0
 43
0.0
 44
297.0
 45
210.0
 46
0.0
 47
0.0
 48
0.0
 49
0.0
140
0.0
141
0.0
142
1.0
143
1.0
 70
1024
 72
1
 73
0
 74
0
  7

 75
0
147
1.0
148
0.0
149
0.0
100
AcDbLayout
  1
Model
 70
0
 71
0
 10
0.0
 20
0.0
 11
297.0
 21
210.0
 12
0.0
 22
0.0
 32
0.0
 14
0.0
 24
0.0
 34
0.0
 15
0.0
 25
0.0
 35
0.0
146
0.0
 13
0.0
 23
0.0
 33
0.0
 16
1.0
 26
0.0
 36
0.0
 17
0.0
 27
1.0
 37
0.0
 76
0
330
213
345
0
346
0
  0
LAYOUT
  5
2BD
102
{ACAD_REACTORS
330
1A
102
}
100
AcDbPlotSettings
  1

  2
none_device
  4
ISO_A4_(297.00_x_210.00_MM)
  6

 40
0.0
 41
0.0
 42
0.0
 43
0.0
 44
297.0
 45
210.0
 46
0.0
 47
0.0
 48
0.0
 49
0.0
140
0.0
141
0.0
142
1.0
143
1.0
 70
0
 72
1
 73
0
 74
0
  7

 75
0
147
1.0
148
0.0
149
0.0
100
AcDbLayout
  1
Layout1
 70
0
 71
1
 10
0.0
 20
0.0
 11
297.0
 21
210.0
 12
0.0
 22
0.0
 32
0.0
 14
0.0
 24
0.0
 34
0.0
 15
0.0
 25
0.0
 35
0.0
146
0.0
 13
0.0
 23
0.0
 33
0.0
 16
1.0
 26
0.0
 36
0.0
 17
0.0
 27
1.0
 37
0.0
 76
0
330
214
345
0
346
0
  0
ENDSEC
  0
EOF
