  0
SECTION
  2
HEADER
  9
$ACADVER
  1
AC1015
  9
$DWGCODEPAGE
  3
ANSI_1252
  9
$EXTMAX
 10
297.0
 20
210.0
 30
0.0
  9
$EXTMIN
 10
0.0
 20
0.0
 30
0.0
  9
$LIMMIN
 10
0.0
 20
0.0
  9
$LIMMAX
 10
297.0
 20
210.0
  9
$VIEWCTR
 10
148.5
 20
105.0
  9
$VIEWSIZE
 40
210.0
  9
$CLAYER
  8
0
  9
$LTSCALE
 40
16.335
  9
$CELTYPE
  6
BYLAYER
  9
$DIMSCALE
 40
1.0
  9
$DIMASZ
 40
3.0
  9
$DIMEXO
 40
1.85625
  9
$DIMDLI
 40
11.286
  9
$DIMEXE
 40
5.346
  9
$DIMCEN
 40
2.673
  9
$DIMLFAC
 40
1.0
  9
$DIMBLK
  1
_FILLED
  9
$DIMTXT
 40
3.0
  9
$DIMTOL
 70
1
  9
$DIMLIM
 70
0
  9
$DIMTFAC
 40
1.0
  9
$DIMTP
 40
0.01
  9
$DIMTM
 40
0.01
  9
$PDMODE
 70
3
  9
$PDSIZE
 40
3.0
  9
$HANDSEED
  5
2B0
  9
$TILEMODE
 70
1
  9
$MEASUREMENT
 70
1
  9
$INSUNITS
 70
4
  0
ENDSEC
  0
SECTION
  2
CLASSES
  0
CLASS
  1
ACDBDICTIONARYWDFLT
  2
AcDbDictionaryWithDefault
  3
AutoCAD 2000
 90
0
280
0
281
0
  0
CLASS
  1
ACDBPLACEHOLDER
  2
AcDbPlaceHolder
  3
AutoCAD 2000
 90
0
280
0
281
0
  0
CLASS
  1
LAYOUT
  2
AcDbLayout
  3
AutoCAD 2000
 90
0
280
0
281
0
  0
ENDSEC
  0
SECTION
  2
TABLES
  0
TABLE
  2
VPORT
  5
8
100
AcDbSymbolTable
 70
2
  0
VPORT
  5
1F4
100
AcDbSymbolTableRecord
100
AcDbViewportTableRecord
  2
*ACTIVE
 70
0
 10
0.0
 20
0.0
 11
1.0
 21
1.0
 12
148.5
 22
105.0
 13
0.0
 23
0.0
 14
1.0
 24
1.0
 15
0.0
 25
0.0
 16
0.0
 26
0.0
 36
1.0
 17
0.0
 27
0.0
 37
0.0
 40
210.0
 41
1.4142857143
 42
50.0
 43
0.0
 44
0.0
 50
0.0
 51
0.0
 71
0
 72
100
 73
1
 74
1
 75
0
 76
0
 77
0
 78
0
  0
ENDTAB
  0
TABLE
  2
LTYPE
  5
5
100
AcDbSymbolTable
 70
6
  0
LTYPE
  5
14
100
AcDbSymbolTableRecord
100
AcDbLinetypeTableRecord
  2
BYBLOCK
 70
0
  3

 72
65
 73
0
 40
0.0
  0
LTYPE
  5
15
100
AcDbSymbolTableRecord
100
AcDbLinetypeTableRecord
  2
BYLAYER
 70
0
  3

 72
65
 73
0
 40
0.0
  0
LTYPE
  5
16
100
AcDbSymbolTableRecord
100
AcDbLinetypeTableRecord
  2
CONTINUOUS
 70
64
  3
Solid line
 72
65
 73
0
 40
0.0
  0
LTYPE
  5
1F5
100
AcDbSymbolTableRecord
100
AcDbLinetypeTableRecord
  2
CENTER
 70
64
  3
____ _ ____ _ ____ _ ____ _ ____ _ ____ _ ____
 72
65
 73
4
 40
0.6
 49
0.375
 74
0
 49
-0.075
 74
0
 49
0.075
 74
0
 49
-0.075
 74
0
  0
LTYPE
  5
1F6
100
AcDbSymbolTableRecord
100
AcDbLinetypeTableRecord
  2
HIDDEN
 70
64
  3
- - - - - - - - - - - - - - - - - - - -
 72
65
 73
2
 40
0.2
 49
0.1
 74
0
 49
-0.1
 74
0
  0
LTYPE
  5
1F7
100
AcDbSymbolTableRecord
100
AcDbLinetypeTableRecord
  2
PHANTOM
 70
64
  3
_____ _ _ _____ _ _ _____ _ _ _____
 72
65
 73
6
 40
0.8
 49
0.45
 74
0
 49
-0.05
 74
0
 49
0.1
 74
0
 49
-0.05
 74
0
 49
0.1
 74
0
 49
-0.05
 74
0
  0
LTYPE
  5
1F8
100
AcDbSymbolTableRecord
100
AcDbLinetypeTableRecord
  2
DOT
 70
64
  3
. . . . . . . . . . . . . . . . . . . .
 72
65
 73
2
 40
0.2
 49
0.1
 74
0
 49
-0.1
 74
0
  0
LTYPE
  5
1F9
100
AcDbSymbolTableRecord
100
AcDbLinetypeTableRecord
  2
DASHED
 70
64
  3
- - - - - - - - - - - - - - - - - - - -
 72
65
 73
2
 40
0.2
 49
0.1
 74
0
 49
-0.1
 74
0
  0
ENDTAB
  0
TABLE
  2
LAYER
  5
2
100
AcDbSymbolTable
 70
36
  0
LAYER
  5
10
100
AcDbSymbolTableRecord
100
AcDbLayerTableRecord
  2
0
 70
0
 62
7
  6
CONTINUOUS
370
-3
390
F
  0
LAYER
  5
1FA
100
AcDbSymbolTableRecord
100
AcDbLayerTableRecord
  2
DEFAULT_1
 70
0
 62
7
  6
CENTER
370
-3
390
F
  0
LAYER
  5
1FB
100
AcDbSymbolTableRecord
100
AcDbLayerTableRecord
  2
DEFAULT_2
 70
0
 62
7
  6
HIDDEN
370
-3
390
F
  0
LAYER
  5
1FC
100
AcDbSymbolTableRecord
100
AcDbLayerTableRecord
  2
DEFAULT_3
 70
0
 62
7
  6
PHANTOM
370
-3
390
F
  0
LAYER
  5
1FD
100
AcDbSymbolTableRecord
100
AcDbLayerTableRecord
  2
ASSI
 70
0
 62
7
  6
CONTINUOUS
370
-3
390
F
  0
LAYER
  5
1FE
100
AcDbSymbolTableRecord
100
AcDbLayerTableRecord
  2
COORDINATE
 70
0
 62
7
  6
CONTINUOUS
370
-3
390
F
  0
LAYER
  5
1FF
100
AcDbSymbolTableRecord
100
AcDbLayerTableRecord
  2
COORD_ORIGINE
 70
0
 62
7
  6
CONTINUOUS
370
-3
390
F
  0
LAYER
  5
200
100
AcDbSymbolTableRecord
100
AcDbLayerTableRecord
  2
COPY_PUBLISH
 70
0
 62
7
  6
CONTINUOUS
370
-3
390
F
  0
LAYER
  5
201
100
AcDbSymbolTableRecord
100
AcDbLayerTableRecord
  2
COSMETIC
 70
0
 62
7
  6
CONTINUOUS
370
-3
390
F
  0
LAYER
  5
202
100
AcDbSymbolTableRecord
100
AcDbLayerTableRecord
  2
CURVE
 70
0
 62
7
  6
CONTINUOUS
370
-3
390
F
  0
LAYER
  5
203
100
AcDbSymbolTableRecord
100
AcDbLayerTableRecord
  2
DRAFT
 70
0
 62
7
  6
CONTINUOUS
370
-3
390
F
  0
LAYER
  5
204
100
AcDbSymbolTableRecord
100
AcDbLayerTableRecord
  2
IGES
 70
0
 62
7
  6
CONTINUOUS
370
-3
390
F
  0
LAYER
  5
205
100
AcDbSymbolTableRecord
100
AcDbLayerTableRecord
  2
IMPORT_IGES
 70
0
 62
7
  6
CONTINUOUS
370
-3
390
F
  0
LAYER
  5
206
100
AcDbSymbolTableRecord
100
AcDbLayerTableRecord
  2
INTF_6
 70
0
 62
7
  6
CONTINUOUS
370
-3
390
F
  0
LAYER
  5
207
100
AcDbSymbolTableRecord
100
AcDbLayerTableRecord
  2
NOTE
 70
0
 62
7
  6
CONTINUOUS
370
-3
390
F
  0
LAYER
  5
208
100
AcDbSymbolTableRecord
100
AcDbLayerTableRecord
  2
PIANI
 70
0
 62
7
  6
CONTINUOUS
370
-3
390
F
  0
LAYER
  5
209
100
AcDbSymbolTableRecord
100
AcDbLayerTableRecord
  2
PIANI_ORIGINE
 70
0
 62
7
  6
CONTINUOUS
370
-3
390
F
  0
LAYER
  5
20A
100
AcDbSymbolTableRecord
100
AcDbLayerTableRecord
  2
PIANI_RIFERIMENTO
 70
0
 62
7
  6
CONTINUOUS
370
-3
390
F
  0
LAYER
  5
20B
100
AcDbSymbolTableRecord
100
AcDbLayerTableRecord
  2
PUNTI
 70
0
 62
7
  6
CONTINUOUS
370
-3
390
F
  0
LAYER
  5
20C
100
AcDbSymbolTableRecord
100
AcDbLayerTableRecord
  2
RACCORDO
 70
0
 62
7
  6
CONTINUOUS
370
-3
390
F
  0
LAYER
  5
20D
100
AcDbSymbolTableRecord
100
AcDbLayerTableRecord
  2
SMUSSO
 70
0
 62
7
  6
CONTINUOUS
370
-3
390
F
  0
LAYER
  5
20E
100
AcDbSymbolTableRecord
100
AcDbLayerTableRecord
  2
SUPERFICI
 70
0
 62
7
  6
CONTINUOUS
370
-3
390
F
  0
LAYER
  5
20F
100
AcDbSymbolTableRecord
100
AcDbLayerTableRecord
  2
TRASH
 70
0
 62
7
  6
CONTINUOUS
370
-3
390
F
  0
ENDTAB
  0
TABLE
  2
STYLE
  5
3
100
AcDbSymbolTable
 70
1
  0
STYLE
  5
11
100
AcDbSymbolTableRecord
100
AcDbTextStyleTableRecord
  2
STANDARD
 70
0
 40
0.0
 41
0.8
 50
0.0
 71
0
 42
0.2
  3
txt
  4

  0
STYLE
  5
210
100
AcDbSymbolTableRecord
100
AcDbTextStyleTableRecord
  2
TEXTSTYLE_1
 70
0
 40
0.0
 41
0.8
 50
0.0
 71
0
 42
0.2
  3
gdt
  4

  0
ENDTAB
  0
TABLE
  2
VIEW
  5
6
100
AcDbSymbolTable
 70
0
  0
ENDTAB
  0
TABLE
  2
UCS
  5
7
100
AcDbSymbolTable
 70
0
  0
ENDTAB
  0
TABLE
  2
APPID
  5
9
100
AcDbSymbolTable
 70
1
  0
APPID
  5
211
100
AcDbSymbolTableRecord
100
AcDbRegAppTableRecord
  2
ACAD
 70
0
  0
ENDTAB
  0
TABLE
  2
BLOCK_RECORD
  5
1
100
AcDbSymbolTable
 70
0
  0
BLOCK_RECORD
  5
212
100
AcDbSymbolTableRecord
100
AcDbBlockTableRecord
  2
*Model_Space
  0
BLOCK_RECORD
  5
213
100
AcDbSymbolTableRecord
100
AcDbBlockTableRecord
  2
*Paper_Space
  0
ENDTAB
  0
TABLE
  2
DIMSTYLE
  5
A
100
AcDbSymbolTable
 70
1
100
AcDbDimStyleTable
 71
0
  0
DIMSTYLE
105
214
100
AcDbSymbolTableRecord
100
AcDbDimStyleTableRecord
  2
STANDARD
 70
0
  3

  4

 40
1.0
 41
3.0
 42
0.0625
 43
0.38
 44
0.18
 45
0.0
 46
0.0
 47
0.01
 48
0.01
140
3.0
141
0.09
142
0.0
143
25.4
144
1.0
145
0.0
146
1.0
147
0.09
 71
1.0
 72
0.0
 73
0
 74
0
 75
0
 76
0
 77
1
 78
8
170
0
171
2
172
0
173
0
174
0
175
0
176
0
177
0
178
0
270
2
271
2
272
2
273
2
274
2
275
0
280
0
281
0
282
0
283
1
284
8
285
0
286
0
287
3
288
0
340
11
  0
ENDTAB
  0
ENDSEC
  0
SECTION
  2
BLOCKS
  0
BLOCK
  5
20
100
AcDbEntity
  8
0
100
AcDbBlockBegin
  2
*Model_Space
 70
0
 10
0.0
 20
0.0
 30
0.0
  3
*Model_Space
  1

  0
ENDBLK
  5
21
100
AcDbEntity
  8
0
100
AcDbBlockEnd
  0
BLOCK
  5
1C
100
AcDbEntity
  8
0
100
AcDbBlockBegin
  2
*Paper_Space
 70
0
 10
0.0
 20
0.0
 30
0.0
  3
*Paper_Space
  1

  0
ENDBLK
  5
1D
100
AcDbEntity
  8
0
100
AcDbBlockEnd
  0
ENDSEC
  0
SECTION
  2
ENTITIES
  0
LWPOLYLINE
  5
215
100
AcDbEntity
  8
RACCORDO
100
AcDbPolyline
 62
7
  6
CONTINUOUS
 90
19
 70
0
 10
-17.8085439637
 20
15.499802079
 10
-17.8269809354
 20
15.4890710083
 10
-17.8443471596
 20
15.4778482307
 10
-17.860645048
 20
15.4661749538
 10
-17.8759142965
 20
15.4540674326
 10
-17.8902097356
 20
15.4415186153
 10
-17.9035415632
 20
15.42855015
 10
-17.9159139382
 20
15.4151909667
 10
-17.9273479813
 20
15.4014486059
 10
-17.9378396027
 20
15.3873556908
 10
-17.9473883625
 20
15.3729441941
 10
-17.956004935
 20
15.3582302525
 10
-17.9636803138
 20
15.343262242
 10
-17.970416119
 20
15.3280743258
 10
-17.9762261723
 20
15.31266893
 10
-17.9811051438
 20
15.2970941034
 10
-17.9850523419
 20
15.2813949001
 10
-17.9880769273
 20
15.2655727521
 10
-17.9901522368
 20
15.2498506402
  0
LWPOLYLINE
  5
216
100
AcDbEntity
  8
ASSI
100
AcDbPolyline
 62
7
  6
CONTINUOUS
 90
11
 70
0
 10
-17.8008626324
 20
15.5039511687
 10
-17.8139243124
 20
15.496786688
 10
-17.8464815963
 20
15.4763860114
 10
-17.876213345
 20
15.4538176344
 10
-17.9029855417
 20
15.429118498
 10
-17.926511371
 20
15.402506593
 10
-17.9466591361
 20
15.3741080416
 10
-17.9632700766
 20
15.3441173469
 10
-17.9760684704
 20
15.3131249487
 10
-17.9849979305
 20
15.2816378354
 10
-17.9901477337
 20
15.2499383585
  0
LINE
  5
217
100
AcDbEntity
  8
RACCORDO
100
AcDbLine
 62
7
  6
CONTINUOUS
 10
-17.8009179043
 20
15.503921962
 11
-17.8085439637
 21
15.499802079
  0
LINE
  5
218
100
AcDbEntity
  8
RACCORDO
100
AcDbLine
 62
7
  6
CONTINUOUS
 10
-17.8009025832
 20
15.5039304606
 11
-14.1820862582
 21
17.4169931781
  0
LINE
  5
219
100
AcDbEntity
  8
ASSI
100
AcDbLine
 62
7
  6
CONTINUOUS
 10
-17.8009025832
 20
15.5039304606
 11
-14.1820862582
 21
17.4169931781
  0
LINE
  5
21A
100
AcDbEntity
  8
RACCORDO
100
AcDbLine
 62
253
  6
CONTINUOUS
 10
-17.7086653149
 20
15.4996981436
 11
-14.0911243628
 21
17.4120866438
  0
LINE
  5
21B
100
AcDbEntity
  8
ASSI
100
AcDbLine
 62
253
  6
CONTINUOUS
 10
-17.7086653149
 20
15.4996981436
 11
-14.0911243628
 21
17.4120866438
  0
LINE
  5
21C
100
AcDbEntity
  8
DRAFT
100
AcDbLine
 62
7
  6
CONTINUOUS
 10
-12.4028828753
 20
15.6432662188
 11
-13.4698682915
 21
14.957465197
  0
LINE
  5
21D
100
AcDbEntity
  8
ASSI
100
AcDbLine
 62
7
  6
CONTINUOUS
 10
-12.4028828753
 20
15.6432662188
 11
-13.4698682915
 21
14.957465197
  0
LINE
  5
21E
100
AcDbEntity
  8
DRAFT
100
AcDbLine
 62
7
  6
CONTINUOUS
 10
-12.4028828753
 20
16.5679659001
 11
-14.3386117371
 21
15.3918369198
  0
LINE
  5
21F
100
AcDbEntity
  8
ASSI
100
AcDbLine
 62
7
  6
CONTINUOUS
 10
-12.4028828753
 20
16.5679659001
 11
-14.3386117371
 21
15.3918369198
  0
LINE
  5
220
100
AcDbEntity
  8
ASSI
100
AcDbLine
 62
7
  6
CONTINUOUS
 10
-17.9901477337
 20
15.2499383585
 11
-17.9916277101
 21
15.2211091294
  0
LWPOLYLINE
  5
221
100
AcDbEntity
  8
RACCORDO
100
AcDbPolyline
 62
7
  6
CONTINUOUS
 90
3
 70
0
 10
-17.9901772706
 20
15.2496609901
 10
-17.9913513579
 20
15.2337242182
 10
-17.9916277813
 20
15.2211780788
  0
LWPOLYLINE
  5
222
100
AcDbEntity
  8
ASSI
100
AcDbPolyline
 62
7
  6
CONTINUOUS
 90
13
 70
0
 10
-17.6978419875
 20
-2.1325909418
 10
-17.6960201238
 20
-2.1716838839
 10
-17.686024249
 20
-2.2757322161
 10
-17.6688897927
 20
-2.3752440805
 10
-17.6448792737
 20
-2.4699386004
 10
-17.6142145071
 20
-2.5596819323
 10
-17.5770602947
 20
-2.6443855096
 10
-17.5336629367
 20
-2.7237228561
 10
-17.4843012751
 20
-2.797376751
 10
-17.4292425182
 20
-2.8650820409
 10
-17.3688970639
 20
-2.9264450049
 10
-17.3037544801
 20
-2.9810982029
 10
-17.2343478536
 20
-3.0287347671
  0
LWPOLYLINE
  5
223
100
AcDbEntity
  8
RACCORDO
100
AcDbPolyline
 62
7
  6
CONTINUOUS
 90
24
 70
0
 10
-17.6978429452
 20
-2.132562518
 10
-17.6960795912
 20
-2.1706823542
 10
-17.6921693293
 20
-2.2217502046
 10
-17.686530765
 20
-2.2719013176
 10
-17.6791749353
 20
-2.3211295815
 10
-17.6701199137
 20
-2.3693798941
 10
-17.6593986574
 20
-2.4165425626
 10
-17.6470328521
 20
-2.4625945457
 10
-17.6330461999
 20
-2.5075026477
 10
-17.617495233
 20
-2.5511442832
 10
-17.6004154094
 20
-2.5934924423
 10
-17.5818431369
 20
-2.6345198261
 10
-17.5618631503
 20
-2.6741074374
 10
-17.5405448638
 20
-2.7122023121
 10
-17.5179281472
 20
-2.7488121167
 10
-17.4940729951
 20
-2.7839078964
 10
-17.4690624067
 20
-2.8174383209
 10
-17.4429411755
 20
-2.849413131
 10
-17.4157119058
 20
-2.8798813289
 10
-17.3874382136
 20
-2.9088128747
 10
-17.3581820234
 20
-2.9361873079
 10
-17.3279333789
 20
-2.9620470375
 10
-17.2967558758
 20
-2.986361337
 10
-17.2647117026
 20
-3.0091059443
  0
LWPOLYLINE
  5
224
100
AcDbEntity
  8
RACCORDO
100
AcDbPolyline
 62
7
  6
CONTINUOUS
 90
3
 70
0
 10
-17.7859918586
 20
0.7289911309
 10
-17.7436647351
 20
-0.7097577808
 10
-17.6978431123
 20
-2.1325630215
  0
LWPOLYLINE
  5
225
100
AcDbEntity
  8
RACCORDO
100
AcDbPolyline
 62
7
  6
CONTINUOUS
 90
10
 70
0
 10
-17.9888809441
 20
13.7753118805
 10
-17.9821678094
 20
12.3172415839
 10
-17.9714967731
 20
10.8612519533
 10
-17.9568679135
 20
9.4073613415
 10
-17.9382814044
 20
7.9555859958
 10
-17.9157374306
 20
6.5059414695
 10
-17.8892362033
 20
5.0584438918
 10
-17.8587780043
 20
3.6131092567
 10
-17.8243631136
 20
2.1699529194
 10
-17.7859918586
 20
0.7289911309
  0
LWPOLYLINE
  5
226
100
AcDbEntity
  8
ASSI
100
AcDbPolyline
 62
7
  6
CONTINUOUS
 90
10
 70
0
 10
-17.9916283785
 20
15.2212009432
 10
-17.9872444752
 20
13.3283068531
 10
-17.9757055415
 20
11.3736738582
 10
-17.9570442387
 20
9.4228058671
 10
-17.9312609315
 20
7.4757438514
 10
-17.8983560855
 20
5.5325263426
 10
-17.8583302798
 20
3.5931911603
 10
-17.8111842155
 20
1.6577767221
 10
-17.7569188037
 20
-0.2736759308
 10
-17.6978431122
 20
-2.1325630243
  0
LINE
  5
227
100
AcDbEntity
  8
RACCORDO
100
AcDbLine
 62
7
  6
CONTINUOUS
 10
-17.9916283785
 20
15.2212009408
 11
-17.9888809441
 21
13.7753118805
  0
LINE
  5
228
100
AcDbEntity
  8
DRAFT
100
AcDbLine
 62
7
  6
CONTINUOUS
 10
-13.3840175825
 20
15.0126454301
 11
-13.3840175825
 21
14.9145398425
  0
LINE
  5
229
100
AcDbEntity
  8
ASSI
100
AcDbLine
 62
7
  6
CONTINUOUS
 10
-13.3840175825
 20
15.0126454301
 11
-13.3840175825
 21
14.9145398425
  0
LINE
  5
22A
100
AcDbEntity
  8
DRAFT
100
AcDbLine
 62
7
  6
CONTINUOUS
 10
-12.4028828753
 20
16.5679659001
 11
-12.4028828753
 21
15.6432662188
  0
LINE
  5
22B
100
AcDbEntity
  8
ASSI
100
AcDbLine
 62
7
  6
CONTINUOUS
 10
-12.4028828753
 20
16.5679659001
 11
-12.4028828753
 21
15.6432662188
  0
LWPOLYLINE
  5
22C
100
AcDbEntity
  8
RACCORDO
100
AcDbPolyline
 62
7
  6
CONTINUOUS
 90
19
 70
0
 10
13.6565463573
 20
-18.477251289
 10
13.6938457907
 20
-18.4930690311
 10
13.7320165719
 20
-18.5072430728
 10
13.7710140761
 20
-18.5197335565
 10
13.8108260592
 20
-18.530510319
 10
13.8513945278
 20
-18.5395308982
 10
13.8926520967
 20
-18.5467546317
 10
13.9345772
 20
-18.5521500248
 10
13.9771089972
 20
-18.5556809109
 10
14.0201818173
 20
-18.5573155983
 10
14.0637750624
 20
-18.5570244099
 10
14.1078258316
 20
-18.5547769339
 10
14.152276252
 20
-18.550547926
 10
14.1971240903
 20
-18.544305188
 10
14.2423181861
 20
-18.5360185013
 10
14.2877994013
 20
-18.5256628832
 10
14.333564633
 20
-18.5131994253
 10
14.3795812854
 20
-18.4985909583
 10
14.4257754627
 20
-18.4818165646
  0
LWPOLYLINE
  5
22D
100
AcDbEntity
  8
ASSI
100
AcDbPolyline
 62
7
  6
CONTINUOUS
 90
10
 70
0
 10
13.6235799357
 20
-18.461553559
 10
13.6805223735
 20
-18.4876478704
 10
13.7554686868
 20
-18.514989177
 10
13.8334169399
 20
-18.5357724237
 10
13.9139625113
 20
-18.54973821
 10
13.9968906611
 20
-18.5566714114
 10
14.0817491768
 20
-18.55634267
 10
14.1680680504
 20
-18.5485753456
 10
14.255728455
 20
-18.5331752839
 10
14.3444718484
 20
-18.5099254846
  0
LINE
  5
22E
100
AcDbEntity
  8
RACCORDO
100
AcDbLine
 62
7
  6
CONTINUOUS
 10
13.6244830565
 20
-18.4620064022
 11
13.6565463573
 21
-18.477251289
  0
LINE
  5
22F
100
AcDbEntity
  8
RACCORDO
100
AcDbLine
 62
7
  6
CONTINUOUS
 10
-17.1979913407
 20
-3.0499722745
 11
-17.1668407529
 21
-3.0663444989
  0
LINE
  5
230
100
AcDbEntity
  8
ASSI
100
AcDbLine
 62
7
  6
CONTINUOUS
 10
-17.2343478536
 20
-3.0287347671
 11
-17.1660359798
 21
-3.0667458068
  0
LWPOLYLINE
  5
231
100
AcDbEntity
  8
RACCORDO
100
AcDbPolyline
 62
7
  6
CONTINUOUS
 90
3
 70
0
 10
-17.2647117026
 20
-3.0091059443
 10
-17.2317794659
 20
-3.0303140013
 10
-17.1979913407
 20
-3.0499722745
  0
LINE
  5
232
100
AcDbEntity
  8
RACCORDO
100
AcDbLine
 62
7
  6
CONTINUOUS
 10
13.6246163657
 20
-18.4620730787
 11
-17.166963156
 21
-3.0662833179
  0
LINE
  5
233
100
AcDbEntity
  8
ASSI
100
AcDbLine
 62
7
  6
CONTINUOUS
 10
13.6246163657
 20
-18.4620730787
 11
-17.166963156
 21
-3.0662833179
  0
LINE
  5
234
100
AcDbEntity
  8
RACCORDO
100
AcDbLine
 62
7
  6
CONTINUOUS
 10
13.6244837635
 20
-18.4620067563
 11
13.6246160402
 21
-18.462072916
  0
LINE
  5
235
100
AcDbEntity
  8
RACCORDO
100
AcDbLine
 62
253
  6
CONTINUOUS
 10
13.2311471662
 20
-17.7014617648
 11
-17.5513796987
 21
-2.3101983325
  0
LINE
  5
236
100
AcDbEntity
  8
ASSI
100
AcDbLine
 62
253
  6
CONTINUOUS
 10
13.2311471662
 20
-17.7014617648
 11
-17.5513796987
 21
-2.3101983325
  0
LINE
  5
237
100
AcDbEntity
  8
DRAFT
100
AcDbLine
 62
7
  6
CONTINUOUS
 10
-2.6534180057
 20
5.0119453783
 11
-2.8237485392
 21
4.9220262645
  0
LINE
  5
238
100
AcDbEntity
  8
ASSI
100
AcDbLine
 62
7
  6
CONTINUOUS
 10
-2.9628722503
 20
4.9798344611
 11
-2.962459621
 21
4.9800297463
  0
LINE
  5
239
100
AcDbEntity
  8
RACCORDO
100
AcDbLine
 62
7
  6
CONTINUOUS
 10
-2.9625073798
 20
4.9800071676
 11
-2.962459621
 21
4.9800297463
  0
LWPOLYLINE
  5
23A
100
AcDbEntity
  8
ASSI
100
AcDbPolyline
 62
7
  6
CONTINUOUS
 90
28
 70
0
 10
-2.9628762373
 20
4.9798325532
 10
-2.9536475269
 20
4.9840733999
 10
-2.8942383855
 20
5.0054797723
 10
-2.8309808744
 20
5.0185130047
 10
-2.7638627005
 20
5.0230729744
 10
-2.6931138877
 20
5.018938329
 10
-2.6194493481
 20
5.0059613533
 10
-2.5437814681
 20
4.9842154146
 10
-2.4669692283
 20
4.953956866
 10
-2.389562572
 20
4.9154375298
 10
-2.3120226127
 20
4.8688864934
 10
-2.235078803
 20
4.8147386411
 10
-2.1592925851
 20
4.7534061651
 10
-2.0847960134
 20
4.6849419675
 10
-2.0120172875
 20
4.609586555
 10
-1.9417468626
 20
4.5280136928
 10
-1.8746169123
 20
4.4408682505
 10
-1.8111563131
 20
4.3487666735
 10
-1.7518835351
 20
4.25239945
 10
-1.6973313904
 20
4.1526023526
 10
-1.6479193544
 20
4.0501496187
 10
-1.6040064021
 20
3.9458077113
 10
-1.5659380621
 20
3.8404516137
 10
-1.5339701438
 20
3.7348913055
 10
-1.5083024811
 20
3.6299336282
 10
-1.4890934199
 20
3.5264735161
 10
-1.4764163444
 20
3.4253350986
 10
-1.4702714933
 20
3.3272394913
  0
LINE
  5
23B
100
AcDbEntity
  8
RACCORDO
100
AcDbLine
 62
7
  6
CONTINUOUS
 10
-2.9625115409
 20
4.9800051733
 11
-2.9558182454
 21
4.9830758949
  0
LWPOLYLINE
  5
23C
100
AcDbEntity
  8
RACCORDO
100
AcDbPolyline
 62
7
  6
CONTINUOUS
 90
61
 70
0
 10
-2.9558182454
 20
4.9830758949
 10
-2.9300086342
 20
4.9937664687
 10
-2.902961629
 20
5.0029331958
 10
-2.8752333249
 20
5.0103717468
 10
-2.8468489202
 20
5.0160944682
 10
-2.8178584866
 20
5.0201099039
 10
-2.7882346009
 20
5.0224319805
 10
-2.7580122759
 20
5.0230631868
 10
-2.7272474033
 20
5.0220076409
 10
-2.695945558
 20
5.0192663465
 10
-2.6641554384
 20
5.0148434834
 10
-2.6319352626
 20
5.0087473766
 10
-2.59930523
 20
5.0009788623
 10
-2.5663196294
 20
4.991548181
 10
-2.5330388473
 20
4.9804703354
 10
-2.4994897182
 20
4.9677493778
 10
-2.4657285614
 20
4.9534024684
 10
-2.4318150091
 20
4.9374512462
 10
-2.3977771131
 20
4.9199026162
 10
-2.3636709069
 20
4.9007797774
 10
-2.3295543419
 20
4.8801101247
 10
-2.2954548415
 20
4.8579024195
 10
-2.2614269908
 20
4.834184644
 10
-2.2275273703
 20
4.8089894078
 10
-2.1937839356
 20
4.7823277755
 10
-2.1602441136
 20
4.7542270557
 10
-2.1269692475
 20
4.7247293951
 10
-2.0940064209
 20
4.6938660157
 10
-2.0614041655
 20
4.6616726066
 10
-2.02921926
 20
4.628196637
 10
-1.997509092
 20
4.5934885522
 10
-1.9663239506
 20
4.5575959117
 10
-1.9357131123
 20
4.5205693988
 10
-1.9057300671
 20
4.4824665778
 10
-1.8764216475
 20
4.4433412957
 10
-1.8478334207
 20
4.4032505067
 10
-1.8200146843
 20
4.3622583327
 10
-1.7930082204
 20
4.3204240605
 10
-1.7668550217
 20
4.2778096473
 10
-1.7415994565
 20
4.234484727
 10
-1.7172797474
 20
4.1905133189
 10
-1.693931416
 20
4.1459608457
 10
-1.6715926321
 20
4.1009002022
 10
-1.6502969193
 20
4.0554001049
 10
-1.6300732774
 20
4.0095270537
 10
-1.6109514164
 20
3.9633513979
 10
-1.5929588964
 20
3.9169430576
 10
-1.5761192876
 20
3.8703706749
 10
-1.5604553033
 20
3.8237033251
 10
-1.5459881223
 20
3.7770100481
 10
-1.5327359921
 20
3.7303616248
 10
-1.5207162661
 20
3.6838305634
 10
-1.5099434153
 20
3.6374841951
 10
-1.5004294702
 20
3.5913950647
 10
-1.4921861657
 20
3.5456444103
 10
-1.4852209255
 20
3.5003008229
 10
-1.479537439
 20
3.4554308556
 10
-1.4751387534
 20
3.4111133066
 10
-1.4720244793
 20
3.3674183518
 10
-1.4701893054
 20
3.3244105
 10
-1.469661326
 20
3.2946454411
  0
LWPOLYLINE
  5
23D
100
AcDbEntity
  8
RACCORDO
100
AcDbPolyline
 62
7
  6
CONTINUOUS
 90
3
 70
0
 10
-1.7172335212
 20
2.6559901925
 10
-1.7400107656
 20
2.6406648729
 10
-1.7638023617
 20
2.6267921071
  0
LINE
  5
23E
100
AcDbEntity
  8
RACCORDO
100
AcDbLine
 62
7
  6
CONTINUOUS
 10
-1.7638023617
 20
2.6267921071
 11
-1.7674115226
 21
2.6248642553
  0
LINE
  5
23F
100
AcDbEntity
  8
ASSI
100
AcDbLine
 62
7
  6
CONTINUOUS
 10
-1.7666234015
 20
2.6252810204
 11
-1.7674148042
 21
2.6248622939
  0
LINE
  5
240
100
AcDbEntity
  8
DRAFT
100
AcDbLine
 62
7
  6
CONTINUOUS
 10
-1.5580054285
 20
2.8514517202
 11
-1.7444055895
 21
2.7633403635
  0
LWPOLYLINE
  5
241
100
AcDbEntity
  8
ASSI
100
AcDbPolyline
 62
7
  6
CONTINUOUS
 90
12
 70
0
 10
-1.4709458806
 20
3.2246989069
 10
-1.4774977513
 20
3.1413204725
 10
-1.4894334066
 20
3.0622411049
 10
-1.5065982756
 20
2.9879423892
 10
-1.5287760338
 20
2.9189327887
 10
-1.5556633419
 20
2.8557262349
 10
-1.5868956353
 20
2.7987245433
 10
-1.6221589416
 20
2.7480843158
 10
-1.6612176096
 20
2.7038362056
 10
-1.7037070307
 20
2.6661342378
 10
-1.7494312786
 20
2.6349235763
 10
-1.7666320835
 20
2.6252766847
  0
LINE
  5
242
100
AcDbEntity
  8
ASSI
100
AcDbLine
 62
7
  6
CONTINUOUS
 10
-1.4702714933
 20
3.3272394913
 11
-1.4696615414
 21
3.2946783587
  0
LWPOLYLINE
  5
243
100
AcDbEntity
  8
RACCORDO
100
AcDbPolyline
 62
7
  6
CONTINUOUS
 90
23
 70
0
 10
-1.4696612003
 20
3.2946412441
 10
-1.469715657
 20
3.2686902424
 10
-1.4707334165
 20
3.2296636177
 10
-1.4728792707
 20
3.1913234576
 10
-1.4761500724
 20
3.1537433675
 10
-1.4805406523
 20
3.1169677412
 10
-1.4860482024
 20
3.0810199098
 10
-1.4926664981
 20
3.0459549877
 10
-1.5003860264
 20
3.0118276508
 10
-1.509201288
 20
2.9786677668
 10
-1.5191009588
 20
2.9465316245
 10
-1.5300708803
 20
2.9154729762
 10
-1.5421017348
 20
2.8855229296
 10
-1.5551766322
 20
2.8567336862
 10
-1.5692768235
 20
2.82915416
 10
-1.5843901601
 20
2.8028127322
 10
-1.6004927097
 20
2.7777592846
 10
-1.6175658669
 20
2.7540300878
 10
-1.6356090398
 20
2.7316339274
 10
-1.6545972325
 20
2.7106150466
 10
-1.6745181563
 20
2.6910003211
 10
-1.6954020092
 20
2.6727784409
 10
-1.7172335212
 20
2.6559901925
  0
LINE
  5
244
100
AcDbEntity
  8
ASSI
100
AcDbLine
 62
7
  6
CONTINUOUS
 10
-1.4696610904
 20
3.2946268446
 11
-1.4709458806
 21
3.2246989069
  0
LINE
  5
245
100
AcDbEntity
  8
DRAFT
100
AcDbLine
 62
7
  6
CONTINUOUS
 10
15.5454645545
 20
2.5937921852
 11
13.2385527292
 21
1.6032546867
  0
LINE
  5
246
100
AcDbEntity
  8
ASSI
100
AcDbLine
 62
7
  6
CONTINUOUS
 10
15.5454645545
 20
2.5937921852
 11
13.2385527292
 21
1.6032546867
  0
LINE
  5
247
100
AcDbEntity
  8
RACCORDO
100
AcDbLine
 62
253
  6
CONTINUOUS
 10
17.2337060421
 20
1.7496714414
 11
13.4876327248
 21
-0.0984508762
  0
LINE
  5
248
100
AcDbEntity
  8
ASSI
100
AcDbLine
 62
253
  6
CONTINUOUS
 10
17.2337060421
 20
1.7496714414
 11
13.4876327248
 21
-0.0984508762
  0
LINE
  5
249
100
AcDbEntity
  8
RACCORDO
100
AcDbLine
 62
253
  6
CONTINUOUS
 10
17.3751273991
 20
1.5057754667
 11
13.6277985174
 21
-0.3429662827
  0
LINE
  5
24A
100
AcDbEntity
  8
ASSI
100
AcDbLine
 62
253
  6
CONTINUOUS
 10
17.3751273991
 20
1.5057754667
 11
13.6277985174
 21
-0.3429662827
  0
LINE
  5
24B
100
AcDbEntity
  8
RACCORDO
100
AcDbLine
 62
253
  6
CONTINUOUS
 10
12.9269083795
 20
-0.3422513283
 11
-17.8451725974
 21
15.0437891602
  0
LINE
  5
24C
100
AcDbEntity
  8
ASSI
100
AcDbLine
 62
253
  6
CONTINUOUS
 10
12.9269083795
 20
-0.3422513283
 11
-17.8451725974
 21
15.0437891602
  0
LINE
  5
24D
100
AcDbEntity
  8
RACCORDO
100
AcDbLine
 62
253
  6
CONTINUOUS
 10
13.0671044098
 20
-0.0988430522
 11
-17.7049942192
 21
15.2872062623
  0
LINE
  5
24E
100
AcDbEntity
  8
ASSI
100
AcDbLine
 62
253
  6
CONTINUOUS
 10
13.0671044098
 20
-0.0988430522
 11
-17.7049942192
 21
15.2872062623
  0
LINE
  5
24F
100
AcDbEntity
  8
DRAFT
100
AcDbLine
 62
7
  6
CONTINUOUS
 10
-14.3386117371
 20
15.3918369198
 11
13.2385527292
 21
1.6032546867
  0
LINE
  5
250
100
AcDbEntity
  8
ASSI
100
AcDbLine
 62
7
  6
CONTINUOUS
 10
-14.3386117371
 20
15.3918369198
 11
13.2385527292
 21
1.6032546867
  0
LINE
  5
251
100
AcDbEntity
  8
RACCORDO
100
AcDbLine
 62
7
  6
CONTINUOUS
 10
-14.0911243628
 20
17.4120866438
 11
-12.4028828753
 21
16.5679659001
  0
LINE
  5
252
100
AcDbEntity
  8
ASSI
100
AcDbLine
 62
7
  6
CONTINUOUS
 10
-14.0911243628
 20
17.4120866438
 11
-12.4028828753
 21
16.5679659001
  0
LINE
  5
253
100
AcDbEntity
  8
RACCORDO
100
AcDbLine
 62
7
  6
CONTINUOUS
 10
15.5454645545
 20
2.5937921852
 11
17.2337060421
 21
1.7496714414
  0
LINE
  5
254
100
AcDbEntity
  8
ASSI
100
AcDbLine
 62
7
  6
CONTINUOUS
 10
15.5454645545
 20
2.5937921852
 11
17.2337060421
 21
1.7496714414
  0
LINE
  5
255
100
AcDbEntity
  8
RACCORDO
100
AcDbLine
 62
7
  6
CONTINUOUS
 10
17.3751273991
 20
1.5057754667
 11
17.3751273991
 21
-9.5793694863
  0
LINE
  5
256
100
AcDbEntity
  8
ASSI
100
AcDbLine
 62
7
  6
CONTINUOUS
 10
17.3751273991
 20
1.5057754667
 11
17.3751273991
 21
-9.5793694863
  0
LINE
  5
257
100
AcDbEntity
  8
RACCORDO
100
AcDbLine
 62
7
  6
CONTINUOUS
 10
17.3751273991
 20
-9.5793694863
 11
16.8362435895
 21
-17.2539278033
  0
LINE
  5
258
100
AcDbEntity
  8
ASSI
100
AcDbLine
 62
7
  6
CONTINUOUS
 10
17.3751273991
 20
-9.5793694863
 11
16.8362435895
 21
-17.2539278033
  0
LINE
  5
259
100
AcDbEntity
  8
RACCORDO
100
AcDbLine
 62
253
  6
CONTINUOUS
 10
14.6129187084
 20
-18.18718928
 11
16.8362435895
 21
-17.2539278033
  0
LINE
  5
25A
100
AcDbEntity
  8
ASSI
100
AcDbLine
 62
253
  6
CONTINUOUS
 10
14.6129187084
 20
-18.18718928
 11
16.8362435895
 21
-17.2539278033
  0
LWPOLYLINE
  5
25B
100
AcDbEntity
  8
ASSI
100
AcDbPolyline
 62
7
  6
CONTINUOUS
 90
3
 70
0
 10
14.3444718484
 20
-18.5099254846
 10
14.4337959907
 20
-18.4786869651
 10
14.4589272217
 20
-18.4684620666
  0
LINE
  5
25C
100
AcDbEntity
  8
RACCORDO
100
AcDbLine
 62
7
  6
CONTINUOUS
 10
14.4591114629
 20
-18.4683849784
 11
16.6699201525
 21
-17.5403772905
  0
LINE
  5
25D
100
AcDbEntity
  8
ASSI
100
AcDbLine
 62
7
  6
CONTINUOUS
 10
14.4591114629
 20
-18.4683849784
 11
16.6699201525
 21
-17.5403772905
  0
LINE
  5
25E
100
AcDbEntity
  8
RACCORDO
100
AcDbLine
 62
7
  6
CONTINUOUS
 10
14.4257754627
 20
-18.4818165646
 11
14.4590973939
 21
-18.4683907447
  0
ARC
  5
25F
100
AcDbEntity
  8
RACCORDO
100
AcDbCircle
 62
253
  6
CONTINUOUS
 10
531.4607403147
 20
-0.0437640264
 40
518.5339178454
100
AcDbArc
 50
180.0329815717
 51
180.338577645
  0
ARC
  5
260
100
AcDbEntity
  8
ASSI
100
AcDbCircle
 62
253
  6
CONTINUOUS
 10
531.4607403147
 20
-0.0437640264
 40
518.5339178454
100
AcDbArc
 50
180.0329815717
 51
180.338577645
  0
ARC
  5
261
100
AcDbEntity
  8
RACCORDO
100
AcDbCircle
 62
253
  6
CONTINUOUS
 10
524.3346686921
 20
-0.0959201558
 40
510.7068844478
100
AcDbArc
 50
180.0277158976
 51
181.2619465208
  0
ARC
  5
262
100
AcDbEntity
  8
ASSI
100
AcDbCircle
 62
253
  6
CONTINUOUS
 10
524.3346686921
 20
-0.0959201558
 40
510.7068844478
100
AcDbArc
 50
180.0277158976
 51
181.2619465208
  0
ARC
  5
263
100
AcDbEntity
  8
RACCORDO
100
AcDbCircle
 62
253
  6
CONTINUOUS
 10
513.8081042272
 20
-0.3208835806
 40
500.1779344108
100
AcDbArc
 50
181.2627393564
 51
181.9896878284
  0
ARC
  5
264
100
AcDbEntity
  8
ASSI
100
AcDbCircle
 62
253
  6
CONTINUOUS
 10
513.8081042272
 20
-0.3208835806
 40
500.1779344108
100
AcDbArc
 50
181.2627393564
 51
181.9896878284
  0
ARC
  5
265
100
AcDbEntity
  8
RACCORDO
100
AcDbCircle
 62
253
  6
CONTINUOUS
 10
-3.0417904217
 20
3.2458065782
 40
1.6014957667
100
AcDbArc
 50
1.7691524398
 51
3.7642664723
  0
ARC
  5
266
100
AcDbEntity
  8
ASSI
100
AcDbCircle
 62
253
  6
CONTINUOUS
 10
-3.0417904217
 20
3.2458065782
 40
1.6014957667
100
AcDbArc
 50
1.7691524398
 51
3.7642664723
  0
ARC
  5
267
100
AcDbEntity
  8
RACCORDO
100
AcDbCircle
 62
253
  6
CONTINUOUS
 10
-2.9757320209
 20
3.2479792372
 40
1.5354017841
100
AcDbArc
 50
0.4200341242
 51
1.7642182
  0
ARC
  5
268
100
AcDbEntity
  8
ASSI
100
AcDbCircle
 62
253
  6
CONTINUOUS
 10
-2.9757320209
 20
3.2479792372
 40
1.5354017841
100
AcDbArc
 50
0.4200341242
 51
1.7642182
  0
ARC
  5
269
100
AcDbEntity
  8
ASSI
100
AcDbCircle
 62
253
  6
CONTINUOUS
 10
-2.912976375
 20
3.2483950629
 40
1.4726447768
100
AcDbArc
 50
358.6776129422
 51
0.4217554206
  0
ARC
  5
26A
100
AcDbEntity
  8
RACCORDO
100
AcDbCircle
 62
7
  6
CONTINUOUS
 10
-1.8233476113
 20
3.7826515128
 40
1.1007054639
100
AcDbArc
 50
237.1726665365
 51
240.9484598453
  0
ARC
  5
26B
100
AcDbEntity
  8
RACCORDO
100
AcDbCircle
 62
7
  6
CONTINUOUS
 10
-1.8567548028
 20
3.7231048747
 40
1.0324284262
100
AcDbArc
 50
240.9644641986
 51
243.4252663162
  0
ARC
  5
26C
100
AcDbEntity
  8
RACCORDO
100
AcDbCircle
 62
253
  6
CONTINUOUS
 10
-16.9170914481
 20
-2.5678039328
 40
0.5576173384
100
AcDbArc
 50
236.7290897213
 51
238.815240269
  0
ARC
  5
26D
100
AcDbEntity
  8
RACCORDO
100
AcDbCircle
 62
253
  6
CONTINUOUS
 10
-16.9187253551
 20
-2.5704896033
 40
0.5544737057
100
AcDbArc
 50
238.8159813801
 51
240.0279649063
  0
ARC
  5
26E
100
AcDbEntity
  8
ASSI
100
AcDbCircle
 62
253
  6
CONTINUOUS
 10
-16.9206043752
 20
-2.5737168703
 40
0.5507398195
100
AcDbArc
 50
238.809372773
 51
243.4279550194
  0
ARC
  5
26F
100
AcDbEntity
  8
RACCORDO
100
AcDbCircle
 62
253
  6
CONTINUOUS
 10
-16.9212532791
 20
-2.5749416384
 40
0.549354152
100
AcDbArc
 50
240.0243904081
 51
243.4313441623
  0
ARC
  5
270
100
AcDbEntity
  8
RACCORDO
100
AcDbCircle
 62
253
  6
CONTINUOUS
 10
-1.9934856406
 20
3.0529155631
 40
0.4840821
100
AcDbArc
 50
291.9782690748
 51
297.840198885
  0
SPLINE
  5
271
100
AcDbEntity
  8
RACCORDO
100
AcDbSpline
 62
7
  6
CONTINUOUS
 70
0
 71
3
 72
10
 73
6
 74
4
 42
0.0000001
 43
0.0000001
 44
0.0000000001
 12
0.5309507646
 22
-0.2654753776
 32
0.0
 13
0.5366819963
 23
0.2536896016
 33
0.0
 40
0.0
 40
0.0
 40
0.0
 40
0.0
 40
0.3683960887
 40
0.69741576
 40
1.0
 40
1.0
 40
1.0
 40
1.0
 10
-2.318626877
 20
2.7997508569
 30
0.0
 10
-2.2534268154
 20
2.7671508267
 30
0.0
 10
-2.1223415624
 20
2.7185712001
 30
0.0
 10
-1.9219938928
 20
2.7043687892
 30
0.0
 10
-1.7985359721
 20
2.7377529294
 30
0.0
 10
-1.7444054674
 20
2.7633404212
 30
0.0
 11
-2.318626877
 21
2.7997508569
 31
0.0
 11
-2.1125295303
 21
2.7266196479
 31
0.0
 11
-1.9175340856
 21
2.7154868618
 31
0.0
 11
-1.7444054674
 21
2.7633404212
 31
0.0
  0
SPLINE
  5
272
100
AcDbEntity
  8
RACCORDO
100
AcDbSpline
 62
7
  6
CONTINUOUS
 70
0
 71
3
 72
14
 73
10
 74
8
 42
0.0000001
 43
0.0000001
 44
0.0000000001
 12
-2.1334127319
 22
-1.1262489471
 32
0.0
 13
2.0328953942
 23
-1.3102034695
 33
0.0
 40
0.0
 40
0.0
 40
0.0
 40
0.0
 40
0.1126354234
 40
0.2431064815
 40
0.3946442942
 40
0.5607875776
 40
0.7319683022
 40
0.897607205
 40
1.0
 40
1.0
 40
1.0
 40
1.0
 10
-2.8237483803
 20
4.9220263484
 30
0.0
 10
-2.9038476624
 20
4.8797411727
 30
0.0
 10
-3.0526307798
 20
4.73830177
 30
0.0
 10
-3.1604211679
 20
4.430891502
 30
0.0
 10
-3.1617248484
 20
4.0656963278
 30
0.0
 10
-3.0644720303
 20
3.6812733463
 30
0.0
 10
-2.8822476065
 20
3.3166909084
 30
0.0
 10
-2.6590741255
 20
3.0395219653
 30
0.0
 10
-2.4894347268
 20
2.9024382816
 30
0.0
 10
-2.420050113
 20
2.8577198165
 30
0.0
 11
-2.8237483803
 21
4.9220263484
 31
0.0
 11
-3.02403072
 21
4.7383898234
 31
0.0
 11
-3.1383558058
 21
4.4451323998
 31
0.0
 11
-3.147091822
 21
4.0796603362
 31
0.0
 11
-3.0521058556
 21
3.6902667133
 31
0.0
 11
-2.8675536511
 21
3.3208351902
 31
0.0
 11
-2.6141640504
 21
3.0118537798
 31
0.0
 11
-2.420050113
 21
2.8577198165
 31
0.0
  0
SPLINE
  5
273
100
AcDbEntity
  8
RACCORDO
100
AcDbSpline
 62
253
  6
CONTINUOUS
 70
0
 71
3
 72
9
 73
5
 74
3
 42
0.0000001
 43
0.0000001
 44
0.0000000001
 12
0.3391227322
 22
0.1616815324
 32
0.0
 13
0.1507748204
 23
0.3442739141
 33
0.0
 40
0.0
 40
0.0
 40
0.0
 40
0.0
 40
0.6219775114
 40
1.0
 40
1.0
 40
1.0
 40
1.0
 10
-1.7444133132
 20
2.7633706645
 30
0.0
 10
-1.6741044089
 20
2.7968914235
 30
0.0
 10
-1.5752336827
 20
2.8817685556
 30
0.0
 10
-1.5132913407
 20
2.9911653332
 30
0.0
 10
-1.4942925831
 20
3.0345464272
 30
0.0
 11
-1.7444133132
 21
2.7633706645
 31
0.0
 11
-1.5653996404
 21
2.9119603309
 31
0.0
 11
-1.4942925831
 21
3.0345464272
 31
0.0
  0
SPLINE
  5
274
100
AcDbEntity
  8
RACCORDO
100
AcDbSpline
 62
253
  6
CONTINUOUS
 70
0
 71
3
 72
8
 73
4
 74
2
 42
0.0000001
 43
0.0000001
 44
0.0000000001
 12
0.0835988337
 22
-0.0417994168
 32
0.0
 13
0.0882735387
 23
-0.032464483
 33
0.0
 40
0.0
 40
0.0
 40
0.0
 40
0.0
 40
1.0
 40
1.0
 40
1.0
 40
1.0
 10
-2.3441728592
 20
2.8443773306
 30
0.0
 10
-2.3163065813
 20
2.8304441917
 30
0.0
 10
-2.2875752739
 20
2.8178189875
 30
0.0
 10
-2.2581507611
 20
2.8069974932
 30
0.0
 11
-2.3441728592
 21
2.8443773306
 31
0.0
 11
-2.2581507611
 21
2.8069974932
 31
0.0
  0
SPLINE
  5
275
100
AcDbEntity
  8
RACCORDO
100
AcDbSpline
 62
253
  6
CONTINUOUS
 70
0
 71
3
 72
10
 73
6
 74
4
 42
0.0000001
 43
0.0000001
 44
0.0000000001
 12
0.4497329471
 22
-0.165398916
 32
0.0
 13
0.3975809252
 23
0.2706053485
 33
0.0
 40
0.0
 40
0.0
 40
0.0
 40
0.0
 40
0.3604798126
 40
0.8430695357
 40
1.0
 40
1.0
 40
1.0
 40
1.0
 10
-2.2581507611
 20
2.8069974932
 30
0.0
 10
-2.2041108782
 20
2.7871231698
 30
0.0
 10
-2.072257166
 20
2.7548707484
 30
0.0
 10
-1.9075959669
 20
2.7760109755
 30
0.0
 10
-1.8180984426
 20
2.8262356385
 30
0.0
 10
-1.7973009229
 20
2.8403910461
 30
0.0
 11
-2.2581507611
 21
2.8069974932
 31
0.0
 11
-2.0900810499
 21
2.768697149
 31
0.0
 11
-1.8629734468
 21
2.8037967993
 31
0.0
 11
-1.7973009229
 21
2.8403910461
 31
0.0
  0
SPLINE
  5
276
100
AcDbEntity
  8
RACCORDO
100
AcDbSpline
 62
253
  6
CONTINUOUS
 70
0
 71
3
 72
20
 73
16
 74
14
 42
0.0000001
 43
0.0000001
 44
0.0000000001
 12
1.9147547356
 22
1.3032387614
 32
0.0
 13
-2.0512188492
 23
1.0256094246
 33
0.0
 40
0.0
 40
0.0
 40
0.0
 40
0.0
 40
0.0662565476
 40
0.172252553
 40
0.2807617212
 40
0.3876493116
 40
0.4891401078
 40
0.5827829581
 40
0.667365994
 40
0.7427209878
 40
0.8091277958
 40
0.8672357412
 40
0.9178505631
 40
0.9617902467
 40
1.0
 40
1.0
 40
1.0
 40
1.0
 10
-1.7973009229
 20
2.8403910461
 30
0.0
 10
-1.7550125768
 20
2.8691737465
 30
0.0
 10
-1.6575844654
 20
2.963682103
 30
0.0
 10
-1.571463525
 20
3.1659879506
 30
0.0
 10
-1.5450902639
 20
3.4124604011
 30
0.0
 10
-1.5692066853
 20
3.6548018508
 30
0.0
 10
-1.6276184165
 20
3.8789284454
 30
0.0
 10
-1.7076858752
 20
4.0777423959
 30
0.0
 10
-1.7998384137
 20
4.2486971127
 30
0.0
 10
-1.8971558266
 20
4.3921025322
 30
0.0
 10
-1.9948427506
 20
4.5098785701
 30
0.0
 10
-2.0896513868
 20
4.6046670756
 30
0.0
 10
-2.1795058165
 20
4.6793918346
 30
0.0
 10
-2.2632158424
 20
4.7370099586
 30
0.0
 10
-2.3180473371
 20
4.7678307415
 30
0.0
 10
-2.3441728592
 20
4.7808935025
 30
0.0
 11
-1.7973009229
 21
2.8403910461
 31
0.0
 11
-1.6866590354
 21
2.9462595112
 31
0.0
 11
-1.5840025483
 21
3.1666035876
 31
0.0
 11
-1.5536028848
 21
3.4135873595
 31
0.0
 11
-1.5760486484
 21
3.6576863215
 31
0.0
 11
-1.6340370218
 21
3.8830990601
 31
0.0
 11
-1.7140755927
 21
4.0823807348
 31
0.0
 11
-1.806168689
 21
4.2531025679
 31
0.0
 11
-1.9033584325
 21
4.3959971059
 31
0.0
 11
-2.000762096
 21
4.513068233
 31
0.0
 11
-2.0951743536
 21
4.6071148986
 31
0.0
 11
-2.1845708423
 21
4.6811557479
 31
0.0
 11
-2.267696926
 21
4.7381145437
 31
0.0
 11
-2.3441728592
 21
4.7808935025
 31
0.0
  0
SPLINE
  5
277
100
AcDbEntity
  8
RACCORDO
100
AcDbSpline
 62
253
  6
CONTINUOUS
 70
0
 71
3
 72
22
 73
18
 74
16
 42
0.0000001
 43
0.0000001
 44
0.0000000001
 12
-2.5607350466
 22
1.2803675233
 32
0.0
 13
2.5607350466
 23
-1.2803675233
 33
0.0
 40
0.0
 40
0.0
 40
0.0
 40
0.0
 40
0.0926031929
 40
0.1728708975
 40
0.252045775
 40
0.3369516027
 40
0.4238704212
 40
0.5094903106
 40
0.590787205
 40
0.6657976871
 40
0.733551015
 40
0.7939124321
 40
0.8471061098
 40
0.8936521728
 40
0.9341960337
 40
0.9693929376
 40
1.0
 40
1.0
 40
1.0
 40
1.0
 10
-2.3441728592
 20
4.7808935025
 30
0.0
 10
-2.4232169396
 20
4.8204155427
 30
0.0
 10
-2.5837684549
 20
4.8745507203
 30
0.0
 10
-2.8332917549
 20
4.842514032
 30
0.0
 10
-3.0207663508
 20
4.6850681229
 30
0.0
 10
-3.1168829424
 20
4.4592826709
 30
0.0
 10
-3.1432561185
 20
4.2128100833
 30
0.0
 10
-3.1191398279
 20
3.9704686192
 30
0.0
 10
-3.0607278866
 20
3.7463420796
 30
0.0
 10
-2.9806603455
 20
3.5475281794
 30
0.0
 10
-2.8885076638
 20
3.3765735342
 30
0.0
 10
-2.7911901615
 20
3.2331681625
 30
0.0
 10
-2.6935031616
 20
3.1153921591
 30
0.0
 10
-2.5986944436
 20
3.0206037142
 30
0.0
 10
-2.5088400073
 20
2.9458789203
 30
0.0
 10
-2.4251298954
 20
2.8882608814
 30
0.0
 10
-2.370298385
 20
2.8574400936
 30
0.0
 10
-2.3441728592
 20
2.8443773306
 30
0.0
 11
-2.3441728592
 21
4.7808935025
 31
0.0
 11
-2.5982634834
 21
4.8565742767
 31
0.0
 11
-2.8253725941
 21
4.8214738725
 31
0.0
 11
-3.0016869465
 21
4.6790111902
 31
0.0
 11
-3.1043438478
 21
4.4586669067
 31
0.0
 11
-3.1347435359
 21
4.2116831224
 31
0.0
 11
-3.1122978034
 21
3.9675841448
 31
0.0
 11
-3.0543092991
 21
3.7421714717
 31
0.0
 11
-2.9742706151
 21
3.5428898536
 31
0.0
 11
-2.8821773937
 21
3.3721680831
 31
0.0
 11
-2.7849875552
 21
3.2292735925
 31
0.0
 11
-2.6875838115
 21
3.1122025055
 31
0.0
 11
-2.5931714849
 21
3.0181558744
 31
0.0
 11
-2.5037749743
 21
2.9441150362
 31
0.0
 11
-2.4206488123
 21
2.8871562795
 31
0.0
 11
-2.3441728592
 21
2.8443773306
 31
0.0
  0
SPLINE
  5
278
100
AcDbEntity
  8
RACCORDO
100
AcDbSpline
 62
253
  6
CONTINUOUS
 70
0
 71
3
 72
10
 73
6
 74
4
 42
0.0000001
 43
0.0000001
 44
0.0000000001
 12
-0.3309011026
 22
0.0559207195
 32
0.0
 13
-0.2957943124
 23
-0.1580556585
 33
0.0
 40
0.0
 40
0.0
 40
0.0
 40
0.0
 40
0.158594754
 40
0.9032710887
 40
1.0
 40
1.0
 40
1.0
 40
1.0
 10
-2.4965429963
 20
4.9673881266
 30
0.0
 10
-2.5140360559
 20
4.9703443708
 30
0.0
 10
-2.614455476
 20
4.9830447553
 30
0.0
 10
-2.7296424263
 20
4.9682649748
 30
0.0
 10
-2.8141564763
 20
4.927020163
 30
0.0
 10
-2.8236937635
 20
4.9219239791
 30
0.0
 11
-2.4965429963
 21
4.9673881266
 31
0.0
 11
-2.549410757
 21
4.9740011147
 31
0.0
 11
-2.7945608688
 21
4.9361225227
 31
0.0
 11
-2.8236937635
 21
4.9219239791
 31
0.0
  0
SPLINE
  5
279
100
AcDbEntity
  8
RACCORDO
100
AcDbSpline
 62
253
  6
CONTINUOUS
 70
0
 71
3
 72
11
 73
7
 74
5
 42
0.0000001
 43
0.0000001
 44
0.0000000001
 12
0.0848731424
 22
0.0448360671
 32
0.0
 13
0.0860674104
 23
-0.0415414962
 33
0.0
 40
0.0
 40
0.0
 40
0.0
 40
0.0
 40
0.1417261052
 40
0.4040385915
 40
0.6876714638
 40
1.0
 40
1.0
 40
1.0
 40
1.0
 10
-17.8008987603
 20
15.5039232239
 30
0.0
 10
-17.7968891803
 20
15.5060413709
 30
0.0
 10
-17.7849276976
 20
15.5110795532
 30
0.0
 10
-17.7629309115
 20
15.5143671597
 30
0.0
 10
-17.7355399961
 20
15.5107709775
 30
0.0
 10
-17.717625751
 20
15.5040230085
 30
0.0
 10
-17.7086653149
 20
15.4996981436
 30
0.0
 11
-17.8008987603
 21
15.5039232239
 31
0.0
 11
-17.7883791882
 21
15.5091936563
 31
0.0
 11
-17.7636221439
 21
15.5131346034
 31
0.0
 11
-17.7367061303
 21
15.5099283692
 31
0.0
 11
-17.7086653149
 21
15.4996981436
 31
0.0
  0
SPLINE
  5
27A
100
AcDbEntity
  8
RACCORDO
100
AcDbSpline
 62
253
  6
CONTINUOUS
 70
0
 71
3
 72
11
 73
7
 74
5
 42
0.0000001
 43
0.0000001
 44
0.0000000001
 12
0.0863010479
 22
-14.5967938161
 32
0.0
 13
0.5071845942
 23
-14.5881783618
 33
0.0
 40
0.0
 40
0.0
 40
0.0
 40
0.0
 40
0.1097567126
 40
0.4077354704
 40
0.7044796212
 40
1.0
 40
1.0
 40
1.0
 40
1.0
 10
12.9358759839
 20
-3.1079159149
 30
0.0
 10
12.939033357
 20
-3.6419479492
 30
0.0
 10
12.9538377356
 20
-5.6258073949
 30
0.0
 10
12.999229747
 20
-9.0533079426
 30
0.0
 10
13.0935932321
 20
-13.3839559338
 30
0.0
 10
13.1811860429
 20
-16.2644271019
 30
0.0
 10
13.2311471707
 20
-17.7014617671
 30
0.0
 11
12.9358759839
 21
-3.1079159149
 31
0.0
 11
12.9478345632
 21
-4.7099949255
 31
0.0
 11
13.00551475
 21
-9.0592060924
 31
0.0
 11
13.0999521874
 21
-13.3897485848
 31
0.0
 11
13.2311471707
 21
-17.7014617671
 31
0.0
  0
SPLINE
  5
27B
100
AcDbEntity
  8
RACCORDO
100
AcDbSpline
 62
253
  6
CONTINUOUS
 70
0
 71
3
 72
18
 73
14
 74
12
 42
0.0000001
 43
0.0000001
 44
0.0000000001
 12
-0.3882309728
 22
-0.191513095
 32
0.0
 13
-0.3872041051
 23
0.1935808226
 33
0.0
 40
0.0
 40
0.0
 40
0.0
 40
0.0
 40
0.0815058463
 40
0.1686857655
 40
0.2604735908
 40
0.3556364595
 40
0.4528302513
 40
0.5506259444
 40
0.6475681924
 40
0.7422356527
 40
0.8333027824
 40
0.9195656467
 40
1.0
 40
1.0
 40
1.0
 40
1.0
 10
13.4876327248
 20
-0.0984508762
 30
0.0
 10
13.4770850268
 20
-0.1036540219
 30
0.0
 10
13.4546304429
 20
-0.1131818038
 30
0.0
 10
13.4187536502
 20
-0.124539316
 30
0.0
 10
13.3801284178
 20
-0.1332740748
 30
0.0
 10
13.3395199501
 20
-0.1392087946
 30
0.0
 10
13.2977238971
 20
-0.1422270707
 30
0.0
 10
13.2555630278
 20
-0.1422683427
 30
0.0
 10
13.213868921
 20
-0.1393318179
 30
0.0
 10
13.1734623312
 20
-0.133476505
 30
0.0
 10
13.1351345336
 20
-0.124817229
 30
0.0
 10
13.0996442859
 20
-0.1135296409
 30
0.0
 10
13.0774859138
 20
-0.104033235
 30
0.0
 10
13.0671044098
 20
-0.0988430522
 30
0.0
 11
13.4876327248
 21
-0.0984508762
 31
0.0
 11
13.455203726
 21
-0.1123541115
 31
0.0
 11
13.4192539582
 21
-0.1238398334
 31
0.0
 11
13.3805132018
 21
-0.1326718415
 31
0.0
 11
13.3397568214
 21
-0.1386728044
 31
0.0
 11
13.2977925944
 21
-0.1417236956
 31
0.0
 11
13.255457067
 21
-0.1417631914
 31
0.0
 11
13.2135963971
 21
-0.1387904585
 31
0.0
 11
13.1730456576
 21
-0.1328652748
 31
0.0
 11
13.1346084935
 21
-0.1241052044
 31
0.0
 11
13.0990542272
 21
-0.1126861644
 31
0.0
 11
13.0671044098
 21
-0.0988430522
 31
0.0
  0
SPLINE
  5
27C
100
AcDbEntity
  8
RACCORDO
100
AcDbSpline
 62
253
  6
CONTINUOUS
 70
0
 71
3
 72
15
 73
11
 74
9
 42
0.0000001
 43
0.0000001
 44
0.0000000001
 12
-0.1789959988
 22
0.0895078148
 32
0.0
 13
0.1157339158
 23
0.1637428384
 33
0.0
 40
0.0
 40
0.0
 40
0.0
 40
0.0
 40
0.1599713654
 40
0.3053224785
 40
0.4364228428
 40
0.5551938112
 40
0.6653586915
 40
0.7722663983
 40
0.8819989458
 40
1.0
 40
1.0
 40
1.0
 40
1.0
 10
-17.7049942192
 20
15.2872062623
 30
0.0
 10
-17.7145389639
 20
15.2919791581
 30
0.0
 10
-17.7322912652
 20
15.3020857172
 30
0.0
 10
-17.7555010875
 20
15.3198333125
 30
0.0
 10
-17.7736191374
 20
15.3391907094
 30
0.0
 10
-17.7862250512
 20
15.3598746536
 30
0.0
 10
-17.7928982937
 20
15.3815414361
 30
0.0
 10
-17.793286913
 20
15.40363671
 30
0.0
 10
-17.7873707946
 20
15.4254431747
 30
0.0
 10
-17.779802897
 20
15.4387694779
 30
0.0
 10
-17.7752506556
 20
15.445210087
 30
0.0
 11
-17.7049942192
 21
15.2872062623
 31
0.0
 11
-17.7327255316
 21
15.303203715
 31
0.0
 11
-17.7556980873
 21
15.3210480859
 31
0.0
 11
-17.7734394288
 21
15.3403772684
 31
0.0
 11
-17.7855933073
 21
15.3608043936
 31
0.0
 11
-17.791918582
 21
15.381924633
 31
0.0
 11
-17.7922881307
 21
15.4033166669
 31
0.0
 11
-17.7866946539
 21
15.4245529332
 31
0.0
 11
-17.7752506556
 21
15.445210087
 31
0.0
  0
SPLINE
  5
27D
100
AcDbEntity
  8
RACCORDO
100
AcDbSpline
 62
253
  6
CONTINUOUS
 70
0
 71
3
 72
10
 73
6
 74
4
 42
0.0000001
 43
0.0000001
 44
0.0000000001
 12
0.0501513692
 22
0.070955238
 32
0.0
 13
0.0766665532
 23
0.0405335632
 33
0.0
 40
0.0
 40
0.0
 40
0.0
 40
0.0
 40
0.300285628
 40
0.633260842
 40
1.0
 40
1.0
 40
1.0
 40
1.0
 10
-17.7752506556
 20
15.445210087
 30
0.0
 10
-17.7702307438
 20
15.4523123664
 30
0.0
 10
-17.7580265353
 20
15.4660990016
 30
0.0
 10
-17.7354299038
 20
15.4842979638
 30
0.0
 10
-17.718037524
 20
15.494743062
 30
0.0
 10
-17.7086653149
 20
15.4996981436
 30
0.0
 11
-17.7752506556
 21
15.445210087
 31
0.0
 11
-17.7581831287
 21
15.4648787099
 31
0.0
 11
-17.7358347861
 21
15.4831651444
 31
0.0
 11
-17.7086653149
 21
15.4996981436
 31
0.0
  0
SPLINE
  5
27E
100
AcDbEntity
  8
RACCORDO
100
AcDbSpline
 62
253
  6
CONTINUOUS
 70
0
 71
3
 72
12
 73
8
 74
6
 42
0.0000001
 43
0.0000001
 44
0.0000000001
 12
0.0082126279
 22
-0.2416880773
 32
0.0
 13
0.2155430831
 23
-0.1079545116
 33
0.0
 40
0.0
 40
0.0
 40
0.0
 40
0.0
 40
0.1608842159
 40
0.340588146
 40
0.5377905622
 40
0.7570801002
 40
1.0
 40
1.0
 40
1.0
 40
1.0
 10
-17.6978426172
 20
-2.1325630047
 30
0.0
 10
-17.6974021898
 20
-2.1455242703
 30
0.0
 10
-17.6925304431
 20
-2.1728387819
 30
0.0
 10
-17.6733370604
 20
-2.212117375
 30
0.0
 10
-17.6424172118
 20
-2.2491969768
 30
0.0
 10
-17.6010830315
 20
-2.2827587738
 30
0.0
 10
-17.5688325454
 20
-2.3014685499
 30
0.0
 10
-17.5513793107
 20
-2.310209983
 30
0.0
 11
-17.6978426172
 21
-2.1325630047
 31
0.0
 11
-17.691174409
 21
-2.170785254
 31
0.0
 11
-17.6725758966
 21
-2.2099102787
 31
0.0
 11
-17.642552263
 21
-2.2467684629
 31
0.0
 11
-17.6018264991
 21
-2.2804722347
 31
0.0
 11
-17.5513793107
 21
-2.310209983
 31
0.0
  0
SPLINE
  5
27F
100
AcDbEntity
  8
RACCORDO
100
AcDbSpline
 62
253
  6
CONTINUOUS
 70
0
 71
3
 72
15
 73
11
 74
9
 42
0.0000001
 43
0.0000001
 44
0.0000000001
 12
-0.6906319167
 22
0.4531392479
 32
0.0
 13
-0.0278627905
 23
0.8244969658
 33
0.0
 40
0.0
 40
0.0
 40
0.0
 40
0.0
 40
0.038959054
 40
0.1576959601
 40
0.2807100257
 40
0.4095877143
 40
0.5454719305
 40
0.6890542008
 40
0.8405963456
 40
1.0
 40
1.0
 40
1.0
 40
1.0
 10
-17.2229994268
 20
-3.0340199821
 30
0.0
 10
-17.2319682155
 20
-3.0281353566
 30
0.0
 10
-17.2675859757
 20
-3.0032719533
 30
0.0
 10
-17.3256465691
 20
-2.9518565562
 30
0.0
 10
-17.3903015535
 20
-2.8725391174
 30
0.0
 10
-17.444863805
 20
-2.7805080819
 30
0.0
 10
-17.4888123791
 20
-2.6768487622
 30
0.0
 10
-17.5217395486
 20
-2.5627249665
 30
0.0
 10
-17.5433411828
 20
-2.4394043263
 30
0.0
 10
-17.5498992218
 20
-2.3540076089
 30
0.0
 10
-17.5513796987
 20
-2.3101983325
 30
0.0
 11
-17.2229994268
 21
-3.0340199821
 31
0.0
 11
-17.2493839219
 21
-3.0156048757
 31
0.0
 11
-17.3228730997
 21
-2.9508410963
 31
0.0
 11
-17.3872516522
 21
-2.8723928686
 31
0.0
 11
-17.4418027649
 21
-2.7811344353
 31
0.0
 11
-17.4859204355
 21
-2.6780807655
 31
0.0
 11
-17.5191147258
 21
-2.564376266
 31
0.0
 11
-17.5410152094
 21
-2.4412921081
 31
0.0
 11
-17.5513796987
 21
-2.3101983325
 31
0.0
  0
SPLINE
  5
280
100
AcDbEntity
  8
RACCORDO
100
AcDbSpline
 62
253
  6
CONTINUOUS
 70
0
 71
3
 72
27
 73
23
 74
21
 42
0.0000001
 43
0.0000001
 44
0.0000000001
 12
-2.3359061049
 22
-0.9433573678
 32
0.0
 13
-0.0203407198
 23
2.5155944729
 33
0.0
 40
0.0
 40
0.0
 40
0.0
 40
0.0
 40
0.0239838824
 40
0.0607372915
 40
0.0990134258
 40
0.1393347281
 40
0.1820412699
 40
0.2273093506
 40
0.2751736607
 40
0.3255438967
 40
0.3782190701
 40
0.432910899
 40
0.4892860073
 40
0.5469672895
 40
0.6054966056
 40
0.6643481779
 40
0.7230885256
 40
0.7814073547
 40
0.8388829676
 40
0.8948702966
 40
0.9487481548
 40
1.0
 40
1.0
 40
1.0
 40
1.0
 10
-1.812315539
 20
2.6040137098
 30
0.0
 10
-1.830990238
 20
2.5964719191
 30
0.0
 10
-1.8794617522
 20
2.5802845006
 30
0.0
 10
-1.9617080708
 20
2.5661204321
 30
0.0
 10
-2.0588570404
 20
2.5659939108
 30
0.0
 10
-2.1597544776
 20
2.5814693865
 30
0.0
 10
-2.2631557923
 20
2.612238009
 30
0.0
 10
-2.3678109138
 20
2.6578390941
 30
0.0
 10
-2.4724637272
 20
2.7176651942
 30
0.0
 10
-2.5758480526
 20
2.7909561014
 30
0.0
 10
-2.6766949116
 20
2.8767913001
 30
0.0
 10
-2.7737641955
 20
2.9741039869
 30
0.0
 10
-2.8658668112
 20
3.0817029732
 30
0.0
 10
-2.9518547982
 20
3.1982622746
 30
0.0
 10
-3.0306138172
 20
3.3222842699
 30
0.0
 10
-3.1011394065
 20
3.4521750017
 30
0.0
 10
-3.1626031986
 20
3.5863973459
 30
0.0
 10
-3.2142867032
 20
3.7234526405
 30
0.0
 10
-3.2554801339
 20
3.8616166493
 30
0.0
 10
-3.2855513279
 20
3.9988227946
 30
0.0
 10
-3.3041058142
 20
4.1327874385
 30
0.0
 10
-3.3088931174
 20
4.2209467288
 30
0.0
 10
-3.3092406172
 20
4.263923015
 30
0.0
 11
-1.812315539
 21
2.6040137098
 31
0.0
 11
-1.8695798119
 21
2.5848570631
 31
0.0
 11
-1.9606510774
 21
2.5688939861
 31
0.0
 11
-2.0569401622
 21
2.5683946258
 31
0.0
 11
-2.1572650213
 21
2.583363096
 31
0.0
 11
-2.2603548273
 21
2.6136113072
 31
0.0
 11
-2.3649050215
 21
2.6587541756
 31
0.0
 11
-2.4696053894
 21
2.7182241112
 31
0.0
 11
-2.5731428124
 21
2.7912771836
 31
0.0
 11
-2.6742034753
 21
2.8769896384
 31
0.0
 11
-2.7715000249
 21
2.9742704329
 31
0.0
 11
-2.8638285019
 21
3.081921738
 31
0.0
 11
-2.950048244
 21
3.1986364776
 31
0.0
 11
-3.0290255565
 21
3.3229041254
 31
0.0
 11
-3.0996807954
 21
3.4530082862
 31
0.0
 11
-3.1611799487
 21
3.5873747133
 31
0.0
 11
-3.212882164
 21
3.7246739935
 31
0.0
 11
-3.2540872105
 21
3.863268473
 31
0.0
 11
-3.2840890347
 21
4.0008820325
 31
0.0
 11
-3.3024857719
 21
4.1351670076
 31
0.0
 11
-3.3092406172
 21
4.263923015
 31
0.0
  0
SPLINE
  5
281
100
AcDbEntity
  8
RACCORDO
100
AcDbSpline
 62
253
  6
CONTINUOUS
 70
0
 71
3
 72
11
 73
7
 74
5
 42
0.0000001
 43
0.0000001
 44
0.0000000001
 12
-0.5827888803
 22
17.3474269095
 32
0.0
 13
-0.0096986814
 23
17.3572108702
 33
0.0
 40
0.0
 40
0.0
 40
0.0
 40
0.0
 40
0.2483881815
 40
0.4978455333
 40
0.74837995
 40
1.0
 40
1.0
 40
1.0
 40
1.0
 10
-17.5513797032
 20
-2.3101983302
 30
0.0
 10
-17.5996323266
 20
-0.8738997226
 30
0.0
 10
-17.6842280666
 20
2.0053011571
 30
0.0
 10
-17.7753511492
 20
6.3343201344
 30
0.0
 10
-17.8309841128
 20
10.6826405626
 30
0.0
 10
-17.8443591365
 20
13.5879817378
 30
0.0
 10
-17.8451725974
 20
15.0437891602
 30
0.0
 11
-17.5513797032
 21
-2.3101983302
 31
0.0
 11
-17.6780776485
 21
1.9992663331
 31
0.0
 11
-17.7692780064
 21
6.3281902858
 31
0.0
 11
-17.8249810605
 21
10.6764128863
 31
0.0
 11
-17.8451725974
 21
15.0437891602
 31
0.0
  0
SPLINE
  5
282
100
AcDbEntity
  8
RACCORDO
100
AcDbSpline
 62
253
  6
CONTINUOUS
 70
0
 71
3
 72
35
 73
31
 74
29
 42
0.0000001
 43
0.0000001
 44
0.0000000001
 12
-0.0265786962
 22
3.5497544195
 32
0.0
 13
0.2326267247
 23
-3.5437530382
 33
0.0
 40
0.0
 40
0.0
 40
0.0
 40
0.0
 40
0.0373186322
 40
0.073137791
 40
0.1072027341
 40
0.139393471
 40
0.1697606819
 40
0.1986287705
 40
0.2264981959
 40
0.2539054553
 40
0.2813928778
 40
0.3095133377
 40
0.338772947
 40
0.3695685413
 40
0.4021606344
 40
0.4366868582
 40
0.4731779546
 40
0.511569755
 40
0.5517136246
 40
0.5933939517
 40
0.6363601138
 40
0.6803273425
 40
0.7249482001
 40
0.7698226914
 40
0.8146202157
 40
0.8591032323
 40
0.9029482898
 40
0.9456605011
 40
0.9867626688
 40
1.0
 40
1.0
 40
1.0
 40
1.0
 10
-3.4494142673
 20
4.2637565197
 30
0.0
 10
-3.4497448942
 20
4.3079138463
 30
0.0
 10
-3.4465784962
 20
4.3945495457
 30
0.0
 10
-3.4292810565
 20
4.5204468997
 30
0.0
 10
-3.3994563977
 20
4.6377879021
 30
0.0
 10
-3.3573901276
 20
4.7444695584
 30
0.0
 10
-3.3036332048
 20
4.8388194608
 30
0.0
 10
-3.2388440332
 20
4.9195849914
 30
0.0
 10
-3.1637244255
 20
4.9857390822
 30
0.0
 10
-3.0791920249
 20
5.0362943103
 30
0.0
 10
-2.9864909586
 20
5.0704355081
 30
0.0
 10
-2.8870413401
 20
5.0877092381
 30
0.0
 10
-2.782250973
 20
5.0880117783
 30
0.0
 10
-2.6734851237
 20
5.071483376
 30
0.0
 10
-2.5620959626
 20
5.0384500793
 30
0.0
 10
-2.4494376813
 20
4.9894052943
 30
0.0
 10
-2.3368662086
 20
4.9250033014
 30
0.0
 10
-2.2257436492
 20
4.8460650368
 30
0.0
 10
-2.1174308127
 20
4.7535858778
 30
0.0
 10
-2.0132535687
 20
4.648720268
 30
0.0
 10
-1.914479616
 20
4.5327578274
 30
0.0
 10
-1.8223296905
 20
4.4071342451
 30
0.0
 10
-1.7379862082
 20
4.2734706585
 30
0.0
 10
-1.6625122221
 20
4.1334919997
 30
0.0
 10
-1.5967814644
 20
3.9888614929
 30
0.0
 10
-1.5415505254
 20
3.8412003127
 30
0.0
 10
-1.4975670825
 20
3.6923721665
 30
0.0
 10
-1.4654978508
 20
3.544608048
 30
0.0
 10
-1.4499079926
 20
3.4307148762
 30
0.0
 10
-1.4447761629
 20
3.3665839341
 30
0.0
 10
-1.4437497106
 20
3.3509473232
 30
0.0
 11
-3.4494142673
 21
4.2637565197
 31
0.0
 11
-3.4442655145
 21
4.39613212
 31
0.0
 11
-3.4265960527
 21
4.5220512207
 31
0.0
 11
-3.3964010684
 21
4.6391462969
 31
0.0
 11
-3.3540681943
 21
4.7452882407
 31
0.0
 11
-3.3003258813
 21
4.8387356769
 31
0.0
 11
-3.2359136523
 21
4.9184395176
 31
0.0
 11
-3.1615045194
 21
4.983638433
 31
0.0
 11
-3.0779696996
 21
5.0335144976
 31
0.0
 11
-2.9864485781
 21
5.067352722
 31
0.0
 11
-2.8881473853
 21
5.0847196907
 31
0.0
 11
-2.7842823695
 21
5.0854143721
 31
0.0
 11
-2.6761380818
 21
5.0694254676
 31
0.0
 11
-2.5650921413
 21
5.0369503374
 31
0.0
 11
-2.4525549753
 21
4.9884004887
 31
0.0
 11
-2.3399393988
 21
4.9243861048
 31
0.0
 11
-2.2286575188
 21
4.8457094146
 31
0.0
 11
-2.1201183027
 21
4.7533683219
 31
0.0
 11
-2.0156985738
 21
4.6485427175
 31
0.0
 11
-1.9166822232
 21
4.5325288798
 31
0.0
 11
-1.8242824664
 21
4.4067417994
 31
0.0
 11
-1.7397027577
 21
4.2728162634
 31
0.0
 11
-1.6640869386
 21
4.1326090406
 31
0.0
 11
-1.5983150528
 21
3.9878233234
 31
0.0
 11
-1.5430607762
 21
3.8398977746
 31
0.0
 11
-1.4990621882
 21
3.6906026352
 31
0.0
 11
-1.4670648734
 21
3.5423952251
 31
0.0
 11
-1.4474898888
 21
3.397807596
 31
0.0
 11
-1.4437497106
 21
3.3509473232
 31
0.0
  0
SPLINE
  5
283
100
AcDbEntity
  8
RACCORDO
100
AcDbSpline
 62
253
  6
CONTINUOUS
 70
0
 71
3
 72
35
 73
31
 74
29
 42
0.0000001
 43
0.0000001
 44
0.0000000001
 12
0.0263151292
 22
-3.6381979046
 32
0.0
 13
-0.0273795849
 23
3.6381900496
 33
0.0
 40
0.0
 40
0.0
 40
0.0
 40
0.0
 40
0.036394611
 40
0.0713135783
 40
0.1045056511
 40
0.1358523689
 40
0.1654036856
 40
0.1934785284
 40
0.220569828
 40
0.2472079486
 40
0.2739299579
 40
0.3012821942
 40
0.3297629887
 40
0.3597612802
 40
0.3915305824
 40
0.4252027557
 40
0.4608043668
 40
0.4982689741
 40
0.5374477412
 40
0.5781268262
 40
0.6200587643
 40
0.6629634695
 40
0.7065004883
 40
0.7502790032
 40
0.7939768102
 40
0.8373632117
 40
0.8801244777
 40
0.9217806371
 40
0.9618695396
 40
1.0
 40
1.0
 40
1.0
 40
1.0
 10
-1.4403714953
 20
3.2592351337
 30
0.0
 10
-1.4400522524
 20
3.2150982012
 30
0.0
 10
-1.4432165289
 20
3.1285204488
 30
0.0
 10
-1.4604353814
 20
3.0027262502
 30
0.0
 10
-1.4901091277
 20
2.8855192635
 30
0.0
 10
-1.5319612308
 20
2.7789950991
 30
0.0
 10
-1.5854547031
 20
2.6848183052
 30
0.0
 10
-1.6499478291
 20
2.6042346029
 30
0.0
 10
-1.7247558817
 20
2.5382660448
 30
0.0
 10
-1.8089763085
 20
2.4878960554
 30
0.0
 10
-1.901376755
 20
2.4539337517
 30
0.0
 10
-2.0005477109
 20
2.4368224868
 30
0.0
 10
-2.105093564
 20
2.4366542317
 30
0.0
 10
-2.2136624561
 20
2.45327908
 30
0.0
 10
-2.3249142757
 20
2.4863651589
 30
0.0
 10
-2.4375034445
 20
2.5354168436
 30
0.0
 10
-2.5500783606
 20
2.5997804283
 30
0.0
 10
-2.6612769591
 20
2.6786377494
 30
0.0
 10
-2.769734462
 20
2.7709980754
 30
0.0
 10
-2.8741174073
 20
2.8757131925
 30
0.0
 10
-2.9731474241
 20
2.9915009692
 30
0.0
 10
-3.0655905714
 20
3.1169341418
 30
0.0
 10
-3.1502492924
 20
3.2504006992
 30
0.0
 10
-3.2260444013
 20
3.3901850029
 30
0.0
 10
-3.2920862044
 20
3.5346325815
 30
0.0
 10
-3.3476029624
 20
3.6821302718
 30
0.0
 10
-3.3918328326
 20
3.8308218826
 30
0.0
 10
-3.424096657
 20
3.9784831352
 30
0.0
 10
-3.4439726206
 20
4.1226479873
 30
0.0
 10
-3.4490662686
 20
4.2175145658
 30
0.0
 10
-3.4494142673
 20
4.2637565197
 30
0.0
 11
-1.4403714953
 21
3.2592351337
 31
0.0
 11
-1.4455181758
 21
3.1269209311
 31
0.0
 11
-1.46311147
 21
3.0010995535
 31
0.0
 11
-1.4931597429
 21
2.8841351151
 31
0.0
 11
-1.5352838231
 21
2.7781509993
 31
0.0
 11
-1.5887676872
 21
2.6848812722
 31
0.0
 11
-1.6528854924
 21
2.6053677061
 31
0.0
 11
-1.7269784899
 21
2.5403638502
 31
0.0
 11
-1.810191219
 21
2.4906788148
 31
0.0
 11
-1.9014008242
 21
2.4570184122
 31
0.0
 11
-1.9994166891
 21
2.439807502
 31
0.0
 11
-2.1030366099
 21
2.4392395796
 31
0.0
 11
-2.210988135
 21
2.4553196974
 31
0.0
 11
-2.3219033095
 21
2.4878459152
 31
0.0
 11
-2.4343782414
 21
2.5364041516
 31
0.0
 11
-2.547003239
 21
2.6003838077
 31
0.0
 11
-2.658365735
 21
2.6789843994
 31
0.0
 11
-2.7670526681
 21
2.7712118138
 31
0.0
 11
-2.8716797074
 21
2.8758918165
 31
0.0
 11
-2.9709524521
 21
2.9917351726
 31
0.0
 11
-3.0636447607
 21
3.1173349819
 31
0.0
 11
-3.1485381974
 21
3.2510653147
 31
0.0
 11
-3.2244727524
 21
3.3910787593
 31
0.0
 11
-3.290552686
 21
3.5356810029
 31
0.0
 11
-3.3460897708
 21
3.6834410322
 31
0.0
 11
-3.3903320689
 21
3.8325957796
 31
0.0
 11
-3.4225216542
 21
3.9806952418
 31
0.0
 11
-3.4422286342
 21
4.1252129478
 31
0.0
 11
-3.4494142673
 21
4.2637565197
 31
0.0
  0
SPLINE
  5
284
100
AcDbEntity
  8
RACCORDO
100
AcDbSpline
 62
253
  6
CONTINUOUS
 70
0
 71
3
 72
16
 73
12
 74
10
 42
0.0000001
 43
0.0000001
 44
0.0000000001
 12
-0.006771845
 22
0.8394282561
 32
0.0
 13
0.7599401454
 23
0.3592988648
 33
0.0
 40
0.0
 40
0.0
 40
0.0
 40
0.0
 40
0.1466521217
 40
0.2873813802
 40
0.4212106824
 40
0.5476712646
 40
0.6669654953
 40
0.7803717525
 40
0.8898601215
 40
0.9975420437
 40
1.0
 40
1.0
 40
1.0
 40
1.0
 10
-3.3092406172
 20
4.263923015
 30
0.0
 10
-3.3095716523
 20
4.30495766
 30
0.0
 10
-3.3066728444
 20
4.3854603555
 30
0.0
 10
-3.2906586959
 20
4.5024446291
 30
0.0
 10
-3.2629953569
 20
4.6114707245
 30
0.0
 10
-3.2239478398
 20
4.710590993
 30
0.0
 10
-3.1740269892
 20
4.7982513224
 30
0.0
 10
-3.1138446585
 20
4.873287587
 30
0.0
 10
-3.0440531692
 20
4.9347449396
 30
0.0
 10
-2.9910018971
 20
4.9664624256
 30
0.0
 10
-2.9631300036
 20
4.9797127673
 30
0.0
 10
-2.9625073703
 20
4.9800071476
 30
0.0
 11
-3.3092406172
 21
4.263923015
 31
0.0
 11
-3.3045227185
 21
4.3869405197
 31
0.0
 11
-3.2881628924
 21
4.5039382168
 31
0.0
 11
-3.2601553398
 21
4.6127347972
 31
0.0
 11
-3.2208599231
 21
4.7113522384
 31
0.0
 11
-3.1709530538
 21
4.7981725466
 31
0.0
 11
-3.1111219193
 21
4.8722210637
 31
0.0
 11
-3.0419920797
 21
4.9327902602
 31
0.0
 11
-2.9643733884
 21
4.9791200376
 31
0.0
 11
-2.9625073703
 21
4.9800071476
 31
0.0
  0
SPLINE
  5
285
100
AcDbEntity
  8
RACCORDO
100
AcDbSpline
 62
253
  6
CONTINUOUS
 70
0
 71
3
 72
15
 73
11
 74
9
 42
0.0000001
 43
0.0000001
 44
0.0000000001
 12
-0.0021357325
 22
0.2936488918
 32
0.0
 13
-0.260755194
 23
0.1350591048
 33
0.0
 40
0.0
 40
0.0
 40
0.0
 40
0.0
 40
0.1197683134
 40
0.2470068581
 40
0.378956534
 40
0.5124548357
 40
0.6442133866
 40
0.7710854443
 40
0.89034471
 40
1.0
 40
1.0
 40
1.0
 40
1.0
 10
13.6277985174
 20
-0.3429662827
 30
0.0
 10
13.627713253
 20
-0.3312430052
 30
0.0
 10
13.6255766488
 20
-0.3070564077
 30
0.0
 10
13.6173612088
 20
-0.270788336
 30
0.0
 10
13.6043298687
 20
-0.2345277913
 30
0.0
 10
13.5869704232
 20
-0.1996400891
 30
0.0
 10
13.5659333241
 20
-0.1674269271
 30
0.0
 10
13.5419965181
 20
-0.1390890232
 30
0.0
 10
13.5160559024
 20
-0.1156869872
 30
0.0
 10
13.4971637869
 20
-0.1033875247
 30
0.0
 10
13.4876327248
 20
-0.0984508762
 30
0.0
 11
13.6277985174
 21
-0.3429662827
 31
0.0
 11
13.6248846245
 21
-0.3079164356
 31
0.0
 11
13.6167446446
 21
-0.2714494294
 31
0.0
 11
13.6036913371
 21
-0.2349664062
 31
0.0
 11
13.5862262422
 21
-0.1998691211
 31
0.0
 11
13.5650204104
 21
-0.1675060834
 31
0.0
 11
13.5408886177
 21
-0.139120743
 31
0.0
 11
13.5147580595
 21
-0.1158037149
 31
0.0
 11
13.4876327248
 21
-0.0984508762
 31
0.0
  0
SPLINE
  5
286
100
AcDbEntity
  8
RACCORDO
100
AcDbSpline
 62
253
  6
CONTINUOUS
 70
0
 71
3
 72
15
 73
11
 74
9
 42
0.0000001
 43
0.0000001
 44
0.0000000001
 12
-0.0001666693
 22
0.2930800153
 32
0.0
 13
0.2610133734
 23
0.1332964443
 33
0.0
 40
0.0
 40
0.0
 40
0.0
 40
0.0
 40
0.1196245243
 40
0.2464902617
 40
0.3779799486
 40
0.5110733545
 40
0.6426177128
 40
0.7695882173
 40
0.8893581041
 40
1.0
 40
1.0
 40
1.0
 40
1.0
 10
12.9269172055
 20
-0.3422557413
 30
0.0
 10
12.9269105596
 20
-0.3305692221
 30
0.0
 10
12.9288752368
 20
-0.306463363
 30
0.0
 10
12.936903282
 20
-0.2703219898
 30
0.0
 10
12.949812567
 20
-0.2342226033
 30
0.0
 10
12.9671242927
 20
-0.1995106127
 30
0.0
 10
12.9881963763
 20
-0.1674677051
 30
0.0
 10
13.0122576631
 20
-0.1392768654
 30
0.0
 10
13.0384167216
 20
-0.1159840846
 30
0.0
 10
13.0574780717
 20
-0.1037591093
 30
0.0
 10
13.0671044098
 20
-0.0988430522
 30
0.0
 11
12.9269172055
 21
-0.3422557413
 31
0.0
 11
12.9295878381
 21
-0.3072980428
 31
0.0
 11
12.9375363759
 21
-0.2709757582
 31
0.0
 11
12.9504604662
 21
-0.2346705423
 31
0.0
 11
12.9678684925
 21
-0.199763401
 31
0.0
 11
12.9890982751
 21
-0.1675821586
 31
0.0
 11
13.0133422591
 21
-0.13935095
 31
0.0
 11
13.0396782333
 21
-0.1161436556
 31
0.0
 11
13.0671044098
 21
-0.0988430522
 31
0.0
  0
SPLINE
  5
287
100
AcDbEntity
  8
RACCORDO
100
AcDbSpline
 62
253
  6
CONTINUOUS
 70
0
 71
3
 72
15
 73
11
 74
9
 42
0.0000001
 43
0.0000001
 44
0.0000000001
 12
-0.0001666709
 22
0.2930800157
 32
0.0
 13
0.2610133746
 23
0.1332964427
 33
0.0
 40
0.0
 40
0.0
 40
0.0
 40
0.0
 40
0.1196246505
 40
0.246490508
 40
0.3779802849
 40
0.5110737329
 40
0.6426180747
 40
0.7695885032
 40
0.8893582639
 40
1.0
 40
1.0
 40
1.0
 40
1.0
 10
-17.8451814235
 20
15.0437935732
 30
0.0
 10
-17.8451880695
 20
15.0554801047
 30
0.0
 10
-17.8432233883
 20
15.079585988
 30
0.0
 10
-17.8351953291
 20
15.115727392
 30
0.0
 10
-17.8222860261
 20
15.1518267984
 30
0.0
 10
-17.8049742842
 20
15.1865387938
 30
0.0
 10
-17.7839021923
 20
15.2185816901
 30
0.0
 10
-17.75984091
 20
15.2467725054
 30
0.0
 10
-17.7336818714
 20
15.2700652552
 30
0.0
 10
-17.7146205435
 20
15.2822902123
 30
0.0
 10
-17.7049942192
 20
15.2872062623
 30
0.0
 11
-17.8451814235
 21
15.0437935732
 31
0.0
 11
-17.8425107856
 21
15.0787513085
 31
0.0
 11
-17.8345622335
 21
15.115073626
 31
0.0
 11
-17.8216381246
 21
15.1513788633
 31
0.0
 11
-17.8042300815
 21
15.1862860101
 31
0.0
 11
-17.7830002904
 21
15.2184672412
 31
0.0
 11
-17.7587563113
 21
15.2466984247
 31
0.0
 11
-17.7324203583
 21
15.2699056873
 31
0.0
 11
-17.7049942192
 21
15.2872062623
 31
0.0
  0
SPLINE
  5
288
100
AcDbEntity
  8
RACCORDO
100
AcDbSpline
 62
253
  6
CONTINUOUS
 70
0
 71
3
 72
15
 73
11
 74
9
 42
0.0000001
 43
0.0000001
 44
0.0000000001
 12
0.0310030236
 22
-0.8966590918
 32
0.0
 13
0.8026012519
 23
-0.403328152
 33
0.0
 40
0.0
 40
0.0
 40
0.0
 40
0.0
 40
0.1467283743
 40
0.2864554442
 40
0.4191430606
 40
0.5450788269
 40
0.6649335652
 40
0.7797721103
 40
0.8910363149
 40
1.0
 40
1.0
 40
1.0
 40
1.0
 10
13.2311471662
 20
-17.7014617648
 30
0.0
 10
13.2326635073
 20
-17.7453168751
 30
0.0
 10
13.2393878107
 20
-17.8308697348
 30
0.0
 10
13.2615158386
 20
-17.9544718936
 30
0.0
 10
13.2952434599
 20
-18.0690066413
 30
0.0
 10
13.3402575626
 20
-18.1731961676
 30
0.0
 10
13.3961349247
 20
-18.265864942
 30
0.0
 10
13.4623311649
 20
-18.3459167771
 30
0.0
 10
13.5380443245
 20
-18.4122525348
 30
0.0
 10
13.5944290441
 20
-18.4469044707
 30
0.0
 10
13.6235805074
 20
-18.4615538446
 30
0.0
 11
13.2311471662
 21
-17.7014617648
 31
0.0
 11
13.2417557218
 21
-17.8326775735
 31
0.0
 11
13.264171901
 21
-17.9560195792
 31
0.0
 11
13.2981478325
 21
-18.0701148993
 31
0.0
 11
13.343304357
 21
-18.1736879961
 31
0.0
 11
13.3991400096
 21
-18.2655886994
 31
0.0
 11
13.4650345126
 21
-18.3447949024
 31
0.0
 11
13.540254175
 21
-18.4104239241
 31
0.0
 11
13.6235805074
 21
-18.4615538446
 31
0.0
  0
LINE
  5
289
100
AcDbEntity
  8
RACCORDO
100
AcDbLine
 62
253
  6
CONTINUOUS
 10
13.6235805074
 20
-18.4615538446
 11
13.624483764
 21
-18.4620067553
  0
SPLINE
  5
28A
100
AcDbEntity
  8
RACCORDO
100
AcDbSpline
 62
253
  6
CONTINUOUS
 70
0
 71
3
 72
13
 73
9
 74
7
 42
0.0000001
 43
0.0000001
 44
0.0000000001
 12
-0.0143798377
 22
-0.3373286778
 32
0.0
 13
-0.3120404767
 23
-0.1310932904
 33
0.0
 40
0.0
 40
0.0
 40
0.0
 40
0.0
 40
0.1990429368
 40
0.3847908933
 40
0.557088006
 40
0.7172159128
 40
0.8680860164
 40
1.0
 40
1.0
 40
1.0
 40
1.0
 10
14.6129187084
 20
-18.18718928
 30
0.0
 10
14.61196464
 20
-18.2095702436
 30
0.0
 10
14.6074875813
 20
-18.2527945678
 30
0.0
 10
14.5921974687
 20
-18.3138412683
 30
0.0
 10
14.5688224067
 20
-18.3676063564
 30
0.0
 10
14.5377770045
 20
-18.4127409125
 30
0.0
 10
14.5008376467
 20
-18.4468934732
 30
0.0
 10
14.4728319629
 20
-18.4626198371
 30
0.0
 10
14.4591111288
 20
-18.4683841831
 30
0.0
 11
14.6129187084
 21
-18.18718928
 31
0.0
 11
14.6057049459
 21
-18.2540048592
 31
0.0
 11
14.5901261296
 21
-18.3147541302
 31
0.0
 11
14.5665654166
 21
-18.3679429801
 31
0.0
 11
14.5356022768
 21
-18.4122632422
 31
0.0
 11
14.4979982408
 21
-18.4466248709
 31
0.0
 11
14.4591111288
 21
-18.4683841831
 31
0.0
  0
SPLINE
  5
28B
100
AcDbEntity
  8
RACCORDO
100
AcDbSpline
 62
253
  6
CONTINUOUS
 70
0
 71
3
 72
17
 73
13
 74
11
 42
0.0000001
 43
0.0000001
 44
0.0000000001
 12
-0.6380553888
 22
-0.3397035049
 32
0.0
 13
-0.6467567984
 23
0.3228293576
 33
0.0
 40
0.0
 40
0.0
 40
0.0
 40
0.0
 40
0.0909939725
 40
0.188357308
 40
0.2907043301
 40
0.3963948789
 40
0.5036318121
 40
0.6105485603
 40
0.7152927759
 40
0.8161107568
 40
0.9114376027
 40
1.0
 40
1.0
 40
1.0
 40
1.0
 10
13.931731049
 20
-17.6868736119
 30
0.0
 10
13.9123779842
 20
-17.697177269
 30
0.0
 10
13.8709430858
 20
-17.7159792493
 30
0.0
 10
13.8043932775
 20
-17.7381566636
 30
0.0
 10
13.7326282876
 20
-17.7548715331
 30
0.0
 10
13.6573534635
 20
-17.7657221403
 30
0.0
 10
13.580347464
 20
-17.770452166
 30
0.0
 10
13.5034382835
 20
-17.7689482693
 30
0.0
 10
13.4284511496
 20
-17.7612476469
 30
0.0
 10
13.3571551552
 20
-17.7475317489
 30
0.0
 10
13.2912422938
 20
-17.7281304704
 30
0.0
 10
13.2502405471
 20
-17.7110034996
 30
0.0
 10
13.2311477696
 20
-17.701473319
 30
0.0
 11
13.931731049
 21
-17.6868736119
 31
0.0
 11
13.8719509767
 21
-17.7143090117
 31
0.0
 11
13.8052465209
 21
-17.7367531919
 31
0.0
 11
13.7332239725
 21
-17.7536656807
 31
0.0
 11
13.6576176856
 21
-17.7646392131
 31
0.0
 11
13.5802483136
 21
-17.7694095389
 31
0.0
 11
13.5029789658
 21
-17.7678617851
 31
0.0
 11
13.4276703433
 21
-17.7600332227
 31
0.0
 11
13.3561359312
 21
-17.7461123692
 31
0.0
 11
13.2900983292
 21
-17.7264344485
 31
0.0
 11
13.2311477696
 21
-17.701473319
 31
0.0
  0
SPLINE
  5
28C
100
AcDbEntity
  8
RACCORDO
100
AcDbSpline
 62
253
  6
CONTINUOUS
 70
0
 71
3
 72
18
 73
14
 74
12
 42
0.0000001
 43
0.0000001
 44
0.0000000001
 12
-0.6479053051
 22
-0.3171213201
 32
0.0
 13
-0.6452008356
 23
0.3225881239
 33
0.0
 40
0.0
 40
0.0
 40
0.0
 40
0.0
 40
0.0814478825
 40
0.1685621118
 40
0.2603098872
 40
0.3554511858
 40
0.4526394032
 40
0.5504419653
 40
0.6474040962
 40
0.7421014841
 40
0.833203999
 40
0.9194977651
 40
1.0
 40
1.0
 40
1.0
 40
1.0
 10
13.6277985174
 20
-0.3429662827
 30
0.0
 10
13.6102083457
 20
-0.3515759027
 30
0.0
 10
13.5727698285
 20
-0.3673239695
 30
0.0
 10
13.5129701435
 20
-0.3860624899
 30
0.0
 10
13.4485985024
 20
-0.4004349636
 30
0.0
 10
13.380923446
 20
-0.4101536181
 30
0.0
 10
13.3112716604
 20
-0.4150273401
 30
0.0
 10
13.2410130977
 20
-0.4149588995
 30
0.0
 10
13.1715320261
 20
-0.4099497422
 30
0.0
 10
13.1041946865
 20
-0.4000999185
 30
0.0
 10
13.040320136
 20
-0.3856029715
 30
0.0
 10
12.9811631891
 20
-0.3667481142
 30
0.0
 10
12.9442217511
 20
-0.3509076868
 30
0.0
 10
12.9269083813
 20
-0.3422513318
 30
0.0
 11
13.6277985174
 21
-0.3429662827
 31
0.0
 11
13.573728476
 21
-0.365950797
 31
0.0
 11
13.5138137356
 21
-0.3849002331
 31
0.0
 11
13.4492472231
 21
-0.3994353089
 31
0.0
 11
13.3813244041
 21
-0.4092640577
 31
0.0
 11
13.311390997
 21
-0.4141919385
 31
0.0
 11
13.2408410607
 21
-0.4141203246
 31
0.0
 11
13.1710813049
 21
-0.4090506711
 31
0.0
 11
13.103502183
 21
-0.3990844527
 31
0.0
 11
13.0394425762
 21
-0.3844189816
 31
0.0
 11
12.980187596
 21
-0.3653487898
 31
0.0
 11
12.9269083813
 21
-0.3422513318
 31
0.0
  0
SPLINE
  5
28D
100
AcDbEntity
  8
RACCORDO
100
AcDbSpline
 62
253
  6
CONTINUOUS
 70
0
 71
3
 72
13
 73
9
 74
7
 42
0.0000001
 43
0.0000001
 44
0.0000000001
 12
-0.2160313255
 22
0.1080197792
 32
0.0
 13
-0.0002362808
 23
0.2423598531
 33
0.0
 40
0.0
 40
0.0
 40
0.0
 40
0.0
 40
0.2210036605
 40
0.4216051887
 40
0.6024281035
 40
0.766098461
 40
0.9177523264
 40
1.0
 40
1.0
 40
1.0
 40
1.0
 10
-17.8451725956
 20
15.0437891566
 30
0.0
 10
-17.8610871668
 20
15.0517467455
 30
0.0
 10
-17.8906747147
 20
15.0685836453
 30
0.0
 10
-17.9293595837
 20
15.098124855
 30
0.0
 10
-17.9595507301
 20
15.1303143571
 30
0.0
 10
-17.9805597984
 20
15.164688076
 30
0.0
 10
-17.9901264879
 20
15.1956353573
 30
0.0
 10
-17.9916128009
 20
15.2145320634
 30
0.0
 10
-17.9916192788
 20
15.2211765748
 30
0.0
 11
-17.8451725956
 21
15.0437891566
 31
0.0
 11
-17.8914156455
 21
15.0704528309
 31
0.0
 11
-17.9296983009
 21
15.1001514569
 31
0.0
 11
-17.9592628508
 21
15.1322980641
 31
0.0
 11
-17.9795155354
 21
15.1662477489
 31
0.0
 11
-17.9900553811
 21
15.2013278962
 31
0.0
 11
-17.9916192788
 21
15.2211765748
 31
0.0
  0
SPLINE
  5
28E
100
AcDbEntity
  8
RACCORDO
100
AcDbSpline
 62
253
  6
CONTINUOUS
 70
0
 71
3
 72
21
 73
17
 74
15
 42
0.0000001
 43
0.0000001
 44
0.0000000001
 12
0.0358352392
 22
-1.0301967715
 32
0.0
 13
0.950486531
 23
0.3989547676
 33
0.0
 40
0.0
 40
0.0
 40
0.0
 40
0.0
 40
0.0851410635
 40
0.1662748243
 40
0.2433648649
 40
0.3165846796
 40
0.3863284951
 40
0.4532160408
 40
0.5180814047
 40
0.5819322805
 40
0.645869652
 40
0.710985031
 40
0.7782641362
 40
0.8485122009
 40
0.9223099193
 40
1.0
 40
1.0
 40
1.0
 40
1.0
 10
13.931731049
 20
-17.6868736119
 30
0.0
 10
13.9327480658
 20
-17.7161109615
 30
0.0
 10
13.9372576857
 20
-17.7731657913
 30
0.0
 10
13.9520955977
 20
-17.8556085435
 30
0.0
 10
13.9747132591
 20
-17.9320355927
 30
0.0
 10
14.0049000431
 20
-18.0015856618
 30
0.0
 10
14.0423708086
 20
-18.063473138
 30
0.0
 10
14.0867589437
 20
-18.116965341
 30
0.0
 10
14.1375967593
 20
-18.1613915569
 30
0.0
 10
14.1942977603
 20
-18.1961685139
 30
0.0
 10
14.256159146
 20
-18.2208435815
 30
0.0
 10
14.3223968045
 20
-18.2351298462
 30
0.0
 10
14.3921934522
 20
-18.2389093638
 30
0.0
 10
14.4647342421
 20
-18.2322050887
 30
0.0
 10
14.5391935204
 20
-18.2151625005
 30
0.0
 10
14.5883042499
 20
-18.1975208894
 30
0.0
 10
14.6129187084
 20
-18.18718928
 30
0.0
 11
13.931731049
 21
-17.6868736119
 31
0.0
 11
13.9388420387
 21
-17.7743501586
 31
0.0
 11
13.9538712623
 21
-17.8566229793
 31
0.0
 11
13.9766514221
 21
-17.9327537913
 31
0.0
 11
14.0069286132
 21
-18.0018912224
 31
0.0
 11
14.044366565
 21
-18.0632675017
 31
0.0
 11
14.0885494512
 21
-18.116199897
 31
0.0
 11
14.1389853553
 21
-18.1600984336
 31
0.0
 11
14.1951135961
 21
-18.1944747107
 31
0.0
 11
14.256310081
 21
-18.2189459798
 31
0.0
 11
14.3218927984
 21
-18.2332393435
 31
0.0
 11
14.3911324802
 21
-18.237195943
 31
0.0
 11
14.4632600256
 21
-18.2307714481
 31
0.0
 11
14.5374689855
 21
-18.2140381676
 31
0.0
 11
14.6129187084
 21
-18.18718928
 31
0.0
  0
SPLINE
  5
28F
100
AcDbEntity
  8
ASSI
100
AcDbSpline
 62
253
  6
CONTINUOUS
 70
0
 71
3
 72
11
 73
7
 74
5
 42
0.0000001
 43
0.0000001
 44
0.0000000001
 12
0.0848594018
 22
0.0447659376
 32
0.0
 13
0.086027068
 23
-0.0415220245
 33
0.0
 40
0.0
 40
0.0
 40
0.0
 40
0.0
 40
0.1413236172
 40
0.4037591151
 40
0.6875249972
 40
1.0
 40
1.0
 40
1.0
 40
1.0
 10
-17.8008589715
 20
15.5039442284
 30
0.0
 10
-17.7968614256
 20
15.5060530565
 30
0.0
 10
-17.7849127041
 20
15.5110817941
 30
0.0
 10
-17.7629309115
 20
15.5143671597
 30
0.0
 10
-17.7355399961
 20
15.5107709775
 30
0.0
 10
-17.717625751
 20
15.5040230085
 30
0.0
 10
-17.7086653149
 20
15.4996981436
 30
0.0
 11
-17.8008589715
 21
15.5039442284
 31
0.0
 11
-17.7883791882
 21
15.5091936563
 31
0.0
 11
-17.7636221439
 21
15.5131346034
 31
0.0
 11
-17.7367061303
 21
15.5099283692
 31
0.0
 11
-17.7086653149
 21
15.4996981436
 31
0.0
  0
SPLINE
  5
290
100
AcDbEntity
  8
ASSI
100
AcDbSpline
 62
253
  6
CONTINUOUS
 70
0
 71
3
 72
18
 73
14
 74
12
 42
0.0000001
 43
0.0000001
 44
0.0000000001
 12
-0.3882309728
 22
-0.191513095
 32
0.0
 13
-0.3872041051
 23
0.1935808226
 33
0.0
 40
0.0
 40
0.0
 40
0.0
 40
0.0
 40
0.0815058463
 40
0.1686857655
 40
0.2604735908
 40
0.3556364595
 40
0.4528302513
 40
0.5506259444
 40
0.6475681924
 40
0.7422356527
 40
0.8333027824
 40
0.9195656467
 40
1.0
 40
1.0
 40
1.0
 40
1.0
 10
13.4876327248
 20
-0.0984508762
 30
0.0
 10
13.4770850268
 20
-0.1036540219
 30
0.0
 10
13.4546304429
 20
-0.1131818038
 30
0.0
 10
13.4187536502
 20
-0.124539316
 30
0.0
 10
13.3801284178
 20
-0.1332740748
 30
0.0
 10
13.3395199501
 20
-0.1392087946
 30
0.0
 10
13.2977238971
 20
-0.1422270707
 30
0.0
 10
13.2555630278
 20
-0.1422683427
 30
0.0
 10
13.213868921
 20
-0.1393318179
 30
0.0
 10
13.1734623312
 20
-0.133476505
 30
0.0
 10
13.1351345336
 20
-0.124817229
 30
0.0
 10
13.0996442859
 20
-0.1135296409
 30
0.0
 10
13.0774859138
 20
-0.104033235
 30
0.0
 10
13.0671044098
 20
-0.0988430522
 30
0.0
 11
13.4876327248
 21
-0.0984508762
 31
0.0
 11
13.455203726
 21
-0.1123541115
 31
0.0
 11
13.4192539582
 21
-0.1238398334
 31
0.0
 11
13.3805132018
 21
-0.1326718415
 31
0.0
 11
13.3397568214
 21
-0.1386728044
 31
0.0
 11
13.2977925944
 21
-0.1417236956
 31
0.0
 11
13.255457067
 21
-0.1417631914
 31
0.0
 11
13.2135963971
 21
-0.1387904585
 31
0.0
 11
13.1730456576
 21
-0.1328652748
 31
0.0
 11
13.1346084935
 21
-0.1241052044
 31
0.0
 11
13.0990542272
 21
-0.1126861644
 31
0.0
 11
13.0671044098
 21
-0.0988430522
 31
0.0
  0
SPLINE
  5
291
100
AcDbEntity
  8
ASSI
100
AcDbSpline
 62
253
  6
CONTINUOUS
 70
0
 71
3
 72
14
 73
10
 74
8
 42
0.0000001
 43
0.0000001
 44
0.0000000001
 12
-0.1446689438
 22
0.0723424049
 32
0.0
 13
0.0343426862
 23
0.1585248054
 33
0.0
 40
0.0
 40
0.0
 40
0.0
 40
0.0
 40
0.1979293799
 40
0.3777694132
 40
0.539977279
 40
0.6869302295
 40
0.8232350386
 40
0.955509812
 40
1.0
 40
1.0
 40
1.0
 40
1.0
 10
-17.7049942192
 20
15.2872062623
 30
0.0
 10
-17.7145389639
 20
15.2919791581
 30
0.0
 10
-17.7322912652
 20
15.3020857172
 30
0.0
 10
-17.7555010875
 20
15.3198333125
 30
0.0
 10
-17.7736191374
 20
15.3391907094
 30
0.0
 10
-17.7862250512
 20
15.3598746536
 30
0.0
 10
-17.7928982937
 20
15.3815414361
 30
0.0
 10
-17.7931991843
 20
15.3986488215
 30
0.0
 10
-17.7915914235
 20
15.4080774958
 30
0.0
 10
-17.7910821193
 20
15.4104284286
 30
0.0
 11
-17.7049942192
 21
15.2872062623
 31
0.0
 11
-17.7327255316
 21
15.303203715
 31
0.0
 11
-17.7556980873
 21
15.3210480859
 31
0.0
 11
-17.7734394288
 21
15.3403772684
 31
0.0
 11
-17.7855933073
 21
15.3608043936
 31
0.0
 11
-17.791918582
 21
15.381924633
 31
0.0
 11
-17.7922881307
 21
15.4033166669
 31
0.0
 11
-17.7910821193
 21
15.4104284286
 31
0.0
  0
SPLINE
  5
292
100
AcDbEntity
  8
ASSI
100
AcDbSpline
 62
253
  6
CONTINUOUS
 70
0
 71
3
 72
12
 73
8
 74
6
 42
0.0000001
 43
0.0000001
 44
0.0000000001
 12
0.0265618288
 22
0.1226086022
 32
0.0
 13
0.1105960185
 23
0.0584720522
 33
0.0
 40
0.0
 40
0.0
 40
0.0
 40
0.0
 40
0.1180186148
 40
0.3067874025
 40
0.5149491827
 40
0.7457717957
 40
1.0
 40
1.0
 40
1.0
 40
1.0
 10
-17.7910821193
 20
15.4104284286
 30
0.0
 10
-17.7900371892
 20
15.4152517944
 30
0.0
 10
-17.7861758594
 20
15.4275473349
 30
0.0
 10
-17.7754787064
 20
15.4463839406
 30
0.0
 10
-17.7580265353
 20
15.4660990016
 30
0.0
 10
-17.7354299038
 20
15.4842979638
 30
0.0
 10
-17.718037524
 20
15.494743062
 30
0.0
 10
-17.7086653149
 20
15.4996981436
 30
0.0
 11
-17.7910821193
 21
15.4104284286
 31
0.0
 11
-17.7866946539
 21
15.4245529332
 31
0.0
 11
-17.7752506556
 21
15.445210087
 31
0.0
 11
-17.7581831287
 21
15.4648787099
 31
0.0
 11
-17.7358347861
 21
15.4831651444
 31
0.0
 11
-17.7086653149
 21
15.4996981436
 31
0.0
  0
SPLINE
  5
293
100
AcDbEntity
  8
ASSI
100
AcDbSpline
 62
253
  6
CONTINUOUS
 70
0
 71
3
 72
12
 73
8
 74
6
 42
0.0000001
 43
0.0000001
 44
0.0000000001
 12
0.0082615124
 22
-0.2416585755
 32
0.0
 13
0.2155181779
 23
-0.1079420378
 33
0.0
 40
0.0
 40
0.0
 40
0.0
 40
0.0
 40
0.1607872481
 40
0.3405119448
 40
0.5377371495
 40
0.7570520285
 40
1.0
 40
1.0
 40
1.0
 40
1.0
 10
-17.6978416654
 20
-2.1325909307
 30
0.0
 10
-17.6973988835
 20
-2.1455428031
 30
0.0
 10
-17.6925263193
 20
-2.172847221
 30
0.0
 10
-17.6733370604
 20
-2.212117375
 30
0.0
 10
-17.6424172118
 20
-2.2491969768
 30
0.0
 10
-17.6010830315
 20
-2.2827587738
 30
0.0
 10
-17.5688325454
 20
-2.3014685499
 30
0.0
 10
-17.5513793107
 20
-2.310209983
 30
0.0
 11
-17.6978416654
 21
-2.1325909307
 31
0.0
 11
-17.691174409
 21
-2.170785254
 31
0.0
 11
-17.6725758966
 21
-2.2099102787
 31
0.0
 11
-17.642552263
 21
-2.2467684629
 31
0.0
 11
-17.6018264991
 21
-2.2804722347
 31
0.0
 11
-17.5513793107
 21
-2.310209983
 31
0.0
  0
SPLINE
  5
294
100
AcDbEntity
  8
ASSI
100
AcDbSpline
 62
253
  6
CONTINUOUS
 70
0
 71
3
 72
15
 73
11
 74
9
 42
0.0000001
 43
0.0000001
 44
0.0000000001
 12
-0.7240343196
 22
0.4382071043
 32
0.0
 13
-0.0285476382
 23
0.8447625181
 33
0.0
 40
0.0
 40
0.0
 40
0.0
 40
0.0
 40
0.0620140845
 40
0.1779025344
 40
0.2979655363
 40
0.4237514951
 40
0.5563758972
 40
0.6965136799
 40
0.8444203826
 40
1.0
 40
1.0
 40
1.0
 40
1.0
 10
-17.2058254105
 20
-3.044846693
 30
0.0
 10
-17.2207921857
 20
-3.0357883555
 30
0.0
 10
-17.2625021233
 20
-3.0077739447
 30
0.0
 10
-17.3256465691
 20
-2.9518565562
 30
0.0
 10
-17.3903015535
 20
-2.8725391174
 30
0.0
 10
-17.444863805
 20
-2.7805080819
 30
0.0
 10
-17.4888123791
 20
-2.6768487622
 30
0.0
 10
-17.5217395486
 20
-2.5627249665
 30
0.0
 10
-17.5433411828
 20
-2.4394043263
 30
0.0
 10
-17.5498992218
 20
-2.3540076089
 30
0.0
 10
-17.5513796987
 20
-2.3101983325
 30
0.0
 11
-17.2058254105
 21
-3.044846693
 31
0.0
 11
-17.2493839219
 21
-3.0156048757
 31
0.0
 11
-17.3228730997
 21
-2.9508410963
 31
0.0
 11
-17.3872516522
 21
-2.8723928686
 31
0.0
 11
-17.4418027649
 21
-2.7811344353
 31
0.0
 11
-17.4859204355
 21
-2.6780807655
 31
0.0
 11
-17.5191147258
 21
-2.564376266
 31
0.0
 11
-17.5410152094
 21
-2.4412921081
 31
0.0
 11
-17.5513796987
 21
-2.3101983325
 31
0.0
  0
SPLINE
  5
295
100
AcDbEntity
  8
ASSI
100
AcDbSpline
 62
253
  6
CONTINUOUS
 70
0
 71
3
 72
28
 73
24
 74
22
 42
0.0000001
 43
0.0000001
 44
0.0000000001
 12
-2.2714361026
 22
-1.1995957034
 32
0.0
 13
-0.0207406171
 23
2.5650508936
 33
0.0
 40
0.0
 40
0.0
 40
0.0
 40
0.0
 40
0.0075937672
 40
0.0428023252
 40
0.0788470965
 40
0.1163852335
 40
0.1559291059
 40
0.1978122283
 40
0.2422075009
 40
0.2891489454
 40
0.3385479992
 40
0.3902075493
 40
0.4438448719
 40
0.4991330189
 40
0.5557021556
 40
0.6131029754
 40
0.6708198381
 40
0.7284276206
 40
0.7856220118
 40
0.8419894447
 40
0.8968972891
 40
0.9497363351
 40
1.0
 40
1.0
 40
1.0
 40
1.0
 10
-1.7674158387
 20
2.6248642528
 30
0.0
 10
-1.7731654244
 20
2.6218277693
 30
0.0
 10
-1.8059160791
 20
2.6053638631
 30
0.0
 10
-1.8695629029
 20
2.5819892332
 30
0.0
 10
-1.9617080708
 20
2.5661204321
 30
0.0
 10
-2.0588570404
 20
2.5659939108
 30
0.0
 10
-2.1597544776
 20
2.5814693865
 30
0.0
 10
-2.2631557923
 20
2.612238009
 30
0.0
 10
-2.3678109138
 20
2.6578390941
 30
0.0
 10
-2.4724637272
 20
2.7176651942
 30
0.0
 10
-2.5758480526
 20
2.7909561014
 30
0.0
 10
-2.6766949116
 20
2.8767913001
 30
0.0
 10
-2.7737641955
 20
2.9741039869
 30
0.0
 10
-2.8658668112
 20
3.0817029732
 30
0.0
 10
-2.9518547982
 20
3.1982622746
 30
0.0
 10
-3.0306138172
 20
3.3222842699
 30
0.0
 10
-3.1011394065
 20
3.4521750017
 30
0.0
 10
-3.1626031986
 20
3.5863973459
 30
0.0
 10
-3.2142867032
 20
3.7234526405
 30
0.0
 10
-3.2554801339
 20
3.8616166493
 30
0.0
 10
-3.2855513279
 20
3.9988227946
 30
0.0
 10
-3.3041058142
 20
4.1327874385
 30
0.0
 10
-3.3088931174
 20
4.2209467288
 30
0.0
 10
-3.3092406172
 20
4.263923015
 30
0.0
 11
-1.7674158387
 21
2.6248642528
 31
0.0
 11
-1.7848429902
 21
2.616104707
 31
0.0
 11
-1.8695798119
 21
2.5848570631
 31
0.0
 11
-1.9606510774
 21
2.5688939861
 31
0.0
 11
-2.0569401622
 21
2.5683946258
 31
0.0
 11
-2.1572650213
 21
2.583363096
 31
0.0
 11
-2.2603548273
 21
2.6136113072
 31
0.0
 11
-2.3649050215
 21
2.6587541756
 31
0.0
 11
-2.4696053894
 21
2.7182241112
 31
0.0
 11
-2.5731428124
 21
2.7912771836
 31
0.0
 11
-2.6742034753
 21
2.8769896384
 31
0.0
 11
-2.7715000249
 21
2.9742704329
 31
0.0
 11
-2.8638285019
 21
3.081921738
 31
0.0
 11
-2.950048244
 21
3.1986364776
 31
0.0
 11
-3.0290255565
 21
3.3229041254
 31
0.0
 11
-3.0996807954
 21
3.4530082862
 31
0.0
 11
-3.1611799487
 21
3.5873747133
 31
0.0
 11
-3.212882164
 21
3.7246739935
 31
0.0
 11
-3.2540872105
 21
3.863268473
 31
0.0
 11
-3.2840890347
 21
4.0008820325
 31
0.0
 11
-3.3024857719
 21
4.1351670076
 31
0.0
 11
-3.3092406172
 21
4.263923015
 31
0.0
  0
SPLINE
  5
296
100
AcDbEntity
  8
ASSI
100
AcDbSpline
 62
253
  6
CONTINUOUS
 70
0
 71
3
 72
11
 73
7
 74
5
 42
0.0000001
 43
0.0000001
 44
0.0000000001
 12
-0.5827888803
 22
17.3474269095
 32
0.0
 13
-0.0096986814
 23
17.3572108702
 33
0.0
 40
0.0
 40
0.0
 40
0.0
 40
0.0
 40
0.2483881815
 40
0.4978455333
 40
0.74837995
 40
1.0
 40
1.0
 40
1.0
 40
1.0
 10
-17.5513797032
 20
-2.3101983302
 30
0.0
 10
-17.5996323266
 20
-0.8738997226
 30
0.0
 10
-17.6842280666
 20
2.0053011571
 30
0.0
 10
-17.7753511492
 20
6.3343201344
 30
0.0
 10
-17.8309841128
 20
10.6826405626
 30
0.0
 10
-17.8443591365
 20
13.5879817378
 30
0.0
 10
-17.8451725974
 20
15.0437891602
 30
0.0
 11
-17.5513797032
 21
-2.3101983302
 31
0.0
 11
-17.6780776485
 21
1.9992663331
 31
0.0
 11
-17.7692780064
 21
6.3281902858
 31
0.0
 11
-17.8249810605
 21
10.6764128863
 31
0.0
 11
-17.8451725974
 21
15.0437891602
 31
0.0
  0
SPLINE
  5
297
100
AcDbEntity
  8
ASSI
100
AcDbSpline
 62
253
  6
CONTINUOUS
 70
0
 71
3
 72
11
 73
7
 74
5
 42
0.0000001
 43
0.0000001
 44
0.0000000001
 12
0.0863010479
 22
-14.5967938161
 32
0.0
 13
0.5071845942
 23
-14.5881783618
 33
0.0
 40
0.0
 40
0.0
 40
0.0
 40
0.0
 40
0.1097567126
 40
0.4077354704
 40
0.7044796212
 40
1.0
 40
1.0
 40
1.0
 40
1.0
 10
12.9358759839
 20
-3.1079159149
 30
0.0
 10
12.939033357
 20
-3.6419479492
 30
0.0
 10
12.9538377356
 20
-5.6258073949
 30
0.0
 10
12.999229747
 20
-9.0533079426
 30
0.0
 10
13.0935932321
 20
-13.3839559338
 30
0.0
 10
13.1811860429
 20
-16.2644271019
 30
0.0
 10
13.2311471707
 20
-17.7014617671
 30
0.0
 11
12.9358759839
 21
-3.1079159149
 31
0.0
 11
12.9478345632
 21
-4.7099949255
 31
0.0
 11
13.00551475
 21
-9.0592060924
 31
0.0
 11
13.0999521874
 21
-13.3897485848
 31
0.0
 11
13.2311471707
 21
-17.7014617671
 31
0.0
  0
SPLINE
  5
298
100
AcDbEntity
  8
ASSI
100
AcDbSpline
 62
253
  6
CONTINUOUS
 70
0
 71
3
 72
17
 73
13
 74
11
 42
0.0000001
 43
0.0000001
 44
0.0000000001
 12
-0.0077255166
 22
1.0317920286
 32
0.0
 13
1.0116734807
 23
0.2093347503
 33
0.0
 40
0.0
 40
0.0
 40
0.0
 40
0.0
 40
0.1283901949
 40
0.2516216347
 40
0.3688179097
 40
0.479566207
 40
0.5840408864
 40
0.6833580183
 40
0.7792393716
 40
0.873530699
 40
0.9680978183
 40
1.0
 40
1.0
 40
1.0
 40
1.0
 10
-3.4494142673
 20
4.2637565197
 30
0.0
 10
-3.4497448942
 20
4.3079138463
 30
0.0
 10
-3.4465784962
 20
4.3945495457
 30
0.0
 10
-3.4292810565
 20
4.5204468997
 30
0.0
 10
-3.3994563977
 20
4.6377879021
 30
0.0
 10
-3.3573901276
 20
4.7444695584
 30
0.0
 10
-3.3036332048
 20
4.8388194608
 30
0.0
 10
-3.2388440332
 20
4.9195849914
 30
0.0
 10
-3.1637244255
 20
4.9857390822
 30
0.0
 10
-3.0791920249
 20
5.0362943103
 30
0.0
 10
-3.0075376194
 20
5.0626841602
 30
0.0
 10
-2.9651481716
 20
5.0727544262
 30
0.0
 10
-2.9543899745
 20
5.0749805047
 30
0.0
 11
-3.4494142673
 21
4.2637565197
 31
0.0
 11
-3.4442655145
 21
4.39613212
 31
0.0
 11
-3.4265960527
 21
4.5220512207
 31
0.0
 11
-3.3964010684
 21
4.6391462969
 31
0.0
 11
-3.3540681943
 21
4.7452882407
 31
0.0
 11
-3.3003258813
 21
4.8387356769
 31
0.0
 11
-3.2359136523
 21
4.9184395176
 31
0.0
 11
-3.1615045194
 21
4.983638433
 31
0.0
 11
-3.0779696996
 21
5.0335144976
 31
0.0
 11
-2.9864485781
 21
5.067352722
 31
0.0
 11
-2.9543899745
 21
5.0749805047
 31
0.0
  0
SPLINE
  5
299
100
AcDbEntity
  8
ASSI
100
AcDbSpline
 62
253
  6
CONTINUOUS
 70
0
 71
3
 72
26
 73
22
 74
20
 42
0.0000001
 43
0.0000001
 44
0.0000000001
 12
2.4688655328
 22
0.5108558834
 32
0.0
 13
0.1650101034
 23
-2.5137054056
 33
0.0
 40
0.0
 40
0.0
 40
0.0
 40
0.0
 40
0.0265708138
 40
0.0678202097
 40
0.1112349951
 40
0.1571824353
 40
0.2058565602
 40
0.2573007085
 40
0.3114244172
 40
0.3680181452
 40
0.4267779288
 40
0.4873504474
 40
0.5493342423
 40
0.6122395053
 40
0.6755023341
 40
0.7386566571
 40
0.8013675956
 40
0.8631791568
 40
0.9233936627
 40
0.981338373
 40
1.0
 40
1.0
 40
1.0
 40
1.0
 10
-2.9543899745
 20
5.0749805047
 30
0.0
 10
-2.9325233857
 20
5.0795051235
 30
0.0
 10
-2.8760212062
 20
5.0877410543
 30
0.0
 10
-2.782250973
 20
5.0880117783
 30
0.0
 10
-2.6734851237
 20
5.071483376
 30
0.0
 10
-2.5620959626
 20
5.0384500793
 30
0.0
 10
-2.4494376813
 20
4.9894052943
 30
0.0
 10
-2.3368662086
 20
4.9250033014
 30
0.0
 10
-2.2257436492
 20
4.8460650368
 30
0.0
 10
-2.1174308127
 20
4.7535858778
 30
0.0
 10
-2.0132535687
 20
4.648720268
 30
0.0
 10
-1.914479616
 20
4.5327578274
 30
0.0
 10
-1.8223296905
 20
4.4071342451
 30
0.0
 10
-1.7379862082
 20
4.2734706585
 30
0.0
 10
-1.6625122221
 20
4.1334919997
 30
0.0
 10
-1.5967814644
 20
3.9888614929
 30
0.0
 10
-1.5415505254
 20
3.8412003127
 30
0.0
 10
-1.4975670825
 20
3.6923721665
 30
0.0
 10
-1.4654978508
 20
3.544608048
 30
0.0
 10
-1.4499079926
 20
3.4307148762
 30
0.0
 10
-1.4447761629
 20
3.3665839341
 30
0.0
 10
-1.4437497106
 20
3.3509473232
 30
0.0
 11
-2.9543899745
 21
5.0749805047
 31
0.0
 11
-2.8881473853
 21
5.0847196907
 31
0.0
 11
-2.7842823695
 21
5.0854143721
 31
0.0
 11
-2.6761380818
 21
5.0694254676
 31
0.0
 11
-2.5650921413
 21
5.0369503374
 31
0.0
 11
-2.4525549753
 21
4.9884004887
 31
0.0
 11
-2.3399393988
 21
4.9243861048
 31
0.0
 11
-2.2286575188
 21
4.8457094146
 31
0.0
 11
-2.1201183027
 21
4.7533683219
 31
0.0
 11
-2.0156985738
 21
4.6485427175
 31
0.0
 11
-1.9166822232
 21
4.5325288798
 31
0.0
 11
-1.8242824664
 21
4.4067417994
 31
0.0
 11
-1.7397027577
 21
4.2728162634
 31
0.0
 11
-1.6640869386
 21
4.1326090406
 31
0.0
 11
-1.5983150528
 21
3.9878233234
 31
0.0
 11
-1.5430607762
 21
3.8398977746
 31
0.0
 11
-1.4990621882
 21
3.6906026352
 31
0.0
 11
-1.4670648734
 21
3.5423952251
 31
0.0
 11
-1.4474898888
 21
3.397807596
 31
0.0
 11
-1.4437497106
 21
3.3509473232
 31
0.0
  0
SPLINE
  5
29A
100
AcDbEntity
  8
ASSI
100
AcDbSpline
 62
253
  6
CONTINUOUS
 70
0
 71
3
 72
14
 73
10
 74
8
 42
0.0000001
 43
0.0000001
 44
0.0000000001
 12
-0.0160711753
 22
-0.692316429
 32
0.0
 13
-0.5073836335
 23
-0.472321731
 33
0.0
 40
0.0
 40
0.0
 40
0.0
 40
0.0
 40
0.1265342882
 40
0.3100573141
 40
0.4845043291
 40
0.6492527438
 40
0.8045650992
 40
0.9521175757
 40
1.0
 40
1.0
 40
1.0
 40
1.0
 10
-1.44072381
 20
3.2144094269
 30
0.0
 10
-1.4414016615
 20
3.185208838
 30
0.0
 10
-1.4452462505
 20
3.1136920966
 30
0.0
 10
-1.4604353814
 20
3.0027262502
 30
0.0
 10
-1.4901091277
 20
2.8855192635
 30
0.0
 10
-1.5319612308
 20
2.7789950991
 30
0.0
 10
-1.5854547031
 20
2.6848183052
 30
0.0
 10
-1.6362596053
 20
2.6213379413
 30
0.0
 10
-1.6684079682
 20
2.5895960515
 30
0.0
 10
-1.676506221
 20
2.582057415
 30
0.0
 11
-1.44072381
 21
3.2144094269
 31
0.0
 11
-1.4455181758
 21
3.1269209311
 31
0.0
 11
-1.46311147
 21
3.0010995535
 31
0.0
 11
-1.4931597429
 21
2.8841351151
 31
0.0
 11
-1.5352838231
 21
2.7781509993
 31
0.0
 11
-1.5887676872
 21
2.6848812722
 31
0.0
 11
-1.6528854924
 21
2.6053677061
 31
0.0
 11
-1.676506221
 21
2.582057415
 31
0.0
  0
SPLINE
  5
29B
100
AcDbEntity
  8
ASSI
100
AcDbSpline
 62
253
  6
CONTINUOUS
 70
0
 71
3
 72
29
 73
25
 74
23
 42
0.0000001
 43
0.0000001
 44
0.0000000001
 12
-2.1264137713
 22
-1.9794714824
 32
0.0
 13
-0.0218327787
 23
2.9011322997
 33
0.0
 40
0.0
 40
0.0
 40
0.0
 40
0.0
 40
0.0225488522
 40
0.0559546177
 40
0.0894655846
 40
0.1237668931
 40
0.1594834797
 40
0.1971030967
 40
0.2369436647
 40
0.2791705449
 40
0.3238170532
 40
0.370799868
 40
0.4199323396
 40
0.4709462981
 40
0.5235314076
 40
0.5773364242
 40
0.6319343992
 40
0.6868352244
 40
0.7416348372
 40
0.7960439291
 40
0.8496690645
 40
0.9019083315
 40
0.9521821663
 40
1.0
 40
1.0
 40
1.0
 40
1.0
 10
-1.676506221
 20
2.582057415
 30
0.0
 10
-1.6924889509
 20
2.5671791451
 30
0.0
 10
-1.7342932957
 20
2.532561972
 30
0.0
 10
-1.8089763085
 20
2.4878960554
 30
0.0
 10
-1.901376755
 20
2.4539337517
 30
0.0
 10
-2.0005477109
 20
2.4368224868
 30
0.0
 10
-2.105093564
 20
2.4366542317
 30
0.0
 10
-2.2136624561
 20
2.45327908
 30
0.0
 10
-2.3249142757
 20
2.4863651589
 30
0.0
 10
-2.4375034445
 20
2.5354168436
 30
0.0
 10
-2.5500783606
 20
2.5997804283
 30
0.0
 10
-2.6612769591
 20
2.6786377494
 30
0.0
 10
-2.769734462
 20
2.7709980754
 30
0.0
 10
-2.8741174073
 20
2.8757131925
 30
0.0
 10
-2.9731474241
 20
2.9915009692
 30
0.0
 10
-3.0655905714
 20
3.1169341418
 30
0.0
 10
-3.1502492924
 20
3.2504006992
 30
0.0
 10
-3.2260444013
 20
3.3901850029
 30
0.0
 10
-3.2920862044
 20
3.5346325815
 30
0.0
 10
-3.3476029624
 20
3.6821302718
 30
0.0
 10
-3.3918328326
 20
3.8308218826
 30
0.0
 10
-3.424096657
 20
3.9784831352
 30
0.0
 10
-3.4439726206
 20
4.1226479873
 30
0.0
 10
-3.4490662686
 20
4.2175145658
 30
0.0
 10
-3.4494142673
 20
4.2637565197
 30
0.0
 11
-1.676506221
 21
2.582057415
 31
0.0
 11
-1.7269784899
 21
2.5403638502
 31
0.0
 11
-1.810191219
 21
2.4906788148
 31
0.0
 11
-1.9014008242
 21
2.4570184122
 31
0.0
 11
-1.9994166891
 21
2.439807502
 31
0.0
 11
-2.1030366099
 21
2.4392395796
 31
0.0
 11
-2.210988135
 21
2.4553196974
 31
0.0
 11
-2.3219033095
 21
2.4878459152
 31
0.0
 11
-2.4343782414
 21
2.5364041516
 31
0.0
 11
-2.547003239
 21
2.6003838077
 31
0.0
 11
-2.658365735
 21
2.6789843994
 31
0.0
 11
-2.7670526681
 21
2.7712118138
 31
0.0
 11
-2.8716797074
 21
2.8758918165
 31
0.0
 11
-2.9709524521
 21
2.9917351726
 31
0.0
 11
-3.0636447607
 21
3.1173349819
 31
0.0
 11
-3.1485381974
 21
3.2510653147
 31
0.0
 11
-3.2244727524
 21
3.3910787593
 31
0.0
 11
-3.290552686
 21
3.5356810029
 31
0.0
 11
-3.3460897708
 21
3.6834410322
 31
0.0
 11
-3.3903320689
 21
3.8325957796
 31
0.0
 11
-3.4225216542
 21
3.9806952418
 31
0.0
 11
-3.4422286342
 21
4.1252129478
 31
0.0
 11
-3.4494142673
 21
4.2637565197
 31
0.0
  0
SPLINE
  5
29C
100
AcDbEntity
  8
ASSI
100
AcDbSpline
 62
253
  6
CONTINUOUS
 70
0
 71
3
 72
15
 73
11
 74
9
 42
0.0000001
 43
0.0000001
 44
0.0000000001
 12
-0.0021357325
 22
0.2936488918
 32
0.0
 13
-0.260755194
 23
0.1350591048
 33
0.0
 40
0.0
 40
0.0
 40
0.0
 40
0.0
 40
0.1197683134
 40
0.2470068581
 40
0.378956534
 40
0.5124548357
 40
0.6442133866
 40
0.7710854443
 40
0.89034471
 40
1.0
 40
1.0
 40
1.0
 40
1.0
 10
13.6277985174
 20
-0.3429662827
 30
0.0
 10
13.627713253
 20
-0.3312430052
 30
0.0
 10
13.6255766488
 20
-0.3070564077
 30
0.0
 10
13.6173612088
 20
-0.270788336
 30
0.0
 10
13.6043298687
 20
-0.2345277913
 30
0.0
 10
13.5869704232
 20
-0.1996400891
 30
0.0
 10
13.5659333241
 20
-0.1674269271
 30
0.0
 10
13.5419965181
 20
-0.1390890232
 30
0.0
 10
13.5160559024
 20
-0.1156869872
 30
0.0
 10
13.4971637869
 20
-0.1033875247
 30
0.0
 10
13.4876327248
 20
-0.0984508762
 30
0.0
 11
13.6277985174
 21
-0.3429662827
 31
0.0
 11
13.6248846245
 21
-0.3079164356
 31
0.0
 11
13.6167446446
 21
-0.2714494294
 31
0.0
 11
13.6036913371
 21
-0.2349664062
 31
0.0
 11
13.5862262422
 21
-0.1998691211
 31
0.0
 11
13.5650204104
 21
-0.1675060834
 31
0.0
 11
13.5408886177
 21
-0.139120743
 31
0.0
 11
13.5147580595
 21
-0.1158037149
 31
0.0
 11
13.4876327248
 21
-0.0984508762
 31
0.0
  0
SPLINE
  5
29D
100
AcDbEntity
  8
ASSI
100
AcDbSpline
 62
253
  6
CONTINUOUS
 70
0
 71
3
 72
16
 73
12
 74
10
 42
0.0000001
 43
0.0000001
 44
0.0000000001
 12
-0.006768593
 22
0.8390251373
 32
0.0
 13
0.7592769153
 23
0.3597571046
 33
0.0
 40
0.0
 40
0.0
 40
0.0
 40
0.0
 40
0.1467225823
 40
0.2875194558
 40
0.4214130577
 40
0.5479343992
 40
0.6672859462
 40
0.7807466907
 40
0.8902876645
 40
0.9980213238
 40
1.0
 40
1.0
 40
1.0
 40
1.0
 10
-3.3092406172
 20
4.263923015
 30
0.0
 10
-3.3095716523
 20
4.30495766
 30
0.0
 10
-3.3066728444
 20
4.3854603555
 30
0.0
 10
-3.2906586959
 20
4.5024446291
 30
0.0
 10
-3.2629953569
 20
4.6114707245
 30
0.0
 10
-3.2239478398
 20
4.710590993
 30
0.0
 10
-3.1740269892
 20
4.7982513224
 30
0.0
 10
-3.1138446585
 20
4.873287587
 30
0.0
 10
-3.0440531692
 20
4.9347449396
 30
0.0
 10
-2.9911178968
 20
4.9663930734
 30
0.0
 10
-2.9633730327
 20
4.979597169
 30
0.0
 10
-2.962872245
 20
4.9798344499
 30
0.0
 11
-3.3092406172
 21
4.263923015
 31
0.0
 11
-3.3045227185
 21
4.3869405197
 31
0.0
 11
-3.2881628924
 21
4.5039382168
 31
0.0
 11
-3.2601553398
 21
4.6127347972
 31
0.0
 11
-3.2208599231
 21
4.7113522384
 31
0.0
 11
-3.1709530538
 21
4.7981725466
 31
0.0
 11
-3.1111219193
 21
4.8722210637
 31
0.0
 11
-3.0419920797
 21
4.9327902602
 31
0.0
 11
-2.9643733884
 21
4.9791200376
 31
0.0
 11
-2.962872245
 21
4.9798344499
 31
0.0
  0
SPLINE
  5
29E
100
AcDbEntity
  8
ASSI
100
AcDbSpline
 62
253
  6
CONTINUOUS
 70
0
 71
3
 72
15
 73
11
 74
9
 42
0.0000001
 43
0.0000001
 44
0.0000000001
 12
-0.0001666693
 22
0.2930800153
 32
0.0
 13
0.2610133734
 23
0.1332964443
 33
0.0
 40
0.0
 40
0.0
 40
0.0
 40
0.0
 40
0.1196245243
 40
0.2464902617
 40
0.3779799486
 40
0.5110733545
 40
0.6426177128
 40
0.7695882173
 40
0.8893581041
 40
1.0
 40
1.0
 40
1.0
 40
1.0
 10
12.9269172055
 20
-0.3422557413
 30
0.0
 10
12.9269105596
 20
-0.3305692221
 30
0.0
 10
12.9288752368
 20
-0.306463363
 30
0.0
 10
12.936903282
 20
-0.2703219898
 30
0.0
 10
12.949812567
 20
-0.2342226033
 30
0.0
 10
12.9671242927
 20
-0.1995106127
 30
0.0
 10
12.9881963763
 20
-0.1674677051
 30
0.0
 10
13.0122576631
 20
-0.1392768654
 30
0.0
 10
13.0384167216
 20
-0.1159840846
 30
0.0
 10
13.0574780717
 20
-0.1037591093
 30
0.0
 10
13.0671044098
 20
-0.0988430522
 30
0.0
 11
12.9269172055
 21
-0.3422557413
 31
0.0
 11
12.9295878381
 21
-0.3072980428
 31
0.0
 11
12.9375363759
 21
-0.2709757582
 31
0.0
 11
12.9504604662
 21
-0.2346705423
 31
0.0
 11
12.9678684925
 21
-0.199763401
 31
0.0
 11
12.9890982751
 21
-0.1675821586
 31
0.0
 11
13.0133422591
 21
-0.13935095
 31
0.0
 11
13.0396782333
 21
-0.1161436556
 31
0.0
 11
13.0671044098
 21
-0.0988430522
 31
0.0
  0
SPLINE
  5
29F
100
AcDbEntity
  8
ASSI
100
AcDbSpline
 62
253
  6
CONTINUOUS
 70
0
 71
3
 72
15
 73
11
 74
9
 42
0.0000001
 43
0.0000001
 44
0.0000000001
 12
-0.0001666709
 22
0.2930800157
 32
0.0
 13
0.2610133746
 23
0.1332964427
 33
0.0
 40
0.0
 40
0.0
 40
0.0
 40
0.0
 40
0.1196246505
 40
0.246490508
 40
0.3779802849
 40
0.5110737329
 40
0.6426180747
 40
0.7695885032
 40
0.8893582639
 40
1.0
 40
1.0
 40
1.0
 40
1.0
 10
-17.8451814235
 20
15.0437935732
 30
0.0
 10
-17.8451880695
 20
15.0554801047
 30
0.0
 10
-17.8432233883
 20
15.079585988
 30
0.0
 10
-17.8351953291
 20
15.115727392
 30
0.0
 10
-17.8222860261
 20
15.1518267984
 30
0.0
 10
-17.8049742842
 20
15.1865387938
 30
0.0
 10
-17.7839021923
 20
15.2185816901
 30
0.0
 10
-17.75984091
 20
15.2467725054
 30
0.0
 10
-17.7336818714
 20
15.2700652552
 30
0.0
 10
-17.7146205435
 20
15.2822902123
 30
0.0
 10
-17.7049942192
 20
15.2872062623
 30
0.0
 11
-17.8451814235
 21
15.0437935732
 31
0.0
 11
-17.8425107856
 21
15.0787513085
 31
0.0
 11
-17.8345622335
 21
15.115073626
 31
0.0
 11
-17.8216381246
 21
15.1513788633
 31
0.0
 11
-17.8042300815
 21
15.1862860101
 31
0.0
 11
-17.7830002904
 21
15.2184672412
 31
0.0
 11
-17.7587563113
 21
15.2466984247
 31
0.0
 11
-17.7324203583
 21
15.2699056873
 31
0.0
 11
-17.7049942192
 21
15.2872062623
 31
0.0
  0
SPLINE
  5
2A0
100
AcDbEntity
  8
ASSI
100
AcDbSpline
 62
253
  6
CONTINUOUS
 70
0
 71
3
 72
15
 73
11
 74
9
 42
0.0000001
 43
0.0000001
 44
0.0000000001
 12
0.0310029971
 22
-0.8966583246
 32
0.0
 13
0.8026000231
 23
-0.403328886
 33
0.0
 40
0.0
 40
0.0
 40
0.0
 40
0.0
 40
0.1467284999
 40
0.2864556893
 40
0.4191434193
 40
0.5450792933
 40
0.6649341342
 40
0.7797727775
 40
0.8910370773
 40
1.0
 40
1.0
 40
1.0
 40
1.0
 10
13.2311471662
 20
-17.7014617648
 30
0.0
 10
13.2326635073
 20
-17.7453168751
 30
0.0
 10
13.2393878107
 20
-17.8308697348
 30
0.0
 10
13.2615158386
 20
-17.9544718936
 30
0.0
 10
13.2952434599
 20
-18.0690066413
 30
0.0
 10
13.3402575626
 20
-18.1731961676
 30
0.0
 10
13.3961349247
 20
-18.265864942
 30
0.0
 10
13.4623311649
 20
-18.3459167771
 30
0.0
 10
13.5380441312
 20
-18.4122523654
 30
0.0
 10
13.5944286059
 20
-18.4469042014
 30
0.0
 10
13.6235798207
 20
-18.4615534995
 30
0.0
 11
13.2311471662
 21
-17.7014617648
 31
0.0
 11
13.2417557218
 21
-17.8326775735
 31
0.0
 11
13.264171901
 21
-17.9560195792
 31
0.0
 11
13.2981478325
 21
-18.0701148993
 31
0.0
 11
13.343304357
 21
-18.1736879961
 31
0.0
 11
13.3991400096
 21
-18.2655886994
 31
0.0
 11
13.4650345126
 21
-18.3447949024
 31
0.0
 11
13.540254175
 21
-18.4104239241
 31
0.0
 11
13.6235798207
 21
-18.4615534995
 31
0.0
  0
SPLINE
  5
2A1
100
AcDbEntity
  8
ASSI
100
AcDbSpline
 62
253
  6
CONTINUOUS
 70
0
 71
3
 72
13
 73
9
 74
7
 42
0.0000001
 43
0.0000001
 44
0.0000000001
 12
-0.0143798377
 22
-0.3373286778
 32
0.0
 13
-0.3120404767
 23
-0.1310932904
 33
0.0
 40
0.0
 40
0.0
 40
0.0
 40
0.0
 40
0.1990429368
 40
0.3847908933
 40
0.557088006
 40
0.7172159128
 40
0.8680860164
 40
1.0
 40
1.0
 40
1.0
 40
1.0
 10
14.6129187084
 20
-18.18718928
 30
0.0
 10
14.61196464
 20
-18.2095702436
 30
0.0
 10
14.6074875813
 20
-18.2527945678
 30
0.0
 10
14.5921974687
 20
-18.3138412683
 30
0.0
 10
14.5688224067
 20
-18.3676063564
 30
0.0
 10
14.5377770045
 20
-18.4127409125
 30
0.0
 10
14.5008376467
 20
-18.4468934732
 30
0.0
 10
14.4728319629
 20
-18.4626198371
 30
0.0
 10
14.4591111288
 20
-18.4683841831
 30
0.0
 11
14.6129187084
 21
-18.18718928
 31
0.0
 11
14.6057049459
 21
-18.2540048592
 31
0.0
 11
14.5901261296
 21
-18.3147541302
 31
0.0
 11
14.5665654166
 21
-18.3679429801
 31
0.0
 11
14.5356022768
 21
-18.4122632422
 31
0.0
 11
14.4979982408
 21
-18.4466248709
 31
0.0
 11
14.4591111288
 21
-18.4683841831
 31
0.0
  0
SPLINE
  5
2A2
100
AcDbEntity
  8
ASSI
100
AcDbSpline
 62
253
  6
CONTINUOUS
 70
0
 71
3
 72
17
 73
13
 74
11
 42
0.0000001
 43
0.0000001
 44
0.0000000001
 12
-0.6380553888
 22
-0.3397035049
 32
0.0
 13
-0.6467567984
 23
0.3228293576
 33
0.0
 40
0.0
 40
0.0
 40
0.0
 40
0.0
 40
0.0909939725
 40
0.188357308
 40
0.2907043301
 40
0.3963948789
 40
0.5036318121
 40
0.6105485603
 40
0.7152927759
 40
0.8161107568
 40
0.9114376027
 40
1.0
 40
1.0
 40
1.0
 40
1.0
 10
13.931731049
 20
-17.6868736119
 30
0.0
 10
13.9123779842
 20
-17.697177269
 30
0.0
 10
13.8709430858
 20
-17.7159792493
 30
0.0
 10
13.8043932775
 20
-17.7381566636
 30
0.0
 10
13.7326282876
 20
-17.7548715331
 30
0.0
 10
13.6573534635
 20
-17.7657221403
 30
0.0
 10
13.580347464
 20
-17.770452166
 30
0.0
 10
13.5034382835
 20
-17.7689482693
 30
0.0
 10
13.4284511496
 20
-17.7612476469
 30
0.0
 10
13.3571551552
 20
-17.7475317489
 30
0.0
 10
13.2912422938
 20
-17.7281304704
 30
0.0
 10
13.2502405471
 20
-17.7110034996
 30
0.0
 10
13.2311477696
 20
-17.701473319
 30
0.0
 11
13.931731049
 21
-17.6868736119
 31
0.0
 11
13.8719509767
 21
-17.7143090117
 31
0.0
 11
13.8052465209
 21
-17.7367531919
 31
0.0
 11
13.7332239725
 21
-17.7536656807
 31
0.0
 11
13.6576176856
 21
-17.7646392131
 31
0.0
 11
13.5802483136
 21
-17.7694095389
 31
0.0
 11
13.5029789658
 21
-17.7678617851
 31
0.0
 11
13.4276703433
 21
-17.7600332227
 31
0.0
 11
13.3561359312
 21
-17.7461123692
 31
0.0
 11
13.2900983292
 21
-17.7264344485
 31
0.0
 11
13.2311477696
 21
-17.701473319
 31
0.0
  0
SPLINE
  5
2A3
100
AcDbEntity
  8
ASSI
100
AcDbSpline
 62
253
  6
CONTINUOUS
 70
0
 71
3
 72
18
 73
14
 74
12
 42
0.0000001
 43
0.0000001
 44
0.0000000001
 12
-0.6479053051
 22
-0.3171213201
 32
0.0
 13
-0.6452008356
 23
0.3225881239
 33
0.0
 40
0.0
 40
0.0
 40
0.0
 40
0.0
 40
0.0814478825
 40
0.1685621118
 40
0.2603098872
 40
0.3554511858
 40
0.4526394032
 40
0.5504419653
 40
0.6474040962
 40
0.7421014841
 40
0.833203999
 40
0.9194977651
 40
1.0
 40
1.0
 40
1.0
 40
1.0
 10
13.6277985174
 20
-0.3429662827
 30
0.0
 10
13.6102083457
 20
-0.3515759027
 30
0.0
 10
13.5727698285
 20
-0.3673239695
 30
0.0
 10
13.5129701435
 20
-0.3860624899
 30
0.0
 10
13.4485985024
 20
-0.4004349636
 30
0.0
 10
13.380923446
 20
-0.4101536181
 30
0.0
 10
13.3112716604
 20
-0.4150273401
 30
0.0
 10
13.2410130977
 20
-0.4149588995
 30
0.0
 10
13.1715320261
 20
-0.4099497422
 30
0.0
 10
13.1041946865
 20
-0.4000999185
 30
0.0
 10
13.040320136
 20
-0.3856029715
 30
0.0
 10
12.9811631891
 20
-0.3667481142
 30
0.0
 10
12.9442217511
 20
-0.3509076868
 30
0.0
 10
12.9269083813
 20
-0.3422513318
 30
0.0
 11
13.6277985174
 21
-0.3429662827
 31
0.0
 11
13.573728476
 21
-0.365950797
 31
0.0
 11
13.5138137356
 21
-0.3849002331
 31
0.0
 11
13.4492472231
 21
-0.3994353089
 31
0.0
 11
13.3813244041
 21
-0.4092640577
 31
0.0
 11
13.311390997
 21
-0.4141919385
 31
0.0
 11
13.2408410607
 21
-0.4141203246
 31
0.0
 11
13.1710813049
 21
-0.4090506711
 31
0.0
 11
13.103502183
 21
-0.3990844527
 31
0.0
 11
13.0394425762
 21
-0.3844189816
 31
0.0
 11
12.980187596
 21
-0.3653487898
 31
0.0
 11
12.9269083813
 21
-0.3422513318
 31
0.0
  0
SPLINE
  5
2A4
100
AcDbEntity
  8
ASSI
100
AcDbSpline
 62
253
  6
CONTINUOUS
 70
0
 71
3
 72
13
 73
9
 74
7
 42
0.0000001
 43
0.0000001
 44
0.0000000001
 12
-0.215969998
 22
0.1079891143
 32
0.0
 13
-0.0003661403
 23
0.2422910666
 33
0.0
 40
0.0
 40
0.0
 40
0.0
 40
0.0
 40
0.2210664175
 40
0.421724909
 40
0.6025991709
 40
0.7663160048
 40
0.9180129343
 40
1.0
 40
1.0
 40
1.0
 40
1.0
 10
-17.8451725956
 20
15.0437891566
 30
0.0
 10
-17.8610871668
 20
15.0517467455
 30
0.0
 10
-17.8906747147
 20
15.0685836453
 30
0.0
 10
-17.9293595837
 20
15.098124855
 30
0.0
 10
-17.9595507301
 20
15.1303143571
 30
0.0
 10
-17.9805597984
 20
15.164688076
 30
0.0
 10
-17.9901196569
 20
15.1956132596
 30
0.0
 10
-17.991609187
 20
15.2144861952
 30
0.0
 10
-17.9916191933
 20
15.221107773
 30
0.0
 11
-17.8451725956
 21
15.0437891566
 31
0.0
 11
-17.8914156455
 21
15.0704528309
 31
0.0
 11
-17.9296983009
 21
15.1001514569
 31
0.0
 11
-17.9592628508
 21
15.1322980641
 31
0.0
 11
-17.9795155354
 21
15.1662477489
 31
0.0
 11
-17.9900553811
 21
15.2013278962
 31
0.0
 11
-17.9916191933
 21
15.221107773
 31
0.0
  0
SPLINE
  5
2A5
100
AcDbEntity
  8
ASSI
100
AcDbSpline
 62
253
  6
CONTINUOUS
 70
0
 71
3
 72
21
 73
17
 74
15
 42
0.0000001
 43
0.0000001
 44
0.0000000001
 12
0.0358352392
 22
-1.0301967715
 32
0.0
 13
0.950486531
 23
0.3989547676
 33
0.0
 40
0.0
 40
0.0
 40
0.0
 40
0.0
 40
0.0851410635
 40
0.1662748243
 40
0.2433648649
 40
0.3165846796
 40
0.3863284951
 40
0.4532160408
 40
0.5180814047
 40
0.5819322805
 40
0.645869652
 40
0.710985031
 40
0.7782641362
 40
0.8485122009
 40
0.9223099193
 40
1.0
 40
1.0
 40
1.0
 40
1.0
 10
13.931731049
 20
-17.6868736119
 30
0.0
 10
13.9327480658
 20
-17.7161109615
 30
0.0
 10
13.9372576857
 20
-17.7731657913
 30
0.0
 10
13.9520955977
 20
-17.8556085435
 30
0.0
 10
13.9747132591
 20
-17.9320355927
 30
0.0
 10
14.0049000431
 20
-18.0015856618
 30
0.0
 10
14.0423708086
 20
-18.063473138
 30
0.0
 10
14.0867589437
 20
-18.116965341
 30
0.0
 10
14.1375967593
 20
-18.1613915569
 30
0.0
 10
14.1942977603
 20
-18.1961685139
 30
0.0
 10
14.256159146
 20
-18.2208435815
 30
0.0
 10
14.3223968045
 20
-18.2351298462
 30
0.0
 10
14.3921934522
 20
-18.2389093638
 30
0.0
 10
14.4647342421
 20
-18.2322050887
 30
0.0
 10
14.5391935204
 20
-18.2151625005
 30
0.0
 10
14.5883042499
 20
-18.1975208894
 30
0.0
 10
14.6129187084
 20
-18.18718928
 30
0.0
 11
13.931731049
 21
-17.6868736119
 31
0.0
 11
13.9388420387
 21
-17.7743501586
 31
0.0
 11
13.9538712623
 21
-17.8566229793
 31
0.0
 11
13.9766514221
 21
-17.9327537913
 31
0.0
 11
14.0069286132
 21
-18.0018912224
 31
0.0
 11
14.044366565
 21
-18.0632675017
 31
0.0
 11
14.0885494512
 21
-18.116199897
 31
0.0
 11
14.1389853553
 21
-18.1600984336
 31
0.0
 11
14.1951135961
 21
-18.1944747107
 31
0.0
 11
14.256310081
 21
-18.2189459798
 31
0.0
 11
14.3218927984
 21
-18.2332393435
 31
0.0
 11
14.3911324802
 21
-18.237195943
 31
0.0
 11
14.4632600256
 21
-18.2307714481
 31
0.0
 11
14.5374689855
 21
-18.2140381676
 31
0.0
 11
14.6129187084
 21
-18.18718928
 31
0.0
  0
SPLINE
  5
2A6
100
AcDbEntity
  8
CURVE
100
AcDbSpline
 62
253
  6
CONTINUOUS
 70
0
 71
3
 72
23
 73
19
 74
17
 42
0.0000001
 43
0.0000001
 44
0.0000000001
 12
0.160341259
 22
-7.4702427545
 32
0.0
 13
-0.1604776634
 23
7.4765977863
 33
0.0
 40
0.0
 40
0.0
 40
0.0
 40
0.0
 40
0.0625
 40
0.125
 40
0.1875
 40
0.25
 40
0.3125
 40
0.375
 40
0.4375
 40
0.5
 40
0.5625
 40
0.625
 40
0.6875
 40
0.75
 40
0.8125
 40
0.875
 40
0.9375
 40
1.0
 40
1.0
 40
1.0
 40
1.0
 10
-0.3951529164
 20
-4.5186141925
 30
0.0
 10
-0.3918124735
 20
-4.6742442498
 30
0.0
 10
-0.4099948406
 20
-4.9665546958
 30
0.0
 10
-0.511113004
 20
-5.3572026686
 30
0.0
 10
-0.6822191551
 20
-5.6761664139
 30
0.0
 10
-0.9168149666
 20
-5.9135937333
 30
0.0
 10
-1.2059773952
 20
-6.0598116823
 30
0.0
 10
-1.5387323271
 20
-6.1094652083
 30
0.0
 10
-1.9024562297
 20
-6.0606300923
 30
0.0
 10
-2.2832064611
 20
-5.9151957926
 30
0.0
 10
-2.6663435213
 20
-5.6787631919
 30
0.0
 10
-3.0370892256
 20
-5.3604296246
 30
0.0
 10
-3.3810802834
 20
-4.9724574279
 30
0.0
 10
-3.6850592854
 20
-4.5297053085
 30
0.0
 10
-3.9372480351
 20
-4.0489123073
 30
0.0
 10
-4.1277819208
 20
-3.5491169475
 30
0.0
 10
-4.2492996266
 20
-3.0472242893
 30
0.0
 10
-4.2808969282
 20
-2.7298329981
 30
0.0
 10
-4.2842402129
 20
-2.5740705442
 30
0.0
 11
-0.3951529164
 21
-4.5186141925
 31
0.0
 11
-0.4223022761
 21
-4.9585850797
 31
0.0
 11
-0.5227776687
 21
-5.3452552973
 31
0.0
 11
-0.6928007652
 21
-5.6625770096
 31
0.0
 11
-0.9259094028
 21
-5.8983921716
 31
0.0
 11
-1.2132428124
 21
-6.0437176118
 31
0.0
 11
-1.5438938222
 21
-6.0930504346
 31
0.0
 11
-1.9052939512
 21
-6.0445302283
 31
0.0
 11
-2.2836042659
 21
-5.9000294091
 31
0.0
 11
-2.6642782953
 21
-5.6651130308
 31
0.0
 11
-3.0326301178
 21
-5.3488231864
 31
0.0
 11
-3.3744116074
 21
-4.9633274408
 31
0.0
 11
-3.6764275767
 21
-4.5233651615
 31
0.0
 11
-3.9269722244
 21
-4.0457452475
 31
0.0
 11
-4.1162792242
 21
-3.5487673978
 31
0.0
 11
-4.2369460011
 21
-3.0515252429
 31
0.0
 11
-4.2842402129
 21
-2.5740705442
 31
0.0
  0
SPLINE
  5
2A7
100
AcDbEntity
  8
CURVE
100
AcDbSpline
 62
253
  6
CONTINUOUS
 70
0
 71
3
 72
23
 73
19
 74
17
 42
0.0000001
 43
0.0000001
 44
0.0000000001
 12
-0.1603221691
 22
7.4693533613
 32
0.0
 13
0.1604586467
 23
-7.4757118036
 33
0.0
 40
0.0
 40
0.0
 40
0.0
 40
0.0
 40
0.0625
 40
0.125
 40
0.1875
 40
0.25
 40
0.3125
 40
0.375
 40
0.4375
 40
0.5
 40
0.5625
 40
0.625
 40
0.6875
 40
0.75
 40
0.8125
 40
0.875
 40
0.9375
 40
1.0
 40
1.0
 40
1.0
 40
1.0
 10
-4.2842402129
 20
-2.5740705442
 30
0.0
 10
-4.2875802581
 20
-2.4184590158
 30
0.0
 10
-4.2691263898
 20
-2.1260379356
 30
0.0
 10
-4.1668389619
 20
-1.7348200359
 30
0.0
 10
-3.9939740291
 20
-1.4149600786
 30
0.0
 10
-3.7572829854
 20
-1.176453327
 30
0.0
 10
-3.4660012694
 20
-1.0291549319
 30
0.0
 10
-3.1314331665
 20
-0.9786000029
 30
0.0
 10
-2.7665095605
 20
-1.0268415335
 30
0.0
 10
-2.3853418792
 20
-1.172066073
 30
0.0
 10
-2.0026232499
 20
-1.4087070155
 30
0.0
 10
-1.6330580537
 20
-1.7276442792
 30
0.0
 10
-1.2908161776
 20
-2.1165516757
 30
0.0
 10
-0.9889216106
 20
-2.5604026446
 30
0.0
 10
-0.7388427058
 20
-3.0422670912
 30
0.0
 10
-0.5501149154
 20
-3.5429335002
 30
0.0
 10
-0.4298099509
 20
-4.0453736824
 30
0.0
 10
-0.3984958048
 20
-4.3628701965
 30
0.0
 10
-0.3951529164
 20
-4.5186141925
 30
0.0
 11
-4.2842402129
 21
-2.5740705442
 31
0.0
 11
-4.2566919522
 21
-2.1339402224
 31
0.0
 11
-4.1550760444
 21
-1.7467130263
 31
0.0
 11
-3.983336344
 21
-1.4285189462
 31
0.0
 11
-3.74818454
 21
-1.1916547197
 31
0.0
 11
-3.4587868716
 21
-1.0452788429
 31
0.0
 11
-3.126373916
 21
-0.9950660795
 31
0.0
 11
-2.7638022146
 21
-1.0430053683
 31
0.0
 11
-2.3850833878
 21
-1.1873021402
 31
0.0
 11
-2.0048154887
 21
-1.422423069
 31
0.0
 11
-1.6376119404
 21
-1.739305968
 31
0.0
 11
-1.2975407291
 21
-2.1257089377
 31
0.0
 11
-0.9975575543
 21
-2.5667382242
 31
0.0
 11
-0.7490678915
 21
-3.0454007516
 31
0.0
 11
-0.5615187197
 21
-3.5432291291
 31
0.0
 11
-0.4420322418
 21
-4.0410077806
 31
0.0
 11
-0.3951529164
 21
-4.5186141925
 31
0.0
  0
ELLIPSE
  5
2A8
100
AcDbEntity
  8
RACCORDO
100
AcDbEllipse
 62
7
  6
CONTINUOUS
 10
-14.0911028212
 20
17.2388641969
 30
0.0
 11
-0.0894818401
 21
0.1789012953
 31
0.0
 40
0.6122950388
 41
-0.6847996396
 42
0.0137828113
  0
ELLIPSE
  5
2A9
100
AcDbEntity
  8
RACCORDO
100
AcDbEllipse
 62
7
  6
CONTINUOUS
 10
16.4826649968
 20
-17.0767161006
 30
0.0
 11
-0.1825210626
 21
0.4655826378
 31
0.0
 40
0.6539056002
 41
-3.1260220267
 42
-2.199353272
  0
ELLIPSE
  5
2AA
100
AcDbEntity
  8
RACCORDO
100
AcDbEllipse
 62
7
  6
CONTINUOUS
 10
17.2336845005
 20
1.5764705361
 30
0.0
 11
-0.0894578232
 21
0.1788799337
 31
0.0
 40
0.6124778111
 41
-2.255529033
 42
-0.6848850053
  0
ELLIPSE
  5
2AB
100
AcDbEntity
  8
ASSI
100
AcDbEllipse
 62
7
  6
CONTINUOUS
 10
-14.0911028212
 20
17.2388641969
 30
0.0
 11
-0.0894818401
 21
0.1789012953
 31
0.0
 40
0.6122950388
 41
-0.6847996396
 42
0.0137828113
  0
ELLIPSE
  5
2AC
100
AcDbEntity
  8
ASSI
100
AcDbEllipse
 62
7
  6
CONTINUOUS
 10
16.4826649968
 20
-17.0767161006
 30
0.0
 11
-0.1825210626
 21
0.4655826378
 31
0.0
 40
0.6539056002
 41
-3.1260220267
 42
-2.199353272
  0
ELLIPSE
  5
2AD
100
AcDbEntity
  8
ASSI
100
AcDbEllipse
 62
7
  6
CONTINUOUS
 10
17.2336845005
 20
1.5764705361
 30
0.0
 11
-0.0894578232
 21
0.1788799337
 31
0.0
 40
0.6124778111
 41
-2.255529033
 42
-0.6848850053
  0
ENDSEC
  0
SECTION
  2
OBJECTS
  0
DICTIONARY
  5
C
100
AcDbDictionary
280
0
281
1
  3
ACAD_GROUP
350
D
  3
ACAD_MLINESTYLE
350
17
  3
ACAD_LAYOUT
350
1A
  3
ACAD_PLOTSETTINGS
350
19
  3
ACAD_PLOTSTYLENAME
350
E
  0
DICTIONARY
  5
D
102
{ACAD_REACTORS
330
C
102
}
100
AcDbDictionary
280
0
281
1
  0
ACDBDICTIONARYWDFLT
  5
E
102
{ACAD_REACTORS
330
C
102
}
100
AcDbDictionary
281
1
  3
Normal
350
F
100
AcDbDictionaryWithDefault
340
F
  0
DICTIONARY
  5
17
102
{ACAD_REACTORS
330
C
102
}
100
AcDbDictionary
280
0
281
1
  3
Standard
350
18
  0
DICTIONARY
  5
19
102
{ACAD_REACTORS
330
C
102
}
100
AcDbDictionary
281
1
  0
DICTIONARY
  5
1A
102
{ACAD_REACTORS
330
C
102
}
100
AcDbDictionary
281
1
  3
Model
350
2AE
  3
Layout1
350
2AF
  0
ACDBPLACEHOLDER
  5
F
102
{ACAD_REACTORS
330
E
102
}
  0
MLINESTYLE
  5
18
102
{ACAD_REACTORS
330
17
102
}
100
AcDbMlineStyle
  2
STANDARD
 70
0
  3

 62
256
 51
90.0
 52
90.0
 71
2
 49
0.5
 62
256
  6
BYLAYER
 49
-0.5
 62
256
  6
BYLAYER
  0
LAYOUT
  5
2AE
102
{ACAD_REACTORS
330
1A
102
}
100
AcDbPlotSettings
  1

  2
none_device
  4
ISO_A4_(297.00_x_210.00_MM)
  6

 40
0.0
 41
0.0
 42
0.0
 43
0.0
 44
297.0
 45
210.0
 46
0.0
 47
0.0
 48
0.0
 49
0.0
140
0.0
141
0.0
142
1.0
143
1.0
 70
1024
 72
1
 73
0
 74
0
  7

 75
0
147
1.0
148
0.0
149
0.0
100
AcDbLayout
  1
Model
 70
0
 71
0
 10
0.0
 20
0.0
 11
297.0
 21
210.0
 12
0.0
 22
0.0
 32
0.0
 14
0.0
 24
0.0
 34
0.0
 15
0.0
 25
0.0
 35
0.0
146
0.0
 13
0.0
 23
0.0
 33
0.0
 16
1.0
 26
0.0
 36
0.0
 17
0.0
 27
1.0
 37
0.0
 76
0
330
212
345
0
346
0
  0
LAYOUT
  5
2AF
102
{ACAD_REACTORS
330
1A
102
}
100
AcDbPlotSettings
  1

  2
none_device
  4
ISO_A4_(297.00_x_210.00_MM)
  6

 40
0.0
 41
0.0
 42
0.0
 43
0.0
 44
297.0
 45
210.0
 46
0.0
 47
0.0
 48
0.0
 49
0.0
140
0.0
141
0.0
142
1.0
143
1.0
 70
0
 72
1
 73
0
 74
0
  7

 75
0
147
1.0
148
0.0
149
0.0
100
AcDbLayout
  1
Layout1
 70
0
 71
1
 10
0.0
 20
0.0
 11
297.0
 21
210.0
 12
0.0
 22
0.0
 32
0.0
 14
0.0
 24
0.0
 34
0.0
 15
0.0
 25
0.0
 35
0.0
146
0.0
 13
0.0
 23
0.0
 33
0.0
 16
1.0
 26
0.0
 36
0.0
 17
0.0
 27
1.0
 37
0.0
 76
0
330
213
345
0
346
0
  0
ENDSEC
  0
EOF
