  0
SECTION
  2
HEADER
  9
$ACADVER
  1
AC1015
  9
$DWGCODEPAGE
  3
ANSI_1252
  9
$EXTMAX
 10
297.0
 20
210.0
 30
0.0
  9
$EXTMIN
 10
0.0
 20
0.0
 30
0.0
  9
$LIMMIN
 10
0.0
 20
0.0
  9
$LIMMAX
 10
297.0
 20
210.0
  9
$VIEWCTR
 10
148.5
 20
105.0
  9
$VIEWSIZE
 40
210.0
  9
$CLAYER
  8
0
  9
$LTSCALE
 40
16.335
  9
$CELTYPE
  6
BYLAYER
  9
$DIMSCALE
 40
1.0
  9
$DIMASZ
 40
3.0
  9
$DIMEXO
 40
1.85625
  9
$DIMDLI
 40
11.286
  9
$DIMEXE
 40
5.346
  9
$DIMCEN
 40
2.673
  9
$DIMLFAC
 40
1.0
  9
$DIMBLK
  1
_FILLED
  9
$DIMTXT
 40
3.0
  9
$DIMTOL
 70
1
  9
$DIMLIM
 70
0
  9
$DIMTFAC
 40
1.0
  9
$DIMTP
 40
0.01
  9
$DIMTM
 40
0.01
  9
$PDMODE
 70
3
  9
$PDSIZE
 40
3.0
  9
$HANDSEED
  5
2AF
  9
$TILEMODE
 70
1
  9
$MEASUREMENT
 70
1
  9
$INSUNITS
 70
4
  0
ENDSEC
  0
SECTION
  2
CLASSES
  0
CLASS
  1
ACDBDICTIONARYWDFLT
  2
AcDbDictionaryWithDefault
  3
AutoCAD 2000
 90
0
280
0
281
0
  0
CLASS
  1
ACDBPLACEHOLDER
  2
AcDbPlaceHolder
  3
AutoCAD 2000
 90
0
280
0
281
0
  0
CLASS
  1
LAYOUT
  2
AcDbLayout
  3
AutoCAD 2000
 90
0
280
0
281
0
  0
ENDSEC
  0
SECTION
  2
TABLES
  0
TABLE
  2
VPORT
  5
8
100
AcDbSymbolTable
 70
2
  0
VPORT
  5
1F4
100
AcDbSymbolTableRecord
100
AcDbViewportTableRecord
  2
*ACTIVE
 70
0
 10
0.0
 20
0.0
 11
1.0
 21
1.0
 12
148.5
 22
105.0
 13
0.0
 23
0.0
 14
1.0
 24
1.0
 15
0.0
 25
0.0
 16
0.0
 26
0.0
 36
1.0
 17
0.0
 27
0.0
 37
0.0
 40
210.0
 41
1.4142857143
 42
50.0
 43
0.0
 44
0.0
 50
0.0
 51
0.0
 71
0
 72
100
 73
1
 74
1
 75
0
 76
0
 77
0
 78
0
  0
ENDTAB
  0
TABLE
  2
LTYPE
  5
5
100
AcDbSymbolTable
 70
6
  0
LTYPE
  5
14
100
AcDbSymbolTableRecord
100
AcDbLinetypeTableRecord
  2
BYBLOCK
 70
0
  3

 72
65
 73
0
 40
0.0
  0
LTYPE
  5
15
100
AcDbSymbolTableRecord
100
AcDbLinetypeTableRecord
  2
BYLAYER
 70
0
  3

 72
65
 73
0
 40
0.0
  0
LTYPE
  5
16
100
AcDbSymbolTableRecord
100
AcDbLinetypeTableRecord
  2
CONTINUOUS
 70
64
  3
Solid line
 72
65
 73
0
 40
0.0
  0
LTYPE
  5
1F5
100
AcDbSymbolTableRecord
100
AcDbLinetypeTableRecord
  2
CENTER
 70
64
  3
____ _ ____ _ ____ _ ____ _ ____ _ ____ _ ____
 72
65
 73
4
 40
0.6
 49
0.375
 74
0
 49
-0.075
 74
0
 49
0.075
 74
0
 49
-0.075
 74
0
  0
LTYPE
  5
1F6
100
AcDbSymbolTableRecord
100
AcDbLinetypeTableRecord
  2
HIDDEN
 70
64
  3
- - - - - - - - - - - - - - - - - - - -
 72
65
 73
2
 40
0.2
 49
0.1
 74
0
 49
-0.1
 74
0
  0
LTYPE
  5
1F7
100
AcDbSymbolTableRecord
100
AcDbLinetypeTableRecord
  2
PHANTOM
 70
64
  3
_____ _ _ _____ _ _ _____ _ _ _____
 72
65
 73
6
 40
0.8
 49
0.45
 74
0
 49
-0.05
 74
0
 49
0.1
 74
0
 49
-0.05
 74
0
 49
0.1
 74
0
 49
-0.05
 74
0
  0
LTYPE
  5
1F8
100
AcDbSymbolTableRecord
100
AcDbLinetypeTableRecord
  2
DOT
 70
64
  3
. . . . . . . . . . . . . . . . . . . .
 72
65
 73
2
 40
0.2
 49
0.1
 74
0
 49
-0.1
 74
0
  0
LTYPE
  5
1F9
100
AcDbSymbolTableRecord
100
AcDbLinetypeTableRecord
  2
DASHED
 70
64
  3
- - - - - - - - - - - - - - - - - - - -
 72
65
 73
2
 40
0.2
 49
0.1
 74
0
 49
-0.1
 74
0
  0
ENDTAB
  0
TABLE
  2
LAYER
  5
2
100
AcDbSymbolTable
 70
36
  0
LAYER
  5
10
100
AcDbSymbolTableRecord
100
AcDbLayerTableRecord
  2
0
 70
0
 62
7
  6
CONTINUOUS
370
-3
390
F
  0
LAYER
  5
1FA
100
AcDbSymbolTableRecord
100
AcDbLayerTableRecord
  2
DEFAULT_1
 70
0
 62
7
  6
CENTER
370
-3
390
F
  0
LAYER
  5
1FB
100
AcDbSymbolTableRecord
100
AcDbLayerTableRecord
  2
DEFAULT_2
 70
0
 62
7
  6
HIDDEN
370
-3
390
F
  0
LAYER
  5
1FC
100
AcDbSymbolTableRecord
100
AcDbLayerTableRecord
  2
DEFAULT_3
 70
0
 62
7
  6
PHANTOM
370
-3
390
F
  0
LAYER
  5
1FD
100
AcDbSymbolTableRecord
100
AcDbLayerTableRecord
  2
ASSI
 70
0
 62
7
  6
CONTINUOUS
370
-3
390
F
  0
LAYER
  5
1FE
100
AcDbSymbolTableRecord
100
AcDbLayerTableRecord
  2
COORDINATE
 70
0
 62
7
  6
CONTINUOUS
370
-3
390
F
  0
LAYER
  5
1FF
100
AcDbSymbolTableRecord
100
AcDbLayerTableRecord
  2
COORD_ORIGINE
 70
0
 62
7
  6
CONTINUOUS
370
-3
390
F
  0
LAYER
  5
200
100
AcDbSymbolTableRecord
100
AcDbLayerTableRecord
  2
COPY_PUBLISH
 70
0
 62
7
  6
CONTINUOUS
370
-3
390
F
  0
LAYER
  5
201
100
AcDbSymbolTableRecord
100
AcDbLayerTableRecord
  2
COSMETIC
 70
0
 62
7
  6
CONTINUOUS
370
-3
390
F
  0
LAYER
  5
202
100
AcDbSymbolTableRecord
100
AcDbLayerTableRecord
  2
CURVE
 70
0
 62
7
  6
CONTINUOUS
370
-3
390
F
  0
LAYER
  5
203
100
AcDbSymbolTableRecord
100
AcDbLayerTableRecord
  2
DRAFT
 70
0
 62
7
  6
CONTINUOUS
370
-3
390
F
  0
LAYER
  5
204
100
AcDbSymbolTableRecord
100
AcDbLayerTableRecord
  2
IGES
 70
0
 62
7
  6
CONTINUOUS
370
-3
390
F
  0
LAYER
  5
205
100
AcDbSymbolTableRecord
100
AcDbLayerTableRecord
  2
IMPORT_IGES
 70
0
 62
7
  6
CONTINUOUS
370
-3
390
F
  0
LAYER
  5
206
100
AcDbSymbolTableRecord
100
AcDbLayerTableRecord
  2
INTF_6
 70
0
 62
7
  6
CONTINUOUS
370
-3
390
F
  0
LAYER
  5
207
100
AcDbSymbolTableRecord
100
AcDbLayerTableRecord
  2
NOTE
 70
0
 62
7
  6
CONTINUOUS
370
-3
390
F
  0
LAYER
  5
208
100
AcDbSymbolTableRecord
100
AcDbLayerTableRecord
  2
PIANI
 70
0
 62
7
  6
CONTINUOUS
370
-3
390
F
  0
LAYER
  5
209
100
AcDbSymbolTableRecord
100
AcDbLayerTableRecord
  2
PIANI_ORIGINE
 70
0
 62
7
  6
CONTINUOUS
370
-3
390
F
  0
LAYER
  5
20A
100
AcDbSymbolTableRecord
100
AcDbLayerTableRecord
  2
PIANI_RIFERIMENTO
 70
0
 62
7
  6
CONTINUOUS
370
-3
390
F
  0
LAYER
  5
20B
100
AcDbSymbolTableRecord
100
AcDbLayerTableRecord
  2
PUNTI
 70
0
 62
7
  6
CONTINUOUS
370
-3
390
F
  0
LAYER
  5
20C
100
AcDbSymbolTableRecord
100
AcDbLayerTableRecord
  2
RACCORDO
 70
0
 62
7
  6
CONTINUOUS
370
-3
390
F
  0
LAYER
  5
20D
100
AcDbSymbolTableRecord
100
AcDbLayerTableRecord
  2
SMUSSO
 70
0
 62
7
  6
CONTINUOUS
370
-3
390
F
  0
LAYER
  5
20E
100
AcDbSymbolTableRecord
100
AcDbLayerTableRecord
  2
SUPERFICI
 70
0
 62
7
  6
CONTINUOUS
370
-3
390
F
  0
LAYER
  5
20F
100
AcDbSymbolTableRecord
100
AcDbLayerTableRecord
  2
TRASH
 70
0
 62
7
  6
CONTINUOUS
370
-3
390
F
  0
ENDTAB
  0
TABLE
  2
STYLE
  5
3
100
AcDbSymbolTable
 70
1
  0
STYLE
  5
11
100
AcDbSymbolTableRecord
100
AcDbTextStyleTableRecord
  2
STANDARD
 70
0
 40
0.0
 41
0.8
 50
0.0
 71
0
 42
0.2
  3
txt
  4

  0
STYLE
  5
210
100
AcDbSymbolTableRecord
100
AcDbTextStyleTableRecord
  2
TEXTSTYLE_1
 70
0
 40
0.0
 41
0.8
 50
0.0
 71
0
 42
0.2
  3
gdt
  4

  0
ENDTAB
  0
TABLE
  2
VIEW
  5
6
100
AcDbSymbolTable
 70
0
  0
ENDTAB
  0
TABLE
  2
UCS
  5
7
100
AcDbSymbolTable
 70
0
  0
ENDTAB
  0
TABLE
  2
APPID
  5
9
100
AcDbSymbolTable
 70
1
  0
APPID
  5
211
100
AcDbSymbolTableRecord
100
AcDbRegAppTableRecord
  2
ACAD
 70
0
  0
ENDTAB
  0
TABLE
  2
BLOCK_RECORD
  5
1
100
AcDbSymbolTable
 70
0
  0
BLOCK_RECORD
  5
212
100
AcDbSymbolTableRecord
100
AcDbBlockTableRecord
  2
*Model_Space
  0
BLOCK_RECORD
  5
213
100
AcDbSymbolTableRecord
100
AcDbBlockTableRecord
  2
*Paper_Space
  0
ENDTAB
  0
TABLE
  2
DIMSTYLE
  5
A
100
AcDbSymbolTable
 70
1
100
AcDbDimStyleTable
 71
0
  0
DIMSTYLE
105
214
100
AcDbSymbolTableRecord
100
AcDbDimStyleTableRecord
  2
STANDARD
 70
0
  3

  4

 40
1.0
 41
3.0
 42
0.0625
 43
0.38
 44
0.18
 45
0.0
 46
0.0
 47
0.01
 48
0.01
140
3.0
141
0.09
142
0.0
143
25.4
144
1.0
145
0.0
146
1.0
147
0.09
 71
1.0
 72
0.0
 73
0
 74
0
 75
0
 76
0
 77
1
 78
8
170
0
171
2
172
0
173
0
174
0
175
0
176
0
177
0
178
0
270
2
271
2
272
2
273
2
274
2
275
0
280
0
281
0
282
0
283
1
284
8
285
0
286
0
287
3
288
0
340
11
  0
ENDTAB
  0
ENDSEC
  0
SECTION
  2
BLOCKS
  0
BLOCK
  5
20
100
AcDbEntity
  8
0
100
AcDbBlockBegin
  2
*Model_Space
 70
0
 10
0.0
 20
0.0
 30
0.0
  3
*Model_Space
  1

  0
ENDBLK
  5
21
100
AcDbEntity
  8
0
100
AcDbBlockEnd
  0
BLOCK
  5
1C
100
AcDbEntity
  8
0
100
AcDbBlockBegin
  2
*Paper_Space
 70
0
 10
0.0
 20
0.0
 30
0.0
  3
*Paper_Space
  1

  0
ENDBLK
  5
1D
100
AcDbEntity
  8
0
100
AcDbBlockEnd
  0
ENDSEC
  0
SECTION
  2
ENTITIES
  0
LWPOLYLINE
  5
215
100
AcDbEntity
  8
RACCORDO
100
AcDbPolyline
 62
7
  6
CONTINUOUS
 90
19
 70
0
 10
-17.6938065543
 20
16.1244069287
 10
-17.7122435261
 20
16.113675858
 10
-17.7296097503
 20
16.1024530804
 10
-17.7459076386
 20
16.0907798035
 10
-17.7611768872
 20
16.0786722823
 10
-17.7754723263
 20
16.0661234651
 10
-17.7888041539
 20
16.0531549997
 10
-17.8011765289
 20
16.0397958164
 10
-17.812610572
 20
16.0260534556
 10
-17.8231021934
 20
16.0119605405
 10
-17.8326509532
 20
15.9975490439
 10
-17.8412675257
 20
15.9828351022
 10
-17.8489429045
 20
15.9678670917
 10
-17.8556787097
 20
15.9526791756
 10
-17.861488763
 20
15.9372737797
 10
-17.8663677345
 20
15.9216989531
 10
-17.8703149326
 20
15.9059997499
 10
-17.873339518
 20
15.8901776018
 10
-17.8754148275
 20
15.87445549
  0
LWPOLYLINE
  5
216
100
AcDbEntity
  8
ASSI
100
AcDbPolyline
 62
7
  6
CONTINUOUS
 90
11
 70
0
 10
-17.6861252231
 20
16.1285560185
 10
-17.6991869031
 20
16.1213915377
 10
-17.7317441869
 20
16.1009908612
 10
-17.7614759357
 20
16.0784224842
 10
-17.7882481324
 20
16.0537233477
 10
-17.8117739616
 20
16.0271114428
 10
-17.8319217268
 20
15.9987128913
 10
-17.8485326673
 20
15.9687221967
 10
-17.8613310611
 20
15.9377297985
 10
-17.8702605211
 20
15.9062426852
 10
-17.8754103244
 20
15.8745432083
  0
LINE
  5
217
100
AcDbEntity
  8
RACCORDO
100
AcDbLine
 62
7
  6
CONTINUOUS
 10
-17.6861804949
 20
16.1285268118
 11
-17.6938065543
 21
16.1244069287
  0
LINE
  5
218
100
AcDbEntity
  8
RACCORDO
100
AcDbLine
 62
7
  6
CONTINUOUS
 10
-17.6861651739
 20
16.1285353104
 11
-14.0673488489
 21
18.0415980278
  0
LINE
  5
219
100
AcDbEntity
  8
ASSI
100
AcDbLine
 62
7
  6
CONTINUOUS
 10
-17.6861651739
 20
16.1285353104
 11
-14.0673488489
 21
18.0415980278
  0
LINE
  5
21A
100
AcDbEntity
  8
RACCORDO
100
AcDbLine
 62
253
  6
CONTINUOUS
 10
-17.5939279056
 20
16.1243029934
 11
-13.9763869535
 21
18.0366914936
  0
LINE
  5
21B
100
AcDbEntity
  8
ASSI
100
AcDbLine
 62
253
  6
CONTINUOUS
 10
-17.5939279056
 20
16.1243029934
 11
-13.9763869535
 21
18.0366914936
  0
LINE
  5
21C
100
AcDbEntity
  8
DRAFT
100
AcDbLine
 62
7
  6
CONTINUOUS
 10
-12.288145466
 20
16.2678710686
 11
-13.3551308822
 21
15.5820700468
  0
LINE
  5
21D
100
AcDbEntity
  8
ASSI
100
AcDbLine
 62
7
  6
CONTINUOUS
 10
-12.288145466
 20
16.2678710686
 11
-13.3551308822
 21
15.5820700468
  0
LINE
  5
21E
100
AcDbEntity
  8
DRAFT
100
AcDbLine
 62
7
  6
CONTINUOUS
 10
-12.288145466
 20
17.1925707498
 11
-14.2238743278
 21
16.0164417695
  0
LINE
  5
21F
100
AcDbEntity
  8
ASSI
100
AcDbLine
 62
7
  6
CONTINUOUS
 10
-12.288145466
 20
17.1925707498
 11
-14.2238743278
 21
16.0164417695
  0
LINE
  5
220
100
AcDbEntity
  8
ASSI
100
AcDbLine
 62
7
  6
CONTINUOUS
 10
-17.8754103244
 20
15.8745432083
 11
-17.8768903008
 21
15.8457139791
  0
LWPOLYLINE
  5
221
100
AcDbEntity
  8
RACCORDO
100
AcDbPolyline
 62
7
  6
CONTINUOUS
 90
3
 70
0
 10
-17.8754398612
 20
15.8742658398
 10
-17.8766139486
 20
15.8583290679
 10
-17.876890372
 20
15.8457829286
  0
LWPOLYLINE
  5
222
100
AcDbEntity
  8
ASSI
100
AcDbPolyline
 62
7
  6
CONTINUOUS
 90
13
 70
0
 10
-17.5831045782
 20
-1.5079860921
 10
-17.5812827145
 20
-1.5470790341
 10
-17.5712868397
 20
-1.6511273664
 10
-17.5541523834
 20
-1.7506392308
 10
-17.5301418644
 20
-1.8453337506
 10
-17.4994770978
 20
-1.9350770825
 10
-17.4623228854
 20
-2.0197806599
 10
-17.4189255273
 20
-2.0991180064
 10
-17.3695638658
 20
-2.1727719013
 10
-17.3145051089
 20
-2.2404771912
 10
-17.2541596546
 20
-2.3018401551
 10
-17.1890170708
 20
-2.3564933532
 10
-17.1196104443
 20
-2.4041299174
  0
LWPOLYLINE
  5
223
100
AcDbEntity
  8
RACCORDO
100
AcDbPolyline
 62
7
  6
CONTINUOUS
 90
24
 70
0
 10
-17.5831055359
 20
-1.5079576683
 10
-17.5813421819
 20
-1.5460775044
 10
-17.57743192
 20
-1.5971453549
 10
-17.5717933557
 20
-1.6472964679
 10
-17.5644375259
 20
-1.6965247318
 10
-17.5553825044
 20
-1.7447750443
 10
-17.5446612481
 20
-1.7919377128
 10
-17.5322954428
 20
-1.8379896959
 10
-17.5183087905
 20
-1.882897798
 10
-17.5027578237
 20
-1.9265394335
 10
-17.485678
 20
-1.9688875926
 10
-17.4671057275
 20
-2.0099149764
 10
-17.447125741
 20
-2.0495025877
 10
-17.4258074545
 20
-2.0875974624
 10
-17.4031907379
 20
-2.124207267
 10
-17.3793355858
 20
-2.1593030467
 10
-17.3543249973
 20
-2.1928334712
 10
-17.3282037662
 20
-2.2248082812
 10
-17.3009744965
 20
-2.2552764792
 10
-17.2727008042
 20
-2.2842080249
 10
-17.2434446141
 20
-2.3115824581
 10
-17.2131959696
 20
-2.3374421878
 10
-17.1820184664
 20
-2.3617564872
 10
-17.1499742932
 20
-2.3845010945
  0
LWPOLYLINE
  5
224
100
AcDbEntity
  8
RACCORDO
100
AcDbPolyline
 62
7
  6
CONTINUOUS
 90
3
 70
0
 10
-17.6712544493
 20
1.3535959806
 10
-17.6289273258
 20
-0.0851529311
 10
-17.583105703
 20
-1.5079581717
  0
LWPOLYLINE
  5
225
100
AcDbEntity
  8
RACCORDO
100
AcDbPolyline
 62
7
  6
CONTINUOUS
 90
10
 70
0
 10
-17.8741435347
 20
14.3999167302
 10
-17.8674304
 20
12.9418464336
 10
-17.8567593638
 20
11.485856803
 10
-17.8421305042
 20
10.0319661913
 10
-17.8235439951
 20
8.5801908455
 10
-17.8010000212
 20
7.1305463193
 10
-17.774498794
 20
5.6830487416
 10
-17.744040595
 20
4.2377141064
 10
-17.7096257042
 20
2.7945577691
 10
-17.6712544493
 20
1.3535959806
  0
LWPOLYLINE
  5
226
100
AcDbEntity
  8
ASSI
100
AcDbPolyline
 62
7
  6
CONTINUOUS
 90
10
 70
0
 10
-17.8768909692
 20
15.8458057929
 10
-17.8725070658
 20
13.9529117028
 10
-17.8609681321
 20
11.9982787079
 10
-17.8423068293
 20
10.0474107169
 10
-17.8165235221
 20
8.1003487011
 10
-17.7836186762
 20
6.1571311924
 10
-17.7435928704
 20
4.2177960101
 10
-17.6964468061
 20
2.2823815719
 10
-17.6421813944
 20
0.350928919
 10
-17.5831057029
 20
-1.5079581745
  0
LINE
  5
227
100
AcDbEntity
  8
RACCORDO
100
AcDbLine
 62
7
  6
CONTINUOUS
 10
-17.8768909692
 20
15.8458057905
 11
-17.8741435347
 21
14.3999167302
  0
LINE
  5
228
100
AcDbEntity
  8
DRAFT
100
AcDbLine
 62
7
  6
CONTINUOUS
 10
-13.2692801732
 20
15.6372502799
 11
-13.2692801732
 21
15.5391446922
  0
LINE
  5
229
100
AcDbEntity
  8
ASSI
100
AcDbLine
 62
7
  6
CONTINUOUS
 10
-13.2692801732
 20
15.6372502799
 11
-13.2692801732
 21
15.5391446922
  0
LINE
  5
22A
100
AcDbEntity
  8
DRAFT
100
AcDbLine
 62
7
  6
CONTINUOUS
 10
-12.288145466
 20
17.1925707498
 11
-12.288145466
 21
16.2678710686
  0
LINE
  5
22B
100
AcDbEntity
  8
ASSI
100
AcDbLine
 62
7
  6
CONTINUOUS
 10
-12.288145466
 20
17.1925707498
 11
-12.288145466
 21
16.2678710686
  0
LWPOLYLINE
  5
22C
100
AcDbEntity
  8
RACCORDO
100
AcDbPolyline
 62
7
  6
CONTINUOUS
 90
19
 70
0
 10
13.7712837666
 20
-17.8526464393
 10
13.8085832001
 20
-17.8684641813
 10
13.8467539812
 20
-17.8826382231
 10
13.8857514854
 20
-17.8951287067
 10
13.9255634685
 20
-17.9059054692
 10
13.9661319372
 20
-17.9149260485
 10
14.007389506
 20
-17.922149782
 10
14.0493146093
 20
-17.9275451751
 10
14.0918464065
 20
-17.9310760611
 10
14.1349192267
 20
-17.9327107486
 10
14.1785124717
 20
-17.9324195602
 10
14.2225632409
 20
-17.9301720842
 10
14.2670136613
 20
-17.9259430763
 10
14.3118614997
 20
-17.9197003383
 10
14.3570555954
 20
-17.9114136515
 10
14.4025368107
 20
-17.9010580334
 10
14.4483020423
 20
-17.8885945756
 10
14.4943186947
 20
-17.8739861086
 10
14.540512872
 20
-17.8572117148
  0
LWPOLYLINE
  5
22D
100
AcDbEntity
  8
ASSI
100
AcDbPolyline
 62
7
  6
CONTINUOUS
 90
10
 70
0
 10
13.7383173451
 20
-17.8369487092
 10
13.7952597828
 20
-17.8630430206
 10
13.8702060962
 20
-17.8903843273
 10
13.9481543492
 20
-17.911167574
 10
14.0286999206
 20
-17.9251333603
 10
14.1116280705
 20
-17.9320665616
 10
14.1964865861
 20
-17.9317378202
 10
14.2828054598
 20
-17.9239704959
 10
14.3704658643
 20
-17.9085704342
 10
14.4592092577
 20
-17.8853206349
  0
LINE
  5
22E
100
AcDbEntity
  8
RACCORDO
100
AcDbLine
 62
7
  6
CONTINUOUS
 10
13.7392204658
 20
-17.8374015524
 11
13.7712837666
 21
-17.8526464393
  0
LINE
  5
22F
100
AcDbEntity
  8
RACCORDO
100
AcDbLine
 62
7
  6
CONTINUOUS
 10
-17.0832539314
 20
-2.4253674248
 11
-17.0521033436
 21
-2.4417396492
  0
LINE
  5
230
100
AcDbEntity
  8
ASSI
100
AcDbLine
 62
7
  6
CONTINUOUS
 10
-17.1196104443
 20
-2.4041299174
 11
-17.0512985705
 21
-2.4421409571
  0
LWPOLYLINE
  5
231
100
AcDbEntity
  8
RACCORDO
100
AcDbPolyline
 62
7
  6
CONTINUOUS
 90
3
 70
0
 10
-17.1499742932
 20
-2.3845010945
 10
-17.1170420566
 20
-2.4057091516
 10
-17.0832539314
 20
-2.4253674248
  0
LINE
  5
232
100
AcDbEntity
  8
RACCORDO
100
AcDbLine
 62
7
  6
CONTINUOUS
 10
13.739353775
 20
-17.8374682289
 11
-17.0522257467
 21
-2.4416784681
  0
LINE
  5
233
100
AcDbEntity
  8
ASSI
100
AcDbLine
 62
7
  6
CONTINUOUS
 10
13.739353775
 20
-17.8374682289
 11
-17.0522257467
 21
-2.4416784681
  0
LINE
  5
234
100
AcDbEntity
  8
RACCORDO
100
AcDbLine
 62
7
  6
CONTINUOUS
 10
13.7392211728
 20
-17.8374019066
 11
13.7393534495
 21
-17.8374680662
  0
LINE
  5
235
100
AcDbEntity
  8
RACCORDO
100
AcDbLine
 62
253
  6
CONTINUOUS
 10
13.3458845756
 20
-17.0768569151
 11
-17.4366422894
 21
-1.6855934827
  0
LINE
  5
236
100
AcDbEntity
  8
ASSI
100
AcDbLine
 62
253
  6
CONTINUOUS
 10
13.3458845756
 20
-17.0768569151
 11
-17.4366422894
 21
-1.6855934827
  0
LINE
  5
237
100
AcDbEntity
  8
DRAFT
100
AcDbLine
 62
7
  6
CONTINUOUS
 10
-2.5386805964
 20
5.636550228
 11
-2.7090111298
 21
5.5466311143
  0
LINE
  5
238
100
AcDbEntity
  8
ASSI
100
AcDbLine
 62
7
  6
CONTINUOUS
 10
-2.848134841
 20
5.6044393109
 11
-2.8477222117
 21
5.6046345961
  0
LINE
  5
239
100
AcDbEntity
  8
RACCORDO
100
AcDbLine
 62
7
  6
CONTINUOUS
 10
-2.8477699704
 20
5.6046120173
 11
-2.8477222117
 21
5.6046345961
  0
LWPOLYLINE
  5
23A
100
AcDbEntity
  8
ASSI
100
AcDbPolyline
 62
7
  6
CONTINUOUS
 90
28
 70
0
 10
-2.848138828
 20
5.6044374029
 10
-2.8389101175
 20
5.6086782496
 10
-2.7795009762
 20
5.630084622
 10
-2.7162434651
 20
5.6431178545
 10
-2.6491252912
 20
5.6476778241
 10
-2.5783764783
 20
5.6435431788
 10
-2.5047119388
 20
5.630566203
 10
-2.4290440587
 20
5.6088202643
 10
-2.352231819
 20
5.5785617158
 10
-2.2748251627
 20
5.5400423795
 10
-2.1972852034
 20
5.4934913431
 10
-2.1203413937
 20
5.4393434908
 10
-2.0445551757
 20
5.3780110149
 10
-1.9700586041
 20
5.3095468172
 10
-1.8972798782
 20
5.2341914048
 10
-1.8270094532
 20
5.1526185426
 10
-1.759879503
 20
5.0654731002
 10
-1.6964189038
 20
4.9733715232
 10
-1.6371461258
 20
4.8770042997
 10
-1.5825939811
 20
4.7772072024
 10
-1.5331819451
 20
4.6747544684
 10
-1.4892689928
 20
4.5704125611
 10
-1.4512006528
 20
4.4650564634
 10
-1.4192327345
 20
4.3594961552
 10
-1.3935650718
 20
4.2545384779
 10
-1.3743560106
 20
4.1510783659
 10
-1.3616789351
 20
4.0499399483
 10
-1.355534084
 20
3.951844341
  0
LINE
  5
23B
100
AcDbEntity
  8
RACCORDO
100
AcDbLine
 62
7
  6
CONTINUOUS
 10
-2.8477741316
 20
5.6046100231
 11
-2.8410808361
 21
5.6076807446
  0
LWPOLYLINE
  5
23C
100
AcDbEntity
  8
RACCORDO
100
AcDbPolyline
 62
7
  6
CONTINUOUS
 90
61
 70
0
 10
-2.8410808361
 20
5.6076807446
 10
-2.8152712249
 20
5.6183713185
 10
-2.7882242196
 20
5.6275380455
 10
-2.7604959155
 20
5.6349765965
 10
-2.7321115109
 20
5.6406993179
 10
-2.7031210773
 20
5.6447147536
 10
-2.6734971915
 20
5.6470368302
 10
-2.6432748666
 20
5.6476680365
 10
-2.612509994
 20
5.6466124906
 10
-2.5812081487
 20
5.6438711963
 10
-2.5494180291
 20
5.6394483331
 10
-2.5171978533
 20
5.6333522263
 10
-2.4845678207
 20
5.625583712
 10
-2.4515822201
 20
5.6161530307
 10
-2.418301438
 20
5.6050751851
 10
-2.3847523089
 20
5.5923542276
 10
-2.3509911521
 20
5.5780073181
 10
-2.3170775998
 20
5.5620560959
 10
-2.2830397037
 20
5.544507466
 10
-2.2489334976
 20
5.5253846272
 10
-2.2148169326
 20
5.5047149745
 10
-2.1807174322
 20
5.4825072692
 10
-2.1466895815
 20
5.4587894938
 10
-2.112789961
 20
5.4335942576
 10
-2.0790465262
 20
5.4069326252
 10
-2.0455067042
 20
5.3788319055
 10
-2.0122318381
 20
5.3493342448
 10
-1.9792690116
 20
5.3184708654
 10
-1.9466667562
 20
5.2862774563
 10
-1.9144818507
 20
5.2528014867
 10
-1.8827716826
 20
5.2180934019
 10
-1.8515865413
 20
5.1822007614
 10
-1.820975703
 20
5.1451742485
 10
-1.7909926578
 20
5.1070714276
 10
-1.7616842382
 20
5.0679461455
 10
-1.7330960114
 20
5.0278553565
 10
-1.705277275
 20
4.9868631824
 10
-1.678270811
 20
4.9450289102
 10
-1.6521176123
 20
4.902414497
 10
-1.6268620472
 20
4.8590895767
 10
-1.6025423381
 20
4.8151181686
 10
-1.5791940067
 20
4.7705656954
 10
-1.5568552228
 20
4.7255050519
 10
-1.53555951
 20
4.6800049546
 10
-1.515335868
 20
4.6341319034
 10
-1.496214007
 20
4.5879562477
 10
-1.4782214871
 20
4.5415479073
 10
-1.4613818782
 20
4.4949755247
 10
-1.4457178939
 20
4.4483081748
 10
-1.4312507129
 20
4.4016148978
 10
-1.4179985828
 20
4.3549664745
 10
-1.4059788568
 20
4.3084354132
 10
-1.395206006
 20
4.2620890448
 10
-1.3856920609
 20
4.2159999145
 10
-1.3774487564
 20
4.1702492601
 10
-1.3704835162
 20
4.1249056726
 10
-1.3648000297
 20
4.0800357054
 10
-1.3604013441
 20
4.0357181563
 10
-1.3572870699
 20
3.9920232015
 10
-1.3554518961
 20
3.9490153498
 10
-1.3549239167
 20
3.9192502908
  0
LWPOLYLINE
  5
23D
100
AcDbEntity
  8
RACCORDO
100
AcDbPolyline
 62
7
  6
CONTINUOUS
 90
3
 70
0
 10
-1.6024961119
 20
3.2805950422
 10
-1.6252733562
 20
3.2652697226
 10
-1.6490649524
 20
3.2513969568
  0
LINE
  5
23E
100
AcDbEntity
  8
RACCORDO
100
AcDbLine
 62
7
  6
CONTINUOUS
 10
-1.6490649524
 20
3.2513969568
 11
-1.6526741132
 21
3.249469105
  0
LINE
  5
23F
100
AcDbEntity
  8
ASSI
100
AcDbLine
 62
7
  6
CONTINUOUS
 10
-1.6518859922
 20
3.2498858701
 11
-1.6526773948
 21
3.2494671437
  0
LINE
  5
240
100
AcDbEntity
  8
DRAFT
100
AcDbLine
 62
7
  6
CONTINUOUS
 10
-1.4432680192
 20
3.4760565699
 11
-1.6296681802
 21
3.3879452132
  0
LWPOLYLINE
  5
241
100
AcDbEntity
  8
ASSI
100
AcDbPolyline
 62
7
  6
CONTINUOUS
 90
12
 70
0
 10
-1.3562084712
 20
3.8493037566
 10
-1.362760342
 20
3.7659253222
 10
-1.3746959973
 20
3.6868459546
 10
-1.3918608662
 20
3.612547239
 10
-1.4140386245
 20
3.5435376385
 10
-1.4409259326
 20
3.4803310846
 10
-1.472158226
 20
3.4233293931
 10
-1.5074215323
 20
3.3726891656
 10
-1.5464802003
 20
3.3284410553
 10
-1.5889696213
 20
3.2907390875
 10
-1.6346938693
 20
3.259528426
 10
-1.6518946742
 20
3.2498815345
  0
LINE
  5
242
100
AcDbEntity
  8
ASSI
100
AcDbLine
 62
7
  6
CONTINUOUS
 10
-1.355534084
 20
3.951844341
 11
-1.3549241321
 21
3.9192832085
  0
LWPOLYLINE
  5
243
100
AcDbEntity
  8
RACCORDO
100
AcDbPolyline
 62
7
  6
CONTINUOUS
 90
23
 70
0
 10
-1.3549237909
 20
3.9192460938
 10
-1.3549782477
 20
3.8932950922
 10
-1.3559960071
 20
3.8542684674
 10
-1.3581418614
 20
3.8159283073
 10
-1.3614126631
 20
3.7783482173
 10
-1.365803243
 20
3.741572591
 10
-1.3713107931
 20
3.7056247595
 10
-1.3779290887
 20
3.6705598375
 10
-1.3856486171
 20
3.6364325006
 10
-1.3944638787
 20
3.6032726166
 10
-1.4043635495
 20
3.5711364742
 10
-1.415333471
 20
3.5400778259
 10
-1.4273643255
 20
3.5101277794
 10
-1.4404392228
 20
3.481338536
 10
-1.4545394141
 20
3.4537590097
 10
-1.4696527508
 20
3.427417582
 10
-1.4857553004
 20
3.4023641344
 10
-1.5028284576
 20
3.3786349375
 10
-1.5208716305
 20
3.3562387772
 10
-1.5398598232
 20
3.3352198963
 10
-1.559780747
 20
3.3156051709
 10
-1.5806645999
 20
3.2973832906
 10
-1.6024961119
 20
3.2805950422
  0
LINE
  5
244
100
AcDbEntity
  8
ASSI
100
AcDbLine
 62
7
  6
CONTINUOUS
 10
-1.354923681
 20
3.9192316943
 11
-1.3562084712
 21
3.8493037566
  0
LINE
  5
245
100
AcDbEntity
  8
DRAFT
100
AcDbLine
 62
7
  6
CONTINUOUS
 10
15.6602019638
 20
3.2183970349
 11
13.3532901385
 21
2.2278595364
  0
LINE
  5
246
100
AcDbEntity
  8
ASSI
100
AcDbLine
 62
7
  6
CONTINUOUS
 10
15.6602019638
 20
3.2183970349
 11
13.3532901385
 21
2.2278595364
  0
LINE
  5
247
100
AcDbEntity
  8
RACCORDO
100
AcDbLine
 62
253
  6
CONTINUOUS
 10
17.3484434514
 20
2.3742762911
 11
13.6023701341
 21
0.5261539735
  0
LINE
  5
248
100
AcDbEntity
  8
ASSI
100
AcDbLine
 62
253
  6
CONTINUOUS
 10
17.3484434514
 20
2.3742762911
 11
13.6023701341
 21
0.5261539735
  0
LINE
  5
249
100
AcDbEntity
  8
RACCORDO
100
AcDbLine
 62
253
  6
CONTINUOUS
 10
17.4898648085
 20
2.1303803164
 11
13.7425359267
 21
0.2816385671
  0
LINE
  5
24A
100
AcDbEntity
  8
ASSI
100
AcDbLine
 62
253
  6
CONTINUOUS
 10
17.4898648085
 20
2.1303803164
 11
13.7425359267
 21
0.2816385671
  0
LINE
  5
24B
100
AcDbEntity
  8
RACCORDO
100
AcDbLine
 62
253
  6
CONTINUOUS
 10
13.0416457888
 20
0.2823535215
 11
-17.7304351881
 21
15.6683940099
  0
LINE
  5
24C
100
AcDbEntity
  8
ASSI
100
AcDbLine
 62
253
  6
CONTINUOUS
 10
13.0416457888
 20
0.2823535215
 11
-17.7304351881
 21
15.6683940099
  0
LINE
  5
24D
100
AcDbEntity
  8
RACCORDO
100
AcDbLine
 62
253
  6
CONTINUOUS
 10
13.1818418192
 20
0.5257617975
 11
-17.5902568098
 21
15.911811112
  0
LINE
  5
24E
100
AcDbEntity
  8
ASSI
100
AcDbLine
 62
253
  6
CONTINUOUS
 10
13.1818418192
 20
0.5257617975
 11
-17.5902568098
 21
15.911811112
  0
LINE
  5
24F
100
AcDbEntity
  8
DRAFT
100
AcDbLine
 62
7
  6
CONTINUOUS
 10
-14.2238743278
 20
16.0164417695
 11
13.3532901385
 21
2.2278595364
  0
LINE
  5
250
100
AcDbEntity
  8
ASSI
100
AcDbLine
 62
7
  6
CONTINUOUS
 10
-14.2238743278
 20
16.0164417695
 11
13.3532901385
 21
2.2278595364
  0
LINE
  5
251
100
AcDbEntity
  8
RACCORDO
100
AcDbLine
 62
7
  6
CONTINUOUS
 10
-13.9763869535
 20
18.0366914936
 11
-12.288145466
 21
17.1925707498
  0
LINE
  5
252
100
AcDbEntity
  8
ASSI
100
AcDbLine
 62
7
  6
CONTINUOUS
 10
-13.9763869535
 20
18.0366914936
 11
-12.288145466
 21
17.1925707498
  0
LINE
  5
253
100
AcDbEntity
  8
RACCORDO
100
AcDbLine
 62
7
  6
CONTINUOUS
 10
15.6602019638
 20
3.2183970349
 11
17.3484434514
 21
2.3742762911
  0
LINE
  5
254
100
AcDbEntity
  8
ASSI
100
AcDbLine
 62
7
  6
CONTINUOUS
 10
15.6602019638
 20
3.2183970349
 11
17.3484434514
 21
2.3742762911
  0
LINE
  5
255
100
AcDbEntity
  8
RACCORDO
100
AcDbLine
 62
7
  6
CONTINUOUS
 10
17.4898648085
 20
2.1303803164
 11
17.4898648085
 21
-8.9547646366
  0
LINE
  5
256
100
AcDbEntity
  8
ASSI
100
AcDbLine
 62
7
  6
CONTINUOUS
 10
17.4898648085
 20
2.1303803164
 11
17.4898648085
 21
-8.9547646366
  0
LINE
  5
257
100
AcDbEntity
  8
RACCORDO
100
AcDbLine
 62
7
  6
CONTINUOUS
 10
17.4898648085
 20
-8.9547646366
 11
16.9509809988
 21
-16.6293229536
  0
LINE
  5
258
100
AcDbEntity
  8
ASSI
100
AcDbLine
 62
7
  6
CONTINUOUS
 10
17.4898648085
 20
-8.9547646366
 11
16.9509809988
 21
-16.6293229536
  0
LINE
  5
259
100
AcDbEntity
  8
RACCORDO
100
AcDbLine
 62
253
  6
CONTINUOUS
 10
14.7276561177
 20
-17.5625844303
 11
16.9509809988
 21
-16.6293229536
  0
LINE
  5
25A
100
AcDbEntity
  8
ASSI
100
AcDbLine
 62
253
  6
CONTINUOUS
 10
14.7276561177
 20
-17.5625844303
 11
16.9509809988
 21
-16.6293229536
  0
LWPOLYLINE
  5
25B
100
AcDbEntity
  8
ASSI
100
AcDbPolyline
 62
7
  6
CONTINUOUS
 90
3
 70
0
 10
14.4592092577
 20
-17.8853206349
 10
14.5485334001
 20
-17.8540821153
 10
14.573664631
 20
-17.8438572169
  0
LINE
  5
25C
100
AcDbEntity
  8
RACCORDO
100
AcDbLine
 62
7
  6
CONTINUOUS
 10
14.5738488723
 20
-17.8437801286
 11
16.7846575618
 21
-16.9157724408
  0
LINE
  5
25D
100
AcDbEntity
  8
ASSI
100
AcDbLine
 62
7
  6
CONTINUOUS
 10
14.5738488723
 20
-17.8437801286
 11
16.7846575618
 21
-16.9157724408
  0
LINE
  5
25E
100
AcDbEntity
  8
RACCORDO
100
AcDbLine
 62
7
  6
CONTINUOUS
 10
14.540512872
 20
-17.8572117148
 11
14.5738348032
 21
-17.843785895
  0
ARC
  5
25F
100
AcDbEntity
  8
RACCORDO
100
AcDbCircle
 62
253
  6
CONTINUOUS
 10
531.5754777243
 20
0.5808408234
 40
518.5339178457
100
AcDbArc
 50
180.0329815717
 51
180.338577645
  0
ARC
  5
260
100
AcDbEntity
  8
ASSI
100
AcDbCircle
 62
253
  6
CONTINUOUS
 10
531.5754777243
 20
0.5808408234
 40
518.5339178457
100
AcDbArc
 50
180.0329815717
 51
180.338577645
  0
ARC
  5
261
100
AcDbEntity
  8
RACCORDO
100
AcDbCircle
 62
253
  6
CONTINUOUS
 10
524.4494061013
 20
0.528684694
 40
510.7068844478
100
AcDbArc
 50
180.0277158976
 51
181.2619465208
  0
ARC
  5
262
100
AcDbEntity
  8
ASSI
100
AcDbCircle
 62
253
  6
CONTINUOUS
 10
524.4494061013
 20
0.528684694
 40
510.7068844478
100
AcDbArc
 50
180.0277158976
 51
181.2619465208
  0
ARC
  5
263
100
AcDbEntity
  8
RACCORDO
100
AcDbCircle
 62
253
  6
CONTINUOUS
 10
513.9228416364
 20
0.3037212691
 40
500.1779344107
100
AcDbArc
 50
181.2627393564
 51
181.9896878284
  0
ARC
  5
264
100
AcDbEntity
  8
ASSI
100
AcDbCircle
 62
253
  6
CONTINUOUS
 10
513.9228416364
 20
0.3037212691
 40
500.1779344107
100
AcDbArc
 50
181.2627393564
 51
181.9896878284
  0
ARC
  5
265
100
AcDbEntity
  8
RACCORDO
100
AcDbCircle
 62
253
  6
CONTINUOUS
 10
-2.9270530124
 20
3.8704114279
 40
1.6014957667
100
AcDbArc
 50
1.7691524398
 51
3.7642664723
  0
ARC
  5
266
100
AcDbEntity
  8
ASSI
100
AcDbCircle
 62
253
  6
CONTINUOUS
 10
-2.9270530124
 20
3.8704114279
 40
1.6014957667
100
AcDbArc
 50
1.7691524398
 51
3.7642664723
  0
ARC
  5
267
100
AcDbEntity
  8
RACCORDO
100
AcDbCircle
 62
253
  6
CONTINUOUS
 10
-2.8609946116
 20
3.8725840869
 40
1.5354017841
100
AcDbArc
 50
0.4200341242
 51
1.7642182
  0
ARC
  5
268
100
AcDbEntity
  8
ASSI
100
AcDbCircle
 62
253
  6
CONTINUOUS
 10
-2.8609946116
 20
3.8725840869
 40
1.5354017841
100
AcDbArc
 50
0.4200341242
 51
1.7642182
  0
ARC
  5
269
100
AcDbEntity
  8
ASSI
100
AcDbCircle
 62
253
  6
CONTINUOUS
 10
-2.7982389657
 20
3.8729999126
 40
1.4726447768
100
AcDbArc
 50
358.6776129422
 51
0.4217554206
  0
ARC
  5
26A
100
AcDbEntity
  8
RACCORDO
100
AcDbCircle
 62
7
  6
CONTINUOUS
 10
-1.708610202
 20
4.4072563625
 40
1.1007054639
100
AcDbArc
 50
237.1726665364
 51
240.9484598453
  0
ARC
  5
26B
100
AcDbEntity
  8
RACCORDO
100
AcDbCircle
 62
7
  6
CONTINUOUS
 10
-1.7420173935
 20
4.3477097245
 40
1.0324284262
100
AcDbArc
 50
240.9644641986
 51
243.4252663163
  0
ARC
  5
26C
100
AcDbEntity
  8
RACCORDO
100
AcDbCircle
 62
253
  6
CONTINUOUS
 10
-16.8023540388
 20
-1.9431990831
 40
0.5576173384
100
AcDbArc
 50
236.7290897213
 51
238.815240269
  0
ARC
  5
26D
100
AcDbEntity
  8
RACCORDO
100
AcDbCircle
 62
253
  6
CONTINUOUS
 10
-16.8039879458
 20
-1.9458847535
 40
0.5544737057
100
AcDbArc
 50
238.8159813801
 51
240.0279649063
  0
ARC
  5
26E
100
AcDbEntity
  8
ASSI
100
AcDbCircle
 62
253
  6
CONTINUOUS
 10
-16.8058669659
 20
-1.9491120206
 40
0.5507398195
100
AcDbArc
 50
238.809372773
 51
243.4279550194
  0
ARC
  5
26F
100
AcDbEntity
  8
RACCORDO
100
AcDbCircle
 62
253
  6
CONTINUOUS
 10
-16.8065158698
 20
-1.9503367887
 40
0.549354152
100
AcDbArc
 50
240.0243904081
 51
243.4313441623
  0
ARC
  5
270
100
AcDbEntity
  8
RACCORDO
100
AcDbCircle
 62
253
  6
CONTINUOUS
 10
-1.8787482313
 20
3.6775204128
 40
0.4840821
100
AcDbArc
 50
291.9782690748
 51
297.840198885
  0
SPLINE
  5
271
100
AcDbEntity
  8
RACCORDO
100
AcDbSpline
 62
7
  6
CONTINUOUS
 70
0
 71
3
 72
14
 73
10
 74
8
 42
0.0000001
 43
0.0000001
 44
0.0000000001
 12
-2.1334127319
 22
-1.1262489471
 32
0.0
 13
2.0328953942
 23
-1.3102034695
 33
0.0
 40
0.0
 40
0.0
 40
0.0
 40
0.0
 40
0.1126354234
 40
0.2431064815
 40
0.3946442942
 40
0.5607875776
 40
0.7319683022
 40
0.897607205
 40
1.0
 40
1.0
 40
1.0
 40
1.0
 10
-2.709010971
 20
5.5466311981
 30
0.0
 10
-2.7891102531
 20
5.5043460225
 30
0.0
 10
-2.9378933705
 20
5.3629066197
 30
0.0
 10
-3.0456837586
 20
5.0554963517
 30
0.0
 10
-3.0469874391
 20
4.6903011775
 30
0.0
 10
-2.949734621
 20
4.3058781961
 30
0.0
 10
-2.7675101972
 20
3.9412957581
 30
0.0
 10
-2.5443367162
 20
3.664126815
 30
0.0
 10
-2.3746973175
 20
3.5270431314
 30
0.0
 10
-2.3053127037
 20
3.4823246663
 30
0.0
 11
-2.709010971
 21
5.5466311981
 31
0.0
 11
-2.9092933106
 21
5.3629946732
 31
0.0
 11
-3.0236183965
 21
5.0697372496
 31
0.0
 11
-3.0323544126
 21
4.7042651859
 31
0.0
 11
-2.9373684463
 21
4.3148715631
 31
0.0
 11
-2.7528162417
 21
3.9454400399
 31
0.0
 11
-2.4994266411
 21
3.6364586295
 31
0.0
 11
-2.3053127037
 21
3.4823246663
 31
0.0
  0
SPLINE
  5
272
100
AcDbEntity
  8
RACCORDO
100
AcDbSpline
 62
7
  6
CONTINUOUS
 70
0
 71
3
 72
10
 73
6
 74
4
 42
0.0000001
 43
0.0000001
 44
0.0000000001
 12
0.5309507646
 22
-0.2654753776
 32
0.0
 13
0.5366819963
 23
0.2536896016
 33
0.0
 40
0.0
 40
0.0
 40
0.0
 40
0.0
 40
0.3683960887
 40
0.69741576
 40
1.0
 40
1.0
 40
1.0
 40
1.0
 10
-2.2038894677
 20
3.4243557067
 30
0.0
 10
-2.138689406
 20
3.3917556764
 30
0.0
 10
-2.007604153
 20
3.3431760499
 30
0.0
 10
-1.8072564834
 20
3.3289736389
 30
0.0
 10
-1.6837985628
 20
3.3623577791
 30
0.0
 10
-1.6296680581
 20
3.3879452709
 30
0.0
 11
-2.2038894677
 21
3.4243557067
 31
0.0
 11
-1.997792121
 21
3.3512244976
 31
0.0
 11
-1.8027966763
 21
3.3400917115
 31
0.0
 11
-1.6296680581
 21
3.3879452709
 31
0.0
  0
SPLINE
  5
273
100
AcDbEntity
  8
RACCORDO
100
AcDbSpline
 62
253
  6
CONTINUOUS
 70
0
 71
3
 72
9
 73
5
 74
3
 42
0.0000001
 43
0.0000001
 44
0.0000000001
 12
0.3391227322
 22
0.1616815324
 32
0.0
 13
0.1507748204
 23
0.3442739141
 33
0.0
 40
0.0
 40
0.0
 40
0.0
 40
0.0
 40
0.6219775114
 40
1.0
 40
1.0
 40
1.0
 40
1.0
 10
-1.6296759039
 20
3.3879755142
 30
0.0
 10
-1.5593669995
 20
3.4214962733
 30
0.0
 10
-1.4604962734
 20
3.5063734053
 30
0.0
 10
-1.3985539314
 20
3.615770183
 30
0.0
 10
-1.3795551738
 20
3.6591512769
 30
0.0
 11
-1.6296759039
 21
3.3879755142
 31
0.0
 11
-1.450662231
 21
3.5365651806
 31
0.0
 11
-1.3795551738
 21
3.6591512769
 31
0.0
  0
SPLINE
  5
274
100
AcDbEntity
  8
RACCORDO
100
AcDbSpline
 62
253
  6
CONTINUOUS
 70
0
 71
3
 72
22
 73
18
 74
16
 42
0.0000001
 43
0.0000001
 44
0.0000000001
 12
-2.5607350466
 22
1.2803675233
 32
0.0
 13
2.5607350466
 23
-1.2803675233
 33
0.0
 40
0.0
 40
0.0
 40
0.0
 40
0.0
 40
0.0926031929
 40
0.1728708975
 40
0.252045775
 40
0.3369516027
 40
0.4238704212
 40
0.5094903106
 40
0.590787205
 40
0.6657976871
 40
0.733551015
 40
0.7939124321
 40
0.8471061098
 40
0.8936521728
 40
0.9341960337
 40
0.9693929376
 40
1.0
 40
1.0
 40
1.0
 40
1.0
 10
-2.2294354498
 20
5.4054983522
 30
0.0
 10
-2.3084795303
 20
5.4450203925
 30
0.0
 10
-2.4690310455
 20
5.49915557
 30
0.0
 10
-2.7185543455
 20
5.4671188818
 30
0.0
 10
-2.9060289415
 20
5.3096729727
 30
0.0
 10
-3.0021455331
 20
5.0838875207
 30
0.0
 10
-3.0285187091
 20
4.837414933
 30
0.0
 10
-3.0044024186
 20
4.5950734689
 30
0.0
 10
-2.9459904773
 20
4.3709469293
 30
0.0
 10
-2.8659229361
 20
4.1721330291
 30
0.0
 10
-2.7737702545
 20
4.001178384
 30
0.0
 10
-2.6764527521
 20
3.8577730122
 30
0.0
 10
-2.5787657523
 20
3.7399970089
 30
0.0
 10
-2.4839570343
 20
3.6452085639
 30
0.0
 10
-2.394102598
 20
3.57048377
 30
0.0
 10
-2.310392486
 20
3.5128657311
 30
0.0
 10
-2.2555609757
 20
3.4820449433
 30
0.0
 10
-2.2294354498
 20
3.4689821804
 30
0.0
 11
-2.2294354498
 21
5.4054983522
 31
0.0
 11
-2.4835260741
 21
5.4811791264
 31
0.0
 11
-2.7106351848
 21
5.4460787223
 31
0.0
 11
-2.8869495372
 21
5.3036160399
 31
0.0
 11
-2.9896064384
 21
5.0832717564
 31
0.0
 11
-3.0200061266
 21
4.8362879722
 31
0.0
 11
-2.9975603941
 21
4.5921889946
 31
0.0
 11
-2.9395718898
 21
4.3667763215
 31
0.0
 11
-2.8595332058
 21
4.1674947034
 31
0.0
 11
-2.7674399844
 21
3.9967729328
 31
0.0
 11
-2.6702501459
 21
3.8538784423
 31
0.0
 11
-2.5728464022
 21
3.7368073553
 31
0.0
 11
-2.4784340756
 21
3.6427607242
 31
0.0
 11
-2.3890375649
 21
3.5687198859
 31
0.0
 11
-2.3059114029
 21
3.5117611292
 31
0.0
 11
-2.2294354498
 21
3.4689821804
 31
0.0
  0
SPLINE
  5
275
100
AcDbEntity
  8
RACCORDO
100
AcDbSpline
 62
253
  6
CONTINUOUS
 70
0
 71
3
 72
10
 73
6
 74
4
 42
0.0000001
 43
0.0000001
 44
0.0000000001
 12
-0.3309011026
 22
0.0559207195
 32
0.0
 13
-0.2957943124
 23
-0.1580556585
 33
0.0
 40
0.0
 40
0.0
 40
0.0
 40
0.0
 40
0.158594754
 40
0.9032710887
 40
1.0
 40
1.0
 40
1.0
 40
1.0
 10
-2.3818055869
 20
5.5919929763
 30
0.0
 10
-2.3992986466
 20
5.5949492206
 30
0.0
 10
-2.4997180667
 20
5.607649605
 30
0.0
 10
-2.6149050169
 20
5.5928698245
 30
0.0
 10
-2.6994190669
 20
5.5516250127
 30
0.0
 10
-2.7089563542
 20
5.5465288288
 30
0.0
 11
-2.3818055869
 21
5.5919929763
 31
0.0
 11
-2.4346733477
 21
5.5986059645
 31
0.0
 11
-2.6798234595
 21
5.5607273724
 31
0.0
 11
-2.7089563542
 21
5.5465288288
 31
0.0
  0
SPLINE
  5
276
100
AcDbEntity
  8
RACCORDO
100
AcDbSpline
 62
253
  6
CONTINUOUS
 70
0
 71
3
 72
8
 73
4
 74
2
 42
0.0000001
 43
0.0000001
 44
0.0000000001
 12
0.0835988337
 22
-0.0417994168
 32
0.0
 13
0.0882735387
 23
-0.032464483
 33
0.0
 40
0.0
 40
0.0
 40
0.0
 40
0.0
 40
1.0
 40
1.0
 40
1.0
 40
1.0
 10
-2.2294354498
 20
3.4689821804
 30
0.0
 10
-2.201569172
 20
3.4550490414
 30
0.0
 10
-2.1728378646
 20
3.4424238373
 30
0.0
 10
-2.1434133517
 20
3.431602343
 30
0.0
 11
-2.2294354498
 21
3.4689821804
 31
0.0
 11
-2.1434133517
 21
3.431602343
 31
0.0
  0
SPLINE
  5
277
100
AcDbEntity
  8
RACCORDO
100
AcDbSpline
 62
253
  6
CONTINUOUS
 70
0
 71
3
 72
10
 73
6
 74
4
 42
0.0000001
 43
0.0000001
 44
0.0000000001
 12
0.4497329471
 22
-0.165398916
 32
0.0
 13
0.3975809252
 23
0.2706053485
 33
0.0
 40
0.0
 40
0.0
 40
0.0
 40
0.0
 40
0.3604798126
 40
0.8430695357
 40
1.0
 40
1.0
 40
1.0
 40
1.0
 10
-2.1434133517
 20
3.431602343
 30
0.0
 10
-2.0893734689
 20
3.4117280195
 30
0.0
 10
-1.9575197567
 20
3.3794755982
 30
0.0
 10
-1.7928585576
 20
3.4006158253
 30
0.0
 10
-1.7033610333
 20
3.4508404882
 30
0.0
 10
-1.6825635136
 20
3.4649958959
 30
0.0
 11
-2.1434133517
 21
3.431602343
 31
0.0
 11
-1.9753436405
 21
3.3933019987
 31
0.0
 11
-1.7482360375
 21
3.4284016491
 31
0.0
 11
-1.6825635136
 21
3.4649958959
 31
0.0
  0
SPLINE
  5
278
100
AcDbEntity
  8
RACCORDO
100
AcDbSpline
 62
253
  6
CONTINUOUS
 70
0
 71
3
 72
20
 73
16
 74
14
 42
0.0000001
 43
0.0000001
 44
0.0000000001
 12
1.9147547356
 22
1.3032387614
 32
0.0
 13
-2.0512188492
 23
1.0256094246
 33
0.0
 40
0.0
 40
0.0
 40
0.0
 40
0.0
 40
0.0662565476
 40
0.172252553
 40
0.2807617212
 40
0.3876493116
 40
0.4891401078
 40
0.5827829581
 40
0.667365994
 40
0.7427209878
 40
0.8091277958
 40
0.8672357412
 40
0.9178505631
 40
0.9617902467
 40
1.0
 40
1.0
 40
1.0
 40
1.0
 10
-1.6825635136
 20
3.4649958959
 30
0.0
 10
-1.6402751675
 20
3.4937785962
 30
0.0
 10
-1.5428470561
 20
3.5882869527
 30
0.0
 10
-1.4567261157
 20
3.7905928004
 30
0.0
 10
-1.4303528545
 20
4.0370652508
 30
0.0
 10
-1.454469276
 20
4.2794067005
 30
0.0
 10
-1.5128810072
 20
4.5035332952
 30
0.0
 10
-1.5929484659
 20
4.7023472456
 30
0.0
 10
-1.6851010044
 20
4.8733019624
 30
0.0
 10
-1.7824184173
 20
5.016707382
 30
0.0
 10
-1.8801053412
 20
5.1344834198
 30
0.0
 10
-1.9749139775
 20
5.2292719253
 30
0.0
 10
-2.0647684071
 20
5.3039966843
 30
0.0
 10
-2.1484784331
 20
5.3616148083
 30
0.0
 10
-2.2033099278
 20
5.3924355912
 30
0.0
 10
-2.2294354498
 20
5.4054983522
 30
0.0
 11
-1.6825635136
 21
3.4649958959
 31
0.0
 11
-1.5719216261
 21
3.5708643609
 31
0.0
 11
-1.4692651389
 21
3.7912084373
 31
0.0
 11
-1.4388654755
 21
4.0381922093
 31
0.0
 11
-1.4613112391
 21
4.2822911713
 31
0.0
 11
-1.5192996125
 21
4.5077039099
 31
0.0
 11
-1.5993381834
 21
4.7069855845
 31
0.0
 11
-1.6914312797
 21
4.8777074176
 31
0.0
 11
-1.7886210232
 21
5.0206019557
 31
0.0
 11
-1.8860246867
 21
5.1376730828
 31
0.0
 11
-1.9804369443
 21
5.2317197483
 31
0.0
 11
-2.069833433
 21
5.3057605976
 31
0.0
 11
-2.1529595167
 21
5.3627193934
 31
0.0
 11
-2.2294354498
 21
5.4054983522
 31
0.0
  0
SPLINE
  5
279
100
AcDbEntity
  8
RACCORDO
100
AcDbSpline
 62
253
  6
CONTINUOUS
 70
0
 71
3
 72
11
 73
7
 74
5
 42
0.0000001
 43
0.0000001
 44
0.0000000001
 12
0.0848731424
 22
0.0448360671
 32
0.0
 13
0.0860674104
 23
-0.0415414962
 33
0.0
 40
0.0
 40
0.0
 40
0.0
 40
0.0
 40
0.1417261052
 40
0.4040385915
 40
0.6876714638
 40
1.0
 40
1.0
 40
1.0
 40
1.0
 10
-17.6861613509
 20
16.1285280736
 30
0.0
 10
-17.682151771
 20
16.1306462207
 30
0.0
 10
-17.6701902883
 20
16.135684403
 30
0.0
 10
-17.6481935021
 20
16.1389720095
 30
0.0
 10
-17.6208025868
 20
16.1353758273
 30
0.0
 10
-17.6028883417
 20
16.1286278583
 30
0.0
 10
-17.5939279056
 20
16.1243029934
 30
0.0
 11
-17.6861613509
 21
16.1285280736
 31
0.0
 11
-17.6736417789
 21
16.133798506
 31
0.0
 11
-17.6488847346
 21
16.1377394532
 31
0.0
 11
-17.621968721
 21
16.134533219
 31
0.0
 11
-17.5939279056
 21
16.1243029934
 31
0.0
  0
SPLINE
  5
27A
100
AcDbEntity
  8
RACCORDO
100
AcDbSpline
 62
253
  6
CONTINUOUS
 70
0
 71
3
 72
11
 73
7
 74
5
 42
0.0000001
 43
0.0000001
 44
0.0000000001
 12
0.0863010479
 22
-14.5967938161
 32
0.0
 13
0.5071845942
 23
-14.5881783618
 33
0.0
 40
0.0
 40
0.0
 40
0.0
 40
0.0
 40
0.1097567126
 40
0.4077354704
 40
0.7044796212
 40
1.0
 40
1.0
 40
1.0
 40
1.0
 10
13.0506133932
 20
-2.4833110651
 30
0.0
 10
13.0537707663
 20
-3.0173430995
 30
0.0
 10
13.0685751449
 20
-5.0012025452
 30
0.0
 10
13.1139671563
 20
-8.4287030928
 30
0.0
 10
13.2083306414
 20
-12.7593510841
 30
0.0
 10
13.2959234522
 20
-15.6398222521
 30
0.0
 10
13.34588458
 20
-17.0768569173
 30
0.0
 11
13.0506133932
 21
-2.4833110651
 31
0.0
 11
13.0625719725
 21
-4.0853900758
 31
0.0
 11
13.1202521593
 21
-8.4346012427
 31
0.0
 11
13.2146895967
 21
-12.7651437351
 31
0.0
 11
13.34588458
 21
-17.0768569173
 31
0.0
  0
SPLINE
  5
27B
100
AcDbEntity
  8
RACCORDO
100
AcDbSpline
 62
253
  6
CONTINUOUS
 70
0
 71
3
 72
18
 73
14
 74
12
 42
0.0000001
 43
0.0000001
 44
0.0000000001
 12
-0.3882309728
 22
-0.191513095
 32
0.0
 13
-0.3872041051
 23
0.1935808226
 33
0.0
 40
0.0
 40
0.0
 40
0.0
 40
0.0
 40
0.0815058463
 40
0.1686857655
 40
0.2604735908
 40
0.3556364595
 40
0.4528302513
 40
0.5506259444
 40
0.6475681924
 40
0.7422356527
 40
0.8333027824
 40
0.9195656467
 40
1.0
 40
1.0
 40
1.0
 40
1.0
 10
13.6023701341
 20
0.5261539735
 30
0.0
 10
13.5918224361
 20
0.5209508279
 30
0.0
 10
13.5693678523
 20
0.5114230459
 30
0.0
 10
13.5334910595
 20
0.5000655338
 30
0.0
 10
13.4948658272
 20
0.491330775
 30
0.0
 10
13.4542573595
 20
0.4853960551
 30
0.0
 10
13.4124613064
 20
0.4823777791
 30
0.0
 10
13.3703004371
 20
0.4823365071
 30
0.0
 10
13.3286063304
 20
0.4852730318
 30
0.0
 10
13.2881997405
 20
0.4911283447
 30
0.0
 10
13.2498719429
 20
0.4997876207
 30
0.0
 10
13.2143816952
 20
0.5110752089
 30
0.0
 10
13.1922233231
 20
0.5205716148
 30
0.0
 10
13.1818418192
 20
0.5257617975
 30
0.0
 11
13.6023701341
 21
0.5261539735
 31
0.0
 11
13.5699411353
 21
0.5122507382
 31
0.0
 11
13.5339913675
 21
0.5007650164
 31
0.0
 11
13.4952506111
 21
0.4919330082
 31
0.0
 11
13.4544942308
 21
0.4859320453
 31
0.0
 11
13.4125300037
 21
0.4828811541
 31
0.0
 11
13.3701944763
 21
0.4828416584
 31
0.0
 11
13.3283338064
 21
0.4858143913
 31
0.0
 11
13.2877830669
 21
0.491739575
 31
0.0
 11
13.2493459028
 21
0.5004996453
 31
0.0
 11
13.2137916366
 21
0.5119186853
 31
0.0
 11
13.1818418192
 21
0.5257617975
 31
0.0
  0
SPLINE
  5
27C
100
AcDbEntity
  8
RACCORDO
100
AcDbSpline
 62
253
  6
CONTINUOUS
 70
0
 71
3
 72
15
 73
11
 74
9
 42
0.0000001
 43
0.0000001
 44
0.0000000001
 12
-0.1789959988
 22
0.0895078148
 32
0.0
 13
0.1157339158
 23
0.1637428384
 33
0.0
 40
0.0
 40
0.0
 40
0.0
 40
0.0
 40
0.1599713654
 40
0.3053224785
 40
0.4364228428
 40
0.5551938112
 40
0.6653586915
 40
0.7722663983
 40
0.8819989458
 40
1.0
 40
1.0
 40
1.0
 40
1.0
 10
-17.5902568098
 20
15.911811112
 30
0.0
 10
-17.5998015546
 20
15.9165840078
 30
0.0
 10
-17.6175538559
 20
15.926690567
 30
0.0
 10
-17.6407636782
 20
15.9444381622
 30
0.0
 10
-17.6588817281
 20
15.9637955591
 30
0.0
 10
-17.6714876419
 20
15.9844795034
 30
0.0
 10
-17.6781608844
 20
16.0061462859
 30
0.0
 10
-17.6785495037
 20
16.0282415597
 30
0.0
 10
-17.6726333853
 20
16.0500480244
 30
0.0
 10
-17.6650654877
 20
16.0633743276
 30
0.0
 10
-17.6605132463
 20
16.0698149368
 30
0.0
 11
-17.5902568098
 21
15.911811112
 31
0.0
 11
-17.6179881223
 21
15.9278085647
 31
0.0
 11
-17.640960678
 21
15.9456529357
 31
0.0
 11
-17.6587020195
 21
15.9649821181
 31
0.0
 11
-17.6708558979
 21
15.9854092434
 31
0.0
 11
-17.6771811726
 21
16.0065294828
 31
0.0
 11
-17.6775507214
 21
16.0279215166
 31
0.0
 11
-17.6719572446
 21
16.0491577829
 31
0.0
 11
-17.6605132463
 21
16.0698149368
 31
0.0
  0
SPLINE
  5
27D
100
AcDbEntity
  8
RACCORDO
100
AcDbSpline
 62
253
  6
CONTINUOUS
 70
0
 71
3
 72
10
 73
6
 74
4
 42
0.0000001
 43
0.0000001
 44
0.0000000001
 12
0.0501513692
 22
0.070955238
 32
0.0
 13
0.0766665532
 23
0.0405335632
 33
0.0
 40
0.0
 40
0.0
 40
0.0
 40
0.0
 40
0.300285628
 40
0.633260842
 40
1.0
 40
1.0
 40
1.0
 40
1.0
 10
-17.6605132463
 20
16.0698149368
 30
0.0
 10
-17.6554933345
 20
16.0769172162
 30
0.0
 10
-17.643289126
 20
16.0907038513
 30
0.0
 10
-17.6206924945
 20
16.1089028136
 30
0.0
 10
-17.6033001147
 20
16.1193479118
 30
0.0
 10
-17.5939279056
 20
16.1243029934
 30
0.0
 11
-17.6605132463
 21
16.0698149368
 31
0.0
 11
-17.6434457193
 21
16.0894835597
 31
0.0
 11
-17.6210973768
 21
16.1077699941
 31
0.0
 11
-17.5939279056
 21
16.1243029934
 31
0.0
  0
SPLINE
  5
27E
100
AcDbEntity
  8
RACCORDO
100
AcDbSpline
 62
253
  6
CONTINUOUS
 70
0
 71
3
 72
12
 73
8
 74
6
 42
0.0000001
 43
0.0000001
 44
0.0000000001
 12
0.0082126279
 22
-0.2416880773
 32
0.0
 13
0.2155430831
 23
-0.1079545116
 33
0.0
 40
0.0
 40
0.0
 40
0.0
 40
0.0
 40
0.1608842159
 40
0.340588146
 40
0.5377905622
 40
0.7570801002
 40
1.0
 40
1.0
 40
1.0
 40
1.0
 10
-17.5831052079
 20
-1.5079581549
 30
0.0
 10
-17.5826647805
 20
-1.5209194205
 30
0.0
 10
-17.5777930338
 20
-1.5482339321
 30
0.0
 10
-17.558599651
 20
-1.5875125253
 30
0.0
 10
-17.5276798024
 20
-1.624592127
 30
0.0
 10
-17.4863456222
 20
-1.6581539241
 30
0.0
 10
-17.4540951361
 20
-1.6768637002
 30
0.0
 10
-17.4366419014
 20
-1.6856051332
 30
0.0
 11
-17.5831052079
 21
-1.5079581549
 31
0.0
 11
-17.5764369997
 21
-1.5461804042
 31
0.0
 11
-17.5578384873
 21
-1.5853054289
 31
0.0
 11
-17.5278148537
 21
-1.6221636131
 31
0.0
 11
-17.4870890898
 21
-1.655867385
 31
0.0
 11
-17.4366419014
 21
-1.6856051332
 31
0.0
  0
SPLINE
  5
27F
100
AcDbEntity
  8
RACCORDO
100
AcDbSpline
 62
253
  6
CONTINUOUS
 70
0
 71
3
 72
15
 73
11
 74
9
 42
0.0000001
 43
0.0000001
 44
0.0000000001
 12
-0.6906319167
 22
0.4531392479
 32
0.0
 13
-0.0278627905
 23
0.8244969658
 33
0.0
 40
0.0
 40
0.0
 40
0.0
 40
0.0
 40
0.038959054
 40
0.1576959601
 40
0.2807100257
 40
0.4095877143
 40
0.5454719305
 40
0.6890542008
 40
0.8405963456
 40
1.0
 40
1.0
 40
1.0
 40
1.0
 10
-17.1082620175
 20
-2.4094151324
 30
0.0
 10
-17.1172308062
 20
-2.4035305069
 30
0.0
 10
-17.1528485664
 20
-2.3786671036
 30
0.0
 10
-17.2109091598
 20
-2.3272517065
 30
0.0
 10
-17.2755641442
 20
-2.2479342676
 30
0.0
 10
-17.3301263957
 20
-2.1559032322
 30
0.0
 10
-17.3740749697
 20
-2.0522439125
 30
0.0
 10
-17.4070021393
 20
-1.9381201167
 30
0.0
 10
-17.4286037735
 20
-1.8147994765
 30
0.0
 10
-17.4351618125
 20
-1.7294027592
 30
0.0
 10
-17.4366422894
 20
-1.6855934827
 30
0.0
 11
-17.1082620175
 21
-2.4094151324
 31
0.0
 11
-17.1346465126
 21
-2.3910000259
 31
0.0
 11
-17.2081356904
 21
-2.3262362466
 31
0.0
 11
-17.2725142429
 21
-2.2477880188
 31
0.0
 11
-17.3270653556
 21
-2.1565295856
 31
0.0
 11
-17.3711830261
 21
-2.0534759158
 31
0.0
 11
-17.4043773165
 21
-1.9397714163
 31
0.0
 11
-17.4262778
 21
-1.8166872583
 31
0.0
 11
-17.4366422894
 21
-1.6855934827
 31
0.0
  0
SPLINE
  5
280
100
AcDbEntity
  8
RACCORDO
100
AcDbSpline
 62
253
  6
CONTINUOUS
 70
0
 71
3
 72
27
 73
23
 74
21
 42
0.0000001
 43
0.0000001
 44
0.0000000001
 12
-2.3359061049
 22
-0.9433573678
 32
0.0
 13
-0.0203407198
 23
2.5155944729
 33
0.0
 40
0.0
 40
0.0
 40
0.0
 40
0.0
 40
0.0239838824
 40
0.0607372915
 40
0.0990134258
 40
0.1393347281
 40
0.1820412699
 40
0.2273093506
 40
0.2751736607
 40
0.3255438967
 40
0.3782190701
 40
0.432910899
 40
0.4892860073
 40
0.5469672895
 40
0.6054966056
 40
0.6643481779
 40
0.7230885256
 40
0.7814073547
 40
0.8388829676
 40
0.8948702966
 40
0.9487481548
 40
1.0
 40
1.0
 40
1.0
 40
1.0
 10
-1.6975781296
 20
3.2286185596
 30
0.0
 10
-1.7162528287
 20
3.2210767689
 30
0.0
 10
-1.7647243429
 20
3.2048893504
 30
0.0
 10
-1.8469706614
 20
3.1907252819
 30
0.0
 10
-1.9441196311
 20
3.1905987605
 30
0.0
 10
-2.0450170683
 20
3.2060742363
 30
0.0
 10
-2.1484183829
 20
3.2368428587
 30
0.0
 10
-2.2530735045
 20
3.2824439439
 30
0.0
 10
-2.3577263179
 20
3.342270044
 30
0.0
 10
-2.4611106433
 20
3.4155609511
 30
0.0
 10
-2.5619575023
 20
3.5013961498
 30
0.0
 10
-2.6590267862
 20
3.5987088366
 30
0.0
 10
-2.7511294018
 20
3.706307823
 30
0.0
 10
-2.8371173888
 20
3.8228671243
 30
0.0
 10
-2.9158764078
 20
3.9468891197
 30
0.0
 10
-2.9864019971
 20
4.0767798515
 30
0.0
 10
-3.0478657893
 20
4.2110021957
 30
0.0
 10
-3.0995492939
 20
4.3480574903
 30
0.0
 10
-3.1407427246
 20
4.486221499
 30
0.0
 10
-3.1708139186
 20
4.6234276444
 30
0.0
 10
-3.1893684049
 20
4.7573922882
 30
0.0
 10
-3.194155708
 20
4.8455515786
 30
0.0
 10
-3.1945032078
 20
4.8885278648
 30
0.0
 11
-1.6975781296
 21
3.2286185596
 31
0.0
 11
-1.7548424025
 21
3.2094619128
 31
0.0
 11
-1.8459136681
 21
3.1934988358
 31
0.0
 11
-1.9422027528
 21
3.1929994756
 31
0.0
 11
-2.042527612
 21
3.2079679457
 31
0.0
 11
-2.145617418
 21
3.238216157
 31
0.0
 11
-2.2501676122
 21
3.2833590253
 31
0.0
 11
-2.35486798
 21
3.3428289609
 31
0.0
 11
-2.4584054031
 21
3.4158820333
 31
0.0
 11
-2.5594660659
 21
3.5015944881
 31
0.0
 11
-2.6567626156
 21
3.5988752827
 31
0.0
 11
-2.7490910926
 21
3.7065265877
 31
0.0
 11
-2.8353108346
 21
3.8232413274
 31
0.0
 11
-2.9142881472
 21
3.9475089751
 31
0.0
 11
-2.9849433861
 21
4.0776131359
 31
0.0
 11
-3.0464425393
 21
4.211979563
 31
0.0
 11
-3.0981447547
 21
4.3492788433
 31
0.0
 11
-3.1393498011
 21
4.4878733228
 31
0.0
 11
-3.1693516254
 21
4.6254868822
 31
0.0
 11
-3.1877483625
 21
4.7597718574
 31
0.0
 11
-3.1945032078
 21
4.8885278648
 31
0.0
  0
SPLINE
  5
281
100
AcDbEntity
  8
RACCORDO
100
AcDbSpline
 62
253
  6
CONTINUOUS
 70
0
 71
3
 72
11
 73
7
 74
5
 42
0.0000001
 43
0.0000001
 44
0.0000000001
 12
-0.5827888803
 22
17.3474269095
 32
0.0
 13
-0.0096986814
 23
17.3572108702
 33
0.0
 40
0.0
 40
0.0
 40
0.0
 40
0.0
 40
0.2483881815
 40
0.4978455333
 40
0.74837995
 40
1.0
 40
1.0
 40
1.0
 40
1.0
 10
-17.4366422939
 20
-1.6855934805
 30
0.0
 10
-17.4848949173
 20
-0.2492948728
 30
0.0
 10
-17.5694906573
 20
2.6299060068
 30
0.0
 10
-17.6606137398
 20
6.9589249842
 30
0.0
 10
-17.7162467034
 20
11.3072454123
 30
0.0
 10
-17.7296217272
 20
14.2125865875
 30
0.0
 10
-17.7304351881
 20
15.6683940099
 30
0.0
 11
-17.4366422939
 21
-1.6855934805
 31
0.0
 11
-17.5633402392
 21
2.6238711829
 31
0.0
 11
-17.6545405971
 21
6.9527951355
 31
0.0
 11
-17.7102436511
 21
11.3010177361
 31
0.0
 11
-17.7304351881
 21
15.6683940099
 31
0.0
  0
SPLINE
  5
282
100
AcDbEntity
  8
RACCORDO
100
AcDbSpline
 62
253
  6
CONTINUOUS
 70
0
 71
3
 72
35
 73
31
 74
29
 42
0.0000001
 43
0.0000001
 44
0.0000000001
 12
-0.0265786962
 22
3.5497544195
 32
0.0
 13
0.2326267247
 23
-3.5437530382
 33
0.0
 40
0.0
 40
0.0
 40
0.0
 40
0.0
 40
0.0373186322
 40
0.073137791
 40
0.1072027341
 40
0.139393471
 40
0.1697606819
 40
0.1986287705
 40
0.2264981959
 40
0.2539054553
 40
0.2813928778
 40
0.3095133377
 40
0.338772947
 40
0.3695685413
 40
0.4021606344
 40
0.4366868582
 40
0.4731779546
 40
0.511569755
 40
0.5517136246
 40
0.5933939517
 40
0.6363601138
 40
0.6803273425
 40
0.7249482001
 40
0.7698226914
 40
0.8146202157
 40
0.8591032323
 40
0.9029482898
 40
0.9456605011
 40
0.9867626688
 40
1.0
 40
1.0
 40
1.0
 40
1.0
 10
-3.334676858
 20
4.8883613694
 30
0.0
 10
-3.3350074849
 20
4.932518696
 30
0.0
 10
-3.3318410869
 20
5.0191543955
 30
0.0
 10
-3.3145436472
 20
5.1450517494
 30
0.0
 10
-3.2847189884
 20
5.2623927518
 30
0.0
 10
-3.2426527183
 20
5.3690744081
 30
0.0
 10
-3.1888957954
 20
5.4634243105
 30
0.0
 10
-3.1241066239
 20
5.5441898411
 30
0.0
 10
-3.0489870162
 20
5.6103439319
 30
0.0
 10
-2.9644546156
 20
5.66089916
 30
0.0
 10
-2.8717535493
 20
5.6950403578
 30
0.0
 10
-2.7723039307
 20
5.7123140879
 30
0.0
 10
-2.6675135636
 20
5.712616628
 30
0.0
 10
-2.5587477144
 20
5.6960882257
 30
0.0
 10
-2.4473585533
 20
5.6630549291
 30
0.0
 10
-2.334700272
 20
5.614010144
 30
0.0
 10
-2.2221287993
 20
5.5496081511
 30
0.0
 10
-2.1110062399
 20
5.4706698866
 30
0.0
 10
-2.0026934033
 20
5.3781907276
 30
0.0
 10
-1.8985161594
 20
5.2733251177
 30
0.0
 10
-1.7997422067
 20
5.1573626772
 30
0.0
 10
-1.7075922812
 20
5.0317390948
 30
0.0
 10
-1.6232487989
 20
4.8980755083
 30
0.0
 10
-1.5477748127
 20
4.7580968494
 30
0.0
 10
-1.4820440551
 20
4.6134663426
 30
0.0
 10
-1.4268131161
 20
4.4658051625
 30
0.0
 10
-1.3828296732
 20
4.3169770162
 30
0.0
 10
-1.3507604414
 20
4.1692128977
 30
0.0
 10
-1.3351705833
 20
4.055319726
 30
0.0
 10
-1.3300387536
 20
3.9911887838
 30
0.0
 10
-1.3290123013
 20
3.975552173
 30
0.0
 11
-3.334676858
 21
4.8883613694
 31
0.0
 11
-3.3295281051
 21
5.0207369698
 31
0.0
 11
-3.3118586434
 21
5.1466560705
 31
0.0
 11
-3.2816636591
 21
5.2637511467
 31
0.0
 11
-3.2393307849
 21
5.3698930904
 31
0.0
 11
-3.185588472
 21
5.4633405266
 31
0.0
 11
-3.121176243
 21
5.5430443673
 31
0.0
 11
-3.0467671101
 21
5.6082432827
 31
0.0
 11
-2.9632322903
 21
5.6581193474
 31
0.0
 11
-2.8717111687
 21
5.6919575718
 31
0.0
 11
-2.7734099759
 21
5.7093245405
 31
0.0
 11
-2.6695449602
 21
5.7100192218
 31
0.0
 11
-2.5614006725
 21
5.6940303174
 31
0.0
 11
-2.450354732
 21
5.6615551872
 31
0.0
 11
-2.337817566
 21
5.6130053384
 31
0.0
 11
-2.2252019895
 21
5.5489909546
 31
0.0
 11
-2.1139201095
 21
5.4703142644
 31
0.0
 11
-2.0053808934
 21
5.3779731717
 31
0.0
 11
-1.9009611644
 21
5.2731475673
 31
0.0
 11
-1.8019448138
 21
5.1571337295
 31
0.0
 11
-1.7095450571
 21
5.0313466491
 31
0.0
 11
-1.6249653484
 21
4.8974211131
 31
0.0
 11
-1.5493495293
 21
4.7572138904
 31
0.0
 11
-1.4835776435
 21
4.6124281732
 31
0.0
 11
-1.4283233669
 21
4.4645026243
 31
0.0
 11
-1.3843247789
 21
4.315207485
 31
0.0
 11
-1.3523274641
 21
4.1670000749
 31
0.0
 11
-1.3327524795
 21
4.0224124458
 31
0.0
 11
-1.3290123013
 21
3.975552173
 31
0.0
  0
SPLINE
  5
283
100
AcDbEntity
  8
RACCORDO
100
AcDbSpline
 62
253
  6
CONTINUOUS
 70
0
 71
3
 72
35
 73
31
 74
29
 42
0.0000001
 43
0.0000001
 44
0.0000000001
 12
0.0263151292
 22
-3.6381979046
 32
0.0
 13
-0.0273795849
 23
3.6381900496
 33
0.0
 40
0.0
 40
0.0
 40
0.0
 40
0.0
 40
0.036394611
 40
0.0713135783
 40
0.1045056511
 40
0.1358523689
 40
0.1654036856
 40
0.1934785284
 40
0.220569828
 40
0.2472079486
 40
0.2739299579
 40
0.3012821942
 40
0.3297629887
 40
0.3597612802
 40
0.3915305824
 40
0.4252027557
 40
0.4608043668
 40
0.4982689741
 40
0.5374477412
 40
0.5781268262
 40
0.6200587643
 40
0.6629634695
 40
0.7065004883
 40
0.7502790032
 40
0.7939768102
 40
0.8373632117
 40
0.8801244777
 40
0.9217806371
 40
0.9618695396
 40
1.0
 40
1.0
 40
1.0
 40
1.0
 10
-1.325634086
 20
3.8838399834
 30
0.0
 10
-1.325314843
 20
3.8397030509
 30
0.0
 10
-1.3284791196
 20
3.7531252986
 30
0.0
 10
-1.3456979721
 20
3.6273310999
 30
0.0
 10
-1.3753717184
 20
3.5101241132
 30
0.0
 10
-1.4172238215
 20
3.4035999488
 30
0.0
 10
-1.4707172938
 20
3.309423155
 30
0.0
 10
-1.5352104198
 20
3.2288394527
 30
0.0
 10
-1.6100184723
 20
3.1628708945
 30
0.0
 10
-1.6942388992
 20
3.1125009052
 30
0.0
 10
-1.7866393457
 20
3.0785386014
 30
0.0
 10
-1.8858103016
 20
3.0614273366
 30
0.0
 10
-1.9903561547
 20
3.0612590814
 30
0.0
 10
-2.0989250468
 20
3.0778839298
 30
0.0
 10
-2.2101768663
 20
3.1109700087
 30
0.0
 10
-2.3227660352
 20
3.1600216934
 30
0.0
 10
-2.4353409513
 20
3.2243852781
 30
0.0
 10
-2.5465395498
 20
3.3032425992
 30
0.0
 10
-2.6549970527
 20
3.3956029251
 30
0.0
 10
-2.7593799979
 20
3.5003180423
 30
0.0
 10
-2.8584100148
 20
3.616105819
 30
0.0
 10
-2.950853162
 20
3.7415389915
 30
0.0
 10
-3.0355118831
 20
3.875005549
 30
0.0
 10
-3.1113069919
 20
4.0147898526
 30
0.0
 10
-3.177348795
 20
4.1592374312
 30
0.0
 10
-3.2328655531
 20
4.3067351216
 30
0.0
 10
-3.2770954232
 20
4.4554267323
 30
0.0
 10
-3.3093592476
 20
4.603087985
 30
0.0
 10
-3.3292352113
 20
4.747252837
 30
0.0
 10
-3.3343288593
 20
4.8421194155
 30
0.0
 10
-3.334676858
 20
4.8883613694
 30
0.0
 11
-1.325634086
 21
3.8838399834
 31
0.0
 11
-1.3307807665
 21
3.7515257808
 31
0.0
 11
-1.3483740606
 21
3.6257044032
 31
0.0
 11
-1.3784223336
 21
3.5087399649
 31
0.0
 11
-1.4205464137
 21
3.4027558491
 31
0.0
 11
-1.4740302779
 21
3.309486122
 31
0.0
 11
-1.5381480831
 21
3.2299725559
 31
0.0
 11
-1.6122410805
 21
3.1649686999
 31
0.0
 11
-1.6954538097
 21
3.1152836645
 31
0.0
 11
-1.7866634149
 21
3.081623262
 31
0.0
 11
-1.8846792798
 21
3.0644123518
 31
0.0
 11
-1.9882992006
 21
3.0638444294
 31
0.0
 11
-2.0962507257
 21
3.0799245472
 31
0.0
 11
-2.2071659002
 21
3.1124507649
 31
0.0
 11
-2.3196408321
 21
3.1610090013
 31
0.0
 11
-2.4322658297
 21
3.2249886575
 31
0.0
 11
-2.5436283257
 21
3.3035892491
 31
0.0
 11
-2.6523152588
 21
3.3958166635
 31
0.0
 11
-2.756942298
 21
3.5004966663
 31
0.0
 11
-2.8562150428
 21
3.6163400223
 31
0.0
 11
-2.9489073514
 21
3.7419398317
 31
0.0
 11
-3.033800788
 21
3.8756701644
 31
0.0
 11
-3.1097353431
 21
4.015683609
 31
0.0
 11
-3.1758152767
 21
4.1602858527
 31
0.0
 11
-3.2313523614
 21
4.3080458819
 31
0.0
 11
-3.2755946596
 21
4.4572006294
 31
0.0
 11
-3.3077842448
 21
4.6053000915
 31
0.0
 11
-3.3274912249
 21
4.7498177975
 31
0.0
 11
-3.334676858
 21
4.8883613694
 31
0.0
  0
SPLINE
  5
284
100
AcDbEntity
  8
RACCORDO
100
AcDbSpline
 62
253
  6
CONTINUOUS
 70
0
 71
3
 72
16
 73
12
 74
10
 42
0.0000001
 43
0.0000001
 44
0.0000000001
 12
-0.006771845
 22
0.8394282561
 32
0.0
 13
0.7599401454
 23
0.3592988648
 33
0.0
 40
0.0
 40
0.0
 40
0.0
 40
0.0
 40
0.1466521217
 40
0.2873813802
 40
0.4212106824
 40
0.5476712646
 40
0.6669654953
 40
0.7803717525
 40
0.8898601215
 40
0.9975420437
 40
1.0
 40
1.0
 40
1.0
 40
1.0
 10
-3.1945032078
 20
4.8885278648
 30
0.0
 10
-3.194834243
 20
4.9295625097
 30
0.0
 10
-3.1919354351
 20
5.0100652052
 30
0.0
 10
-3.1759212866
 20
5.1270494788
 30
0.0
 10
-3.1482579476
 20
5.2360755742
 30
0.0
 10
-3.1092104305
 20
5.3351958427
 30
0.0
 10
-3.0592895798
 20
5.4228561721
 30
0.0
 10
-2.9991072492
 20
5.4978924368
 30
0.0
 10
-2.9293157599
 20
5.5593497893
 30
0.0
 10
-2.8762644877
 20
5.5910672754
 30
0.0
 10
-2.8483925942
 20
5.6043176171
 30
0.0
 10
-2.847769961
 20
5.6046119974
 30
0.0
 11
-3.1945032078
 21
4.8885278648
 31
0.0
 11
-3.1897853091
 21
5.0115453694
 31
0.0
 11
-3.1734254831
 21
5.1285430666
 31
0.0
 11
-3.1454179305
 21
5.2373396469
 31
0.0
 11
-3.1061225138
 21
5.3359570881
 31
0.0
 11
-3.0562156444
 21
5.4227773963
 31
0.0
 11
-2.99638451
 21
5.4968259135
 31
0.0
 11
-2.9272546703
 21
5.55739511
 31
0.0
 11
-2.8496359791
 21
5.6037248873
 31
0.0
 11
-2.847769961
 21
5.6046119974
 31
0.0
  0
SPLINE
  5
285
100
AcDbEntity
  8
RACCORDO
100
AcDbSpline
 62
253
  6
CONTINUOUS
 70
0
 71
3
 72
15
 73
11
 74
9
 42
0.0000001
 43
0.0000001
 44
0.0000000001
 12
-0.0021357325
 22
0.2936488918
 32
0.0
 13
-0.260755194
 23
0.1350591048
 33
0.0
 40
0.0
 40
0.0
 40
0.0
 40
0.0
 40
0.1197683134
 40
0.2470068581
 40
0.378956534
 40
0.5124548357
 40
0.6442133866
 40
0.7710854443
 40
0.89034471
 40
1.0
 40
1.0
 40
1.0
 40
1.0
 10
13.7425359267
 20
0.2816385671
 30
0.0
 10
13.7424506624
 20
0.2933618446
 30
0.0
 10
13.7403140581
 20
0.3175484421
 30
0.0
 10
13.7320986182
 20
0.3538165137
 30
0.0
 10
13.7190672781
 20
0.3900770584
 30
0.0
 10
13.7017078325
 20
0.4249647607
 30
0.0
 10
13.6806707335
 20
0.4571779227
 30
0.0
 10
13.6567339274
 20
0.4855158266
 30
0.0
 10
13.6307933118
 20
0.5089178625
 30
0.0
 10
13.6119011963
 20
0.5212173251
 30
0.0
 10
13.6023701341
 20
0.5261539735
 30
0.0
 11
13.7425359267
 21
0.2816385671
 31
0.0
 11
13.7396220338
 21
0.3166884141
 31
0.0
 11
13.731482054
 21
0.3531554203
 31
0.0
 11
13.7184287464
 21
0.3896384436
 31
0.0
 11
13.7009636516
 21
0.4247357286
 31
0.0
 11
13.6797578198
 21
0.4570987663
 31
0.0
 11
13.655626027
 21
0.4854841068
 31
0.0
 11
13.6294954688
 21
0.5088011349
 31
0.0
 11
13.6023701341
 21
0.5261539735
 31
0.0
  0
SPLINE
  5
286
100
AcDbEntity
  8
RACCORDO
100
AcDbSpline
 62
253
  6
CONTINUOUS
 70
0
 71
3
 72
15
 73
11
 74
9
 42
0.0000001
 43
0.0000001
 44
0.0000000001
 12
-0.0001666693
 22
0.2930800153
 32
0.0
 13
0.2610133734
 23
0.1332964443
 33
0.0
 40
0.0
 40
0.0
 40
0.0
 40
0.0
 40
0.1196245243
 40
0.2464902617
 40
0.3779799486
 40
0.5110733545
 40
0.6426177128
 40
0.7695882173
 40
0.8893581041
 40
1.0
 40
1.0
 40
1.0
 40
1.0
 10
13.0416546148
 20
0.2823491085
 30
0.0
 10
13.0416479689
 20
0.2940356276
 30
0.0
 10
13.0436126461
 20
0.3181414867
 30
0.0
 10
13.0516406913
 20
0.3542828599
 30
0.0
 10
13.0645499763
 20
0.3903822464
 30
0.0
 10
13.081861702
 20
0.425094237
 30
0.0
 10
13.1029337857
 20
0.4571371446
 30
0.0
 10
13.1269950724
 20
0.4853279843
 30
0.0
 10
13.1531541309
 20
0.5086207652
 30
0.0
 10
13.172215481
 20
0.5208457404
 30
0.0
 10
13.1818418192
 20
0.5257617975
 30
0.0
 11
13.0416546148
 21
0.2823491085
 31
0.0
 11
13.0443252475
 21
0.317306807
 31
0.0
 11
13.0522737852
 21
0.3536290916
 31
0.0
 11
13.0651978755
 21
0.3899343074
 31
0.0
 11
13.0826059018
 21
0.4248414488
 31
0.0
 11
13.1038356844
 21
0.4570226912
 31
0.0
 11
13.1280796684
 21
0.4852538997
 31
0.0
 11
13.1544156427
 21
0.5084611941
 31
0.0
 11
13.1818418192
 21
0.5257617975
 31
0.0
  0
SPLINE
  5
287
100
AcDbEntity
  8
RACCORDO
100
AcDbSpline
 62
253
  6
CONTINUOUS
 70
0
 71
3
 72
15
 73
11
 74
9
 42
0.0000001
 43
0.0000001
 44
0.0000000001
 12
-0.0001666709
 22
0.2930800157
 32
0.0
 13
0.2610133746
 23
0.1332964427
 33
0.0
 40
0.0
 40
0.0
 40
0.0
 40
0.0
 40
0.1196246505
 40
0.246490508
 40
0.3779802849
 40
0.5110737329
 40
0.6426180747
 40
0.7695885032
 40
0.8893582639
 40
1.0
 40
1.0
 40
1.0
 40
1.0
 10
-17.7304440142
 20
15.668398423
 30
0.0
 10
-17.7304506601
 20
15.6800849544
 30
0.0
 10
-17.728485979
 20
15.7041908377
 30
0.0
 10
-17.7204579198
 20
15.7403322417
 30
0.0
 10
-17.7075486167
 20
15.7764316482
 30
0.0
 10
-17.6902368749
 20
15.8111436435
 30
0.0
 10
-17.669164783
 20
15.8431865399
 30
0.0
 10
-17.6451035007
 20
15.8713773551
 30
0.0
 10
-17.6189444621
 20
15.8946701049
 30
0.0
 10
-17.5998831341
 20
15.9068950621
 30
0.0
 10
-17.5902568098
 20
15.911811112
 30
0.0
 11
-17.7304440142
 21
15.668398423
 31
0.0
 11
-17.7277733762
 21
15.7033561582
 31
0.0
 11
-17.7198248241
 21
15.7396784757
 31
0.0
 11
-17.7069007152
 21
15.775983713
 31
0.0
 11
-17.6894926721
 21
15.8108908599
 31
0.0
 11
-17.6682628811
 21
15.8430720909
 31
0.0
 11
-17.6440189019
 21
15.8713032744
 31
0.0
 11
-17.6176829489
 21
15.8945105371
 31
0.0
 11
-17.5902568098
 21
15.911811112
 31
0.0
  0
SPLINE
  5
288
100
AcDbEntity
  8
RACCORDO
100
AcDbSpline
 62
253
  6
CONTINUOUS
 70
0
 71
3
 72
15
 73
11
 74
9
 42
0.0000001
 43
0.0000001
 44
0.0000000001
 12
0.0310030236
 22
-0.8966590918
 32
0.0
 13
0.8026012519
 23
-0.403328152
 33
0.0
 40
0.0
 40
0.0
 40
0.0
 40
0.0
 40
0.1467283743
 40
0.2864554442
 40
0.4191430606
 40
0.5450788269
 40
0.6649335652
 40
0.7797721103
 40
0.8910363149
 40
1.0
 40
1.0
 40
1.0
 40
1.0
 10
13.3458845756
 20
-17.0768569151
 30
0.0
 10
13.3474009166
 20
-17.1207120253
 30
0.0
 10
13.35412522
 20
-17.206264885
 30
0.0
 10
13.3762532479
 20
-17.3298670438
 30
0.0
 10
13.4099808692
 20
-17.4444017916
 30
0.0
 10
13.4549949719
 20
-17.5485913179
 30
0.0
 10
13.5108723341
 20
-17.6412600923
 30
0.0
 10
13.5770685742
 20
-17.7213119274
 30
0.0
 10
13.6527817338
 20
-17.7876476851
 30
0.0
 10
13.7091664534
 20
-17.8222996209
 30
0.0
 10
13.7383179168
 20
-17.8369489949
 30
0.0
 11
13.3458845756
 21
-17.0768569151
 31
0.0
 11
13.3564931312
 21
-17.2080727237
 31
0.0
 11
13.3789093103
 21
-17.3314147295
 31
0.0
 11
13.4128852418
 21
-17.4455100496
 31
0.0
 11
13.4580417663
 21
-17.5490831464
 31
0.0
 11
13.5138774189
 21
-17.6409838496
 31
0.0
 11
13.5797719219
 21
-17.7201900527
 31
0.0
 11
13.6549915843
 21
-17.7858190743
 31
0.0
 11
13.7383179168
 21
-17.8369489949
 31
0.0
  0
LINE
  5
289
100
AcDbEntity
  8
RACCORDO
100
AcDbLine
 62
253
  6
CONTINUOUS
 10
13.7383179168
 20
-17.8369489949
 11
13.7392211733
 21
-17.8374019055
  0
SPLINE
  5
28A
100
AcDbEntity
  8
RACCORDO
100
AcDbSpline
 62
253
  6
CONTINUOUS
 70
0
 71
3
 72
13
 73
9
 74
7
 42
0.0000001
 43
0.0000001
 44
0.0000000001
 12
-0.0143798377
 22
-0.3373286778
 32
0.0
 13
-0.3120404767
 23
-0.1310932904
 33
0.0
 40
0.0
 40
0.0
 40
0.0
 40
0.0
 40
0.1990429368
 40
0.3847908933
 40
0.557088006
 40
0.7172159128
 40
0.8680860164
 40
1.0
 40
1.0
 40
1.0
 40
1.0
 10
14.7276561177
 20
-17.5625844303
 30
0.0
 10
14.7267020493
 20
-17.5849653938
 30
0.0
 10
14.7222249907
 20
-17.6281897181
 30
0.0
 10
14.706934878
 20
-17.6892364185
 30
0.0
 10
14.6835598161
 20
-17.7430015066
 30
0.0
 10
14.6525144139
 20
-17.7881360628
 30
0.0
 10
14.615575056
 20
-17.8222886235
 30
0.0
 10
14.5875693723
 20
-17.8380149873
 30
0.0
 10
14.5738485382
 20
-17.8437793334
 30
0.0
 11
14.7276561177
 21
-17.5625844303
 31
0.0
 11
14.7204423552
 21
-17.6294000094
 31
0.0
 11
14.7048635389
 21
-17.6901492805
 31
0.0
 11
14.6813028259
 21
-17.7433381303
 31
0.0
 11
14.6503396861
 21
-17.7876583925
 31
0.0
 11
14.6127356501
 21
-17.8220200212
 31
0.0
 11
14.5738485382
 21
-17.8437793334
 31
0.0
  0
SPLINE
  5
28B
100
AcDbEntity
  8
RACCORDO
100
AcDbSpline
 62
253
  6
CONTINUOUS
 70
0
 71
3
 72
17
 73
13
 74
11
 42
0.0000001
 43
0.0000001
 44
0.0000000001
 12
-0.6380553888
 22
-0.3397035049
 32
0.0
 13
-0.6467567984
 23
0.3228293576
 33
0.0
 40
0.0
 40
0.0
 40
0.0
 40
0.0
 40
0.0909939725
 40
0.188357308
 40
0.2907043301
 40
0.3963948789
 40
0.5036318121
 40
0.6105485603
 40
0.7152927759
 40
0.8161107568
 40
0.9114376027
 40
1.0
 40
1.0
 40
1.0
 40
1.0
 10
14.0464684584
 20
-17.0622687621
 30
0.0
 10
14.0271153935
 20
-17.0725724193
 30
0.0
 10
13.9856804951
 20
-17.0913743996
 30
0.0
 10
13.9191306868
 20
-17.1135518139
 30
0.0
 10
13.8473656969
 20
-17.1302666833
 30
0.0
 10
13.7720908728
 20
-17.1411172906
 30
0.0
 10
13.6950848734
 20
-17.1458473163
 30
0.0
 10
13.6181756928
 20
-17.1443434195
 30
0.0
 10
13.5431885589
 20
-17.1366427972
 30
0.0
 10
13.4718925645
 20
-17.1229268992
 30
0.0
 10
13.4059797031
 20
-17.1035256207
 30
0.0
 10
13.3649779564
 20
-17.0863986499
 30
0.0
 10
13.3458851789
 20
-17.0768684693
 30
0.0
 11
14.0464684584
 21
-17.0622687621
 31
0.0
 11
13.986688386
 21
-17.089704162
 31
0.0
 11
13.9199839302
 21
-17.1121483422
 31
0.0
 11
13.8479613818
 21
-17.1290608309
 31
0.0
 11
13.772355095
 21
-17.1400343634
 31
0.0
 11
13.6949857229
 21
-17.1448046891
 31
0.0
 11
13.6177163751
 21
-17.1432569353
 31
0.0
 11
13.5424077526
 21
-17.135428373
 31
0.0
 11
13.4708733405
 21
-17.1215075194
 31
0.0
 11
13.4048357385
 21
-17.1018295988
 31
0.0
 11
13.3458851789
 21
-17.0768684693
 31
0.0
  0
SPLINE
  5
28C
100
AcDbEntity
  8
RACCORDO
100
AcDbSpline
 62
253
  6
CONTINUOUS
 70
0
 71
3
 72
18
 73
14
 74
12
 42
0.0000001
 43
0.0000001
 44
0.0000000001
 12
-0.6479053051
 22
-0.3171213201
 32
0.0
 13
-0.6452008356
 23
0.3225881239
 33
0.0
 40
0.0
 40
0.0
 40
0.0
 40
0.0
 40
0.0814478825
 40
0.1685621118
 40
0.2603098872
 40
0.3554511858
 40
0.4526394032
 40
0.5504419653
 40
0.6474040962
 40
0.7421014841
 40
0.833203999
 40
0.9194977651
 40
1.0
 40
1.0
 40
1.0
 40
1.0
 10
13.7425359267
 20
0.2816385671
 30
0.0
 10
13.724945755
 20
0.2730289471
 30
0.0
 10
13.6875072378
 20
0.2572808803
 30
0.0
 10
13.6277075528
 20
0.2385423599
 30
0.0
 10
13.5633359117
 20
0.2241698862
 30
0.0
 10
13.4956608553
 20
0.2144512317
 30
0.0
 10
13.4260090697
 20
0.2095775097
 30
0.0
 10
13.355750507
 20
0.2096459503
 30
0.0
 10
13.2862694354
 20
0.2146551075
 30
0.0
 10
13.2189320959
 20
0.2245049313
 30
0.0
 10
13.1550575453
 20
0.2390018783
 30
0.0
 10
13.0959005984
 20
0.2578567355
 30
0.0
 10
13.0589591604
 20
0.2736971629
 30
0.0
 10
13.0416457906
 20
0.2823535179
 30
0.0
 11
13.7425359267
 21
0.2816385671
 31
0.0
 11
13.6884658853
 21
0.2586540527
 31
0.0
 11
13.6285511449
 21
0.2397046166
 31
0.0
 11
13.5639846324
 21
0.2251695408
 31
0.0
 11
13.4960618134
 21
0.215340792
 31
0.0
 11
13.4261284064
 21
0.2104129113
 31
0.0
 11
13.35557847
 21
0.2104845252
 31
0.0
 11
13.2858187142
 21
0.2155541787
 31
0.0
 11
13.2182395923
 21
0.2255203971
 31
0.0
 11
13.1541799855
 21
0.2401858681
 31
0.0
 11
13.0949250053
 21
0.25925606
 31
0.0
 11
13.0416457906
 21
0.2823535179
 31
0.0
  0
SPLINE
  5
28D
100
AcDbEntity
  8
RACCORDO
100
AcDbSpline
 62
253
  6
CONTINUOUS
 70
0
 71
3
 72
13
 73
9
 74
7
 42
0.0000001
 43
0.0000001
 44
0.0000000001
 12
-0.2160313255
 22
0.1080197792
 32
0.0
 13
-0.0002362808
 23
0.2423598531
 33
0.0
 40
0.0
 40
0.0
 40
0.0
 40
0.0
 40
0.2210036605
 40
0.4216051887
 40
0.6024281035
 40
0.766098461
 40
0.9177523264
 40
1.0
 40
1.0
 40
1.0
 40
1.0
 10
-17.7304351863
 20
15.6683940064
 30
0.0
 10
-17.7463497575
 20
15.6763515952
 30
0.0
 10
-17.7759373054
 20
15.6931884951
 30
0.0
 10
-17.8146221744
 20
15.7227297048
 30
0.0
 10
-17.8448133208
 20
15.7549192068
 30
0.0
 10
-17.865822389
 20
15.7892929257
 30
0.0
 10
-17.8753890786
 20
15.820240207
 30
0.0
 10
-17.8768753916
 20
15.8391369132
 30
0.0
 10
-17.8768818695
 20
15.8457814245
 30
0.0
 11
-17.7304351863
 21
15.6683940064
 31
0.0
 11
-17.7766782361
 21
15.6950576807
 31
0.0
 11
-17.8149608916
 21
15.7247563066
 31
0.0
 11
-17.8445254415
 21
15.7569029139
 31
0.0
 11
-17.8647781261
 21
15.7908525987
 31
0.0
 11
-17.8753179717
 21
15.8259327459
 31
0.0
 11
-17.8768818695
 21
15.8457814245
 31
0.0
  0
SPLINE
  5
28E
100
AcDbEntity
  8
RACCORDO
100
AcDbSpline
 62
253
  6
CONTINUOUS
 70
0
 71
3
 72
21
 73
17
 74
15
 42
0.0000001
 43
0.0000001
 44
0.0000000001
 12
0.0358352392
 22
-1.0301967715
 32
0.0
 13
0.950486531
 23
0.3989547676
 33
0.0
 40
0.0
 40
0.0
 40
0.0
 40
0.0
 40
0.0851410635
 40
0.1662748243
 40
0.2433648649
 40
0.3165846796
 40
0.3863284951
 40
0.4532160408
 40
0.5180814047
 40
0.5819322805
 40
0.645869652
 40
0.710985031
 40
0.7782641362
 40
0.8485122009
 40
0.9223099193
 40
1.0
 40
1.0
 40
1.0
 40
1.0
 10
14.0464684584
 20
-17.0622687621
 30
0.0
 10
14.0474854752
 20
-17.0915061117
 30
0.0
 10
14.051995095
 20
-17.1485609416
 30
0.0
 10
14.066833007
 20
-17.2310036937
 30
0.0
 10
14.0894506684
 20
-17.3074307429
 30
0.0
 10
14.1196374524
 20
-17.3769808121
 30
0.0
 10
14.1571082179
 20
-17.4388682882
 30
0.0
 10
14.201496353
 20
-17.4923604913
 30
0.0
 10
14.2523341686
 20
-17.5367867071
 30
0.0
 10
14.3090351696
 20
-17.5715636642
 30
0.0
 10
14.3708965553
 20
-17.5962387317
 30
0.0
 10
14.4371342139
 20
-17.6105249964
 30
0.0
 10
14.5069308616
 20
-17.6143045141
 30
0.0
 10
14.5794716514
 20
-17.6076002389
 30
0.0
 10
14.6539309297
 20
-17.5905576507
 30
0.0
 10
14.7030416593
 20
-17.5729160396
 30
0.0
 10
14.7276561177
 20
-17.5625844303
 30
0.0
 11
14.0464684584
 21
-17.0622687621
 31
0.0
 11
14.0535794481
 21
-17.1497453088
 31
0.0
 11
14.0686086716
 21
-17.2320181296
 31
0.0
 11
14.0913888314
 21
-17.3081489415
 31
0.0
 11
14.1216660225
 21
-17.3772863727
 31
0.0
 11
14.1591039743
 21
-17.438662652
 31
0.0
 11
14.2032868605
 21
-17.4915950472
 31
0.0
 11
14.2537227646
 21
-17.5354935839
 31
0.0
 11
14.3098510054
 21
-17.569869861
 31
0.0
 11
14.3710474903
 21
-17.59434113
 31
0.0
 11
14.4366302077
 21
-17.6086344938
 31
0.0
 11
14.5058698896
 21
-17.6125910933
 31
0.0
 11
14.5779974349
 21
-17.6061665983
 31
0.0
 11
14.6522063949
 21
-17.5894333178
 31
0.0
 11
14.7276561177
 21
-17.5625844303
 31
0.0
  0
SPLINE
  5
28F
100
AcDbEntity
  8
ASSI
100
AcDbSpline
 62
253
  6
CONTINUOUS
 70
0
 71
3
 72
11
 73
7
 74
5
 42
0.0000001
 43
0.0000001
 44
0.0000000001
 12
0.0848594018
 22
0.0447659376
 32
0.0
 13
0.086027068
 23
-0.0415220245
 33
0.0
 40
0.0
 40
0.0
 40
0.0
 40
0.0
 40
0.1413236172
 40
0.4037591151
 40
0.6875249972
 40
1.0
 40
1.0
 40
1.0
 40
1.0
 10
-17.6861215622
 20
16.1285490781
 30
0.0
 10
-17.6821240163
 20
16.1306579062
 30
0.0
 10
-17.6701752948
 20
16.1356866439
 30
0.0
 10
-17.6481935021
 20
16.1389720095
 30
0.0
 10
-17.6208025868
 20
16.1353758273
 30
0.0
 10
-17.6028883417
 20
16.1286278583
 30
0.0
 10
-17.5939279056
 20
16.1243029934
 30
0.0
 11
-17.6861215622
 21
16.1285490781
 31
0.0
 11
-17.6736417789
 21
16.133798506
 31
0.0
 11
-17.6488847346
 21
16.1377394532
 31
0.0
 11
-17.621968721
 21
16.134533219
 31
0.0
 11
-17.5939279056
 21
16.1243029934
 31
0.0
  0
SPLINE
  5
290
100
AcDbEntity
  8
ASSI
100
AcDbSpline
 62
253
  6
CONTINUOUS
 70
0
 71
3
 72
12
 73
8
 74
6
 42
0.0000001
 43
0.0000001
 44
0.0000000001
 12
0.0082615124
 22
-0.2416585755
 32
0.0
 13
0.2155181779
 23
-0.1079420378
 33
0.0
 40
0.0
 40
0.0
 40
0.0
 40
0.0
 40
0.1607872481
 40
0.3405119448
 40
0.5377371495
 40
0.7570520285
 40
1.0
 40
1.0
 40
1.0
 40
1.0
 10
-17.5831042561
 20
-1.5079860809
 30
0.0
 10
-17.5826614741
 20
-1.5209379534
 30
0.0
 10
-17.57778891
 20
-1.5482423713
 30
0.0
 10
-17.558599651
 20
-1.5875125253
 30
0.0
 10
-17.5276798024
 20
-1.624592127
 30
0.0
 10
-17.4863456222
 20
-1.6581539241
 30
0.0
 10
-17.4540951361
 20
-1.6768637002
 30
0.0
 10
-17.4366419014
 20
-1.6856051332
 30
0.0
 11
-17.5831042561
 21
-1.5079860809
 31
0.0
 11
-17.5764369997
 21
-1.5461804042
 31
0.0
 11
-17.5578384873
 21
-1.5853054289
 31
0.0
 11
-17.5278148537
 21
-1.6221636131
 31
0.0
 11
-17.4870890898
 21
-1.655867385
 31
0.0
 11
-17.4366419014
 21
-1.6856051332
 31
0.0
  0
SPLINE
  5
291
100
AcDbEntity
  8
ASSI
100
AcDbSpline
 62
253
  6
CONTINUOUS
 70
0
 71
3
 72
18
 73
14
 74
12
 42
0.0000001
 43
0.0000001
 44
0.0000000001
 12
-0.3882309728
 22
-0.191513095
 32
0.0
 13
-0.3872041051
 23
0.1935808226
 33
0.0
 40
0.0
 40
0.0
 40
0.0
 40
0.0
 40
0.0815058463
 40
0.1686857655
 40
0.2604735908
 40
0.3556364595
 40
0.4528302513
 40
0.5506259444
 40
0.6475681924
 40
0.7422356527
 40
0.8333027824
 40
0.9195656467
 40
1.0
 40
1.0
 40
1.0
 40
1.0
 10
13.6023701341
 20
0.5261539735
 30
0.0
 10
13.5918224361
 20
0.5209508279
 30
0.0
 10
13.5693678523
 20
0.5114230459
 30
0.0
 10
13.5334910595
 20
0.5000655338
 30
0.0
 10
13.4948658272
 20
0.491330775
 30
0.0
 10
13.4542573595
 20
0.4853960551
 30
0.0
 10
13.4124613064
 20
0.4823777791
 30
0.0
 10
13.3703004371
 20
0.4823365071
 30
0.0
 10
13.3286063304
 20
0.4852730318
 30
0.0
 10
13.2881997405
 20
0.4911283447
 30
0.0
 10
13.2498719429
 20
0.4997876207
 30
0.0
 10
13.2143816952
 20
0.5110752089
 30
0.0
 10
13.1922233231
 20
0.5205716148
 30
0.0
 10
13.1818418192
 20
0.5257617975
 30
0.0
 11
13.6023701341
 21
0.5261539735
 31
0.0
 11
13.5699411353
 21
0.5122507382
 31
0.0
 11
13.5339913675
 21
0.5007650164
 31
0.0
 11
13.4952506111
 21
0.4919330082
 31
0.0
 11
13.4544942308
 21
0.4859320453
 31
0.0
 11
13.4125300037
 21
0.4828811541
 31
0.0
 11
13.3701944763
 21
0.4828416584
 31
0.0
 11
13.3283338064
 21
0.4858143913
 31
0.0
 11
13.2877830669
 21
0.491739575
 31
0.0
 11
13.2493459028
 21
0.5004996453
 31
0.0
 11
13.2137916366
 21
0.5119186853
 31
0.0
 11
13.1818418192
 21
0.5257617975
 31
0.0
  0
SPLINE
  5
292
100
AcDbEntity
  8
ASSI
100
AcDbSpline
 62
253
  6
CONTINUOUS
 70
0
 71
3
 72
14
 73
10
 74
8
 42
0.0000001
 43
0.0000001
 44
0.0000000001
 12
-0.1446689438
 22
0.0723424049
 32
0.0
 13
0.0343426862
 23
0.1585248054
 33
0.0
 40
0.0
 40
0.0
 40
0.0
 40
0.0
 40
0.1979293799
 40
0.3777694132
 40
0.539977279
 40
0.6869302295
 40
0.8232350386
 40
0.955509812
 40
1.0
 40
1.0
 40
1.0
 40
1.0
 10
-17.5902568098
 20
15.911811112
 30
0.0
 10
-17.5998015546
 20
15.9165840078
 30
0.0
 10
-17.6175538559
 20
15.926690567
 30
0.0
 10
-17.6407636782
 20
15.9444381622
 30
0.0
 10
-17.6588817281
 20
15.9637955591
 30
0.0
 10
-17.6714876419
 20
15.9844795034
 30
0.0
 10
-17.6781608844
 20
16.0061462859
 30
0.0
 10
-17.678461775
 20
16.0232536713
 30
0.0
 10
-17.6768540142
 20
16.0326823455
 30
0.0
 10
-17.67634471
 20
16.0350332783
 30
0.0
 11
-17.5902568098
 21
15.911811112
 31
0.0
 11
-17.6179881223
 21
15.9278085647
 31
0.0
 11
-17.640960678
 21
15.9456529357
 31
0.0
 11
-17.6587020195
 21
15.9649821181
 31
0.0
 11
-17.6708558979
 21
15.9854092434
 31
0.0
 11
-17.6771811726
 21
16.0065294828
 31
0.0
 11
-17.6775507214
 21
16.0279215166
 31
0.0
 11
-17.67634471
 21
16.0350332783
 31
0.0
  0
SPLINE
  5
293
100
AcDbEntity
  8
ASSI
100
AcDbSpline
 62
253
  6
CONTINUOUS
 70
0
 71
3
 72
12
 73
8
 74
6
 42
0.0000001
 43
0.0000001
 44
0.0000000001
 12
0.0265618288
 22
0.1226086022
 32
0.0
 13
0.1105960185
 23
0.0584720522
 33
0.0
 40
0.0
 40
0.0
 40
0.0
 40
0.0
 40
0.1180186148
 40
0.3067874025
 40
0.5149491827
 40
0.7457717957
 40
1.0
 40
1.0
 40
1.0
 40
1.0
 10
-17.67634471
 20
16.0350332783
 30
0.0
 10
-17.6752997799
 20
16.0398566441
 30
0.0
 10
-17.6714384501
 20
16.0521521846
 30
0.0
 10
-17.6607412971
 20
16.0709887904
 30
0.0
 10
-17.643289126
 20
16.0907038513
 30
0.0
 10
-17.6206924945
 20
16.1089028136
 30
0.0
 10
-17.6033001147
 20
16.1193479118
 30
0.0
 10
-17.5939279056
 20
16.1243029934
 30
0.0
 11
-17.67634471
 21
16.0350332783
 31
0.0
 11
-17.6719572446
 21
16.0491577829
 31
0.0
 11
-17.6605132463
 21
16.0698149368
 31
0.0
 11
-17.6434457193
 21
16.0894835597
 31
0.0
 11
-17.6210973768
 21
16.1077699941
 31
0.0
 11
-17.5939279056
 21
16.1243029934
 31
0.0
  0
SPLINE
  5
294
100
AcDbEntity
  8
ASSI
100
AcDbSpline
 62
253
  6
CONTINUOUS
 70
0
 71
3
 72
15
 73
11
 74
9
 42
0.0000001
 43
0.0000001
 44
0.0000000001
 12
-0.7240343196
 22
0.4382071043
 32
0.0
 13
-0.0285476382
 23
0.8447625181
 33
0.0
 40
0.0
 40
0.0
 40
0.0
 40
0.0
 40
0.0620140845
 40
0.1779025344
 40
0.2979655363
 40
0.4237514951
 40
0.5563758972
 40
0.6965136799
 40
0.8444203826
 40
1.0
 40
1.0
 40
1.0
 40
1.0
 10
-17.0910880012
 20
-2.4202418432
 30
0.0
 10
-17.1060547764
 20
-2.4111835058
 30
0.0
 10
-17.147764714
 20
-2.3831690949
 30
0.0
 10
-17.2109091598
 20
-2.3272517065
 30
0.0
 10
-17.2755641442
 20
-2.2479342676
 30
0.0
 10
-17.3301263957
 20
-2.1559032322
 30
0.0
 10
-17.3740749697
 20
-2.0522439125
 30
0.0
 10
-17.4070021393
 20
-1.9381201167
 30
0.0
 10
-17.4286037735
 20
-1.8147994765
 30
0.0
 10
-17.4351618125
 20
-1.7294027592
 30
0.0
 10
-17.4366422894
 20
-1.6855934827
 30
0.0
 11
-17.0910880012
 21
-2.4202418432
 31
0.0
 11
-17.1346465126
 21
-2.3910000259
 31
0.0
 11
-17.2081356904
 21
-2.3262362466
 31
0.0
 11
-17.2725142429
 21
-2.2477880188
 31
0.0
 11
-17.3270653556
 21
-2.1565295856
 31
0.0
 11
-17.3711830261
 21
-2.0534759158
 31
0.0
 11
-17.4043773165
 21
-1.9397714163
 31
0.0
 11
-17.4262778
 21
-1.8166872583
 31
0.0
 11
-17.4366422894
 21
-1.6855934827
 31
0.0
  0
SPLINE
  5
295
100
AcDbEntity
  8
ASSI
100
AcDbSpline
 62
253
  6
CONTINUOUS
 70
0
 71
3
 72
28
 73
24
 74
22
 42
0.0000001
 43
0.0000001
 44
0.0000000001
 12
-2.2714361026
 22
-1.1995957034
 32
0.0
 13
-0.0207406171
 23
2.5650508936
 33
0.0
 40
0.0
 40
0.0
 40
0.0
 40
0.0
 40
0.0075937672
 40
0.0428023252
 40
0.0788470965
 40
0.1163852335
 40
0.1559291059
 40
0.1978122283
 40
0.2422075009
 40
0.2891489454
 40
0.3385479992
 40
0.3902075493
 40
0.4438448719
 40
0.4991330189
 40
0.5557021556
 40
0.6131029754
 40
0.6708198381
 40
0.7284276206
 40
0.7856220118
 40
0.8419894447
 40
0.8968972891
 40
0.9497363351
 40
1.0
 40
1.0
 40
1.0
 40
1.0
 10
-1.6526784294
 20
3.2494691025
 30
0.0
 10
-1.6584280151
 20
3.246432619
 30
0.0
 10
-1.6911786698
 20
3.2299687128
 30
0.0
 10
-1.7548254936
 20
3.2065940829
 30
0.0
 10
-1.8469706614
 20
3.1907252819
 30
0.0
 10
-1.9441196311
 20
3.1905987605
 30
0.0
 10
-2.0450170683
 20
3.2060742363
 30
0.0
 10
-2.1484183829
 20
3.2368428587
 30
0.0
 10
-2.2530735045
 20
3.2824439439
 30
0.0
 10
-2.3577263179
 20
3.342270044
 30
0.0
 10
-2.4611106433
 20
3.4155609511
 30
0.0
 10
-2.5619575023
 20
3.5013961498
 30
0.0
 10
-2.6590267862
 20
3.5987088366
 30
0.0
 10
-2.7511294018
 20
3.706307823
 30
0.0
 10
-2.8371173888
 20
3.8228671243
 30
0.0
 10
-2.9158764078
 20
3.9468891197
 30
0.0
 10
-2.9864019971
 20
4.0767798515
 30
0.0
 10
-3.0478657893
 20
4.2110021957
 30
0.0
 10
-3.0995492939
 20
4.3480574903
 30
0.0
 10
-3.1407427246
 20
4.486221499
 30
0.0
 10
-3.1708139186
 20
4.6234276444
 30
0.0
 10
-3.1893684049
 20
4.7573922882
 30
0.0
 10
-3.194155708
 20
4.8455515786
 30
0.0
 10
-3.1945032078
 20
4.8885278648
 30
0.0
 11
-1.6526784294
 21
3.2494691025
 31
0.0
 11
-1.6701055809
 21
3.2407095567
 31
0.0
 11
-1.7548424025
 21
3.2094619128
 31
0.0
 11
-1.8459136681
 21
3.1934988358
 31
0.0
 11
-1.9422027528
 21
3.1929994756
 31
0.0
 11
-2.042527612
 21
3.2079679457
 31
0.0
 11
-2.145617418
 21
3.238216157
 31
0.0
 11
-2.2501676122
 21
3.2833590253
 31
0.0
 11
-2.35486798
 21
3.3428289609
 31
0.0
 11
-2.4584054031
 21
3.4158820333
 31
0.0
 11
-2.5594660659
 21
3.5015944881
 31
0.0
 11
-2.6567626156
 21
3.5988752827
 31
0.0
 11
-2.7490910926
 21
3.7065265877
 31
0.0
 11
-2.8353108346
 21
3.8232413274
 31
0.0
 11
-2.9142881472
 21
3.9475089751
 31
0.0
 11
-2.9849433861
 21
4.0776131359
 31
0.0
 11
-3.0464425393
 21
4.211979563
 31
0.0
 11
-3.0981447547
 21
4.3492788433
 31
0.0
 11
-3.1393498011
 21
4.4878733228
 31
0.0
 11
-3.1693516254
 21
4.6254868822
 31
0.0
 11
-3.1877483625
 21
4.7597718574
 31
0.0
 11
-3.1945032078
 21
4.8885278648
 31
0.0
  0
SPLINE
  5
296
100
AcDbEntity
  8
ASSI
100
AcDbSpline
 62
253
  6
CONTINUOUS
 70
0
 71
3
 72
11
 73
7
 74
5
 42
0.0000001
 43
0.0000001
 44
0.0000000001
 12
0.0863010479
 22
-14.5967938161
 32
0.0
 13
0.5071845942
 23
-14.5881783618
 33
0.0
 40
0.0
 40
0.0
 40
0.0
 40
0.0
 40
0.1097567126
 40
0.4077354704
 40
0.7044796212
 40
1.0
 40
1.0
 40
1.0
 40
1.0
 10
13.0506133932
 20
-2.4833110651
 30
0.0
 10
13.0537707663
 20
-3.0173430995
 30
0.0
 10
13.0685751449
 20
-5.0012025452
 30
0.0
 10
13.1139671563
 20
-8.4287030928
 30
0.0
 10
13.2083306414
 20
-12.7593510841
 30
0.0
 10
13.2959234522
 20
-15.6398222521
 30
0.0
 10
13.34588458
 20
-17.0768569173
 30
0.0
 11
13.0506133932
 21
-2.4833110651
 31
0.0
 11
13.0625719725
 21
-4.0853900758
 31
0.0
 11
13.1202521593
 21
-8.4346012427
 31
0.0
 11
13.2146895967
 21
-12.7651437351
 31
0.0
 11
13.34588458
 21
-17.0768569173
 31
0.0
  0
SPLINE
  5
297
100
AcDbEntity
  8
ASSI
100
AcDbSpline
 62
253
  6
CONTINUOUS
 70
0
 71
3
 72
11
 73
7
 74
5
 42
0.0000001
 43
0.0000001
 44
0.0000000001
 12
-0.5827888803
 22
17.3474269095
 32
0.0
 13
-0.0096986814
 23
17.3572108702
 33
0.0
 40
0.0
 40
0.0
 40
0.0
 40
0.0
 40
0.2483881815
 40
0.4978455333
 40
0.74837995
 40
1.0
 40
1.0
 40
1.0
 40
1.0
 10
-17.4366422939
 20
-1.6855934805
 30
0.0
 10
-17.4848949173
 20
-0.2492948728
 30
0.0
 10
-17.5694906573
 20
2.6299060068
 30
0.0
 10
-17.6606137398
 20
6.9589249842
 30
0.0
 10
-17.7162467034
 20
11.3072454123
 30
0.0
 10
-17.7296217272
 20
14.2125865875
 30
0.0
 10
-17.7304351881
 20
15.6683940099
 30
0.0
 11
-17.4366422939
 21
-1.6855934805
 31
0.0
 11
-17.5633402392
 21
2.6238711829
 31
0.0
 11
-17.6545405971
 21
6.9527951355
 31
0.0
 11
-17.7102436511
 21
11.3010177361
 31
0.0
 11
-17.7304351881
 21
15.6683940099
 31
0.0
  0
SPLINE
  5
298
100
AcDbEntity
  8
ASSI
100
AcDbSpline
 62
253
  6
CONTINUOUS
 70
0
 71
3
 72
17
 73
13
 74
11
 42
0.0000001
 43
0.0000001
 44
0.0000000001
 12
-0.0077255166
 22
1.0317920286
 32
0.0
 13
1.0116734807
 23
0.2093347503
 33
0.0
 40
0.0
 40
0.0
 40
0.0
 40
0.0
 40
0.1283901949
 40
0.2516216347
 40
0.3688179097
 40
0.479566207
 40
0.5840408864
 40
0.6833580183
 40
0.7792393716
 40
0.873530699
 40
0.9680978183
 40
1.0
 40
1.0
 40
1.0
 40
1.0
 10
-3.334676858
 20
4.8883613694
 30
0.0
 10
-3.3350074849
 20
4.932518696
 30
0.0
 10
-3.3318410869
 20
5.0191543955
 30
0.0
 10
-3.3145436472
 20
5.1450517494
 30
0.0
 10
-3.2847189884
 20
5.2623927518
 30
0.0
 10
-3.2426527183
 20
5.3690744081
 30
0.0
 10
-3.1888957954
 20
5.4634243105
 30
0.0
 10
-3.1241066239
 20
5.5441898411
 30
0.0
 10
-3.0489870162
 20
5.6103439319
 30
0.0
 10
-2.9644546156
 20
5.66089916
 30
0.0
 10
-2.8928002101
 20
5.68728901
 30
0.0
 10
-2.8504107623
 20
5.697359276
 30
0.0
 10
-2.8396525652
 20
5.6995853544
 30
0.0
 11
-3.334676858
 21
4.8883613694
 31
0.0
 11
-3.3295281051
 21
5.0207369698
 31
0.0
 11
-3.3118586434
 21
5.1466560705
 31
0.0
 11
-3.2816636591
 21
5.2637511467
 31
0.0
 11
-3.2393307849
 21
5.3698930904
 31
0.0
 11
-3.185588472
 21
5.4633405266
 31
0.0
 11
-3.121176243
 21
5.5430443673
 31
0.0
 11
-3.0467671101
 21
5.6082432827
 31
0.0
 11
-2.9632322903
 21
5.6581193474
 31
0.0
 11
-2.8717111687
 21
5.6919575718
 31
0.0
 11
-2.8396525652
 21
5.6995853544
 31
0.0
  0
SPLINE
  5
299
100
AcDbEntity
  8
ASSI
100
AcDbSpline
 62
253
  6
CONTINUOUS
 70
0
 71
3
 72
26
 73
22
 74
20
 42
0.0000001
 43
0.0000001
 44
0.0000000001
 12
2.4688655328
 22
0.5108558834
 32
0.0
 13
0.1650101034
 23
-2.5137054056
 33
0.0
 40
0.0
 40
0.0
 40
0.0
 40
0.0
 40
0.0265708138
 40
0.0678202097
 40
0.1112349951
 40
0.1571824353
 40
0.2058565602
 40
0.2573007085
 40
0.3114244172
 40
0.3680181452
 40
0.4267779288
 40
0.4873504474
 40
0.5493342423
 40
0.6122395053
 40
0.6755023341
 40
0.7386566571
 40
0.8013675956
 40
0.8631791568
 40
0.9233936627
 40
0.981338373
 40
1.0
 40
1.0
 40
1.0
 40
1.0
 10
-2.8396525652
 20
5.6995853544
 30
0.0
 10
-2.8177859764
 20
5.7041099733
 30
0.0
 10
-2.7612837969
 20
5.7123459041
 30
0.0
 10
-2.6675135636
 20
5.712616628
 30
0.0
 10
-2.5587477144
 20
5.6960882257
 30
0.0
 10
-2.4473585533
 20
5.6630549291
 30
0.0
 10
-2.334700272
 20
5.614010144
 30
0.0
 10
-2.2221287993
 20
5.5496081511
 30
0.0
 10
-2.1110062399
 20
5.4706698866
 30
0.0
 10
-2.0026934033
 20
5.3781907276
 30
0.0
 10
-1.8985161594
 20
5.2733251177
 30
0.0
 10
-1.7997422067
 20
5.1573626772
 30
0.0
 10
-1.7075922812
 20
5.0317390948
 30
0.0
 10
-1.6232487989
 20
4.8980755083
 30
0.0
 10
-1.5477748127
 20
4.7580968494
 30
0.0
 10
-1.4820440551
 20
4.6134663426
 30
0.0
 10
-1.4268131161
 20
4.4658051625
 30
0.0
 10
-1.3828296732
 20
4.3169770162
 30
0.0
 10
-1.3507604414
 20
4.1692128977
 30
0.0
 10
-1.3351705833
 20
4.055319726
 30
0.0
 10
-1.3300387536
 20
3.9911887838
 30
0.0
 10
-1.3290123013
 20
3.975552173
 30
0.0
 11
-2.8396525652
 21
5.6995853544
 31
0.0
 11
-2.7734099759
 21
5.7093245405
 31
0.0
 11
-2.6695449602
 21
5.7100192218
 31
0.0
 11
-2.5614006725
 21
5.6940303174
 31
0.0
 11
-2.450354732
 21
5.6615551872
 31
0.0
 11
-2.337817566
 21
5.6130053384
 31
0.0
 11
-2.2252019895
 21
5.5489909546
 31
0.0
 11
-2.1139201095
 21
5.4703142644
 31
0.0
 11
-2.0053808934
 21
5.3779731717
 31
0.0
 11
-1.9009611644
 21
5.2731475673
 31
0.0
 11
-1.8019448138
 21
5.1571337295
 31
0.0
 11
-1.7095450571
 21
5.0313466491
 31
0.0
 11
-1.6249653484
 21
4.8974211131
 31
0.0
 11
-1.5493495293
 21
4.7572138904
 31
0.0
 11
-1.4835776435
 21
4.6124281732
 31
0.0
 11
-1.4283233669
 21
4.4645026243
 31
0.0
 11
-1.3843247789
 21
4.315207485
 31
0.0
 11
-1.3523274641
 21
4.1670000749
 31
0.0
 11
-1.3327524795
 21
4.0224124458
 31
0.0
 11
-1.3290123013
 21
3.975552173
 31
0.0
  0
SPLINE
  5
29A
100
AcDbEntity
  8
ASSI
100
AcDbSpline
 62
253
  6
CONTINUOUS
 70
0
 71
3
 72
14
 73
10
 74
8
 42
0.0000001
 43
0.0000001
 44
0.0000000001
 12
-0.0160711753
 22
-0.692316429
 32
0.0
 13
-0.5073836335
 23
-0.472321731
 33
0.0
 40
0.0
 40
0.0
 40
0.0
 40
0.0
 40
0.1265342882
 40
0.3100573141
 40
0.4845043291
 40
0.6492527438
 40
0.8045650992
 40
0.9521175757
 40
1.0
 40
1.0
 40
1.0
 40
1.0
 10
-1.3259864006
 20
3.8390142766
 30
0.0
 10
-1.3266642522
 20
3.8098136878
 30
0.0
 10
-1.3305088412
 20
3.7382969464
 30
0.0
 10
-1.3456979721
 20
3.6273310999
 30
0.0
 10
-1.3753717184
 20
3.5101241132
 30
0.0
 10
-1.4172238215
 20
3.4035999488
 30
0.0
 10
-1.4707172938
 20
3.309423155
 30
0.0
 10
-1.5215221959
 20
3.245942791
 30
0.0
 10
-1.5536705588
 20
3.2142009013
 30
0.0
 10
-1.5617688116
 20
3.2066622648
 30
0.0
 11
-1.3259864006
 21
3.8390142766
 31
0.0
 11
-1.3307807665
 21
3.7515257808
 31
0.0
 11
-1.3483740606
 21
3.6257044032
 31
0.0
 11
-1.3784223336
 21
3.5087399649
 31
0.0
 11
-1.4205464137
 21
3.4027558491
 31
0.0
 11
-1.4740302779
 21
3.309486122
 31
0.0
 11
-1.5381480831
 21
3.2299725559
 31
0.0
 11
-1.5617688116
 21
3.2066622648
 31
0.0
  0
SPLINE
  5
29B
100
AcDbEntity
  8
ASSI
100
AcDbSpline
 62
253
  6
CONTINUOUS
 70
0
 71
3
 72
29
 73
25
 74
23
 42
0.0000001
 43
0.0000001
 44
0.0000000001
 12
-2.1264137713
 22
-1.9794714824
 32
0.0
 13
-0.0218327787
 23
2.9011322997
 33
0.0
 40
0.0
 40
0.0
 40
0.0
 40
0.0
 40
0.0225488522
 40
0.0559546177
 40
0.0894655846
 40
0.1237668931
 40
0.1594834797
 40
0.1971030967
 40
0.2369436647
 40
0.2791705449
 40
0.3238170532
 40
0.370799868
 40
0.4199323396
 40
0.4709462981
 40
0.5235314076
 40
0.5773364242
 40
0.6319343992
 40
0.6868352244
 40
0.7416348372
 40
0.7960439291
 40
0.8496690645
 40
0.9019083315
 40
0.9521821663
 40
1.0
 40
1.0
 40
1.0
 40
1.0
 10
-1.5617688116
 20
3.2066622648
 30
0.0
 10
-1.5777515416
 20
3.1917839948
 30
0.0
 10
-1.6195558863
 20
3.1571668218
 30
0.0
 10
-1.6942388992
 20
3.1125009052
 30
0.0
 10
-1.7866393457
 20
3.0785386014
 30
0.0
 10
-1.8858103016
 20
3.0614273366
 30
0.0
 10
-1.9903561547
 20
3.0612590814
 30
0.0
 10
-2.0989250468
 20
3.0778839298
 30
0.0
 10
-2.2101768663
 20
3.1109700087
 30
0.0
 10
-2.3227660352
 20
3.1600216934
 30
0.0
 10
-2.4353409513
 20
3.2243852781
 30
0.0
 10
-2.5465395498
 20
3.3032425992
 30
0.0
 10
-2.6549970527
 20
3.3956029251
 30
0.0
 10
-2.7593799979
 20
3.5003180423
 30
0.0
 10
-2.8584100148
 20
3.616105819
 30
0.0
 10
-2.950853162
 20
3.7415389915
 30
0.0
 10
-3.0355118831
 20
3.875005549
 30
0.0
 10
-3.1113069919
 20
4.0147898526
 30
0.0
 10
-3.177348795
 20
4.1592374312
 30
0.0
 10
-3.2328655531
 20
4.3067351216
 30
0.0
 10
-3.2770954232
 20
4.4554267323
 30
0.0
 10
-3.3093592476
 20
4.603087985
 30
0.0
 10
-3.3292352113
 20
4.747252837
 30
0.0
 10
-3.3343288593
 20
4.8421194155
 30
0.0
 10
-3.334676858
 20
4.8883613694
 30
0.0
 11
-1.5617688116
 21
3.2066622648
 31
0.0
 11
-1.6122410805
 21
3.1649686999
 31
0.0
 11
-1.6954538097
 21
3.1152836645
 31
0.0
 11
-1.7866634149
 21
3.081623262
 31
0.0
 11
-1.8846792798
 21
3.0644123518
 31
0.0
 11
-1.9882992006
 21
3.0638444294
 31
0.0
 11
-2.0962507257
 21
3.0799245472
 31
0.0
 11
-2.2071659002
 21
3.1124507649
 31
0.0
 11
-2.3196408321
 21
3.1610090013
 31
0.0
 11
-2.4322658297
 21
3.2249886575
 31
0.0
 11
-2.5436283257
 21
3.3035892491
 31
0.0
 11
-2.6523152588
 21
3.3958166635
 31
0.0
 11
-2.756942298
 21
3.5004966663
 31
0.0
 11
-2.8562150428
 21
3.6163400223
 31
0.0
 11
-2.9489073514
 21
3.7419398317
 31
0.0
 11
-3.033800788
 21
3.8756701644
 31
0.0
 11
-3.1097353431
 21
4.015683609
 31
0.0
 11
-3.1758152767
 21
4.1602858527
 31
0.0
 11
-3.2313523614
 21
4.3080458819
 31
0.0
 11
-3.2755946596
 21
4.4572006294
 31
0.0
 11
-3.3077842448
 21
4.6053000915
 31
0.0
 11
-3.3274912249
 21
4.7498177975
 31
0.0
 11
-3.334676858
 21
4.8883613694
 31
0.0
  0
SPLINE
  5
29C
100
AcDbEntity
  8
ASSI
100
AcDbSpline
 62
253
  6
CONTINUOUS
 70
0
 71
3
 72
15
 73
11
 74
9
 42
0.0000001
 43
0.0000001
 44
0.0000000001
 12
-0.0021357325
 22
0.2936488918
 32
0.0
 13
-0.260755194
 23
0.1350591048
 33
0.0
 40
0.0
 40
0.0
 40
0.0
 40
0.0
 40
0.1197683134
 40
0.2470068581
 40
0.378956534
 40
0.5124548357
 40
0.6442133866
 40
0.7710854443
 40
0.89034471
 40
1.0
 40
1.0
 40
1.0
 40
1.0
 10
13.7425359267
 20
0.2816385671
 30
0.0
 10
13.7424506624
 20
0.2933618446
 30
0.0
 10
13.7403140581
 20
0.3175484421
 30
0.0
 10
13.7320986182
 20
0.3538165137
 30
0.0
 10
13.7190672781
 20
0.3900770584
 30
0.0
 10
13.7017078325
 20
0.4249647607
 30
0.0
 10
13.6806707335
 20
0.4571779227
 30
0.0
 10
13.6567339274
 20
0.4855158266
 30
0.0
 10
13.6307933118
 20
0.5089178625
 30
0.0
 10
13.6119011963
 20
0.5212173251
 30
0.0
 10
13.6023701341
 20
0.5261539735
 30
0.0
 11
13.7425359267
 21
0.2816385671
 31
0.0
 11
13.7396220338
 21
0.3166884141
 31
0.0
 11
13.731482054
 21
0.3531554203
 31
0.0
 11
13.7184287464
 21
0.3896384436
 31
0.0
 11
13.7009636516
 21
0.4247357286
 31
0.0
 11
13.6797578198
 21
0.4570987663
 31
0.0
 11
13.655626027
 21
0.4854841068
 31
0.0
 11
13.6294954688
 21
0.5088011349
 31
0.0
 11
13.6023701341
 21
0.5261539735
 31
0.0
  0
SPLINE
  5
29D
100
AcDbEntity
  8
ASSI
100
AcDbSpline
 62
253
  6
CONTINUOUS
 70
0
 71
3
 72
15
 73
11
 74
9
 42
0.0000001
 43
0.0000001
 44
0.0000000001
 12
-0.0001666693
 22
0.2930800153
 32
0.0
 13
0.2610133734
 23
0.1332964443
 33
0.0
 40
0.0
 40
0.0
 40
0.0
 40
0.0
 40
0.1196245243
 40
0.2464902617
 40
0.3779799486
 40
0.5110733545
 40
0.6426177128
 40
0.7695882173
 40
0.8893581041
 40
1.0
 40
1.0
 40
1.0
 40
1.0
 10
13.0416546148
 20
0.2823491085
 30
0.0
 10
13.0416479689
 20
0.2940356276
 30
0.0
 10
13.0436126461
 20
0.3181414867
 30
0.0
 10
13.0516406913
 20
0.3542828599
 30
0.0
 10
13.0645499763
 20
0.3903822464
 30
0.0
 10
13.081861702
 20
0.425094237
 30
0.0
 10
13.1029337857
 20
0.4571371446
 30
0.0
 10
13.1269950724
 20
0.4853279843
 30
0.0
 10
13.1531541309
 20
0.5086207652
 30
0.0
 10
13.172215481
 20
0.5208457404
 30
0.0
 10
13.1818418192
 20
0.5257617975
 30
0.0
 11
13.0416546148
 21
0.2823491085
 31
0.0
 11
13.0443252475
 21
0.317306807
 31
0.0
 11
13.0522737852
 21
0.3536290916
 31
0.0
 11
13.0651978755
 21
0.3899343074
 31
0.0
 11
13.0826059018
 21
0.4248414488
 31
0.0
 11
13.1038356844
 21
0.4570226912
 31
0.0
 11
13.1280796684
 21
0.4852538997
 31
0.0
 11
13.1544156427
 21
0.5084611941
 31
0.0
 11
13.1818418192
 21
0.5257617975
 31
0.0
  0
SPLINE
  5
29E
100
AcDbEntity
  8
ASSI
100
AcDbSpline
 62
253
  6
CONTINUOUS
 70
0
 71
3
 72
16
 73
12
 74
10
 42
0.0000001
 43
0.0000001
 44
0.0000000001
 12
-0.006768593
 22
0.8390251373
 32
0.0
 13
0.7592769153
 23
0.3597571046
 33
0.0
 40
0.0
 40
0.0
 40
0.0
 40
0.0
 40
0.1467225823
 40
0.2875194558
 40
0.4214130577
 40
0.5479343992
 40
0.6672859462
 40
0.7807466907
 40
0.8902876645
 40
0.9980213238
 40
1.0
 40
1.0
 40
1.0
 40
1.0
 10
-3.1945032078
 20
4.8885278648
 30
0.0
 10
-3.194834243
 20
4.9295625097
 30
0.0
 10
-3.1919354351
 20
5.0100652052
 30
0.0
 10
-3.1759212866
 20
5.1270494788
 30
0.0
 10
-3.1482579476
 20
5.2360755742
 30
0.0
 10
-3.1092104305
 20
5.3351958427
 30
0.0
 10
-3.0592895798
 20
5.4228561721
 30
0.0
 10
-2.9991072492
 20
5.4978924368
 30
0.0
 10
-2.9293157599
 20
5.5593497893
 30
0.0
 10
-2.8763804875
 20
5.5909979232
 30
0.0
 10
-2.8486356234
 20
5.6042020187
 30
0.0
 10
-2.8481348356
 20
5.6044392996
 30
0.0
 11
-3.1945032078
 21
4.8885278648
 31
0.0
 11
-3.1897853091
 21
5.0115453694
 31
0.0
 11
-3.1734254831
 21
5.1285430666
 31
0.0
 11
-3.1454179305
 21
5.2373396469
 31
0.0
 11
-3.1061225138
 21
5.3359570881
 31
0.0
 11
-3.0562156444
 21
5.4227773963
 31
0.0
 11
-2.99638451
 21
5.4968259135
 31
0.0
 11
-2.9272546703
 21
5.55739511
 31
0.0
 11
-2.8496359791
 21
5.6037248873
 31
0.0
 11
-2.8481348356
 21
5.6044392996
 31
0.0
  0
SPLINE
  5
29F
100
AcDbEntity
  8
ASSI
100
AcDbSpline
 62
253
  6
CONTINUOUS
 70
0
 71
3
 72
15
 73
11
 74
9
 42
0.0000001
 43
0.0000001
 44
0.0000000001
 12
-0.0001666709
 22
0.2930800157
 32
0.0
 13
0.2610133746
 23
0.1332964427
 33
0.0
 40
0.0
 40
0.0
 40
0.0
 40
0.0
 40
0.1196246505
 40
0.246490508
 40
0.3779802849
 40
0.5110737329
 40
0.6426180747
 40
0.7695885032
 40
0.8893582639
 40
1.0
 40
1.0
 40
1.0
 40
1.0
 10
-17.7304440142
 20
15.668398423
 30
0.0
 10
-17.7304506601
 20
15.6800849544
 30
0.0
 10
-17.728485979
 20
15.7041908377
 30
0.0
 10
-17.7204579198
 20
15.7403322417
 30
0.0
 10
-17.7075486167
 20
15.7764316482
 30
0.0
 10
-17.6902368749
 20
15.8111436435
 30
0.0
 10
-17.669164783
 20
15.8431865399
 30
0.0
 10
-17.6451035007
 20
15.8713773551
 30
0.0
 10
-17.6189444621
 20
15.8946701049
 30
0.0
 10
-17.5998831341
 20
15.9068950621
 30
0.0
 10
-17.5902568098
 20
15.911811112
 30
0.0
 11
-17.7304440142
 21
15.668398423
 31
0.0
 11
-17.7277733762
 21
15.7033561582
 31
0.0
 11
-17.7198248241
 21
15.7396784757
 31
0.0
 11
-17.7069007152
 21
15.775983713
 31
0.0
 11
-17.6894926721
 21
15.8108908599
 31
0.0
 11
-17.6682628811
 21
15.8430720909
 31
0.0
 11
-17.6440189019
 21
15.8713032744
 31
0.0
 11
-17.6176829489
 21
15.8945105371
 31
0.0
 11
-17.5902568098
 21
15.911811112
 31
0.0
  0
SPLINE
  5
2A0
100
AcDbEntity
  8
ASSI
100
AcDbSpline
 62
253
  6
CONTINUOUS
 70
0
 71
3
 72
15
 73
11
 74
9
 42
0.0000001
 43
0.0000001
 44
0.0000000001
 12
0.0310029971
 22
-0.8966583246
 32
0.0
 13
0.8026000231
 23
-0.403328886
 33
0.0
 40
0.0
 40
0.0
 40
0.0
 40
0.0
 40
0.1467284999
 40
0.2864556893
 40
0.4191434193
 40
0.5450792933
 40
0.6649341342
 40
0.7797727775
 40
0.8910370773
 40
1.0
 40
1.0
 40
1.0
 40
1.0
 10
13.3458845756
 20
-17.0768569151
 30
0.0
 10
13.3474009166
 20
-17.1207120253
 30
0.0
 10
13.35412522
 20
-17.206264885
 30
0.0
 10
13.3762532479
 20
-17.3298670438
 30
0.0
 10
13.4099808692
 20
-17.4444017916
 30
0.0
 10
13.4549949719
 20
-17.5485913179
 30
0.0
 10
13.5108723341
 20
-17.6412600923
 30
0.0
 10
13.5770685742
 20
-17.7213119274
 30
0.0
 10
13.6527815405
 20
-17.7876475157
 30
0.0
 10
13.7091660153
 20
-17.8222993517
 30
0.0
 10
13.73831723
 20
-17.8369486498
 30
0.0
 11
13.3458845756
 21
-17.0768569151
 31
0.0
 11
13.3564931312
 21
-17.2080727237
 31
0.0
 11
13.3789093103
 21
-17.3314147295
 31
0.0
 11
13.4128852418
 21
-17.4455100496
 31
0.0
 11
13.4580417663
 21
-17.5490831464
 31
0.0
 11
13.5138774189
 21
-17.6409838496
 31
0.0
 11
13.5797719219
 21
-17.7201900527
 31
0.0
 11
13.6549915843
 21
-17.7858190743
 31
0.0
 11
13.73831723
 21
-17.8369486498
 31
0.0
  0
SPLINE
  5
2A1
100
AcDbEntity
  8
ASSI
100
AcDbSpline
 62
253
  6
CONTINUOUS
 70
0
 71
3
 72
13
 73
9
 74
7
 42
0.0000001
 43
0.0000001
 44
0.0000000001
 12
-0.0143798377
 22
-0.3373286778
 32
0.0
 13
-0.3120404767
 23
-0.1310932904
 33
0.0
 40
0.0
 40
0.0
 40
0.0
 40
0.0
 40
0.1990429368
 40
0.3847908933
 40
0.557088006
 40
0.7172159128
 40
0.8680860164
 40
1.0
 40
1.0
 40
1.0
 40
1.0
 10
14.7276561177
 20
-17.5625844303
 30
0.0
 10
14.7267020493
 20
-17.5849653938
 30
0.0
 10
14.7222249907
 20
-17.6281897181
 30
0.0
 10
14.706934878
 20
-17.6892364185
 30
0.0
 10
14.6835598161
 20
-17.7430015066
 30
0.0
 10
14.6525144139
 20
-17.7881360628
 30
0.0
 10
14.615575056
 20
-17.8222886235
 30
0.0
 10
14.5875693723
 20
-17.8380149873
 30
0.0
 10
14.5738485382
 20
-17.8437793334
 30
0.0
 11
14.7276561177
 21
-17.5625844303
 31
0.0
 11
14.7204423552
 21
-17.6294000094
 31
0.0
 11
14.7048635389
 21
-17.6901492805
 31
0.0
 11
14.6813028259
 21
-17.7433381303
 31
0.0
 11
14.6503396861
 21
-17.7876583925
 31
0.0
 11
14.6127356501
 21
-17.8220200212
 31
0.0
 11
14.5738485382
 21
-17.8437793334
 31
0.0
  0
SPLINE
  5
2A2
100
AcDbEntity
  8
ASSI
100
AcDbSpline
 62
253
  6
CONTINUOUS
 70
0
 71
3
 72
17
 73
13
 74
11
 42
0.0000001
 43
0.0000001
 44
0.0000000001
 12
-0.6380553888
 22
-0.3397035049
 32
0.0
 13
-0.6467567984
 23
0.3228293576
 33
0.0
 40
0.0
 40
0.0
 40
0.0
 40
0.0
 40
0.0909939725
 40
0.188357308
 40
0.2907043301
 40
0.3963948789
 40
0.5036318121
 40
0.6105485603
 40
0.7152927759
 40
0.8161107568
 40
0.9114376027
 40
1.0
 40
1.0
 40
1.0
 40
1.0
 10
14.0464684584
 20
-17.0622687621
 30
0.0
 10
14.0271153935
 20
-17.0725724193
 30
0.0
 10
13.9856804951
 20
-17.0913743996
 30
0.0
 10
13.9191306868
 20
-17.1135518139
 30
0.0
 10
13.8473656969
 20
-17.1302666833
 30
0.0
 10
13.7720908728
 20
-17.1411172906
 30
0.0
 10
13.6950848734
 20
-17.1458473163
 30
0.0
 10
13.6181756928
 20
-17.1443434195
 30
0.0
 10
13.5431885589
 20
-17.1366427972
 30
0.0
 10
13.4718925645
 20
-17.1229268992
 30
0.0
 10
13.4059797031
 20
-17.1035256207
 30
0.0
 10
13.3649779564
 20
-17.0863986499
 30
0.0
 10
13.3458851789
 20
-17.0768684693
 30
0.0
 11
14.0464684584
 21
-17.0622687621
 31
0.0
 11
13.986688386
 21
-17.089704162
 31
0.0
 11
13.9199839302
 21
-17.1121483422
 31
0.0
 11
13.8479613818
 21
-17.1290608309
 31
0.0
 11
13.772355095
 21
-17.1400343634
 31
0.0
 11
13.6949857229
 21
-17.1448046891
 31
0.0
 11
13.6177163751
 21
-17.1432569353
 31
0.0
 11
13.5424077526
 21
-17.135428373
 31
0.0
 11
13.4708733405
 21
-17.1215075194
 31
0.0
 11
13.4048357385
 21
-17.1018295988
 31
0.0
 11
13.3458851789
 21
-17.0768684693
 31
0.0
  0
SPLINE
  5
2A3
100
AcDbEntity
  8
ASSI
100
AcDbSpline
 62
253
  6
CONTINUOUS
 70
0
 71
3
 72
18
 73
14
 74
12
 42
0.0000001
 43
0.0000001
 44
0.0000000001
 12
-0.6479053051
 22
-0.3171213201
 32
0.0
 13
-0.6452008356
 23
0.3225881239
 33
0.0
 40
0.0
 40
0.0
 40
0.0
 40
0.0
 40
0.0814478825
 40
0.1685621118
 40
0.2603098872
 40
0.3554511858
 40
0.4526394032
 40
0.5504419653
 40
0.6474040962
 40
0.7421014841
 40
0.833203999
 40
0.9194977651
 40
1.0
 40
1.0
 40
1.0
 40
1.0
 10
13.7425359267
 20
0.2816385671
 30
0.0
 10
13.724945755
 20
0.2730289471
 30
0.0
 10
13.6875072378
 20
0.2572808803
 30
0.0
 10
13.6277075528
 20
0.2385423599
 30
0.0
 10
13.5633359117
 20
0.2241698862
 30
0.0
 10
13.4956608553
 20
0.2144512317
 30
0.0
 10
13.4260090697
 20
0.2095775097
 30
0.0
 10
13.355750507
 20
0.2096459503
 30
0.0
 10
13.2862694354
 20
0.2146551075
 30
0.0
 10
13.2189320959
 20
0.2245049313
 30
0.0
 10
13.1550575453
 20
0.2390018783
 30
0.0
 10
13.0959005984
 20
0.2578567355
 30
0.0
 10
13.0589591604
 20
0.2736971629
 30
0.0
 10
13.0416457906
 20
0.2823535179
 30
0.0
 11
13.7425359267
 21
0.2816385671
 31
0.0
 11
13.6884658853
 21
0.2586540527
 31
0.0
 11
13.6285511449
 21
0.2397046166
 31
0.0
 11
13.5639846324
 21
0.2251695408
 31
0.0
 11
13.4960618134
 21
0.215340792
 31
0.0
 11
13.4261284064
 21
0.2104129113
 31
0.0
 11
13.35557847
 21
0.2104845252
 31
0.0
 11
13.2858187142
 21
0.2155541787
 31
0.0
 11
13.2182395923
 21
0.2255203971
 31
0.0
 11
13.1541799855
 21
0.2401858681
 31
0.0
 11
13.0949250053
 21
0.25925606
 31
0.0
 11
13.0416457906
 21
0.2823535179
 31
0.0
  0
SPLINE
  5
2A4
100
AcDbEntity
  8
ASSI
100
AcDbSpline
 62
253
  6
CONTINUOUS
 70
0
 71
3
 72
13
 73
9
 74
7
 42
0.0000001
 43
0.0000001
 44
0.0000000001
 12
-0.215969998
 22
0.1079891143
 32
0.0
 13
-0.0003661403
 23
0.2422910666
 33
0.0
 40
0.0
 40
0.0
 40
0.0
 40
0.0
 40
0.2210664175
 40
0.421724909
 40
0.6025991709
 40
0.7663160048
 40
0.9180129343
 40
1.0
 40
1.0
 40
1.0
 40
1.0
 10
-17.7304351863
 20
15.6683940064
 30
0.0
 10
-17.7463497575
 20
15.6763515952
 30
0.0
 10
-17.7759373054
 20
15.6931884951
 30
0.0
 10
-17.8146221744
 20
15.7227297048
 30
0.0
 10
-17.8448133208
 20
15.7549192068
 30
0.0
 10
-17.865822389
 20
15.7892929257
 30
0.0
 10
-17.8753822476
 20
15.8202181094
 30
0.0
 10
-17.8768717777
 20
15.8390910449
 30
0.0
 10
-17.8768817839
 20
15.8457126228
 30
0.0
 11
-17.7304351863
 21
15.6683940064
 31
0.0
 11
-17.7766782361
 21
15.6950576807
 31
0.0
 11
-17.8149608916
 21
15.7247563066
 31
0.0
 11
-17.8445254415
 21
15.7569029139
 31
0.0
 11
-17.8647781261
 21
15.7908525987
 31
0.0
 11
-17.8753179717
 21
15.8259327459
 31
0.0
 11
-17.8768817839
 21
15.8457126228
 31
0.0
  0
SPLINE
  5
2A5
100
AcDbEntity
  8
ASSI
100
AcDbSpline
 62
253
  6
CONTINUOUS
 70
0
 71
3
 72
21
 73
17
 74
15
 42
0.0000001
 43
0.0000001
 44
0.0000000001
 12
0.0358352392
 22
-1.0301967715
 32
0.0
 13
0.950486531
 23
0.3989547676
 33
0.0
 40
0.0
 40
0.0
 40
0.0
 40
0.0
 40
0.0851410635
 40
0.1662748243
 40
0.2433648649
 40
0.3165846796
 40
0.3863284951
 40
0.4532160408
 40
0.5180814047
 40
0.5819322805
 40
0.645869652
 40
0.710985031
 40
0.7782641362
 40
0.8485122009
 40
0.9223099193
 40
1.0
 40
1.0
 40
1.0
 40
1.0
 10
14.0464684584
 20
-17.0622687621
 30
0.0
 10
14.0474854752
 20
-17.0915061117
 30
0.0
 10
14.051995095
 20
-17.1485609416
 30
0.0
 10
14.066833007
 20
-17.2310036937
 30
0.0
 10
14.0894506684
 20
-17.3074307429
 30
0.0
 10
14.1196374524
 20
-17.3769808121
 30
0.0
 10
14.1571082179
 20
-17.4388682882
 30
0.0
 10
14.201496353
 20
-17.4923604913
 30
0.0
 10
14.2523341686
 20
-17.5367867071
 30
0.0
 10
14.3090351696
 20
-17.5715636642
 30
0.0
 10
14.3708965553
 20
-17.5962387317
 30
0.0
 10
14.4371342139
 20
-17.6105249964
 30
0.0
 10
14.5069308616
 20
-17.6143045141
 30
0.0
 10
14.5794716514
 20
-17.6076002389
 30
0.0
 10
14.6539309297
 20
-17.5905576507
 30
0.0
 10
14.7030416593
 20
-17.5729160396
 30
0.0
 10
14.7276561177
 20
-17.5625844303
 30
0.0
 11
14.0464684584
 21
-17.0622687621
 31
0.0
 11
14.0535794481
 21
-17.1497453088
 31
0.0
 11
14.0686086716
 21
-17.2320181296
 31
0.0
 11
14.0913888314
 21
-17.3081489415
 31
0.0
 11
14.1216660225
 21
-17.3772863727
 31
0.0
 11
14.1591039743
 21
-17.438662652
 31
0.0
 11
14.2032868605
 21
-17.4915950472
 31
0.0
 11
14.2537227646
 21
-17.5354935839
 31
0.0
 11
14.3098510054
 21
-17.569869861
 31
0.0
 11
14.3710474903
 21
-17.59434113
 31
0.0
 11
14.4366302077
 21
-17.6086344938
 31
0.0
 11
14.5058698896
 21
-17.6125910933
 31
0.0
 11
14.5779974349
 21
-17.6061665983
 31
0.0
 11
14.6522063949
 21
-17.5894333178
 31
0.0
 11
14.7276561177
 21
-17.5625844303
 31
0.0
  0
SPLINE
  5
2A6
100
AcDbEntity
  8
CURVE
100
AcDbSpline
 62
253
  6
CONTINUOUS
 70
0
 71
3
 72
40
 73
36
 74
34
 42
0.0000001
 43
0.0000001
 44
0.0000000001
 12
-0.1101667423
 22
4.4774048959
 32
0.0
 13
-0.0960412431
 23
5.1759786505
 33
0.0
 40
0.0
 40
0.0
 40
0.0
 40
0.0
 40
0.125
 40
0.25
 40
0.3125
 40
0.375
 40
0.4375
 40
0.5
 40
0.53125
 40
0.5625
 40
0.59375
 40
0.609375
 40
0.625
 40
0.640625
 40
0.6484375
 40
0.65625
 40
0.66015625
 40
0.6640625
 40
0.666015625
 40
0.6669921875
 40
0.66796875
 40
0.669921875
 40
0.671875
 40
0.6796875
 40
0.6875
 40
0.6953125
 40
0.703125
 40
0.71875
 40
0.75
 40
0.78125
 40
0.8125
 40
0.84375
 40
0.875
 40
0.9375
 40
1.0
 40
1.0
 40
1.0
 40
1.0
 10
-2.1690301945
 20
-5.2753428986
 30
0.0
 10
-2.1736204754
 20
-5.0887843613
 30
0.0
 10
-2.1828286957
 20
-4.715682065
 30
0.0
 10
-2.194200679
 20
-4.2492303026
 30
0.0
 10
-2.2035886788
 20
-3.8762240662
 30
0.0
 10
-2.2098414144
 20
-3.5960482033
 30
0.0
 10
-2.2158723158
 20
-3.3157538124
 30
0.0
 10
-2.2209486994
 20
-3.0822021996
 30
0.0
 10
-2.2249992056
 20
-2.8953552622
 30
0.0
 10
-2.2280385077
 20
-2.755220773
 30
0.0
 10
-2.230570935
 20
-2.6384420053
 30
0.0
 10
-2.2325969442
 20
-2.5450186983
 30
0.0
 10
-2.2341164436
 20
-2.4749521127
 30
0.0
 10
-2.2353826902
 20
-2.4165604312
 30
0.0
 10
-2.2363956982
 20
-2.369853503
 30
0.0
 10
-2.2370288028
 20
-2.3406470606
 30
0.0
 10
-2.2375353448
 20
-2.3173153719
 30
0.0
 10
-2.2378518004
 20
-2.3026567094
 30
0.0
 10
-2.2380735862
 20
-2.2925486751
 30
0.0
 10
-2.2381999033
 20
-2.2865332264
 30
0.0
 10
-2.238324647
 20
-2.2796159704
 30
0.0
 10
-2.2384811143
 20
-2.2712776419
 30
0.0
 10
-2.2388561934
 20
-2.2510119567
 30
0.0
 10
-2.2394189979
 20
-2.2207199844
 30
0.0
 10
-2.2401692977
 20
-2.1802697856
 30
0.0
 10
-2.2409196259
 20
-2.1398358779
 30
0.0
 10
-2.2419200536
 20
-2.0859183184
 30
0.0
 10
-2.2436708066
 20
-1.991565237
 30
0.0
 10
-2.24617188
 20
-1.8567737362
 30
0.0
 10
-2.249173169
 20
-1.6950245288
 30
0.0
 10
-2.2521744578
 20
-1.5332751624
 30
0.0
 10
-2.2551757467
 20
-1.3715258385
 30
0.0
 10
-2.2591774651
 20
-1.1558600585
 30
0.0
 10
-2.2641796132
 20
-0.8862778386
 30
0.0
 10
-2.2681813317
 20
-0.6706120611
 30
0.0
 10
-2.2701821909
 20
-0.5627791725
 30
0.0
 11
-2.1690301945
 21
-5.2753428986
 31
0.0
 11
-2.1828010373
 21
-4.7156672866
 31
0.0
 11
-2.1965718801
 21
-4.1559916746
 31
0.0
 11
-2.2034573014
 21
-3.8761538686
 31
0.0
 11
-2.2098044421
 21
-3.5960284486
 31
0.0
 11
-2.2158824423
 21
-3.3157592216
 31
0.0
 11
-2.2219604426
 21
-3.0354899947
 31
0.0
 11
-2.2249994427
 21
-2.8953553812
 31
0.0
 11
-2.2280384428
 21
-2.7552207677
 31
0.0
 11
-2.2310774429
 21
-2.6150861542
 31
0.0
 11
-2.232596943
 21
-2.5450188474
 31
0.0
 11
-2.234116443
 21
-2.4749515407
 31
0.0
 11
-2.2356359431
 21
-2.4048842339
 31
0.0
 11
-2.2363956931
 21
-2.3698505806
 31
0.0
 11
-2.2371554432
 21
-2.3348169272
 31
0.0
 11
-2.2375353182
 21
-2.3173001005
 31
0.0
 11
-2.2379151932
 21
-2.2997832738
 31
0.0
 11
-2.2381051307
 21
-2.2910248605
 31
0.0
 11
-2.2381997066
 21
-2.2864205005
 31
0.0
 11
-2.2382934969
 21
-2.2813658338
 31
0.0
 11
-2.2384810775
 21
-2.2712565005
 31
0.0
 11
-2.238668658
 21
-2.2611471672
 31
0.0
 11
-2.2394189802
 21
-2.220709834
 31
0.0
 11
-2.2401693024
 21
-2.1802725008
 31
0.0
 11
-2.2409196246
 21
-2.1398351676
 31
0.0
 11
-2.2416699469
 21
-2.0993978344
 31
0.0
 11
-2.2431705913
 21
-2.018523168
 31
0.0
 11
-2.2461718801
 21
-1.8567738351
 31
0.0
 11
-2.249173169
 21
-1.6950245023
 31
0.0
 11
-2.2521744578
 21
-1.5332751695
 31
0.0
 11
-2.2551757467
 21
-1.3715258367
 31
0.0
 11
-2.2581770355
 21
-1.2097765038
 31
0.0
 11
-2.2641796132
 21
-0.8862778382
 31
0.0
 11
-2.2701821909
 21
-0.5627791725
 31
0.0
  0
ELLIPSE
  5
2A7
100
AcDbEntity
  8
RACCORDO
100
AcDbEllipse
 62
7
  6
CONTINUOUS
 10
-13.9763654119
 20
17.8634690467
 30
0.0
 11
-0.0894818401
 21
0.1789012953
 31
0.0
 40
0.6122950388
 41
-0.6847996396
 42
0.0137828113
  0
ELLIPSE
  5
2A8
100
AcDbEntity
  8
RACCORDO
100
AcDbEllipse
 62
7
  6
CONTINUOUS
 10
16.5974024062
 20
-16.4521112509
 30
0.0
 11
-0.1825210626
 21
0.4655826378
 31
0.0
 40
0.6539056002
 41
-3.1260220267
 42
-2.199353272
  0
ELLIPSE
  5
2A9
100
AcDbEntity
  8
RACCORDO
100
AcDbEllipse
 62
7
  6
CONTINUOUS
 10
17.3484219098
 20
2.2010753858
 30
0.0
 11
-0.0894578232
 21
0.1788799337
 31
0.0
 40
0.6124778111
 41
-2.255529033
 42
-0.6848850053
  0
ELLIPSE
  5
2AA
100
AcDbEntity
  8
ASSI
100
AcDbEllipse
 62
7
  6
CONTINUOUS
 10
-13.9763654119
 20
17.8634690467
 30
0.0
 11
-0.0894818401
 21
0.1789012953
 31
0.0
 40
0.6122950388
 41
-0.6847996396
 42
0.0137828113
  0
ELLIPSE
  5
2AB
100
AcDbEntity
  8
ASSI
100
AcDbEllipse
 62
7
  6
CONTINUOUS
 10
16.5974024062
 20
-16.4521112509
 30
0.0
 11
-0.1825210626
 21
0.4655826378
 31
0.0
 40
0.6539056002
 41
-3.1260220267
 42
-2.199353272
  0
ELLIPSE
  5
2AC
100
AcDbEntity
  8
ASSI
100
AcDbEllipse
 62
7
  6
CONTINUOUS
 10
17.3484219098
 20
2.2010753858
 30
0.0
 11
-0.0894578232
 21
0.1788799337
 31
0.0
 40
0.6124778111
 41
-2.255529033
 42
-0.6848850053
  0
ENDSEC
  0
SECTION
  2
OBJECTS
  0
DICTIONARY
  5
C
100
AcDbDictionary
280
0
281
1
  3
ACAD_GROUP
350
D
  3
ACAD_MLINESTYLE
350
17
  3
ACAD_LAYOUT
350
1A
  3
ACAD_PLOTSETTINGS
350
19
  3
ACAD_PLOTSTYLENAME
350
E
  0
DICTIONARY
  5
D
102
{ACAD_REACTORS
330
C
102
}
100
AcDbDictionary
280
0
281
1
  0
ACDBDICTIONARYWDFLT
  5
E
102
{ACAD_REACTORS
330
C
102
}
100
AcDbDictionary
281
1
  3
Normal
350
F
100
AcDbDictionaryWithDefault
340
F
  0
DICTIONARY
  5
17
102
{ACAD_REACTORS
330
C
102
}
100
AcDbDictionary
280
0
281
1
  3
Standard
350
18
  0
DICTIONARY
  5
19
102
{ACAD_REACTORS
330
C
102
}
100
AcDbDictionary
281
1
  0
DICTIONARY
  5
1A
102
{ACAD_REACTORS
330
C
102
}
100
AcDbDictionary
281
1
  3
Model
350
2AD
  3
Layout1
350
2AE
  0
ACDBPLACEHOLDER
  5
F
102
{ACAD_REACTORS
330
E
102
}
  0
MLINESTYLE
  5
18
102
{ACAD_REACTORS
330
17
102
}
100
AcDbMlineStyle
  2
STANDARD
 70
0
  3

 62
256
 51
90.0
 52
90.0
 71
2
 49
0.5
 62
256
  6
BYLAYER
 49
-0.5
 62
256
  6
BYLAYER
  0
LAYOUT
  5
2AD
102
{ACAD_REACTORS
330
1A
102
}
100
AcDbPlotSettings
  1

  2
none_device
  4
ISO_A4_(297.00_x_210.00_MM)
  6

 40
0.0
 41
0.0
 42
0.0
 43
0.0
 44
297.0
 45
210.0
 46
0.0
 47
0.0
 48
0.0
 49
0.0
140
0.0
141
0.0
142
1.0
143
1.0
 70
1024
 72
1
 73
0
 74
0
  7

 75
0
147
1.0
148
0.0
149
0.0
100
AcDbLayout
  1
Model
 70
0
 71
0
 10
0.0
 20
0.0
 11
297.0
 21
210.0
 12
0.0
 22
0.0
 32
0.0
 14
0.0
 24
0.0
 34
0.0
 15
0.0
 25
0.0
 35
0.0
146
0.0
 13
0.0
 23
0.0
 33
0.0
 16
1.0
 26
0.0
 36
0.0
 17
0.0
 27
1.0
 37
0.0
 76
0
330
212
345
0
346
0
  0
LAYOUT
  5
2AE
102
{ACAD_REACTORS
330
1A
102
}
100
AcDbPlotSettings
  1

  2
none_device
  4
ISO_A4_(297.00_x_210.00_MM)
  6

 40
0.0
 41
0.0
 42
0.0
 43
0.0
 44
297.0
 45
210.0
 46
0.0
 47
0.0
 48
0.0
 49
0.0
140
0.0
141
0.0
142
1.0
143
1.0
 70
0
 72
1
 73
0
 74
0
  7

 75
0
147
1.0
148
0.0
149
0.0
100
AcDbLayout
  1
Layout1
 70
0
 71
1
 10
0.0
 20
0.0
 11
297.0
 21
210.0
 12
0.0
 22
0.0
 32
0.0
 14
0.0
 24
0.0
 34
0.0
 15
0.0
 25
0.0
 35
0.0
146
0.0
 13
0.0
 23
0.0
 33
0.0
 16
1.0
 26
0.0
 36
0.0
 17
0.0
 27
1.0
 37
0.0
 76
0
330
213
345
0
346
0
  0
ENDSEC
  0
EOF
