  0
SECTION
  2
HEADER
  9
$ACADVER
  1
AC1015
  9
$DWGCODEPAGE
  3
ANSI_1252
  9
$EXTMAX
 10
297.0
 20
210.0
 30
0.0
  9
$EXTMIN
 10
0.0
 20
0.0
 30
0.0
  9
$LIMMIN
 10
0.0
 20
0.0
  9
$LIMMAX
 10
297.0
 20
210.0
  9
$VIEWCTR
 10
148.5
 20
105.0
  9
$VIEWSIZE
 40
210.0
  9
$CLAYER
  8
0
  9
$LTSCALE
 40
16.335
  9
$CELTYPE
  6
BYLAYER
  9
$DIMSCALE
 40
1.0
  9
$DIMASZ
 40
3.0
  9
$DIMEXO
 40
1.85625
  9
$DIMDLI
 40
11.286
  9
$DIMEXE
 40
5.346
  9
$DIMCEN
 40
2.673
  9
$DIMLFAC
 40
1.0
  9
$DIMBLK
  1
_FILLED
  9
$DIMTXT
 40
3.0
  9
$DIMTOL
 70
1
  9
$DIMLIM
 70
0
  9
$DIMTFAC
 40
1.0
  9
$DIMTP
 40
0.01
  9
$DIMTM
 40
0.01
  9
$PDMODE
 70
3
  9
$PDSIZE
 40
3.0
  9
$HANDSEED
  5
2B1
  9
$TILEMODE
 70
1
  9
$MEASUREMENT
 70
1
  9
$INSUNITS
 70
4
  0
ENDSEC
  0
SECTION
  2
CLASSES
  0
CLASS
  1
ACDBDICTIONARYWDFLT
  2
AcDbDictionaryWithDefault
  3
AutoCAD 2000
 90
0
280
0
281
0
  0
CLASS
  1
ACDBPLACEHOLDER
  2
AcDbPlaceHolder
  3
AutoCAD 2000
 90
0
280
0
281
0
  0
CLASS
  1
LAYOUT
  2
AcDbLayout
  3
AutoCAD 2000
 90
0
280
0
281
0
  0
ENDSEC
  0
SECTION
  2
TABLES
  0
TABLE
  2
VPORT
  5
8
100
AcDbSymbolTable
 70
2
  0
VPORT
  5
1F4
100
AcDbSymbolTableRecord
100
AcDbViewportTableRecord
  2
*ACTIVE
 70
0
 10
0.0
 20
0.0
 11
1.0
 21
1.0
 12
148.5
 22
105.0
 13
0.0
 23
0.0
 14
1.0
 24
1.0
 15
0.0
 25
0.0
 16
0.0
 26
0.0
 36
1.0
 17
0.0
 27
0.0
 37
0.0
 40
210.0
 41
1.4142857143
 42
50.0
 43
0.0
 44
0.0
 50
0.0
 51
0.0
 71
0
 72
100
 73
1
 74
1
 75
0
 76
0
 77
0
 78
0
  0
ENDTAB
  0
TABLE
  2
LTYPE
  5
5
100
AcDbSymbolTable
 70
6
  0
LTYPE
  5
14
100
AcDbSymbolTableRecord
100
AcDbLinetypeTableRecord
  2
BYBLOCK
 70
0
  3

 72
65
 73
0
 40
0.0
  0
LTYPE
  5
15
100
AcDbSymbolTableRecord
100
AcDbLinetypeTableRecord
  2
BYLAYER
 70
0
  3

 72
65
 73
0
 40
0.0
  0
LTYPE
  5
16
100
AcDbSymbolTableRecord
100
AcDbLinetypeTableRecord
  2
CONTINUOUS
 70
64
  3
Solid line
 72
65
 73
0
 40
0.0
  0
LTYPE
  5
1F5
100
AcDbSymbolTableRecord
100
AcDbLinetypeTableRecord
  2
CENTER
 70
64
  3
____ _ ____ _ ____ _ ____ _ ____ _ ____ _ ____
 72
65
 73
4
 40
0.6
 49
0.375
 74
0
 49
-0.075
 74
0
 49
0.075
 74
0
 49
-0.075
 74
0
  0
LTYPE
  5
1F6
100
AcDbSymbolTableRecord
100
AcDbLinetypeTableRecord
  2
HIDDEN
 70
64
  3
- - - - - - - - - - - - - - - - - - - -
 72
65
 73
2
 40
0.2
 49
0.1
 74
0
 49
-0.1
 74
0
  0
LTYPE
  5
1F7
100
AcDbSymbolTableRecord
100
AcDbLinetypeTableRecord
  2
PHANTOM
 70
64
  3
_____ _ _ _____ _ _ _____ _ _ _____
 72
65
 73
6
 40
0.8
 49
0.45
 74
0
 49
-0.05
 74
0
 49
0.1
 74
0
 49
-0.05
 74
0
 49
0.1
 74
0
 49
-0.05
 74
0
  0
LTYPE
  5
1F8
100
AcDbSymbolTableRecord
100
AcDbLinetypeTableRecord
  2
DOT
 70
64
  3
. . . . . . . . . . . . . . . . . . . .
 72
65
 73
2
 40
0.2
 49
0.1
 74
0
 49
-0.1
 74
0
  0
LTYPE
  5
1F9
100
AcDbSymbolTableRecord
100
AcDbLinetypeTableRecord
  2
DASHED
 70
64
  3
- - - - - - - - - - - - - - - - - - - -
 72
65
 73
2
 40
0.2
 49
0.1
 74
0
 49
-0.1
 74
0
  0
ENDTAB
  0
TABLE
  2
LAYER
  5
2
100
AcDbSymbolTable
 70
36
  0
LAYER
  5
10
100
AcDbSymbolTableRecord
100
AcDbLayerTableRecord
  2
0
 70
0
 62
7
  6
CONTINUOUS
370
-3
390
F
  0
LAYER
  5
1FA
100
AcDbSymbolTableRecord
100
AcDbLayerTableRecord
  2
DEFAULT_1
 70
0
 62
7
  6
CENTER
370
-3
390
F
  0
LAYER
  5
1FB
100
AcDbSymbolTableRecord
100
AcDbLayerTableRecord
  2
DEFAULT_2
 70
0
 62
7
  6
HIDDEN
370
-3
390
F
  0
LAYER
  5
1FC
100
AcDbSymbolTableRecord
100
AcDbLayerTableRecord
  2
DEFAULT_3
 70
0
 62
7
  6
PHANTOM
370
-3
390
F
  0
LAYER
  5
1FD
100
AcDbSymbolTableRecord
100
AcDbLayerTableRecord
  2
ASSI
 70
0
 62
7
  6
CONTINUOUS
370
-3
390
F
  0
LAYER
  5
1FE
100
AcDbSymbolTableRecord
100
AcDbLayerTableRecord
  2
COORDINATE
 70
0
 62
7
  6
CONTINUOUS
370
-3
390
F
  0
LAYER
  5
1FF
100
AcDbSymbolTableRecord
100
AcDbLayerTableRecord
  2
COORD_ORIGINE
 70
0
 62
7
  6
CONTINUOUS
370
-3
390
F
  0
LAYER
  5
200
100
AcDbSymbolTableRecord
100
AcDbLayerTableRecord
  2
COPY_PUBLISH
 70
0
 62
7
  6
CONTINUOUS
370
-3
390
F
  0
LAYER
  5
201
100
AcDbSymbolTableRecord
100
AcDbLayerTableRecord
  2
COSMETIC
 70
0
 62
7
  6
CONTINUOUS
370
-3
390
F
  0
LAYER
  5
202
100
AcDbSymbolTableRecord
100
AcDbLayerTableRecord
  2
CURVE
 70
0
 62
7
  6
CONTINUOUS
370
-3
390
F
  0
LAYER
  5
203
100
AcDbSymbolTableRecord
100
AcDbLayerTableRecord
  2
DRAFT
 70
0
 62
7
  6
CONTINUOUS
370
-3
390
F
  0
LAYER
  5
204
100
AcDbSymbolTableRecord
100
AcDbLayerTableRecord
  2
IGES
 70
0
 62
7
  6
CONTINUOUS
370
-3
390
F
  0
LAYER
  5
205
100
AcDbSymbolTableRecord
100
AcDbLayerTableRecord
  2
IMPORT_IGES
 70
0
 62
7
  6
CONTINUOUS
370
-3
390
F
  0
LAYER
  5
206
100
AcDbSymbolTableRecord
100
AcDbLayerTableRecord
  2
INTF_6
 70
0
 62
7
  6
CONTINUOUS
370
-3
390
F
  0
LAYER
  5
207
100
AcDbSymbolTableRecord
100
AcDbLayerTableRecord
  2
NOTE
 70
0
 62
7
  6
CONTINUOUS
370
-3
390
F
  0
LAYER
  5
208
100
AcDbSymbolTableRecord
100
AcDbLayerTableRecord
  2
PIANI
 70
0
 62
7
  6
CONTINUOUS
370
-3
390
F
  0
LAYER
  5
209
100
AcDbSymbolTableRecord
100
AcDbLayerTableRecord
  2
PIANI_ORIGINE
 70
0
 62
7
  6
CONTINUOUS
370
-3
390
F
  0
LAYER
  5
20A
100
AcDbSymbolTableRecord
100
AcDbLayerTableRecord
  2
PIANI_RIFERIMENTO
 70
0
 62
7
  6
CONTINUOUS
370
-3
390
F
  0
LAYER
  5
20B
100
AcDbSymbolTableRecord
100
AcDbLayerTableRecord
  2
PUNTI
 70
0
 62
7
  6
CONTINUOUS
370
-3
390
F
  0
LAYER
  5
20C
100
AcDbSymbolTableRecord
100
AcDbLayerTableRecord
  2
RACCORDO
 70
0
 62
7
  6
CONTINUOUS
370
-3
390
F
  0
LAYER
  5
20D
100
AcDbSymbolTableRecord
100
AcDbLayerTableRecord
  2
SMUSSO
 70
0
 62
7
  6
CONTINUOUS
370
-3
390
F
  0
LAYER
  5
20E
100
AcDbSymbolTableRecord
100
AcDbLayerTableRecord
  2
SUPERFICI
 70
0
 62
7
  6
CONTINUOUS
370
-3
390
F
  0
LAYER
  5
20F
100
AcDbSymbolTableRecord
100
AcDbLayerTableRecord
  2
TRASH
 70
0
 62
7
  6
CONTINUOUS
370
-3
390
F
  0
ENDTAB
  0
TABLE
  2
STYLE
  5
3
100
AcDbSymbolTable
 70
1
  0
STYLE
  5
11
100
AcDbSymbolTableRecord
100
AcDbTextStyleTableRecord
  2
STANDARD
 70
0
 40
0.0
 41
0.8
 50
0.0
 71
0
 42
0.2
  3
txt
  4

  0
STYLE
  5
210
100
AcDbSymbolTableRecord
100
AcDbTextStyleTableRecord
  2
TEXTSTYLE_1
 70
0
 40
0.0
 41
0.8
 50
0.0
 71
0
 42
0.2
  3
gdt
  4

  0
ENDTAB
  0
TABLE
  2
VIEW
  5
6
100
AcDbSymbolTable
 70
0
  0
ENDTAB
  0
TABLE
  2
UCS
  5
7
100
AcDbSymbolTable
 70
0
  0
ENDTAB
  0
TABLE
  2
APPID
  5
9
100
AcDbSymbolTable
 70
1
  0
APPID
  5
211
100
AcDbSymbolTableRecord
100
AcDbRegAppTableRecord
  2
ACAD
 70
0
  0
ENDTAB
  0
TABLE
  2
BLOCK_RECORD
  5
1
100
AcDbSymbolTable
 70
0
  0
BLOCK_RECORD
  5
212
100
AcDbSymbolTableRecord
100
AcDbBlockTableRecord
  2
*Model_Space
  0
BLOCK_RECORD
  5
213
100
AcDbSymbolTableRecord
100
AcDbBlockTableRecord
  2
*Paper_Space
  0
ENDTAB
  0
TABLE
  2
DIMSTYLE
  5
A
100
AcDbSymbolTable
 70
1
100
AcDbDimStyleTable
 71
0
  0
DIMSTYLE
105
214
100
AcDbSymbolTableRecord
100
AcDbDimStyleTableRecord
  2
STANDARD
 70
0
  3

  4

 40
1.0
 41
3.0
 42
0.0625
 43
0.38
 44
0.18
 45
0.0
 46
0.0
 47
0.01
 48
0.01
140
3.0
141
0.09
142
0.0
143
25.4
144
1.0
145
0.0
146
1.0
147
0.09
 71
1.0
 72
0.0
 73
0
 74
0
 75
0
 76
0
 77
1
 78
8
170
0
171
2
172
0
173
0
174
0
175
0
176
0
177
0
178
0
270
2
271
2
272
2
273
2
274
2
275
0
280
0
281
0
282
0
283
1
284
8
285
0
286
0
287
3
288
0
340
11
  0
ENDTAB
  0
ENDSEC
  0
SECTION
  2
BLOCKS
  0
BLOCK
  5
20
100
AcDbEntity
  8
0
100
AcDbBlockBegin
  2
*Model_Space
 70
0
 10
0.0
 20
0.0
 30
0.0
  3
*Model_Space
  1

  0
ENDBLK
  5
21
100
AcDbEntity
  8
0
100
AcDbBlockEnd
  0
BLOCK
  5
1C
100
AcDbEntity
  8
0
100
AcDbBlockBegin
  2
*Paper_Space
 70
0
 10
0.0
 20
0.0
 30
0.0
  3
*Paper_Space
  1

  0
ENDBLK
  5
1D
100
AcDbEntity
  8
0
100
AcDbBlockEnd
  0
ENDSEC
  0
SECTION
  2
ENTITIES
  0
LWPOLYLINE
  5
215
100
AcDbEntity
  8
RACCORDO
100
AcDbPolyline
 62
7
  6
CONTINUOUS
 90
19
 70
0
 10
-17.5526076453
 20
16.0099728595
 10
-17.5710446171
 20
15.9992417888
 10
-17.5884108413
 20
15.9880190112
 10
-17.6047087296
 20
15.9763457343
 10
-17.6199779781
 20
15.9642382131
 10
-17.6342734173
 20
15.9516893959
 10
-17.6476052449
 20
15.9387209305
 10
-17.6599776199
 20
15.9253617472
 10
-17.6714116629
 20
15.9116193864
 10
-17.6819032844
 20
15.8975264713
 10
-17.6914520442
 20
15.8831149746
 10
-17.7000686167
 20
15.868401033
 10
-17.7077439955
 20
15.8534330225
 10
-17.7144798007
 20
15.8382451063
 10
-17.720289854
 20
15.8228397105
 10
-17.7251688255
 20
15.8072648839
 10
-17.7291160235
 20
15.7915656807
 10
-17.732140609
 20
15.7757435326
 10
-17.7342159185
 20
15.7600214207
  0
LWPOLYLINE
  5
216
100
AcDbEntity
  8
ASSI
100
AcDbPolyline
 62
7
  6
CONTINUOUS
 90
11
 70
0
 10
-17.5449263141
 20
16.0141219492
 10
-17.5579879941
 20
16.0069574685
 10
-17.5905452779
 20
15.9865567919
 10
-17.6202770267
 20
15.9639884149
 10
-17.6470492234
 20
15.9392892785
 10
-17.6705750526
 20
15.9126773736
 10
-17.6907228178
 20
15.8842788221
 10
-17.7073337583
 20
15.8542881274
 10
-17.7201321521
 20
15.8232957292
 10
-17.7290616121
 20
15.7918086159
 10
-17.7342114154
 20
15.760109139
  0
LINE
  5
217
100
AcDbEntity
  8
RACCORDO
100
AcDbLine
 62
7
  6
CONTINUOUS
 10
-17.5449815859
 20
16.0140927426
 11
-17.5526076453
 21
16.0099728595
  0
LINE
  5
218
100
AcDbEntity
  8
RACCORDO
100
AcDbLine
 62
7
  6
CONTINUOUS
 10
-17.5449662649
 20
16.0141012412
 11
-13.9261499399
 21
17.9271639586
  0
LINE
  5
219
100
AcDbEntity
  8
ASSI
100
AcDbLine
 62
7
  6
CONTINUOUS
 10
-17.5449662649
 20
16.0141012412
 11
-13.9261499399
 21
17.9271639586
  0
LINE
  5
21A
100
AcDbEntity
  8
RACCORDO
100
AcDbLine
 62
253
  6
CONTINUOUS
 10
-17.4527289966
 20
16.0098689242
 11
-13.8351880445
 21
17.9222574244
  0
LINE
  5
21B
100
AcDbEntity
  8
ASSI
100
AcDbLine
 62
253
  6
CONTINUOUS
 10
-17.4527289966
 20
16.0098689242
 11
-13.8351880445
 21
17.9222574244
  0
LINE
  5
21C
100
AcDbEntity
  8
DRAFT
100
AcDbLine
 62
7
  6
CONTINUOUS
 10
-12.1469465569
 20
16.1534369994
 11
-13.2139319732
 21
15.4676359775
  0
LINE
  5
21D
100
AcDbEntity
  8
ASSI
100
AcDbLine
 62
7
  6
CONTINUOUS
 10
-12.1469465569
 20
16.1534369994
 11
-13.2139319732
 21
15.4676359775
  0
LINE
  5
21E
100
AcDbEntity
  8
DRAFT
100
AcDbLine
 62
7
  6
CONTINUOUS
 10
-12.1469465569
 20
17.0781366806
 11
-14.0826754187
 21
15.9020077003
  0
LINE
  5
21F
100
AcDbEntity
  8
ASSI
100
AcDbLine
 62
7
  6
CONTINUOUS
 10
-12.1469465569
 20
17.0781366806
 11
-14.0826754187
 21
15.9020077003
  0
LINE
  5
220
100
AcDbEntity
  8
ASSI
100
AcDbLine
 62
7
  6
CONTINUOUS
 10
-17.7342114154
 20
15.760109139
 11
-17.7356913918
 21
15.7312799099
  0
LWPOLYLINE
  5
221
100
AcDbEntity
  8
RACCORDO
100
AcDbPolyline
 62
7
  6
CONTINUOUS
 90
3
 70
0
 10
-17.7342409522
 20
15.7598317706
 10
-17.7354150396
 20
15.7438949987
 10
-17.735691463
 20
15.7313488593
  0
LWPOLYLINE
  5
222
100
AcDbEntity
  8
ASSI
100
AcDbPolyline
 62
7
  6
CONTINUOUS
 90
13
 70
0
 10
-17.4419056691
 20
-1.6224201613
 10
-17.4400838055
 20
-1.6615131033
 10
-17.4300879307
 20
-1.7655614356
 10
-17.4129534743
 20
-1.8650733
 10
-17.3889429554
 20
-1.9597678199
 10
-17.3582781888
 20
-2.0495111518
 10
-17.3211239764
 20
-2.1342147291
 10
-17.2777266183
 20
-2.2135520756
 10
-17.2283649567
 20
-2.2872059705
 10
-17.1733061999
 20
-2.3549112604
 10
-17.1129607456
 20
-2.4162742243
 10
-17.0478181618
 20
-2.4709274224
 10
-16.9784115353
 20
-2.5185639866
  0
LWPOLYLINE
  5
223
100
AcDbEntity
  8
RACCORDO
100
AcDbPolyline
 62
7
  6
CONTINUOUS
 90
24
 70
0
 10
-17.4419066269
 20
-1.6223917375
 10
-17.4401432729
 20
-1.6605115736
 10
-17.4362330109
 20
-1.7115794241
 10
-17.4305944467
 20
-1.7617305371
 10
-17.4232386169
 20
-1.810958801
 10
-17.4141835954
 20
-1.8592091136
 10
-17.403462339
 20
-1.906371782
 10
-17.3910965338
 20
-1.9524237652
 10
-17.3771098815
 20
-1.9973318672
 10
-17.3615589147
 20
-2.0409735027
 10
-17.344479091
 20
-2.0833216618
 10
-17.3259068185
 20
-2.1243490456
 10
-17.305926832
 20
-2.1639366569
 10
-17.2846085454
 20
-2.2020315316
 10
-17.2619918289
 20
-2.2386413362
 10
-17.2381366768
 20
-2.2737371159
 10
-17.2131260883
 20
-2.3072675404
 10
-17.1870048572
 20
-2.3392423505
 10
-17.1597755875
 20
-2.3697105484
 10
-17.1315018952
 20
-2.3986420942
 10
-17.1022457051
 20
-2.4260165274
 10
-17.0719970606
 20
-2.451876257
 10
-17.0408195574
 20
-2.4761905565
 10
-17.0087753842
 20
-2.4989351638
  0
LWPOLYLINE
  5
224
100
AcDbEntity
  8
RACCORDO
100
AcDbPolyline
 62
7
  6
CONTINUOUS
 90
3
 70
0
 10
-17.5300555403
 20
1.2391619114
 10
-17.4877284167
 20
-0.1995870003
 10
-17.441906794
 20
-1.622392241
  0
LWPOLYLINE
  5
225
100
AcDbEntity
  8
RACCORDO
100
AcDbPolyline
 62
7
  6
CONTINUOUS
 90
10
 70
0
 10
-17.7329446257
 20
14.285482661
 10
-17.726231491
 20
12.8274123644
 10
-17.7155604548
 20
11.3714227338
 10
-17.7009315952
 20
9.917532122
 10
-17.6823450861
 20
8.4657567763
 10
-17.6598011122
 20
7.01611225
 10
-17.633299885
 20
5.5686146723
 10
-17.602841686
 20
4.1232800372
 10
-17.5684267952
 20
2.6801236999
 10
-17.5300555403
 20
1.2391619114
  0
LWPOLYLINE
  5
226
100
AcDbEntity
  8
ASSI
100
AcDbPolyline
 62
7
  6
CONTINUOUS
 90
10
 70
0
 10
-17.7356920602
 20
15.7313717237
 10
-17.7313081568
 20
13.8384776336
 10
-17.7197692231
 20
11.8838446387
 10
-17.7011079203
 20
9.9329766477
 10
-17.6753246131
 20
7.9859146319
 10
-17.6424197672
 20
6.0426971231
 10
-17.6023939614
 20
4.1033619408
 10
-17.5552478971
 20
2.1679475026
 10
-17.5009824854
 20
0.2364948497
 10
-17.4419067939
 20
-1.6223922438
  0
LINE
  5
227
100
AcDbEntity
  8
RACCORDO
100
AcDbLine
 62
7
  6
CONTINUOUS
 10
-17.7356920602
 20
15.7313717213
 11
-17.7329446257
 21
14.285482661
  0
LINE
  5
228
100
AcDbEntity
  8
DRAFT
100
AcDbLine
 62
7
  6
CONTINUOUS
 10
-13.1280812641
 20
15.5228162106
 11
-13.1280812641
 21
15.424710623
  0
LINE
  5
229
100
AcDbEntity
  8
ASSI
100
AcDbLine
 62
7
  6
CONTINUOUS
 10
-13.1280812641
 20
15.5228162106
 11
-13.1280812641
 21
15.424710623
  0
LINE
  5
22A
100
AcDbEntity
  8
DRAFT
100
AcDbLine
 62
7
  6
CONTINUOUS
 10
-12.1469465569
 20
17.0781366806
 11
-12.1469465569
 21
16.1534369994
  0
LINE
  5
22B
100
AcDbEntity
  8
ASSI
100
AcDbLine
 62
7
  6
CONTINUOUS
 10
-12.1469465569
 20
17.0781366806
 11
-12.1469465569
 21
16.1534369994
  0
LWPOLYLINE
  5
22C
100
AcDbEntity
  8
RACCORDO
100
AcDbPolyline
 62
7
  6
CONTINUOUS
 90
19
 70
0
 10
13.9124826756
 20
-17.9670805085
 10
13.9497821091
 20
-17.9828982506
 10
13.9879528902
 20
-17.9970722923
 10
14.0269503945
 20
-18.0095627759
 10
14.0667623775
 20
-18.0203395384
 10
14.1073308462
 20
-18.0293601177
 10
14.148588415
 20
-18.0365838512
 10
14.1905135184
 20
-18.0419792443
 10
14.2330453155
 20
-18.0455101304
 10
14.2761181357
 20
-18.0471448178
 10
14.3197113807
 20
-18.0468536294
 10
14.3637621499
 20
-18.0446061534
 10
14.4082125703
 20
-18.0403771455
 10
14.4530604087
 20
-18.0341344075
 10
14.4982545045
 20
-18.0258477208
 10
14.5437357197
 20
-18.0154921026
 10
14.5895009513
 20
-18.0030286448
 10
14.6355176037
 20
-17.9884201778
 10
14.6817117811
 20
-17.971645784
  0
LWPOLYLINE
  5
22D
100
AcDbEntity
  8
ASSI
100
AcDbPolyline
 62
7
  6
CONTINUOUS
 90
10
 70
0
 10
13.8795162541
 20
-17.9513827784
 10
13.9364586918
 20
-17.9774770899
 10
14.0114050052
 20
-18.0048183965
 10
14.0893532582
 20
-18.0256016432
 10
14.1698988296
 20
-18.0395674295
 10
14.2528269795
 20
-18.0465006308
 10
14.3376854951
 20
-18.0461718894
 10
14.4240043688
 20
-18.0384045651
 10
14.5116647733
 20
-18.0230045034
 10
14.6004081667
 20
-17.9997547041
  0
LINE
  5
22E
100
AcDbEntity
  8
RACCORDO
100
AcDbLine
 62
7
  6
CONTINUOUS
 10
13.8804193748
 20
-17.9518356217
 11
13.9124826756
 21
-17.9670805085
  0
LINE
  5
22F
100
AcDbEntity
  8
RACCORDO
100
AcDbLine
 62
7
  6
CONTINUOUS
 10
-16.9420550224
 20
-2.539801494
 11
-16.9109044346
 21
-2.5561737184
  0
LINE
  5
230
100
AcDbEntity
  8
ASSI
100
AcDbLine
 62
7
  6
CONTINUOUS
 10
-16.9784115353
 20
-2.5185639866
 11
-16.9100996614
 21
-2.5565750263
  0
LWPOLYLINE
  5
231
100
AcDbEntity
  8
RACCORDO
100
AcDbPolyline
 62
7
  6
CONTINUOUS
 90
3
 70
0
 10
-17.0087753842
 20
-2.4989351638
 10
-16.9758431476
 20
-2.5201432208
 10
-16.9420550224
 20
-2.539801494
  0
LINE
  5
232
100
AcDbEntity
  8
RACCORDO
100
AcDbLine
 62
7
  6
CONTINUOUS
 10
13.880552684
 20
-17.9519022982
 11
-16.9110268377
 21
-2.5561125373
  0
LINE
  5
233
100
AcDbEntity
  8
ASSI
100
AcDbLine
 62
7
  6
CONTINUOUS
 10
13.880552684
 20
-17.9519022982
 11
-16.9110268377
 21
-2.5561125373
  0
LINE
  5
234
100
AcDbEntity
  8
RACCORDO
100
AcDbLine
 62
7
  6
CONTINUOUS
 10
13.8804200818
 20
-17.9518359758
 11
13.8805523585
 21
-17.9519021354
  0
LINE
  5
235
100
AcDbEntity
  8
RACCORDO
100
AcDbLine
 62
253
  6
CONTINUOUS
 10
13.4870834846
 20
-17.1912909843
 11
-17.2954433803
 21
-1.8000275519
  0
LINE
  5
236
100
AcDbEntity
  8
ASSI
100
AcDbLine
 62
253
  6
CONTINUOUS
 10
13.4870834846
 20
-17.1912909843
 11
-17.2954433803
 21
-1.8000275519
  0
LINE
  5
237
100
AcDbEntity
  8
DRAFT
100
AcDbLine
 62
7
  6
CONTINUOUS
 10
-2.3974816874
 20
5.5221161588
 11
-2.5678122208
 21
5.4321970451
  0
LINE
  5
238
100
AcDbEntity
  8
ASSI
100
AcDbLine
 62
7
  6
CONTINUOUS
 10
-2.7069359319
 20
5.4900052416
 11
-2.7065233026
 21
5.4902005268
  0
LINE
  5
239
100
AcDbEntity
  8
RACCORDO
100
AcDbLine
 62
7
  6
CONTINUOUS
 10
-2.7065710614
 20
5.4901779481
 11
-2.7065233026
 21
5.4902005268
  0
LWPOLYLINE
  5
23A
100
AcDbEntity
  8
ASSI
100
AcDbPolyline
 62
7
  6
CONTINUOUS
 90
28
 70
0
 10
-2.706939919
 20
5.4900033337
 10
-2.6977112085
 20
5.4942441804
 10
-2.6383020672
 20
5.5156505528
 10
-2.5750445561
 20
5.5286837852
 10
-2.5079263822
 20
5.5332437549
 10
-2.4371775693
 20
5.5291091095
 10
-2.3635130298
 20
5.5161321338
 10
-2.2878451497
 20
5.4943861951
 10
-2.21103291
 20
5.4641276465
 10
-2.1336262537
 20
5.4256083103
 10
-2.0560862944
 20
5.3790572739
 10
-1.9791424847
 20
5.3249094216
 10
-1.9033562667
 20
5.2635769456
 10
-1.8288596951
 20
5.195112748
 10
-1.7560809692
 20
5.1197573355
 10
-1.6858105442
 20
5.0381844733
 10
-1.618680594
 20
4.951039031
 10
-1.5552199947
 20
4.858937454
 10
-1.4959472168
 20
4.7625702305
 10
-1.441395072
 20
4.6627731332
 10
-1.3919830361
 20
4.5603203992
 10
-1.3480700838
 20
4.4559784918
 10
-1.3100017438
 20
4.3506223942
 10
-1.2780338255
 20
4.245062086
 10
-1.2523661628
 20
4.1401044087
 10
-1.2331571016
 20
4.0366442966
 10
-1.220480026
 20
3.9355058791
 10
-1.214335175
 20
3.8374102718
  0
LINE
  5
23B
100
AcDbEntity
  8
RACCORDO
100
AcDbLine
 62
7
  6
CONTINUOUS
 10
-2.7065752226
 20
5.4901759539
 11
-2.6998819271
 21
5.4932466754
  0
LWPOLYLINE
  5
23C
100
AcDbEntity
  8
RACCORDO
100
AcDbPolyline
 62
7
  6
CONTINUOUS
 90
61
 70
0
 10
-2.6998819271
 20
5.4932466754
 10
-2.6740723159
 20
5.5039372492
 10
-2.6470253106
 20
5.5131039763
 10
-2.6192970065
 20
5.5205425273
 10
-2.5909126018
 20
5.5262652487
 10
-2.5619221682
 20
5.5302806844
 10
-2.5322982825
 20
5.532602761
 10
-2.5020759576
 20
5.5332339673
 10
-2.4713110849
 20
5.5321784214
 10
-2.4400092397
 20
5.529437127
 10
-2.4082191201
 20
5.5250142639
 10
-2.3759989443
 20
5.5189181571
 10
-2.3433689117
 20
5.5111496428
 10
-2.3103833111
 20
5.5017189615
 10
-2.2771025289
 20
5.4906411159
 10
-2.2435533999
 20
5.4779201583
 10
-2.2097922431
 20
5.4635732489
 10
-2.1758786908
 20
5.4476220267
 10
-2.1418407947
 20
5.4300733968
 10
-2.1077345885
 20
5.410950558
 10
-2.0736180236
 20
5.3902809052
 10
-2.0395185231
 20
5.3680732
 10
-2.0054906724
 20
5.3443554245
 10
-1.971591052
 20
5.3191601883
 10
-1.9378476172
 20
5.292498556
 10
-1.9043077952
 20
5.2643978363
 10
-1.8710329291
 20
5.2349001756
 10
-1.8380701025
 20
5.2040367962
 10
-1.8054678472
 20
5.1718433871
 10
-1.7732829417
 20
5.1383674175
 10
-1.7415727736
 20
5.1036593327
 10
-1.7103876323
 20
5.0677666922
 10
-1.6797767939
 20
5.0307401793
 10
-1.6497937488
 20
4.9926373583
 10
-1.6204853291
 20
4.9535120762
 10
-1.5918971024
 20
4.9134212873
 10
-1.564078366
 20
4.8724291132
 10
-1.537071902
 20
4.830594841
 10
-1.5109187033
 20
4.7879804278
 10
-1.4856631382
 20
4.7446555075
 10
-1.461343429
 20
4.7006840994
 10
-1.4379950977
 20
4.6561316262
 10
-1.4156563138
 20
4.6110709827
 10
-1.394360601
 20
4.5655708854
 10
-1.374136959
 20
4.5196978342
 10
-1.355015098
 20
4.4735221785
 10
-1.3370225781
 20
4.4271138381
 10
-1.3201829692
 20
4.3805414554
 10
-1.3045189849
 20
4.3338741056
 10
-1.2900518039
 20
4.2871808286
 10
-1.2767996738
 20
4.2405324053
 10
-1.2647799478
 20
4.1940013439
 10
-1.254007097
 20
4.1476549756
 10
-1.2444931519
 20
4.1015658453
 10
-1.2362498474
 20
4.0558151909
 10
-1.2292846071
 20
4.0104716034
 10
-1.2236011206
 20
3.9656016361
 10
-1.219202435
 20
3.9212840871
 10
-1.2160881609
 20
3.8775891323
 10
-1.2142529871
 20
3.8345812805
 10
-1.2137250077
 20
3.8048162216
  0
LWPOLYLINE
  5
23D
100
AcDbEntity
  8
RACCORDO
100
AcDbPolyline
 62
7
  6
CONTINUOUS
 90
3
 70
0
 10
-1.4612972029
 20
3.166160973
 10
-1.4840744472
 20
3.1508356534
 10
-1.5078660434
 20
3.1369628876
  0
LINE
  5
23E
100
AcDbEntity
  8
RACCORDO
100
AcDbLine
 62
7
  6
CONTINUOUS
 10
-1.5078660434
 20
3.1369628876
 11
-1.5114752042
 21
3.1350350358
  0
LINE
  5
23F
100
AcDbEntity
  8
ASSI
100
AcDbLine
 62
7
  6
CONTINUOUS
 10
-1.5106870832
 20
3.1354518009
 11
-1.5114784858
 21
3.1350330744
  0
LINE
  5
240
100
AcDbEntity
  8
DRAFT
100
AcDbLine
 62
7
  6
CONTINUOUS
 10
-1.3020691102
 20
3.3616225007
 11
-1.4884692712
 21
3.273511144
  0
LWPOLYLINE
  5
241
100
AcDbEntity
  8
ASSI
100
AcDbPolyline
 62
7
  6
CONTINUOUS
 90
12
 70
0
 10
-1.2150095622
 20
3.7348696874
 10
-1.221561433
 20
3.651491253
 10
-1.2334970883
 20
3.5724118854
 10
-1.2506619572
 20
3.4981131697
 10
-1.2728397155
 20
3.4291035692
 10
-1.2997270236
 20
3.3658970154
 10
-1.330959317
 20
3.3088953238
 10
-1.3662226233
 20
3.2582550964
 10
-1.4052812913
 20
3.2140069861
 10
-1.4477707123
 20
3.1763050183
 10
-1.4934949603
 20
3.1450943568
 10
-1.5106957651
 20
3.1354474652
  0
LINE
  5
242
100
AcDbEntity
  8
ASSI
100
AcDbLine
 62
7
  6
CONTINUOUS
 10
-1.214335175
 20
3.8374102718
 11
-1.2137252231
 21
3.8048491392
  0
LWPOLYLINE
  5
243
100
AcDbEntity
  8
RACCORDO
100
AcDbPolyline
 62
7
  6
CONTINUOUS
 90
23
 70
0
 10
-1.2137248819
 20
3.8048120246
 10
-1.2137793387
 20
3.778861023
 10
-1.2147970981
 20
3.7398343982
 10
-1.2169429524
 20
3.7014942381
 10
-1.220213754
 20
3.6639141481
 10
-1.224604334
 20
3.6271385217
 10
-1.2301118841
 20
3.5911906903
 10
-1.2367301797
 20
3.5561257682
 10
-1.2444497081
 20
3.5219984313
 10
-1.2532649697
 20
3.4888385474
 10
-1.2631646405
 20
3.456702405
 10
-1.274134562
 20
3.4256437567
 10
-1.2861654164
 20
3.3956937101
 10
-1.2992403138
 20
3.3669044667
 10
-1.3133405051
 20
3.3393249405
 10
-1.3284538418
 20
3.3129835128
 10
-1.3445563913
 20
3.2879300652
 10
-1.3616295486
 20
3.2642008683
 10
-1.3796727214
 20
3.2418047079
 10
-1.3986609141
 20
3.2207858271
 10
-1.4185818379
 20
3.2011711017
 10
-1.4394656909
 20
3.1829492214
 10
-1.4612972029
 20
3.166160973
  0
LINE
  5
244
100
AcDbEntity
  8
ASSI
100
AcDbLine
 62
7
  6
CONTINUOUS
 10
-1.213724772
 20
3.8047976251
 11
-1.2150095622
 21
3.7348696874
  0
LINE
  5
245
100
AcDbEntity
  8
DRAFT
100
AcDbLine
 62
7
  6
CONTINUOUS
 10
15.8014008729
 20
3.1039629657
 11
13.4944890475
 21
2.1134254672
  0
LINE
  5
246
100
AcDbEntity
  8
ASSI
100
AcDbLine
 62
7
  6
CONTINUOUS
 10
15.8014008729
 20
3.1039629657
 11
13.4944890475
 21
2.1134254672
  0
LINE
  5
247
100
AcDbEntity
  8
RACCORDO
100
AcDbLine
 62
253
  6
CONTINUOUS
 10
17.4896423604
 20
2.2598422219
 11
13.7435690432
 21
0.4117199043
  0
LINE
  5
248
100
AcDbEntity
  8
ASSI
100
AcDbLine
 62
253
  6
CONTINUOUS
 10
17.4896423604
 20
2.2598422219
 11
13.7435690432
 21
0.4117199043
  0
LINE
  5
249
100
AcDbEntity
  8
RACCORDO
100
AcDbLine
 62
253
  6
CONTINUOUS
 10
17.6310637175
 20
2.0159462472
 11
13.8837348357
 21
0.1672044979
  0
LINE
  5
24A
100
AcDbEntity
  8
ASSI
100
AcDbLine
 62
253
  6
CONTINUOUS
 10
17.6310637175
 20
2.0159462472
 11
13.8837348357
 21
0.1672044979
  0
LINE
  5
24B
100
AcDbEntity
  8
RACCORDO
100
AcDbLine
 62
253
  6
CONTINUOUS
 10
13.1828446978
 20
0.1679194523
 11
-17.5892362791
 21
15.5539599407
  0
LINE
  5
24C
100
AcDbEntity
  8
ASSI
100
AcDbLine
 62
253
  6
CONTINUOUS
 10
13.1828446978
 20
0.1679194523
 11
-17.5892362791
 21
15.5539599407
  0
LINE
  5
24D
100
AcDbEntity
  8
RACCORDO
100
AcDbLine
 62
253
  6
CONTINUOUS
 10
13.3230407282
 20
0.4113277283
 11
-17.4490579008
 21
15.7973770428
  0
LINE
  5
24E
100
AcDbEntity
  8
ASSI
100
AcDbLine
 62
253
  6
CONTINUOUS
 10
13.3230407282
 20
0.4113277283
 11
-17.4490579008
 21
15.7973770428
  0
LINE
  5
24F
100
AcDbEntity
  8
DRAFT
100
AcDbLine
 62
7
  6
CONTINUOUS
 10
-14.0826754187
 20
15.9020077003
 11
13.4944890475
 21
2.1134254672
  0
LINE
  5
250
100
AcDbEntity
  8
ASSI
100
AcDbLine
 62
7
  6
CONTINUOUS
 10
-14.0826754187
 20
15.9020077003
 11
13.4944890475
 21
2.1134254672
  0
LINE
  5
251
100
AcDbEntity
  8
RACCORDO
100
AcDbLine
 62
7
  6
CONTINUOUS
 10
-13.8351880445
 20
17.9222574244
 11
-12.1469465569
 21
17.0781366806
  0
LINE
  5
252
100
AcDbEntity
  8
ASSI
100
AcDbLine
 62
7
  6
CONTINUOUS
 10
-13.8351880445
 20
17.9222574244
 11
-12.1469465569
 21
17.0781366806
  0
LINE
  5
253
100
AcDbEntity
  8
RACCORDO
100
AcDbLine
 62
7
  6
CONTINUOUS
 10
15.8014008729
 20
3.1039629657
 11
17.4896423604
 21
2.2598422219
  0
LINE
  5
254
100
AcDbEntity
  8
ASSI
100
AcDbLine
 62
7
  6
CONTINUOUS
 10
15.8014008729
 20
3.1039629657
 11
17.4896423604
 21
2.2598422219
  0
LINE
  5
255
100
AcDbEntity
  8
RACCORDO
100
AcDbLine
 62
7
  6
CONTINUOUS
 10
17.6310637175
 20
2.0159462472
 11
17.6310637175
 21
-9.0691987058
  0
LINE
  5
256
100
AcDbEntity
  8
ASSI
100
AcDbLine
 62
7
  6
CONTINUOUS
 10
17.6310637175
 20
2.0159462472
 11
17.6310637175
 21
-9.0691987058
  0
LINE
  5
257
100
AcDbEntity
  8
RACCORDO
100
AcDbLine
 62
7
  6
CONTINUOUS
 10
17.6310637175
 20
-9.0691987058
 11
17.0921799078
 21
-16.7437570228
  0
LINE
  5
258
100
AcDbEntity
  8
ASSI
100
AcDbLine
 62
7
  6
CONTINUOUS
 10
17.6310637175
 20
-9.0691987058
 11
17.0921799078
 21
-16.7437570228
  0
LINE
  5
259
100
AcDbEntity
  8
RACCORDO
100
AcDbLine
 62
253
  6
CONTINUOUS
 10
14.8688550267
 20
-17.6770184995
 11
17.0921799078
 21
-16.7437570228
  0
LINE
  5
25A
100
AcDbEntity
  8
ASSI
100
AcDbLine
 62
253
  6
CONTINUOUS
 10
14.8688550267
 20
-17.6770184995
 11
17.0921799078
 21
-16.7437570228
  0
LWPOLYLINE
  5
25B
100
AcDbEntity
  8
ASSI
100
AcDbPolyline
 62
7
  6
CONTINUOUS
 90
3
 70
0
 10
14.6004081667
 20
-17.9997547041
 10
14.6897323091
 20
-17.9685161846
 10
14.71486354
 20
-17.9582912861
  0
LINE
  5
25C
100
AcDbEntity
  8
RACCORDO
100
AcDbLine
 62
7
  6
CONTINUOUS
 10
14.7150477813
 20
-17.9582141979
 11
16.9258564709
 21
-17.03020651
  0
LINE
  5
25D
100
AcDbEntity
  8
ASSI
100
AcDbLine
 62
7
  6
CONTINUOUS
 10
14.7150477813
 20
-17.9582141979
 11
16.9258564709
 21
-17.03020651
  0
LINE
  5
25E
100
AcDbEntity
  8
RACCORDO
100
AcDbLine
 62
7
  6
CONTINUOUS
 10
14.6817117811
 20
-17.971645784
 11
14.7150337122
 21
-17.9582199642
  0
ARC
  5
25F
100
AcDbEntity
  8
RACCORDO
100
AcDbCircle
 62
253
  6
CONTINUOUS
 10
531.716676633
 20
0.4664067541
 40
518.5339178454
100
AcDbArc
 50
180.0329815717
 51
180.338577645
  0
ARC
  5
260
100
AcDbEntity
  8
ASSI
100
AcDbCircle
 62
253
  6
CONTINUOUS
 10
531.716676633
 20
0.4664067541
 40
518.5339178454
100
AcDbArc
 50
180.0329815717
 51
180.338577645
  0
ARC
  5
261
100
AcDbEntity
  8
RACCORDO
100
AcDbCircle
 62
253
  6
CONTINUOUS
 10
524.5906050105
 20
0.4142506247
 40
510.7068844478
100
AcDbArc
 50
180.0277158976
 51
181.2619465208
  0
ARC
  5
262
100
AcDbEntity
  8
ASSI
100
AcDbCircle
 62
253
  6
CONTINUOUS
 10
524.5906050105
 20
0.4142506247
 40
510.7068844478
100
AcDbArc
 50
180.0277158976
 51
181.2619465208
  0
ARC
  5
263
100
AcDbEntity
  8
RACCORDO
100
AcDbCircle
 62
253
  6
CONTINUOUS
 10
514.0640405455
 20
0.1892871999
 40
500.1779344108
100
AcDbArc
 50
181.2627393564
 51
181.9896878284
  0
ARC
  5
264
100
AcDbEntity
  8
ASSI
100
AcDbCircle
 62
253
  6
CONTINUOUS
 10
514.0640405455
 20
0.1892871999
 40
500.1779344108
100
AcDbArc
 50
181.2627393564
 51
181.9896878284
  0
ARC
  5
265
100
AcDbEntity
  8
RACCORDO
100
AcDbCircle
 62
253
  6
CONTINUOUS
 10
-2.7858541034
 20
3.7559773587
 40
1.6014957667
100
AcDbArc
 50
1.7691524398
 51
3.7642664723
  0
ARC
  5
266
100
AcDbEntity
  8
ASSI
100
AcDbCircle
 62
253
  6
CONTINUOUS
 10
-2.7858541034
 20
3.7559773587
 40
1.6014957667
100
AcDbArc
 50
1.7691524398
 51
3.7642664723
  0
ARC
  5
267
100
AcDbEntity
  8
RACCORDO
100
AcDbCircle
 62
253
  6
CONTINUOUS
 10
-2.7197957026
 20
3.7581500177
 40
1.5354017841
100
AcDbArc
 50
0.4200341242
 51
1.7642182
  0
ARC
  5
268
100
AcDbEntity
  8
ASSI
100
AcDbCircle
 62
253
  6
CONTINUOUS
 10
-2.7197957026
 20
3.7581500177
 40
1.5354017841
100
AcDbArc
 50
0.4200341242
 51
1.7642182
  0
ARC
  5
269
100
AcDbEntity
  8
ASSI
100
AcDbCircle
 62
253
  6
CONTINUOUS
 10
-2.6570400566
 20
3.7585658434
 40
1.4726447768
100
AcDbArc
 50
358.6776129422
 51
0.4217554206
  0
ARC
  5
26A
100
AcDbEntity
  8
RACCORDO
100
AcDbCircle
 62
7
  6
CONTINUOUS
 10
-1.567411293
 20
4.2928222933
 40
1.1007054639
100
AcDbArc
 50
237.1726665365
 51
240.9484598453
  0
ARC
  5
26B
100
AcDbEntity
  8
RACCORDO
100
AcDbCircle
 62
7
  6
CONTINUOUS
 10
-1.6008184844
 20
4.2332756552
 40
1.0324284262
100
AcDbArc
 50
240.9644641986
 51
243.4252663163
  0
ARC
  5
26C
100
AcDbEntity
  8
RACCORDO
100
AcDbCircle
 62
253
  6
CONTINUOUS
 10
-16.6611551297
 20
-2.0576331523
 40
0.5576173384
100
AcDbArc
 50
236.7290897213
 51
238.8152402689
  0
ARC
  5
26D
100
AcDbEntity
  8
RACCORDO
100
AcDbCircle
 62
253
  6
CONTINUOUS
 10
-16.6627890368
 20
-2.0603188228
 40
0.5544737057
100
AcDbArc
 50
238.8159813801
 51
240.0279649063
  0
ARC
  5
26E
100
AcDbEntity
  8
ASSI
100
AcDbCircle
 62
253
  6
CONTINUOUS
 10
-16.6646680568
 20
-2.0635460898
 40
0.5507398195
100
AcDbArc
 50
238.809372773
 51
243.4279550194
  0
ARC
  5
26F
100
AcDbEntity
  8
RACCORDO
100
AcDbCircle
 62
253
  6
CONTINUOUS
 10
-16.6653169608
 20
-2.0647708579
 40
0.549354152
100
AcDbArc
 50
240.0243904081
 51
243.4313441623
  0
ARC
  5
270
100
AcDbEntity
  8
RACCORDO
100
AcDbCircle
 62
253
  6
CONTINUOUS
 10
-1.7375493223
 20
3.5630863436
 40
0.4840821
100
AcDbArc
 50
291.9782690748
 51
297.840198885
  0
SPLINE
  5
271
100
AcDbEntity
  8
RACCORDO
100
AcDbSpline
 62
7
  6
CONTINUOUS
 70
0
 71
3
 72
14
 73
10
 74
8
 42
0.0000001
 43
0.0000001
 44
0.0000000001
 12
-2.1334127319
 22
-1.1262489471
 32
0.0
 13
2.0328953942
 23
-1.3102034695
 33
0.0
 40
0.0
 40
0.0
 40
0.0
 40
0.0
 40
0.1126354234
 40
0.2431064815
 40
0.3946442942
 40
0.5607875776
 40
0.7319683022
 40
0.897607205
 40
1.0
 40
1.0
 40
1.0
 40
1.0
 10
-2.567812062
 20
5.4321971289
 30
0.0
 10
-2.6479113441
 20
5.3899119532
 30
0.0
 10
-2.7966944615
 20
5.2484725505
 30
0.0
 10
-2.9044848496
 20
4.9410622825
 30
0.0
 10
-2.9057885301
 20
4.5758671083
 30
0.0
 10
-2.8085357119
 20
4.1914441268
 30
0.0
 10
-2.6263112882
 20
3.8268616889
 30
0.0
 10
-2.4031378072
 20
3.5496927458
 30
0.0
 10
-2.2334984084
 20
3.4126090621
 30
0.0
 10
-2.1641137947
 20
3.3678905971
 30
0.0
 11
-2.567812062
 21
5.4321971289
 31
0.0
 11
-2.7680944016
 21
5.2485606039
 31
0.0
 11
-2.8824194874
 21
4.9553031804
 31
0.0
 11
-2.8911555036
 21
4.5898311167
 31
0.0
 11
-2.7961695373
 21
4.2004374938
 31
0.0
 11
-2.6116173327
 21
3.8310059707
 31
0.0
 11
-2.3582277321
 21
3.5220245603
 31
0.0
 11
-2.1641137947
 21
3.3678905971
 31
0.0
  0
SPLINE
  5
272
100
AcDbEntity
  8
RACCORDO
100
AcDbSpline
 62
7
  6
CONTINUOUS
 70
0
 71
3
 72
10
 73
6
 74
4
 42
0.0000001
 43
0.0000001
 44
0.0000000001
 12
0.5309507646
 22
-0.2654753776
 32
0.0
 13
0.5366819963
 23
0.2536896016
 33
0.0
 40
0.0
 40
0.0
 40
0.0
 40
0.0
 40
0.3683960887
 40
0.69741576
 40
1.0
 40
1.0
 40
1.0
 40
1.0
 10
-2.0626905587
 20
3.3099216374
 30
0.0
 10
-1.997490497
 20
3.2773216072
 30
0.0
 10
-1.866405244
 20
3.2287419806
 30
0.0
 10
-1.6660575744
 20
3.2145395697
 30
0.0
 10
-1.5425996538
 20
3.2479237099
 30
0.0
 10
-1.4884691491
 20
3.2735112017
 30
0.0
 11
-2.0626905587
 21
3.3099216374
 31
0.0
 11
-1.856593212
 21
3.2367904284
 31
0.0
 11
-1.6615977672
 21
3.2256576423
 31
0.0
 11
-1.4884691491
 21
3.2735112017
 31
0.0
  0
SPLINE
  5
273
100
AcDbEntity
  8
RACCORDO
100
AcDbSpline
 62
253
  6
CONTINUOUS
 70
0
 71
3
 72
9
 73
5
 74
3
 42
0.0000001
 43
0.0000001
 44
0.0000000001
 12
0.3391227322
 22
0.1616815324
 32
0.0
 13
0.1507748204
 23
0.3442739141
 33
0.0
 40
0.0
 40
0.0
 40
0.0
 40
0.0
 40
0.6219775114
 40
1.0
 40
1.0
 40
1.0
 40
1.0
 10
-1.4884769949
 20
3.273541445
 30
0.0
 10
-1.4181680905
 20
3.3070622041
 30
0.0
 10
-1.3192973644
 20
3.3919393361
 30
0.0
 10
-1.2573550224
 20
3.5013361138
 30
0.0
 10
-1.2383562648
 20
3.5447172077
 30
0.0
 11
-1.4884769949
 21
3.273541445
 31
0.0
 11
-1.309463322
 21
3.4221311114
 31
0.0
 11
-1.2383562648
 21
3.5447172077
 31
0.0
  0
SPLINE
  5
274
100
AcDbEntity
  8
RACCORDO
100
AcDbSpline
 62
253
  6
CONTINUOUS
 70
0
 71
3
 72
22
 73
18
 74
16
 42
0.0000001
 43
0.0000001
 44
0.0000000001
 12
-2.5607350466
 22
1.2803675233
 32
0.0
 13
2.5607350466
 23
-1.2803675233
 33
0.0
 40
0.0
 40
0.0
 40
0.0
 40
0.0
 40
0.0926031929
 40
0.1728708975
 40
0.252045775
 40
0.3369516027
 40
0.4238704212
 40
0.5094903106
 40
0.590787205
 40
0.6657976871
 40
0.733551015
 40
0.7939124321
 40
0.8471061098
 40
0.8936521728
 40
0.9341960337
 40
0.9693929376
 40
1.0
 40
1.0
 40
1.0
 40
1.0
 10
-2.0882365408
 20
5.291064283
 30
0.0
 10
-2.1672806213
 20
5.3305863233
 30
0.0
 10
-2.3278321365
 20
5.3847215008
 30
0.0
 10
-2.5773554365
 20
5.3526848125
 30
0.0
 10
-2.7648300325
 20
5.1952389035
 30
0.0
 10
-2.8609466241
 20
4.9694534514
 30
0.0
 10
-2.8873198001
 20
4.7229808638
 30
0.0
 10
-2.8632035096
 20
4.4806393997
 30
0.0
 10
-2.8047915683
 20
4.2565128601
 30
0.0
 10
-2.7247240271
 20
4.0576989599
 30
0.0
 10
-2.6325713455
 20
3.8867443147
 30
0.0
 10
-2.5352538431
 20
3.743338943
 30
0.0
 10
-2.4375668433
 20
3.6255629397
 30
0.0
 10
-2.3427581253
 20
3.5307744947
 30
0.0
 10
-2.252903689
 20
3.4560497008
 30
0.0
 10
-2.169193577
 20
3.3984316619
 30
0.0
 10
-2.1143620666
 20
3.3676108741
 30
0.0
 10
-2.0882365408
 20
3.3545481112
 30
0.0
 11
-2.0882365408
 21
5.291064283
 31
0.0
 11
-2.3423271651
 21
5.3667450572
 31
0.0
 11
-2.5694362758
 21
5.331644653
 31
0.0
 11
-2.7457506281
 21
5.1891819707
 31
0.0
 11
-2.8484075294
 21
4.9688376872
 31
0.0
 11
-2.8788072176
 21
4.7218539029
 31
0.0
 11
-2.8563614851
 21
4.4777549253
 31
0.0
 11
-2.7983729808
 21
4.2523422522
 31
0.0
 11
-2.7183342967
 21
4.0530606342
 31
0.0
 11
-2.6262410754
 21
3.8823388636
 31
0.0
 11
-2.5290512369
 21
3.739444373
 31
0.0
 11
-2.4316474931
 21
3.622373286
 31
0.0
 11
-2.3372351666
 21
3.528326655
 31
0.0
 11
-2.2478386559
 21
3.4542858167
 31
0.0
 11
-2.1647124939
 21
3.39732706
 31
0.0
 11
-2.0882365408
 21
3.3545481112
 31
0.0
  0
SPLINE
  5
275
100
AcDbEntity
  8
RACCORDO
100
AcDbSpline
 62
253
  6
CONTINUOUS
 70
0
 71
3
 72
10
 73
6
 74
4
 42
0.0000001
 43
0.0000001
 44
0.0000000001
 12
-0.3309011026
 22
0.0559207195
 32
0.0
 13
-0.2957943124
 23
-0.1580556585
 33
0.0
 40
0.0
 40
0.0
 40
0.0
 40
0.0
 40
0.158594754
 40
0.9032710887
 40
1.0
 40
1.0
 40
1.0
 40
1.0
 10
-2.2406066779
 20
5.4775589071
 30
0.0
 10
-2.2580997376
 20
5.4805151513
 30
0.0
 10
-2.3585191576
 20
5.4932155358
 30
0.0
 10
-2.4737061079
 20
5.4784357553
 30
0.0
 10
-2.5582201579
 20
5.4371909435
 30
0.0
 10
-2.5677574452
 20
5.4320947596
 30
0.0
 11
-2.2406066779
 21
5.4775589071
 31
0.0
 11
-2.2934744387
 21
5.4841718953
 31
0.0
 11
-2.5386245505
 21
5.4462933032
 31
0.0
 11
-2.5677574452
 21
5.4320947596
 31
0.0
  0
SPLINE
  5
276
100
AcDbEntity
  8
RACCORDO
100
AcDbSpline
 62
253
  6
CONTINUOUS
 70
0
 71
3
 72
8
 73
4
 74
2
 42
0.0000001
 43
0.0000001
 44
0.0000000001
 12
0.0835988337
 22
-0.0417994168
 32
0.0
 13
0.0882735387
 23
-0.032464483
 33
0.0
 40
0.0
 40
0.0
 40
0.0
 40
0.0
 40
1.0
 40
1.0
 40
1.0
 40
1.0
 10
-2.0882365408
 20
3.3545481112
 30
0.0
 10
-2.0603702629
 20
3.3406149722
 30
0.0
 10
-2.0316389556
 20
3.3279897681
 30
0.0
 10
-2.0022144427
 20
3.3171682737
 30
0.0
 11
-2.0882365408
 21
3.3545481112
 31
0.0
 11
-2.0022144427
 21
3.3171682737
 31
0.0
  0
SPLINE
  5
277
100
AcDbEntity
  8
RACCORDO
100
AcDbSpline
 62
253
  6
CONTINUOUS
 70
0
 71
3
 72
10
 73
6
 74
4
 42
0.0000001
 43
0.0000001
 44
0.0000000001
 12
0.4497329471
 22
-0.165398916
 32
0.0
 13
0.3975809252
 23
0.2706053485
 33
0.0
 40
0.0
 40
0.0
 40
0.0
 40
0.0
 40
0.3604798126
 40
0.8430695357
 40
1.0
 40
1.0
 40
1.0
 40
1.0
 10
-2.0022144427
 20
3.3171682737
 30
0.0
 10
-1.9481745599
 20
3.2972939503
 30
0.0
 10
-1.8163208477
 20
3.265041529
 30
0.0
 10
-1.6516596485
 20
3.2861817561
 30
0.0
 10
-1.5621621243
 20
3.336406419
 30
0.0
 10
-1.5413646046
 20
3.3505618267
 30
0.0
 11
-2.0022144427
 21
3.3171682737
 31
0.0
 11
-1.8341447315
 21
3.2788679295
 31
0.0
 11
-1.6070371285
 21
3.3139675799
 31
0.0
 11
-1.5413646046
 21
3.3505618267
 31
0.0
  0
SPLINE
  5
278
100
AcDbEntity
  8
RACCORDO
100
AcDbSpline
 62
253
  6
CONTINUOUS
 70
0
 71
3
 72
20
 73
16
 74
14
 42
0.0000001
 43
0.0000001
 44
0.0000000001
 12
1.9147547356
 22
1.3032387614
 32
0.0
 13
-2.0512188492
 23
1.0256094246
 33
0.0
 40
0.0
 40
0.0
 40
0.0
 40
0.0
 40
0.0662565476
 40
0.172252553
 40
0.2807617212
 40
0.3876493116
 40
0.4891401078
 40
0.5827829581
 40
0.667365994
 40
0.7427209878
 40
0.8091277958
 40
0.8672357412
 40
0.9178505631
 40
0.9617902467
 40
1.0
 40
1.0
 40
1.0
 40
1.0
 10
-1.5413646046
 20
3.3505618267
 30
0.0
 10
-1.4990762585
 20
3.379344527
 30
0.0
 10
-1.4016481471
 20
3.4738528835
 30
0.0
 10
-1.3155272067
 20
3.6761587311
 30
0.0
 10
-1.2891539455
 20
3.9226311816
 30
0.0
 10
-1.3132703669
 20
4.1649726313
 30
0.0
 10
-1.3716820981
 20
4.3890992259
 30
0.0
 10
-1.4517495569
 20
4.5879131764
 30
0.0
 10
-1.5439020953
 20
4.7588678932
 30
0.0
 10
-1.6412195082
 20
4.9022733127
 30
0.0
 10
-1.7389064322
 20
5.0200493506
 30
0.0
 10
-1.8337150685
 20
5.1148378561
 30
0.0
 10
-1.9235694981
 20
5.1895626151
 30
0.0
 10
-2.0072795241
 20
5.2471807391
 30
0.0
 10
-2.0621110188
 20
5.278001522
 30
0.0
 10
-2.0882365408
 20
5.291064283
 30
0.0
 11
-1.5413646046
 21
3.3505618267
 31
0.0
 11
-1.4307227171
 21
3.4564302917
 31
0.0
 11
-1.3280662299
 21
3.6767743681
 31
0.0
 11
-1.2976665665
 21
3.92375814
 31
0.0
 11
-1.3201123301
 21
4.1678571021
 31
0.0
 11
-1.3781007035
 21
4.3932698407
 31
0.0
 11
-1.4581392743
 21
4.5925515153
 31
0.0
 11
-1.5502323707
 21
4.7632733484
 31
0.0
 11
-1.6474221142
 21
4.9061678864
 31
0.0
 11
-1.7448257777
 21
5.0232390136
 31
0.0
 11
-1.8392380353
 21
5.1172856791
 31
0.0
 11
-1.928634524
 21
5.1913265284
 31
0.0
 11
-2.0117606077
 21
5.2482853242
 31
0.0
 11
-2.0882365408
 21
5.291064283
 31
0.0
  0
SPLINE
  5
279
100
AcDbEntity
  8
RACCORDO
100
AcDbSpline
 62
253
  6
CONTINUOUS
 70
0
 71
3
 72
11
 73
7
 74
5
 42
0.0000001
 43
0.0000001
 44
0.0000000001
 12
0.0848731424
 22
0.0448360671
 32
0.0
 13
0.0860674104
 23
-0.0415414962
 33
0.0
 40
0.0
 40
0.0
 40
0.0
 40
0.0
 40
0.1417261052
 40
0.4040385915
 40
0.6876714638
 40
1.0
 40
1.0
 40
1.0
 40
1.0
 10
-17.5449624419
 20
16.0140940044
 30
0.0
 10
-17.5409528619
 20
16.0162121515
 30
0.0
 10
-17.5289913792
 20
16.0212503338
 30
0.0
 10
-17.5069945931
 20
16.0245379402
 30
0.0
 10
-17.4796036777
 20
16.020941758
 30
0.0
 10
-17.4616894327
 20
16.0141937891
 30
0.0
 10
-17.4527289966
 20
16.0098689242
 30
0.0
 11
-17.5449624419
 21
16.0140940044
 31
0.0
 11
-17.5324428699
 21
16.0193644368
 31
0.0
 11
-17.5076858256
 21
16.023305384
 31
0.0
 11
-17.480769812
 21
16.0200991498
 31
0.0
 11
-17.4527289966
 21
16.0098689242
 31
0.0
  0
SPLINE
  5
27A
100
AcDbEntity
  8
RACCORDO
100
AcDbSpline
 62
253
  6
CONTINUOUS
 70
0
 71
3
 72
11
 73
7
 74
5
 42
0.0000001
 43
0.0000001
 44
0.0000000001
 12
0.0863010479
 22
-14.5967938161
 32
0.0
 13
0.5071845942
 23
-14.5881783618
 33
0.0
 40
0.0
 40
0.0
 40
0.0
 40
0.0
 40
0.1097567126
 40
0.4077354704
 40
0.7044796212
 40
1.0
 40
1.0
 40
1.0
 40
1.0
 10
13.1918123022
 20
-2.5977451344
 30
0.0
 10
13.1949696753
 20
-3.1317771687
 30
0.0
 10
13.2097740539
 20
-5.1156366144
 30
0.0
 10
13.2551660653
 20
-8.5431371621
 30
0.0
 10
13.3495295504
 20
-12.8737851533
 30
0.0
 10
13.4371223612
 20
-15.7542563213
 30
0.0
 10
13.487083489
 20
-17.1912909865
 30
0.0
 11
13.1918123022
 21
-2.5977451344
 31
0.0
 11
13.2037708816
 21
-4.199824145
 31
0.0
 11
13.2614510683
 21
-8.5490353119
 31
0.0
 11
13.3558885057
 21
-12.8795778043
 31
0.0
 11
13.487083489
 21
-17.1912909865
 31
0.0
  0
SPLINE
  5
27B
100
AcDbEntity
  8
RACCORDO
100
AcDbSpline
 62
253
  6
CONTINUOUS
 70
0
 71
3
 72
18
 73
14
 74
12
 42
0.0000001
 43
0.0000001
 44
0.0000000001
 12
-0.3882309728
 22
-0.191513095
 32
0.0
 13
-0.3872041051
 23
0.1935808226
 33
0.0
 40
0.0
 40
0.0
 40
0.0
 40
0.0
 40
0.0815058463
 40
0.1686857655
 40
0.2604735908
 40
0.3556364595
 40
0.4528302513
 40
0.5506259444
 40
0.6475681924
 40
0.7422356527
 40
0.8333027824
 40
0.9195656467
 40
1.0
 40
1.0
 40
1.0
 40
1.0
 10
13.7435690432
 20
0.4117199043
 30
0.0
 10
13.7330213452
 20
0.4065167587
 30
0.0
 10
13.7105667613
 20
0.3969889767
 30
0.0
 10
13.6746899685
 20
0.3856314646
 30
0.0
 10
13.6360647362
 20
0.3768967058
 30
0.0
 10
13.5954562685
 20
0.3709619859
 30
0.0
 10
13.5536602154
 20
0.3679437098
 30
0.0
 10
13.5114993461
 20
0.3679024378
 30
0.0
 10
13.4698052394
 20
0.3708389626
 30
0.0
 10
13.4293986496
 20
0.3766942755
 30
0.0
 10
13.391070852
 20
0.3853535515
 30
0.0
 10
13.3555806042
 20
0.3966411397
 30
0.0
 10
13.3334222321
 20
0.4061375456
 30
0.0
 10
13.3230407282
 20
0.4113277283
 30
0.0
 11
13.7435690432
 21
0.4117199043
 31
0.0
 11
13.7111400443
 21
0.397816669
 31
0.0
 11
13.6751902765
 21
0.3863309471
 31
0.0
 11
13.6364495201
 21
0.377498939
 31
0.0
 11
13.5956931398
 21
0.3714979761
 31
0.0
 11
13.5537289128
 21
0.3684470849
 31
0.0
 11
13.5113933853
 21
0.3684075892
 31
0.0
 11
13.4695327155
 21
0.371380322
 31
0.0
 11
13.4289819759
 21
0.3773055058
 31
0.0
 11
13.3905448118
 21
0.3860655761
 31
0.0
 11
13.3549905456
 21
0.3974846161
 31
0.0
 11
13.3230407282
 21
0.4113277283
 31
0.0
  0
SPLINE
  5
27C
100
AcDbEntity
  8
RACCORDO
100
AcDbSpline
 62
253
  6
CONTINUOUS
 70
0
 71
3
 72
15
 73
11
 74
9
 42
0.0000001
 43
0.0000001
 44
0.0000000001
 12
-0.1789959988
 22
0.0895078148
 32
0.0
 13
0.1157339158
 23
0.1637428384
 33
0.0
 40
0.0
 40
0.0
 40
0.0
 40
0.0
 40
0.1599713654
 40
0.3053224785
 40
0.4364228428
 40
0.5551938112
 40
0.6653586915
 40
0.7722663983
 40
0.8819989458
 40
1.0
 40
1.0
 40
1.0
 40
1.0
 10
-17.4490579008
 20
15.7973770428
 30
0.0
 10
-17.4586026456
 20
15.8021499386
 30
0.0
 10
-17.4763549469
 20
15.8122564978
 30
0.0
 10
-17.4995647692
 20
15.830004093
 30
0.0
 10
-17.517682819
 20
15.8493614899
 30
0.0
 10
-17.5302887329
 20
15.8700454342
 30
0.0
 10
-17.5369619754
 20
15.8917122167
 30
0.0
 10
-17.5373505947
 20
15.9138074905
 30
0.0
 10
-17.5314344763
 20
15.9356139552
 30
0.0
 10
-17.5238665787
 20
15.9489402584
 30
0.0
 10
-17.5193143373
 20
15.9553808675
 30
0.0
 11
-17.4490579008
 21
15.7973770428
 31
0.0
 11
-17.4767892133
 21
15.8133744955
 31
0.0
 11
-17.499761769
 21
15.8312188665
 31
0.0
 11
-17.5175031105
 21
15.8505480489
 31
0.0
 11
-17.5296569889
 21
15.8709751742
 31
0.0
 11
-17.5359822636
 21
15.8920954135
 31
0.0
 11
-17.5363518124
 21
15.9134874474
 31
0.0
 11
-17.5307583356
 21
15.9347237137
 31
0.0
 11
-17.5193143373
 21
15.9553808675
 31
0.0
  0
SPLINE
  5
27D
100
AcDbEntity
  8
RACCORDO
100
AcDbSpline
 62
253
  6
CONTINUOUS
 70
0
 71
3
 72
10
 73
6
 74
4
 42
0.0000001
 43
0.0000001
 44
0.0000000001
 12
0.0501513692
 22
0.070955238
 32
0.0
 13
0.0766665532
 23
0.0405335632
 33
0.0
 40
0.0
 40
0.0
 40
0.0
 40
0.0
 40
0.300285628
 40
0.633260842
 40
1.0
 40
1.0
 40
1.0
 40
1.0
 10
-17.5193143373
 20
15.9553808675
 30
0.0
 10
-17.5142944255
 20
15.9624831469
 30
0.0
 10
-17.5020902169
 20
15.9762697821
 30
0.0
 10
-17.4794935854
 20
15.9944687443
 30
0.0
 10
-17.4621012057
 20
16.0049138425
 30
0.0
 10
-17.4527289966
 20
16.0098689242
 30
0.0
 11
-17.5193143373
 21
15.9553808675
 31
0.0
 11
-17.5022468103
 21
15.9750494904
 31
0.0
 11
-17.4798984678
 21
15.9933359249
 31
0.0
 11
-17.4527289966
 21
16.0098689242
 31
0.0
  0
SPLINE
  5
27E
100
AcDbEntity
  8
RACCORDO
100
AcDbSpline
 62
253
  6
CONTINUOUS
 70
0
 71
3
 72
12
 73
8
 74
6
 42
0.0000001
 43
0.0000001
 44
0.0000000001
 12
0.0082126279
 22
-0.2416880773
 32
0.0
 13
0.2155430831
 23
-0.1079545116
 33
0.0
 40
0.0
 40
0.0
 40
0.0
 40
0.0
 40
0.1608842159
 40
0.340588146
 40
0.5377905622
 40
0.7570801002
 40
1.0
 40
1.0
 40
1.0
 40
1.0
 10
-17.4419062989
 20
-1.6223922241
 30
0.0
 10
-17.4414658715
 20
-1.6353534897
 30
0.0
 10
-17.4365941248
 20
-1.6626680014
 30
0.0
 10
-17.417400742
 20
-1.7019465945
 30
0.0
 10
-17.3864808934
 20
-1.7390261962
 30
0.0
 10
-17.3451467131
 20
-1.7725879933
 30
0.0
 10
-17.3128962271
 20
-1.7912977694
 30
0.0
 10
-17.2954429924
 20
-1.8000392024
 30
0.0
 11
-17.4419062989
 21
-1.6223922241
 31
0.0
 11
-17.4352380907
 21
-1.6606144735
 31
0.0
 11
-17.4166395783
 21
-1.6997394982
 31
0.0
 11
-17.3866159447
 21
-1.7365976824
 31
0.0
 11
-17.3458901807
 21
-1.7703014542
 31
0.0
 11
-17.2954429924
 21
-1.8000392024
 31
0.0
  0
SPLINE
  5
27F
100
AcDbEntity
  8
RACCORDO
100
AcDbSpline
 62
253
  6
CONTINUOUS
 70
0
 71
3
 72
15
 73
11
 74
9
 42
0.0000001
 43
0.0000001
 44
0.0000000001
 12
-0.6906319167
 22
0.4531392479
 32
0.0
 13
-0.0278627905
 23
0.8244969658
 33
0.0
 40
0.0
 40
0.0
 40
0.0
 40
0.0
 40
0.038959054
 40
0.1576959601
 40
0.2807100257
 40
0.4095877143
 40
0.5454719305
 40
0.6890542008
 40
0.8405963456
 40
1.0
 40
1.0
 40
1.0
 40
1.0
 10
-16.9670631085
 20
-2.5238492016
 30
0.0
 10
-16.9760318972
 20
-2.5179645761
 30
0.0
 10
-17.0116496574
 20
-2.4931011728
 30
0.0
 10
-17.0697102508
 20
-2.4416857757
 30
0.0
 10
-17.1343652352
 20
-2.3623683369
 30
0.0
 10
-17.1889274866
 20
-2.2703373014
 30
0.0
 10
-17.2328760607
 20
-2.1666779817
 30
0.0
 10
-17.2658032303
 20
-2.0525541859
 30
0.0
 10
-17.2874048645
 20
-1.9292335457
 30
0.0
 10
-17.2939629035
 20
-1.8438368284
 30
0.0
 10
-17.2954433803
 20
-1.8000275519
 30
0.0
 11
-16.9670631085
 21
-2.5238492016
 31
0.0
 11
-16.9934476036
 21
-2.5054340951
 31
0.0
 11
-17.0669367813
 21
-2.4406703158
 31
0.0
 11
-17.1313153339
 21
-2.362222088
 31
0.0
 11
-17.1858664466
 21
-2.2709636548
 31
0.0
 11
-17.2299841171
 21
-2.167909985
 31
0.0
 11
-17.2631784075
 21
-2.0542054855
 31
0.0
 11
-17.285078891
 21
-1.9311213276
 31
0.0
 11
-17.2954433803
 21
-1.8000275519
 31
0.0
  0
SPLINE
  5
280
100
AcDbEntity
  8
RACCORDO
100
AcDbSpline
 62
253
  6
CONTINUOUS
 70
0
 71
3
 72
27
 73
23
 74
21
 42
0.0000001
 43
0.0000001
 44
0.0000000001
 12
-2.3359061049
 22
-0.9433573678
 32
0.0
 13
-0.0203407198
 23
2.5155944729
 33
0.0
 40
0.0
 40
0.0
 40
0.0
 40
0.0
 40
0.0239838824
 40
0.0607372915
 40
0.0990134258
 40
0.1393347281
 40
0.1820412699
 40
0.2273093506
 40
0.2751736607
 40
0.3255438967
 40
0.3782190701
 40
0.432910899
 40
0.4892860073
 40
0.5469672895
 40
0.6054966056
 40
0.6643481779
 40
0.7230885256
 40
0.7814073547
 40
0.8388829676
 40
0.8948702966
 40
0.9487481548
 40
1.0
 40
1.0
 40
1.0
 40
1.0
 10
-1.5563792206
 20
3.1141844904
 30
0.0
 10
-1.5750539197
 20
3.1066426996
 30
0.0
 10
-1.6235254339
 20
3.0904552811
 30
0.0
 10
-1.7057717524
 20
3.0762912126
 30
0.0
 10
-1.8029207221
 20
3.0761646913
 30
0.0
 10
-1.9038181593
 20
3.091640167
 30
0.0
 10
-2.0072194739
 20
3.1224087895
 30
0.0
 10
-2.1118745955
 20
3.1680098746
 30
0.0
 10
-2.2165274088
 20
3.2278359748
 30
0.0
 10
-2.3199117343
 20
3.3011268819
 30
0.0
 10
-2.4207585932
 20
3.3869620806
 30
0.0
 10
-2.5178278771
 20
3.4842747674
 30
0.0
 10
-2.6099304928
 20
3.5918737537
 30
0.0
 10
-2.6959184798
 20
3.7084330551
 30
0.0
 10
-2.7746774988
 20
3.8324550505
 30
0.0
 10
-2.8452030881
 20
3.9623457822
 30
0.0
 10
-2.9066668803
 20
4.0965681264
 30
0.0
 10
-2.9583503848
 20
4.233623421
 30
0.0
 10
-2.9995438156
 20
4.3717874298
 30
0.0
 10
-3.0296150096
 20
4.5089935752
 30
0.0
 10
-3.0481694958
 20
4.642958219
 30
0.0
 10
-3.052956799
 20
4.7311175094
 30
0.0
 10
-3.0533042988
 20
4.7740937956
 30
0.0
 11
-1.5563792206
 21
3.1141844904
 31
0.0
 11
-1.6136434935
 21
3.0950278436
 31
0.0
 11
-1.7047147591
 21
3.0790647666
 31
0.0
 11
-1.8010038438
 21
3.0785654064
 31
0.0
 11
-1.901328703
 21
3.0935338765
 31
0.0
 11
-2.004418509
 21
3.1237820878
 31
0.0
 11
-2.1089687032
 21
3.1689249561
 31
0.0
 11
-2.213669071
 21
3.2283948917
 31
0.0
 11
-2.3172064941
 21
3.3014479641
 31
0.0
 11
-2.4182671569
 21
3.3871604189
 31
0.0
 11
-2.5155637066
 21
3.4844412134
 31
0.0
 11
-2.6078921836
 21
3.5920925185
 31
0.0
 11
-2.6941119256
 21
3.7088072582
 31
0.0
 11
-2.7730892381
 21
3.8330749059
 31
0.0
 11
-2.8437444771
 21
3.9631790667
 31
0.0
 11
-2.9052436303
 21
4.0975454938
 31
0.0
 11
-2.9569458457
 21
4.234844774
 31
0.0
 11
-2.9981508921
 21
4.3734392536
 31
0.0
 11
-3.0281527164
 21
4.511052813
 31
0.0
 11
-3.0465494535
 21
4.6453377881
 31
0.0
 11
-3.0533042988
 21
4.7740937956
 31
0.0
  0
SPLINE
  5
281
100
AcDbEntity
  8
RACCORDO
100
AcDbSpline
 62
253
  6
CONTINUOUS
 70
0
 71
3
 72
11
 73
7
 74
5
 42
0.0000001
 43
0.0000001
 44
0.0000000001
 12
-0.5827888803
 22
17.3474269095
 32
0.0
 13
-0.0096986814
 23
17.3572108702
 33
0.0
 40
0.0
 40
0.0
 40
0.0
 40
0.0
 40
0.2483881815
 40
0.4978455333
 40
0.74837995
 40
1.0
 40
1.0
 40
1.0
 40
1.0
 10
-17.2954433849
 20
-1.8000275497
 30
0.0
 10
-17.3436960082
 20
-0.3637289421
 30
0.0
 10
-17.4282917483
 20
2.5154719376
 30
0.0
 10
-17.5194148308
 20
6.8444909149
 30
0.0
 10
-17.5750477944
 20
11.1928113431
 30
0.0
 10
-17.5884228182
 20
14.0981525183
 30
0.0
 10
-17.5892362791
 20
15.5539599407
 30
0.0
 11
-17.2954433849
 21
-1.8000275497
 31
0.0
 11
-17.4221413302
 21
2.5094371137
 31
0.0
 11
-17.5133416881
 21
6.8383610663
 31
0.0
 11
-17.5690447421
 21
11.1865836668
 31
0.0
 11
-17.5892362791
 21
15.5539599407
 31
0.0
  0
SPLINE
  5
282
100
AcDbEntity
  8
RACCORDO
100
AcDbSpline
 62
253
  6
CONTINUOUS
 70
0
 71
3
 72
35
 73
31
 74
29
 42
0.0000001
 43
0.0000001
 44
0.0000000001
 12
-0.0265786962
 22
3.5497544195
 32
0.0
 13
0.2326267247
 23
-3.5437530382
 33
0.0
 40
0.0
 40
0.0
 40
0.0
 40
0.0
 40
0.0373186322
 40
0.073137791
 40
0.1072027341
 40
0.139393471
 40
0.1697606819
 40
0.1986287705
 40
0.2264981959
 40
0.2539054553
 40
0.2813928778
 40
0.3095133377
 40
0.338772947
 40
0.3695685413
 40
0.4021606344
 40
0.4366868582
 40
0.4731779546
 40
0.511569755
 40
0.5517136246
 40
0.5933939517
 40
0.6363601138
 40
0.6803273425
 40
0.7249482001
 40
0.7698226914
 40
0.8146202157
 40
0.8591032323
 40
0.9029482898
 40
0.9456605011
 40
0.9867626688
 40
1.0
 40
1.0
 40
1.0
 40
1.0
 10
-3.193477949
 20
4.7739273002
 30
0.0
 10
-3.1938085759
 20
4.8180846268
 30
0.0
 10
-3.1906421779
 20
4.9047203262
 30
0.0
 10
-3.1733447382
 20
5.0306176802
 30
0.0
 10
-3.1435200794
 20
5.1479586826
 30
0.0
 10
-3.1014538093
 20
5.2546403389
 30
0.0
 10
-3.0476968864
 20
5.3489902413
 30
0.0
 10
-2.9829077149
 20
5.4297557719
 30
0.0
 10
-2.9077881071
 20
5.4959098627
 30
0.0
 10
-2.8232557066
 20
5.5464650908
 30
0.0
 10
-2.7305546402
 20
5.5806062886
 30
0.0
 10
-2.6311050217
 20
5.5978800186
 30
0.0
 10
-2.5263146546
 20
5.5981825588
 30
0.0
 10
-2.4175488054
 20
5.5816541565
 30
0.0
 10
-2.3061596443
 20
5.5486208599
 30
0.0
 10
-2.193501363
 20
5.4995760748
 30
0.0
 10
-2.0809298903
 20
5.4351740819
 30
0.0
 10
-1.9698073309
 20
5.3562358174
 30
0.0
 10
-1.8614944943
 20
5.2637566584
 30
0.0
 10
-1.7573172504
 20
5.1588910485
 30
0.0
 10
-1.6585432977
 20
5.0429286079
 30
0.0
 10
-1.5663933721
 20
4.9173050256
 30
0.0
 10
-1.4820498899
 20
4.783641439
 30
0.0
 10
-1.4065759037
 20
4.6436627802
 30
0.0
 10
-1.3408451461
 20
4.4990322734
 30
0.0
 10
-1.2856142071
 20
4.3513710932
 30
0.0
 10
-1.2416307642
 20
4.202542947
 30
0.0
 10
-1.2095615324
 20
4.0547788285
 30
0.0
 10
-1.1939716743
 20
3.9408856567
 30
0.0
 10
-1.1888398446
 20
3.8767547146
 30
0.0
 10
-1.1878133923
 20
3.8611181037
 30
0.0
 11
-3.193477949
 21
4.7739273002
 31
0.0
 11
-3.1883291961
 21
4.9063029006
 31
0.0
 11
-3.1706597343
 21
5.0322220012
 31
0.0
 11
-3.1404647501
 21
5.1493170774
 31
0.0
 11
-3.0981318759
 21
5.2554590212
 31
0.0
 11
-3.044389563
 21
5.3489064574
 31
0.0
 11
-2.9799773339
 21
5.4286102981
 31
0.0
 11
-2.9055682011
 21
5.4938092135
 31
0.0
 11
-2.8220333813
 21
5.5436852781
 31
0.0
 11
-2.7305122597
 21
5.5775235025
 31
0.0
 11
-2.6322110669
 21
5.5948904712
 31
0.0
 11
-2.5283460512
 21
5.5955851526
 31
0.0
 11
-2.4202017634
 21
5.5795962481
 31
0.0
 11
-2.309155823
 21
5.5471211179
 31
0.0
 11
-2.196618657
 21
5.4985712692
 31
0.0
 11
-2.0840030805
 21
5.4345568853
 31
0.0
 11
-1.9727212005
 21
5.3558801951
 31
0.0
 11
-1.8641819844
 21
5.2635391024
 31
0.0
 11
-1.7597622554
 21
5.158713498
 31
0.0
 11
-1.6607459048
 21
5.0426996603
 31
0.0
 11
-1.5683461481
 21
4.9169125799
 31
0.0
 11
-1.4837664394
 21
4.7829870439
 31
0.0
 11
-1.4081506202
 21
4.6427798211
 31
0.0
 11
-1.3423787345
 21
4.4979941039
 31
0.0
 11
-1.2871244578
 21
4.3500685551
 31
0.0
 11
-1.2431258698
 21
4.2007734158
 31
0.0
 11
-1.211128555
 21
4.0525660057
 31
0.0
 11
-1.1915535704
 21
3.9079783766
 31
0.0
 11
-1.1878133923
 21
3.8611181037
 31
0.0
  0
SPLINE
  5
283
100
AcDbEntity
  8
RACCORDO
100
AcDbSpline
 62
253
  6
CONTINUOUS
 70
0
 71
3
 72
35
 73
31
 74
29
 42
0.0000001
 43
0.0000001
 44
0.0000000001
 12
0.0263151292
 22
-3.6381979046
 32
0.0
 13
-0.0273795849
 23
3.6381900496
 33
0.0
 40
0.0
 40
0.0
 40
0.0
 40
0.0
 40
0.036394611
 40
0.0713135783
 40
0.1045056511
 40
0.1358523689
 40
0.1654036856
 40
0.1934785284
 40
0.220569828
 40
0.2472079486
 40
0.2739299579
 40
0.3012821942
 40
0.3297629887
 40
0.3597612802
 40
0.3915305824
 40
0.4252027557
 40
0.4608043668
 40
0.4982689741
 40
0.5374477412
 40
0.5781268262
 40
0.6200587643
 40
0.6629634695
 40
0.7065004883
 40
0.7502790032
 40
0.7939768102
 40
0.8373632117
 40
0.8801244777
 40
0.9217806371
 40
0.9618695396
 40
1.0
 40
1.0
 40
1.0
 40
1.0
 10
-1.184435177
 20
3.7694059142
 30
0.0
 10
-1.184115934
 20
3.7252689817
 30
0.0
 10
-1.1872802105
 20
3.6386912294
 30
0.0
 10
-1.204499063
 20
3.5128970307
 30
0.0
 10
-1.2341728094
 20
3.395690044
 30
0.0
 10
-1.2760249125
 20
3.2891658796
 30
0.0
 10
-1.3295183848
 20
3.1949890857
 30
0.0
 10
-1.3940115107
 20
3.1144053834
 30
0.0
 10
-1.4688195633
 20
3.0484368253
 30
0.0
 10
-1.5530399901
 20
2.9980668359
 30
0.0
 10
-1.6454404367
 20
2.9641045322
 30
0.0
 10
-1.7446113926
 20
2.9469932673
 30
0.0
 10
-1.8491572457
 20
2.9468250122
 30
0.0
 10
-1.9577261378
 20
2.9634498606
 30
0.0
 10
-2.0689779573
 20
2.9965359394
 30
0.0
 10
-2.1815671262
 20
3.0455876241
 30
0.0
 10
-2.2941420423
 20
3.1099512089
 30
0.0
 10
-2.4053406408
 20
3.18880853
 30
0.0
 10
-2.5137981437
 20
3.2811688559
 30
0.0
 10
-2.6181810889
 20
3.385883973
 30
0.0
 10
-2.7172111058
 20
3.5016717497
 30
0.0
 10
-2.809654253
 20
3.6271049223
 30
0.0
 10
-2.8943129741
 20
3.7605714797
 30
0.0
 10
-2.9701080829
 20
3.9003557834
 30
0.0
 10
-3.036149886
 20
4.044803362
 30
0.0
 10
-3.0916666441
 20
4.1923010524
 30
0.0
 10
-3.1358965142
 20
4.3409926631
 30
0.0
 10
-3.1681603386
 20
4.4886539158
 30
0.0
 10
-3.1880363023
 20
4.6328187678
 30
0.0
 10
-3.1931299503
 20
4.7276853463
 30
0.0
 10
-3.193477949
 20
4.7739273002
 30
0.0
 11
-1.184435177
 21
3.7694059142
 31
0.0
 11
-1.1895818575
 21
3.6370917116
 31
0.0
 11
-1.2071751516
 21
3.511270334
 31
0.0
 11
-1.2372234245
 21
3.3943058956
 31
0.0
 11
-1.2793475047
 21
3.2883217799
 31
0.0
 11
-1.3328313689
 21
3.1950520528
 31
0.0
 11
-1.3969491741
 21
3.1155384867
 31
0.0
 11
-1.4710421715
 21
3.0505346307
 31
0.0
 11
-1.5542549006
 21
3.0008495953
 31
0.0
 11
-1.6454645059
 21
2.9671891927
 31
0.0
 11
-1.7434803708
 21
2.9499782826
 31
0.0
 11
-1.8471002916
 21
2.9494103602
 31
0.0
 11
-1.9550518167
 21
2.965490478
 31
0.0
 11
-2.0659669911
 21
2.9980166957
 31
0.0
 11
-2.1784419231
 21
3.0465749321
 31
0.0
 11
-2.2910669207
 21
3.1105545882
 31
0.0
 11
-2.4024294167
 21
3.1891551799
 31
0.0
 11
-2.5111163498
 21
3.2813825943
 31
0.0
 11
-2.615743389
 21
3.386062597
 31
0.0
 11
-2.7150161338
 21
3.5019059531
 31
0.0
 11
-2.8077084423
 21
3.6275057624
 31
0.0
 11
-2.892601879
 21
3.7612360952
 31
0.0
 11
-2.9685364341
 21
3.9012495398
 31
0.0
 11
-3.0346163676
 21
4.0458517834
 31
0.0
 11
-3.0901534524
 21
4.1936118127
 31
0.0
 11
-3.1343957506
 21
4.3427665602
 31
0.0
 11
-3.1665853358
 21
4.4908660223
 31
0.0
 11
-3.1862923159
 21
4.6353837283
 31
0.0
 11
-3.193477949
 21
4.7739273002
 31
0.0
  0
SPLINE
  5
284
100
AcDbEntity
  8
RACCORDO
100
AcDbSpline
 62
253
  6
CONTINUOUS
 70
0
 71
3
 72
16
 73
12
 74
10
 42
0.0000001
 43
0.0000001
 44
0.0000000001
 12
-0.006771845
 22
0.8394282561
 32
0.0
 13
0.7599401454
 23
0.3592988648
 33
0.0
 40
0.0
 40
0.0
 40
0.0
 40
0.0
 40
0.1466521217
 40
0.2873813802
 40
0.4212106824
 40
0.5476712646
 40
0.6669654953
 40
0.7803717525
 40
0.8898601215
 40
0.9975420437
 40
1.0
 40
1.0
 40
1.0
 40
1.0
 10
-3.0533042988
 20
4.7740937956
 30
0.0
 10
-3.053635334
 20
4.8151284405
 30
0.0
 10
-3.0507365261
 20
4.895631136
 30
0.0
 10
-3.0347223776
 20
5.0126154096
 30
0.0
 10
-3.0070590386
 20
5.121641505
 30
0.0
 10
-2.9680115214
 20
5.2207617735
 30
0.0
 10
-2.9180906708
 20
5.3084221029
 30
0.0
 10
-2.8579083402
 20
5.3834583676
 30
0.0
 10
-2.7881168509
 20
5.4449157201
 30
0.0
 10
-2.7350655787
 20
5.4766332061
 30
0.0
 10
-2.7071936852
 20
5.4898835478
 30
0.0
 10
-2.706571052
 20
5.4901779281
 30
0.0
 11
-3.0533042988
 21
4.7740937956
 31
0.0
 11
-3.0485864001
 21
4.8971113002
 31
0.0
 11
-3.0322265741
 21
5.0141089973
 31
0.0
 11
-3.0042190215
 21
5.1229055777
 31
0.0
 11
-2.9649236048
 21
5.2215230189
 31
0.0
 11
-2.9150167354
 21
5.3083433271
 31
0.0
 11
-2.855185601
 21
5.3823918442
 31
0.0
 11
-2.7860557613
 21
5.4429610407
 31
0.0
 11
-2.7084370701
 21
5.4892908181
 31
0.0
 11
-2.706571052
 21
5.4901779281
 31
0.0
  0
SPLINE
  5
285
100
AcDbEntity
  8
RACCORDO
100
AcDbSpline
 62
253
  6
CONTINUOUS
 70
0
 71
3
 72
15
 73
11
 74
9
 42
0.0000001
 43
0.0000001
 44
0.0000000001
 12
-0.0021357325
 22
0.2936488918
 32
0.0
 13
-0.260755194
 23
0.1350591048
 33
0.0
 40
0.0
 40
0.0
 40
0.0
 40
0.0
 40
0.1197683134
 40
0.2470068581
 40
0.378956534
 40
0.5124548357
 40
0.6442133866
 40
0.7710854443
 40
0.89034471
 40
1.0
 40
1.0
 40
1.0
 40
1.0
 10
13.8837348357
 20
0.1672044979
 30
0.0
 10
13.8836495714
 20
0.1789277754
 30
0.0
 10
13.8815129671
 20
0.2031143729
 30
0.0
 10
13.8732975272
 20
0.2393824445
 30
0.0
 10
13.8602661871
 20
0.2756429892
 30
0.0
 10
13.8429067416
 20
0.3105306914
 30
0.0
 10
13.8218696425
 20
0.3427438535
 30
0.0
 10
13.7979328364
 20
0.3710817573
 30
0.0
 10
13.7719922208
 20
0.3944837933
 30
0.0
 10
13.7531001053
 20
0.4067832559
 30
0.0
 10
13.7435690432
 20
0.4117199043
 30
0.0
 11
13.8837348357
 21
0.1672044979
 31
0.0
 11
13.8808209428
 21
0.2022543449
 31
0.0
 11
13.872680963
 21
0.2387213511
 31
0.0
 11
13.8596276554
 21
0.2752043743
 31
0.0
 11
13.8421625606
 21
0.3103016594
 31
0.0
 11
13.8209567288
 21
0.3426646971
 31
0.0
 11
13.7968249361
 21
0.3710500375
 31
0.0
 11
13.7706943778
 21
0.3943670657
 31
0.0
 11
13.7435690432
 21
0.4117199043
 31
0.0
  0
SPLINE
  5
286
100
AcDbEntity
  8
RACCORDO
100
AcDbSpline
 62
253
  6
CONTINUOUS
 70
0
 71
3
 72
15
 73
11
 74
9
 42
0.0000001
 43
0.0000001
 44
0.0000000001
 12
-0.0001666693
 22
0.2930800153
 32
0.0
 13
0.2610133734
 23
0.1332964443
 33
0.0
 40
0.0
 40
0.0
 40
0.0
 40
0.0
 40
0.1196245243
 40
0.2464902617
 40
0.3779799486
 40
0.5110733545
 40
0.6426177128
 40
0.7695882173
 40
0.8893581041
 40
1.0
 40
1.0
 40
1.0
 40
1.0
 10
13.1828535238
 20
0.1679150393
 30
0.0
 10
13.1828468779
 20
0.1796015584
 30
0.0
 10
13.1848115552
 20
0.2037074175
 30
0.0
 10
13.1928396004
 20
0.2398487907
 30
0.0
 10
13.2057488853
 20
0.2759481772
 30
0.0
 10
13.223060611
 20
0.3106601678
 30
0.0
 10
13.2441326947
 20
0.3427030754
 30
0.0
 10
13.2681939814
 20
0.3708939151
 30
0.0
 10
13.2943530399
 20
0.394186696
 30
0.0
 10
13.31341439
 20
0.4064116712
 30
0.0
 10
13.3230407282
 20
0.4113277283
 30
0.0
 11
13.1828535238
 21
0.1679150393
 31
0.0
 11
13.1855241565
 21
0.2028727377
 31
0.0
 11
13.1934726942
 21
0.2391950224
 31
0.0
 11
13.2063967845
 21
0.2755002382
 31
0.0
 11
13.2238048108
 21
0.3104073796
 31
0.0
 11
13.2450345934
 21
0.3425886219
 31
0.0
 11
13.2692785774
 21
0.3708198305
 31
0.0
 11
13.2956145517
 21
0.3940271249
 31
0.0
 11
13.3230407282
 21
0.4113277283
 31
0.0
  0
SPLINE
  5
287
100
AcDbEntity
  8
RACCORDO
100
AcDbSpline
 62
253
  6
CONTINUOUS
 70
0
 71
3
 72
15
 73
11
 74
9
 42
0.0000001
 43
0.0000001
 44
0.0000000001
 12
-0.0001666709
 22
0.2930800157
 32
0.0
 13
0.2610133746
 23
0.1332964427
 33
0.0
 40
0.0
 40
0.0
 40
0.0
 40
0.0
 40
0.1196246505
 40
0.246490508
 40
0.3779802849
 40
0.5110737329
 40
0.6426180747
 40
0.7695885032
 40
0.8893582639
 40
1.0
 40
1.0
 40
1.0
 40
1.0
 10
-17.5892451052
 20
15.5539643537
 30
0.0
 10
-17.5892517511
 20
15.5656508852
 30
0.0
 10
-17.58728707
 20
15.5897567685
 30
0.0
 10
-17.5792590107
 20
15.6258981725
 30
0.0
 10
-17.5663497077
 20
15.661997579
 30
0.0
 10
-17.5490379659
 20
15.6967095743
 30
0.0
 10
-17.527965874
 20
15.7287524706
 30
0.0
 10
-17.5039045916
 20
15.7569432859
 30
0.0
 10
-17.4777455531
 20
15.7802360357
 30
0.0
 10
-17.4586842251
 20
15.7924609929
 30
0.0
 10
-17.4490579008
 20
15.7973770428
 30
0.0
 11
-17.5892451052
 21
15.5539643537
 31
0.0
 11
-17.5865744672
 21
15.588922089
 31
0.0
 11
-17.5786259151
 21
15.6252444065
 31
0.0
 11
-17.5657018062
 21
15.6615496438
 31
0.0
 11
-17.5482937631
 21
15.6964567907
 31
0.0
 11
-17.527063972
 21
15.7286380217
 31
0.0
 11
-17.5028199929
 21
15.7568692052
 31
0.0
 11
-17.4764840399
 21
15.7800764678
 31
0.0
 11
-17.4490579008
 21
15.7973770428
 31
0.0
  0
SPLINE
  5
288
100
AcDbEntity
  8
RACCORDO
100
AcDbSpline
 62
253
  6
CONTINUOUS
 70
0
 71
3
 72
15
 73
11
 74
9
 42
0.0000001
 43
0.0000001
 44
0.0000000001
 12
0.0310030236
 22
-0.8966590918
 32
0.0
 13
0.8026012519
 23
-0.403328152
 33
0.0
 40
0.0
 40
0.0
 40
0.0
 40
0.0
 40
0.1467283743
 40
0.2864554442
 40
0.4191430606
 40
0.5450788269
 40
0.6649335652
 40
0.7797721103
 40
0.8910363149
 40
1.0
 40
1.0
 40
1.0
 40
1.0
 10
13.4870834846
 20
-17.1912909843
 30
0.0
 10
13.4885998257
 20
-17.2351460946
 30
0.0
 10
13.495324129
 20
-17.3206989542
 30
0.0
 10
13.5174521569
 20
-17.444301113
 30
0.0
 10
13.5511797782
 20
-17.5588358608
 30
0.0
 10
13.5961938809
 20
-17.6630253871
 30
0.0
 10
13.6520712431
 20
-17.7556941615
 30
0.0
 10
13.7182674832
 20
-17.8357459966
 30
0.0
 10
13.7939806428
 20
-17.9020817543
 30
0.0
 10
13.8503653624
 20
-17.9367336902
 30
0.0
 10
13.8795168258
 20
-17.9513830641
 30
0.0
 11
13.4870834846
 21
-17.1912909843
 31
0.0
 11
13.4976920402
 21
-17.3225067929
 31
0.0
 11
13.5201082194
 21
-17.4458487987
 31
0.0
 11
13.5540841509
 21
-17.5599441188
 31
0.0
 11
13.5992406753
 21
-17.6635172156
 31
0.0
 11
13.6550763279
 21
-17.7554179188
 31
0.0
 11
13.720970831
 21
-17.8346241219
 31
0.0
 11
13.7961904933
 21
-17.9002531436
 31
0.0
 11
13.8795168258
 21
-17.9513830641
 31
0.0
  0
LINE
  5
289
100
AcDbEntity
  8
RACCORDO
100
AcDbLine
 62
253
  6
CONTINUOUS
 10
13.8795168258
 20
-17.9513830641
 11
13.8804200823
 21
-17.9518359747
  0
SPLINE
  5
28A
100
AcDbEntity
  8
RACCORDO
100
AcDbSpline
 62
253
  6
CONTINUOUS
 70
0
 71
3
 72
13
 73
9
 74
7
 42
0.0000001
 43
0.0000001
 44
0.0000000001
 12
-0.0143798377
 22
-0.3373286778
 32
0.0
 13
-0.3120404767
 23
-0.1310932904
 33
0.0
 40
0.0
 40
0.0
 40
0.0
 40
0.0
 40
0.1990429368
 40
0.3847908933
 40
0.557088006
 40
0.7172159128
 40
0.8680860164
 40
1.0
 40
1.0
 40
1.0
 40
1.0
 10
14.8688550267
 20
-17.6770184995
 30
0.0
 10
14.8679009583
 20
-17.6993994631
 30
0.0
 10
14.8634238997
 20
-17.7426237873
 30
0.0
 10
14.848133787
 20
-17.8036704878
 30
0.0
 10
14.8247587251
 20
-17.8574355759
 30
0.0
 10
14.7937133229
 20
-17.902570132
 30
0.0
 10
14.7567739651
 20
-17.9367226927
 30
0.0
 10
14.7287682813
 20
-17.9524490565
 30
0.0
 10
14.7150474472
 20
-17.9582134026
 30
0.0
 11
14.8688550267
 21
-17.6770184995
 31
0.0
 11
14.8616412642
 21
-17.7438340787
 31
0.0
 11
14.8460624479
 21
-17.8045833497
 31
0.0
 11
14.8225017349
 21
-17.8577721996
 31
0.0
 11
14.7915385951
 21
-17.9020924617
 31
0.0
 11
14.7539345591
 21
-17.9364540904
 31
0.0
 11
14.7150474472
 21
-17.9582134026
 31
0.0
  0
SPLINE
  5
28B
100
AcDbEntity
  8
RACCORDO
100
AcDbSpline
 62
253
  6
CONTINUOUS
 70
0
 71
3
 72
17
 73
13
 74
11
 42
0.0000001
 43
0.0000001
 44
0.0000000001
 12
-0.6380553888
 22
-0.3397035049
 32
0.0
 13
-0.6467567984
 23
0.3228293576
 33
0.0
 40
0.0
 40
0.0
 40
0.0
 40
0.0
 40
0.0909939725
 40
0.188357308
 40
0.2907043301
 40
0.3963948789
 40
0.5036318121
 40
0.6105485603
 40
0.7152927759
 40
0.8161107568
 40
0.9114376027
 40
1.0
 40
1.0
 40
1.0
 40
1.0
 10
14.1876673674
 20
-17.1767028314
 30
0.0
 10
14.1683143026
 20
-17.1870064885
 30
0.0
 10
14.1268794041
 20
-17.2058084688
 30
0.0
 10
14.0603295958
 20
-17.2279858831
 30
0.0
 10
13.988564606
 20
-17.2447007526
 30
0.0
 10
13.9132897818
 20
-17.2555513598
 30
0.0
 10
13.8362837824
 20
-17.2602813855
 30
0.0
 10
13.7593746018
 20
-17.2587774887
 30
0.0
 10
13.6843874679
 20
-17.2510768664
 30
0.0
 10
13.6130914735
 20
-17.2373609684
 30
0.0
 10
13.5471786121
 20
-17.2179596899
 30
0.0
 10
13.5061768654
 20
-17.2008327191
 30
0.0
 10
13.4870840879
 20
-17.1913025385
 30
0.0
 11
14.1876673674
 21
-17.1767028314
 31
0.0
 11
14.127887295
 21
-17.2041382312
 31
0.0
 11
14.0611828393
 21
-17.2265824114
 31
0.0
 11
13.9891602908
 21
-17.2434949001
 31
0.0
 11
13.913554004
 21
-17.2544684326
 31
0.0
 11
13.8361846319
 21
-17.2592387584
 31
0.0
 11
13.7589152842
 21
-17.2576910046
 31
0.0
 11
13.6836066616
 21
-17.2498624422
 31
0.0
 11
13.6120722496
 21
-17.2359415887
 31
0.0
 11
13.5460346475
 21
-17.216263668
 31
0.0
 11
13.4870840879
 21
-17.1913025385
 31
0.0
  0
SPLINE
  5
28C
100
AcDbEntity
  8
RACCORDO
100
AcDbSpline
 62
253
  6
CONTINUOUS
 70
0
 71
3
 72
18
 73
14
 74
12
 42
0.0000001
 43
0.0000001
 44
0.0000000001
 12
-0.6479053051
 22
-0.3171213201
 32
0.0
 13
-0.6452008356
 23
0.3225881239
 33
0.0
 40
0.0
 40
0.0
 40
0.0
 40
0.0
 40
0.0814478825
 40
0.1685621118
 40
0.2603098872
 40
0.3554511858
 40
0.4526394032
 40
0.5504419653
 40
0.6474040962
 40
0.7421014841
 40
0.833203999
 40
0.9194977651
 40
1.0
 40
1.0
 40
1.0
 40
1.0
 10
13.8837348357
 20
0.1672044979
 30
0.0
 10
13.866144664
 20
0.1585948778
 30
0.0
 10
13.8287061468
 20
0.142846811
 30
0.0
 10
13.7689064619
 20
0.1241082906
 30
0.0
 10
13.7045348207
 20
0.1097358169
 30
0.0
 10
13.6368597644
 20
0.1000171625
 30
0.0
 10
13.5672079787
 20
0.0951434404
 30
0.0
 10
13.496949416
 20
0.095211881
 30
0.0
 10
13.4274683445
 20
0.1002210383
 30
0.0
 10
13.3601310049
 20
0.110070862
 30
0.0
 10
13.2962564543
 20
0.1245678091
 30
0.0
 10
13.2370995074
 20
0.1434226663
 30
0.0
 10
13.2001580694
 20
0.1592630937
 30
0.0
 10
13.1828446997
 20
0.1679194487
 30
0.0
 11
13.8837348357
 21
0.1672044979
 31
0.0
 11
13.8296647943
 21
0.1442199835
 31
0.0
 11
13.769750054
 21
0.1252705474
 31
0.0
 11
13.7051835414
 21
0.1107354716
 31
0.0
 11
13.6372607225
 21
0.1009067228
 31
0.0
 11
13.5673273154
 21
0.095978842
 31
0.0
 11
13.4967773791
 21
0.096050456
 31
0.0
 11
13.4270176232
 21
0.1011201094
 31
0.0
 11
13.3594385013
 21
0.1110863278
 31
0.0
 11
13.2953788946
 21
0.1257517989
 31
0.0
 11
13.2361239144
 21
0.1448219907
 31
0.0
 11
13.1828446997
 21
0.1679194487
 31
0.0
  0
SPLINE
  5
28D
100
AcDbEntity
  8
RACCORDO
100
AcDbSpline
 62
253
  6
CONTINUOUS
 70
0
 71
3
 72
13
 73
9
 74
7
 42
0.0000001
 43
0.0000001
 44
0.0000000001
 12
-0.2160313255
 22
0.1080197792
 32
0.0
 13
-0.0002362808
 23
0.2423598531
 33
0.0
 40
0.0
 40
0.0
 40
0.0
 40
0.0
 40
0.2210036605
 40
0.4216051887
 40
0.6024281035
 40
0.766098461
 40
0.9177523264
 40
1.0
 40
1.0
 40
1.0
 40
1.0
 10
-17.5892362773
 20
15.5539599371
 30
0.0
 10
-17.6051508485
 20
15.561917526
 30
0.0
 10
-17.6347383963
 20
15.5787544259
 30
0.0
 10
-17.6734232654
 20
15.6082956355
 30
0.0
 10
-17.7036144117
 20
15.6404851376
 30
0.0
 10
-17.72462348
 20
15.6748588565
 30
0.0
 10
-17.7341901696
 20
15.7058061378
 30
0.0
 10
-17.7356764826
 20
15.724702844
 30
0.0
 10
-17.7356829604
 20
15.7313473553
 30
0.0
 11
-17.5892362773
 21
15.5539599371
 31
0.0
 11
-17.6354793271
 21
15.5806236114
 31
0.0
 11
-17.6737619826
 21
15.6103222374
 31
0.0
 11
-17.7033265325
 21
15.6424688446
 31
0.0
 11
-17.7235792171
 21
15.6764185295
 31
0.0
 11
-17.7341190627
 21
15.7114986767
 31
0.0
 11
-17.7356829604
 21
15.7313473553
 31
0.0
  0
SPLINE
  5
28E
100
AcDbEntity
  8
RACCORDO
100
AcDbSpline
 62
253
  6
CONTINUOUS
 70
0
 71
3
 72
21
 73
17
 74
15
 42
0.0000001
 43
0.0000001
 44
0.0000000001
 12
0.0358352392
 22
-1.0301967715
 32
0.0
 13
0.950486531
 23
0.3989547676
 33
0.0
 40
0.0
 40
0.0
 40
0.0
 40
0.0
 40
0.0851410635
 40
0.1662748243
 40
0.2433648649
 40
0.3165846796
 40
0.3863284951
 40
0.4532160408
 40
0.5180814047
 40
0.5819322805
 40
0.645869652
 40
0.710985031
 40
0.7782641362
 40
0.8485122009
 40
0.9223099193
 40
1.0
 40
1.0
 40
1.0
 40
1.0
 10
14.1876673674
 20
-17.1767028314
 30
0.0
 10
14.1886843842
 20
-17.2059401809
 30
0.0
 10
14.193194004
 20
-17.2629950108
 30
0.0
 10
14.208031916
 20
-17.3454377629
 30
0.0
 10
14.2306495774
 20
-17.4218648121
 30
0.0
 10
14.2608363614
 20
-17.4914148813
 30
0.0
 10
14.298307127
 20
-17.5533023575
 30
0.0
 10
14.3426952621
 20
-17.6067945605
 30
0.0
 10
14.3935330776
 20
-17.6512207764
 30
0.0
 10
14.4502340786
 20
-17.6859977334
 30
0.0
 10
14.5120954643
 20
-17.7106728009
 30
0.0
 10
14.5783331229
 20
-17.7249590657
 30
0.0
 10
14.6481297706
 20
-17.7287385833
 30
0.0
 10
14.7206705604
 20
-17.7220343081
 30
0.0
 10
14.7951298387
 20
-17.7049917199
 30
0.0
 10
14.8442405683
 20
-17.6873501089
 30
0.0
 10
14.8688550267
 20
-17.6770184995
 30
0.0
 11
14.1876673674
 21
-17.1767028314
 31
0.0
 11
14.1947783571
 21
-17.2641793781
 31
0.0
 11
14.2098075806
 21
-17.3464521988
 31
0.0
 11
14.2325877404
 21
-17.4225830107
 31
0.0
 11
14.2628649316
 21
-17.4917204419
 31
0.0
 11
14.3003028833
 21
-17.5530967212
 31
0.0
 11
14.3444857695
 21
-17.6060291164
 31
0.0
 11
14.3949216736
 21
-17.6499276531
 31
0.0
 11
14.4510499144
 21
-17.6843039302
 31
0.0
 11
14.5122463994
 21
-17.7087751992
 31
0.0
 11
14.5778291167
 21
-17.723068563
 31
0.0
 11
14.6470687986
 21
-17.7270251625
 31
0.0
 11
14.7191963439
 21
-17.7206006675
 31
0.0
 11
14.7934053039
 21
-17.7038673871
 31
0.0
 11
14.8688550267
 21
-17.6770184995
 31
0.0
  0
SPLINE
  5
28F
100
AcDbEntity
  8
ASSI
100
AcDbSpline
 62
253
  6
CONTINUOUS
 70
0
 71
3
 72
11
 73
7
 74
5
 42
0.0000001
 43
0.0000001
 44
0.0000000001
 12
0.0863010479
 22
-14.5967938161
 32
0.0
 13
0.5071845942
 23
-14.5881783618
 33
0.0
 40
0.0
 40
0.0
 40
0.0
 40
0.0
 40
0.1097567126
 40
0.4077354704
 40
0.7044796212
 40
1.0
 40
1.0
 40
1.0
 40
1.0
 10
13.1918123022
 20
-2.5977451344
 30
0.0
 10
13.1949696753
 20
-3.1317771687
 30
0.0
 10
13.2097740539
 20
-5.1156366144
 30
0.0
 10
13.2551660653
 20
-8.5431371621
 30
0.0
 10
13.3495295504
 20
-12.8737851533
 30
0.0
 10
13.4371223612
 20
-15.7542563213
 30
0.0
 10
13.487083489
 20
-17.1912909865
 30
0.0
 11
13.1918123022
 21
-2.5977451344
 31
0.0
 11
13.2037708816
 21
-4.199824145
 31
0.0
 11
13.2614510683
 21
-8.5490353119
 31
0.0
 11
13.3558885057
 21
-12.8795778043
 31
0.0
 11
13.487083489
 21
-17.1912909865
 31
0.0
  0
SPLINE
  5
290
100
AcDbEntity
  8
ASSI
100
AcDbSpline
 62
253
  6
CONTINUOUS
 70
0
 71
3
 72
11
 73
7
 74
5
 42
0.0000001
 43
0.0000001
 44
0.0000000001
 12
0.0848594018
 22
0.0447659376
 32
0.0
 13
0.086027068
 23
-0.0415220245
 33
0.0
 40
0.0
 40
0.0
 40
0.0
 40
0.0
 40
0.1413236172
 40
0.4037591151
 40
0.6875249972
 40
1.0
 40
1.0
 40
1.0
 40
1.0
 10
-17.5449226532
 20
16.0141150089
 30
0.0
 10
-17.5409251073
 20
16.016223837
 30
0.0
 10
-17.5289763858
 20
16.0212525746
 30
0.0
 10
-17.5069945931
 20
16.0245379402
 30
0.0
 10
-17.4796036777
 20
16.020941758
 30
0.0
 10
-17.4616894327
 20
16.0141937891
 30
0.0
 10
-17.4527289966
 20
16.0098689242
 30
0.0
 11
-17.5449226532
 21
16.0141150089
 31
0.0
 11
-17.5324428699
 21
16.0193644368
 31
0.0
 11
-17.5076858256
 21
16.023305384
 31
0.0
 11
-17.480769812
 21
16.0200991498
 31
0.0
 11
-17.4527289966
 21
16.0098689242
 31
0.0
  0
SPLINE
  5
291
100
AcDbEntity
  8
ASSI
100
AcDbSpline
 62
253
  6
CONTINUOUS
 70
0
 71
3
 72
18
 73
14
 74
12
 42
0.0000001
 43
0.0000001
 44
0.0000000001
 12
-0.3882309728
 22
-0.191513095
 32
0.0
 13
-0.3872041051
 23
0.1935808226
 33
0.0
 40
0.0
 40
0.0
 40
0.0
 40
0.0
 40
0.0815058463
 40
0.1686857655
 40
0.2604735908
 40
0.3556364595
 40
0.4528302513
 40
0.5506259444
 40
0.6475681924
 40
0.7422356527
 40
0.8333027824
 40
0.9195656467
 40
1.0
 40
1.0
 40
1.0
 40
1.0
 10
13.7435690432
 20
0.4117199043
 30
0.0
 10
13.7330213452
 20
0.4065167587
 30
0.0
 10
13.7105667613
 20
0.3969889767
 30
0.0
 10
13.6746899685
 20
0.3856314646
 30
0.0
 10
13.6360647362
 20
0.3768967058
 30
0.0
 10
13.5954562685
 20
0.3709619859
 30
0.0
 10
13.5536602154
 20
0.3679437098
 30
0.0
 10
13.5114993461
 20
0.3679024378
 30
0.0
 10
13.4698052394
 20
0.3708389626
 30
0.0
 10
13.4293986496
 20
0.3766942755
 30
0.0
 10
13.391070852
 20
0.3853535515
 30
0.0
 10
13.3555806042
 20
0.3966411397
 30
0.0
 10
13.3334222321
 20
0.4061375456
 30
0.0
 10
13.3230407282
 20
0.4113277283
 30
0.0
 11
13.7435690432
 21
0.4117199043
 31
0.0
 11
13.7111400443
 21
0.397816669
 31
0.0
 11
13.6751902765
 21
0.3863309471
 31
0.0
 11
13.6364495201
 21
0.377498939
 31
0.0
 11
13.5956931398
 21
0.3714979761
 31
0.0
 11
13.5537289128
 21
0.3684470849
 31
0.0
 11
13.5113933853
 21
0.3684075892
 31
0.0
 11
13.4695327155
 21
0.371380322
 31
0.0
 11
13.4289819759
 21
0.3773055058
 31
0.0
 11
13.3905448118
 21
0.3860655761
 31
0.0
 11
13.3549905456
 21
0.3974846161
 31
0.0
 11
13.3230407282
 21
0.4113277283
 31
0.0
  0
SPLINE
  5
292
100
AcDbEntity
  8
ASSI
100
AcDbSpline
 62
253
  6
CONTINUOUS
 70
0
 71
3
 72
14
 73
10
 74
8
 42
0.0000001
 43
0.0000001
 44
0.0000000001
 12
-0.1446689438
 22
0.0723424049
 32
0.0
 13
0.0343426862
 23
0.1585248054
 33
0.0
 40
0.0
 40
0.0
 40
0.0
 40
0.0
 40
0.1979293799
 40
0.3777694132
 40
0.539977279
 40
0.6869302295
 40
0.8232350386
 40
0.955509812
 40
1.0
 40
1.0
 40
1.0
 40
1.0
 10
-17.4490579008
 20
15.7973770428
 30
0.0
 10
-17.4586026456
 20
15.8021499386
 30
0.0
 10
-17.4763549469
 20
15.8122564978
 30
0.0
 10
-17.4995647692
 20
15.830004093
 30
0.0
 10
-17.517682819
 20
15.8493614899
 30
0.0
 10
-17.5302887329
 20
15.8700454342
 30
0.0
 10
-17.5369619754
 20
15.8917122167
 30
0.0
 10
-17.537262866
 20
15.9088196021
 30
0.0
 10
-17.5356551051
 20
15.9182482763
 30
0.0
 10
-17.535145801
 20
15.9205992091
 30
0.0
 11
-17.4490579008
 21
15.7973770428
 31
0.0
 11
-17.4767892133
 21
15.8133744955
 31
0.0
 11
-17.499761769
 21
15.8312188665
 31
0.0
 11
-17.5175031105
 21
15.8505480489
 31
0.0
 11
-17.5296569889
 21
15.8709751742
 31
0.0
 11
-17.5359822636
 21
15.8920954135
 31
0.0
 11
-17.5363518124
 21
15.9134874474
 31
0.0
 11
-17.535145801
 21
15.9205992091
 31
0.0
  0
SPLINE
  5
293
100
AcDbEntity
  8
ASSI
100
AcDbSpline
 62
253
  6
CONTINUOUS
 70
0
 71
3
 72
12
 73
8
 74
6
 42
0.0000001
 43
0.0000001
 44
0.0000000001
 12
0.0265618288
 22
0.1226086022
 32
0.0
 13
0.1105960185
 23
0.0584720522
 33
0.0
 40
0.0
 40
0.0
 40
0.0
 40
0.0
 40
0.1180186148
 40
0.3067874025
 40
0.5149491827
 40
0.7457717957
 40
1.0
 40
1.0
 40
1.0
 40
1.0
 10
-17.535145801
 20
15.9205992091
 30
0.0
 10
-17.5341008709
 20
15.9254225749
 30
0.0
 10
-17.5302395411
 20
15.9377181154
 30
0.0
 10
-17.5195423881
 20
15.9565547212
 30
0.0
 10
-17.5020902169
 20
15.9762697821
 30
0.0
 10
-17.4794935854
 20
15.9944687443
 30
0.0
 10
-17.4621012057
 20
16.0049138425
 30
0.0
 10
-17.4527289966
 20
16.0098689242
 30
0.0
 11
-17.535145801
 21
15.9205992091
 31
0.0
 11
-17.5307583356
 21
15.9347237137
 31
0.0
 11
-17.5193143373
 21
15.9553808675
 31
0.0
 11
-17.5022468103
 21
15.9750494904
 31
0.0
 11
-17.4798984678
 21
15.9933359249
 31
0.0
 11
-17.4527289966
 21
16.0098689242
 31
0.0
  0
SPLINE
  5
294
100
AcDbEntity
  8
ASSI
100
AcDbSpline
 62
253
  6
CONTINUOUS
 70
0
 71
3
 72
12
 73
8
 74
6
 42
0.0000001
 43
0.0000001
 44
0.0000000001
 12
0.0082615124
 22
-0.2416585755
 32
0.0
 13
0.2155181779
 23
-0.1079420378
 33
0.0
 40
0.0
 40
0.0
 40
0.0
 40
0.0
 40
0.1607872481
 40
0.3405119448
 40
0.5377371495
 40
0.7570520285
 40
1.0
 40
1.0
 40
1.0
 40
1.0
 10
-17.4419053471
 20
-1.6224201502
 30
0.0
 10
-17.4414625651
 20
-1.6353720226
 30
0.0
 10
-17.436590001
 20
-1.6626764405
 30
0.0
 10
-17.417400742
 20
-1.7019465945
 30
0.0
 10
-17.3864808934
 20
-1.7390261962
 30
0.0
 10
-17.3451467131
 20
-1.7725879933
 30
0.0
 10
-17.3128962271
 20
-1.7912977694
 30
0.0
 10
-17.2954429924
 20
-1.8000392024
 30
0.0
 11
-17.4419053471
 21
-1.6224201502
 31
0.0
 11
-17.4352380907
 21
-1.6606144735
 31
0.0
 11
-17.4166395783
 21
-1.6997394982
 31
0.0
 11
-17.3866159447
 21
-1.7365976824
 31
0.0
 11
-17.3458901807
 21
-1.7703014542
 31
0.0
 11
-17.2954429924
 21
-1.8000392024
 31
0.0
  0
SPLINE
  5
295
100
AcDbEntity
  8
ASSI
100
AcDbSpline
 62
253
  6
CONTINUOUS
 70
0
 71
3
 72
15
 73
11
 74
9
 42
0.0000001
 43
0.0000001
 44
0.0000000001
 12
-0.7240343196
 22
0.4382071043
 32
0.0
 13
-0.0285476382
 23
0.8447625181
 33
0.0
 40
0.0
 40
0.0
 40
0.0
 40
0.0
 40
0.0620140845
 40
0.1779025344
 40
0.2979655363
 40
0.4237514951
 40
0.5563758972
 40
0.6965136799
 40
0.8444203826
 40
1.0
 40
1.0
 40
1.0
 40
1.0
 10
-16.9498890922
 20
-2.5346759125
 30
0.0
 10
-16.9648558673
 20
-2.525617575
 30
0.0
 10
-17.006565805
 20
-2.4976031641
 30
0.0
 10
-17.0697102508
 20
-2.4416857757
 30
0.0
 10
-17.1343652352
 20
-2.3623683369
 30
0.0
 10
-17.1889274866
 20
-2.2703373014
 30
0.0
 10
-17.2328760607
 20
-2.1666779817
 30
0.0
 10
-17.2658032303
 20
-2.0525541859
 30
0.0
 10
-17.2874048645
 20
-1.9292335457
 30
0.0
 10
-17.2939629035
 20
-1.8438368284
 30
0.0
 10
-17.2954433803
 20
-1.8000275519
 30
0.0
 11
-16.9498890922
 21
-2.5346759125
 31
0.0
 11
-16.9934476036
 21
-2.5054340951
 31
0.0
 11
-17.0669367813
 21
-2.4406703158
 31
0.0
 11
-17.1313153339
 21
-2.362222088
 31
0.0
 11
-17.1858664466
 21
-2.2709636548
 31
0.0
 11
-17.2299841171
 21
-2.167909985
 31
0.0
 11
-17.2631784075
 21
-2.0542054855
 31
0.0
 11
-17.285078891
 21
-1.9311213276
 31
0.0
 11
-17.2954433803
 21
-1.8000275519
 31
0.0
  0
SPLINE
  5
296
100
AcDbEntity
  8
ASSI
100
AcDbSpline
 62
253
  6
CONTINUOUS
 70
0
 71
3
 72
28
 73
24
 74
22
 42
0.0000001
 43
0.0000001
 44
0.0000000001
 12
-2.2714361026
 22
-1.1995957034
 32
0.0
 13
-0.0207406171
 23
2.5650508936
 33
0.0
 40
0.0
 40
0.0
 40
0.0
 40
0.0
 40
0.0075937672
 40
0.0428023252
 40
0.0788470965
 40
0.1163852335
 40
0.1559291059
 40
0.1978122283
 40
0.2422075009
 40
0.2891489454
 40
0.3385479992
 40
0.3902075493
 40
0.4438448719
 40
0.4991330189
 40
0.5557021556
 40
0.6131029754
 40
0.6708198381
 40
0.7284276206
 40
0.7856220118
 40
0.8419894447
 40
0.8968972891
 40
0.9497363351
 40
1.0
 40
1.0
 40
1.0
 40
1.0
 10
-1.5114795203
 20
3.1350350333
 30
0.0
 10
-1.517229106
 20
3.1319985498
 30
0.0
 10
-1.5499797608
 20
3.1155346436
 30
0.0
 10
-1.6136265846
 20
3.0921600137
 30
0.0
 10
-1.7057717524
 20
3.0762912126
 30
0.0
 10
-1.8029207221
 20
3.0761646913
 30
0.0
 10
-1.9038181593
 20
3.091640167
 30
0.0
 10
-2.0072194739
 20
3.1224087895
 30
0.0
 10
-2.1118745955
 20
3.1680098746
 30
0.0
 10
-2.2165274088
 20
3.2278359748
 30
0.0
 10
-2.3199117343
 20
3.3011268819
 30
0.0
 10
-2.4207585932
 20
3.3869620806
 30
0.0
 10
-2.5178278771
 20
3.4842747674
 30
0.0
 10
-2.6099304928
 20
3.5918737537
 30
0.0
 10
-2.6959184798
 20
3.7084330551
 30
0.0
 10
-2.7746774988
 20
3.8324550505
 30
0.0
 10
-2.8452030881
 20
3.9623457822
 30
0.0
 10
-2.9066668803
 20
4.0965681264
 30
0.0
 10
-2.9583503848
 20
4.233623421
 30
0.0
 10
-2.9995438156
 20
4.3717874298
 30
0.0
 10
-3.0296150096
 20
4.5089935752
 30
0.0
 10
-3.0481694958
 20
4.642958219
 30
0.0
 10
-3.052956799
 20
4.7311175094
 30
0.0
 10
-3.0533042988
 20
4.7740937956
 30
0.0
 11
-1.5114795203
 21
3.1350350333
 31
0.0
 11
-1.5289066718
 21
3.1262754875
 31
0.0
 11
-1.6136434935
 21
3.0950278436
 31
0.0
 11
-1.7047147591
 21
3.0790647666
 31
0.0
 11
-1.8010038438
 21
3.0785654064
 31
0.0
 11
-1.901328703
 21
3.0935338765
 31
0.0
 11
-2.004418509
 21
3.1237820878
 31
0.0
 11
-2.1089687032
 21
3.1689249561
 31
0.0
 11
-2.213669071
 21
3.2283948917
 31
0.0
 11
-2.3172064941
 21
3.3014479641
 31
0.0
 11
-2.4182671569
 21
3.3871604189
 31
0.0
 11
-2.5155637066
 21
3.4844412134
 31
0.0
 11
-2.6078921836
 21
3.5920925185
 31
0.0
 11
-2.6941119256
 21
3.7088072582
 31
0.0
 11
-2.7730892381
 21
3.8330749059
 31
0.0
 11
-2.8437444771
 21
3.9631790667
 31
0.0
 11
-2.9052436303
 21
4.0975454938
 31
0.0
 11
-2.9569458457
 21
4.234844774
 31
0.0
 11
-2.9981508921
 21
4.3734392536
 31
0.0
 11
-3.0281527164
 21
4.511052813
 31
0.0
 11
-3.0465494535
 21
4.6453377881
 31
0.0
 11
-3.0533042988
 21
4.7740937956
 31
0.0
  0
SPLINE
  5
297
100
AcDbEntity
  8
ASSI
100
AcDbSpline
 62
253
  6
CONTINUOUS
 70
0
 71
3
 72
11
 73
7
 74
5
 42
0.0000001
 43
0.0000001
 44
0.0000000001
 12
-0.5827888803
 22
17.3474269095
 32
0.0
 13
-0.0096986814
 23
17.3572108702
 33
0.0
 40
0.0
 40
0.0
 40
0.0
 40
0.0
 40
0.2483881815
 40
0.4978455333
 40
0.74837995
 40
1.0
 40
1.0
 40
1.0
 40
1.0
 10
-17.2954433849
 20
-1.8000275497
 30
0.0
 10
-17.3436960082
 20
-0.3637289421
 30
0.0
 10
-17.4282917483
 20
2.5154719376
 30
0.0
 10
-17.5194148308
 20
6.8444909149
 30
0.0
 10
-17.5750477944
 20
11.1928113431
 30
0.0
 10
-17.5884228182
 20
14.0981525183
 30
0.0
 10
-17.5892362791
 20
15.5539599407
 30
0.0
 11
-17.2954433849
 21
-1.8000275497
 31
0.0
 11
-17.4221413302
 21
2.5094371137
 31
0.0
 11
-17.5133416881
 21
6.8383610663
 31
0.0
 11
-17.5690447421
 21
11.1865836668
 31
0.0
 11
-17.5892362791
 21
15.5539599407
 31
0.0
  0
SPLINE
  5
298
100
AcDbEntity
  8
ASSI
100
AcDbSpline
 62
253
  6
CONTINUOUS
 70
0
 71
3
 72
17
 73
13
 74
11
 42
0.0000001
 43
0.0000001
 44
0.0000000001
 12
-0.0077255166
 22
1.0317920286
 32
0.0
 13
1.0116734807
 23
0.2093347503
 33
0.0
 40
0.0
 40
0.0
 40
0.0
 40
0.0
 40
0.1283901949
 40
0.2516216347
 40
0.3688179097
 40
0.479566207
 40
0.5840408864
 40
0.6833580183
 40
0.7792393716
 40
0.873530699
 40
0.9680978183
 40
1.0
 40
1.0
 40
1.0
 40
1.0
 10
-3.193477949
 20
4.7739273002
 30
0.0
 10
-3.1938085759
 20
4.8180846268
 30
0.0
 10
-3.1906421779
 20
4.9047203262
 30
0.0
 10
-3.1733447382
 20
5.0306176802
 30
0.0
 10
-3.1435200794
 20
5.1479586826
 30
0.0
 10
-3.1014538093
 20
5.2546403389
 30
0.0
 10
-3.0476968864
 20
5.3489902413
 30
0.0
 10
-2.9829077149
 20
5.4297557719
 30
0.0
 10
-2.9077881071
 20
5.4959098627
 30
0.0
 10
-2.8232557066
 20
5.5464650908
 30
0.0
 10
-2.7516013011
 20
5.5728549407
 30
0.0
 10
-2.7092118533
 20
5.5829252068
 30
0.0
 10
-2.6984536562
 20
5.5851512852
 30
0.0
 11
-3.193477949
 21
4.7739273002
 31
0.0
 11
-3.1883291961
 21
4.9063029006
 31
0.0
 11
-3.1706597343
 21
5.0322220012
 31
0.0
 11
-3.1404647501
 21
5.1493170774
 31
0.0
 11
-3.0981318759
 21
5.2554590212
 31
0.0
 11
-3.044389563
 21
5.3489064574
 31
0.0
 11
-2.9799773339
 21
5.4286102981
 31
0.0
 11
-2.9055682011
 21
5.4938092135
 31
0.0
 11
-2.8220333813
 21
5.5436852781
 31
0.0
 11
-2.7305122597
 21
5.5775235025
 31
0.0
 11
-2.6984536562
 21
5.5851512852
 31
0.0
  0
SPLINE
  5
299
100
AcDbEntity
  8
ASSI
100
AcDbSpline
 62
253
  6
CONTINUOUS
 70
0
 71
3
 72
26
 73
22
 74
20
 42
0.0000001
 43
0.0000001
 44
0.0000000001
 12
2.4688655328
 22
0.5108558834
 32
0.0
 13
0.1650101034
 23
-2.5137054056
 33
0.0
 40
0.0
 40
0.0
 40
0.0
 40
0.0
 40
0.0265708138
 40
0.0678202097
 40
0.1112349951
 40
0.1571824353
 40
0.2058565602
 40
0.2573007085
 40
0.3114244172
 40
0.3680181452
 40
0.4267779288
 40
0.4873504474
 40
0.5493342423
 40
0.6122395053
 40
0.6755023341
 40
0.7386566571
 40
0.8013675956
 40
0.8631791568
 40
0.9233936627
 40
0.981338373
 40
1.0
 40
1.0
 40
1.0
 40
1.0
 10
-2.6984536562
 20
5.5851512852
 30
0.0
 10
-2.6765870674
 20
5.589675904
 30
0.0
 10
-2.6200848879
 20
5.5979118348
 30
0.0
 10
-2.5263146546
 20
5.5981825588
 30
0.0
 10
-2.4175488054
 20
5.5816541565
 30
0.0
 10
-2.3061596443
 20
5.5486208599
 30
0.0
 10
-2.193501363
 20
5.4995760748
 30
0.0
 10
-2.0809298903
 20
5.4351740819
 30
0.0
 10
-1.9698073309
 20
5.3562358174
 30
0.0
 10
-1.8614944943
 20
5.2637566584
 30
0.0
 10
-1.7573172504
 20
5.1588910485
 30
0.0
 10
-1.6585432977
 20
5.0429286079
 30
0.0
 10
-1.5663933721
 20
4.9173050256
 30
0.0
 10
-1.4820498899
 20
4.783641439
 30
0.0
 10
-1.4065759037
 20
4.6436627802
 30
0.0
 10
-1.3408451461
 20
4.4990322734
 30
0.0
 10
-1.2856142071
 20
4.3513710932
 30
0.0
 10
-1.2416307642
 20
4.202542947
 30
0.0
 10
-1.2095615324
 20
4.0547788285
 30
0.0
 10
-1.1939716743
 20
3.9408856567
 30
0.0
 10
-1.1888398446
 20
3.8767547146
 30
0.0
 10
-1.1878133923
 20
3.8611181037
 30
0.0
 11
-2.6984536562
 21
5.5851512852
 31
0.0
 11
-2.6322110669
 21
5.5948904712
 31
0.0
 11
-2.5283460512
 21
5.5955851526
 31
0.0
 11
-2.4202017634
 21
5.5795962481
 31
0.0
 11
-2.309155823
 21
5.5471211179
 31
0.0
 11
-2.196618657
 21
5.4985712692
 31
0.0
 11
-2.0840030805
 21
5.4345568853
 31
0.0
 11
-1.9727212005
 21
5.3558801951
 31
0.0
 11
-1.8641819844
 21
5.2635391024
 31
0.0
 11
-1.7597622554
 21
5.158713498
 31
0.0
 11
-1.6607459048
 21
5.0426996603
 31
0.0
 11
-1.5683461481
 21
4.9169125799
 31
0.0
 11
-1.4837664394
 21
4.7829870439
 31
0.0
 11
-1.4081506202
 21
4.6427798211
 31
0.0
 11
-1.3423787345
 21
4.4979941039
 31
0.0
 11
-1.2871244578
 21
4.3500685551
 31
0.0
 11
-1.2431258698
 21
4.2007734158
 31
0.0
 11
-1.211128555
 21
4.0525660057
 31
0.0
 11
-1.1915535704
 21
3.9079783766
 31
0.0
 11
-1.1878133923
 21
3.8611181037
 31
0.0
  0
SPLINE
  5
29A
100
AcDbEntity
  8
ASSI
100
AcDbSpline
 62
253
  6
CONTINUOUS
 70
0
 71
3
 72
16
 73
12
 74
10
 42
0.0000001
 43
0.0000001
 44
0.0000000001
 12
-0.006768593
 22
0.8390251373
 32
0.0
 13
0.7592769153
 23
0.3597571046
 33
0.0
 40
0.0
 40
0.0
 40
0.0
 40
0.0
 40
0.1467225823
 40
0.2875194558
 40
0.4214130577
 40
0.5479343992
 40
0.6672859462
 40
0.7807466907
 40
0.8902876645
 40
0.9980213238
 40
1.0
 40
1.0
 40
1.0
 40
1.0
 10
-3.0533042988
 20
4.7740937956
 30
0.0
 10
-3.053635334
 20
4.8151284405
 30
0.0
 10
-3.0507365261
 20
4.895631136
 30
0.0
 10
-3.0347223776
 20
5.0126154096
 30
0.0
 10
-3.0070590386
 20
5.121641505
 30
0.0
 10
-2.9680115214
 20
5.2207617735
 30
0.0
 10
-2.9180906708
 20
5.3084221029
 30
0.0
 10
-2.8579083402
 20
5.3834583676
 30
0.0
 10
-2.7881168509
 20
5.4449157201
 30
0.0
 10
-2.7351815785
 20
5.476563854
 30
0.0
 10
-2.7074367143
 20
5.4897679495
 30
0.0
 10
-2.7069359266
 20
5.4900052304
 30
0.0
 11
-3.0533042988
 21
4.7740937956
 31
0.0
 11
-3.0485864001
 21
4.8971113002
 31
0.0
 11
-3.0322265741
 21
5.0141089973
 31
0.0
 11
-3.0042190215
 21
5.1229055777
 31
0.0
 11
-2.9649236048
 21
5.2215230189
 31
0.0
 11
-2.9150167354
 21
5.3083433271
 31
0.0
 11
-2.855185601
 21
5.3823918442
 31
0.0
 11
-2.7860557613
 21
5.4429610407
 31
0.0
 11
-2.7084370701
 21
5.4892908181
 31
0.0
 11
-2.7069359266
 21
5.4900052304
 31
0.0
  0
SPLINE
  5
29B
100
AcDbEntity
  8
ASSI
100
AcDbSpline
 62
253
  6
CONTINUOUS
 70
0
 71
3
 72
15
 73
11
 74
9
 42
0.0000001
 43
0.0000001
 44
0.0000000001
 12
-0.0021357325
 22
0.2936488918
 32
0.0
 13
-0.260755194
 23
0.1350591048
 33
0.0
 40
0.0
 40
0.0
 40
0.0
 40
0.0
 40
0.1197683134
 40
0.2470068581
 40
0.378956534
 40
0.5124548357
 40
0.6442133866
 40
0.7710854443
 40
0.89034471
 40
1.0
 40
1.0
 40
1.0
 40
1.0
 10
13.8837348357
 20
0.1672044979
 30
0.0
 10
13.8836495714
 20
0.1789277754
 30
0.0
 10
13.8815129671
 20
0.2031143729
 30
0.0
 10
13.8732975272
 20
0.2393824445
 30
0.0
 10
13.8602661871
 20
0.2756429892
 30
0.0
 10
13.8429067416
 20
0.3105306914
 30
0.0
 10
13.8218696425
 20
0.3427438535
 30
0.0
 10
13.7979328364
 20
0.3710817573
 30
0.0
 10
13.7719922208
 20
0.3944837933
 30
0.0
 10
13.7531001053
 20
0.4067832559
 30
0.0
 10
13.7435690432
 20
0.4117199043
 30
0.0
 11
13.8837348357
 21
0.1672044979
 31
0.0
 11
13.8808209428
 21
0.2022543449
 31
0.0
 11
13.872680963
 21
0.2387213511
 31
0.0
 11
13.8596276554
 21
0.2752043743
 31
0.0
 11
13.8421625606
 21
0.3103016594
 31
0.0
 11
13.8209567288
 21
0.3426646971
 31
0.0
 11
13.7968249361
 21
0.3710500375
 31
0.0
 11
13.7706943778
 21
0.3943670657
 31
0.0
 11
13.7435690432
 21
0.4117199043
 31
0.0
  0
SPLINE
  5
29C
100
AcDbEntity
  8
ASSI
100
AcDbSpline
 62
253
  6
CONTINUOUS
 70
0
 71
3
 72
15
 73
11
 74
9
 42
0.0000001
 43
0.0000001
 44
0.0000000001
 12
-0.0001666693
 22
0.2930800153
 32
0.0
 13
0.2610133734
 23
0.1332964443
 33
0.0
 40
0.0
 40
0.0
 40
0.0
 40
0.0
 40
0.1196245243
 40
0.2464902617
 40
0.3779799486
 40
0.5110733545
 40
0.6426177128
 40
0.7695882173
 40
0.8893581041
 40
1.0
 40
1.0
 40
1.0
 40
1.0
 10
13.1828535238
 20
0.1679150393
 30
0.0
 10
13.1828468779
 20
0.1796015584
 30
0.0
 10
13.1848115552
 20
0.2037074175
 30
0.0
 10
13.1928396004
 20
0.2398487907
 30
0.0
 10
13.2057488853
 20
0.2759481772
 30
0.0
 10
13.223060611
 20
0.3106601678
 30
0.0
 10
13.2441326947
 20
0.3427030754
 30
0.0
 10
13.2681939814
 20
0.3708939151
 30
0.0
 10
13.2943530399
 20
0.394186696
 30
0.0
 10
13.31341439
 20
0.4064116712
 30
0.0
 10
13.3230407282
 20
0.4113277283
 30
0.0
 11
13.1828535238
 21
0.1679150393
 31
0.0
 11
13.1855241565
 21
0.2028727377
 31
0.0
 11
13.1934726942
 21
0.2391950224
 31
0.0
 11
13.2063967845
 21
0.2755002382
 31
0.0
 11
13.2238048108
 21
0.3104073796
 31
0.0
 11
13.2450345934
 21
0.3425886219
 31
0.0
 11
13.2692785774
 21
0.3708198305
 31
0.0
 11
13.2956145517
 21
0.3940271249
 31
0.0
 11
13.3230407282
 21
0.4113277283
 31
0.0
  0
SPLINE
  5
29D
100
AcDbEntity
  8
ASSI
100
AcDbSpline
 62
253
  6
CONTINUOUS
 70
0
 71
3
 72
15
 73
11
 74
9
 42
0.0000001
 43
0.0000001
 44
0.0000000001
 12
-0.0001666709
 22
0.2930800157
 32
0.0
 13
0.2610133746
 23
0.1332964427
 33
0.0
 40
0.0
 40
0.0
 40
0.0
 40
0.0
 40
0.1196246505
 40
0.246490508
 40
0.3779802849
 40
0.5110737329
 40
0.6426180747
 40
0.7695885032
 40
0.8893582639
 40
1.0
 40
1.0
 40
1.0
 40
1.0
 10
-17.5892451052
 20
15.5539643537
 30
0.0
 10
-17.5892517511
 20
15.5656508852
 30
0.0
 10
-17.58728707
 20
15.5897567685
 30
0.0
 10
-17.5792590107
 20
15.6258981725
 30
0.0
 10
-17.5663497077
 20
15.661997579
 30
0.0
 10
-17.5490379659
 20
15.6967095743
 30
0.0
 10
-17.527965874
 20
15.7287524706
 30
0.0
 10
-17.5039045916
 20
15.7569432859
 30
0.0
 10
-17.4777455531
 20
15.7802360357
 30
0.0
 10
-17.4586842251
 20
15.7924609929
 30
0.0
 10
-17.4490579008
 20
15.7973770428
 30
0.0
 11
-17.5892451052
 21
15.5539643537
 31
0.0
 11
-17.5865744672
 21
15.588922089
 31
0.0
 11
-17.5786259151
 21
15.6252444065
 31
0.0
 11
-17.5657018062
 21
15.6615496438
 31
0.0
 11
-17.5482937631
 21
15.6964567907
 31
0.0
 11
-17.527063972
 21
15.7286380217
 31
0.0
 11
-17.5028199929
 21
15.7568692052
 31
0.0
 11
-17.4764840399
 21
15.7800764678
 31
0.0
 11
-17.4490579008
 21
15.7973770428
 31
0.0
  0
SPLINE
  5
29E
100
AcDbEntity
  8
ASSI
100
AcDbSpline
 62
253
  6
CONTINUOUS
 70
0
 71
3
 72
15
 73
11
 74
9
 42
0.0000001
 43
0.0000001
 44
0.0000000001
 12
0.0310029971
 22
-0.8966583246
 32
0.0
 13
0.8026000231
 23
-0.403328886
 33
0.0
 40
0.0
 40
0.0
 40
0.0
 40
0.0
 40
0.1467284999
 40
0.2864556893
 40
0.4191434193
 40
0.5450792933
 40
0.6649341342
 40
0.7797727775
 40
0.8910370773
 40
1.0
 40
1.0
 40
1.0
 40
1.0
 10
13.4870834846
 20
-17.1912909843
 30
0.0
 10
13.4885998257
 20
-17.2351460946
 30
0.0
 10
13.495324129
 20
-17.3206989542
 30
0.0
 10
13.5174521569
 20
-17.444301113
 30
0.0
 10
13.5511797782
 20
-17.5588358608
 30
0.0
 10
13.5961938809
 20
-17.6630253871
 30
0.0
 10
13.6520712431
 20
-17.7556941615
 30
0.0
 10
13.7182674832
 20
-17.8357459966
 30
0.0
 10
13.7939804495
 20
-17.9020815849
 30
0.0
 10
13.8503649243
 20
-17.9367334209
 30
0.0
 10
13.879516139
 20
-17.951382719
 30
0.0
 11
13.4870834846
 21
-17.1912909843
 31
0.0
 11
13.4976920402
 21
-17.3225067929
 31
0.0
 11
13.5201082194
 21
-17.4458487987
 31
0.0
 11
13.5540841509
 21
-17.5599441188
 31
0.0
 11
13.5992406753
 21
-17.6635172156
 31
0.0
 11
13.6550763279
 21
-17.7554179188
 31
0.0
 11
13.720970831
 21
-17.8346241219
 31
0.0
 11
13.7961904933
 21
-17.9002531436
 31
0.0
 11
13.879516139
 21
-17.951382719
 31
0.0
  0
SPLINE
  5
29F
100
AcDbEntity
  8
ASSI
100
AcDbSpline
 62
253
  6
CONTINUOUS
 70
0
 71
3
 72
14
 73
10
 74
8
 42
0.0000001
 43
0.0000001
 44
0.0000000001
 12
-0.0160711753
 22
-0.692316429
 32
0.0
 13
-0.5073836335
 23
-0.472321731
 33
0.0
 40
0.0
 40
0.0
 40
0.0
 40
0.0
 40
0.1265342882
 40
0.3100573141
 40
0.4845043291
 40
0.6492527438
 40
0.8045650992
 40
0.9521175757
 40
1.0
 40
1.0
 40
1.0
 40
1.0
 10
-1.1847874916
 20
3.7245802074
 30
0.0
 10
-1.1854653432
 20
3.6953796186
 30
0.0
 10
-1.1893099322
 20
3.6238628771
 30
0.0
 10
-1.204499063
 20
3.5128970307
 30
0.0
 10
-1.2341728094
 20
3.395690044
 30
0.0
 10
-1.2760249125
 20
3.2891658796
 30
0.0
 10
-1.3295183848
 20
3.1949890857
 30
0.0
 10
-1.3803232869
 20
3.1315087218
 30
0.0
 10
-1.4124716498
 20
3.099766832
 30
0.0
 10
-1.4205699026
 20
3.0922281955
 30
0.0
 11
-1.1847874916
 21
3.7245802074
 31
0.0
 11
-1.1895818575
 21
3.6370917116
 31
0.0
 11
-1.2071751516
 21
3.511270334
 31
0.0
 11
-1.2372234245
 21
3.3943058956
 31
0.0
 11
-1.2793475047
 21
3.2883217799
 31
0.0
 11
-1.3328313689
 21
3.1950520528
 31
0.0
 11
-1.3969491741
 21
3.1155384867
 31
0.0
 11
-1.4205699026
 21
3.0922281955
 31
0.0
  0
SPLINE
  5
2A0
100
AcDbEntity
  8
ASSI
100
AcDbSpline
 62
253
  6
CONTINUOUS
 70
0
 71
3
 72
29
 73
25
 74
23
 42
0.0000001
 43
0.0000001
 44
0.0000000001
 12
-2.1264137713
 22
-1.9794714824
 32
0.0
 13
-0.0218327787
 23
2.9011322997
 33
0.0
 40
0.0
 40
0.0
 40
0.0
 40
0.0
 40
0.0225488522
 40
0.0559546177
 40
0.0894655846
 40
0.1237668931
 40
0.1594834797
 40
0.1971030967
 40
0.2369436647
 40
0.2791705449
 40
0.3238170532
 40
0.370799868
 40
0.4199323396
 40
0.4709462981
 40
0.5235314076
 40
0.5773364242
 40
0.6319343992
 40
0.6868352244
 40
0.7416348372
 40
0.7960439291
 40
0.8496690645
 40
0.9019083315
 40
0.9521821663
 40
1.0
 40
1.0
 40
1.0
 40
1.0
 10
-1.4205699026
 20
3.0922281955
 30
0.0
 10
-1.4365526326
 20
3.0773499256
 30
0.0
 10
-1.4783569773
 20
3.0427327526
 30
0.0
 10
-1.5530399901
 20
2.9980668359
 30
0.0
 10
-1.6454404367
 20
2.9641045322
 30
0.0
 10
-1.7446113926
 20
2.9469932673
 30
0.0
 10
-1.8491572457
 20
2.9468250122
 30
0.0
 10
-1.9577261378
 20
2.9634498606
 30
0.0
 10
-2.0689779573
 20
2.9965359394
 30
0.0
 10
-2.1815671262
 20
3.0455876241
 30
0.0
 10
-2.2941420423
 20
3.1099512089
 30
0.0
 10
-2.4053406408
 20
3.18880853
 30
0.0
 10
-2.5137981437
 20
3.2811688559
 30
0.0
 10
-2.6181810889
 20
3.385883973
 30
0.0
 10
-2.7172111058
 20
3.5016717497
 30
0.0
 10
-2.809654253
 20
3.6271049223
 30
0.0
 10
-2.8943129741
 20
3.7605714797
 30
0.0
 10
-2.9701080829
 20
3.9003557834
 30
0.0
 10
-3.036149886
 20
4.044803362
 30
0.0
 10
-3.0916666441
 20
4.1923010524
 30
0.0
 10
-3.1358965142
 20
4.3409926631
 30
0.0
 10
-3.1681603386
 20
4.4886539158
 30
0.0
 10
-3.1880363023
 20
4.6328187678
 30
0.0
 10
-3.1931299503
 20
4.7276853463
 30
0.0
 10
-3.193477949
 20
4.7739273002
 30
0.0
 11
-1.4205699026
 21
3.0922281955
 31
0.0
 11
-1.4710421715
 21
3.0505346307
 31
0.0
 11
-1.5542549006
 21
3.0008495953
 31
0.0
 11
-1.6454645059
 21
2.9671891927
 31
0.0
 11
-1.7434803708
 21
2.9499782826
 31
0.0
 11
-1.8471002916
 21
2.9494103602
 31
0.0
 11
-1.9550518167
 21
2.965490478
 31
0.0
 11
-2.0659669911
 21
2.9980166957
 31
0.0
 11
-2.1784419231
 21
3.0465749321
 31
0.0
 11
-2.2910669207
 21
3.1105545882
 31
0.0
 11
-2.4024294167
 21
3.1891551799
 31
0.0
 11
-2.5111163498
 21
3.2813825943
 31
0.0
 11
-2.615743389
 21
3.386062597
 31
0.0
 11
-2.7150161338
 21
3.5019059531
 31
0.0
 11
-2.8077084423
 21
3.6275057624
 31
0.0
 11
-2.892601879
 21
3.7612360952
 31
0.0
 11
-2.9685364341
 21
3.9012495398
 31
0.0
 11
-3.0346163676
 21
4.0458517834
 31
0.0
 11
-3.0901534524
 21
4.1936118127
 31
0.0
 11
-3.1343957506
 21
4.3427665602
 31
0.0
 11
-3.1665853358
 21
4.4908660223
 31
0.0
 11
-3.1862923159
 21
4.6353837283
 31
0.0
 11
-3.193477949
 21
4.7739273002
 31
0.0
  0
SPLINE
  5
2A1
100
AcDbEntity
  8
ASSI
100
AcDbSpline
 62
253
  6
CONTINUOUS
 70
0
 71
3
 72
13
 73
9
 74
7
 42
0.0000001
 43
0.0000001
 44
0.0000000001
 12
-0.0143798377
 22
-0.3373286778
 32
0.0
 13
-0.3120404767
 23
-0.1310932904
 33
0.0
 40
0.0
 40
0.0
 40
0.0
 40
0.0
 40
0.1990429368
 40
0.3847908933
 40
0.557088006
 40
0.7172159128
 40
0.8680860164
 40
1.0
 40
1.0
 40
1.0
 40
1.0
 10
14.8688550267
 20
-17.6770184995
 30
0.0
 10
14.8679009583
 20
-17.6993994631
 30
0.0
 10
14.8634238997
 20
-17.7426237873
 30
0.0
 10
14.848133787
 20
-17.8036704878
 30
0.0
 10
14.8247587251
 20
-17.8574355759
 30
0.0
 10
14.7937133229
 20
-17.902570132
 30
0.0
 10
14.7567739651
 20
-17.9367226927
 30
0.0
 10
14.7287682813
 20
-17.9524490565
 30
0.0
 10
14.7150474472
 20
-17.9582134026
 30
0.0
 11
14.8688550267
 21
-17.6770184995
 31
0.0
 11
14.8616412642
 21
-17.7438340787
 31
0.0
 11
14.8460624479
 21
-17.8045833497
 31
0.0
 11
14.8225017349
 21
-17.8577721996
 31
0.0
 11
14.7915385951
 21
-17.9020924617
 31
0.0
 11
14.7539345591
 21
-17.9364540904
 31
0.0
 11
14.7150474472
 21
-17.9582134026
 31
0.0
  0
SPLINE
  5
2A2
100
AcDbEntity
  8
ASSI
100
AcDbSpline
 62
253
  6
CONTINUOUS
 70
0
 71
3
 72
17
 73
13
 74
11
 42
0.0000001
 43
0.0000001
 44
0.0000000001
 12
-0.6380553888
 22
-0.3397035049
 32
0.0
 13
-0.6467567984
 23
0.3228293576
 33
0.0
 40
0.0
 40
0.0
 40
0.0
 40
0.0
 40
0.0909939725
 40
0.188357308
 40
0.2907043301
 40
0.3963948789
 40
0.5036318121
 40
0.6105485603
 40
0.7152927759
 40
0.8161107568
 40
0.9114376027
 40
1.0
 40
1.0
 40
1.0
 40
1.0
 10
14.1876673674
 20
-17.1767028314
 30
0.0
 10
14.1683143026
 20
-17.1870064885
 30
0.0
 10
14.1268794041
 20
-17.2058084688
 30
0.0
 10
14.0603295958
 20
-17.2279858831
 30
0.0
 10
13.988564606
 20
-17.2447007526
 30
0.0
 10
13.9132897818
 20
-17.2555513598
 30
0.0
 10
13.8362837824
 20
-17.2602813855
 30
0.0
 10
13.7593746018
 20
-17.2587774887
 30
0.0
 10
13.6843874679
 20
-17.2510768664
 30
0.0
 10
13.6130914735
 20
-17.2373609684
 30
0.0
 10
13.5471786121
 20
-17.2179596899
 30
0.0
 10
13.5061768654
 20
-17.2008327191
 30
0.0
 10
13.4870840879
 20
-17.1913025385
 30
0.0
 11
14.1876673674
 21
-17.1767028314
 31
0.0
 11
14.127887295
 21
-17.2041382312
 31
0.0
 11
14.0611828393
 21
-17.2265824114
 31
0.0
 11
13.9891602908
 21
-17.2434949001
 31
0.0
 11
13.913554004
 21
-17.2544684326
 31
0.0
 11
13.8361846319
 21
-17.2592387584
 31
0.0
 11
13.7589152842
 21
-17.2576910046
 31
0.0
 11
13.6836066616
 21
-17.2498624422
 31
0.0
 11
13.6120722496
 21
-17.2359415887
 31
0.0
 11
13.5460346475
 21
-17.216263668
 31
0.0
 11
13.4870840879
 21
-17.1913025385
 31
0.0
  0
SPLINE
  5
2A3
100
AcDbEntity
  8
ASSI
100
AcDbSpline
 62
253
  6
CONTINUOUS
 70
0
 71
3
 72
18
 73
14
 74
12
 42
0.0000001
 43
0.0000001
 44
0.0000000001
 12
-0.6479053051
 22
-0.3171213201
 32
0.0
 13
-0.6452008356
 23
0.3225881239
 33
0.0
 40
0.0
 40
0.0
 40
0.0
 40
0.0
 40
0.0814478825
 40
0.1685621118
 40
0.2603098872
 40
0.3554511858
 40
0.4526394032
 40
0.5504419653
 40
0.6474040962
 40
0.7421014841
 40
0.833203999
 40
0.9194977651
 40
1.0
 40
1.0
 40
1.0
 40
1.0
 10
13.8837348357
 20
0.1672044979
 30
0.0
 10
13.866144664
 20
0.1585948778
 30
0.0
 10
13.8287061468
 20
0.142846811
 30
0.0
 10
13.7689064619
 20
0.1241082906
 30
0.0
 10
13.7045348207
 20
0.1097358169
 30
0.0
 10
13.6368597644
 20
0.1000171625
 30
0.0
 10
13.5672079787
 20
0.0951434404
 30
0.0
 10
13.496949416
 20
0.095211881
 30
0.0
 10
13.4274683445
 20
0.1002210383
 30
0.0
 10
13.3601310049
 20
0.110070862
 30
0.0
 10
13.2962564543
 20
0.1245678091
 30
0.0
 10
13.2370995074
 20
0.1434226663
 30
0.0
 10
13.2001580694
 20
0.1592630937
 30
0.0
 10
13.1828446997
 20
0.1679194487
 30
0.0
 11
13.8837348357
 21
0.1672044979
 31
0.0
 11
13.8296647943
 21
0.1442199835
 31
0.0
 11
13.769750054
 21
0.1252705474
 31
0.0
 11
13.7051835414
 21
0.1107354716
 31
0.0
 11
13.6372607225
 21
0.1009067228
 31
0.0
 11
13.5673273154
 21
0.095978842
 31
0.0
 11
13.4967773791
 21
0.096050456
 31
0.0
 11
13.4270176232
 21
0.1011201094
 31
0.0
 11
13.3594385013
 21
0.1110863278
 31
0.0
 11
13.2953788946
 21
0.1257517989
 31
0.0
 11
13.2361239144
 21
0.1448219907
 31
0.0
 11
13.1828446997
 21
0.1679194487
 31
0.0
  0
SPLINE
  5
2A4
100
AcDbEntity
  8
ASSI
100
AcDbSpline
 62
253
  6
CONTINUOUS
 70
0
 71
3
 72
13
 73
9
 74
7
 42
0.0000001
 43
0.0000001
 44
0.0000000001
 12
-0.215969998
 22
0.1079891143
 32
0.0
 13
-0.0003661403
 23
0.2422910666
 33
0.0
 40
0.0
 40
0.0
 40
0.0
 40
0.0
 40
0.2210664175
 40
0.421724909
 40
0.6025991709
 40
0.7663160048
 40
0.9180129343
 40
1.0
 40
1.0
 40
1.0
 40
1.0
 10
-17.5892362773
 20
15.5539599371
 30
0.0
 10
-17.6051508485
 20
15.561917526
 30
0.0
 10
-17.6347383963
 20
15.5787544259
 30
0.0
 10
-17.6734232654
 20
15.6082956355
 30
0.0
 10
-17.7036144117
 20
15.6404851376
 30
0.0
 10
-17.72462348
 20
15.6748588565
 30
0.0
 10
-17.7341833386
 20
15.7057840402
 30
0.0
 10
-17.7356728687
 20
15.7246569757
 30
0.0
 10
-17.7356828749
 20
15.7312785536
 30
0.0
 11
-17.5892362773
 21
15.5539599371
 31
0.0
 11
-17.6354793271
 21
15.5806236114
 31
0.0
 11
-17.6737619826
 21
15.6103222374
 31
0.0
 11
-17.7033265325
 21
15.6424688446
 31
0.0
 11
-17.7235792171
 21
15.6764185295
 31
0.0
 11
-17.7341190627
 21
15.7114986767
 31
0.0
 11
-17.7356828749
 21
15.7312785536
 31
0.0
  0
SPLINE
  5
2A5
100
AcDbEntity
  8
ASSI
100
AcDbSpline
 62
253
  6
CONTINUOUS
 70
0
 71
3
 72
21
 73
17
 74
15
 42
0.0000001
 43
0.0000001
 44
0.0000000001
 12
0.0358352392
 22
-1.0301967715
 32
0.0
 13
0.950486531
 23
0.3989547676
 33
0.0
 40
0.0
 40
0.0
 40
0.0
 40
0.0
 40
0.0851410635
 40
0.1662748243
 40
0.2433648649
 40
0.3165846796
 40
0.3863284951
 40
0.4532160408
 40
0.5180814047
 40
0.5819322805
 40
0.645869652
 40
0.710985031
 40
0.7782641362
 40
0.8485122009
 40
0.9223099193
 40
1.0
 40
1.0
 40
1.0
 40
1.0
 10
14.1876673674
 20
-17.1767028314
 30
0.0
 10
14.1886843842
 20
-17.2059401809
 30
0.0
 10
14.193194004
 20
-17.2629950108
 30
0.0
 10
14.208031916
 20
-17.3454377629
 30
0.0
 10
14.2306495774
 20
-17.4218648121
 30
0.0
 10
14.2608363614
 20
-17.4914148813
 30
0.0
 10
14.298307127
 20
-17.5533023575
 30
0.0
 10
14.3426952621
 20
-17.6067945605
 30
0.0
 10
14.3935330776
 20
-17.6512207764
 30
0.0
 10
14.4502340786
 20
-17.6859977334
 30
0.0
 10
14.5120954643
 20
-17.7106728009
 30
0.0
 10
14.5783331229
 20
-17.7249590657
 30
0.0
 10
14.6481297706
 20
-17.7287385833
 30
0.0
 10
14.7206705604
 20
-17.7220343081
 30
0.0
 10
14.7951298387
 20
-17.7049917199
 30
0.0
 10
14.8442405683
 20
-17.6873501089
 30
0.0
 10
14.8688550267
 20
-17.6770184995
 30
0.0
 11
14.1876673674
 21
-17.1767028314
 31
0.0
 11
14.1947783571
 21
-17.2641793781
 31
0.0
 11
14.2098075806
 21
-17.3464521988
 31
0.0
 11
14.2325877404
 21
-17.4225830107
 31
0.0
 11
14.2628649316
 21
-17.4917204419
 31
0.0
 11
14.3003028833
 21
-17.5530967212
 31
0.0
 11
14.3444857695
 21
-17.6060291164
 31
0.0
 11
14.3949216736
 21
-17.6499276531
 31
0.0
 11
14.4510499144
 21
-17.6843039302
 31
0.0
 11
14.5122463994
 21
-17.7087751992
 31
0.0
 11
14.5778291167
 21
-17.723068563
 31
0.0
 11
14.6470687986
 21
-17.7270251625
 31
0.0
 11
14.7191963439
 21
-17.7206006675
 31
0.0
 11
14.7934053039
 21
-17.7038673871
 31
0.0
 11
14.8688550267
 21
-17.6770184995
 31
0.0
  0
SPLINE
  5
2A6
100
AcDbEntity
  8
CURVE
100
AcDbSpline
 62
253
  6
CONTINUOUS
 70
0
 71
3
 72
45
 73
41
 74
39
 42
0.0000001
 43
0.0000001
 44
0.0000000001
 12
-0.0675203495
 22
2.9881059404
 32
0.0
 13
-0.0465043622
 23
2.3242393856
 33
0.0
 40
0.0
 40
0.0
 40
0.0
 40
0.0
 40
0.125
 40
0.1875
 40
0.25
 40
0.3125
 40
0.34375
 40
0.375
 40
0.40625
 40
0.421875
 40
0.4375
 40
0.453125
 40
0.46875
 40
0.4765625
 40
0.484375
 40
0.48828125
 40
0.4921875
 40
0.49609375
 40
0.498046875
 40
0.4990234375
 40
0.5
 40
0.5009765625
 40
0.501953125
 40
0.50390625
 40
0.5078125
 40
0.51171875
 40
0.515625
 40
0.5234375
 40
0.53125
 40
0.546875
 40
0.5625
 40
0.578125
 40
0.59375
 40
0.625
 40
0.65625
 40
0.6875
 40
0.75
 40
0.8125
 40
0.875
 40
1.0
 40
1.0
 40
1.0
 40
1.0
 10
-2.053553517
 20
-4.363407599
 30
0.0
 10
-2.0563668649
 20
-4.2389031848
 30
0.0
 10
-2.0605868867
 20
-4.0521465635
 30
0.0
 10
-2.0662135825
 20
-3.8031377352
 30
0.0
 10
-2.0704336043
 20
-3.6163811139
 30
0.0
 10
-2.0739502892
 20
-3.4607505963
 30
0.0
 10
-2.0767636371
 20
-3.3362461818
 30
0.0
 10
-2.078873648
 20
-3.2428678723
 30
0.0
 10
-2.0806319906
 20
-3.1650526098
 30
0.0
 10
-2.0820386643
 20
-3.1028004101
 30
0.0
 10
-2.0830936704
 20
-3.0561112322
 30
0.0
 10
-2.0841486732
 20
-3.0094221614
 30
0.0
 10
-2.0850278528
 20
-2.9705142691
 30
0.0
 10
-2.0857311728
 20
-2.9393887018
 30
0.0
 10
-2.0861708016
 20
-2.9199335224
 30
0.0
 10
-2.0865223814
 20
-2.9043732718
 30
0.0
 10
-2.0867864037
 20
-2.892692425
 30
0.0
 10
-2.0870053488
 20
-2.8829922934
 30
0.0
 10
-2.087160717
 20
-2.876135659
 30
0.0
 10
-2.0872462096
 20
-2.8723214825
 30
0.0
 10
-2.0873195947
 20
-2.8691681613
 30
0.0
 10
-2.0873575619
 20
-2.8671336453
 30
0.0
 10
-2.0874205389
 20
-2.8640307054
 30
0.0
 10
-2.0875249927
 20
-2.8587823863
 30
0.0
 10
-2.0876772217
 20
-2.8511897271
 30
0.0
 10
-2.0878586085
 20
-2.842119225
 30
0.0
 10
-2.0881009074
 20
-2.8300110103
 30
0.0
 10
-2.088403627
 20
-2.8148806082
 30
0.0
 10
-2.0888880644
 20
-2.790669245
 30
0.0
 10
-2.0894935816
 20
-2.7604059743
 30
0.0
 10
-2.0902202149
 20
-2.7240896494
 30
0.0
 10
-2.0909468449
 20
-2.6877734315
 30
0.0
 10
-2.091915686
 20
-2.6393517702
 30
0.0
 10
-2.093126737
 20
-2.5788247065
 30
0.0
 10
-2.0945799983
 20
-2.5061922246
 30
0.0
 10
-2.0965176801
 20
-2.4093489172
 30
0.0
 10
-2.0989397823
 20
-2.2882947824
 30
0.0
 10
-2.1018463049
 20
-2.1430298208
 30
0.0
 10
-2.1057216684
 20
-1.9493432054
 30
0.0
 10
-2.1086281911
 20
-1.8040782438
 30
0.0
 10
-2.1105658728
 20
-1.707234936
 30
0.0
 11
-2.053553517
 21
-4.363407599
 31
0.0
 11
-2.0619935607
 21
-3.9898943565
 31
0.0
 11
-2.0662135825
 21
-3.8031377352
 31
0.0
 11
-2.0704336043
 21
-3.6163811139
 31
0.0
 11
-2.0746536262
 21
-3.4296244926
 31
0.0
 11
-2.0767636371
 21
-3.336246182
 31
0.0
 11
-2.078873648
 21
-3.2428678714
 31
0.0
 11
-2.080983659
 21
-3.1494895607
 31
0.0
 11
-2.0820386644
 21
-3.1028004054
 31
0.0
 11
-2.0830936699
 21
-3.0561112501
 31
0.0
 11
-2.0841486753
 21
-3.0094220948
 31
0.0
 11
-2.0852036808
 21
-2.9627329394
 31
0.0
 11
-2.0857311835
 21
-2.9393883618
 31
0.0
 11
-2.0862586863
 21
-2.9160437841
 31
0.0
 11
-2.0865224376
 21
-2.9043714953
 31
0.0
 11
-2.086786189
 21
-2.8926992065
 31
0.0
 11
-2.0870499404
 21
-2.8810269176
 31
0.0
 11
-2.087181816
 21
-2.8751907732
 31
0.0
 11
-2.0872477539
 21
-2.872272701
 31
0.0
 11
-2.0873136917
 21
-2.8693546288
 31
0.0
 11
-2.0873591061
 21
-2.8670848638
 31
0.0
 11
-2.0874045206
 21
-2.8648150988
 31
0.0
 11
-2.0874953494
 21
-2.8602755687
 31
0.0
 11
-2.0876770071
 21
-2.8511965086
 31
0.0
 11
-2.0878586647
 21
-2.8421174485
 31
0.0
 11
-2.0880403224
 21
-2.8330383884
 31
0.0
 11
-2.0884036377
 21
-2.8148802682
 31
0.0
 11
-2.088766953
 21
-2.796722148
 31
0.0
 11
-2.0894935837
 21
-2.7604059076
 31
0.0
 11
-2.0902202144
 21
-2.7240896672
 31
0.0
 11
-2.090946845
 21
-2.6877734268
 31
0.0
 11
-2.0916734757
 21
-2.6514571864
 31
0.0
 11
-2.093126737
 21
-2.5788247056
 31
0.0
 11
-2.0945799983
 21
-2.5061922248
 31
0.0
 11
-2.0960332596
 21
-2.433559744
 31
0.0
 11
-2.0989397823
 21
-2.2882947824
 31
0.0
 11
-2.1018463049
 21
-2.1430298208
 31
0.0
 11
-2.1047528276
 21
-1.9977648592
 31
0.0
 11
-2.1105658728
 21
-1.707234936
 31
0.0
  0
SPLINE
  5
2A7
100
AcDbEntity
  8
CURVE
100
AcDbSpline
 62
253
  6
CONTINUOUS
 70
0
 71
3
 72
23
 73
19
 74
17
 42
0.0000001
 43
0.0000001
 44
0.0000000001
 12
0.1749506973
 22
-8.150891334
 32
0.0
 13
-0.1750988258
 23
8.1577925883
 33
0.0
 40
0.0
 40
0.0
 40
0.0
 40
0.0
 40
0.0625
 40
0.125
 40
0.1875
 40
0.25
 40
0.3125
 40
0.375
 40
0.4375
 40
0.5
 40
0.5625
 40
0.625
 40
0.6875
 40
0.75
 40
0.8125
 40
0.875
 40
0.9375
 40
1.0
 40
1.0
 40
1.0
 40
1.0
 10
0.0375600973
 20
-4.0968317596
 30
0.0
 10
0.0412049035
 20
-4.2666419957
 30
0.0
 10
0.0213724076
 20
-4.585558998
 30
0.0
 10
-0.0888872572
 20
-5.0116633063
 30
0.0
 10
-0.2754687094
 20
-5.3595725932
 30
0.0
 10
-0.5312917662
 20
-5.6185169357
 30
0.0
 10
-0.8466368927
 20
-5.777962174
 30
0.0
 10
-1.209548395
 20
-5.8320757518
 30
0.0
 10
-1.6062719565
 20
-5.7787668471
 30
0.0
 10
-2.0216064021
 20
-5.6201007721
 30
0.0
 10
-2.4395847365
 20
-5.3621896867
 30
0.0
 10
-2.8440822136
 20
-5.0149574643
 30
0.0
 10
-3.2194237311
 20
-4.5917754563
 30
0.0
 10
-3.5511366656
 20
-4.1088413114
 30
0.0
 10
-3.8263569479
 20
-3.5844058015
 30
0.0
 10
-4.0343068143
 20
-3.0392203839
 30
0.0
 10
-4.1669363999
 20
-2.4917538164
 30
0.0
 10
-4.2014326976
 20
-2.1454654283
 30
0.0
 10
-4.2050805898
 20
-1.975511416
 30
0.0
 11
0.0375600973
 21
-4.0968317596
 31
0.0
 11
0.0079539208
 21
-4.5768471321
 31
0.0
 11
-0.1016075551
 21
-4.9986308027
 31
0.0
 11
-0.2870089768
 21
-5.3447451025
 31
0.0
 11
-0.5412121112
 21
-5.6019337517
 31
0.0
 11
-0.854564622
 21
-5.7604068973
 31
0.0
 11
-1.2151837382
 21
-5.8141720047
 31
0.0
 11
-1.6093737705
 21
-5.7612073187
 31
0.0
 11
-2.0220470502
 21
-5.603559937
 31
0.0
 11
-2.437337927
 21
-5.3473028305
 31
0.0
 11
-2.839222887
 21
-5.0022991667
 31
0.0
 11
-3.2121523006
 21
-4.5818167668
 31
0.0
 11
-3.5417212235
 21
-4.1019244172
 31
0.0
 11
-3.8151452119
 21
-3.5809474836
 31
0.0
 11
-4.0217534342
 21
-3.0388401923
 31
0.0
 11
-4.1534555434
 21
-2.4964261473
 31
0.0
 11
-4.2050805898
 21
-1.975511416
 31
0.0
  0
SPLINE
  5
2A8
100
AcDbEntity
  8
CURVE
100
AcDbSpline
 62
253
  6
CONTINUOUS
 70
0
 71
3
 72
23
 73
19
 74
17
 42
0.0000001
 43
0.0000001
 44
0.0000000001
 12
-0.1749280381
 22
8.1498356521
 32
0.0
 13
0.175076263
 23
-8.1567413944
 33
0.0
 40
0.0
 40
0.0
 40
0.0
 40
0.0
 40
0.0625
 40
0.125
 40
0.1875
 40
0.25
 40
0.3125
 40
0.375
 40
0.4375
 40
0.5
 40
0.5625
 40
0.625
 40
0.6875
 40
0.75
 40
0.8125
 40
0.875
 40
0.9375
 40
1.0
 40
1.0
 40
1.0
 40
1.0
 10
-4.2050805898
 20
-1.975511416
 30
0.0
 10
-4.208724924
 20
-1.8057231733
 30
0.0
 10
-4.188569154
 20
-1.4866744898
 30
0.0
 10
-4.0769180975
 20
-1.0598925136
 30
0.0
 10
-3.8882440924
 20
-0.7109171757
 30
0.0
 10
-3.629928172
 20
-0.4506880957
 30
0.0
 10
-3.3120610397
 20
-0.289956428
 30
0.0
 10
-2.9469912321
 20
-0.2347696808
 30
0.0
 10
-2.5488394584
 20
-0.2873721331
 30
0.0
 10
-2.1330078391
 20
-0.4457887261
 30
0.0
 10
-1.715527127
 20
-0.7039480255
 30
0.0
 10
-1.3124341587
 20
-1.0518990996
 30
0.0
 10
-0.9391738284
 20
-1.476194778
 30
0.0
 10
-0.6099414896
 20
-1.960437088
 30
0.0
 10
-0.3372325666
 20
-2.486147301
 30
0.0
 10
-0.1314326321
 20
-3.032368441
 30
0.0
 10
-0.0002465331
 20
-3.5804859546
 30
0.0
 10
0.0339126751
 20
-3.9268996472
 30
0.0
 10
0.0375600973
 20
-4.0968317596
 30
0.0
 11
-4.2050805898
 21
-1.975511416
 31
0.0
 11
-4.1749995871
 21
-1.4953063313
 31
0.0
 11
-4.0640809394
 21
-1.0728602866
 31
0.0
 11
-3.8766371065
 21
-0.7257082187
 31
0.0
 11
-3.62000297
 21
-0.4672709978
 31
0.0
 11
-3.3041939272
 21
-0.3075472481
 31
0.0
 11
-2.9414775711
 21
-0.2527345474
 31
0.0
 11
-2.5458928175
 21
-0.3050078232
 31
0.0
 11
-2.1327329903
 21
-0.4624125105
 31
0.0
 11
-1.7179250843
 21
-0.7189133213
 31
0.0
 11
-1.317406265
 21
-1.0646232003
 31
0.0
 11
-0.946511827
 21
-1.4861858833
 31
0.0
 11
-0.6193620589
 21
-1.9673484051
 31
0.0
 11
-0.3483840647
 21
-2.4895657888
 31
0.0
 11
-0.1438682714
 21
-3.0326845032
 31
0.0
 11
-0.0135710809
 21
-3.5757364588
 31
0.0
 11
0.0375600973
 21
-4.0968317596
 31
0.0
  0
ELLIPSE
  5
2A9
100
AcDbEntity
  8
RACCORDO
100
AcDbEllipse
 62
7
  6
CONTINUOUS
 10
-13.8351665029
 20
17.7490349774
 30
0.0
 11
-0.0894818401
 21
0.1789012953
 31
0.0
 40
0.6122950388
 41
-0.6847996396
 42
0.0137828113
  0
ELLIPSE
  5
2AA
100
AcDbEntity
  8
RACCORDO
100
AcDbEllipse
 62
7
  6
CONTINUOUS
 10
16.7386013152
 20
-16.5665453201
 30
0.0
 11
-0.1825210626
 21
0.4655826378
 31
0.0
 40
0.6539056002
 41
-3.1260220267
 42
-2.199353272
  0
ELLIPSE
  5
2AB
100
AcDbEntity
  8
RACCORDO
100
AcDbEllipse
 62
7
  6
CONTINUOUS
 10
17.4896208188
 20
2.0866413166
 30
0.0
 11
-0.0894578232
 21
0.1788799337
 31
0.0
 40
0.6124778111
 41
-2.255529033
 42
-0.6848850053
  0
ELLIPSE
  5
2AC
100
AcDbEntity
  8
ASSI
100
AcDbEllipse
 62
7
  6
CONTINUOUS
 10
-13.8351665029
 20
17.7490349774
 30
0.0
 11
-0.0894818401
 21
0.1789012953
 31
0.0
 40
0.6122950388
 41
-0.6847996396
 42
0.0137828113
  0
ELLIPSE
  5
2AD
100
AcDbEntity
  8
ASSI
100
AcDbEllipse
 62
7
  6
CONTINUOUS
 10
16.7386013152
 20
-16.5665453201
 30
0.0
 11
-0.1825210626
 21
0.4655826378
 31
0.0
 40
0.6539056002
 41
-3.1260220267
 42
-2.199353272
  0
ELLIPSE
  5
2AE
100
AcDbEntity
  8
ASSI
100
AcDbEllipse
 62
7
  6
CONTINUOUS
 10
17.4896208188
 20
2.0866413166
 30
0.0
 11
-0.0894578232
 21
0.1788799337
 31
0.0
 40
0.6124778111
 41
-2.255529033
 42
-0.6848850053
  0
ENDSEC
  0
SECTION
  2
OBJECTS
  0
DICTIONARY
  5
C
100
AcDbDictionary
280
0
281
1
  3
ACAD_GROUP
350
D
  3
ACAD_MLINESTYLE
350
17
  3
ACAD_LAYOUT
350
1A
  3
ACAD_PLOTSETTINGS
350
19
  3
ACAD_PLOTSTYLENAME
350
E
  0
DICTIONARY
  5
D
102
{ACAD_REACTORS
330
C
102
}
100
AcDbDictionary
280
0
281
1
  0
ACDBDICTIONARYWDFLT
  5
E
102
{ACAD_REACTORS
330
C
102
}
100
AcDbDictionary
281
1
  3
Normal
350
F
100
AcDbDictionaryWithDefault
340
F
  0
DICTIONARY
  5
17
102
{ACAD_REACTORS
330
C
102
}
100
AcDbDictionary
280
0
281
1
  3
Standard
350
18
  0
DICTIONARY
  5
19
102
{ACAD_REACTORS
330
C
102
}
100
AcDbDictionary
281
1
  0
DICTIONARY
  5
1A
102
{ACAD_REACTORS
330
C
102
}
100
AcDbDictionary
281
1
  3
Model
350
2AF
  3
Layout1
350
2B0
  0
ACDBPLACEHOLDER
  5
F
102
{ACAD_REACTORS
330
E
102
}
  0
MLINESTYLE
  5
18
102
{ACAD_REACTORS
330
17
102
}
100
AcDbMlineStyle
  2
STANDARD
 70
0
  3

 62
256
 51
90.0
 52
90.0
 71
2
 49
0.5
 62
256
  6
BYLAYER
 49
-0.5
 62
256
  6
BYLAYER
  0
LAYOUT
  5
2AF
102
{ACAD_REACTORS
330
1A
102
}
100
AcDbPlotSettings
  1

  2
none_device
  4
ISO_A4_(297.00_x_210.00_MM)
  6

 40
0.0
 41
0.0
 42
0.0
 43
0.0
 44
297.0
 45
210.0
 46
0.0
 47
0.0
 48
0.0
 49
0.0
140
0.0
141
0.0
142
1.0
143
1.0
 70
1024
 72
1
 73
0
 74
0
  7

 75
0
147
1.0
148
0.0
149
0.0
100
AcDbLayout
  1
Model
 70
0
 71
0
 10
0.0
 20
0.0
 11
297.0
 21
210.0
 12
0.0
 22
0.0
 32
0.0
 14
0.0
 24
0.0
 34
0.0
 15
0.0
 25
0.0
 35
0.0
146
0.0
 13
0.0
 23
0.0
 33
0.0
 16
1.0
 26
0.0
 36
0.0
 17
0.0
 27
1.0
 37
0.0
 76
0
330
212
345
0
346
0
  0
LAYOUT
  5
2B0
102
{ACAD_REACTORS
330
1A
102
}
100
AcDbPlotSettings
  1

  2
none_device
  4
ISO_A4_(297.00_x_210.00_MM)
  6

 40
0.0
 41
0.0
 42
0.0
 43
0.0
 44
297.0
 45
210.0
 46
0.0
 47
0.0
 48
0.0
 49
0.0
140
0.0
141
0.0
142
1.0
143
1.0
 70
0
 72
1
 73
0
 74
0
  7

 75
0
147
1.0
148
0.0
149
0.0
100
AcDbLayout
  1
Layout1
 70
0
 71
1
 10
0.0
 20
0.0
 11
297.0
 21
210.0
 12
0.0
 22
0.0
 32
0.0
 14
0.0
 24
0.0
 34
0.0
 15
0.0
 25
0.0
 35
0.0
146
0.0
 13
0.0
 23
0.0
 33
0.0
 16
1.0
 26
0.0
 36
0.0
 17
0.0
 27
1.0
 37
0.0
 76
0
330
213
345
0
346
0
  0
ENDSEC
  0
EOF
