  0
SECTION
  2
HEADER
  9
$ACADVER
  1
AC1015
  9
$DWGCODEPAGE
  3
ANSI_1252
  9
$EXTMAX
 10
297.0
 20
210.0
 30
0.0
  9
$EXTMIN
 10
0.0
 20
0.0
 30
0.0
  9
$LIMMIN
 10
0.0
 20
0.0
  9
$LIMMAX
 10
297.0
 20
210.0
  9
$VIEWCTR
 10
148.5
 20
105.0
  9
$VIEWSIZE
 40
210.0
  9
$CLAYER
  8
0
  9
$LTSCALE
 40
16.335
  9
$CELTYPE
  6
BYLAYER
  9
$DIMSCALE
 40
1.0
  9
$DIMASZ
 40
3.0
  9
$DIMEXO
 40
1.85625
  9
$DIMDLI
 40
11.286
  9
$DIMEXE
 40
5.346
  9
$DIMCEN
 40
2.673
  9
$DIMLFAC
 40
1.0
  9
$DIMBLK
  1
_FILLED
  9
$DIMTXT
 40
3.0
  9
$DIMTOL
 70
1
  9
$DIMLIM
 70
0
  9
$DIMTFAC
 40
1.0
  9
$DIMTP
 40
0.01
  9
$DIMTM
 40
0.01
  9
$PDMODE
 70
3
  9
$PDSIZE
 40
3.0
  9
$HANDSEED
  5
2B1
  9
$TILEMODE
 70
1
  9
$MEASUREMENT
 70
1
  9
$INSUNITS
 70
4
  0
ENDSEC
  0
SECTION
  2
CLASSES
  0
CLASS
  1
ACDBDICTIONARYWDFLT
  2
AcDbDictionaryWithDefault
  3
AutoCAD 2000
 90
0
280
0
281
0
  0
CLASS
  1
ACDBPLACEHOLDER
  2
AcDbPlaceHolder
  3
AutoCAD 2000
 90
0
280
0
281
0
  0
CLASS
  1
LAYOUT
  2
AcDbLayout
  3
AutoCAD 2000
 90
0
280
0
281
0
  0
ENDSEC
  0
SECTION
  2
TABLES
  0
TABLE
  2
VPORT
  5
8
100
AcDbSymbolTable
 70
2
  0
VPORT
  5
1F4
100
AcDbSymbolTableRecord
100
AcDbViewportTableRecord
  2
*ACTIVE
 70
0
 10
0.0
 20
0.0
 11
1.0
 21
1.0
 12
148.5
 22
105.0
 13
0.0
 23
0.0
 14
1.0
 24
1.0
 15
0.0
 25
0.0
 16
0.0
 26
0.0
 36
1.0
 17
0.0
 27
0.0
 37
0.0
 40
210.0
 41
1.4142857143
 42
50.0
 43
0.0
 44
0.0
 50
0.0
 51
0.0
 71
0
 72
100
 73
1
 74
1
 75
0
 76
0
 77
0
 78
0
  0
ENDTAB
  0
TABLE
  2
LTYPE
  5
5
100
AcDbSymbolTable
 70
6
  0
LTYPE
  5
14
100
AcDbSymbolTableRecord
100
AcDbLinetypeTableRecord
  2
BYBLOCK
 70
0
  3

 72
65
 73
0
 40
0.0
  0
LTYPE
  5
15
100
AcDbSymbolTableRecord
100
AcDbLinetypeTableRecord
  2
BYLAYER
 70
0
  3

 72
65
 73
0
 40
0.0
  0
LTYPE
  5
16
100
AcDbSymbolTableRecord
100
AcDbLinetypeTableRecord
  2
CONTINUOUS
 70
64
  3
Solid line
 72
65
 73
0
 40
0.0
  0
LTYPE
  5
1F5
100
AcDbSymbolTableRecord
100
AcDbLinetypeTableRecord
  2
CENTER
 70
64
  3
____ _ ____ _ ____ _ ____ _ ____ _ ____ _ ____
 72
65
 73
4
 40
0.6
 49
0.375
 74
0
 49
-0.075
 74
0
 49
0.075
 74
0
 49
-0.075
 74
0
  0
LTYPE
  5
1F6
100
AcDbSymbolTableRecord
100
AcDbLinetypeTableRecord
  2
HIDDEN
 70
64
  3
- - - - - - - - - - - - - - - - - - - -
 72
65
 73
2
 40
0.2
 49
0.1
 74
0
 49
-0.1
 74
0
  0
LTYPE
  5
1F7
100
AcDbSymbolTableRecord
100
AcDbLinetypeTableRecord
  2
PHANTOM
 70
64
  3
_____ _ _ _____ _ _ _____ _ _ _____
 72
65
 73
6
 40
0.8
 49
0.45
 74
0
 49
-0.05
 74
0
 49
0.1
 74
0
 49
-0.05
 74
0
 49
0.1
 74
0
 49
-0.05
 74
0
  0
LTYPE
  5
1F8
100
AcDbSymbolTableRecord
100
AcDbLinetypeTableRecord
  2
DOT
 70
64
  3
. . . . . . . . . . . . . . . . . . . .
 72
65
 73
2
 40
0.2
 49
0.1
 74
0
 49
-0.1
 74
0
  0
LTYPE
  5
1F9
100
AcDbSymbolTableRecord
100
AcDbLinetypeTableRecord
  2
DASHED
 70
64
  3
- - - - - - - - - - - - - - - - - - - -
 72
65
 73
2
 40
0.2
 49
0.1
 74
0
 49
-0.1
 74
0
  0
ENDTAB
  0
TABLE
  2
LAYER
  5
2
100
AcDbSymbolTable
 70
36
  0
LAYER
  5
10
100
AcDbSymbolTableRecord
100
AcDbLayerTableRecord
  2
0
 70
0
 62
7
  6
CONTINUOUS
370
-3
390
F
  0
LAYER
  5
1FA
100
AcDbSymbolTableRecord
100
AcDbLayerTableRecord
  2
DEFAULT_1
 70
0
 62
7
  6
CENTER
370
-3
390
F
  0
LAYER
  5
1FB
100
AcDbSymbolTableRecord
100
AcDbLayerTableRecord
  2
DEFAULT_2
 70
0
 62
7
  6
HIDDEN
370
-3
390
F
  0
LAYER
  5
1FC
100
AcDbSymbolTableRecord
100
AcDbLayerTableRecord
  2
DEFAULT_3
 70
0
 62
7
  6
PHANTOM
370
-3
390
F
  0
LAYER
  5
1FD
100
AcDbSymbolTableRecord
100
AcDbLayerTableRecord
  2
ASSI
 70
0
 62
7
  6
CONTINUOUS
370
-3
390
F
  0
LAYER
  5
1FE
100
AcDbSymbolTableRecord
100
AcDbLayerTableRecord
  2
COORDINATE
 70
0
 62
7
  6
CONTINUOUS
370
-3
390
F
  0
LAYER
  5
1FF
100
AcDbSymbolTableRecord
100
AcDbLayerTableRecord
  2
COORD_ORIGINE
 70
0
 62
7
  6
CONTINUOUS
370
-3
390
F
  0
LAYER
  5
200
100
AcDbSymbolTableRecord
100
AcDbLayerTableRecord
  2
COPY_PUBLISH
 70
0
 62
7
  6
CONTINUOUS
370
-3
390
F
  0
LAYER
  5
201
100
AcDbSymbolTableRecord
100
AcDbLayerTableRecord
  2
COSMETIC
 70
0
 62
7
  6
CONTINUOUS
370
-3
390
F
  0
LAYER
  5
202
100
AcDbSymbolTableRecord
100
AcDbLayerTableRecord
  2
CURVE
 70
0
 62
7
  6
CONTINUOUS
370
-3
390
F
  0
LAYER
  5
203
100
AcDbSymbolTableRecord
100
AcDbLayerTableRecord
  2
DRAFT
 70
0
 62
7
  6
CONTINUOUS
370
-3
390
F
  0
LAYER
  5
204
100
AcDbSymbolTableRecord
100
AcDbLayerTableRecord
  2
IGES
 70
0
 62
7
  6
CONTINUOUS
370
-3
390
F
  0
LAYER
  5
205
100
AcDbSymbolTableRecord
100
AcDbLayerTableRecord
  2
IMPORT_IGES
 70
0
 62
7
  6
CONTINUOUS
370
-3
390
F
  0
LAYER
  5
206
100
AcDbSymbolTableRecord
100
AcDbLayerTableRecord
  2
INTF_6
 70
0
 62
7
  6
CONTINUOUS
370
-3
390
F
  0
LAYER
  5
207
100
AcDbSymbolTableRecord
100
AcDbLayerTableRecord
  2
NOTE
 70
0
 62
7
  6
CONTINUOUS
370
-3
390
F
  0
LAYER
  5
208
100
AcDbSymbolTableRecord
100
AcDbLayerTableRecord
  2
PIANI
 70
0
 62
7
  6
CONTINUOUS
370
-3
390
F
  0
LAYER
  5
209
100
AcDbSymbolTableRecord
100
AcDbLayerTableRecord
  2
PIANI_ORIGINE
 70
0
 62
7
  6
CONTINUOUS
370
-3
390
F
  0
LAYER
  5
20A
100
AcDbSymbolTableRecord
100
AcDbLayerTableRecord
  2
PIANI_RIFERIMENTO
 70
0
 62
7
  6
CONTINUOUS
370
-3
390
F
  0
LAYER
  5
20B
100
AcDbSymbolTableRecord
100
AcDbLayerTableRecord
  2
PUNTI
 70
0
 62
7
  6
CONTINUOUS
370
-3
390
F
  0
LAYER
  5
20C
100
AcDbSymbolTableRecord
100
AcDbLayerTableRecord
  2
RACCORDO
 70
0
 62
7
  6
CONTINUOUS
370
-3
390
F
  0
LAYER
  5
20D
100
AcDbSymbolTableRecord
100
AcDbLayerTableRecord
  2
SMUSSO
 70
0
 62
7
  6
CONTINUOUS
370
-3
390
F
  0
LAYER
  5
20E
100
AcDbSymbolTableRecord
100
AcDbLayerTableRecord
  2
SUPERFICI
 70
0
 62
7
  6
CONTINUOUS
370
-3
390
F
  0
LAYER
  5
20F
100
AcDbSymbolTableRecord
100
AcDbLayerTableRecord
  2
TRASH
 70
0
 62
7
  6
CONTINUOUS
370
-3
390
F
  0
ENDTAB
  0
TABLE
  2
STYLE
  5
3
100
AcDbSymbolTable
 70
1
  0
STYLE
  5
11
100
AcDbSymbolTableRecord
100
AcDbTextStyleTableRecord
  2
STANDARD
 70
0
 40
0.0
 41
0.8
 50
0.0
 71
0
 42
0.2
  3
txt
  4

  0
STYLE
  5
210
100
AcDbSymbolTableRecord
100
AcDbTextStyleTableRecord
  2
TEXTSTYLE_1
 70
0
 40
0.0
 41
0.8
 50
0.0
 71
0
 42
0.2
  3
gdt
  4

  0
ENDTAB
  0
TABLE
  2
VIEW
  5
6
100
AcDbSymbolTable
 70
0
  0
ENDTAB
  0
TABLE
  2
UCS
  5
7
100
AcDbSymbolTable
 70
0
  0
ENDTAB
  0
TABLE
  2
APPID
  5
9
100
AcDbSymbolTable
 70
1
  0
APPID
  5
211
100
AcDbSymbolTableRecord
100
AcDbRegAppTableRecord
  2
ACAD
 70
0
  0
ENDTAB
  0
TABLE
  2
BLOCK_RECORD
  5
1
100
AcDbSymbolTable
 70
0
  0
BLOCK_RECORD
  5
212
100
AcDbSymbolTableRecord
100
AcDbBlockTableRecord
  2
*Model_Space
  0
BLOCK_RECORD
  5
213
100
AcDbSymbolTableRecord
100
AcDbBlockTableRecord
  2
*Paper_Space
  0
ENDTAB
  0
TABLE
  2
DIMSTYLE
  5
A
100
AcDbSymbolTable
 70
1
100
AcDbDimStyleTable
 71
0
  0
DIMSTYLE
105
214
100
AcDbSymbolTableRecord
100
AcDbDimStyleTableRecord
  2
STANDARD
 70
0
  3

  4

 40
1.0
 41
3.0
 42
0.0625
 43
0.38
 44
0.18
 45
0.0
 46
0.0
 47
0.01
 48
0.01
140
3.0
141
0.09
142
0.0
143
25.4
144
1.0
145
0.0
146
1.0
147
0.09
 71
1.0
 72
0.0
 73
0
 74
0
 75
0
 76
0
 77
1
 78
8
170
0
171
2
172
0
173
0
174
0
175
0
176
0
177
0
178
0
270
2
271
2
272
2
273
2
274
2
275
0
280
0
281
0
282
0
283
1
284
8
285
0
286
0
287
3
288
0
340
11
  0
ENDTAB
  0
ENDSEC
  0
SECTION
  2
BLOCKS
  0
BLOCK
  5
20
100
AcDbEntity
  8
0
100
AcDbBlockBegin
  2
*Model_Space
 70
0
 10
0.0
 20
0.0
 30
0.0
  3
*Model_Space
  1

  0
ENDBLK
  5
21
100
AcDbEntity
  8
0
100
AcDbBlockEnd
  0
BLOCK
  5
1C
100
AcDbEntity
  8
0
100
AcDbBlockBegin
  2
*Paper_Space
 70
0
 10
0.0
 20
0.0
 30
0.0
  3
*Paper_Space
  1

  0
ENDBLK
  5
1D
100
AcDbEntity
  8
0
100
AcDbBlockEnd
  0
ENDSEC
  0
SECTION
  2
ENTITIES
  0
LWPOLYLINE
  5
215
100
AcDbEntity
  8
RACCORDO
100
AcDbPolyline
 62
7
  6
CONTINUOUS
 90
19
 70
0
 10
-17.6392447305
 20
16.0175090883
 10
-17.6576817023
 20
16.0067780176
 10
-17.6750479264
 20
15.99555524
 10
-17.6913458148
 20
15.9838819631
 10
-17.7066150633
 20
15.9717744419
 10
-17.7209105025
 20
15.9592256247
 10
-17.73424233
 20
15.9462571593
 10
-17.746614705
 20
15.932897976
 10
-17.7580487481
 20
15.9191556152
 10
-17.7685403696
 20
15.9050627001
 10
-17.7780891293
 20
15.8906512034
 10
-17.7867057019
 20
15.8759372618
 10
-17.7943810806
 20
15.8609692513
 10
-17.8011168859
 20
15.8457813352
 10
-17.8069269392
 20
15.8303759393
 10
-17.8118059107
 20
15.8148011127
 10
-17.8157531087
 20
15.7991019095
 10
-17.8187776942
 20
15.7832797614
 10
-17.8208530037
 20
15.7675576496
  0
LWPOLYLINE
  5
216
100
AcDbEntity
  8
ASSI
100
AcDbPolyline
 62
7
  6
CONTINUOUS
 90
11
 70
0
 10
-17.6315633993
 20
16.021658178
 10
-17.6446250793
 20
16.0144936973
 10
-17.6771823631
 20
15.9940930207
 10
-17.7069141119
 20
15.9715246438
 10
-17.7336863086
 20
15.9468255073
 10
-17.7572121378
 20
15.9202136024
 10
-17.777359903
 20
15.8918150509
 10
-17.7939708435
 20
15.8618243562
 10
-17.8067692372
 20
15.8308319581
 10
-17.8156986973
 20
15.7993448447
 10
-17.8208485006
 20
15.7676453678
  0
LINE
  5
217
100
AcDbEntity
  8
RACCORDO
100
AcDbLine
 62
7
  6
CONTINUOUS
 10
-17.6316186711
 20
16.0216289714
 11
-17.6392447305
 21
16.0175090883
  0
LINE
  5
218
100
AcDbEntity
  8
RACCORDO
100
AcDbLine
 62
7
  6
CONTINUOUS
 10
-17.6316033501
 20
16.02163747
 11
-14.0127870251
 21
17.9347001874
  0
LINE
  5
219
100
AcDbEntity
  8
ASSI
100
AcDbLine
 62
7
  6
CONTINUOUS
 10
-17.6316033501
 20
16.02163747
 11
-14.0127870251
 21
17.9347001874
  0
LINE
  5
21A
100
AcDbEntity
  8
RACCORDO
100
AcDbLine
 62
253
  6
CONTINUOUS
 10
-17.5393660818
 20
16.017405153
 11
-13.9218251297
 21
17.9297936532
  0
LINE
  5
21B
100
AcDbEntity
  8
ASSI
100
AcDbLine
 62
253
  6
CONTINUOUS
 10
-17.5393660818
 20
16.017405153
 11
-13.9218251297
 21
17.9297936532
  0
LINE
  5
21C
100
AcDbEntity
  8
DRAFT
100
AcDbLine
 62
7
  6
CONTINUOUS
 10
-12.2335836421
 20
16.1609732282
 11
-13.3005690584
 21
15.4751722063
  0
LINE
  5
21D
100
AcDbEntity
  8
ASSI
100
AcDbLine
 62
7
  6
CONTINUOUS
 10
-12.2335836421
 20
16.1609732282
 11
-13.3005690584
 21
15.4751722063
  0
LINE
  5
21E
100
AcDbEntity
  8
DRAFT
100
AcDbLine
 62
7
  6
CONTINUOUS
 10
-12.2335836421
 20
17.0856729094
 11
-14.1693125039
 21
15.9095439291
  0
LINE
  5
21F
100
AcDbEntity
  8
ASSI
100
AcDbLine
 62
7
  6
CONTINUOUS
 10
-12.2335836421
 20
17.0856729094
 11
-14.1693125039
 21
15.9095439291
  0
LINE
  5
220
100
AcDbEntity
  8
ASSI
100
AcDbLine
 62
7
  6
CONTINUOUS
 10
-17.8208485006
 20
15.7676453678
 11
-17.822328477
 21
15.7388161387
  0
LWPOLYLINE
  5
221
100
AcDbEntity
  8
RACCORDO
100
AcDbPolyline
 62
7
  6
CONTINUOUS
 90
3
 70
0
 10
-17.8208780374
 20
15.7673679994
 10
-17.8220521248
 20
15.7514312275
 10
-17.8223285482
 20
15.7388850881
  0
LWPOLYLINE
  5
222
100
AcDbEntity
  8
ASSI
100
AcDbPolyline
 62
7
  6
CONTINUOUS
 90
13
 70
0
 10
-17.5285427543
 20
-1.6148839325
 10
-17.5267208907
 20
-1.6539768745
 10
-17.5167250159
 20
-1.7580252068
 10
-17.4995905595
 20
-1.8575370712
 10
-17.4755800406
 20
-1.9522315911
 10
-17.444915274
 20
-2.041974923
 10
-17.4077610616
 20
-2.1266785003
 10
-17.3643637035
 20
-2.2060158468
 10
-17.3150020419
 20
-2.2796697417
 10
-17.259943285
 20
-2.3473750316
 10
-17.1995978308
 20
-2.4087379955
 10
-17.134455247
 20
-2.4633911936
 10
-17.0650486204
 20
-2.5110277578
  0
LWPOLYLINE
  5
223
100
AcDbEntity
  8
RACCORDO
100
AcDbPolyline
 62
7
  6
CONTINUOUS
 90
24
 70
0
 10
-17.5285437121
 20
-1.6148555087
 10
-17.5267803581
 20
-1.6529753448
 10
-17.5228700961
 20
-1.7040431953
 10
-17.5172315319
 20
-1.7541943083
 10
-17.5098757021
 20
-1.8034225722
 10
-17.5008206806
 20
-1.8516728847
 10
-17.4900994242
 20
-1.8988355532
 10
-17.477733619
 20
-1.9448875363
 10
-17.4637469667
 20
-1.9897956384
 10
-17.4481959999
 20
-2.0334372739
 10
-17.4311161762
 20
-2.075785433
 10
-17.4125439037
 20
-2.1168128168
 10
-17.3925639172
 20
-2.1564004281
 10
-17.3712456306
 20
-2.1944953028
 10
-17.348628914
 20
-2.2311051074
 10
-17.324773762
 20
-2.2662008871
 10
-17.2997631735
 20
-2.2997313116
 10
-17.2736419423
 20
-2.3317061217
 10
-17.2464126727
 20
-2.3621743196
 10
-17.2181389804
 20
-2.3911058653
 10
-17.1888827903
 20
-2.4184802986
 10
-17.1586341457
 20
-2.4443400282
 10
-17.1274566426
 20
-2.4686543276
 10
-17.0954124694
 20
-2.4913989349
  0
LWPOLYLINE
  5
224
100
AcDbEntity
  8
RACCORDO
100
AcDbPolyline
 62
7
  6
CONTINUOUS
 90
3
 70
0
 10
-17.6166926255
 20
1.2466981402
 10
-17.5743655019
 20
-0.1920507715
 10
-17.5285438791
 20
-1.6148560122
  0
LWPOLYLINE
  5
225
100
AcDbEntity
  8
RACCORDO
100
AcDbPolyline
 62
7
  6
CONTINUOUS
 90
10
 70
0
 10
-17.8195817109
 20
14.2930188898
 10
-17.8128685762
 20
12.8349485932
 10
-17.80219754
 20
11.3789589626
 10
-17.7875686804
 20
9.9250683509
 10
-17.7689821713
 20
8.4732930051
 10
-17.7464381974
 20
7.0236484788
 10
-17.7199369702
 20
5.5761509012
 10
-17.6894787711
 20
4.130816266
 10
-17.6550638804
 20
2.6876599287
 10
-17.6166926255
 20
1.2466981402
  0
LWPOLYLINE
  5
226
100
AcDbEntity
  8
ASSI
100
AcDbPolyline
 62
7
  6
CONTINUOUS
 90
10
 70
0
 10
-17.8223291454
 20
15.7389079525
 10
-17.817945242
 20
13.8460138624
 10
-17.8064063083
 20
11.8913808675
 10
-17.7877450055
 20
9.9405128765
 10
-17.7619616983
 20
7.9934508607
 10
-17.7290568523
 20
6.050233352
 10
-17.6890310466
 20
4.1108981697
 10
-17.6418849823
 20
2.1754837314
 10
-17.5876195706
 20
0.2440310785
 10
-17.528543879
 20
-1.614856015
  0
LINE
  5
227
100
AcDbEntity
  8
RACCORDO
100
AcDbLine
 62
7
  6
CONTINUOUS
 10
-17.8223291454
 20
15.7389079501
 11
-17.8195817109
 21
14.2930188898
  0
LINE
  5
228
100
AcDbEntity
  8
DRAFT
100
AcDbLine
 62
7
  6
CONTINUOUS
 10
-13.2147183493
 20
15.5303524394
 11
-13.2147183493
 21
15.4322468518
  0
LINE
  5
229
100
AcDbEntity
  8
ASSI
100
AcDbLine
 62
7
  6
CONTINUOUS
 10
-13.2147183493
 20
15.5303524394
 11
-13.2147183493
 21
15.4322468518
  0
LINE
  5
22A
100
AcDbEntity
  8
DRAFT
100
AcDbLine
 62
7
  6
CONTINUOUS
 10
-12.2335836421
 20
17.0856729094
 11
-12.2335836421
 21
16.1609732282
  0
LINE
  5
22B
100
AcDbEntity
  8
ASSI
100
AcDbLine
 62
7
  6
CONTINUOUS
 10
-12.2335836421
 20
17.0856729094
 11
-12.2335836421
 21
16.1609732282
  0
LWPOLYLINE
  5
22C
100
AcDbEntity
  8
RACCORDO
100
AcDbPolyline
 62
7
  6
CONTINUOUS
 90
19
 70
0
 10
13.8258455904
 20
-17.9595442797
 10
13.8631450239
 20
-17.9753620217
 10
13.901315805
 20
-17.9895360635
 10
13.9403133093
 20
-18.0020265471
 10
13.9801252923
 20
-18.0128033096
 10
14.020693761
 20
-18.0218238889
 10
14.0619513298
 20
-18.0290476224
 10
14.1038764332
 20
-18.0344430155
 10
14.1464082304
 20
-18.0379739016
 10
14.1894810505
 20
-18.039608589
 10
14.2330742956
 20
-18.0393174006
 10
14.2771250647
 20
-18.0370699246
 10
14.3215754851
 20
-18.0328409167
 10
14.3664233235
 20
-18.0265981787
 10
14.4116174193
 20
-18.0183114919
 10
14.4570986345
 20
-18.0079558738
 10
14.5028638662
 20
-17.995492416
 10
14.5488805185
 20
-17.980883949
 10
14.5950746959
 20
-17.9641095552
  0
LWPOLYLINE
  5
22D
100
AcDbEntity
  8
ASSI
100
AcDbPolyline
 62
7
  6
CONTINUOUS
 90
10
 70
0
 10
13.7928791689
 20
-17.9438465496
 10
13.8498216066
 20
-17.969940861
 10
13.92476792
 20
-17.9972821677
 10
14.002716173
 20
-18.0180654144
 10
14.0832617444
 20
-18.0320312007
 10
14.1661898943
 20
-18.038964402
 10
14.2510484099
 20
-18.0386356606
 10
14.3373672836
 20
-18.0308683363
 10
14.4250276881
 20
-18.0154682746
 10
14.5137710815
 20
-17.9922184753
  0
LINE
  5
22E
100
AcDbEntity
  8
RACCORDO
100
AcDbLine
 62
7
  6
CONTINUOUS
 10
13.7937822896
 20
-17.9442993928
 11
13.8258455904
 21
-17.9595442797
  0
LINE
  5
22F
100
AcDbEntity
  8
RACCORDO
100
AcDbLine
 62
7
  6
CONTINUOUS
 10
-17.0286921075
 20
-2.5322652652
 11
-16.9975415198
 21
-2.5486374896
  0
LINE
  5
230
100
AcDbEntity
  8
ASSI
100
AcDbLine
 62
7
  6
CONTINUOUS
 10
-17.0650486204
 20
-2.5110277578
 11
-16.9967367466
 21
-2.5490387975
  0
LWPOLYLINE
  5
231
100
AcDbEntity
  8
RACCORDO
100
AcDbPolyline
 62
7
  6
CONTINUOUS
 90
3
 70
0
 10
-17.0954124694
 20
-2.4913989349
 10
-17.0624802328
 20
-2.512606992
 10
-17.0286921075
 20
-2.5322652652
  0
LINE
  5
232
100
AcDbEntity
  8
RACCORDO
100
AcDbLine
 62
7
  6
CONTINUOUS
 10
13.7939155988
 20
-17.9443660694
 11
-16.9976639228
 21
-2.5485763085
  0
LINE
  5
233
100
AcDbEntity
  8
ASSI
100
AcDbLine
 62
7
  6
CONTINUOUS
 10
13.7939155988
 20
-17.9443660694
 11
-16.9976639228
 21
-2.5485763085
  0
LINE
  5
234
100
AcDbEntity
  8
RACCORDO
100
AcDbLine
 62
7
  6
CONTINUOUS
 10
13.7937829966
 20
-17.944299747
 11
13.7939152734
 21
-17.9443659066
  0
LINE
  5
235
100
AcDbEntity
  8
RACCORDO
100
AcDbLine
 62
253
  6
CONTINUOUS
 10
13.4004463994
 20
-17.1837547555
 11
-17.3820804655
 21
-1.7924913231
  0
LINE
  5
236
100
AcDbEntity
  8
ASSI
100
AcDbLine
 62
253
  6
CONTINUOUS
 10
13.4004463994
 20
-17.1837547555
 11
-17.3820804655
 21
-1.7924913231
  0
LINE
  5
237
100
AcDbEntity
  8
DRAFT
100
AcDbLine
 62
7
  6
CONTINUOUS
 10
-2.4841187725
 20
5.5296523876
 11
-2.654449306
 21
5.4397332739
  0
LINE
  5
238
100
AcDbEntity
  8
ASSI
100
AcDbLine
 62
7
  6
CONTINUOUS
 10
-2.7935730171
 20
5.4975414705
 11
-2.7931603878
 21
5.4977367556
  0
LINE
  5
239
100
AcDbEntity
  8
RACCORDO
100
AcDbLine
 62
7
  6
CONTINUOUS
 10
-2.7932081466
 20
5.4977141769
 11
-2.7931603878
 21
5.4977367556
  0
LWPOLYLINE
  5
23A
100
AcDbEntity
  8
ASSI
100
AcDbPolyline
 62
7
  6
CONTINUOUS
 90
28
 70
0
 10
-2.7935770041
 20
5.4975395625
 10
-2.7843482937
 20
5.5017804092
 10
-2.7249391524
 20
5.5231867816
 10
-2.6616816413
 20
5.536220014
 10
-2.5945634673
 20
5.5407799837
 10
-2.5238146545
 20
5.5366453383
 10
-2.4501501149
 20
5.5236683626
 10
-2.3744822349
 20
5.5019224239
 10
-2.2976699952
 20
5.4716638753
 10
-2.2202633389
 20
5.4331445391
 10
-2.1427233796
 20
5.3865935027
 10
-2.0657795699
 20
5.3324456504
 10
-1.9899933519
 20
5.2711131744
 10
-1.9154967803
 20
5.2026489768
 10
-1.8427180543
 20
5.1272935644
 10
-1.7724476294
 20
5.0457207022
 10
-1.7053176792
 20
4.9585752598
 10
-1.6418570799
 20
4.8664736828
 10
-1.5825843019
 20
4.7701064593
 10
-1.5280321572
 20
4.670309362
 10
-1.4786201212
 20
4.567856628
 10
-1.4347071689
 20
4.4635147207
 10
-1.3966388289
 20
4.358158623
 10
-1.3646709107
 20
4.2525983148
 10
-1.3390032479
 20
4.1476406375
 10
-1.3197941868
 20
4.0441805254
 10
-1.3071171112
 20
3.9430421079
 10
-1.3009722602
 20
3.8449465006
  0
LINE
  5
23B
100
AcDbEntity
  8
RACCORDO
100
AcDbLine
 62
7
  6
CONTINUOUS
 10
-2.7932123078
 20
5.4977121827
 11
-2.7865190122
 21
5.5007829042
  0
LWPOLYLINE
  5
23C
100
AcDbEntity
  8
RACCORDO
100
AcDbPolyline
 62
7
  6
CONTINUOUS
 90
61
 70
0
 10
-2.7865190122
 20
5.5007829042
 10
-2.760709401
 20
5.5114734781
 10
-2.7336623958
 20
5.5206402051
 10
-2.7059340917
 20
5.5280787561
 10
-2.677549687
 20
5.5338014775
 10
-2.6485592534
 20
5.5378169132
 10
-2.6189353677
 20
5.5401389898
 10
-2.5887130428
 20
5.5407701961
 10
-2.5579481701
 20
5.5397146502
 10
-2.5266463248
 20
5.5369733558
 10
-2.4948562053
 20
5.5325504927
 10
-2.4626360295
 20
5.5264543859
 10
-2.4300059968
 20
5.5186858716
 10
-2.3970203963
 20
5.5092551903
 10
-2.3637396141
 20
5.4981773447
 10
-2.3301904851
 20
5.4854563872
 10
-2.2964293283
 20
5.4711094777
 10
-2.2625157759
 20
5.4551582555
 10
-2.2284778799
 20
5.4376096256
 10
-2.1943716737
 20
5.4184867868
 10
-2.1602551087
 20
5.397817134
 10
-2.1261556083
 20
5.3756094288
 10
-2.0921277576
 20
5.3518916534
 10
-2.0582281372
 20
5.3266964171
 10
-2.0244847024
 20
5.3000347848
 10
-1.9909448804
 20
5.2719340651
 10
-1.9576700143
 20
5.2424364044
 10
-1.9247071877
 20
5.211573025
 10
-1.8921049324
 20
5.1793796159
 10
-1.8599200269
 20
5.1459036463
 10
-1.8282098588
 20
5.1111955615
 10
-1.7970247175
 20
5.075302921
 10
-1.7664138791
 20
5.0382764081
 10
-1.7364308339
 20
5.0001735871
 10
-1.7071224143
 20
4.961048305
 10
-1.6785341875
 20
4.9209575161
 10
-1.6507154511
 20
4.879965342
 10
-1.6237089872
 20
4.8381310698
 10
-1.5975557885
 20
4.7955166566
 10
-1.5723002234
 20
4.7521917363
 10
-1.5479805142
 20
4.7082203282
 10
-1.5246321828
 20
4.663667855
 10
-1.502293399
 20
4.6186072115
 10
-1.4809976861
 20
4.5731071142
 10
-1.4607740442
 20
4.527234063
 10
-1.4416521832
 20
4.4810584073
 10
-1.4236596633
 20
4.4346500669
 10
-1.4068200544
 20
4.3880776842
 10
-1.3911560701
 20
4.3414103344
 10
-1.3766888891
 20
4.2947170574
 10
-1.3634367589
 20
4.2480686341
 10
-1.351417033
 20
4.2015375727
 10
-1.3406441822
 20
4.1551912044
 10
-1.3311302371
 20
4.1091020741
 10
-1.3228869326
 20
4.0633514197
 10
-1.3159216923
 20
4.0180078322
 10
-1.3102382058
 20
3.973137865
 10
-1.3058395202
 20
3.9288203159
 10
-1.3027252461
 20
3.8851253611
 10
-1.3008900723
 20
3.8421175093
 10
-1.3003620929
 20
3.8123524504
  0
LWPOLYLINE
  5
23D
100
AcDbEntity
  8
RACCORDO
100
AcDbPolyline
 62
7
  6
CONTINUOUS
 90
3
 70
0
 10
-1.5479342881
 20
3.1736972018
 10
-1.5707115324
 20
3.1583718822
 10
-1.5945031286
 20
3.1444991164
  0
LINE
  5
23E
100
AcDbEntity
  8
RACCORDO
100
AcDbLine
 62
7
  6
CONTINUOUS
 10
-1.5945031286
 20
3.1444991164
 11
-1.5981122894
 21
3.1425712646
  0
LINE
  5
23F
100
AcDbEntity
  8
ASSI
100
AcDbLine
 62
7
  6
CONTINUOUS
 10
-1.5973241684
 20
3.1429880297
 11
-1.598115571
 21
3.1425693032
  0
LINE
  5
240
100
AcDbEntity
  8
DRAFT
100
AcDbLine
 62
7
  6
CONTINUOUS
 10
-1.3887061953
 20
3.3691587295
 11
-1.5751063564
 21
3.2810473728
  0
LWPOLYLINE
  5
241
100
AcDbEntity
  8
ASSI
100
AcDbPolyline
 62
7
  6
CONTINUOUS
 90
12
 70
0
 10
-1.3016466474
 20
3.7424059162
 10
-1.3081985181
 20
3.6590274818
 10
-1.3201341735
 20
3.5799481142
 10
-1.3372990424
 20
3.5056493985
 10
-1.3594768007
 20
3.4366397981
 10
-1.3863641088
 20
3.3734332442
 10
-1.4175964022
 20
3.3164315527
 10
-1.4528597084
 20
3.2657913252
 10
-1.4919183765
 20
3.2215432149
 10
-1.5344077975
 20
3.1838412471
 10
-1.5801320454
 20
3.1526305856
 10
-1.5973328503
 20
3.142983694
  0
LINE
  5
242
100
AcDbEntity
  8
CURVE
100
AcDbLine
 62
253
  6
CONTINUOUS
 10
-4.6629542709
 20
-0.9340146908
 11
0.2867931974
 21
-3.4088884249
  0
LINE
  5
243
100
AcDbEntity
  8
ASSI
100
AcDbLine
 62
7
  6
CONTINUOUS
 10
-1.3009722602
 20
3.8449465006
 11
-1.3003623083
 21
3.8123853681
  0
LWPOLYLINE
  5
244
100
AcDbEntity
  8
RACCORDO
100
AcDbPolyline
 62
7
  6
CONTINUOUS
 90
23
 70
0
 10
-1.3003619671
 20
3.8123482534
 10
-1.3004164238
 20
3.7863972518
 10
-1.3014341833
 20
3.747370627
 10
-1.3035800375
 20
3.7090304669
 10
-1.3068508392
 20
3.6714503769
 10
-1.3112414191
 20
3.6346747506
 10
-1.3167489693
 20
3.5987269191
 10
-1.3233672649
 20
3.563661997
 10
-1.3310867933
 20
3.5295346602
 10
-1.3399020549
 20
3.4963747762
 10
-1.3498017257
 20
3.4642386338
 10
-1.3607716472
 20
3.4331799855
 10
-1.3728025016
 20
3.4032299389
 10
-1.385877399
 20
3.3744406955
 10
-1.3999775903
 20
3.3468611693
 10
-1.415090927
 20
3.3205197416
 10
-1.4311934765
 20
3.295466294
 10
-1.4482666337
 20
3.2717370971
 10
-1.4663098066
 20
3.2493409368
 10
-1.4852979993
 20
3.2283220559
 10
-1.5052189231
 20
3.2087073305
 10
-1.526102776
 20
3.1904854502
 10
-1.5479342881
 20
3.1736972018
  0
LINE
  5
245
100
AcDbEntity
  8
ASSI
100
AcDbLine
 62
7
  6
CONTINUOUS
 10
-1.3003618572
 20
3.8123338539
 11
-1.3016466474
 21
3.7424059162
  0
LINE
  5
246
100
AcDbEntity
  8
DRAFT
100
AcDbLine
 62
7
  6
CONTINUOUS
 10
15.7147637877
 20
3.1114991945
 11
13.4078519624
 21
2.120961696
  0
LINE
  5
247
100
AcDbEntity
  8
ASSI
100
AcDbLine
 62
7
  6
CONTINUOUS
 10
15.7147637877
 20
3.1114991945
 11
13.4078519624
 21
2.120961696
  0
LINE
  5
248
100
AcDbEntity
  8
RACCORDO
100
AcDbLine
 62
253
  6
CONTINUOUS
 10
17.4030052752
 20
2.2673784507
 11
13.656931958
 21
0.4192561331
  0
LINE
  5
249
100
AcDbEntity
  8
ASSI
100
AcDbLine
 62
253
  6
CONTINUOUS
 10
17.4030052752
 20
2.2673784507
 11
13.656931958
 21
0.4192561331
  0
LINE
  5
24A
100
AcDbEntity
  8
RACCORDO
100
AcDbLine
 62
253
  6
CONTINUOUS
 10
17.5444266323
 20
2.023482476
 11
13.7970977505
 21
0.1747407267
  0
LINE
  5
24B
100
AcDbEntity
  8
ASSI
100
AcDbLine
 62
253
  6
CONTINUOUS
 10
17.5444266323
 20
2.023482476
 11
13.7970977505
 21
0.1747407267
  0
LINE
  5
24C
100
AcDbEntity
  8
RACCORDO
100
AcDbLine
 62
253
  6
CONTINUOUS
 10
13.0962076126
 20
0.1754556811
 11
-17.6758733643
 21
15.5614961695
  0
LINE
  5
24D
100
AcDbEntity
  8
ASSI
100
AcDbLine
 62
253
  6
CONTINUOUS
 10
13.0962076126
 20
0.1754556811
 11
-17.6758733643
 21
15.5614961695
  0
LINE
  5
24E
100
AcDbEntity
  8
RACCORDO
100
AcDbLine
 62
253
  6
CONTINUOUS
 10
13.236403643
 20
0.4188639571
 11
-17.535694986
 21
15.8049132716
  0
LINE
  5
24F
100
AcDbEntity
  8
ASSI
100
AcDbLine
 62
253
  6
CONTINUOUS
 10
13.236403643
 20
0.4188639571
 11
-17.535694986
 21
15.8049132716
  0
LINE
  5
250
100
AcDbEntity
  8
DRAFT
100
AcDbLine
 62
7
  6
CONTINUOUS
 10
-14.1693125039
 20
15.9095439291
 11
13.4078519624
 21
2.120961696
  0
LINE
  5
251
100
AcDbEntity
  8
ASSI
100
AcDbLine
 62
7
  6
CONTINUOUS
 10
-14.1693125039
 20
15.9095439291
 11
13.4078519624
 21
2.120961696
  0
LINE
  5
252
100
AcDbEntity
  8
RACCORDO
100
AcDbLine
 62
7
  6
CONTINUOUS
 10
-13.9218251297
 20
17.9297936532
 11
-12.2335836421
 21
17.0856729094
  0
LINE
  5
253
100
AcDbEntity
  8
ASSI
100
AcDbLine
 62
7
  6
CONTINUOUS
 10
-13.9218251297
 20
17.9297936532
 11
-12.2335836421
 21
17.0856729094
  0
LINE
  5
254
100
AcDbEntity
  8
RACCORDO
100
AcDbLine
 62
7
  6
CONTINUOUS
 10
15.7147637877
 20
3.1114991945
 11
17.4030052752
 21
2.2673784507
  0
LINE
  5
255
100
AcDbEntity
  8
ASSI
100
AcDbLine
 62
7
  6
CONTINUOUS
 10
15.7147637877
 20
3.1114991945
 11
17.4030052752
 21
2.2673784507
  0
LINE
  5
256
100
AcDbEntity
  8
RACCORDO
100
AcDbLine
 62
7
  6
CONTINUOUS
 10
17.5444266323
 20
2.023482476
 11
17.5444266323
 21
-9.061662477
  0
LINE
  5
257
100
AcDbEntity
  8
ASSI
100
AcDbLine
 62
7
  6
CONTINUOUS
 10
17.5444266323
 20
2.023482476
 11
17.5444266323
 21
-9.061662477
  0
LINE
  5
258
100
AcDbEntity
  8
RACCORDO
100
AcDbLine
 62
7
  6
CONTINUOUS
 10
17.5444266323
 20
-9.061662477
 11
17.0055428226
 21
-16.736220794
  0
LINE
  5
259
100
AcDbEntity
  8
ASSI
100
AcDbLine
 62
7
  6
CONTINUOUS
 10
17.5444266323
 20
-9.061662477
 11
17.0055428226
 21
-16.736220794
  0
LINE
  5
25A
100
AcDbEntity
  8
RACCORDO
100
AcDbLine
 62
253
  6
CONTINUOUS
 10
14.7822179415
 20
-17.6694822707
 11
17.0055428226
 21
-16.736220794
  0
LINE
  5
25B
100
AcDbEntity
  8
ASSI
100
AcDbLine
 62
253
  6
CONTINUOUS
 10
14.7822179415
 20
-17.6694822707
 11
17.0055428226
 21
-16.736220794
  0
LWPOLYLINE
  5
25C
100
AcDbEntity
  8
ASSI
100
AcDbPolyline
 62
7
  6
CONTINUOUS
 90
3
 70
0
 10
14.5137710815
 20
-17.9922184753
 10
14.6030952239
 20
-17.9609799558
 10
14.6282264548
 20
-17.9507550573
  0
LINE
  5
25D
100
AcDbEntity
  8
RACCORDO
100
AcDbLine
 62
7
  6
CONTINUOUS
 10
14.6284106961
 20
-17.9506779691
 11
16.8392193857
 21
-17.0226702812
  0
LINE
  5
25E
100
AcDbEntity
  8
ASSI
100
AcDbLine
 62
7
  6
CONTINUOUS
 10
14.6284106961
 20
-17.9506779691
 11
16.8392193857
 21
-17.0226702812
  0
LINE
  5
25F
100
AcDbEntity
  8
RACCORDO
100
AcDbLine
 62
7
  6
CONTINUOUS
 10
14.5950746959
 20
-17.9641095552
 11
14.628396627
 21
-17.9506837354
  0
ARC
  5
260
100
AcDbEntity
  8
RACCORDO
100
AcDbCircle
 62
253
  6
CONTINUOUS
 10
531.6300395481
 20
0.4739429829
 40
518.5339178457
100
AcDbArc
 50
180.0329815717
 51
180.338577645
  0
ARC
  5
261
100
AcDbEntity
  8
ASSI
100
AcDbCircle
 62
253
  6
CONTINUOUS
 10
531.6300395478
 20
0.4739429829
 40
518.5339178454
100
AcDbArc
 50
180.0329815717
 51
180.338577645
  0
ARC
  5
262
100
AcDbEntity
  8
RACCORDO
100
AcDbCircle
 62
253
  6
CONTINUOUS
 10
524.5039679252
 20
0.4217868536
 40
510.7068844478
100
AcDbArc
 50
180.0277158976
 51
181.2619465208
  0
ARC
  5
263
100
AcDbEntity
  8
ASSI
100
AcDbCircle
 62
253
  6
CONTINUOUS
 10
524.5039679252
 20
0.4217868536
 40
510.7068844478
100
AcDbArc
 50
180.0277158976
 51
181.2619465208
  0
ARC
  5
264
100
AcDbEntity
  8
RACCORDO
100
AcDbCircle
 62
253
  6
CONTINUOUS
 10
513.9774034603
 20
0.1968234287
 40
500.1779344108
100
AcDbArc
 50
181.2627393564
 51
181.9896878284
  0
ARC
  5
265
100
AcDbEntity
  8
ASSI
100
AcDbCircle
 62
253
  6
CONTINUOUS
 10
513.9774034603
 20
0.1968234287
 40
500.1779344108
100
AcDbArc
 50
181.2627393564
 51
181.9896878284
  0
ARC
  5
266
100
AcDbEntity
  8
RACCORDO
100
AcDbCircle
 62
253
  6
CONTINUOUS
 10
-2.8724911886
 20
3.7635135875
 40
1.6014957667
100
AcDbArc
 50
1.7691524398
 51
3.7642664723
  0
ARC
  5
267
100
AcDbEntity
  8
ASSI
100
AcDbCircle
 62
253
  6
CONTINUOUS
 10
-2.8724911886
 20
3.7635135875
 40
1.6014957667
100
AcDbArc
 50
1.7691524398
 51
3.7642664723
  0
ARC
  5
268
100
AcDbEntity
  8
RACCORDO
100
AcDbCircle
 62
253
  6
CONTINUOUS
 10
-2.8064327878
 20
3.7656862465
 40
1.5354017841
100
AcDbArc
 50
0.4200341242
 51
1.7642182
  0
ARC
  5
269
100
AcDbEntity
  8
ASSI
100
AcDbCircle
 62
253
  6
CONTINUOUS
 10
-2.8064327878
 20
3.7656862465
 40
1.5354017841
100
AcDbArc
 50
0.4200341242
 51
1.7642182
  0
ARC
  5
26A
100
AcDbEntity
  8
ASSI
100
AcDbCircle
 62
253
  6
CONTINUOUS
 10
-2.7436771418
 20
3.7661020722
 40
1.4726447768
100
AcDbArc
 50
358.6776129422
 51
0.4217554206
  0
ARC
  5
26B
100
AcDbEntity
  8
RACCORDO
100
AcDbCircle
 62
7
  6
CONTINUOUS
 10
-1.6540483781
 20
4.3003585221
 40
1.1007054639
100
AcDbArc
 50
237.1726665364
 51
240.9484598453
  0
ARC
  5
26C
100
AcDbEntity
  8
RACCORDO
100
AcDbCircle
 62
7
  6
CONTINUOUS
 10
-1.6874555696
 20
4.2408118841
 40
1.0324284262
100
AcDbArc
 50
240.9644641986
 51
243.4252663163
  0
ARC
  5
26D
100
AcDbEntity
  8
RACCORDO
100
AcDbCircle
 62
253
  6
CONTINUOUS
 10
-16.7477922149
 20
-2.0500969235
 40
0.5576173384
100
AcDbArc
 50
236.7290897213
 51
238.815240269
  0
ARC
  5
26E
100
AcDbEntity
  8
RACCORDO
100
AcDbCircle
 62
253
  6
CONTINUOUS
 10
-16.749426122
 20
-2.052782594
 40
0.5544737057
100
AcDbArc
 50
238.8159813801
 51
240.0279649063
  0
ARC
  5
26F
100
AcDbEntity
  8
ASSI
100
AcDbCircle
 62
253
  6
CONTINUOUS
 10
-16.751305142
 20
-2.056009861
 40
0.5507398195
100
AcDbArc
 50
238.809372773
 51
243.4279550194
  0
ARC
  5
270
100
AcDbEntity
  8
RACCORDO
100
AcDbCircle
 62
253
  6
CONTINUOUS
 10
-16.751954046
 20
-2.0572346291
 40
0.549354152
100
AcDbArc
 50
240.0243904081
 51
243.4313441623
  0
ARC
  5
271
100
AcDbEntity
  8
RACCORDO
100
AcDbCircle
 62
253
  6
CONTINUOUS
 10
-1.8241864075
 20
3.5706225724
 40
0.4840821
100
AcDbArc
 50
291.9782690748
 51
297.840198885
  0
SPLINE
  5
272
100
AcDbEntity
  8
RACCORDO
100
AcDbSpline
 62
7
  6
CONTINUOUS
 70
0
 71
3
 72
14
 73
10
 74
8
 42
0.0000001
 43
0.0000001
 44
0.0000000001
 12
-2.1334127319
 22
-1.1262489471
 32
0.0
 13
2.0328953942
 23
-1.3102034695
 33
0.0
 40
0.0
 40
0.0
 40
0.0
 40
0.0
 40
0.1126354234
 40
0.2431064815
 40
0.3946442942
 40
0.5607875776
 40
0.7319683022
 40
0.897607205
 40
1.0
 40
1.0
 40
1.0
 40
1.0
 10
-2.6544491471
 20
5.4397333577
 30
0.0
 10
-2.7345484293
 20
5.3974481821
 30
0.0
 10
-2.8833315467
 20
5.2560087793
 30
0.0
 10
-2.9911219348
 20
4.9485985113
 30
0.0
 10
-2.9924256152
 20
4.5834033371
 30
0.0
 10
-2.8951727971
 20
4.1989803557
 30
0.0
 10
-2.7129483734
 20
3.8343979177
 30
0.0
 10
-2.4897748923
 20
3.5572289746
 30
0.0
 10
-2.3201354936
 20
3.420145291
 30
0.0
 10
-2.2507508798
 20
3.3754268259
 30
0.0
 11
-2.6544491471
 21
5.4397333577
 31
0.0
 11
-2.8547314868
 21
5.2560968327
 31
0.0
 11
-2.9690565726
 21
4.9628394092
 31
0.0
 11
-2.9777925888
 21
4.5973673455
 31
0.0
 11
-2.8828066224
 21
4.2079737227
 31
0.0
 11
-2.6982544179
 21
3.8385421995
 31
0.0
 11
-2.4448648173
 21
3.5295607891
 31
0.0
 11
-2.2507508798
 21
3.3754268259
 31
0.0
  0
SPLINE
  5
273
100
AcDbEntity
  8
RACCORDO
100
AcDbSpline
 62
7
  6
CONTINUOUS
 70
0
 71
3
 72
10
 73
6
 74
4
 42
0.0000001
 43
0.0000001
 44
0.0000000001
 12
0.5309507646
 22
-0.2654753776
 32
0.0
 13
0.5366819963
 23
0.2536896016
 33
0.0
 40
0.0
 40
0.0
 40
0.0
 40
0.0
 40
0.3683960887
 40
0.69741576
 40
1.0
 40
1.0
 40
1.0
 40
1.0
 10
-2.1493276439
 20
3.3174578662
 30
0.0
 10
-2.0841275822
 20
3.284857836
 30
0.0
 10
-1.9530423292
 20
3.2362782094
 30
0.0
 10
-1.7526946596
 20
3.2220757985
 30
0.0
 10
-1.6292367389
 20
3.2554599387
 30
0.0
 10
-1.5751062343
 20
3.2810474305
 30
0.0
 11
-2.1493276439
 21
3.3174578662
 31
0.0
 11
-1.9432302971
 21
3.2443266572
 31
0.0
 11
-1.7482348524
 21
3.2331938711
 31
0.0
 11
-1.5751062343
 21
3.2810474305
 31
0.0
  0
SPLINE
  5
274
100
AcDbEntity
  8
RACCORDO
100
AcDbSpline
 62
253
  6
CONTINUOUS
 70
0
 71
3
 72
9
 73
5
 74
3
 42
0.0000001
 43
0.0000001
 44
0.0000000001
 12
0.3391227322
 22
0.1616815324
 32
0.0
 13
0.1507748204
 23
0.3442739141
 33
0.0
 40
0.0
 40
0.0
 40
0.0
 40
0.0
 40
0.6219775114
 40
1.0
 40
1.0
 40
1.0
 40
1.0
 10
-1.57511408
 20
3.2810776738
 30
0.0
 10
-1.5048051757
 20
3.3145984329
 30
0.0
 10
-1.4059344496
 20
3.3994755649
 30
0.0
 10
-1.3439921076
 20
3.5088723426
 30
0.0
 10
-1.32499335
 20
3.5522534365
 30
0.0
 11
-1.57511408
 21
3.2810776738
 31
0.0
 11
-1.3961004072
 21
3.4296673402
 31
0.0
 11
-1.32499335
 21
3.5522534365
 31
0.0
  0
SPLINE
  5
275
100
AcDbEntity
  8
RACCORDO
100
AcDbSpline
 62
253
  6
CONTINUOUS
 70
0
 71
3
 72
22
 73
18
 74
16
 42
0.0000001
 43
0.0000001
 44
0.0000000001
 12
-2.5607350466
 22
1.2803675233
 32
0.0
 13
2.5607350466
 23
-1.2803675233
 33
0.0
 40
0.0
 40
0.0
 40
0.0
 40
0.0
 40
0.0926031929
 40
0.1728708975
 40
0.252045775
 40
0.3369516027
 40
0.4238704212
 40
0.5094903106
 40
0.590787205
 40
0.6657976871
 40
0.733551015
 40
0.7939124321
 40
0.8471061098
 40
0.8936521728
 40
0.9341960337
 40
0.9693929376
 40
1.0
 40
1.0
 40
1.0
 40
1.0
 10
-2.174873626
 20
5.2986005118
 30
0.0
 10
-2.2539177065
 20
5.3381225521
 30
0.0
 10
-2.4144692217
 20
5.3922577296
 30
0.0
 10
-2.6639925217
 20
5.3602210413
 30
0.0
 10
-2.8514671177
 20
5.2027751323
 30
0.0
 10
-2.9475837092
 20
4.9769896803
 30
0.0
 10
-2.9739568853
 20
4.7305170926
 30
0.0
 10
-2.9498405948
 20
4.4881756285
 30
0.0
 10
-2.8914286535
 20
4.2640490889
 30
0.0
 10
-2.8113611123
 20
4.0652351887
 30
0.0
 10
-2.7192084306
 20
3.8942805435
 30
0.0
 10
-2.6218909283
 20
3.7508751718
 30
0.0
 10
-2.5242039284
 20
3.6330991685
 30
0.0
 10
-2.4293952104
 20
3.5383107235
 30
0.0
 10
-2.3395407742
 20
3.4635859296
 30
0.0
 10
-2.2558306622
 20
3.4059678907
 30
0.0
 10
-2.2009991518
 20
3.3751471029
 30
0.0
 10
-2.174873626
 20
3.36208434
 30
0.0
 11
-2.174873626
 21
5.2986005118
 31
0.0
 11
-2.4289642503
 21
5.374281286
 31
0.0
 11
-2.6560733609
 21
5.3391808818
 31
0.0
 11
-2.8323877133
 21
5.1967181995
 31
0.0
 11
-2.9350446146
 21
4.976373916
 31
0.0
 11
-2.9654443028
 21
4.7293901318
 31
0.0
 11
-2.9429985703
 21
4.4852911542
 31
0.0
 11
-2.8850100659
 21
4.2598784811
 31
0.0
 11
-2.8049713819
 21
4.060596863
 31
0.0
 11
-2.7128781605
 21
3.8898750924
 31
0.0
 11
-2.6156883221
 21
3.7469806019
 31
0.0
 11
-2.5182845783
 21
3.6299095148
 31
0.0
 11
-2.4238722517
 21
3.5358628838
 31
0.0
 11
-2.3344757411
 21
3.4618220455
 31
0.0
 11
-2.2513495791
 21
3.4048632888
 31
0.0
 11
-2.174873626
 21
3.36208434
 31
0.0
  0
SPLINE
  5
276
100
AcDbEntity
  8
RACCORDO
100
AcDbSpline
 62
253
  6
CONTINUOUS
 70
0
 71
3
 72
10
 73
6
 74
4
 42
0.0000001
 43
0.0000001
 44
0.0000000001
 12
-0.3309011026
 22
0.0559207195
 32
0.0
 13
-0.2957943124
 23
-0.1580556585
 33
0.0
 40
0.0
 40
0.0
 40
0.0
 40
0.0
 40
0.158594754
 40
0.9032710887
 40
1.0
 40
1.0
 40
1.0
 40
1.0
 10
-2.3272437631
 20
5.4850951359
 30
0.0
 10
-2.3447368228
 20
5.4880513802
 30
0.0
 10
-2.4451562428
 20
5.5007517646
 30
0.0
 10
-2.5603431931
 20
5.4859719841
 30
0.0
 10
-2.6448572431
 20
5.4447271723
 30
0.0
 10
-2.6543945304
 20
5.4396309884
 30
0.0
 11
-2.3272437631
 21
5.4850951359
 31
0.0
 11
-2.3801115238
 21
5.4917081241
 31
0.0
 11
-2.6252616357
 21
5.453829532
 31
0.0
 11
-2.6543945304
 21
5.4396309884
 31
0.0
  0
SPLINE
  5
277
100
AcDbEntity
  8
RACCORDO
100
AcDbSpline
 62
253
  6
CONTINUOUS
 70
0
 71
3
 72
8
 73
4
 74
2
 42
0.0000001
 43
0.0000001
 44
0.0000000001
 12
0.0835988337
 22
-0.0417994168
 32
0.0
 13
0.0882735387
 23
-0.032464483
 33
0.0
 40
0.0
 40
0.0
 40
0.0
 40
0.0
 40
1.0
 40
1.0
 40
1.0
 40
1.0
 10
-2.174873626
 20
3.36208434
 30
0.0
 10
-2.1470073481
 20
3.348151201
 30
0.0
 10
-2.1182760408
 20
3.3355259969
 30
0.0
 10
-2.0888515279
 20
3.3247045025
 30
0.0
 11
-2.174873626
 21
3.36208434
 31
0.0
 11
-2.0888515279
 21
3.3247045025
 31
0.0
  0
SPLINE
  5
278
100
AcDbEntity
  8
RACCORDO
100
AcDbSpline
 62
253
  6
CONTINUOUS
 70
0
 71
3
 72
10
 73
6
 74
4
 42
0.0000001
 43
0.0000001
 44
0.0000000001
 12
0.4497329471
 22
-0.165398916
 32
0.0
 13
0.3975809252
 23
0.2706053485
 33
0.0
 40
0.0
 40
0.0
 40
0.0
 40
0.0
 40
0.3604798126
 40
0.8430695357
 40
1.0
 40
1.0
 40
1.0
 40
1.0
 10
-2.0888515279
 20
3.3247045025
 30
0.0
 10
-2.0348116451
 20
3.3048301791
 30
0.0
 10
-1.9029579329
 20
3.2725777578
 30
0.0
 10
-1.7382967337
 20
3.2937179849
 30
0.0
 10
-1.6487992095
 20
3.3439426478
 30
0.0
 10
-1.6280016897
 20
3.3580980555
 30
0.0
 11
-2.0888515279
 21
3.3247045025
 31
0.0
 11
-1.9207818167
 21
3.2864041583
 31
0.0
 11
-1.6936742136
 21
3.3215038087
 31
0.0
 11
-1.6280016897
 21
3.3580980555
 31
0.0
  0
SPLINE
  5
279
100
AcDbEntity
  8
RACCORDO
100
AcDbSpline
 62
253
  6
CONTINUOUS
 70
0
 71
3
 72
20
 73
16
 74
14
 42
0.0000001
 43
0.0000001
 44
0.0000000001
 12
1.9147547356
 22
1.3032387614
 32
0.0
 13
-2.0512188492
 23
1.0256094246
 33
0.0
 40
0.0
 40
0.0
 40
0.0
 40
0.0
 40
0.0662565476
 40
0.172252553
 40
0.2807617212
 40
0.3876493116
 40
0.4891401078
 40
0.5827829581
 40
0.667365994
 40
0.7427209878
 40
0.8091277958
 40
0.8672357412
 40
0.9178505631
 40
0.9617902467
 40
1.0
 40
1.0
 40
1.0
 40
1.0
 10
-1.6280016897
 20
3.3580980555
 30
0.0
 10
-1.5857133436
 20
3.3868807558
 30
0.0
 10
-1.4882852323
 20
3.4813891123
 30
0.0
 10
-1.4021642918
 20
3.68369496
 30
0.0
 10
-1.3757910307
 20
3.9301674104
 30
0.0
 10
-1.3999074521
 20
4.1725088601
 30
0.0
 10
-1.4583191833
 20
4.3966354548
 30
0.0
 10
-1.538386642
 20
4.5954494052
 30
0.0
 10
-1.6305391805
 20
4.766404122
 30
0.0
 10
-1.7278565934
 20
4.9098095415
 30
0.0
 10
-1.8255435174
 20
5.0275855794
 30
0.0
 10
-1.9203521536
 20
5.1223740849
 30
0.0
 10
-2.0102065833
 20
5.1970988439
 30
0.0
 10
-2.0939166093
 20
5.2547169679
 30
0.0
 10
-2.1487481039
 20
5.2855377508
 30
0.0
 10
-2.174873626
 20
5.2986005118
 30
0.0
 11
-1.6280016897
 21
3.3580980555
 31
0.0
 11
-1.5173598022
 21
3.4639665205
 31
0.0
 11
-1.4147033151
 21
3.6843105969
 31
0.0
 11
-1.3843036517
 21
3.9312943688
 31
0.0
 11
-1.4067494153
 21
4.1753933309
 31
0.0
 11
-1.4647377886
 21
4.4008060695
 31
0.0
 11
-1.5447763595
 21
4.6000877441
 31
0.0
 11
-1.6368694558
 21
4.7708095772
 31
0.0
 11
-1.7340591993
 21
4.9137041153
 31
0.0
 11
-1.8314628628
 21
5.0307752424
 31
0.0
 11
-1.9258751205
 21
5.1248219079
 31
0.0
 11
-2.0152716091
 21
5.1988627572
 31
0.0
 11
-2.0983976929
 21
5.255821553
 31
0.0
 11
-2.174873626
 21
5.2986005118
 31
0.0
  0
SPLINE
  5
27A
100
AcDbEntity
  8
RACCORDO
100
AcDbSpline
 62
253
  6
CONTINUOUS
 70
0
 71
3
 72
11
 73
7
 74
5
 42
0.0000001
 43
0.0000001
 44
0.0000000001
 12
0.0848731424
 22
0.0448360671
 32
0.0
 13
0.0860674104
 23
-0.0415414962
 33
0.0
 40
0.0
 40
0.0
 40
0.0
 40
0.0
 40
0.1417261052
 40
0.4040385915
 40
0.6876714638
 40
1.0
 40
1.0
 40
1.0
 40
1.0
 10
-17.6315995271
 20
16.0216302332
 30
0.0
 10
-17.6275899471
 20
16.0237483803
 30
0.0
 10
-17.6156284644
 20
16.0287865626
 30
0.0
 10
-17.5936316783
 20
16.0320741691
 30
0.0
 10
-17.5662407629
 20
16.0284779869
 30
0.0
 10
-17.5483265179
 20
16.0217300179
 30
0.0
 10
-17.5393660818
 20
16.017405153
 30
0.0
 11
-17.6315995271
 21
16.0216302332
 31
0.0
 11
-17.6190799551
 21
16.0269006656
 31
0.0
 11
-17.5943229108
 21
16.0308416128
 31
0.0
 11
-17.5674068972
 21
16.0276353786
 31
0.0
 11
-17.5393660818
 21
16.017405153
 31
0.0
  0
SPLINE
  5
27B
100
AcDbEntity
  8
RACCORDO
100
AcDbSpline
 62
253
  6
CONTINUOUS
 70
0
 71
3
 72
11
 73
7
 74
5
 42
0.0000001
 43
0.0000001
 44
0.0000000001
 12
0.0863010479
 22
-14.5967938161
 32
0.0
 13
0.5071845942
 23
-14.5881783618
 33
0.0
 40
0.0
 40
0.0
 40
0.0
 40
0.0
 40
0.1097567126
 40
0.4077354704
 40
0.7044796212
 40
1.0
 40
1.0
 40
1.0
 40
1.0
 10
13.105175217
 20
-2.5902089056
 30
0.0
 10
13.1083325901
 20
-3.1242409399
 30
0.0
 10
13.1231369687
 20
-5.1081003856
 30
0.0
 10
13.1685289801
 20
-8.5356009332
 30
0.0
 10
13.2628924653
 20
-12.8662489245
 30
0.0
 10
13.350485276
 20
-15.7467200925
 30
0.0
 10
13.4004464038
 20
-17.1837547577
 30
0.0
 11
13.105175217
 21
-2.5902089056
 31
0.0
 11
13.1171337964
 21
-4.1922879162
 31
0.0
 11
13.1748139832
 21
-8.5414990831
 31
0.0
 11
13.2692514205
 21
-12.8720415755
 31
0.0
 11
13.4004464038
 21
-17.1837547577
 31
0.0
  0
SPLINE
  5
27C
100
AcDbEntity
  8
RACCORDO
100
AcDbSpline
 62
253
  6
CONTINUOUS
 70
0
 71
3
 72
18
 73
14
 74
12
 42
0.0000001
 43
0.0000001
 44
0.0000000001
 12
-0.3882309728
 22
-0.191513095
 32
0.0
 13
-0.3872041051
 23
0.1935808226
 33
0.0
 40
0.0
 40
0.0
 40
0.0
 40
0.0
 40
0.0815058463
 40
0.1686857655
 40
0.2604735908
 40
0.3556364595
 40
0.4528302513
 40
0.5506259444
 40
0.6475681924
 40
0.7422356527
 40
0.8333027824
 40
0.9195656467
 40
1.0
 40
1.0
 40
1.0
 40
1.0
 10
13.656931958
 20
0.4192561331
 30
0.0
 10
13.64638426
 20
0.4140529875
 30
0.0
 10
13.6239296761
 20
0.4045252055
 30
0.0
 10
13.5880528833
 20
0.3931676934
 30
0.0
 10
13.549427651
 20
0.3844329346
 30
0.0
 10
13.5088191833
 20
0.3784982147
 30
0.0
 10
13.4670231302
 20
0.3754799386
 30
0.0
 10
13.424862261
 20
0.3754386667
 30
0.0
 10
13.3831681542
 20
0.3783751914
 30
0.0
 10
13.3427615644
 20
0.3842305043
 30
0.0
 10
13.3044337668
 20
0.3928897803
 30
0.0
 10
13.2689435191
 20
0.4041773685
 30
0.0
 10
13.2467851469
 20
0.4136737744
 30
0.0
 10
13.236403643
 20
0.4188639571
 30
0.0
 11
13.656931958
 21
0.4192561331
 31
0.0
 11
13.6245029591
 21
0.4053528978
 31
0.0
 11
13.5885531914
 21
0.393867176
 31
0.0
 11
13.5498124349
 21
0.3850351678
 31
0.0
 11
13.5090560546
 21
0.3790342049
 31
0.0
 11
13.4670918276
 21
0.3759833137
 31
0.0
 11
13.4247563001
 21
0.375943818
 31
0.0
 11
13.3828956303
 21
0.3789165508
 31
0.0
 11
13.3423448908
 21
0.3848417346
 31
0.0
 11
13.3039077266
 21
0.3936018049
 31
0.0
 11
13.2683534604
 21
0.4050208449
 31
0.0
 11
13.236403643
 21
0.4188639571
 31
0.0
  0
SPLINE
  5
27D
100
AcDbEntity
  8
RACCORDO
100
AcDbSpline
 62
253
  6
CONTINUOUS
 70
0
 71
3
 72
15
 73
11
 74
9
 42
0.0000001
 43
0.0000001
 44
0.0000000001
 12
-0.1789959988
 22
0.0895078148
 32
0.0
 13
0.1157339158
 23
0.1637428384
 33
0.0
 40
0.0
 40
0.0
 40
0.0
 40
0.0
 40
0.1599713654
 40
0.3053224785
 40
0.4364228428
 40
0.5551938112
 40
0.6653586915
 40
0.7722663983
 40
0.8819989458
 40
1.0
 40
1.0
 40
1.0
 40
1.0
 10
-17.535694986
 20
15.8049132716
 30
0.0
 10
-17.5452397308
 20
15.8096861674
 30
0.0
 10
-17.5629920321
 20
15.8197927266
 30
0.0
 10
-17.5862018543
 20
15.8375403218
 30
0.0
 10
-17.6043199042
 20
15.8568977187
 30
0.0
 10
-17.616925818
 20
15.877581663
 30
0.0
 10
-17.6235990606
 20
15.8992484455
 30
0.0
 10
-17.6239876799
 20
15.9213437193
 30
0.0
 10
-17.6180715615
 20
15.943150184
 30
0.0
 10
-17.6105036638
 20
15.9564764872
 30
0.0
 10
-17.6059514225
 20
15.9629170964
 30
0.0
 11
-17.535694986
 21
15.8049132716
 31
0.0
 11
-17.5634262984
 21
15.8209107243
 31
0.0
 11
-17.5863988542
 21
15.8387550953
 31
0.0
 11
-17.6041401957
 21
15.8580842777
 31
0.0
 11
-17.6162940741
 21
15.878511403
 31
0.0
 11
-17.6226193488
 21
15.8996316424
 31
0.0
 11
-17.6229888975
 21
15.9210236762
 31
0.0
 11
-17.6173954208
 21
15.9422599425
 31
0.0
 11
-17.6059514225
 21
15.9629170964
 31
0.0
  0
SPLINE
  5
27E
100
AcDbEntity
  8
RACCORDO
100
AcDbSpline
 62
253
  6
CONTINUOUS
 70
0
 71
3
 72
10
 73
6
 74
4
 42
0.0000001
 43
0.0000001
 44
0.0000000001
 12
0.0501513692
 22
0.070955238
 32
0.0
 13
0.0766665532
 23
0.0405335632
 33
0.0
 40
0.0
 40
0.0
 40
0.0
 40
0.0
 40
0.300285628
 40
0.633260842
 40
1.0
 40
1.0
 40
1.0
 40
1.0
 10
-17.6059514225
 20
15.9629170964
 30
0.0
 10
-17.6009315107
 20
15.9700193758
 30
0.0
 10
-17.5887273021
 20
15.9838060109
 30
0.0
 10
-17.5661306706
 20
16.0020049732
 30
0.0
 10
-17.5487382908
 20
16.0124500714
 30
0.0
 10
-17.5393660818
 20
16.017405153
 30
0.0
 11
-17.6059514225
 21
15.9629170964
 31
0.0
 11
-17.5888838955
 21
15.9825857193
 31
0.0
 11
-17.5665355529
 21
16.0008721537
 31
0.0
 11
-17.5393660818
 21
16.017405153
 31
0.0
  0
SPLINE
  5
27F
100
AcDbEntity
  8
RACCORDO
100
AcDbSpline
 62
253
  6
CONTINUOUS
 70
0
 71
3
 72
12
 73
8
 74
6
 42
0.0000001
 43
0.0000001
 44
0.0000000001
 12
0.0082126279
 22
-0.2416880773
 32
0.0
 13
0.2155430831
 23
-0.1079545116
 33
0.0
 40
0.0
 40
0.0
 40
0.0
 40
0.0
 40
0.1608842159
 40
0.340588146
 40
0.5377905622
 40
0.7570801002
 40
1.0
 40
1.0
 40
1.0
 40
1.0
 10
-17.5285433841
 20
-1.6148559953
 30
0.0
 10
-17.5281029567
 20
-1.6278172609
 30
0.0
 10
-17.5232312099
 20
-1.6551317726
 30
0.0
 10
-17.5040378272
 20
-1.6944103657
 30
0.0
 10
-17.4731179786
 20
-1.7314899674
 30
0.0
 10
-17.4317837983
 20
-1.7650517645
 30
0.0
 10
-17.3995333123
 20
-1.7837615406
 30
0.0
 10
-17.3820800776
 20
-1.7925029736
 30
0.0
 11
-17.5285433841
 21
-1.6148559953
 31
0.0
 11
-17.5218751759
 21
-1.6530782447
 31
0.0
 11
-17.5032766635
 21
-1.6922032694
 31
0.0
 11
-17.4732530299
 21
-1.7290614535
 31
0.0
 11
-17.4325272659
 21
-1.7627652254
 31
0.0
 11
-17.3820800776
 21
-1.7925029736
 31
0.0
  0
SPLINE
  5
280
100
AcDbEntity
  8
RACCORDO
100
AcDbSpline
 62
253
  6
CONTINUOUS
 70
0
 71
3
 72
15
 73
11
 74
9
 42
0.0000001
 43
0.0000001
 44
0.0000000001
 12
-0.6906319167
 22
0.4531392479
 32
0.0
 13
-0.0278627905
 23
0.8244969658
 33
0.0
 40
0.0
 40
0.0
 40
0.0
 40
0.0
 40
0.038959054
 40
0.1576959601
 40
0.2807100257
 40
0.4095877143
 40
0.5454719305
 40
0.6890542008
 40
0.8405963456
 40
1.0
 40
1.0
 40
1.0
 40
1.0
 10
-17.0537001937
 20
-2.5163129728
 30
0.0
 10
-17.0626689824
 20
-2.5104283473
 30
0.0
 10
-17.0982867425
 20
-2.485564944
 30
0.0
 10
-17.156347336
 20
-2.4341495469
 30
0.0
 10
-17.2210023204
 20
-2.3548321081
 30
0.0
 10
-17.2755645718
 20
-2.2628010726
 30
0.0
 10
-17.3195131459
 20
-2.1591417529
 30
0.0
 10
-17.3524403155
 20
-2.0450179571
 30
0.0
 10
-17.3740419497
 20
-1.9216973169
 30
0.0
 10
-17.3805999886
 20
-1.8363005996
 30
0.0
 10
-17.3820804655
 20
-1.7924913231
 30
0.0
 11
-17.0537001937
 21
-2.5163129728
 31
0.0
 11
-17.0800846888
 21
-2.4978978663
 31
0.0
 11
-17.1535738665
 21
-2.433134087
 31
0.0
 11
-17.2179524191
 21
-2.3546858592
 31
0.0
 11
-17.2725035317
 21
-2.263427426
 31
0.0
 11
-17.3166212023
 21
-2.1603737562
 31
0.0
 11
-17.3498154926
 21
-2.0466692567
 31
0.0
 11
-17.3717159762
 21
-1.9235850988
 31
0.0
 11
-17.3820804655
 21
-1.7924913231
 31
0.0
  0
SPLINE
  5
281
100
AcDbEntity
  8
RACCORDO
100
AcDbSpline
 62
253
  6
CONTINUOUS
 70
0
 71
3
 72
27
 73
23
 74
21
 42
0.0000001
 43
0.0000001
 44
0.0000000001
 12
-2.3359061049
 22
-0.9433573678
 32
0.0
 13
-0.0203407198
 23
2.5155944729
 33
0.0
 40
0.0
 40
0.0
 40
0.0
 40
0.0
 40
0.0239838824
 40
0.0607372915
 40
0.0990134258
 40
0.1393347281
 40
0.1820412699
 40
0.2273093506
 40
0.2751736607
 40
0.3255438967
 40
0.3782190701
 40
0.432910899
 40
0.4892860073
 40
0.5469672895
 40
0.6054966056
 40
0.6643481779
 40
0.7230885256
 40
0.7814073547
 40
0.8388829676
 40
0.8948702966
 40
0.9487481548
 40
1.0
 40
1.0
 40
1.0
 40
1.0
 10
-1.6430163058
 20
3.1217207192
 30
0.0
 10
-1.6616910049
 20
3.1141789285
 30
0.0
 10
-1.710162519
 20
3.0979915099
 30
0.0
 10
-1.7924088376
 20
3.0838274415
 30
0.0
 10
-1.8895578073
 20
3.0837009201
 30
0.0
 10
-1.9904552445
 20
3.0991763959
 30
0.0
 10
-2.0938565591
 20
3.1299450183
 30
0.0
 10
-2.1985116806
 20
3.1755461034
 30
0.0
 10
-2.303164494
 20
3.2353722036
 30
0.0
 10
-2.4065488195
 20
3.3086631107
 30
0.0
 10
-2.5073956784
 20
3.3944983094
 30
0.0
 10
-2.6044649623
 20
3.4918109962
 30
0.0
 10
-2.696567578
 20
3.5994099826
 30
0.0
 10
-2.782555565
 20
3.7159692839
 30
0.0
 10
-2.861314584
 20
3.8399912793
 30
0.0
 10
-2.9318401733
 20
3.969882011
 30
0.0
 10
-2.9933039655
 20
4.1041043553
 30
0.0
 10
-3.04498747
 20
4.2411596498
 30
0.0
 10
-3.0861809007
 20
4.3793236586
 30
0.0
 10
-3.1162520948
 20
4.516529804
 30
0.0
 10
-3.134806581
 20
4.6504944478
 30
0.0
 10
-3.1395938842
 20
4.7386537382
 30
0.0
 10
-3.139941384
 20
4.7816300244
 30
0.0
 11
-1.6430163058
 21
3.1217207192
 31
0.0
 11
-1.7002805787
 21
3.1025640724
 31
0.0
 11
-1.7913518443
 21
3.0866009954
 31
0.0
 11
-1.887640929
 21
3.0861016352
 31
0.0
 11
-1.9879657881
 21
3.1010701053
 31
0.0
 11
-2.0910555942
 21
3.1313183166
 31
0.0
 11
-2.1956057884
 21
3.1764611849
 31
0.0
 11
-2.3003061562
 21
3.2359311205
 31
0.0
 11
-2.4038435792
 21
3.3089841929
 31
0.0
 11
-2.5049042421
 21
3.3946966477
 31
0.0
 11
-2.6022007917
 21
3.4919774422
 31
0.0
 11
-2.6945292688
 21
3.5996287473
 31
0.0
 11
-2.7807490108
 21
3.716343487
 31
0.0
 11
-2.8597263233
 21
3.8406111347
 31
0.0
 11
-2.9303815623
 21
3.9707152955
 31
0.0
 11
-2.9918807155
 21
4.1050817226
 31
0.0
 11
-3.0435829308
 21
4.2423810029
 31
0.0
 11
-3.0847879773
 21
4.3809754824
 31
0.0
 11
-3.1147898015
 21
4.5185890418
 31
0.0
 11
-3.1331865387
 21
4.6528740169
 31
0.0
 11
-3.139941384
 21
4.7816300244
 31
0.0
  0
SPLINE
  5
282
100
AcDbEntity
  8
RACCORDO
100
AcDbSpline
 62
253
  6
CONTINUOUS
 70
0
 71
3
 72
11
 73
7
 74
5
 42
0.0000001
 43
0.0000001
 44
0.0000000001
 12
-0.5827888803
 22
17.3474269095
 32
0.0
 13
-0.0096986814
 23
17.3572108702
 33
0.0
 40
0.0
 40
0.0
 40
0.0
 40
0.0
 40
0.2483881815
 40
0.4978455333
 40
0.74837995
 40
1.0
 40
1.0
 40
1.0
 40
1.0
 10
-17.38208047
 20
-1.7924913209
 30
0.0
 10
-17.4303330934
 20
-0.3561927133
 30
0.0
 10
-17.5149288335
 20
2.5230081664
 30
0.0
 10
-17.606051916
 20
6.8520271437
 30
0.0
 10
-17.6616848796
 20
11.2003475719
 30
0.0
 10
-17.6750599034
 20
14.1056887471
 30
0.0
 10
-17.6758733643
 20
15.5614961695
 30
0.0
 11
-17.38208047
 21
-1.7924913209
 31
0.0
 11
-17.5087784153
 21
2.5169733425
 31
0.0
 11
-17.5999787733
 21
6.8458972951
 31
0.0
 11
-17.6556818273
 21
11.1941198956
 31
0.0
 11
-17.6758733643
 21
15.5614961695
 31
0.0
  0
SPLINE
  5
283
100
AcDbEntity
  8
RACCORDO
100
AcDbSpline
 62
253
  6
CONTINUOUS
 70
0
 71
3
 72
35
 73
31
 74
29
 42
0.0000001
 43
0.0000001
 44
0.0000000001
 12
-0.0265786962
 22
3.5497544195
 32
0.0
 13
0.2326267247
 23
-3.5437530382
 33
0.0
 40
0.0
 40
0.0
 40
0.0
 40
0.0
 40
0.0373186322
 40
0.073137791
 40
0.1072027341
 40
0.139393471
 40
0.1697606819
 40
0.1986287705
 40
0.2264981959
 40
0.2539054553
 40
0.2813928778
 40
0.3095133377
 40
0.338772947
 40
0.3695685413
 40
0.4021606344
 40
0.4366868582
 40
0.4731779546
 40
0.511569755
 40
0.5517136246
 40
0.5933939517
 40
0.6363601138
 40
0.6803273425
 40
0.7249482001
 40
0.7698226914
 40
0.8146202157
 40
0.8591032323
 40
0.9029482898
 40
0.9456605011
 40
0.9867626688
 40
1.0
 40
1.0
 40
1.0
 40
1.0
 10
-3.2801150342
 20
4.781463529
 30
0.0
 10
-3.2804456611
 20
4.8256208556
 30
0.0
 10
-3.2772792631
 20
4.9122565551
 30
0.0
 10
-3.2599818234
 20
5.038153909
 30
0.0
 10
-3.2301571646
 20
5.1554949114
 30
0.0
 10
-3.1880908944
 20
5.2621765677
 30
0.0
 10
-3.1343339716
 20
5.3565264701
 30
0.0
 10
-3.0695448
 20
5.4372920007
 30
0.0
 10
-2.9944251923
 20
5.5034460915
 30
0.0
 10
-2.9098927918
 20
5.5540013196
 30
0.0
 10
-2.8171917254
 20
5.5881425174
 30
0.0
 10
-2.7177421069
 20
5.6054162474
 30
0.0
 10
-2.6129517398
 20
5.6057187876
 30
0.0
 10
-2.5041858905
 20
5.5891903853
 30
0.0
 10
-2.3927967294
 20
5.5561570887
 30
0.0
 10
-2.2801384482
 20
5.5071123036
 30
0.0
 10
-2.1675669754
 20
5.4427103107
 30
0.0
 10
-2.056444416
 20
5.3637720462
 30
0.0
 10
-1.9481315795
 20
5.2712928872
 30
0.0
 10
-1.8439543356
 20
5.1664272773
 30
0.0
 10
-1.7451803829
 20
5.0504648367
 30
0.0
 10
-1.6530304573
 20
4.9248412544
 30
0.0
 10
-1.5686869751
 20
4.7911776678
 30
0.0
 10
-1.4932129889
 20
4.651199009
 30
0.0
 10
-1.4274822312
 20
4.5065685022
 30
0.0
 10
-1.3722512923
 20
4.3589073221
 30
0.0
 10
-1.3282678494
 20
4.2100791758
 30
0.0
 10
-1.2961986176
 20
4.0623150573
 30
0.0
 10
-1.2806087594
 20
3.9484218856
 30
0.0
 10
-1.2754769298
 20
3.8842909434
 30
0.0
 10
-1.2744504774
 20
3.8686543325
 30
0.0
 11
-3.2801150342
 21
4.781463529
 31
0.0
 11
-3.2749662813
 21
4.9138391294
 31
0.0
 11
-3.2572968195
 21
5.03975823
 31
0.0
 11
-3.2271018352
 21
5.1568533063
 31
0.0
 11
-3.1847689611
 21
5.26299525
 31
0.0
 11
-3.1310266482
 21
5.3564426862
 31
0.0
 11
-3.0666144191
 21
5.4361465269
 31
0.0
 11
-2.9922052863
 21
5.5013454423
 31
0.0
 11
-2.9086704665
 21
5.5512215069
 31
0.0
 11
-2.8171493449
 21
5.5850597314
 31
0.0
 11
-2.7188481521
 21
5.6024267001
 31
0.0
 11
-2.6149831364
 21
5.6031213814
 31
0.0
 11
-2.5068388486
 21
5.587132477
 31
0.0
 11
-2.3957929081
 21
5.5546573468
 31
0.0
 11
-2.2832557422
 21
5.506107498
 31
0.0
 11
-2.1706401657
 21
5.4420931141
 31
0.0
 11
-2.0593582856
 21
5.3634164239
 31
0.0
 11
-1.9508190696
 21
5.2710753312
 31
0.0
 11
-1.8463993406
 21
5.1662497269
 31
0.0
 11
-1.74738299
 21
5.0502358891
 31
0.0
 11
-1.6549832333
 21
4.9244488087
 31
0.0
 11
-1.5704035246
 21
4.7905232727
 31
0.0
 11
-1.4947877054
 21
4.65031605
 31
0.0
 11
-1.4290158197
 21
4.5055303327
 31
0.0
 11
-1.373761543
 21
4.3576047839
 31
0.0
 11
-1.329762955
 21
4.2083096446
 31
0.0
 11
-1.2977656402
 21
4.0601022345
 31
0.0
 11
-1.2781906556
 21
3.9155146054
 31
0.0
 11
-1.2744504774
 21
3.8686543325
 31
0.0
  0
SPLINE
  5
284
100
AcDbEntity
  8
RACCORDO
100
AcDbSpline
 62
253
  6
CONTINUOUS
 70
0
 71
3
 72
35
 73
31
 74
29
 42
0.0000001
 43
0.0000001
 44
0.0000000001
 12
0.0263151292
 22
-3.6381979046
 32
0.0
 13
-0.0273795849
 23
3.6381900496
 33
0.0
 40
0.0
 40
0.0
 40
0.0
 40
0.0
 40
0.036394611
 40
0.0713135783
 40
0.1045056511
 40
0.1358523689
 40
0.1654036856
 40
0.1934785284
 40
0.220569828
 40
0.2472079486
 40
0.2739299579
 40
0.3012821942
 40
0.3297629887
 40
0.3597612802
 40
0.3915305824
 40
0.4252027557
 40
0.4608043668
 40
0.4982689741
 40
0.5374477412
 40
0.5781268262
 40
0.6200587643
 40
0.6629634695
 40
0.7065004883
 40
0.7502790032
 40
0.7939768102
 40
0.8373632117
 40
0.8801244777
 40
0.9217806371
 40
0.9618695396
 40
1.0
 40
1.0
 40
1.0
 40
1.0
 10
-1.2710722622
 20
3.776942143
 30
0.0
 10
-1.2707530192
 20
3.7328052105
 30
0.0
 10
-1.2739172957
 20
3.6462274582
 30
0.0
 10
-1.2911361482
 20
3.5204332595
 30
0.0
 10
-1.3208098946
 20
3.4032262728
 30
0.0
 10
-1.3626619976
 20
3.2967021084
 30
0.0
 10
-1.41615547
 20
3.2025253146
 30
0.0
 10
-1.4806485959
 20
3.1219416123
 30
0.0
 10
-1.5554566485
 20
3.0559730541
 30
0.0
 10
-1.6396770753
 20
3.0056030647
 30
0.0
 10
-1.7320775219
 20
2.971640761
 30
0.0
 10
-1.8312484777
 20
2.9545294961
 30
0.0
 10
-1.9357943309
 20
2.954361241
 30
0.0
 10
-2.044363223
 20
2.9709860894
 30
0.0
 10
-2.1556150425
 20
3.0040721682
 30
0.0
 10
-2.2682042114
 20
3.0531238529
 30
0.0
 10
-2.3807791275
 20
3.1174874377
 30
0.0
 10
-2.4919777259
 20
3.1963447588
 30
0.0
 10
-2.6004352288
 20
3.2887050847
 30
0.0
 10
-2.7048181741
 20
3.3934202018
 30
0.0
 10
-2.803848191
 20
3.5092079785
 30
0.0
 10
-2.8962913382
 20
3.6346411511
 30
0.0
 10
-2.9809500593
 20
3.7681077085
 30
0.0
 10
-3.0567451681
 20
3.9078920122
 30
0.0
 10
-3.1227869712
 20
4.0523395908
 30
0.0
 10
-3.1783037293
 20
4.1998372812
 30
0.0
 10
-3.2225335994
 20
4.3485288919
 30
0.0
 10
-3.2547974238
 20
4.4961901446
 30
0.0
 10
-3.2746733875
 20
4.6403549966
 30
0.0
 10
-3.2797670355
 20
4.7352215751
 30
0.0
 10
-3.2801150342
 20
4.781463529
 30
0.0
 11
-1.2710722622
 21
3.776942143
 31
0.0
 11
-1.2762189427
 21
3.6446279404
 31
0.0
 11
-1.2938122368
 21
3.5188065628
 31
0.0
 11
-1.3238605097
 21
3.4018421244
 31
0.0
 11
-1.3659845899
 21
3.2958580087
 31
0.0
 11
-1.4194684541
 21
3.2025882816
 31
0.0
 11
-1.4835862592
 21
3.1230747155
 31
0.0
 11
-1.5576792567
 21
3.0580708595
 31
0.0
 11
-1.6408919858
 21
3.0083858241
 31
0.0
 11
-1.7321015911
 21
2.9747254216
 31
0.0
 11
-1.8301174559
 21
2.9575145114
 31
0.0
 11
-1.9337373768
 21
2.956946589
 31
0.0
 11
-2.0416889019
 21
2.9730267068
 31
0.0
 11
-2.1526040763
 21
3.0055529245
 31
0.0
 11
-2.2650790083
 21
3.0541111609
 31
0.0
 11
-2.3777040058
 21
3.118090817
 31
0.0
 11
-2.4890665018
 21
3.1966914087
 31
0.0
 11
-2.597753435
 21
3.2889188231
 31
0.0
 11
-2.7023804742
 21
3.3935988259
 31
0.0
 11
-2.801653219
 21
3.5094421819
 31
0.0
 11
-2.8943455275
 21
3.6350419912
 31
0.0
 11
-2.9792389642
 21
3.768772324
 31
0.0
 11
-3.0551735193
 21
3.9087857686
 31
0.0
 11
-3.1212534528
 21
4.0533880122
 31
0.0
 11
-3.1767905376
 21
4.2011480415
 31
0.0
 11
-3.2210328358
 21
4.350302789
 31
0.0
 11
-3.253222421
 21
4.4984022511
 31
0.0
 11
-3.2729294011
 21
4.6429199571
 31
0.0
 11
-3.2801150342
 21
4.781463529
 31
0.0
  0
SPLINE
  5
285
100
AcDbEntity
  8
RACCORDO
100
AcDbSpline
 62
253
  6
CONTINUOUS
 70
0
 71
3
 72
16
 73
12
 74
10
 42
0.0000001
 43
0.0000001
 44
0.0000000001
 12
-0.006771845
 22
0.8394282561
 32
0.0
 13
0.7599401454
 23
0.3592988648
 33
0.0
 40
0.0
 40
0.0
 40
0.0
 40
0.0
 40
0.1466521217
 40
0.2873813802
 40
0.4212106824
 40
0.5476712646
 40
0.6669654953
 40
0.7803717525
 40
0.8898601215
 40
0.9975420437
 40
1.0
 40
1.0
 40
1.0
 40
1.0
 10
-3.139941384
 20
4.7816300244
 30
0.0
 10
-3.1402724192
 20
4.8226646693
 30
0.0
 10
-3.1373736113
 20
4.9031673648
 30
0.0
 10
-3.1213594627
 20
5.0201516384
 30
0.0
 10
-3.0936961238
 20
5.1291777338
 30
0.0
 10
-3.0546486066
 20
5.2282980023
 30
0.0
 10
-3.004727756
 20
5.3159583317
 30
0.0
 10
-2.9445454253
 20
5.3909945964
 30
0.0
 10
-2.874753936
 20
5.4524519489
 30
0.0
 10
-2.8217026639
 20
5.4841694349
 30
0.0
 10
-2.7938307704
 20
5.4974197767
 30
0.0
 10
-2.7932081372
 20
5.497714157
 30
0.0
 11
-3.139941384
 21
4.7816300244
 31
0.0
 11
-3.1352234853
 21
4.904647529
 31
0.0
 11
-3.1188636593
 21
5.0216452262
 31
0.0
 11
-3.0908561067
 21
5.1304418065
 31
0.0
 11
-3.05156069
 21
5.2290592477
 31
0.0
 11
-3.0016538206
 21
5.3158795559
 31
0.0
 11
-2.9418226861
 21
5.3899280731
 31
0.0
 11
-2.8726928465
 21
5.4504972696
 31
0.0
 11
-2.7950741553
 21
5.4968270469
 31
0.0
 11
-2.7932081372
 21
5.497714157
 31
0.0
  0
SPLINE
  5
286
100
AcDbEntity
  8
RACCORDO
100
AcDbSpline
 62
253
  6
CONTINUOUS
 70
0
 71
3
 72
15
 73
11
 74
9
 42
0.0000001
 43
0.0000001
 44
0.0000000001
 12
-0.0021357325
 22
0.2936488918
 32
0.0
 13
-0.260755194
 23
0.1350591048
 33
0.0
 40
0.0
 40
0.0
 40
0.0
 40
0.0
 40
0.1197683134
 40
0.2470068581
 40
0.378956534
 40
0.5124548357
 40
0.6442133866
 40
0.7710854443
 40
0.89034471
 40
1.0
 40
1.0
 40
1.0
 40
1.0
 10
13.7970977505
 20
0.1747407267
 30
0.0
 10
13.7970124862
 20
0.1864640042
 30
0.0
 10
13.794875882
 20
0.2106506017
 30
0.0
 10
13.786660442
 20
0.2469186733
 30
0.0
 10
13.7736291019
 20
0.283179218
 30
0.0
 10
13.7562696564
 20
0.3180669203
 30
0.0
 10
13.7352325573
 20
0.3502800823
 30
0.0
 10
13.7112957513
 20
0.3786179861
 30
0.0
 10
13.6853551356
 20
0.4020200221
 30
0.0
 10
13.6664630201
 20
0.4143194847
 30
0.0
 10
13.656931958
 20
0.4192561331
 30
0.0
 11
13.7970977505
 21
0.1747407267
 31
0.0
 11
13.7941838576
 21
0.2097905737
 31
0.0
 11
13.7860438778
 21
0.2462575799
 31
0.0
 11
13.7729905703
 21
0.2827406032
 31
0.0
 11
13.7555254754
 21
0.3178378882
 31
0.0
 11
13.7343196436
 21
0.3502009259
 31
0.0
 11
13.7101878509
 21
0.3785862663
 31
0.0
 11
13.6840572926
 21
0.4019032945
 31
0.0
 11
13.656931958
 21
0.4192561331
 31
0.0
  0
SPLINE
  5
287
100
AcDbEntity
  8
RACCORDO
100
AcDbSpline
 62
253
  6
CONTINUOUS
 70
0
 71
3
 72
15
 73
11
 74
9
 42
0.0000001
 43
0.0000001
 44
0.0000000001
 12
-0.0001666693
 22
0.2930800153
 32
0.0
 13
0.2610133734
 23
0.1332964443
 33
0.0
 40
0.0
 40
0.0
 40
0.0
 40
0.0
 40
0.1196245243
 40
0.2464902617
 40
0.3779799486
 40
0.5110733545
 40
0.6426177128
 40
0.7695882173
 40
0.8893581041
 40
1.0
 40
1.0
 40
1.0
 40
1.0
 10
13.0962164387
 20
0.1754512681
 30
0.0
 10
13.0962097927
 20
0.1871377872
 30
0.0
 10
13.09817447
 20
0.2112436463
 30
0.0
 10
13.1062025152
 20
0.2473850195
 30
0.0
 10
13.1191118002
 20
0.283484406
 30
0.0
 10
13.1364235259
 20
0.3181963966
 30
0.0
 10
13.1574956095
 20
0.3502393042
 30
0.0
 10
13.1815568962
 20
0.3784301439
 30
0.0
 10
13.2077159547
 20
0.4017229248
 30
0.0
 10
13.2267773048
 20
0.4139479
 30
0.0
 10
13.236403643
 20
0.4188639571
 30
0.0
 11
13.0962164387
 21
0.1754512681
 31
0.0
 11
13.0988870713
 21
0.2104089666
 31
0.0
 11
13.106835609
 21
0.2467312512
 31
0.0
 11
13.1197596993
 21
0.283036467
 31
0.0
 11
13.1371677257
 21
0.3179436084
 31
0.0
 11
13.1583975082
 21
0.3501248507
 31
0.0
 11
13.1826414923
 21
0.3783560593
 31
0.0
 11
13.2089774665
 21
0.4015633537
 31
0.0
 11
13.236403643
 21
0.4188639571
 31
0.0
  0
SPLINE
  5
288
100
AcDbEntity
  8
RACCORDO
100
AcDbSpline
 62
253
  6
CONTINUOUS
 70
0
 71
3
 72
15
 73
11
 74
9
 42
0.0000001
 43
0.0000001
 44
0.0000000001
 12
-0.0001666709
 22
0.2930800157
 32
0.0
 13
0.2610133746
 23
0.1332964427
 33
0.0
 40
0.0
 40
0.0
 40
0.0
 40
0.0
 40
0.1196246505
 40
0.246490508
 40
0.3779802849
 40
0.5110737329
 40
0.6426180747
 40
0.7695885032
 40
0.8893582639
 40
1.0
 40
1.0
 40
1.0
 40
1.0
 10
-17.6758821903
 20
15.5615005826
 30
0.0
 10
-17.6758888363
 20
15.573187114
 30
0.0
 10
-17.6739241552
 20
15.5972929973
 30
0.0
 10
-17.6658960959
 20
15.6334344013
 30
0.0
 10
-17.6529867929
 20
15.6695338078
 30
0.0
 10
-17.6356750511
 20
15.7042458031
 30
0.0
 10
-17.6146029591
 20
15.7362886994
 30
0.0
 10
-17.5905416768
 20
15.7644795147
 30
0.0
 10
-17.5643826382
 20
15.7877722645
 30
0.0
 10
-17.5453213103
 20
15.7999972217
 30
0.0
 10
-17.535694986
 20
15.8049132716
 30
0.0
 11
-17.6758821903
 21
15.5615005826
 31
0.0
 11
-17.6732115524
 21
15.5964583178
 31
0.0
 11
-17.6652630003
 21
15.6327806353
 31
0.0
 11
-17.6523388914
 21
15.6690858726
 31
0.0
 11
-17.6349308483
 21
15.7039930195
 31
0.0
 11
-17.6137010572
 21
15.7361742505
 31
0.0
 11
-17.5894570781
 21
15.764405434
 31
0.0
 11
-17.5631211251
 21
15.7876126966
 31
0.0
 11
-17.535694986
 21
15.8049132716
 31
0.0
  0
SPLINE
  5
289
100
AcDbEntity
  8
RACCORDO
100
AcDbSpline
 62
253
  6
CONTINUOUS
 70
0
 71
3
 72
15
 73
11
 74
9
 42
0.0000001
 43
0.0000001
 44
0.0000000001
 12
0.0310030236
 22
-0.8966590918
 32
0.0
 13
0.8026012519
 23
-0.403328152
 33
0.0
 40
0.0
 40
0.0
 40
0.0
 40
0.0
 40
0.1467283743
 40
0.2864554442
 40
0.4191430606
 40
0.5450788269
 40
0.6649335652
 40
0.7797721103
 40
0.8910363149
 40
1.0
 40
1.0
 40
1.0
 40
1.0
 10
13.4004463994
 20
-17.1837547555
 30
0.0
 10
13.4019627405
 20
-17.2276098658
 30
0.0
 10
13.4086870438
 20
-17.3131627254
 30
0.0
 10
13.4308150717
 20
-17.4367648842
 30
0.0
 10
13.464542693
 20
-17.551299632
 30
0.0
 10
13.5095567958
 20
-17.6554891583
 30
0.0
 10
13.5654341579
 20
-17.7481579327
 30
0.0
 10
13.6316303981
 20
-17.8282097678
 30
0.0
 10
13.7073435577
 20
-17.8945455255
 30
0.0
 10
13.7637282772
 20
-17.9291974614
 30
0.0
 10
13.7928797406
 20
-17.9438468353
 30
0.0
 11
13.4004463994
 21
-17.1837547555
 31
0.0
 11
13.411054955
 21
-17.3149705641
 31
0.0
 11
13.4334711342
 21
-17.4383125699
 31
0.0
 11
13.4674470657
 21
-17.55240789
 31
0.0
 11
13.5126035902
 21
-17.6559809868
 31
0.0
 11
13.5684392428
 21
-17.74788169
 31
0.0
 11
13.6343337458
 21
-17.8270878931
 31
0.0
 11
13.7095534081
 21
-17.8927169147
 31
0.0
 11
13.7928797406
 21
-17.9438468353
 31
0.0
  0
LINE
  5
28A
100
AcDbEntity
  8
RACCORDO
100
AcDbLine
 62
253
  6
CONTINUOUS
 10
13.7928797406
 20
-17.9438468353
 11
13.7937829972
 21
-17.9442997459
  0
SPLINE
  5
28B
100
AcDbEntity
  8
RACCORDO
100
AcDbSpline
 62
253
  6
CONTINUOUS
 70
0
 71
3
 72
13
 73
9
 74
7
 42
0.0000001
 43
0.0000001
 44
0.0000000001
 12
-0.0143798377
 22
-0.3373286778
 32
0.0
 13
-0.3120404767
 23
-0.1310932904
 33
0.0
 40
0.0
 40
0.0
 40
0.0
 40
0.0
 40
0.1990429368
 40
0.3847908933
 40
0.557088006
 40
0.7172159128
 40
0.8680860164
 40
1.0
 40
1.0
 40
1.0
 40
1.0
 10
14.7822179415
 20
-17.6694822707
 30
0.0
 10
14.7812638732
 20
-17.6918632342
 30
0.0
 10
14.7767868145
 20
-17.7350875585
 30
0.0
 10
14.7614967019
 20
-17.7961342589
 30
0.0
 10
14.7381216399
 20
-17.8498993471
 30
0.0
 10
14.7070762377
 20
-17.8950339032
 30
0.0
 10
14.6701368799
 20
-17.9291864639
 30
0.0
 10
14.6421311961
 20
-17.9449128277
 30
0.0
 10
14.628410362
 20
-17.9506771738
 30
0.0
 11
14.7822179415
 21
-17.6694822707
 31
0.0
 11
14.775004179
 21
-17.7362978498
 31
0.0
 11
14.7594253627
 21
-17.7970471209
 31
0.0
 11
14.7358646497
 21
-17.8502359707
 31
0.0
 11
14.7049015099
 21
-17.8945562329
 31
0.0
 11
14.6672974739
 21
-17.9289178616
 31
0.0
 11
14.628410362
 21
-17.9506771738
 31
0.0
  0
SPLINE
  5
28C
100
AcDbEntity
  8
RACCORDO
100
AcDbSpline
 62
253
  6
CONTINUOUS
 70
0
 71
3
 72
17
 73
13
 74
11
 42
0.0000001
 43
0.0000001
 44
0.0000000001
 12
-0.6380553888
 22
-0.3397035049
 32
0.0
 13
-0.6467567984
 23
0.3228293576
 33
0.0
 40
0.0
 40
0.0
 40
0.0
 40
0.0
 40
0.0909939725
 40
0.188357308
 40
0.2907043301
 40
0.3963948789
 40
0.5036318121
 40
0.6105485603
 40
0.7152927759
 40
0.8161107568
 40
0.9114376027
 40
1.0
 40
1.0
 40
1.0
 40
1.0
 10
14.1010302822
 20
-17.1691666026
 30
0.0
 10
14.0816772174
 20
-17.1794702597
 30
0.0
 10
14.0402423189
 20
-17.19827224
 30
0.0
 10
13.9736925106
 20
-17.2204496543
 30
0.0
 10
13.9019275208
 20
-17.2371645237
 30
0.0
 10
13.8266526966
 20
-17.248015131
 30
0.0
 10
13.7496466972
 20
-17.2527451567
 30
0.0
 10
13.6727375166
 20
-17.2512412599
 30
0.0
 10
13.5977503828
 20
-17.2435406376
 30
0.0
 10
13.5264543883
 20
-17.2298247396
 30
0.0
 10
13.4605415269
 20
-17.2104234611
 30
0.0
 10
13.4195397803
 20
-17.1932964903
 30
0.0
 10
13.4004470028
 20
-17.1837663097
 30
0.0
 11
14.1010302822
 21
-17.1691666026
 31
0.0
 11
14.0412502099
 21
-17.1966020024
 31
0.0
 11
13.9745457541
 21
-17.2190461826
 31
0.0
 11
13.9025232057
 21
-17.2359586713
 31
0.0
 11
13.8269169188
 21
-17.2469322038
 31
0.0
 11
13.7495475467
 21
-17.2517025296
 31
0.0
 11
13.672278199
 21
-17.2501547758
 31
0.0
 11
13.5969695765
 21
-17.2423262134
 31
0.0
 11
13.5254351644
 21
-17.2284053599
 31
0.0
 11
13.4593975623
 21
-17.2087274392
 31
0.0
 11
13.4004470028
 21
-17.1837663097
 31
0.0
  0
SPLINE
  5
28D
100
AcDbEntity
  8
RACCORDO
100
AcDbSpline
 62
253
  6
CONTINUOUS
 70
0
 71
3
 72
18
 73
14
 74
12
 42
0.0000001
 43
0.0000001
 44
0.0000000001
 12
-0.6479053051
 22
-0.3171213201
 32
0.0
 13
-0.6452008356
 23
0.3225881239
 33
0.0
 40
0.0
 40
0.0
 40
0.0
 40
0.0
 40
0.0814478825
 40
0.1685621118
 40
0.2603098872
 40
0.3554511858
 40
0.4526394032
 40
0.5504419653
 40
0.6474040962
 40
0.7421014841
 40
0.833203999
 40
0.9194977651
 40
1.0
 40
1.0
 40
1.0
 40
1.0
 10
13.7970977505
 20
0.1747407267
 30
0.0
 10
13.7795075788
 20
0.1661311067
 30
0.0
 10
13.7420690616
 20
0.1503830398
 30
0.0
 10
13.6822693767
 20
0.1316445195
 30
0.0
 10
13.6178977356
 20
0.1172720458
 30
0.0
 10
13.5502226792
 20
0.1075533913
 30
0.0
 10
13.4805708936
 20
0.1026796693
 30
0.0
 10
13.4103123309
 20
0.1027481098
 30
0.0
 10
13.3408312593
 20
0.1077572671
 30
0.0
 10
13.2734939197
 20
0.1176070909
 30
0.0
 10
13.2096193691
 20
0.1321040379
 30
0.0
 10
13.1504624222
 20
0.1509588951
 30
0.0
 10
13.1135209842
 20
0.1667993225
 30
0.0
 10
13.0962076145
 20
0.1754556775
 30
0.0
 11
13.7970977505
 21
0.1747407267
 31
0.0
 11
13.7430277091
 21
0.1517562123
 31
0.0
 11
13.6831129688
 21
0.1328067762
 31
0.0
 11
13.6185464562
 21
0.1182717004
 31
0.0
 11
13.5506236373
 21
0.1084429516
 31
0.0
 11
13.4806902302
 21
0.1035150708
 31
0.0
 11
13.4101402939
 21
0.1035866848
 31
0.0
 11
13.340380538
 21
0.1086563383
 31
0.0
 11
13.2728014161
 21
0.1186225567
 31
0.0
 11
13.2087418094
 21
0.1332880277
 31
0.0
 11
13.1494868292
 21
0.1523582195
 31
0.0
 11
13.0962076145
 21
0.1754556775
 31
0.0
  0
SPLINE
  5
28E
100
AcDbEntity
  8
RACCORDO
100
AcDbSpline
 62
253
  6
CONTINUOUS
 70
0
 71
3
 72
13
 73
9
 74
7
 42
0.0000001
 43
0.0000001
 44
0.0000000001
 12
-0.2160313255
 22
0.1080197792
 32
0.0
 13
-0.0002362808
 23
0.2423598531
 33
0.0
 40
0.0
 40
0.0
 40
0.0
 40
0.0
 40
0.2210036605
 40
0.4216051887
 40
0.6024281035
 40
0.766098461
 40
0.9177523264
 40
1.0
 40
1.0
 40
1.0
 40
1.0
 10
-17.6758733624
 20
15.561496166
 30
0.0
 10
-17.6917879337
 20
15.5694537548
 30
0.0
 10
-17.7213754815
 20
15.5862906547
 30
0.0
 10
-17.7600603506
 20
15.6158318644
 30
0.0
 10
-17.7902514969
 20
15.6480213664
 30
0.0
 10
-17.8112605652
 20
15.6823950853
 30
0.0
 10
-17.8208272548
 20
15.7133423666
 30
0.0
 10
-17.8223135678
 20
15.7322390728
 30
0.0
 10
-17.8223200456
 20
15.7388835841
 30
0.0
 11
-17.6758733624
 21
15.561496166
 31
0.0
 11
-17.7221164123
 21
15.5881598402
 31
0.0
 11
-17.7603990677
 21
15.6178584662
 31
0.0
 11
-17.7899636177
 21
15.6500050734
 31
0.0
 11
-17.8102163022
 21
15.6839547583
 31
0.0
 11
-17.8207561479
 21
15.7190349055
 31
0.0
 11
-17.8223200456
 21
15.7388835841
 31
0.0
  0
SPLINE
  5
28F
100
AcDbEntity
  8
RACCORDO
100
AcDbSpline
 62
253
  6
CONTINUOUS
 70
0
 71
3
 72
21
 73
17
 74
15
 42
0.0000001
 43
0.0000001
 44
0.0000000001
 12
0.0358352392
 22
-1.0301967715
 32
0.0
 13
0.950486531
 23
0.3989547676
 33
0.0
 40
0.0
 40
0.0
 40
0.0
 40
0.0
 40
0.0851410635
 40
0.1662748243
 40
0.2433648649
 40
0.3165846796
 40
0.3863284951
 40
0.4532160408
 40
0.5180814047
 40
0.5819322805
 40
0.645869652
 40
0.710985031
 40
0.7782641362
 40
0.8485122009
 40
0.9223099193
 40
1.0
 40
1.0
 40
1.0
 40
1.0
 10
14.1010302822
 20
-17.1691666026
 30
0.0
 10
14.102047299
 20
-17.1984039521
 30
0.0
 10
14.1065569188
 20
-17.255458782
 30
0.0
 10
14.1213948308
 20
-17.3379015341
 30
0.0
 10
14.1440124923
 20
-17.4143285833
 30
0.0
 10
14.1741992763
 20
-17.4838786525
 30
0.0
 10
14.2116700418
 20
-17.5457661287
 30
0.0
 10
14.2560581769
 20
-17.5992583317
 30
0.0
 10
14.3068959924
 20
-17.6436845476
 30
0.0
 10
14.3635969934
 20
-17.6784615046
 30
0.0
 10
14.4254583791
 20
-17.7031365721
 30
0.0
 10
14.4916960377
 20
-17.7174228369
 30
0.0
 10
14.5614926854
 20
-17.7212023545
 30
0.0
 10
14.6340334753
 20
-17.7144980793
 30
0.0
 10
14.7084927535
 20
-17.6974554911
 30
0.0
 10
14.7576034831
 20
-17.67981388
 30
0.0
 10
14.7822179415
 20
-17.6694822707
 30
0.0
 11
14.1010302822
 21
-17.1691666026
 31
0.0
 11
14.1081412719
 21
-17.2566431493
 31
0.0
 11
14.1231704954
 21
-17.33891597
 31
0.0
 11
14.1459506552
 21
-17.4150467819
 31
0.0
 11
14.1762278464
 21
-17.4841842131
 31
0.0
 11
14.2136657981
 21
-17.5455604924
 31
0.0
 11
14.2578486843
 21
-17.5984928876
 31
0.0
 11
14.3082845884
 21
-17.6423914243
 31
0.0
 11
14.3644128292
 21
-17.6767677014
 31
0.0
 11
14.4256093142
 21
-17.7012389704
 31
0.0
 11
14.4911920315
 21
-17.7155323342
 31
0.0
 11
14.5604317134
 21
-17.7194889337
 31
0.0
 11
14.6325592588
 21
-17.7130644387
 31
0.0
 11
14.7067682187
 21
-17.6963311583
 31
0.0
 11
14.7822179415
 21
-17.6694822707
 31
0.0
  0
SPLINE
  5
290
100
AcDbEntity
  8
ASSI
100
AcDbSpline
 62
253
  6
CONTINUOUS
 70
0
 71
3
 72
11
 73
7
 74
5
 42
0.0000001
 43
0.0000001
 44
0.0000000001
 12
0.0863010479
 22
-14.5967938161
 32
0.0
 13
0.5071845942
 23
-14.5881783618
 33
0.0
 40
0.0
 40
0.0
 40
0.0
 40
0.0
 40
0.1097567126
 40
0.4077354704
 40
0.7044796212
 40
1.0
 40
1.0
 40
1.0
 40
1.0
 10
13.105175217
 20
-2.5902089056
 30
0.0
 10
13.1083325901
 20
-3.1242409399
 30
0.0
 10
13.1231369687
 20
-5.1081003856
 30
0.0
 10
13.1685289801
 20
-8.5356009332
 30
0.0
 10
13.2628924653
 20
-12.8662489245
 30
0.0
 10
13.350485276
 20
-15.7467200925
 30
0.0
 10
13.4004464038
 20
-17.1837547577
 30
0.0
 11
13.105175217
 21
-2.5902089056
 31
0.0
 11
13.1171337964
 21
-4.1922879162
 31
0.0
 11
13.1748139832
 21
-8.5414990831
 31
0.0
 11
13.2692514205
 21
-12.8720415755
 31
0.0
 11
13.4004464038
 21
-17.1837547577
 31
0.0
  0
SPLINE
  5
291
100
AcDbEntity
  8
ASSI
100
AcDbSpline
 62
253
  6
CONTINUOUS
 70
0
 71
3
 72
11
 73
7
 74
5
 42
0.0000001
 43
0.0000001
 44
0.0000000001
 12
0.0848594018
 22
0.0447659376
 32
0.0
 13
0.086027068
 23
-0.0415220245
 33
0.0
 40
0.0
 40
0.0
 40
0.0
 40
0.0
 40
0.1413236172
 40
0.4037591151
 40
0.6875249972
 40
1.0
 40
1.0
 40
1.0
 40
1.0
 10
-17.6315597383
 20
16.0216512377
 30
0.0
 10
-17.6275621925
 20
16.0237600658
 30
0.0
 10
-17.615613471
 20
16.0287888035
 30
0.0
 10
-17.5936316783
 20
16.0320741691
 30
0.0
 10
-17.5662407629
 20
16.0284779869
 30
0.0
 10
-17.5483265179
 20
16.0217300179
 30
0.0
 10
-17.5393660818
 20
16.017405153
 30
0.0
 11
-17.6315597383
 21
16.0216512377
 31
0.0
 11
-17.6190799551
 21
16.0269006656
 31
0.0
 11
-17.5943229108
 21
16.0308416128
 31
0.0
 11
-17.5674068972
 21
16.0276353786
 31
0.0
 11
-17.5393660818
 21
16.017405153
 31
0.0
  0
SPLINE
  5
292
100
AcDbEntity
  8
ASSI
100
AcDbSpline
 62
253
  6
CONTINUOUS
 70
0
 71
3
 72
18
 73
14
 74
12
 42
0.0000001
 43
0.0000001
 44
0.0000000001
 12
-0.3882309728
 22
-0.191513095
 32
0.0
 13
-0.3872041051
 23
0.1935808226
 33
0.0
 40
0.0
 40
0.0
 40
0.0
 40
0.0
 40
0.0815058463
 40
0.1686857655
 40
0.2604735908
 40
0.3556364595
 40
0.4528302513
 40
0.5506259444
 40
0.6475681924
 40
0.7422356527
 40
0.8333027824
 40
0.9195656467
 40
1.0
 40
1.0
 40
1.0
 40
1.0
 10
13.656931958
 20
0.4192561331
 30
0.0
 10
13.64638426
 20
0.4140529875
 30
0.0
 10
13.6239296761
 20
0.4045252055
 30
0.0
 10
13.5880528833
 20
0.3931676934
 30
0.0
 10
13.549427651
 20
0.3844329346
 30
0.0
 10
13.5088191833
 20
0.3784982147
 30
0.0
 10
13.4670231302
 20
0.3754799386
 30
0.0
 10
13.424862261
 20
0.3754386667
 30
0.0
 10
13.3831681542
 20
0.3783751914
 30
0.0
 10
13.3427615644
 20
0.3842305043
 30
0.0
 10
13.3044337668
 20
0.3928897803
 30
0.0
 10
13.2689435191
 20
0.4041773685
 30
0.0
 10
13.2467851469
 20
0.4136737744
 30
0.0
 10
13.236403643
 20
0.4188639571
 30
0.0
 11
13.656931958
 21
0.4192561331
 31
0.0
 11
13.6245029591
 21
0.4053528978
 31
0.0
 11
13.5885531914
 21
0.393867176
 31
0.0
 11
13.5498124349
 21
0.3850351678
 31
0.0
 11
13.5090560546
 21
0.3790342049
 31
0.0
 11
13.4670918276
 21
0.3759833137
 31
0.0
 11
13.4247563001
 21
0.375943818
 31
0.0
 11
13.3828956303
 21
0.3789165508
 31
0.0
 11
13.3423448908
 21
0.3848417346
 31
0.0
 11
13.3039077266
 21
0.3936018049
 31
0.0
 11
13.2683534604
 21
0.4050208449
 31
0.0
 11
13.236403643
 21
0.4188639571
 31
0.0
  0
SPLINE
  5
293
100
AcDbEntity
  8
ASSI
100
AcDbSpline
 62
253
  6
CONTINUOUS
 70
0
 71
3
 72
14
 73
10
 74
8
 42
0.0000001
 43
0.0000001
 44
0.0000000001
 12
-0.1446689438
 22
0.0723424049
 32
0.0
 13
0.0343426862
 23
0.1585248054
 33
0.0
 40
0.0
 40
0.0
 40
0.0
 40
0.0
 40
0.1979293799
 40
0.3777694132
 40
0.539977279
 40
0.6869302295
 40
0.8232350386
 40
0.955509812
 40
1.0
 40
1.0
 40
1.0
 40
1.0
 10
-17.535694986
 20
15.8049132716
 30
0.0
 10
-17.5452397308
 20
15.8096861674
 30
0.0
 10
-17.5629920321
 20
15.8197927266
 30
0.0
 10
-17.5862018543
 20
15.8375403218
 30
0.0
 10
-17.6043199042
 20
15.8568977187
 30
0.0
 10
-17.616925818
 20
15.877581663
 30
0.0
 10
-17.6235990606
 20
15.8992484455
 30
0.0
 10
-17.6238999512
 20
15.9163558309
 30
0.0
 10
-17.6222921903
 20
15.9257845051
 30
0.0
 10
-17.6217828861
 20
15.9281354379
 30
0.0
 11
-17.535694986
 21
15.8049132716
 31
0.0
 11
-17.5634262984
 21
15.8209107243
 31
0.0
 11
-17.5863988542
 21
15.8387550953
 31
0.0
 11
-17.6041401957
 21
15.8580842777
 31
0.0
 11
-17.6162940741
 21
15.878511403
 31
0.0
 11
-17.6226193488
 21
15.8996316424
 31
0.0
 11
-17.6229888975
 21
15.9210236762
 31
0.0
 11
-17.6217828861
 21
15.9281354379
 31
0.0
  0
SPLINE
  5
294
100
AcDbEntity
  8
ASSI
100
AcDbSpline
 62
253
  6
CONTINUOUS
 70
0
 71
3
 72
12
 73
8
 74
6
 42
0.0000001
 43
0.0000001
 44
0.0000000001
 12
0.0265618288
 22
0.1226086022
 32
0.0
 13
0.1105960185
 23
0.0584720522
 33
0.0
 40
0.0
 40
0.0
 40
0.0
 40
0.0
 40
0.1180186148
 40
0.3067874025
 40
0.5149491827
 40
0.7457717957
 40
1.0
 40
1.0
 40
1.0
 40
1.0
 10
-17.6217828861
 20
15.9281354379
 30
0.0
 10
-17.6207379561
 20
15.9329588037
 30
0.0
 10
-17.6168766263
 20
15.9452543442
 30
0.0
 10
-17.6061794732
 20
15.96409095
 30
0.0
 10
-17.5887273021
 20
15.9838060109
 30
0.0
 10
-17.5661306706
 20
16.0020049732
 30
0.0
 10
-17.5487382908
 20
16.0124500714
 30
0.0
 10
-17.5393660818
 20
16.017405153
 30
0.0
 11
-17.6217828861
 21
15.9281354379
 31
0.0
 11
-17.6173954208
 21
15.9422599425
 31
0.0
 11
-17.6059514225
 21
15.9629170964
 31
0.0
 11
-17.5888838955
 21
15.9825857193
 31
0.0
 11
-17.5665355529
 21
16.0008721537
 31
0.0
 11
-17.5393660818
 21
16.017405153
 31
0.0
  0
SPLINE
  5
295
100
AcDbEntity
  8
ASSI
100
AcDbSpline
 62
253
  6
CONTINUOUS
 70
0
 71
3
 72
12
 73
8
 74
6
 42
0.0000001
 43
0.0000001
 44
0.0000000001
 12
0.0082615124
 22
-0.2416585755
 32
0.0
 13
0.2155181779
 23
-0.1079420378
 33
0.0
 40
0.0
 40
0.0
 40
0.0
 40
0.0
 40
0.1607872481
 40
0.3405119448
 40
0.5377371495
 40
0.7570520285
 40
1.0
 40
1.0
 40
1.0
 40
1.0
 10
-17.5285424323
 20
-1.6148839214
 30
0.0
 10
-17.5280996503
 20
-1.6278357938
 30
0.0
 10
-17.5232270862
 20
-1.6551402117
 30
0.0
 10
-17.5040378272
 20
-1.6944103657
 30
0.0
 10
-17.4731179786
 20
-1.7314899674
 30
0.0
 10
-17.4317837983
 20
-1.7650517645
 30
0.0
 10
-17.3995333123
 20
-1.7837615406
 30
0.0
 10
-17.3820800776
 20
-1.7925029736
 30
0.0
 11
-17.5285424323
 21
-1.6148839214
 31
0.0
 11
-17.5218751759
 21
-1.6530782447
 31
0.0
 11
-17.5032766635
 21
-1.6922032694
 31
0.0
 11
-17.4732530299
 21
-1.7290614535
 31
0.0
 11
-17.4325272659
 21
-1.7627652254
 31
0.0
 11
-17.3820800776
 21
-1.7925029736
 31
0.0
  0
SPLINE
  5
296
100
AcDbEntity
  8
ASSI
100
AcDbSpline
 62
253
  6
CONTINUOUS
 70
0
 71
3
 72
15
 73
11
 74
9
 42
0.0000001
 43
0.0000001
 44
0.0000000001
 12
-0.7240343196
 22
0.4382071043
 32
0.0
 13
-0.0285476382
 23
0.8447625181
 33
0.0
 40
0.0
 40
0.0
 40
0.0
 40
0.0
 40
0.0620140845
 40
0.1779025344
 40
0.2979655363
 40
0.4237514951
 40
0.5563758972
 40
0.6965136799
 40
0.8444203826
 40
1.0
 40
1.0
 40
1.0
 40
1.0
 10
-17.0365261774
 20
-2.5271396836
 30
0.0
 10
-17.0514929525
 20
-2.5180813462
 30
0.0
 10
-17.0932028902
 20
-2.4900669353
 30
0.0
 10
-17.156347336
 20
-2.4341495469
 30
0.0
 10
-17.2210023204
 20
-2.3548321081
 30
0.0
 10
-17.2755645718
 20
-2.2628010726
 30
0.0
 10
-17.3195131459
 20
-2.1591417529
 30
0.0
 10
-17.3524403155
 20
-2.0450179571
 30
0.0
 10
-17.3740419497
 20
-1.9216973169
 30
0.0
 10
-17.3805999886
 20
-1.8363005996
 30
0.0
 10
-17.3820804655
 20
-1.7924913231
 30
0.0
 11
-17.0365261774
 21
-2.5271396836
 31
0.0
 11
-17.0800846888
 21
-2.4978978663
 31
0.0
 11
-17.1535738665
 21
-2.433134087
 31
0.0
 11
-17.2179524191
 21
-2.3546858592
 31
0.0
 11
-17.2725035317
 21
-2.263427426
 31
0.0
 11
-17.3166212023
 21
-2.1603737562
 31
0.0
 11
-17.3498154926
 21
-2.0466692567
 31
0.0
 11
-17.3717159762
 21
-1.9235850988
 31
0.0
 11
-17.3820804655
 21
-1.7924913231
 31
0.0
  0
SPLINE
  5
297
100
AcDbEntity
  8
ASSI
100
AcDbSpline
 62
253
  6
CONTINUOUS
 70
0
 71
3
 72
28
 73
24
 74
22
 42
0.0000001
 43
0.0000001
 44
0.0000000001
 12
-2.2714361026
 22
-1.1995957034
 32
0.0
 13
-0.0207406171
 23
2.5650508936
 33
0.0
 40
0.0
 40
0.0
 40
0.0
 40
0.0
 40
0.0075937672
 40
0.0428023252
 40
0.0788470965
 40
0.1163852335
 40
0.1559291059
 40
0.1978122283
 40
0.2422075009
 40
0.2891489454
 40
0.3385479992
 40
0.3902075493
 40
0.4438448719
 40
0.4991330189
 40
0.5557021556
 40
0.6131029754
 40
0.6708198381
 40
0.7284276206
 40
0.7856220118
 40
0.8419894447
 40
0.8968972891
 40
0.9497363351
 40
1.0
 40
1.0
 40
1.0
 40
1.0
 10
-1.5981166055
 20
3.1425712621
 30
0.0
 10
-1.6038661912
 20
3.1395347786
 30
0.0
 10
-1.6366168459
 20
3.1230708724
 30
0.0
 10
-1.7002636698
 20
3.0996962425
 30
0.0
 10
-1.7924088376
 20
3.0838274415
 30
0.0
 10
-1.8895578073
 20
3.0837009201
 30
0.0
 10
-1.9904552445
 20
3.0991763959
 30
0.0
 10
-2.0938565591
 20
3.1299450183
 30
0.0
 10
-2.1985116806
 20
3.1755461034
 30
0.0
 10
-2.303164494
 20
3.2353722036
 30
0.0
 10
-2.4065488195
 20
3.3086631107
 30
0.0
 10
-2.5073956784
 20
3.3944983094
 30
0.0
 10
-2.6044649623
 20
3.4918109962
 30
0.0
 10
-2.696567578
 20
3.5994099826
 30
0.0
 10
-2.782555565
 20
3.7159692839
 30
0.0
 10
-2.861314584
 20
3.8399912793
 30
0.0
 10
-2.9318401733
 20
3.969882011
 30
0.0
 10
-2.9933039655
 20
4.1041043553
 30
0.0
 10
-3.04498747
 20
4.2411596498
 30
0.0
 10
-3.0861809007
 20
4.3793236586
 30
0.0
 10
-3.1162520948
 20
4.516529804
 30
0.0
 10
-3.134806581
 20
4.6504944478
 30
0.0
 10
-3.1395938842
 20
4.7386537382
 30
0.0
 10
-3.139941384
 20
4.7816300244
 30
0.0
 11
-1.5981166055
 21
3.1425712621
 31
0.0
 11
-1.615543757
 21
3.1338117163
 31
0.0
 11
-1.7002805787
 21
3.1025640724
 31
0.0
 11
-1.7913518443
 21
3.0866009954
 31
0.0
 11
-1.887640929
 21
3.0861016352
 31
0.0
 11
-1.9879657881
 21
3.1010701053
 31
0.0
 11
-2.0910555942
 21
3.1313183166
 31
0.0
 11
-2.1956057884
 21
3.1764611849
 31
0.0
 11
-2.3003061562
 21
3.2359311205
 31
0.0
 11
-2.4038435792
 21
3.3089841929
 31
0.0
 11
-2.5049042421
 21
3.3946966477
 31
0.0
 11
-2.6022007917
 21
3.4919774422
 31
0.0
 11
-2.6945292688
 21
3.5996287473
 31
0.0
 11
-2.7807490108
 21
3.716343487
 31
0.0
 11
-2.8597263233
 21
3.8406111347
 31
0.0
 11
-2.9303815623
 21
3.9707152955
 31
0.0
 11
-2.9918807155
 21
4.1050817226
 31
0.0
 11
-3.0435829308
 21
4.2423810029
 31
0.0
 11
-3.0847879773
 21
4.3809754824
 31
0.0
 11
-3.1147898015
 21
4.5185890418
 31
0.0
 11
-3.1331865387
 21
4.6528740169
 31
0.0
 11
-3.139941384
 21
4.7816300244
 31
0.0
  0
SPLINE
  5
298
100
AcDbEntity
  8
ASSI
100
AcDbSpline
 62
253
  6
CONTINUOUS
 70
0
 71
3
 72
11
 73
7
 74
5
 42
0.0000001
 43
0.0000001
 44
0.0000000001
 12
-0.5827888803
 22
17.3474269095
 32
0.0
 13
-0.0096986814
 23
17.3572108702
 33
0.0
 40
0.0
 40
0.0
 40
0.0
 40
0.0
 40
0.2483881815
 40
0.4978455333
 40
0.74837995
 40
1.0
 40
1.0
 40
1.0
 40
1.0
 10
-17.38208047
 20
-1.7924913209
 30
0.0
 10
-17.4303330934
 20
-0.3561927133
 30
0.0
 10
-17.5149288335
 20
2.5230081664
 30
0.0
 10
-17.606051916
 20
6.8520271437
 30
0.0
 10
-17.6616848796
 20
11.2003475719
 30
0.0
 10
-17.6750599034
 20
14.1056887471
 30
0.0
 10
-17.6758733643
 20
15.5614961695
 30
0.0
 11
-17.38208047
 21
-1.7924913209
 31
0.0
 11
-17.5087784153
 21
2.5169733425
 31
0.0
 11
-17.5999787733
 21
6.8458972951
 31
0.0
 11
-17.6556818273
 21
11.1941198956
 31
0.0
 11
-17.6758733643
 21
15.5614961695
 31
0.0
  0
SPLINE
  5
299
100
AcDbEntity
  8
ASSI
100
AcDbSpline
 62
253
  6
CONTINUOUS
 70
0
 71
3
 72
17
 73
13
 74
11
 42
0.0000001
 43
0.0000001
 44
0.0000000001
 12
-0.0077255166
 22
1.0317920286
 32
0.0
 13
1.0116734807
 23
0.2093347503
 33
0.0
 40
0.0
 40
0.0
 40
0.0
 40
0.0
 40
0.1283901949
 40
0.2516216347
 40
0.3688179097
 40
0.479566207
 40
0.5840408864
 40
0.6833580183
 40
0.7792393716
 40
0.873530699
 40
0.9680978183
 40
1.0
 40
1.0
 40
1.0
 40
1.0
 10
-3.2801150342
 20
4.781463529
 30
0.0
 10
-3.2804456611
 20
4.8256208556
 30
0.0
 10
-3.2772792631
 20
4.9122565551
 30
0.0
 10
-3.2599818234
 20
5.038153909
 30
0.0
 10
-3.2301571646
 20
5.1554949114
 30
0.0
 10
-3.1880908944
 20
5.2621765677
 30
0.0
 10
-3.1343339716
 20
5.3565264701
 30
0.0
 10
-3.0695448
 20
5.4372920007
 30
0.0
 10
-2.9944251923
 20
5.5034460915
 30
0.0
 10
-2.9098927918
 20
5.5540013196
 30
0.0
 10
-2.8382383863
 20
5.5803911695
 30
0.0
 10
-2.7958489384
 20
5.5904614356
 30
0.0
 10
-2.7850907414
 20
5.592687514
 30
0.0
 11
-3.2801150342
 21
4.781463529
 31
0.0
 11
-3.2749662813
 21
4.9138391294
 31
0.0
 11
-3.2572968195
 21
5.03975823
 31
0.0
 11
-3.2271018352
 21
5.1568533063
 31
0.0
 11
-3.1847689611
 21
5.26299525
 31
0.0
 11
-3.1310266482
 21
5.3564426862
 31
0.0
 11
-3.0666144191
 21
5.4361465269
 31
0.0
 11
-2.9922052863
 21
5.5013454423
 31
0.0
 11
-2.9086704665
 21
5.5512215069
 31
0.0
 11
-2.8171493449
 21
5.5850597314
 31
0.0
 11
-2.7850907414
 21
5.592687514
 31
0.0
  0
SPLINE
  5
29A
100
AcDbEntity
  8
ASSI
100
AcDbSpline
 62
253
  6
CONTINUOUS
 70
0
 71
3
 72
26
 73
22
 74
20
 42
0.0000001
 43
0.0000001
 44
0.0000000001
 12
2.4688655328
 22
0.5108558834
 32
0.0
 13
0.1650101034
 23
-2.5137054056
 33
0.0
 40
0.0
 40
0.0
 40
0.0
 40
0.0
 40
0.0265708138
 40
0.0678202097
 40
0.1112349951
 40
0.1571824353
 40
0.2058565602
 40
0.2573007085
 40
0.3114244172
 40
0.3680181452
 40
0.4267779288
 40
0.4873504474
 40
0.5493342423
 40
0.6122395053
 40
0.6755023341
 40
0.7386566571
 40
0.8013675956
 40
0.8631791568
 40
0.9233936627
 40
0.981338373
 40
1.0
 40
1.0
 40
1.0
 40
1.0
 10
-2.7850907414
 20
5.592687514
 30
0.0
 10
-2.7632241525
 20
5.5972121328
 30
0.0
 10
-2.706721973
 20
5.6054480637
 30
0.0
 10
-2.6129517398
 20
5.6057187876
 30
0.0
 10
-2.5041858905
 20
5.5891903853
 30
0.0
 10
-2.3927967294
 20
5.5561570887
 30
0.0
 10
-2.2801384482
 20
5.5071123036
 30
0.0
 10
-2.1675669754
 20
5.4427103107
 30
0.0
 10
-2.056444416
 20
5.3637720462
 30
0.0
 10
-1.9481315795
 20
5.2712928872
 30
0.0
 10
-1.8439543356
 20
5.1664272773
 30
0.0
 10
-1.7451803829
 20
5.0504648367
 30
0.0
 10
-1.6530304573
 20
4.9248412544
 30
0.0
 10
-1.5686869751
 20
4.7911776678
 30
0.0
 10
-1.4932129889
 20
4.651199009
 30
0.0
 10
-1.4274822312
 20
4.5065685022
 30
0.0
 10
-1.3722512923
 20
4.3589073221
 30
0.0
 10
-1.3282678494
 20
4.2100791758
 30
0.0
 10
-1.2961986176
 20
4.0623150573
 30
0.0
 10
-1.2806087594
 20
3.9484218856
 30
0.0
 10
-1.2754769298
 20
3.8842909434
 30
0.0
 10
-1.2744504774
 20
3.8686543325
 30
0.0
 11
-2.7850907414
 21
5.592687514
 31
0.0
 11
-2.7188481521
 21
5.6024267001
 31
0.0
 11
-2.6149831364
 21
5.6031213814
 31
0.0
 11
-2.5068388486
 21
5.587132477
 31
0.0
 11
-2.3957929081
 21
5.5546573468
 31
0.0
 11
-2.2832557422
 21
5.506107498
 31
0.0
 11
-2.1706401657
 21
5.4420931141
 31
0.0
 11
-2.0593582856
 21
5.3634164239
 31
0.0
 11
-1.9508190696
 21
5.2710753312
 31
0.0
 11
-1.8463993406
 21
5.1662497269
 31
0.0
 11
-1.74738299
 21
5.0502358891
 31
0.0
 11
-1.6549832333
 21
4.9244488087
 31
0.0
 11
-1.5704035246
 21
4.7905232727
 31
0.0
 11
-1.4947877054
 21
4.65031605
 31
0.0
 11
-1.4290158197
 21
4.5055303327
 31
0.0
 11
-1.373761543
 21
4.3576047839
 31
0.0
 11
-1.329762955
 21
4.2083096446
 31
0.0
 11
-1.2977656402
 21
4.0601022345
 31
0.0
 11
-1.2781906556
 21
3.9155146054
 31
0.0
 11
-1.2744504774
 21
3.8686543325
 31
0.0
  0
SPLINE
  5
29B
100
AcDbEntity
  8
ASSI
100
AcDbSpline
 62
253
  6
CONTINUOUS
 70
0
 71
3
 72
16
 73
12
 74
10
 42
0.0000001
 43
0.0000001
 44
0.0000000001
 12
-0.006768593
 22
0.8390251373
 32
0.0
 13
0.7592769153
 23
0.3597571046
 33
0.0
 40
0.0
 40
0.0
 40
0.0
 40
0.0
 40
0.1467225823
 40
0.2875194558
 40
0.4214130577
 40
0.5479343992
 40
0.6672859462
 40
0.7807466907
 40
0.8902876645
 40
0.9980213238
 40
1.0
 40
1.0
 40
1.0
 40
1.0
 10
-3.139941384
 20
4.7816300244
 30
0.0
 10
-3.1402724192
 20
4.8226646693
 30
0.0
 10
-3.1373736113
 20
4.9031673648
 30
0.0
 10
-3.1213594627
 20
5.0201516384
 30
0.0
 10
-3.0936961238
 20
5.1291777338
 30
0.0
 10
-3.0546486066
 20
5.2282980023
 30
0.0
 10
-3.004727756
 20
5.3159583317
 30
0.0
 10
-2.9445454253
 20
5.3909945964
 30
0.0
 10
-2.874753936
 20
5.4524519489
 30
0.0
 10
-2.8218186637
 20
5.4841000828
 30
0.0
 10
-2.7940737995
 20
5.4973041783
 30
0.0
 10
-2.7935730118
 20
5.4975414592
 30
0.0
 11
-3.139941384
 21
4.7816300244
 31
0.0
 11
-3.1352234853
 21
4.904647529
 31
0.0
 11
-3.1188636593
 21
5.0216452262
 31
0.0
 11
-3.0908561067
 21
5.1304418065
 31
0.0
 11
-3.05156069
 21
5.2290592477
 31
0.0
 11
-3.0016538206
 21
5.3158795559
 31
0.0
 11
-2.9418226861
 21
5.3899280731
 31
0.0
 11
-2.8726928465
 21
5.4504972696
 31
0.0
 11
-2.7950741553
 21
5.4968270469
 31
0.0
 11
-2.7935730118
 21
5.4975414592
 31
0.0
  0
SPLINE
  5
29C
100
AcDbEntity
  8
ASSI
100
AcDbSpline
 62
253
  6
CONTINUOUS
 70
0
 71
3
 72
15
 73
11
 74
9
 42
0.0000001
 43
0.0000001
 44
0.0000000001
 12
-0.0021357325
 22
0.2936488918
 32
0.0
 13
-0.260755194
 23
0.1350591048
 33
0.0
 40
0.0
 40
0.0
 40
0.0
 40
0.0
 40
0.1197683134
 40
0.2470068581
 40
0.378956534
 40
0.5124548357
 40
0.6442133866
 40
0.7710854443
 40
0.89034471
 40
1.0
 40
1.0
 40
1.0
 40
1.0
 10
13.7970977505
 20
0.1747407267
 30
0.0
 10
13.7970124862
 20
0.1864640042
 30
0.0
 10
13.794875882
 20
0.2106506017
 30
0.0
 10
13.786660442
 20
0.2469186733
 30
0.0
 10
13.7736291019
 20
0.283179218
 30
0.0
 10
13.7562696564
 20
0.3180669203
 30
0.0
 10
13.7352325573
 20
0.3502800823
 30
0.0
 10
13.7112957513
 20
0.3786179861
 30
0.0
 10
13.6853551356
 20
0.4020200221
 30
0.0
 10
13.6664630201
 20
0.4143194847
 30
0.0
 10
13.656931958
 20
0.4192561331
 30
0.0
 11
13.7970977505
 21
0.1747407267
 31
0.0
 11
13.7941838576
 21
0.2097905737
 31
0.0
 11
13.7860438778
 21
0.2462575799
 31
0.0
 11
13.7729905703
 21
0.2827406032
 31
0.0
 11
13.7555254754
 21
0.3178378882
 31
0.0
 11
13.7343196436
 21
0.3502009259
 31
0.0
 11
13.7101878509
 21
0.3785862663
 31
0.0
 11
13.6840572926
 21
0.4019032945
 31
0.0
 11
13.656931958
 21
0.4192561331
 31
0.0
  0
SPLINE
  5
29D
100
AcDbEntity
  8
ASSI
100
AcDbSpline
 62
253
  6
CONTINUOUS
 70
0
 71
3
 72
15
 73
11
 74
9
 42
0.0000001
 43
0.0000001
 44
0.0000000001
 12
-0.0001666693
 22
0.2930800153
 32
0.0
 13
0.2610133734
 23
0.1332964443
 33
0.0
 40
0.0
 40
0.0
 40
0.0
 40
0.0
 40
0.1196245243
 40
0.2464902617
 40
0.3779799486
 40
0.5110733545
 40
0.6426177128
 40
0.7695882173
 40
0.8893581041
 40
1.0
 40
1.0
 40
1.0
 40
1.0
 10
13.0962164387
 20
0.1754512681
 30
0.0
 10
13.0962097927
 20
0.1871377872
 30
0.0
 10
13.09817447
 20
0.2112436463
 30
0.0
 10
13.1062025152
 20
0.2473850195
 30
0.0
 10
13.1191118002
 20
0.283484406
 30
0.0
 10
13.1364235259
 20
0.3181963966
 30
0.0
 10
13.1574956095
 20
0.3502393042
 30
0.0
 10
13.1815568962
 20
0.3784301439
 30
0.0
 10
13.2077159547
 20
0.4017229248
 30
0.0
 10
13.2267773048
 20
0.4139479
 30
0.0
 10
13.236403643
 20
0.4188639571
 30
0.0
 11
13.0962164387
 21
0.1754512681
 31
0.0
 11
13.0988870713
 21
0.2104089666
 31
0.0
 11
13.106835609
 21
0.2467312512
 31
0.0
 11
13.1197596993
 21
0.283036467
 31
0.0
 11
13.1371677257
 21
0.3179436084
 31
0.0
 11
13.1583975082
 21
0.3501248507
 31
0.0
 11
13.1826414923
 21
0.3783560593
 31
0.0
 11
13.2089774665
 21
0.4015633537
 31
0.0
 11
13.236403643
 21
0.4188639571
 31
0.0
  0
SPLINE
  5
29E
100
AcDbEntity
  8
ASSI
100
AcDbSpline
 62
253
  6
CONTINUOUS
 70
0
 71
3
 72
15
 73
11
 74
9
 42
0.0000001
 43
0.0000001
 44
0.0000000001
 12
-0.0001666709
 22
0.2930800157
 32
0.0
 13
0.2610133746
 23
0.1332964427
 33
0.0
 40
0.0
 40
0.0
 40
0.0
 40
0.0
 40
0.1196246505
 40
0.246490508
 40
0.3779802849
 40
0.5110737329
 40
0.6426180747
 40
0.7695885032
 40
0.8893582639
 40
1.0
 40
1.0
 40
1.0
 40
1.0
 10
-17.6758821903
 20
15.5615005826
 30
0.0
 10
-17.6758888363
 20
15.573187114
 30
0.0
 10
-17.6739241552
 20
15.5972929973
 30
0.0
 10
-17.6658960959
 20
15.6334344013
 30
0.0
 10
-17.6529867929
 20
15.6695338078
 30
0.0
 10
-17.6356750511
 20
15.7042458031
 30
0.0
 10
-17.6146029591
 20
15.7362886994
 30
0.0
 10
-17.5905416768
 20
15.7644795147
 30
0.0
 10
-17.5643826382
 20
15.7877722645
 30
0.0
 10
-17.5453213103
 20
15.7999972217
 30
0.0
 10
-17.535694986
 20
15.8049132716
 30
0.0
 11
-17.6758821903
 21
15.5615005826
 31
0.0
 11
-17.6732115524
 21
15.5964583178
 31
0.0
 11
-17.6652630003
 21
15.6327806353
 31
0.0
 11
-17.6523388914
 21
15.6690858726
 31
0.0
 11
-17.6349308483
 21
15.7039930195
 31
0.0
 11
-17.6137010572
 21
15.7361742505
 31
0.0
 11
-17.5894570781
 21
15.764405434
 31
0.0
 11
-17.5631211251
 21
15.7876126966
 31
0.0
 11
-17.535694986
 21
15.8049132716
 31
0.0
  0
SPLINE
  5
29F
100
AcDbEntity
  8
ASSI
100
AcDbSpline
 62
253
  6
CONTINUOUS
 70
0
 71
3
 72
15
 73
11
 74
9
 42
0.0000001
 43
0.0000001
 44
0.0000000001
 12
0.0310029971
 22
-0.8966583246
 32
0.0
 13
0.8026000231
 23
-0.403328886
 33
0.0
 40
0.0
 40
0.0
 40
0.0
 40
0.0
 40
0.1467284999
 40
0.2864556893
 40
0.4191434193
 40
0.5450792933
 40
0.6649341342
 40
0.7797727775
 40
0.8910370773
 40
1.0
 40
1.0
 40
1.0
 40
1.0
 10
13.4004463994
 20
-17.1837547555
 30
0.0
 10
13.4019627405
 20
-17.2276098658
 30
0.0
 10
13.4086870438
 20
-17.3131627254
 30
0.0
 10
13.4308150717
 20
-17.4367648842
 30
0.0
 10
13.464542693
 20
-17.551299632
 30
0.0
 10
13.5095567958
 20
-17.6554891583
 30
0.0
 10
13.5654341579
 20
-17.7481579327
 30
0.0
 10
13.6316303981
 20
-17.8282097678
 30
0.0
 10
13.7073433643
 20
-17.8945453561
 30
0.0
 10
13.7637278391
 20
-17.9291971921
 30
0.0
 10
13.7928790539
 20
-17.9438464902
 30
0.0
 11
13.4004463994
 21
-17.1837547555
 31
0.0
 11
13.411054955
 21
-17.3149705641
 31
0.0
 11
13.4334711342
 21
-17.4383125699
 31
0.0
 11
13.4674470657
 21
-17.55240789
 31
0.0
 11
13.5126035902
 21
-17.6559809868
 31
0.0
 11
13.5684392428
 21
-17.74788169
 31
0.0
 11
13.6343337458
 21
-17.8270878931
 31
0.0
 11
13.7095534081
 21
-17.8927169147
 31
0.0
 11
13.7928790539
 21
-17.9438464902
 31
0.0
  0
SPLINE
  5
2A0
100
AcDbEntity
  8
ASSI
100
AcDbSpline
 62
253
  6
CONTINUOUS
 70
0
 71
3
 72
14
 73
10
 74
8
 42
0.0000001
 43
0.0000001
 44
0.0000000001
 12
-0.0160711753
 22
-0.692316429
 32
0.0
 13
-0.5073836335
 23
-0.472321731
 33
0.0
 40
0.0
 40
0.0
 40
0.0
 40
0.0
 40
0.1265342882
 40
0.3100573141
 40
0.4845043291
 40
0.6492527438
 40
0.8045650992
 40
0.9521175757
 40
1.0
 40
1.0
 40
1.0
 40
1.0
 10
-1.2714245768
 20
3.7321164362
 30
0.0
 10
-1.2721024284
 20
3.7029158474
 30
0.0
 10
-1.2759470174
 20
3.6313991059
 30
0.0
 10
-1.2911361482
 20
3.5204332595
 30
0.0
 10
-1.3208098946
 20
3.4032262728
 30
0.0
 10
-1.3626619976
 20
3.2967021084
 30
0.0
 10
-1.41615547
 20
3.2025253146
 30
0.0
 10
-1.4669603721
 20
3.1390449506
 30
0.0
 10
-1.499108735
 20
3.1073030609
 30
0.0
 10
-1.5072069878
 20
3.0997644243
 30
0.0
 11
-1.2714245768
 21
3.7321164362
 31
0.0
 11
-1.2762189427
 21
3.6446279404
 31
0.0
 11
-1.2938122368
 21
3.5188065628
 31
0.0
 11
-1.3238605097
 21
3.4018421244
 31
0.0
 11
-1.3659845899
 21
3.2958580087
 31
0.0
 11
-1.4194684541
 21
3.2025882816
 31
0.0
 11
-1.4835862592
 21
3.1230747155
 31
0.0
 11
-1.5072069878
 21
3.0997644243
 31
0.0
  0
SPLINE
  5
2A1
100
AcDbEntity
  8
ASSI
100
AcDbSpline
 62
253
  6
CONTINUOUS
 70
0
 71
3
 72
29
 73
25
 74
23
 42
0.0000001
 43
0.0000001
 44
0.0000000001
 12
-2.1264137713
 22
-1.9794714824
 32
0.0
 13
-0.0218327787
 23
2.9011322997
 33
0.0
 40
0.0
 40
0.0
 40
0.0
 40
0.0
 40
0.0225488522
 40
0.0559546177
 40
0.0894655846
 40
0.1237668931
 40
0.1594834797
 40
0.1971030967
 40
0.2369436647
 40
0.2791705449
 40
0.3238170532
 40
0.370799868
 40
0.4199323396
 40
0.4709462981
 40
0.5235314076
 40
0.5773364242
 40
0.6319343992
 40
0.6868352244
 40
0.7416348372
 40
0.7960439291
 40
0.8496690645
 40
0.9019083315
 40
0.9521821663
 40
1.0
 40
1.0
 40
1.0
 40
1.0
 10
-1.5072069878
 20
3.0997644243
 30
0.0
 10
-1.5231897177
 20
3.0848861544
 30
0.0
 10
-1.5649940625
 20
3.0502689814
 30
0.0
 10
-1.6396770753
 20
3.0056030647
 30
0.0
 10
-1.7320775219
 20
2.971640761
 30
0.0
 10
-1.8312484777
 20
2.9545294961
 30
0.0
 10
-1.9357943309
 20
2.954361241
 30
0.0
 10
-2.044363223
 20
2.9709860894
 30
0.0
 10
-2.1556150425
 20
3.0040721682
 30
0.0
 10
-2.2682042114
 20
3.0531238529
 30
0.0
 10
-2.3807791275
 20
3.1174874377
 30
0.0
 10
-2.4919777259
 20
3.1963447588
 30
0.0
 10
-2.6004352288
 20
3.2887050847
 30
0.0
 10
-2.7048181741
 20
3.3934202018
 30
0.0
 10
-2.803848191
 20
3.5092079785
 30
0.0
 10
-2.8962913382
 20
3.6346411511
 30
0.0
 10
-2.9809500593
 20
3.7681077085
 30
0.0
 10
-3.0567451681
 20
3.9078920122
 30
0.0
 10
-3.1227869712
 20
4.0523395908
 30
0.0
 10
-3.1783037293
 20
4.1998372812
 30
0.0
 10
-3.2225335994
 20
4.3485288919
 30
0.0
 10
-3.2547974238
 20
4.4961901446
 30
0.0
 10
-3.2746733875
 20
4.6403549966
 30
0.0
 10
-3.2797670355
 20
4.7352215751
 30
0.0
 10
-3.2801150342
 20
4.781463529
 30
0.0
 11
-1.5072069878
 21
3.0997644243
 31
0.0
 11
-1.5576792567
 21
3.0580708595
 31
0.0
 11
-1.6408919858
 21
3.0083858241
 31
0.0
 11
-1.7321015911
 21
2.9747254216
 31
0.0
 11
-1.8301174559
 21
2.9575145114
 31
0.0
 11
-1.9337373768
 21
2.956946589
 31
0.0
 11
-2.0416889019
 21
2.9730267068
 31
0.0
 11
-2.1526040763
 21
3.0055529245
 31
0.0
 11
-2.2650790083
 21
3.0541111609
 31
0.0
 11
-2.3777040058
 21
3.118090817
 31
0.0
 11
-2.4890665018
 21
3.1966914087
 31
0.0
 11
-2.597753435
 21
3.2889188231
 31
0.0
 11
-2.7023804742
 21
3.3935988259
 31
0.0
 11
-2.801653219
 21
3.5094421819
 31
0.0
 11
-2.8943455275
 21
3.6350419912
 31
0.0
 11
-2.9792389642
 21
3.768772324
 31
0.0
 11
-3.0551735193
 21
3.9087857686
 31
0.0
 11
-3.1212534528
 21
4.0533880122
 31
0.0
 11
-3.1767905376
 21
4.2011480415
 31
0.0
 11
-3.2210328358
 21
4.350302789
 31
0.0
 11
-3.253222421
 21
4.4984022511
 31
0.0
 11
-3.2729294011
 21
4.6429199571
 31
0.0
 11
-3.2801150342
 21
4.781463529
 31
0.0
  0
SPLINE
  5
2A2
100
AcDbEntity
  8
ASSI
100
AcDbSpline
 62
253
  6
CONTINUOUS
 70
0
 71
3
 72
13
 73
9
 74
7
 42
0.0000001
 43
0.0000001
 44
0.0000000001
 12
-0.0143798377
 22
-0.3373286778
 32
0.0
 13
-0.3120404767
 23
-0.1310932904
 33
0.0
 40
0.0
 40
0.0
 40
0.0
 40
0.0
 40
0.1990429368
 40
0.3847908933
 40
0.557088006
 40
0.7172159128
 40
0.8680860164
 40
1.0
 40
1.0
 40
1.0
 40
1.0
 10
14.7822179415
 20
-17.6694822707
 30
0.0
 10
14.7812638732
 20
-17.6918632342
 30
0.0
 10
14.7767868145
 20
-17.7350875585
 30
0.0
 10
14.7614967019
 20
-17.7961342589
 30
0.0
 10
14.7381216399
 20
-17.8498993471
 30
0.0
 10
14.7070762377
 20
-17.8950339032
 30
0.0
 10
14.6701368799
 20
-17.9291864639
 30
0.0
 10
14.6421311961
 20
-17.9449128277
 30
0.0
 10
14.628410362
 20
-17.9506771738
 30
0.0
 11
14.7822179415
 21
-17.6694822707
 31
0.0
 11
14.775004179
 21
-17.7362978498
 31
0.0
 11
14.7594253627
 21
-17.7970471209
 31
0.0
 11
14.7358646497
 21
-17.8502359707
 31
0.0
 11
14.7049015099
 21
-17.8945562329
 31
0.0
 11
14.6672974739
 21
-17.9289178616
 31
0.0
 11
14.628410362
 21
-17.9506771738
 31
0.0
  0
SPLINE
  5
2A3
100
AcDbEntity
  8
ASSI
100
AcDbSpline
 62
253
  6
CONTINUOUS
 70
0
 71
3
 72
17
 73
13
 74
11
 42
0.0000001
 43
0.0000001
 44
0.0000000001
 12
-0.6380553888
 22
-0.3397035049
 32
0.0
 13
-0.6467567984
 23
0.3228293576
 33
0.0
 40
0.0
 40
0.0
 40
0.0
 40
0.0
 40
0.0909939725
 40
0.188357308
 40
0.2907043301
 40
0.3963948789
 40
0.5036318121
 40
0.6105485603
 40
0.7152927759
 40
0.8161107568
 40
0.9114376027
 40
1.0
 40
1.0
 40
1.0
 40
1.0
 10
14.1010302822
 20
-17.1691666026
 30
0.0
 10
14.0816772174
 20
-17.1794702597
 30
0.0
 10
14.0402423189
 20
-17.19827224
 30
0.0
 10
13.9736925106
 20
-17.2204496543
 30
0.0
 10
13.9019275208
 20
-17.2371645237
 30
0.0
 10
13.8266526966
 20
-17.248015131
 30
0.0
 10
13.7496466972
 20
-17.2527451567
 30
0.0
 10
13.6727375166
 20
-17.2512412599
 30
0.0
 10
13.5977503828
 20
-17.2435406376
 30
0.0
 10
13.5264543883
 20
-17.2298247396
 30
0.0
 10
13.4605415269
 20
-17.2104234611
 30
0.0
 10
13.4195397803
 20
-17.1932964903
 30
0.0
 10
13.4004470028
 20
-17.1837663097
 30
0.0
 11
14.1010302822
 21
-17.1691666026
 31
0.0
 11
14.0412502099
 21
-17.1966020024
 31
0.0
 11
13.9745457541
 21
-17.2190461826
 31
0.0
 11
13.9025232057
 21
-17.2359586713
 31
0.0
 11
13.8269169188
 21
-17.2469322038
 31
0.0
 11
13.7495475467
 21
-17.2517025296
 31
0.0
 11
13.672278199
 21
-17.2501547758
 31
0.0
 11
13.5969695765
 21
-17.2423262134
 31
0.0
 11
13.5254351644
 21
-17.2284053599
 31
0.0
 11
13.4593975623
 21
-17.2087274392
 31
0.0
 11
13.4004470028
 21
-17.1837663097
 31
0.0
  0
SPLINE
  5
2A4
100
AcDbEntity
  8
ASSI
100
AcDbSpline
 62
253
  6
CONTINUOUS
 70
0
 71
3
 72
18
 73
14
 74
12
 42
0.0000001
 43
0.0000001
 44
0.0000000001
 12
-0.6479053051
 22
-0.3171213201
 32
0.0
 13
-0.6452008356
 23
0.3225881239
 33
0.0
 40
0.0
 40
0.0
 40
0.0
 40
0.0
 40
0.0814478825
 40
0.1685621118
 40
0.2603098872
 40
0.3554511858
 40
0.4526394032
 40
0.5504419653
 40
0.6474040962
 40
0.7421014841
 40
0.833203999
 40
0.9194977651
 40
1.0
 40
1.0
 40
1.0
 40
1.0
 10
13.7970977505
 20
0.1747407267
 30
0.0
 10
13.7795075788
 20
0.1661311067
 30
0.0
 10
13.7420690616
 20
0.1503830398
 30
0.0
 10
13.6822693767
 20
0.1316445195
 30
0.0
 10
13.6178977356
 20
0.1172720458
 30
0.0
 10
13.5502226792
 20
0.1075533913
 30
0.0
 10
13.4805708936
 20
0.1026796693
 30
0.0
 10
13.4103123309
 20
0.1027481098
 30
0.0
 10
13.3408312593
 20
0.1077572671
 30
0.0
 10
13.2734939197
 20
0.1176070909
 30
0.0
 10
13.2096193691
 20
0.1321040379
 30
0.0
 10
13.1504624222
 20
0.1509588951
 30
0.0
 10
13.1135209842
 20
0.1667993225
 30
0.0
 10
13.0962076145
 20
0.1754556775
 30
0.0
 11
13.7970977505
 21
0.1747407267
 31
0.0
 11
13.7430277091
 21
0.1517562123
 31
0.0
 11
13.6831129688
 21
0.1328067762
 31
0.0
 11
13.6185464562
 21
0.1182717004
 31
0.0
 11
13.5506236373
 21
0.1084429516
 31
0.0
 11
13.4806902302
 21
0.1035150708
 31
0.0
 11
13.4101402939
 21
0.1035866848
 31
0.0
 11
13.340380538
 21
0.1086563383
 31
0.0
 11
13.2728014161
 21
0.1186225567
 31
0.0
 11
13.2087418094
 21
0.1332880277
 31
0.0
 11
13.1494868292
 21
0.1523582195
 31
0.0
 11
13.0962076145
 21
0.1754556775
 31
0.0
  0
SPLINE
  5
2A5
100
AcDbEntity
  8
ASSI
100
AcDbSpline
 62
253
  6
CONTINUOUS
 70
0
 71
3
 72
13
 73
9
 74
7
 42
0.0000001
 43
0.0000001
 44
0.0000000001
 12
-0.215969998
 22
0.1079891143
 32
0.0
 13
-0.0003661403
 23
0.2422910666
 33
0.0
 40
0.0
 40
0.0
 40
0.0
 40
0.0
 40
0.2210664175
 40
0.421724909
 40
0.6025991709
 40
0.7663160048
 40
0.9180129343
 40
1.0
 40
1.0
 40
1.0
 40
1.0
 10
-17.6758733624
 20
15.561496166
 30
0.0
 10
-17.6917879337
 20
15.5694537548
 30
0.0
 10
-17.7213754815
 20
15.5862906547
 30
0.0
 10
-17.7600603506
 20
15.6158318644
 30
0.0
 10
-17.7902514969
 20
15.6480213664
 30
0.0
 10
-17.8112605652
 20
15.6823950853
 30
0.0
 10
-17.8208204238
 20
15.713320269
 30
0.0
 10
-17.8223099538
 20
15.7321932045
 30
0.0
 10
-17.8223199601
 20
15.7388147824
 30
0.0
 11
-17.6758733624
 21
15.561496166
 31
0.0
 11
-17.7221164123
 21
15.5881598402
 31
0.0
 11
-17.7603990677
 21
15.6178584662
 31
0.0
 11
-17.7899636177
 21
15.6500050734
 31
0.0
 11
-17.8102163022
 21
15.6839547583
 31
0.0
 11
-17.8207561479
 21
15.7190349055
 31
0.0
 11
-17.8223199601
 21
15.7388147824
 31
0.0
  0
SPLINE
  5
2A6
100
AcDbEntity
  8
ASSI
100
AcDbSpline
 62
253
  6
CONTINUOUS
 70
0
 71
3
 72
21
 73
17
 74
15
 42
0.0000001
 43
0.0000001
 44
0.0000000001
 12
0.0358352392
 22
-1.0301967715
 32
0.0
 13
0.950486531
 23
0.3989547676
 33
0.0
 40
0.0
 40
0.0
 40
0.0
 40
0.0
 40
0.0851410635
 40
0.1662748243
 40
0.2433648649
 40
0.3165846796
 40
0.3863284951
 40
0.4532160408
 40
0.5180814047
 40
0.5819322805
 40
0.645869652
 40
0.710985031
 40
0.7782641362
 40
0.8485122009
 40
0.9223099193
 40
1.0
 40
1.0
 40
1.0
 40
1.0
 10
14.1010302822
 20
-17.1691666026
 30
0.0
 10
14.102047299
 20
-17.1984039521
 30
0.0
 10
14.1065569188
 20
-17.255458782
 30
0.0
 10
14.1213948308
 20
-17.3379015341
 30
0.0
 10
14.1440124923
 20
-17.4143285833
 30
0.0
 10
14.1741992763
 20
-17.4838786525
 30
0.0
 10
14.2116700418
 20
-17.5457661287
 30
0.0
 10
14.2560581769
 20
-17.5992583317
 30
0.0
 10
14.3068959924
 20
-17.6436845476
 30
0.0
 10
14.3635969934
 20
-17.6784615046
 30
0.0
 10
14.4254583791
 20
-17.7031365721
 30
0.0
 10
14.4916960377
 20
-17.7174228369
 30
0.0
 10
14.5614926854
 20
-17.7212023545
 30
0.0
 10
14.6340334753
 20
-17.7144980793
 30
0.0
 10
14.7084927535
 20
-17.6974554911
 30
0.0
 10
14.7576034831
 20
-17.67981388
 30
0.0
 10
14.7822179415
 20
-17.6694822707
 30
0.0
 11
14.1010302822
 21
-17.1691666026
 31
0.0
 11
14.1081412719
 21
-17.2566431493
 31
0.0
 11
14.1231704954
 21
-17.33891597
 31
0.0
 11
14.1459506552
 21
-17.4150467819
 31
0.0
 11
14.1762278464
 21
-17.4841842131
 31
0.0
 11
14.2136657981
 21
-17.5455604924
 31
0.0
 11
14.2578486843
 21
-17.5984928876
 31
0.0
 11
14.3082845884
 21
-17.6423914243
 31
0.0
 11
14.3644128292
 21
-17.6767677014
 31
0.0
 11
14.4256093142
 21
-17.7012389704
 31
0.0
 11
14.4911920315
 21
-17.7155323342
 31
0.0
 11
14.5604317134
 21
-17.7194889337
 31
0.0
 11
14.6325592588
 21
-17.7130644387
 31
0.0
 11
14.7067682187
 21
-17.6963311583
 31
0.0
 11
14.7822179415
 21
-17.6694822707
 31
0.0
  0
ELLIPSE
  5
2A7
100
AcDbEntity
  8
RACCORDO
100
AcDbEllipse
 62
7
  6
CONTINUOUS
 10
-13.9218035881
 20
17.7565712062
 30
0.0
 11
-0.0894818401
 21
0.1789012953
 31
0.0
 40
0.6122950388
 41
-0.6847996396
 42
0.0137828113
  0
ELLIPSE
  5
2A8
100
AcDbEntity
  8
RACCORDO
100
AcDbEllipse
 62
7
  6
CONTINUOUS
 10
16.65196423
 20
-16.5590090913
 30
0.0
 11
-0.1825210626
 21
0.4655826378
 31
0.0
 40
0.6539056002
 41
-3.1260220267
 42
-2.199353272
  0
ELLIPSE
  5
2A9
100
AcDbEntity
  8
RACCORDO
100
AcDbEllipse
 62
7
  6
CONTINUOUS
 10
17.4029837336
 20
2.0941775454
 30
0.0
 11
-0.0894578232
 21
0.1788799337
 31
0.0
 40
0.6124778111
 41
-2.255529033
 42
-0.6848850053
  0
ELLIPSE
  5
2AA
100
AcDbEntity
  8
ASSI
100
AcDbEllipse
 62
7
  6
CONTINUOUS
 10
-13.9218035881
 20
17.7565712062
 30
0.0
 11
-0.0894818401
 21
0.1789012953
 31
0.0
 40
0.6122950388
 41
-0.6847996396
 42
0.0137828113
  0
ELLIPSE
  5
2AB
100
AcDbEntity
  8
ASSI
100
AcDbEllipse
 62
7
  6
CONTINUOUS
 10
16.65196423
 20
-16.5590090913
 30
0.0
 11
-0.1825210626
 21
0.4655826378
 31
0.0
 40
0.6539056002
 41
-3.1260220267
 42
-2.199353272
  0
ELLIPSE
  5
2AC
100
AcDbEntity
  8
ASSI
100
AcDbEllipse
 62
7
  6
CONTINUOUS
 10
17.4029837336
 20
2.0941775454
 30
0.0
 11
-0.0894578232
 21
0.1788799337
 31
0.0
 40
0.6124778111
 41
-2.255529033
 42
-0.6848850053
  0
ELLIPSE
  5
2AD
100
AcDbEntity
  8
CURVE
100
AcDbEllipse
 62
253
  6
CONTINUOUS
 10
340.3033169049
 20
190.4267071168
 30
0.0
 11
-370.8956999625
 21
600.1218488205
 31
0.0
 40
0.5587454355
 41
1.5444591512
 42
1.5514618139
  0
ELLIPSE
  5
2AE
100
AcDbEntity
  8
CURVE
100
AcDbEllipse
 62
253
  6
CONTINUOUS
 10
362.2236271217
 20
179.4665520084
 30
0.0
 11
499.3666179528
 21
308.6255427419
 31
0.0
 40
0.0815198604
 41
2.3298573146
 42
2.3368599773
  0
ENDSEC
  0
SECTION
  2
OBJECTS
  0
DICTIONARY
  5
C
100
AcDbDictionary
280
0
281
1
  3
ACAD_GROUP
350
D
  3
ACAD_MLINESTYLE
350
17
  3
ACAD_LAYOUT
350
1A
  3
ACAD_PLOTSETTINGS
350
19
  3
ACAD_PLOTSTYLENAME
350
E
  0
DICTIONARY
  5
D
102
{ACAD_REACTORS
330
C
102
}
100
AcDbDictionary
280
0
281
1
  0
ACDBDICTIONARYWDFLT
  5
E
102
{ACAD_REACTORS
330
C
102
}
100
AcDbDictionary
281
1
  3
Normal
350
F
100
AcDbDictionaryWithDefault
340
F
  0
DICTIONARY
  5
17
102
{ACAD_REACTORS
330
C
102
}
100
AcDbDictionary
280
0
281
1
  3
Standard
350
18
  0
DICTIONARY
  5
19
102
{ACAD_REACTORS
330
C
102
}
100
AcDbDictionary
281
1
  0
DICTIONARY
  5
1A
102
{ACAD_REACTORS
330
C
102
}
100
AcDbDictionary
281
1
  3
Model
350
2AF
  3
Layout1
350
2B0
  0
ACDBPLACEHOLDER
  5
F
102
{ACAD_REACTORS
330
E
102
}
  0
MLINESTYLE
  5
18
102
{ACAD_REACTORS
330
17
102
}
100
AcDbMlineStyle
  2
STANDARD
 70
0
  3

 62
256
 51
90.0
 52
90.0
 71
2
 49
0.5
 62
256
  6
BYLAYER
 49
-0.5
 62
256
  6
BYLAYER
  0
LAYOUT
  5
2AF
102
{ACAD_REACTORS
330
1A
102
}
100
AcDbPlotSettings
  1

  2
none_device
  4
ISO_A4_(297.00_x_210.00_MM)
  6

 40
0.0
 41
0.0
 42
0.0
 43
0.0
 44
297.0
 45
210.0
 46
0.0
 47
0.0
 48
0.0
 49
0.0
140
0.0
141
0.0
142
1.0
143
1.0
 70
1024
 72
1
 73
0
 74
0
  7

 75
0
147
1.0
148
0.0
149
0.0
100
AcDbLayout
  1
Model
 70
0
 71
0
 10
0.0
 20
0.0
 11
297.0
 21
210.0
 12
0.0
 22
0.0
 32
0.0
 14
0.0
 24
0.0
 34
0.0
 15
0.0
 25
0.0
 35
0.0
146
0.0
 13
0.0
 23
0.0
 33
0.0
 16
1.0
 26
0.0
 36
0.0
 17
0.0
 27
1.0
 37
0.0
 76
0
330
212
345
0
346
0
  0
LAYOUT
  5
2B0
102
{ACAD_REACTORS
330
1A
102
}
100
AcDbPlotSettings
  1

  2
none_device
  4
ISO_A4_(297.00_x_210.00_MM)
  6

 40
0.0
 41
0.0
 42
0.0
 43
0.0
 44
297.0
 45
210.0
 46
0.0
 47
0.0
 48
0.0
 49
0.0
140
0.0
141
0.0
142
1.0
143
1.0
 70
0
 72
1
 73
0
 74
0
  7

 75
0
147
1.0
148
0.0
149
0.0
100
AcDbLayout
  1
Layout1
 70
0
 71
1
 10
0.0
 20
0.0
 11
297.0
 21
210.0
 12
0.0
 22
0.0
 32
0.0
 14
0.0
 24
0.0
 34
0.0
 15
0.0
 25
0.0
 35
0.0
146
0.0
 13
0.0
 23
0.0
 33
0.0
 16
1.0
 26
0.0
 36
0.0
 17
0.0
 27
1.0
 37
0.0
 76
0
330
213
345
0
346
0
  0
ENDSEC
  0
EOF
