  0
SECTION
  2
HEADER
  9
$ACADVER
  1
AC1015
  9
$DWGCODEPAGE
  3
ANSI_1252
  9
$EXTMAX
 10
297.0
 20
210.0
 30
0.0
  9
$EXTMIN
 10
0.0
 20
0.0
 30
0.0
  9
$LIMMIN
 10
0.0
 20
0.0
  9
$LIMMAX
 10
297.0
 20
210.0
  9
$VIEWCTR
 10
148.5
 20
105.0
  9
$VIEWSIZE
 40
210.0
  9
$CLAYER
  8
0
  9
$LTSCALE
 40
16.335
  9
$CELTYPE
  6
BYLAYER
  9
$DIMSCALE
 40
1.0
  9
$DIMASZ
 40
3.0
  9
$DIMEXO
 40
1.85625
  9
$DIMDLI
 40
11.286
  9
$DIMEXE
 40
5.346
  9
$DIMCEN
 40
2.673
  9
$DIMLFAC
 40
1.0
  9
$DIMBLK
  1
_FILLED
  9
$DIMTXT
 40
3.0
  9
$DIMTOL
 70
1
  9
$DIMLIM
 70
0
  9
$DIMTFAC
 40
1.0
  9
$DIMTP
 40
0.01
  9
$DIMTM
 40
0.01
  9
$PDMODE
 70
3
  9
$PDSIZE
 40
3.0
  9
$HANDSEED
  5
24E
  9
$TILEMODE
 70
1
  9
$MEASUREMENT
 70
1
  9
$INSUNITS
 70
4
  0
ENDSEC
  0
SECTION
  2
CLASSES
  0
CLASS
  1
ACDBDICTIONARYWDFLT
  2
AcDbDictionaryWithDefault
  3
AutoCAD 2000
 90
0
280
0
281
0
  0
CLASS
  1
ACDBPLACEHOLDER
  2
AcDbPlaceHolder
  3
AutoCAD 2000
 90
0
280
0
281
0
  0
CLASS
  1
LAYOUT
  2
AcDbLayout
  3
AutoCAD 2000
 90
0
280
0
281
0
  0
ENDSEC
  0
SECTION
  2
TABLES
  0
TABLE
  2
VPORT
  5
8
100
AcDbSymbolTable
 70
2
  0
VPORT
  5
1F4
100
AcDbSymbolTableRecord
100
AcDbViewportTableRecord
  2
*ACTIVE
 70
0
 10
0.0
 20
0.0
 11
1.0
 21
1.0
 12
148.5
 22
105.0
 13
0.0
 23
0.0
 14
1.0
 24
1.0
 15
0.0
 25
0.0
 16
0.0
 26
0.0
 36
1.0
 17
0.0
 27
0.0
 37
0.0
 40
210.0
 41
1.4142857143
 42
50.0
 43
0.0
 44
0.0
 50
0.0
 51
0.0
 71
0
 72
100
 73
1
 74
1
 75
0
 76
0
 77
0
 78
0
  0
ENDTAB
  0
TABLE
  2
LTYPE
  5
5
100
AcDbSymbolTable
 70
6
  0
LTYPE
  5
14
100
AcDbSymbolTableRecord
100
AcDbLinetypeTableRecord
  2
BYBLOCK
 70
0
  3

 72
65
 73
0
 40
0.0
  0
LTYPE
  5
15
100
AcDbSymbolTableRecord
100
AcDbLinetypeTableRecord
  2
BYLAYER
 70
0
  3

 72
65
 73
0
 40
0.0
  0
LTYPE
  5
16
100
AcDbSymbolTableRecord
100
AcDbLinetypeTableRecord
  2
CONTINUOUS
 70
64
  3
Solid line
 72
65
 73
0
 40
0.0
  0
LTYPE
  5
1F5
100
AcDbSymbolTableRecord
100
AcDbLinetypeTableRecord
  2
CENTER
 70
64
  3
____ _ ____ _ ____ _ ____ _ ____ _ ____ _ ____
 72
65
 73
4
 40
0.6
 49
0.375
 74
0
 49
-0.075
 74
0
 49
0.075
 74
0
 49
-0.075
 74
0
  0
LTYPE
  5
1F6
100
AcDbSymbolTableRecord
100
AcDbLinetypeTableRecord
  2
HIDDEN
 70
64
  3
- - - - - - - - - - - - - - - - - - - -
 72
65
 73
2
 40
0.2
 49
0.1
 74
0
 49
-0.1
 74
0
  0
LTYPE
  5
1F7
100
AcDbSymbolTableRecord
100
AcDbLinetypeTableRecord
  2
PHANTOM
 70
64
  3
_____ _ _ _____ _ _ _____ _ _ _____
 72
65
 73
6
 40
0.8
 49
0.45
 74
0
 49
-0.05
 74
0
 49
0.1
 74
0
 49
-0.05
 74
0
 49
0.1
 74
0
 49
-0.05
 74
0
  0
LTYPE
  5
1F8
100
AcDbSymbolTableRecord
100
AcDbLinetypeTableRecord
  2
DOT
 70
64
  3
. . . . . . . . . . . . . . . . . . . .
 72
65
 73
2
 40
0.2
 49
0.1
 74
0
 49
-0.1
 74
0
  0
LTYPE
  5
1F9
100
AcDbSymbolTableRecord
100
AcDbLinetypeTableRecord
  2
DASHED
 70
64
  3
- - - - - - - - - - - - - - - - - - - -
 72
65
 73
2
 40
0.2
 49
0.1
 74
0
 49
-0.1
 74
0
  0
ENDTAB
  0
TABLE
  2
LAYER
  5
2
100
AcDbSymbolTable
 70
36
  0
LAYER
  5
10
100
AcDbSymbolTableRecord
100
AcDbLayerTableRecord
  2
0
 70
0
 62
7
  6
CONTINUOUS
370
-3
390
F
  0
LAYER
  5
1FA
100
AcDbSymbolTableRecord
100
AcDbLayerTableRecord
  2
DEFAULT_1
 70
0
 62
7
  6
CENTER
370
-3
390
F
  0
LAYER
  5
1FB
100
AcDbSymbolTableRecord
100
AcDbLayerTableRecord
  2
DEFAULT_2
 70
0
 62
7
  6
HIDDEN
370
-3
390
F
  0
LAYER
  5
1FC
100
AcDbSymbolTableRecord
100
AcDbLayerTableRecord
  2
DEFAULT_3
 70
0
 62
7
  6
PHANTOM
370
-3
390
F
  0
LAYER
  5
1FD
100
AcDbSymbolTableRecord
100
AcDbLayerTableRecord
  2
ASSI
 70
0
 62
7
  6
CONTINUOUS
370
-3
390
F
  0
LAYER
  5
1FE
100
AcDbSymbolTableRecord
100
AcDbLayerTableRecord
  2
COLORE_MATERIALE
 70
0
 62
7
  6
CONTINUOUS
370
-3
390
F
  0
LAYER
  5
1FF
100
AcDbSymbolTableRecord
100
AcDbLayerTableRecord
  2
COORDINATE
 70
0
 62
7
  6
CONTINUOUS
370
-3
390
F
  0
LAYER
  5
200
100
AcDbSymbolTableRecord
100
AcDbLayerTableRecord
  2
COORD_ORIGINE
 70
0
 62
7
  6
CONTINUOUS
370
-3
390
F
  0
LAYER
  5
201
100
AcDbSymbolTableRecord
100
AcDbLayerTableRecord
  2
COPY
 70
0
 62
7
  6
CONTINUOUS
370
-3
390
F
  0
LAYER
  5
202
100
AcDbSymbolTableRecord
100
AcDbLayerTableRecord
  2
CURVE
 70
0
 62
7
  6
CONTINUOUS
370
-3
390
F
  0
LAYER
  5
203
100
AcDbSymbolTableRecord
100
AcDbLayerTableRecord
  2
DRAFT
 70
0
 62
7
  6
CONTINUOUS
370
-3
390
F
  0
LAYER
  5
204
100
AcDbSymbolTableRecord
100
AcDbLayerTableRecord
  2
IGS
 70
0
 62
7
  6
CONTINUOUS
370
-3
390
F
  0
LAYER
  5
205
100
AcDbSymbolTableRecord
100
AcDbLayerTableRecord
  2
PIANI
 70
0
 62
7
  6
CONTINUOUS
370
-3
390
F
  0
LAYER
  5
206
100
AcDbSymbolTableRecord
100
AcDbLayerTableRecord
  2
PIANI_ORIGINE
 70
0
 62
7
  6
CONTINUOUS
370
-3
390
F
  0
LAYER
  5
207
100
AcDbSymbolTableRecord
100
AcDbLayerTableRecord
  2
PIANI_RIFERIMENTO
 70
0
 62
7
  6
CONTINUOUS
370
-3
390
F
  0
LAYER
  5
208
100
AcDbSymbolTableRecord
100
AcDbLayerTableRecord
  2
RACCORDO
 70
0
 62
7
  6
CONTINUOUS
370
-3
390
F
  0
LAYER
  5
209
100
AcDbSymbolTableRecord
100
AcDbLayerTableRecord
  2
SMUSSO
 70
0
 62
7
  6
CONTINUOUS
370
-3
390
F
  0
LAYER
  5
20A
100
AcDbSymbolTableRecord
100
AcDbLayerTableRecord
  2
SOLIDO
 70
0
 62
7
  6
CONTINUOUS
370
-3
390
F
  0
LAYER
  5
20B
100
AcDbSymbolTableRecord
100
AcDbLayerTableRecord
  2
SUPERFICI
 70
0
 62
7
  6
CONTINUOUS
370
-3
390
F
  0
LAYER
  5
20C
100
AcDbSymbolTableRecord
100
AcDbLayerTableRecord
  2
TRASH
 70
0
 62
7
  6
CONTINUOUS
370
-3
390
F
  0
ENDTAB
  0
TABLE
  2
STYLE
  5
3
100
AcDbSymbolTable
 70
1
  0
STYLE
  5
11
100
AcDbSymbolTableRecord
100
AcDbTextStyleTableRecord
  2
STANDARD
 70
0
 40
0.0
 41
0.8
 50
0.0
 71
0
 42
0.2
  3
txt
  4

  0
STYLE
  5
20D
100
AcDbSymbolTableRecord
100
AcDbTextStyleTableRecord
  2
TEXTSTYLE_1
 70
0
 40
0.0
 41
0.8
 50
0.0
 71
0
 42
0.2
  3
gdt
  4

  0
ENDTAB
  0
TABLE
  2
VIEW
  5
6
100
AcDbSymbolTable
 70
0
  0
ENDTAB
  0
TABLE
  2
UCS
  5
7
100
AcDbSymbolTable
 70
0
  0
ENDTAB
  0
TABLE
  2
APPID
  5
9
100
AcDbSymbolTable
 70
1
  0
APPID
  5
20E
100
AcDbSymbolTableRecord
100
AcDbRegAppTableRecord
  2
ACAD
 70
0
  0
ENDTAB
  0
TABLE
  2
BLOCK_RECORD
  5
1
100
AcDbSymbolTable
 70
0
  0
BLOCK_RECORD
  5
20F
100
AcDbSymbolTableRecord
100
AcDbBlockTableRecord
  2
*Model_Space
  0
BLOCK_RECORD
  5
210
100
AcDbSymbolTableRecord
100
AcDbBlockTableRecord
  2
*Paper_Space
  0
ENDTAB
  0
TABLE
  2
DIMSTYLE
  5
A
100
AcDbSymbolTable
 70
1
100
AcDbDimStyleTable
 71
0
  0
DIMSTYLE
105
211
100
AcDbSymbolTableRecord
100
AcDbDimStyleTableRecord
  2
STANDARD
 70
0
  3

  4

 40
1.0
 41
3.0
 42
0.0625
 43
0.38
 44
0.18
 45
0.0
 46
0.0
 47
0.01
 48
0.01
140
3.0
141
0.09
142
0.0
143
25.4
144
1.0
145
0.0
146
1.0
147
0.09
 71
1.0
 72
0.0
 73
0
 74
0
 75
0
 76
0
 77
1
 78
8
170
0
171
2
172
0
173
0
174
0
175
0
176
0
177
0
178
0
270
2
271
2
272
2
273
2
274
2
275
0
280
0
281
0
282
0
283
1
284
8
285
0
286
0
287
3
288
0
340
11
  0
ENDTAB
  0
ENDSEC
  0
SECTION
  2
BLOCKS
  0
BLOCK
  5
20
100
AcDbEntity
  8
0
100
AcDbBlockBegin
  2
*Model_Space
 70
0
 10
0.0
 20
0.0
 30
0.0
  3
*Model_Space
  1

  0
ENDBLK
  5
21
100
AcDbEntity
  8
0
100
AcDbBlockEnd
  0
BLOCK
  5
1C
100
AcDbEntity
  8
0
100
AcDbBlockBegin
  2
*Paper_Space
 70
0
 10
0.0
 20
0.0
 30
0.0
  3
*Paper_Space
  1

  0
ENDBLK
  5
1D
100
AcDbEntity
  8
0
100
AcDbBlockEnd
  0
ENDSEC
  0
SECTION
  2
ENTITIES
  0
LWPOLYLINE
  5
212
100
AcDbEntity
  8
RACCORDO
100
AcDbPolyline
 62
7
  6
CONTINUOUS
 90
34
 70
0
 10
-10.890895858
 20
12.3198767537
 10
-10.8996316115
 20
12.3151431154
 10
-10.9114884082
 20
12.3083307118
 10
-10.9229350267
 20
12.3012955198
 10
-10.9339817375
 20
12.2940381369
 10
-10.9446248001
 20
12.2865678496
 10
-10.9548460104
 20
12.2789057053
 10
-10.9646498713
 20
12.271058185
 10
-10.9740398582
 20
12.2630322743
 10
-10.982997733
 20
12.2548550095
 10
-10.9915242398
 20
12.2465399949
 10
-10.9996288342
 20
12.2380926597
 10
-11.0073072955
 20
12.2295327856
 10
-11.0145565971
 20
12.2208818892
 10
-11.0213913074
 20
12.2121416541
 10
-11.0278307494
 20
12.2033040345
 10
-11.0338771659
 20
12.194381493
 10
-11.0395353036
 20
12.1853838437
 10
-11.0448225043
 20
12.1762985461
 10
-11.0497408661
 20
12.1671349951
 10
-11.0542913888
 20
12.1579053749
 10
-11.058484968
 20
12.148600867
 10
-11.0623225238
 20
12.1392311546
 10
-11.0658044356
 20
12.1298082471
 10
-11.0689371498
 20
12.1203266854
 10
-11.0717205327
 20
12.110798127
 10
-11.0741554808
 20
12.1012329373
 10
-11.0762468314
 20
12.091623609
 10
-11.0779941357
 20
12.081981451
 10
-11.0793975856
 20
12.0723172282
 10
-11.0804597568
 20
12.0626224802
 10
-11.0811802905
 20
12.0529017704
 10
-11.0815581417
 20
12.0431727658
 10
-11.0816204206
 20
12.037137185
  0
LINE
  5
213
100
AcDbEntity
  8
RACCORDO
100
AcDbLine
 62
7
  6
CONTINUOUS
 10
-10.8908946401
 20
12.3198774165
 11
-7.9668453862
 21
13.8656562318
  0
LINE
  5
214
100
AcDbEntity
  8
RACCORDO
100
AcDbLine
 62
253
  6
CONTINUOUS
 10
-10.7986573718
 20
12.3156450995
 11
-7.8758806047
 21
13.8607512233
  0
LINE
  5
215
100
AcDbEntity
  8
DRAFT
100
AcDbLine
 62
7
  6
CONTINUOUS
 10
-5.9773865626
 20
12.9115042022
 11
-7.2678724705
 21
12.1274182154
  0
LINE
  5
216
100
AcDbEntity
  8
DRAFT
100
AcDbLine
 62
7
  6
CONTINUOUS
 10
-5.9773865626
 20
11.8647148772
 11
-6.3191520359
 21
11.6530579981
  0
LWPOLYLINE
  5
217
100
AcDbEntity
  8
RACCORDO
100
AcDbPolyline
 62
7
  6
CONTINUOUS
 90
45
 70
0
 10
-10.7883804832
 20
-5.3003758657
 10
-10.7872653895
 20
-5.3267443146
 10
-10.7854130529
 20
-5.3569661113
 10
-10.7829579944
 20
-5.3869091531
 10
-10.7799005226
 20
-5.4165762815
 10
-10.7762428735
 20
-5.4459506139
 10
-10.7719910339
 20
-5.4749947692
 10
-10.7671479763
 20
-5.5037033372
 10
-10.7617167589
 20
-5.5320696771
 10
-10.7557072664
 20
-5.5600557188
 10
-10.7491244298
 20
-5.5876559083
 10
-10.7419730743
 20
-5.6148648251
 10
-10.7342671197
 20
-5.6416459646
 10
-10.7260134688
 20
-5.6679947338
 10
-10.717219224
 20
-5.6939057698
 10
-10.707903199
 20
-5.7193426344
 10
-10.6980753703
 20
-5.7442998809
 10
-10.6877448666
 20
-5.7687745331
 10
-10.6769339341
 20
-5.7927350746
 10
-10.6656597506
 20
-5.8161675957
 10
-10.653929695
 20
-5.8390797724
 10
-10.641753741
 20
-5.861472337
 10
-10.6291466186
 20
-5.8833377032
 10
-10.6161187899
 20
-5.9046767673
 10
-10.6026733363
 20
-5.9255009545
 10
-10.588822972
 20
-5.9458052247
 10
-10.5745796609
 20
-5.9655866446
 10
-10.5599440286
 20
-5.9848571469
 10
-10.5449279816
 20
-6.0036121049
 10
-10.5295439258
 20
-6.0218469594
 10
-10.5137920883
 20
-6.0395713405
 10
-10.4976845969
 20
-6.0567801679
 10
-10.4812337488
 20
-6.0734686655
 10
-10.4644390752
 20
-6.0896447827
 10
-10.447313433
 20
-6.1053027959
 10
-10.4298687219
 20
-6.120438379
 10
-10.4121020394
 20
-6.1350594497
 10
-10.3940257665
 20
-6.1491604511
 10
-10.3756522916
 20
-6.1627365216
 10
-10.3569776079
 20
-6.1757944013
 10
-10.3380137733
 20
-6.1883284831
 10
-10.3187733809
 20
-6.2003335518
 10
-10.2992521047
 20
-6.2118147145
 10
-10.2794564104
 20
-6.2227694245
 10
-10.257479706
 20
-6.2341542873
  0
LWPOLYLINE
  5
218
100
AcDbEntity
  8
RACCORDO
100
AcDbPolyline
 62
7
  6
CONTINUOUS
 90
22
 70
0
 10
-11.0816204354
 20
12.0371478842
 10
-11.0805232192
 20
11.2094801275
 10
-11.0781359001
 20
10.3772227232
 10
-11.074461388
 20
9.5456374717
 10
-11.0694996908
 20
8.7147277635
 10
-11.0632508252
 20
7.8844965709
 10
-11.0557148083
 20
7.0549467391
 10
-11.0468916614
 20
6.2260812515
 10
-11.0367814151
 20
5.3979032039
 10
-11.0253841005
 20
4.570415615
 10
-11.0126997515
 20
3.7436215107
 10
-10.9987284131
 20
2.9175239986
 10
-10.983470133
 20
2.0921262187
 10
-10.9669249622
 20
1.2674312887
 10
-10.9490929594
 20
0.4434422177
 10
-10.929974184
 20
-0.3798380175
 10
-10.9095686997
 20
-1.2024063521
 10
-10.8878765757
 20
-2.0242598453
 10
-10.8648978791
 20
-2.8453957064
 10
-10.8406326846
 20
-3.6658109573
 10
-10.8150810911
 20
-4.4855021866
 10
-10.788380485
 20
-5.3003760769
  0
LWPOLYLINE
  5
219
100
AcDbEntity
  8
RACCORDO
100
AcDbPolyline
 62
7
  6
CONTINUOUS
 90
36
 70
0
 10
4.5920415409
 20
-13.6589149107
 10
4.6136718899
 20
-13.6693677381
 10
4.634434499
 20
-13.67873526
 10
4.6554426949
 20
-13.6875733878
 10
4.6766913861
 20
-13.6958793972
 10
4.6981891331
 20
-13.7036551775
 10
4.7199245632
 20
-13.7108945135
 10
4.7418862871
 20
-13.7175915838
 10
4.7640839743
 20
-13.7237465145
 10
4.7865067608
 20
-13.729352895
 10
4.8091430514
 20
-13.7344046525
 10
4.8320025288
 20
-13.73890001
 10
4.8550745856
 20
-13.7428321771
 10
4.8783477402
 20
-13.7461948036
 10
4.9018314866
 20
-13.7489842666
 10
4.9255152019
 20
-13.7511935372
 10
4.949387785
 20
-13.7528158886
 10
4.9734590599
 20
-13.7538458368
 10
4.9977226596
 20
-13.7542761031
 10
5.0221635967
 20
-13.7540993929
 10
5.0467797591
 20
-13.7533086597
 10
5.0715634509
 20
-13.751896919
 10
5.096501313
 20
-13.7498576616
 10
5.1215837084
 20
-13.7471844252
 10
5.146800214
 20
-13.7438712666
 10
5.1721408529
 20
-13.7399124861
 10
5.197597761
 20
-13.7353020632
 10
5.2231614824
 20
-13.7300344268
 10
5.2488218124
 20
-13.7241045431
 10
5.2745708832
 20
-13.7175068326
 10
5.3003992244
 20
-13.7102361275
 10
5.3262977969
 20
-13.7022874869
 10
5.3522604552
 20
-13.6936549585
 10
5.3782792928
 20
-13.6843329795
 10
5.4043431254
 20
-13.6743175526
 10
5.4265617029
 20
-13.6652406178
  0
LINE
  5
21A
100
AcDbEntity
  8
RACCORDO
100
AcDbLine
 62
7
  6
CONTINUOUS
 10
4.592069743
 20
-13.6589290337
 11
-10.2575006731
 21
-6.2341438257
  0
LINE
  5
21B
100
AcDbEntity
  8
RACCORDO
100
AcDbLine
 62
253
  6
CONTINUOUS
 10
4.1985974367
 20
-12.8982779122
 11
-10.6419167679
 21
-5.47802081
  0
LINE
  5
21C
100
AcDbEntity
  8
DRAFT
100
AcDbLine
 62
7
  6
CONTINUOUS
 10
-5.9773865626
 20
11.8647148772
 11
-5.9773865626
 21
12.9115042022
  0
LINE
  5
21D
100
AcDbEntity
  8
DRAFT
100
AcDbLine
 62
7
  6
CONTINUOUS
 10
5.5837772454
 20
7.1309222982
 11
4.0458360285
 21
6.4705639659
  0
LINE
  5
21E
100
AcDbEntity
  8
RACCORDO
100
AcDbLine
 62
253
  6
CONTINUOUS
 10
7.4822712875
 20
6.1816752772
 11
4.4556473448
 21
4.6884927412
  0
LINE
  5
21F
100
AcDbEntity
  8
RACCORDO
100
AcDbLine
 62
253
  6
CONTINUOUS
 10
7.6236926446
 20
5.9377793025
 11
4.5958147147
 21
4.443978113
  0
LINE
  5
220
100
AcDbEntity
  8
DRAFT
100
AcDbLine
 62
7
  6
CONTINUOUS
 10
7.6236926446
 20
3.4536429936
 11
8.4652534109
 21
3.8599858862
  0
LINE
  5
221
100
AcDbEntity
  8
DRAFT
100
AcDbLine
 62
7
  6
CONTINUOUS
 10
7.6236926446
 20
2.6544206727
 11
9.2784262093
 21
3.4533994871
  0
LINE
  5
222
100
AcDbEntity
  8
DRAFT
100
AcDbLine
 62
7
  6
CONTINUOUS
 10
9.7001518789
 20
0.6306162757
 11
10.5486800163
 21
0.6260816622
  0
LINE
  5
223
100
AcDbEntity
  8
DRAFT
100
AcDbLine
 62
7
  6
CONTINUOUS
 10
9.2784262093
 20
0.4242609235
 11
9.7001518789
 21
0.6306162757
  0
LINE
  5
224
100
AcDbEntity
  8
DRAFT
100
AcDbLine
 62
7
  6
CONTINUOUS
 10
9.4198475655
 20
0.0737306086
 11
9.2784262093
 21
0.0045314683
  0
LINE
  5
225
100
AcDbEntity
  8
0
100
AcDbLine
 62
7
  6
CONTINUOUS
 10
10.7462260169
 20
0.0888102516
 11
9.2784262093
 21
-0.7999499874
  0
LINE
  5
226
100
AcDbEntity
  8
0
100
AcDbLine
 62
7
  6
CONTINUOUS
 10
10.5486800163
 20
0.6260816622
 11
10.6971985907
 21
0.551822375
  0
LINE
  5
227
100
AcDbEntity
  8
RACCORDO
100
AcDbLine
 62
253
  6
CONTINUOUS
 10
3.8949303368
 20
4.4446886226
 11
-10.9351719888
 21
11.8597397854
  0
LINE
  5
228
100
AcDbEntity
  8
RACCORDO
100
AcDbLine
 62
253
  6
CONTINUOUS
 10
4.0351190305
 20
4.6881005656
 11
-10.7949862753
 21
12.1031532185
  0
LINE
  5
229
100
AcDbEntity
  8
RACCORDO
100
AcDbLine
 62
7
  6
CONTINUOUS
 10
7.6236926446
 20
5.9377793025
 11
7.6236926446
 21
2.6544206727
  0
LINE
  5
22A
100
AcDbEntity
  8
DRAFT
100
AcDbLine
 62
7
  6
CONTINUOUS
 10
9.2784262093
 20
3.4533994871
 11
8.4652534109
 21
3.8599858862
  0
LINE
  5
22B
100
AcDbEntity
  8
DRAFT
100
AcDbLine
 62
7
  6
CONTINUOUS
 10
4.0458360285
 20
6.4705639659
 11
-7.2678724705
 21
12.1274182154
  0
LINE
  5
22C
100
AcDbEntity
  8
DRAFT
100
AcDbLine
 62
7
  6
CONTINUOUS
 10
9.4198475655
 20
0.0737306086
 11
9.2784262093
 21
0.3355616529
  0
LINE
  5
22D
100
AcDbEntity
  8
DRAFT
100
AcDbLine
 62
7
  6
CONTINUOUS
 10
9.2784262093
 20
3.4533994871
 11
9.2784262093
 21
-4.4176066914
  0
LINE
  5
22E
100
AcDbEntity
  8
RACCORDO
100
AcDbLine
 62
7
  6
CONTINUOUS
 10
9.2784262093
 20
-4.4176066914
 11
9.2784262093
 21
-11.831750698
  0
LINE
  5
22F
100
AcDbEntity
  8
0
100
AcDbLine
 62
7
  6
CONTINUOUS
 10
10.7462260169
 20
-3.4937851217
 11
9.2784262093
 21
-4.4176066914
  0
LINE
  5
230
100
AcDbEntity
  8
RACCORDO
100
AcDbLine
 62
7
  6
CONTINUOUS
 10
-7.8758806047
 20
13.8607512233
 11
-5.9773865626
 21
12.9115042022
  0
LINE
  5
231
100
AcDbEntity
  8
RACCORDO
100
AcDbLine
 62
7
  6
CONTINUOUS
 10
5.5837772454
 20
7.1309222982
 11
7.4822712875
 21
6.1816752772
  0
LINE
  5
232
100
AcDbEntity
  8
0
100
AcDbLine
 62
253
  6
CONTINUOUS
 10
10.7462260169
 20
-3.4937851217
 11
10.7462260169
 21
0.0888102516
  0
LINE
  5
233
100
AcDbEntity
  8
0
100
AcDbLine
 62
7
  6
CONTINUOUS
 10
10.9022238439
 20
-3.2703367159
 11
10.9022238439
 21
0.3058861196
  0
LINE
  5
234
100
AcDbEntity
  8
RACCORDO
100
AcDbLine
 62
253
  6
CONTINUOUS
 10
5.5803703181
 20
-13.3840443512
 11
9.2784262093
 21
-11.831750698
  0
LINE
  5
235
100
AcDbEntity
  8
RACCORDO
100
AcDbLine
 62
7
  6
CONTINUOUS
 10
5.4265630727
 20
-13.6652400496
 11
9.1371436683
 21
-12.1076890342
  0
SPLINE
  5
236
100
AcDbEntity
  8
RACCORDO
100
AcDbSpline
 62
253
  6
CONTINUOUS
 70
0
 71
3
 72
16
 73
12
 74
10
 42
0.0000001
 43
0.0000001
 44
0.0000000001
 12
0.0081277328
 22
-0.2415218027
 32
0.0
 13
0.2158368066
 23
-0.1081014588
 33
0.0
 40
0.0
 40
0.0
 40
0.0
 40
0.0
 40
0.084791151
 40
0.1804139343
 40
0.2793394946
 40
0.382989309
 40
0.4924714137
 40
0.6085682298
 40
0.7317565534
 40
0.8622425095
 40
1.0
 40
1.0
 40
1.0
 40
1.0
 10
-10.788380371
 20
-5.3003760731
 30
0.0
 10
-10.7881506511
 20
-5.307202377
 30
0.0
 10
-10.7865790059
 20
-5.3216912375
 30
0.0
 10
-10.7807075793
 20
-5.34348632
 30
0.0
 10
-10.7709423445
 20
-5.3655001512
 30
0.0
 10
-10.7575776247
 20
-5.3868472908
 30
0.0
 10
-10.7407343612
 20
-5.4073776342
 30
0.0
 10
-10.7205500689
 20
-5.4269519963
 30
0.0
 10
-10.6971788594
 20
-5.4454382516
 30
0.0
 10
-10.6707961749
 20
-5.4627086139
 30
0.0
 10
-10.6518277517
 20
-5.4730587201
 30
0.0
 10
-10.6419167061
 20
-5.4780226487
 30
0.0
 11
-10.788380371
 21
-5.3003760731
 31
0.0
 11
-10.7861829016
 21
-5.3207302882
 31
0.0
 11
-10.7802257638
 21
-5.3430311886
 31
0.0
 11
-10.7706100809
 21
-5.3648897934
 31
0.0
 11
-10.7574074192
 21
-5.3861434163
 31
0.0
 11
-10.7407160415
 21
-5.4066338737
 31
0.0
 11
-10.7206601763
 21
-5.426208662
 31
0.0
 11
-10.6973890926
 21
-5.4447220926
 31
0.0
 11
-10.6710759894
 21
-5.4620363763
 31
0.0
 11
-10.6419167061
 21
-5.4780226487
 31
0.0
  0
SPLINE
  5
237
100
AcDbEntity
  8
RACCORDO
100
AcDbSpline
 62
253
  6
CONTINUOUS
 70
0
 71
3
 72
21
 73
17
 74
15
 42
0.0000001
 43
0.0000001
 44
0.0000000001
 12
-0.7964605661
 22
0.3982033626
 32
0.0
 13
-0.030029635
 23
0.8895360902
 33
0.0
 40
0.0
 40
0.0
 40
0.0
 40
0.0
 40
0.0101760532
 40
0.0758106552
 40
0.1420191621
 40
0.2092416473
 40
0.2778826804
 40
0.3482995347
 40
0.4207954861
 40
0.4956156083
 40
0.572946515
 40
0.6529175942
 40
0.7356050098
 40
0.8210348422
 40
0.9091869458
 40
1.0
 40
1.0
 40
1.0
 40
1.0
 10
-10.2574985133
 20
-6.2341447355
 30
0.0
 10
-10.2602001216
 20
-6.2327940227
 30
0.0
 10
-10.2802438014
 20
-6.2225653057
 30
0.0
 10
-10.3165933866
 20
-6.2011019865
 30
0.0
 10
-10.36409752
 20
-6.1658323511
 30
0.0
 10
-10.4083888152
 20
-6.1252783973
 30
0.0
 10
-10.4492836277
 20
-6.0796199653
 30
0.0
 10
-10.4866164783
 20
-6.029056398
 30
0.0
 10
-10.5202392884
 20
-5.9738046638
 30
0.0
 10
-10.550020616
 20
-5.914098022
 30
0.0
 10
-10.5758449387
 20
-5.8501855131
 30
0.0
 10
-10.5976124773
 20
-5.782331221
 30
0.0
 10
-10.615239153
 20
-5.710814208
 30
0.0
 10
-10.6286568102
 20
-5.6359268843
 30
0.0
 10
-10.6378135234
 20
-5.5579790191
 30
0.0
 10
-10.64100774
 20
-5.5049479732
 30
0.0
 10
-10.6419167676
 20
-5.4780208101
 30
0.0
 11
-10.2574985133
 21
-6.2341447355
 31
0.0
 11
-10.2655695097
 21
-6.2300258891
 31
0.0
 11
-10.3158808078
 21
-6.2003376751
 31
0.0
 11
-10.3632165674
 21
-6.1652394845
 31
0.0
 11
-10.4073815187
 21
-6.1248762269
 31
0.0
 11
-10.4481936543
 21
-6.0794143708
 31
0.0
 11
-10.4854846164
 21
-6.0290415962
 31
0.0
 11
-10.519100762
 21
-5.9739655935
 31
0.0
 11
-10.5489034789
 21
-5.9144135929
 31
0.0
 11
-10.5747699306
 21
-5.8506311868
 31
0.0
 11
-10.5965934233
 21
-5.7828816624
 31
0.0
 11
-10.6142840991
 21
-5.7114441776
 31
0.0
 11
-10.6277690333
 21
-5.6366132901
 31
0.0
 11
-10.6369925751
 21
-5.5586981818
 31
0.0
 11
-10.6419167676
 21
-5.4780208101
 31
0.0
  0
SPLINE
  5
238
100
AcDbEntity
  8
RACCORDO
100
AcDbSpline
 62
253
  6
CONTINUOUS
 70
0
 71
3
 72
30
 73
26
 74
24
 42
0.0000001
 43
0.0000001
 44
0.0000000001
 12
0.0358056239
 22
-1.0307464837
 32
0.0
 13
0.950985949
 23
0.3991817646
 33
0.0
 40
0.0
 40
0.0
 40
0.0
 40
0.0
 40
0.0522956558
 40
0.1031191012
 40
0.1524406439
 40
0.200257262
 40
0.2465921075
 40
0.2914963683
 40
0.3350506383
 40
0.3773666857
 40
0.4185875549
 40
0.4588868111
 40
0.4984656028
 40
0.5375485353
 40
0.5763769575
 40
0.6152013367
 40
0.6542721199
 40
0.6938312782
 40
0.7341040136
 40
0.7752924951
 40
0.8175710619
 40
0.8610840189
 40
0.9059442001
 40
0.9522330264
 40
1.0
 40
1.0
 40
1.0
 40
1.0
 10
4.8991815294
 20
-12.883696183
 30
0.0
 10
4.8998056889
 20
-12.9016640374
 30
0.0
 10
4.9020000515
 20
-12.9370696355
 30
0.0
 10
4.9082866196
 20
-12.9891290327
 30
0.0
 10
4.917498344
 20
-13.0391909247
 30
0.0
 10
4.9295995574
 20
-13.0870467966
 30
0.0
 10
4.9445434007
 20
-13.1325007047
 30
0.0
 10
4.9622720013
 20
-13.1753653213
 30
0.0
 10
4.9827165111
 20
-13.2154631192
 30
0.0
 10
5.0057970622
 20
-13.2526264752
 30
0.0
 10
5.0314226418
 20
-13.2866982895
 30
0.0
 10
5.0594906848
 20
-13.317532466
 30
0.0
 10
5.0898867302
 20
-13.3449949206
 30
0.0
 10
5.1224841519
 20
-13.3689648509
 30
0.0
 10
5.1571445175
 20
-13.3893364571
 30
0.0
 10
5.1937184322
 20
-13.4060205301
 30
0.0
 10
5.2320472263
 20
-13.4189457922
 30
0.0
 10
5.2719648264
 20
-13.4280594458
 30
0.0
 10
5.3132997393
 20
-13.4333270312
 30
0.0
 10
5.3558764276
 20
-13.4347317109
 30
0.0
 10
5.3995165147
 20
-13.4322733332
 30
0.0
 10
5.4440390287
 20
-13.4259676748
 30
0.0
 10
5.4892616091
 20
-13.415845335
 30
0.0
 10
5.5349961244
 20
-13.4019533857
 30
0.0
 10
5.5652284112
 20
-13.3904002528
 30
0.0
 10
5.5803703181
 20
-13.3840443512
 30
0.0
 11
4.8991815294
 21
-12.883696183
 31
0.0
 11
4.9025607302
 21
-12.9375262983
 31
0.0
 11
4.9088906731
 21
-12.989560379
 31
0.0
 11
4.9181451666
 21
-13.039580135
 31
0.0
 11
4.9302860382
 21
-13.0873788825
 31
0.0
 11
4.9452632345
 21
-13.1327595379
 31
0.0
 11
4.9630150895
 21
-13.1755351095
 31
0.0
 11
4.9834683806
 21
-13.2155290243
 31
0.0
 11
5.0065388065
 21
-13.2525763458
 31
0.0
 11
5.0321312395
 21
-13.2865242252
 31
0.0
 11
5.0601402358
 21
-13.3172326922
 31
0.0
 11
5.0904502532
 21
-13.3445749729
 31
0.0
 11
5.1229363814
 21
-13.3684383
 31
0.0
 11
5.1574646082
 21
-13.3887241493
 31
0.0
 11
5.1938926209
 21
-13.4053488318
 31
0.0
 11
5.2320700991
 21
-13.4182436777
 31
0.0
 11
5.2718396834
 21
-13.4273554766
 31
0.0
 11
5.3130373179
 21
-13.4326465766
 31
0.0
 11
5.3554931043
 21
-13.4340951016
 31
0.0
 11
5.399031772
 21
-13.4316950387
 31
0.0
 11
5.4434738879
 21
-13.4254562531
 31
0.0
 11
5.4886361482
 21
-13.4154044257
 31
0.0
 11
5.5343319064
 21
-13.401581116
 31
0.0
 11
5.5803703181
 21
-13.3840443512
 31
0.0
  0
SPLINE
  5
239
100
AcDbEntity
  8
RACCORDO
100
AcDbSpline
 62
253
  6
CONTINUOUS
 70
0
 71
3
 72
14
 73
10
 74
8
 42
0.0000001
 43
0.0000001
 44
0.0000000001
 12
0.0099597004
 22
-17.3311515243
 32
0.0
 13
0.6016273253
 23
-17.3207089033
 33
0.0
 40
0.0
 40
0.0
 40
0.0
 40
0.0
 40
0.1438697601
 40
0.2874043833
 40
0.4306023328
 40
0.5734622126
 40
0.7159826615
 40
0.8581623539
 40
1.0
 40
1.0
 40
1.0
 40
1.0
 10
4.5958147147
 20
4.443978113
 30
0.0
 10
4.596292348
 20
3.6128352422
 30
0.0
 10
4.6012227744
 20
1.952485083
 30
0.0
 10
4.6206052639
 20
-0.5350604552
 30
0.0
 10
4.6519597934
 20
-3.016649968
 30
0.0
 10
4.6952868053
 20
-5.4921993598
 30
0.0
 10
4.7505844688
 20
-7.961626573
 30
0.0
 10
4.8178510238
 20
-10.4248484831
 30
0.0
 10
4.8707370615
 20
-12.0647866562
 30
0.0
 10
4.8991815294
 20
-12.883696183
 30
0.0
 11
4.5958147147
 21
4.443978113
 31
0.0
 11
4.6032347856
 21
1.9505601294
 31
0.0
 11
4.6226304075
 21
-0.5369849704
 31
0.0
 11
4.6539993546
 21
-3.0185724879
 31
0.0
 11
4.6973405831
 21
-5.4941197445
 31
0.0
 11
4.7526526495
 21
-7.9635442641
 31
0.0
 11
4.8199337119
 21
-10.4267637683
 31
0.0
 11
4.8991815294
 21
-12.883696183
 31
0.0
  0
SPLINE
  5
23A
100
AcDbEntity
  8
RACCORDO
100
AcDbSpline
 62
253
  6
CONTINUOUS
 70
0
 71
3
 72
25
 73
21
 74
19
 42
0.0000001
 43
0.0000001
 44
0.0000000001
 12
-0.3882954647
 22
-0.1915613616
 32
0.0
 13
-0.38726801
 23
0.1936300896
 33
0.0
 40
0.0
 40
0.0
 40
0.0
 40
0.0
 40
0.049116629
 40
0.1004709385
 40
0.153853469
 40
0.2090257648
 40
0.2657223534
 40
0.323654861
 40
0.3825167695
 40
0.441989129
 40
0.5017449821
 40
0.5614533831
 40
0.620783948
 40
0.6794116082
 40
0.7370206095
 40
0.7933089922
 40
0.8479943817
 40
0.9008188588
 40
0.951553287
 40
1.0
 40
1.0
 40
1.0
 40
1.0
 10
4.4556473448
 20
4.6884927412
 30
0.0
 10
4.44929009
 20
4.6853564585
 30
0.0
 10
4.4360610206
 20
4.6793893462
 30
0.0
 10
4.4152862163
 20
4.6715153008
 30
0.0
 10
4.3932664352
 20
4.6645649461
 30
0.0
 10
4.3701661942
 20
4.6585905837
 30
0.0
 10
4.34615576
 20
4.6536361685
 30
0.0
 10
4.3214127196
 20
4.6497384791
 30
0.0
 10
4.2961202001
 20
4.6469264354
 30
0.0
 10
4.2704655693
 20
4.6452209393
 30
0.0
 10
4.2446389096
 20
4.6446346652
 30
0.0
 10
4.2188316345
 20
4.6451719687
 30
0.0
 10
4.1932350076
 20
4.6468288422
 30
0.0
 10
4.1680386693
 20
4.6495929569
 30
0.0
 10
4.1434292367
 20
4.653443757
 30
0.0
 10
4.1195887867
 20
4.6583526704
 30
0.0
 10
4.0966935777
 20
4.6642832684
 30
0.0
 10
4.0749122445
 20
4.671191967
 30
0.0
 10
4.0544074234
 20
4.6790268365
 30
0.0
 10
4.0413729846
 20
4.6849736518
 30
0.0
 10
4.0351190305
 20
4.6881005656
 30
0.0
 11
4.4556473448
 21
4.6884927412
 31
0.0
 11
4.4362749984
 21
4.67971944
 31
0.0
 11
4.4154928052
 21
4.6718133523
 31
0.0
 11
4.3934581127
 21
4.6648346658
 31
0.0
 11
4.3703353394
 21
4.6588354959
 31
0.0
 11
4.346296436
 21
4.6538604372
 31
0.0
 11
4.3215202285
 21
4.6499465121
 31
0.0
 11
4.2961912743
 21
4.6471228798
 31
0.0
 11
4.2704981038
 21
4.6454105513
 31
0.0
 11
4.2446318799
 21
4.6448222647
 31
0.0
 11
4.2187851559
 21
4.6453623996
 31
0.0
 11
4.1931503673
 21
4.6470269286
 31
0.0
 11
4.1679182407
 21
4.6498034614
 31
0.0
 11
4.1432765777
 21
4.6536713307
 31
0.0
 11
4.1194089195
 21
4.6586017154
 31
0.0
 11
4.0964928012
 21
4.6645579226
 31
0.0
 11
4.0746986233
 21
4.671495675
 31
0.0
 11
4.0541889961
 21
4.6793631637
 31
0.0
 11
4.0351190305
 21
4.6881005656
 31
0.0
  0
SPLINE
  5
23B
100
AcDbEntity
  8
RACCORDO
100
AcDbSpline
 62
253
  6
CONTINUOUS
 70
0
 71
3
 72
25
 73
21
 74
19
 42
0.0000001
 43
0.0000001
 44
0.0000000001
 12
-0.2568314831
 22
0.1284183383
 32
0.0
 13
0.2538569824
 23
0.1342025067
 33
0.0
 40
0.0
 40
0.0
 40
0.0
 40
0.0
 40
0.069392033
 40
0.1349950678
 40
0.196756885
 40
0.254750738
 40
0.3091905523
 40
0.3604504358
 40
0.4090804022
 40
0.4558075826
 40
0.5015092994
 40
0.5471527287
 40
0.5937104371
 40
0.642074188
 40
0.6929909228
 40
0.7470320028
 40
0.804591785
 40
0.8659021105
 40
0.9310514959
 40
1.0
 40
1.0
 40
1.0
 40
1.0
 10
-10.7949862753
 20
12.1031532185
 30
0.0
 10
-10.8009269616
 20
12.1061236217
 30
0.0
 10
-10.8122938816
 20
12.1122960279
 30
0.0
 10
-10.8281167623
 20
12.1225465279
 30
0.0
 10
-10.8421330072
 20
12.1334651532
 30
0.0
 10
-10.8542372593
 20
12.1449760948
 30
0.0
 10
-10.8643379831
 20
12.1570021488
 30
0.0
 10
-10.8723535311
 20
12.1694632269
 30
0.0
 10
-10.8782112934
 20
12.1822738372
 30
0.0
 10
-10.8818489762
 20
12.195338434
 30
0.0
 10
-10.8832210773
 20
12.2085475883
 30
0.0
 10
-10.8823087513
 20
12.2217804521
 30
0.0
 10
-10.8791253843
 20
12.2349152042
 30
0.0
 10
-10.8737122271
 20
12.2478401591
 30
0.0
 10
-10.8661286215
 20
12.2604573896
 30
0.0
 10
-10.8564448501
 20
12.2726794595
 30
0.0
 10
-10.8447402918
 20
12.2844246681
 30
0.0
 10
-10.8311040641
 20
12.2956142353
 30
0.0
 10
-10.8156390503
 20
12.306170514
 30
0.0
 10
-10.8044917249
 20
12.3125607455
 30
0.0
 10
-10.7986573718
 20
12.3156450995
 30
0.0
 11
-10.7949862753
 21
12.1031532185
 31
0.0
 11
-10.8124779482
 21
12.1126966359
 31
0.0
 11
-10.8282634184
 21
12.1229766958
 31
0.0
 11
-10.8422226643
 21
12.1339156554
 31
0.0
 11
-10.8542514447
 21
12.1454318974
 31
0.0
 11
-10.864260339
 21
12.1574397891
 31
0.0
 11
-10.8721748605
 21
12.169850012
 31
0.0
 11
-10.8779360353
 21
12.1825701298
 31
0.0
 11
-10.8815009798
 21
12.1955054675
 31
0.0
 11
-10.8828431588
 21
12.2085597841
 31
0.0
 11
-10.8819525674
 21
12.2216358869
 31
0.0
 11
-10.8788358361
 21
12.234636435
 31
0.0
 11
-10.8735161498
 21
12.2474647013
 31
0.0
 11
-10.8660330926
 21
12.2600252015
 31
0.0
 11
-10.8564424145
 21
12.2722243729
 31
0.0
 11
-10.8448154861
 21
12.2839714651
 31
0.0
 11
-10.8312387347
 21
12.2951791223
 31
0.0
 11
-10.8158135505
 21
12.3057637145
 31
0.0
 11
-10.7986573718
 21
12.3156450995
 31
0.0
  0
SPLINE
  5
23C
100
AcDbEntity
  8
RACCORDO
100
AcDbSpline
 62
253
  6
CONTINUOUS
 70
0
 71
3
 72
21
 73
17
 74
15
 42
0.0000001
 43
0.0000001
 44
0.0000000001
 12
-0.0021368311
 22
0.2938001325
 32
0.0
 13
-0.2608894941
 23
0.1351286639
 33
0.0
 40
0.0
 40
0.0
 40
0.0
 40
0.0
 40
0.0673928331
 40
0.1375555441
 40
0.2100479367
 40
0.2843591414
 40
0.359926622
 40
0.4361537444
 40
0.5124264484
 40
0.588129481
 40
0.6626626014
 40
0.73545716
 40
0.8059935034
 40
0.8738197308
 40
0.9385724235
 40
1.0
 40
1.0
 40
1.0
 40
1.0
 10
4.5958131374
 20
4.4439773348
 30
0.0
 10
4.595765135
 20
4.4505773426
 30
0.0
 10
4.5950490275
 20
4.4640497575
 30
0.0
 10
4.5922744837
 20
4.4844531861
 30
0.0
 10
4.5878112356
 20
4.5052481881
 30
0.0
 10
4.5817151628
 20
4.5261743675
 30
0.0
 10
4.5740622831
 20
4.5469721077
 30
0.0
 10
4.5649479933
 20
4.5673822137
 30
0.0
 10
4.5544859046
 20
4.587150373
 30
0.0
 10
4.5428063919
 20
4.6060301886
 30
0.0
 10
4.5300549059
 20
4.6237864339
 30
0.0
 10
4.5163899023
 20
4.640198101
 30
0.0
 10
4.501981021
 20
4.6550609927
 30
0.0
 10
4.4870053156
 20
4.6681908783
 30
0.0
 10
4.4716493848
 20
4.6794230984
 30
0.0
 10
4.4609892812
 20
4.6857258658
 30
0.0
 10
4.4556473448
 20
4.6884927412
 30
0.0
 11
4.5958131374
 21
4.4439773348
 31
0.0
 11
4.5947992003
 21
4.4637519041
 31
0.0
 11
4.5920512035
 21
4.4841822813
 31
0.0
 11
4.5876036979
 21
4.5050115921
 31
0.0
 11
4.5815126026
 21
4.5259779465
 31
0.0
 11
4.573854502
 21
4.5468177316
 31
0.0
 11
4.5647256825
 21
4.5672689257
 31
0.0
 11
4.5542409221
 21
4.5870743929
 31
0.0
 11
4.5425320472
 21
4.6059851161
 31
0.0
 11
4.5297462754
 21
4.6237633283
 31
0.0
 11
4.516044364
 21
4.6401855014
 31
0.0
 11
4.5015985891
 21
4.6550451571
 31
0.0
 11
4.4865905796
 21
4.6681554628
 31
0.0
 11
4.4712090334
 21
4.679351581
 31
0.0
 11
4.4556473448
 21
4.6884927412
 31
0.0
  0
SPLINE
  5
23D
100
AcDbEntity
  8
RACCORDO
100
AcDbSpline
 62
253
  6
CONTINUOUS
 70
0
 71
3
 72
21
 73
17
 74
15
 42
0.0000001
 43
0.0000001
 44
0.0000000001
 12
-0.0001667564
 22
0.2932347934
 32
0.0
 13
0.2611512161
 23
0.1333668407
 33
0.0
 40
0.0
 40
0.0
 40
0.0
 40
0.0
 40
0.067347286
 40
0.1373703293
 40
0.2096546094
 40
0.2837157771
 40
0.3590180866
 40
0.4349914997
 40
0.5110479434
 40
0.5865971367
 40
0.6610623669
 40
0.7338965858
 40
0.8045992311
 40
0.872734234
 40
0.9379497326
 40
1.0
 40
1.0
 40
1.0
 40
1.0
 10
3.8949318269
 20
4.4446878775
 30
0.0
 10
3.8949280834
 20
4.4512707334
 30
0.0
 10
3.8955446084
 20
4.4647041884
 30
0.0
 10
3.8981899937
 20
4.485046219
 30
0.0
 10
3.9025420217
 20
4.5057634467
 30
0.0
 10
3.908546652
 20
4.5265989816
 30
0.0
 10
3.9161296802
 20
4.5472969795
 30
0.0
 10
3.9251974955
 20
4.567602106
 30
0.0
 10
3.9356381917
 20
4.587263923
 30
0.0
 10
3.9473229767
 20
4.6060398247
 30
0.0
 10
3.9601078144
 20
4.6236982068
 30
0.0
 10
3.9738354445
 20
4.6400214268
 30
0.0
 10
3.988337156
 20
4.6548083233
 30
0.0
 10
4.003436464
 20
4.6678772756
 30
0.0
 10
4.0189469733
 20
4.6790658392
 30
0.0
 10
4.0297175296
 20
4.6853420829
 30
0.0
 10
4.0351190305
 20
4.6881005656
 30
0.0
 11
3.8949318269
 21
4.4446878775
 31
0.0
 11
3.8958010262
 21
4.4644173108
 31
0.0
 11
3.8984197427
 21
4.4847828322
 31
0.0
 11
3.90275538
 21
4.5055309425
 31
0.0
 11
3.9087539706
 21
4.5264033806
 31
0.0
 11
3.9163408471
 21
4.5471403375
 31
0.0
 11
3.9254215721
 21
4.5674836907
 31
0.0
 11
3.9358831138
 21
4.5871802171
 31
0.0
 11
3.9475952525
 21
4.605984745
 31
0.0
 11
3.9604122017
 21
4.6236632056
 31
0.0
 11
3.974174423
 21
4.6399955471
 31
0.0
 11
3.9887106116
 21
4.6547784732
 31
0.0
 11
4.0038398289
 21
4.667827974
 31
0.0
 11
4.0193737545
 21
4.6789816163
 31
0.0
 11
4.0351190305
 21
4.6881005656
 31
0.0
  0
SPLINE
  5
23E
100
AcDbEntity
  8
RACCORDO
100
AcDbSpline
 62
253
  6
CONTINUOUS
 70
0
 71
3
 72
21
 73
17
 74
15
 42
0.0000001
 43
0.0000001
 44
0.0000000001
 12
-0.0001667565
 22
0.2932347934
 32
0.0
 13
0.2611512162
 23
0.1333668405
 33
0.0
 40
0.0
 40
0.0
 40
0.0
 40
0.0
 40
0.0673472888
 40
0.1373703355
 40
0.2096546188
 40
0.2837157895
 40
0.3590181013
 40
0.4349915162
 40
0.5110479607
 40
0.586597154
 40
0.6610623832
 40
0.7338966003
 40
0.8045992429
 40
0.8727342424
 40
0.937949737
 40
1.0
 40
1.0
 40
1.0
 40
1.0
 10
-10.9351734789
 20
11.8597405305
 30
0.0
 10
-10.9351772225
 20
11.8663233866
 30
0.0
 10
-10.9345606974
 20
11.8797568422
 30
0.0
 10
-10.9319153119
 20
11.9000988737
 30
0.0
 10
-10.9275632835
 20
11.9208161023
 30
0.0
 10
-10.9215586528
 20
11.9416516379
 30
0.0
 10
-10.913975624
 20
11.9623496364
 30
0.0
 10
-10.9049078083
 20
11.9826547632
 30
0.0
 10
-10.8944671116
 20
12.0023165803
 30
0.0
 10
-10.8827823264
 20
12.0210924818
 30
0.0
 10
-10.8699974885
 20
12.0387508634
 30
0.0
 10
-10.8562698586
 20
12.0550740829
 30
0.0
 10
-10.8417681473
 20
12.0698609786
 30
0.0
 10
-10.82666884
 20
12.08292993
 30
0.0
 10
-10.8111583315
 20
12.0941184927
 30
0.0
 10
-10.8003877759
 20
12.100394736
 30
0.0
 10
-10.7949862753
 20
12.1031532185
 30
0.0
 11
-10.9351734789
 21
11.8597405305
 31
0.0
 11
-10.9343042796
 21
11.8794699646
 31
0.0
 11
-10.9316855629
 21
11.8998354869
 31
0.0
 11
-10.9273499252
 21
11.9205835981
 31
0.0
 11
-10.9213513342
 21
11.941456037
 31
0.0
 11
-10.9137644572
 21
11.9621929944
 31
0.0
 11
-10.9046837316
 21
11.9825363479
 31
0.0
 11
-10.8942221895
 21
12.0022328744
 31
0.0
 11
-10.8825100506
 21
12.0210374021
 31
0.0
 11
-10.8696931012
 21
12.0387158623
 31
0.0
 11
-10.85593088
 21
12.0550482032
 31
0.0
 11
-10.8413946917
 21
12.0698311285
 31
0.0
 11
-10.826265475
 21
12.0828806284
 31
0.0
 11
-10.8107315502
 21
12.0940342699
 31
0.0
 11
-10.7949862753
 21
12.1031532185
 31
0.0
  0
SPLINE
  5
23F
100
AcDbEntity
  8
RACCORDO
100
AcDbSpline
 62
253
  6
CONTINUOUS
 70
0
 71
3
 72
25
 73
21
 74
19
 42
0.0000001
 43
0.0000001
 44
0.0000000001
 12
-0.6480118001
 22
-0.3171872386
 32
0.0
 13
-0.6453094976
 23
0.3226494844
 33
0.0
 40
0.0
 40
0.0
 40
0.0
 40
0.0
 40
0.0490661593
 40
0.1003726271
 40
0.1537177291
 40
0.208861964
 40
0.2655394126
 40
0.3234610149
 40
0.3823195408
 40
0.4417952556
 40
0.5015603558
 40
0.5612830096
 40
0.620631948
 40
0.6792810605
 40
0.7369134626
 40
0.7932259881
 40
0.8479349309
 40
0.9007810902
 40
0.9515333252
 40
1.0
 40
1.0
 40
1.0
 40
1.0
 10
4.5958147147
 20
4.4439781069
 30
0.0
 10
4.5852162313
 20
4.438790387
 30
0.0
 10
4.5631634169
 20
4.4289252565
 30
0.0
 10
4.5285374321
 20
4.4159202675
 30
0.0
 10
4.4918382381
 20
4.4044534159
 30
0.0
 10
4.453338307
 20
4.3946102398
 30
0.0
 10
4.4133214917
 20
4.3864632391
 30
0.0
 10
4.3720837456
 20
4.3800728728
 30
0.0
 10
4.329930279
 20
4.3754865667
 30
0.0
 10
4.2871733651
 20
4.3727384107
 30
0.0
 10
4.2441297959
 20
4.371848829
 30
0.0
 10
4.2011185586
 20
4.3728244303
 30
0.0
 10
4.1584583887
 20
4.3756579452
 30
0.0
 10
4.1164653252
 20
4.3803282966
 30
0.0
 10
4.0754503919
 20
4.386800761
 30
0.0
 10
4.0357170551
 20
4.3950273058
 30
0.0
 10
3.9975590652
 20
4.4049469095
 30
0.0
 10
3.9612575596
 20
4.4164865735
 30
0.0
 10
3.9270819972
 20
4.4295603004
 30
0.0
 10
3.9053556723
 20
4.4394760396
 30
0.0
 10
3.8949303371
 20
4.4446886222
 30
0.0
 11
4.5958147147
 21
4.4439781069
 31
0.0
 11
4.5635225745
 21
4.4294736154
 31
0.0
 11
4.5288858191
 21
4.4164158049
 31
0.0
 11
4.4921613518
 21
4.4049015859
 31
0.0
 11
4.4536235835
 21
4.395017046
 31
0.0
 11
4.4135590002
 21
4.3868356378
 31
0.0
 11
4.372265666
 21
4.3804182422
 31
0.0
 11
4.3300511656
 21
4.3758126646
 31
0.0
 11
4.2872297101
 21
4.3730531709
 31
0.0
 11
4.2441198945
 21
4.3721602844
 31
0.0
 11
4.2010426114
 21
4.3731406489
 31
0.0
 11
4.1583185073
 21
4.3759869591
 31
0.0
 11
4.1162654429
 21
4.3806780364
 31
0.0
 11
4.0751964136
 21
4.3871789704
 31
0.0
 11
4.0354173107
 21
4.395441327
 31
0.0
 11
3.9972240431
 21
4.4054036233
 31
0.0
 11
3.9609005225
 21
4.416991821
 31
0.0
 11
3.9267181107
 21
4.4301193007
 31
0.0
 11
3.8949303371
 21
4.4446886222
 31
0.0
  0
SPLINE
  5
240
100
AcDbEntity
  8
RACCORDO
100
AcDbSpline
 62
253
  6
CONTINUOUS
 70
0
 71
3
 72
25
 73
21
 74
19
 42
0.0000001
 43
0.0000001
 44
0.0000000001
 12
-0.6382324066
 22
-0.3397686258
 32
0.0
 13
-0.6469237919
 23
0.3229131949
 33
0.0
 40
0.0
 40
0.0
 40
0.0
 40
0.0
 40
0.0497015169
 40
0.1015295064
 40
0.1552848573
 40
0.2107347044
 40
0.2676186666
 40
0.3256544268
 40
0.38454284
 40
0.4439727141
 40
0.5036253748
 40
0.5631791054
 40
0.6223135377
 40
0.6807140643
 40
0.7380763456
 40
0.7941109954
 40
0.848548548
 40
0.9011448365
 40
0.9516869527
 40
1.0
 40
1.0
 40
1.0
 40
1.0
 10
4.8991815294
 20
-12.883696183
 30
0.0
 10
4.8886078231
 20
-12.8893251884
 30
0.0
 10
4.8666025171
 20
-12.900074848
 30
0.0
 10
4.8319993981
 20
-12.9143875839
 30
0.0
 10
4.7953224856
 20
-12.9271421905
 30
0.0
 10
4.7568443114
 20
-12.9382437107
 30
0.0
 10
4.7168483988
 20
-12.94761049
 30
0.0
 10
4.6756306373
 20
-12.9551731155
 30
0.0
 10
4.6334960196
 20
-12.9608755541
 30
0.0
 10
4.5907565835
 20
-12.9646754943
 30
0.0
 10
4.5477289515
 20
-12.9665447411
 30
0.0
 10
4.5047319345
 20
-12.9664694361
 30
0.0
 10
4.462084097
 20
-12.9644501695
 30
0.0
 10
4.420101321
 20
-12.9605019611
 30
0.0
 10
4.3790944158
 20
-12.9546541322
 30
0.0
 10
4.3393666492
 20
-12.9469499929
 30
0.0
 10
4.3012117327
 20
-12.9374465881
 30
0.0
 10
4.2649104441
 20
-12.9262135923
 30
0.0
 10
4.2307324483
 20
-12.9133345158
 30
0.0
 10
4.2090157962
 20
-12.9034800537
 30
0.0
 10
4.1985975096
 20
-12.8982797469
 30
0.0
 11
4.8991815294
 21
-12.883696183
 31
0.0
 11
4.8669150297
 21
-12.8995162236
 31
0.0
 11
4.8323036244
 21
-12.9138800698
 31
0.0
 11
4.7956049144
 21
-12.9266808163
 31
0.0
 11
4.7570920359
 21
-12.9378231914
 31
0.0
 11
4.7170516274
 21
-12.9472242662
 31
0.0
 11
4.6757816962
 21
-12.9548140716
 31
0.0
 11
4.6335894004
 21
-12.9605361193
 31
0.0
 11
4.5907887633
 21
-12.9643478219
 31
0.0
 11
4.5476983356
 21
-12.9662208104
 31
0.0
 11
4.5046388248
 21
-12.9661411445
 31
0.0
 11
4.4619307084
 21
-12.9641094173
 31
0.0
 11
4.4198918487
 21
-12.9601407503
 31
0.0
 11
4.3788351266
 21
-12.9542646808
 31
0.0
 11
4.3390661137
 21
-12.9465249425
 31
0.0
 11
4.3008807973
 21
-12.9369791397
 31
0.0
 11
4.2645633779
 21
-12.9256983185
 31
0.0
 11
4.2303841538
 21
-12.9127664384
 31
0.0
 11
4.1985975096
 21
-12.8982797469
 31
0.0
  0
SPLINE
  5
241
100
AcDbEntity
  8
RACCORDO
100
AcDbSpline
 62
253
  6
CONTINUOUS
 70
0
 71
3
 72
18
 73
14
 74
12
 42
0.0000001
 43
0.0000001
 44
0.0000000001
 12
-0.0143950899
 22
-0.3376864714
 32
0.0
 13
-0.3118982466
 23
-0.1309366183
 33
0.0
 40
0.0
 40
0.0
 40
0.0
 40
0.0
 40
0.1121022107
 40
0.2202342203
 40
0.3242292018
 40
0.4240330766
 40
0.5197202016
 40
0.6115080996
 40
0.6997689402
 40
0.7850342451
 40
0.8679883447
 40
0.9494463501
 40
1.0
 40
1.0
 40
1.0
 40
1.0
 10
5.5803703181
 20
-13.3840443512
 30
0.0
 10
5.579832411
 20
-13.3966628179
 30
0.0
 10
5.5779232597
 20
-13.4214272123
 30
0.0
 10
5.5723961532
 20
-13.4575713217
 30
0.0
 10
5.564293177
 20
-13.4918106387
 30
0.0
 10
5.5536709434
 20
-13.5238854842
 30
0.0
 10
5.5406032636
 20
-13.5535542872
 30
0.0
 10
5.5251808407
 20
-13.5805906935
 30
0.0
 10
5.5075113646
 20
-13.6047848374
 30
0.0
 10
5.4877205774
 20
-13.6259436181
 30
0.0
 10
5.4659542014
 20
-13.6438923071
 30
0.0
 10
5.4452934318
 20
-13.6566753612
 30
0.0
 10
5.4318187402
 20
-13.6630331382
 30
0.0
 10
5.4265628753
 20
-13.6652395795
 30
0.0
 11
5.5803703181
 21
-13.3840443512
 31
0.0
 11
5.5774107712
 21
-13.4218183699
 31
0.0
 11
5.5718334085
 21
-13.4579381772
 31
0.0
 11
5.5636806279
 21
-13.4921291989
 31
0.0
 11
5.5530144047
 21
-13.524131523
 31
0.0
 11
5.5399158212
 21
-13.5537018756
 31
0.0
 11
5.5244844497
 21
-13.5806154699
 31
0.0
 11
5.5068375956
 21
-13.6046677152
 31
0.0
 11
5.4871094062
 21
-13.625675772
 31
0.0
 11
5.4654498505
 21
-13.6434799421
 31
0.0
 11
5.4420235792
 21
-13.6579448825
 31
0.0
 11
5.4265628753
 21
-13.6652395795
 31
0.0
  0
SPLINE
  5
242
100
AcDbEntity
  8
RACCORDO
100
AcDbSpline
 62
253
  6
CONTINUOUS
 70
0
 71
3
 72
17
 73
13
 74
11
 42
0.0000001
 43
0.0000001
 44
0.0000000001
 12
-0.2162620823
 22
0.1081328054
 32
0.0
 13
-0.0001286739
 23
0.2420752527
 33
0.0
 40
0.0
 40
0.0
 40
0.0
 40
0.0
 40
0.1373584156
 40
0.2671711652
 40
0.3893512784
 40
0.504036763
 40
0.6116455845
 40
0.7129135521
 40
0.8089269105
 40
0.9011260848
 40
0.9912534831
 40
1.0
 40
1.0
 40
1.0
 40
1.0
 10
-10.9351719885
 20
11.859739785
 30
0.0
 10
-10.9450737942
 20
11.8646907686
 30
0.0
 10
-10.9640178385
 20
11.8749745765
 30
0.0
 10
-10.9903896255
 20
11.8920438078
 30
0.0
 10
-11.0137489836
 20
11.9102153152
 30
0.0
 10
-11.0339219866
 20
11.9293637585
 30
0.0
 10
-11.050756159
 20
11.9493607936
 30
0.0
 10
-11.0641156245
 20
11.9700734598
 30
0.0
 10
-11.0738794013
 20
11.9913600286
 30
0.0
 10
-11.0799434137
 20
12.0130621106
 30
0.0
 10
-11.0815487594
 20
12.0284541246
 30
0.0
 10
-11.0816199296
 20
12.0364323534
 30
0.0
 10
-11.0816203047
 20
12.0371381251
 30
0.0
 11
-10.9351719885
 21
11.859739785
 31
0.0
 11
-10.9643287704
 21
11.8756427412
 31
0.0
 11
-10.9906372877
 21
11.8927607261
 31
0.0
 11
-11.0139022646
 21
11.9109667771
 31
0.0
 11
-11.0339497983
 21
11.9301248815
 31
0.0
 11
-11.0506308977
 21
11.950092626
 31
0.0
 11
-11.0638214306
 21
11.9707214732
 31
0.0
 11
-11.0734231219
 21
11.9918577737
 31
0.0
 11
-11.0793645135
 21
12.0133442113
 31
0.0
 11
-11.0816013942
 21
12.0350209288
 31
0.0
 11
-11.0816203047
 21
12.0371381251
 31
0.0
  0
SPLINE
  5
243
100
AcDbEntity
  8
RACCORDO
100
AcDbSpline
 62
253
  6
CONTINUOUS
 70
0
 71
3
 72
21
 73
17
 74
15
 42
0.0000001
 43
0.0000001
 44
0.0000000001
 12
0.0310255755
 22
-0.898250684
 32
0.0
 13
0.8042469562
 23
-0.4021467306
 33
0.0
 40
0.0
 40
0.0
 40
0.0
 40
0.0
 40
0.0900019452
 40
0.1774451788
 40
0.2622810323
 40
0.3445013544
 40
0.424143187
 40
0.5012921152
 40
0.5760847718
 40
0.648712063
 40
0.7194195486
 40
0.7885063404
 40
0.8563202125
 40
0.923250578
 40
0.9897168994
 40
1.0
 40
1.0
 40
1.0
 40
1.0
 10
4.1985974364
 20
-12.8982779121
 30
0.0
 10
4.1995282238
 20
-12.925226015
 30
0.0
 10
4.2028004224
 20
-12.9783201031
 30
0.0
 10
4.2121758458
 20
-13.0563820371
 30
0.0
 10
4.2259135332
 20
-13.1314335441
 30
0.0
 10
4.2439603581
 20
-13.2031637766
 30
0.0
 10
4.2662465068
 20
-13.2712791187
 30
0.0
 10
4.2926857019
 20
-13.3354989701
 30
0.0
 10
4.3231753809
 20
-13.3955574791
 30
0.0
 10
4.3575965982
 20
-13.451203687
 30
0.0
 10
4.3958138501
 20
-13.5022024158
 30
0.0
 10
4.4376744363
 20
-13.5483349507
 30
0.0
 10
4.483007896
 20
-13.5894005207
 30
0.0
 10
4.5316255352
 20
-13.6252182016
 30
0.0
 10
4.5687940598
 20
-13.6470836928
 30
0.0
 10
4.5892865271
 20
-13.6575371905
 30
0.0
 10
4.5920432446
 20
-13.6589156289
 30
0.0
 11
4.1985974364
 21
-12.8982779121
 31
0.0
 11
4.2036375822
 21
-12.9790132605
 31
0.0
 11
4.2130783134
 21
-13.0570369635
 31
0.0
 11
4.2268807839
 21
-13.1320266191
 31
0.0
 11
4.244988029
 21
-13.2036723886
 31
0.0
 11
4.2673254091
 21
-13.2716788567
 31
0.0
 11
4.2938009492
 21
-13.335765807
 31
0.0
 11
4.3243054437
 21
-13.3956686964
 31
0.0
 11
4.3587131633
 21
-13.451140486
 31
0.0
 11
4.3968822321
 21
-13.501952314
 31
0.0
 11
4.4386553888
 21
-13.5478946806
 31
0.0
 11
4.4838603116
 21
-13.5887779241
 31
0.0
 11
4.5323107072
 21
-13.6244334326
 31
0.0
 11
4.5838067077
 21
-13.6547139978
 31
0.0
 11
4.5920432446
 21
-13.6589156289
 31
0.0
  0
SPLINE
  5
244
100
AcDbEntity
  8
RACCORDO
100
AcDbSpline
 62
253
  6
CONTINUOUS
 70
0
 71
3
 72
14
 73
10
 74
8
 42
0.0000001
 43
0.0000001
 44
0.0000000001
 12
0.0100365242
 22
-17.3464470998
 32
0.0
 13
0.6021481308
 23
-17.3359956549
 33
0.0
 40
0.0
 40
0.0
 40
0.0
 40
0.0
 40
0.143869807
 40
0.2874043598
 40
0.4306022708
 40
0.5734621439
 40
0.7159826183
 40
0.8581623681
 40
1.0
 40
1.0
 40
1.0
 40
1.0
 10
3.8949303368
 20
4.4446886226
 30
0.0
 10
3.8954116544
 20
3.6128119574
 30
0.0
 10
3.9003569278
 20
1.9509966243
 30
0.0
 10
3.9197621478
 20
-0.5387438846
 30
0.0
 10
3.951150652
 20
-3.0225227796
 30
0.0
 10
3.9945199969
 20
-5.5002567783
 30
0.0
 10
4.0498691227
 20
-7.9718637652
 30
0.0
 10
4.1171960461
 20
-10.43725996
 30
0.0
 10
4.1701283484
 20
-12.0786457223
 30
0.0
 10
4.1985974367
 20
-12.8982779122
 30
0.0
 11
3.8949303368
 21
4.4446886226
 31
0.0
 11
3.9023690415
 21
1.9490692955
 31
0.0
 11
3.9217891971
 21
-0.5406699109
 31
0.0
 11
3.9531916473
 21
-3.0244468119
 31
0.0
 11
3.9965753465
 21
-5.5021786743
 31
0.0
 11
4.0519388505
 21
-7.973782969
 31
0.0
 11
4.1192803156
 21
-10.4391773581
 31
0.0
 11
4.1985974367
 21
-12.8982779122
 31
0.0
  0
SPLINE
  5
245
100
AcDbEntity
  8
RACCORDO
100
AcDbSpline
 62
253
  6
CONTINUOUS
 70
0
 71
3
 72
14
 73
10
 74
8
 42
0.0000001
 43
0.0000001
 44
0.0000000001
 12
0.0847625824
 22
0.0448252741
 32
0.0
 13
0.0862360102
 23
-0.041622873
 33
0.0
 40
0.0
 40
0.0
 40
0.0
 40
0.0
 40
0.0328454073
 40
0.1784907282
 40
0.3276316557
 40
0.4827425107
 40
0.6457473587
 40
0.8179412253
 40
1.0
 40
1.0
 40
1.0
 40
1.0
 10
-10.8908944814
 20
12.3198771165
 30
0.0
 10
-10.8899664609
 20
12.3203678846
 30
0.0
 10
-10.8848685984
 20
12.3229310701
 30
0.0
 10
-10.8750045384
 20
12.3265720188
 30
0.0
 10
-10.8607973768
 20
12.3291035881
 30
0.0
 10
-10.8458216934
 20
12.3292619254
 30
0.0
 10
-10.830272566
 20
12.3270637905
 30
0.0
 10
-10.8143451937
 20
12.3225539587
 30
0.0
 10
-10.8038907126
 20
12.3181710359
 30
0.0
 10
-10.7986573718
 20
12.3156450995
 30
0.0
 11
-10.8908944814
 21
12.3198771165
 31
0.0
 11
-10.8880809241
 21
12.3212915986
 31
0.0
 11
-10.8750038914
 21
12.3261384091
 31
0.0
 11
-10.8609514262
 21
12.3286833946
 31
0.0
 11
-10.8461002121
 21
12.3288945564
 31
0.0
 11
-10.8306369756
 21
12.3267692398
 31
0.0
 11
-10.8147561381
 21
12.3223341665
 31
0.0
 11
-10.7986573718
 21
12.3156450995
 31
0.0
  0
SPLINE
  5
246
100
AcDbEntity
  8
RACCORDO
100
AcDbSpline
 62
253
  6
CONTINUOUS
 70
0
 71
3
 72
14
 73
10
 74
8
 42
0.0000001
 43
0.0000001
 44
0.0000000001
 12
-0.5816951508
 22
17.3312517414
 32
0.0
 13
-0.0096895536
 23
17.3410081104
 33
0.0
 40
0.0
 40
0.0
 40
0.0
 40
0.0
 40
0.1417987989
 40
0.2839530397
 40
0.4264611034
 40
0.5693214388
 40
0.7125324602
 40
0.8560925467
 40
1.0
 40
1.0
 40
1.0
 40
1.0
 10
-10.6419167679
 20
-5.47802081
 30
0.0
 10
-10.6694113258
 20
-4.6588372499
 30
0.0
 10
-10.7205312578
 20
-3.0182818538
 30
0.0
 10
-10.7855497861
 20
-0.5540417455
 30
0.0
 10
-10.8390010667
 20
1.9166144059
 30
0.0
 10
-10.8808833825
 20
4.3936029073
 30
0.0
 10
-10.9111949737
 20
6.8768416428
 30
0.0
 10
-10.9299362317
 20
9.366246895
 30
0.0
 10
-10.9347071892
 20
11.0279063473
 30
0.0
 10
-10.9351719888
 20
11.8597397854
 30
0.0
 11
-10.6419167679
 21
-5.47802081
 31
0.0
 11
-10.718515096
 21
-3.0202796523
 31
0.0
 11
-10.7835482639
 21
-0.5560394118
 31
0.0
 11
-10.8370140452
 21
1.9146160215
 31
0.0
 11
-10.8789106597
 21
4.3916043416
 31
0.0
 11
-10.9092367123
 21
6.8748430438
 31
0.0
 11
-10.9279911935
 21
9.364249413
 31
0.0
 11
-10.9351719888
 21
11.8597397854
 31
0.0
  0
ELLIPSE
  5
247
100
AcDbEntity
  8
RACCORDO
100
AcDbEllipse
 62
7
  6
CONTINUOUS
 10
8.9248189626
 20
-11.6545510231
 30
0.0
 11
-0.2234618187
 21
0.4480306886
 31
0.0
 40
0.6116748051
 41
-3.1815382096
 42
-2.2548620396
  0
ELLIPSE
  5
248
100
AcDbEntity
  8
RACCORDO
100
AcDbEllipse
 62
7
  6
CONTINUOUS
 10
-7.8758590631
 20
13.6875287763
 30
0.0
 11
-0.0894818401
 21
0.1789012953
 31
0.0
 40
0.6122950388
 41
-0.6847996396
 42
0.0137999144
  0
ELLIPSE
  5
249
100
AcDbEntity
  8
0
100
AcDbEllipse
 62
7
  6
CONTINUOUS
 10
10.2022238439
 20
-3.2740759803
 30
0.0
 11
0.6999953968
 21
0.0050237095
 31
0.0
 40
0.5053247124
 41
-0.6843049942
 42
-0.0036288315
  0
ELLIPSE
  5
24A
100
AcDbEntity
  8
RACCORDO
100
AcDbEllipse
 62
7
  6
CONTINUOUS
 10
7.4822497459
 20
6.0084743718
 30
0.0
 11
-0.0894578232
 21
0.1788799337
 31
0.0
 40
0.6124778111
 41
-2.255529033
 42
-0.6848850053
  0
ELLIPSE
  5
24B
100
AcDbEntity
  8
0
100
AcDbEllipse
 62
7
  6
CONTINUOUS
 10
10.2022238439
 20
0.309625384
 30
0.0
 11
0.6999957133
 21
-0.0049526276
 31
0.0
 40
0.4946372042
 41
-0.6771787527
 42
0.7888978189
  0
ENDSEC
  0
SECTION
  2
OBJECTS
  0
DICTIONARY
  5
C
100
AcDbDictionary
280
0
281
1
  3
ACAD_GROUP
350
D
  3
ACAD_MLINESTYLE
350
17
  3
ACAD_LAYOUT
350
1A
  3
ACAD_PLOTSETTINGS
350
19
  3
ACAD_PLOTSTYLENAME
350
E
  0
DICTIONARY
  5
D
102
{ACAD_REACTORS
330
C
102
}
100
AcDbDictionary
280
0
281
1
  0
ACDBDICTIONARYWDFLT
  5
E
102
{ACAD_REACTORS
330
C
102
}
100
AcDbDictionary
281
1
  3
Normal
350
F
100
AcDbDictionaryWithDefault
340
F
  0
DICTIONARY
  5
17
102
{ACAD_REACTORS
330
C
102
}
100
AcDbDictionary
280
0
281
1
  3
Standard
350
18
  0
DICTIONARY
  5
19
102
{ACAD_REACTORS
330
C
102
}
100
AcDbDictionary
281
1
  0
DICTIONARY
  5
1A
102
{ACAD_REACTORS
330
C
102
}
100
AcDbDictionary
281
1
  3
Model
350
24C
  3
Layout1
350
24D
  0
ACDBPLACEHOLDER
  5
F
102
{ACAD_REACTORS
330
E
102
}
  0
MLINESTYLE
  5
18
102
{ACAD_REACTORS
330
17
102
}
100
AcDbMlineStyle
  2
STANDARD
 70
0
  3

 62
256
 51
90.0
 52
90.0
 71
2
 49
0.5
 62
256
  6
BYLAYER
 49
-0.5
 62
256
  6
BYLAYER
  0
LAYOUT
  5
24C
102
{ACAD_REACTORS
330
1A
102
}
100
AcDbPlotSettings
  1

  2
none_device
  4
ISO_A4_(297.00_x_210.00_MM)
  6

 40
0.0
 41
0.0
 42
0.0
 43
0.0
 44
297.0
 45
210.0
 46
0.0
 47
0.0
 48
0.0
 49
0.0
140
0.0
141
0.0
142
1.0
143
1.0
 70
1024
 72
1
 73
0
 74
0
  7

 75
0
147
1.0
148
0.0
149
0.0
100
AcDbLayout
  1
Model
 70
0
 71
0
 10
0.0
 20
0.0
 11
297.0
 21
210.0
 12
0.0
 22
0.0
 32
0.0
 14
0.0
 24
0.0
 34
0.0
 15
0.0
 25
0.0
 35
0.0
146
0.0
 13
0.0
 23
0.0
 33
0.0
 16
1.0
 26
0.0
 36
0.0
 17
0.0
 27
1.0
 37
0.0
 76
0
330
20F
345
0
346
0
  0
LAYOUT
  5
24D
102
{ACAD_REACTORS
330
1A
102
}
100
AcDbPlotSettings
  1

  2
none_device
  4
ISO_A4_(297.00_x_210.00_MM)
  6

 40
0.0
 41
0.0
 42
0.0
 43
0.0
 44
297.0
 45
210.0
 46
0.0
 47
0.0
 48
0.0
 49
0.0
140
0.0
141
0.0
142
1.0
143
1.0
 70
0
 72
1
 73
0
 74
0
  7

 75
0
147
1.0
148
0.0
149
0.0
100
AcDbLayout
  1
Layout1
 70
0
 71
1
 10
0.0
 20
0.0
 11
297.0
 21
210.0
 12
0.0
 22
0.0
 32
0.0
 14
0.0
 24
0.0
 34
0.0
 15
0.0
 25
0.0
 35
0.0
146
0.0
 13
0.0
 23
0.0
 33
0.0
 16
1.0
 26
0.0
 36
0.0
 17
0.0
 27
1.0
 37
0.0
 76
0
330
210
345
0
346
0
  0
ENDSEC
  0
EOF
