  0
SECTION
  2
HEADER
  9
$ACADVER
  1
AC1015
  9
$DWGCODEPAGE
  3
ANSI_1252
  9
$EXTMAX
 10
297.0
 20
210.0
 30
0.0
  9
$EXTMIN
 10
0.0
 20
0.0
 30
0.0
  9
$LIMMIN
 10
0.0
 20
0.0
  9
$LIMMAX
 10
297.0
 20
210.0
  9
$VIEWCTR
 10
148.5
 20
105.0
  9
$VIEWSIZE
 40
210.0
  9
$CLAYER
  8
0
  9
$LTSCALE
 40
16.335
  9
$CELTYPE
  6
BYLAYER
  9
$DIMSCALE
 40
1.0
  9
$DIMASZ
 40
3.0
  9
$DIMEXO
 40
1.85625
  9
$DIMDLI
 40
11.286
  9
$DIMEXE
 40
5.346
  9
$DIMCEN
 40
2.673
  9
$DIMLFAC
 40
1.0
  9
$DIMBLK
  1
_FILLED
  9
$DIMTXT
 40
3.0
  9
$DIMTOL
 70
1
  9
$DIMLIM
 70
0
  9
$DIMTFAC
 40
1.0
  9
$DIMTP
 40
0.01
  9
$DIMTM
 40
0.01
  9
$PDMODE
 70
3
  9
$PDSIZE
 40
3.0
  9
$HANDSEED
  5
24F
  9
$TILEMODE
 70
1
  9
$MEASUREMENT
 70
1
  9
$INSUNITS
 70
4
  0
ENDSEC
  0
SECTION
  2
CLASSES
  0
CLASS
  1
ACDBDICTIONARYWDFLT
  2
AcDbDictionaryWithDefault
  3
AutoCAD 2000
 90
0
280
0
281
0
  0
CLASS
  1
ACDBPLACEHOLDER
  2
AcDbPlaceHolder
  3
AutoCAD 2000
 90
0
280
0
281
0
  0
CLASS
  1
LAYOUT
  2
AcDbLayout
  3
AutoCAD 2000
 90
0
280
0
281
0
  0
ENDSEC
  0
SECTION
  2
TABLES
  0
TABLE
  2
VPORT
  5
8
100
AcDbSymbolTable
 70
2
  0
VPORT
  5
1F4
100
AcDbSymbolTableRecord
100
AcDbViewportTableRecord
  2
*ACTIVE
 70
0
 10
0.0
 20
0.0
 11
1.0
 21
1.0
 12
148.5
 22
105.0
 13
0.0
 23
0.0
 14
1.0
 24
1.0
 15
0.0
 25
0.0
 16
0.0
 26
0.0
 36
1.0
 17
0.0
 27
0.0
 37
0.0
 40
210.0
 41
1.4142857143
 42
50.0
 43
0.0
 44
0.0
 50
0.0
 51
0.0
 71
0
 72
100
 73
1
 74
1
 75
0
 76
0
 77
0
 78
0
  0
ENDTAB
  0
TABLE
  2
LTYPE
  5
5
100
AcDbSymbolTable
 70
6
  0
LTYPE
  5
14
100
AcDbSymbolTableRecord
100
AcDbLinetypeTableRecord
  2
BYBLOCK
 70
0
  3

 72
65
 73
0
 40
0.0
  0
LTYPE
  5
15
100
AcDbSymbolTableRecord
100
AcDbLinetypeTableRecord
  2
BYLAYER
 70
0
  3

 72
65
 73
0
 40
0.0
  0
LTYPE
  5
16
100
AcDbSymbolTableRecord
100
AcDbLinetypeTableRecord
  2
CONTINUOUS
 70
64
  3
Solid line
 72
65
 73
0
 40
0.0
  0
LTYPE
  5
1F5
100
AcDbSymbolTableRecord
100
AcDbLinetypeTableRecord
  2
CENTER
 70
64
  3
____ _ ____ _ ____ _ ____ _ ____ _ ____ _ ____
 72
65
 73
4
 40
0.6
 49
0.375
 74
0
 49
-0.075
 74
0
 49
0.075
 74
0
 49
-0.075
 74
0
  0
LTYPE
  5
1F6
100
AcDbSymbolTableRecord
100
AcDbLinetypeTableRecord
  2
HIDDEN
 70
64
  3
- - - - - - - - - - - - - - - - - - - -
 72
65
 73
2
 40
0.2
 49
0.1
 74
0
 49
-0.1
 74
0
  0
LTYPE
  5
1F7
100
AcDbSymbolTableRecord
100
AcDbLinetypeTableRecord
  2
PHANTOM
 70
64
  3
_____ _ _ _____ _ _ _____ _ _ _____
 72
65
 73
6
 40
0.8
 49
0.45
 74
0
 49
-0.05
 74
0
 49
0.1
 74
0
 49
-0.05
 74
0
 49
0.1
 74
0
 49
-0.05
 74
0
  0
LTYPE
  5
1F8
100
AcDbSymbolTableRecord
100
AcDbLinetypeTableRecord
  2
DOT
 70
64
  3
. . . . . . . . . . . . . . . . . . . .
 72
65
 73
2
 40
0.2
 49
0.1
 74
0
 49
-0.1
 74
0
  0
LTYPE
  5
1F9
100
AcDbSymbolTableRecord
100
AcDbLinetypeTableRecord
  2
DASHED
 70
64
  3
- - - - - - - - - - - - - - - - - - - -
 72
65
 73
2
 40
0.2
 49
0.1
 74
0
 49
-0.1
 74
0
  0
ENDTAB
  0
TABLE
  2
LAYER
  5
2
100
AcDbSymbolTable
 70
36
  0
LAYER
  5
10
100
AcDbSymbolTableRecord
100
AcDbLayerTableRecord
  2
0
 70
0
 62
7
  6
CONTINUOUS
370
-3
390
F
  0
LAYER
  5
1FA
100
AcDbSymbolTableRecord
100
AcDbLayerTableRecord
  2
DEFAULT_1
 70
0
 62
7
  6
CENTER
370
-3
390
F
  0
LAYER
  5
1FB
100
AcDbSymbolTableRecord
100
AcDbLayerTableRecord
  2
DEFAULT_2
 70
0
 62
7
  6
HIDDEN
370
-3
390
F
  0
LAYER
  5
1FC
100
AcDbSymbolTableRecord
100
AcDbLayerTableRecord
  2
DEFAULT_3
 70
0
 62
7
  6
PHANTOM
370
-3
390
F
  0
LAYER
  5
1FD
100
AcDbSymbolTableRecord
100
AcDbLayerTableRecord
  2
ASSI
 70
0
 62
7
  6
CONTINUOUS
370
-3
390
F
  0
LAYER
  5
1FE
100
AcDbSymbolTableRecord
100
AcDbLayerTableRecord
  2
COLORE_MATERIALE
 70
0
 62
7
  6
CONTINUOUS
370
-3
390
F
  0
LAYER
  5
1FF
100
AcDbSymbolTableRecord
100
AcDbLayerTableRecord
  2
COORDINATE
 70
0
 62
7
  6
CONTINUOUS
370
-3
390
F
  0
LAYER
  5
200
100
AcDbSymbolTableRecord
100
AcDbLayerTableRecord
  2
COORD_ORIGINE
 70
0
 62
7
  6
CONTINUOUS
370
-3
390
F
  0
LAYER
  5
201
100
AcDbSymbolTableRecord
100
AcDbLayerTableRecord
  2
COPY
 70
0
 62
7
  6
CONTINUOUS
370
-3
390
F
  0
LAYER
  5
202
100
AcDbSymbolTableRecord
100
AcDbLayerTableRecord
  2
CURVE
 70
0
 62
7
  6
CONTINUOUS
370
-3
390
F
  0
LAYER
  5
203
100
AcDbSymbolTableRecord
100
AcDbLayerTableRecord
  2
DRAFT
 70
0
 62
7
  6
CONTINUOUS
370
-3
390
F
  0
LAYER
  5
204
100
AcDbSymbolTableRecord
100
AcDbLayerTableRecord
  2
IGS
 70
0
 62
7
  6
CONTINUOUS
370
-3
390
F
  0
LAYER
  5
205
100
AcDbSymbolTableRecord
100
AcDbLayerTableRecord
  2
PIANI
 70
0
 62
7
  6
CONTINUOUS
370
-3
390
F
  0
LAYER
  5
206
100
AcDbSymbolTableRecord
100
AcDbLayerTableRecord
  2
PIANI_ORIGINE
 70
0
 62
7
  6
CONTINUOUS
370
-3
390
F
  0
LAYER
  5
207
100
AcDbSymbolTableRecord
100
AcDbLayerTableRecord
  2
PIANI_RIFERIMENTO
 70
0
 62
7
  6
CONTINUOUS
370
-3
390
F
  0
LAYER
  5
208
100
AcDbSymbolTableRecord
100
AcDbLayerTableRecord
  2
RACCORDO
 70
0
 62
7
  6
CONTINUOUS
370
-3
390
F
  0
LAYER
  5
209
100
AcDbSymbolTableRecord
100
AcDbLayerTableRecord
  2
SMUSSO
 70
0
 62
7
  6
CONTINUOUS
370
-3
390
F
  0
LAYER
  5
20A
100
AcDbSymbolTableRecord
100
AcDbLayerTableRecord
  2
SUPERFICI
 70
0
 62
7
  6
CONTINUOUS
370
-3
390
F
  0
LAYER
  5
20B
100
AcDbSymbolTableRecord
100
AcDbLayerTableRecord
  2
TRASH
 70
0
 62
7
  6
CONTINUOUS
370
-3
390
F
  0
ENDTAB
  0
TABLE
  2
STYLE
  5
3
100
AcDbSymbolTable
 70
1
  0
STYLE
  5
11
100
AcDbSymbolTableRecord
100
AcDbTextStyleTableRecord
  2
STANDARD
 70
0
 40
0.0
 41
0.8
 50
0.0
 71
0
 42
0.2
  3
txt
  4

  0
STYLE
  5
20C
100
AcDbSymbolTableRecord
100
AcDbTextStyleTableRecord
  2
TEXTSTYLE_1
 70
0
 40
0.0
 41
0.8
 50
0.0
 71
0
 42
0.2
  3
gdt
  4

  0
ENDTAB
  0
TABLE
  2
VIEW
  5
6
100
AcDbSymbolTable
 70
0
  0
ENDTAB
  0
TABLE
  2
UCS
  5
7
100
AcDbSymbolTable
 70
0
  0
ENDTAB
  0
TABLE
  2
APPID
  5
9
100
AcDbSymbolTable
 70
1
  0
APPID
  5
20D
100
AcDbSymbolTableRecord
100
AcDbRegAppTableRecord
  2
ACAD
 70
0
  0
ENDTAB
  0
TABLE
  2
BLOCK_RECORD
  5
1
100
AcDbSymbolTable
 70
0
  0
BLOCK_RECORD
  5
20E
100
AcDbSymbolTableRecord
100
AcDbBlockTableRecord
  2
*Model_Space
  0
BLOCK_RECORD
  5
20F
100
AcDbSymbolTableRecord
100
AcDbBlockTableRecord
  2
*Paper_Space
  0
ENDTAB
  0
TABLE
  2
DIMSTYLE
  5
A
100
AcDbSymbolTable
 70
1
100
AcDbDimStyleTable
 71
0
  0
DIMSTYLE
105
210
100
AcDbSymbolTableRecord
100
AcDbDimStyleTableRecord
  2
STANDARD
 70
0
  3

  4

 40
1.0
 41
3.0
 42
0.0625
 43
0.38
 44
0.18
 45
0.0
 46
0.0
 47
0.01
 48
0.01
140
3.0
141
0.09
142
0.0
143
25.4
144
1.0
145
0.0
146
1.0
147
0.09
 71
1.0
 72
0.0
 73
0
 74
0
 75
0
 76
0
 77
1
 78
8
170
0
171
2
172
0
173
0
174
0
175
0
176
0
177
0
178
0
270
2
271
2
272
2
273
2
274
2
275
0
280
0
281
0
282
0
283
1
284
8
285
0
286
0
287
3
288
0
340
11
  0
ENDTAB
  0
ENDSEC
  0
SECTION
  2
BLOCKS
  0
BLOCK
  5
20
100
AcDbEntity
  8
0
100
AcDbBlockBegin
  2
*Model_Space
 70
0
 10
0.0
 20
0.0
 30
0.0
  3
*Model_Space
  1

  0
ENDBLK
  5
21
100
AcDbEntity
  8
0
100
AcDbBlockEnd
  0
BLOCK
  5
1C
100
AcDbEntity
  8
0
100
AcDbBlockBegin
  2
*Paper_Space
 70
0
 10
0.0
 20
0.0
 30
0.0
  3
*Paper_Space
  1

  0
ENDBLK
  5
1D
100
AcDbEntity
  8
0
100
AcDbBlockEnd
  0
ENDSEC
  0
SECTION
  2
ENTITIES
  0
LWPOLYLINE
  5
211
100
AcDbEntity
  8
RACCORDO
100
AcDbPolyline
 62
7
  6
CONTINUOUS
 90
31
 70
0
 10
-18.8691883701
 20
16.2829348581
 10
-18.8773802228
 20
16.2785027779
 10
-18.8904442069
 20
16.2709937986
 10
-18.9030129361
 20
16.2632128855
 10
-18.9151009266
 20
16.2551597874
 10
-18.9267018297
 20
16.2468472171
 10
-18.9377884119
 20
16.2383056714
 10
-18.9483661777
 20
16.2295446283
 10
-18.9584401998
 20
16.2205733955
 10
-18.9679854942
 20
16.2114305876
 10
-18.9769987806
 20
16.2021408574
 10
-18.9854983668
 20
16.1927073869
 10
-18.9934919369
 20
16.1831429071
 10
-19.0009786232
 20
16.173472028
 10
-19.0079727797
 20
16.1637010291
 10
-19.0144993191
 20
16.1538166065
 10
-19.020561337
 20
16.1438336433
 10
-19.0261629359
 20
16.1337668993
 10
-19.0313227106
 20
16.1236021874
 10
-19.0360424998
 20
16.1133523783
 10
-19.040323325
 20
16.1030337602
 10
-19.0441764047
 20
16.0926368406
 10
-19.0476019631
 20
16.0821765566
 10
-19.0506010812
 20
16.0716674445
 10
-19.0531811134
 20
16.0610991719
 10
-19.0553415025
 20
16.0504875956
 10
-19.0570829865
 20
16.0398464791
 10
-19.0584097361
 20
16.0291620799
 10
-19.05932094
 20
16.0184396594
 10
-19.0598146631
 20
16.0077036853
 10
-19.0599120584
 20
16.0001974167
  0
LINE
  5
212
100
AcDbEntity
  8
RACCORDO
100
AcDbLine
 62
7
  6
CONTINUOUS
 10
-18.8691863608
 20
16.2829359609
 11
-15.9451371798
 21
17.8287147377
  0
LINE
  5
213
100
AcDbEntity
  8
RACCORDO
100
AcDbLine
 62
253
  6
CONTINUOUS
 10
-18.7769490925
 20
16.2787036439
 11
-15.8541723258
 21
17.8238097675
  0
LINE
  5
214
100
AcDbEntity
  8
DRAFT
100
AcDbLine
 62
7
  6
CONTINUOUS
 10
-14.132454979
 20
15.961511358
 11
-14.5147363181
 21
15.7247628229
  0
LINE
  5
215
100
AcDbEntity
  8
DRAFT
100
AcDbLine
 62
7
  6
CONTINUOUS
 10
-14.132454979
 20
16.9629510941
 11
-15.4229408869
 21
16.1788651072
  0
LWPOLYLINE
  5
216
100
AcDbEntity
  8
RACCORDO
100
AcDbPolyline
 62
7
  6
CONTINUOUS
 90
16
 70
0
 10
-19.0599121561
 20
16.0002064354
 10
-19.0580190879
 20
14.8412579143
 10
-19.053597937
 20
13.6763839519
 10
-19.04665271
 20
12.5128328838
 10
-19.0371834399
 20
11.3506141348
 10
-19.0251901937
 20
10.1897358044
 10
-19.0106730387
 20
9.0302054816
 10
-18.9936320549
 20
7.872031145
 10
-18.9740673667
 20
6.7152215164
 10
-18.9519791068
 20
5.5597853061
 10
-18.9273674191
 20
4.4057312211
 10
-18.900232466
 20
3.2530671263
 10
-18.8705744038
 20
2.1018004683
 10
-18.8383934143
 20
0.9519393524
 10
-18.8036897596
 20
-0.1965067714
 10
-18.7666722061
 20
-1.3373175326
  0
LWPOLYLINE
  5
217
100
AcDbEntity
  8
RACCORDO
100
AcDbPolyline
 62
7
  6
CONTINUOUS
 90
39
 70
0
 10
-18.7666721998
 20
-1.3373171128
 10
-18.7654121627
 20
-1.3664720926
 10
-18.7631401003
 20
-1.4015151376
 10
-18.7600565048
 20
-1.4361710292
 10
-18.7561622922
 20
-1.4704445607
 10
-18.7514614643
 20
-1.5043099175
 10
-18.7459646015
 20
-1.5377098901
 10
-18.7396773849
 20
-1.570636131
 10
-18.7326053849
 20
-1.6030784825
 10
-18.7247663411
 20
-1.6349792098
 10
-18.7161694921
 20
-1.6663302397
 10
-18.7068237762
 20
-1.6971232035
 10
-18.696754671
 20
-1.7273026023
 10
-18.6859755459
 20
-1.7568610333
 10
-18.674499451
 20
-1.7857914467
 10
-18.6623601063
 20
-1.8140413374
 10
-18.649582231
 20
-1.8415908338
 10
-18.6361775991
 20
-1.8684491109
 10
-18.6221661476
 20
-1.8946079258
 10
-18.6075727803
 20
-1.9200525654
 10
-18.592412091
 20
-1.9447873585
 10
-18.5766888199
 20
-1.9688299362
 10
-18.5604229917
 20
-1.9921725741
 10
-18.5436332106
 20
-2.0148104024
 10
-18.5263201546
 20
-2.0367610858
 10
-18.5085025945
 20
-2.0580172909
 10
-18.4902000206
 20
-2.0785718906
 10
-18.4714122828
 20
-2.0984386985
 10
-18.4521588744
 20
-2.1176089391
 10
-18.4324588004
 20
-2.1360758275
 10
-18.4123092163
 20
-2.1538520058
 10
-18.3917296626
 20
-2.1709283064
 10
-18.3707391582
 20
-2.1872974494
 10
-18.3493320041
 20
-2.202970739
 10
-18.327527145
 20
-2.2179393432
 10
-18.3053441485
 20
-2.2321949885
 10
-18.2827763448
 20
-2.2457459994
 10
-18.2598338603
 20
-2.2585883884
 10
-18.2357549588
 20
-2.2711039972
  0
LINE
  5
218
100
AcDbEntity
  8
DRAFT
100
AcDbLine
 62
7
  6
CONTINUOUS
 10
-14.132454979
 20
16.9629510941
 11
-14.132454979
 21
15.961511358
  0
LWPOLYLINE
  5
219
100
AcDbEntity
  8
RACCORDO
100
AcDbPolyline
 62
7
  6
CONTINUOUS
 90
33
 70
0
 10
12.5236476507
 20
-17.6508053025
 10
12.5447258325
 20
-17.661000358
 10
12.5675829741
 20
-17.6712963987
 10
12.5907335806
 20
-17.6809495962
 10
12.614171032
 20
-17.6899567427
 10
12.6379077186
 20
-17.6983205504
 10
12.6619284967
 20
-17.7060328231
 10
12.6862181224
 20
-17.7130860224
 10
12.7107905182
 20
-17.7194803146
 10
12.7356315648
 20
-17.7252070011
 10
12.7607256157
 20
-17.7302579557
 10
12.786086046
 20
-17.7346303322
 10
12.8116985234
 20
-17.7383149524
 10
12.8375481633
 20
-17.7413031717
 10
12.8636490897
 20
-17.7435893846
 10
12.8899896004
 20
-17.7451641079
 10
12.9165527116
 20
-17.7460178737
 10
12.9433461448
 20
-17.7461419454
 10
12.9703627105
 20
-17.7455264585
 10
12.9975813489
 20
-17.7441620207
 10
13.0249903833
 20
-17.7420395016
 10
13.052576701
 20
-17.7391504363
 10
13.0803258738
 20
-17.7354869106
 10
13.1082258043
 20
-17.7310408799
 10
13.1362635232
 20
-17.7258048291
 10
13.1644255018
 20
-17.7197719195
 10
13.1927004572
 20
-17.7129348623
 10
13.2210758336
 20
-17.7052867495
 10
13.2495393869
 20
-17.6968211072
 10
13.2780819253
 20
-17.6875304392
 10
13.3066926393
 20
-17.6774075836
 10
13.3353569732
 20
-17.6664472875
 10
13.358171572
 20
-17.6571337674
  0
LINE
  5
21A
100
AcDbEntity
  8
RACCORDO
100
AcDbLine
 62
7
  6
CONTINUOUS
 10
12.5236787358
 20
-17.6508208465
 11
-18.2357905314
 21
-2.2710862128
  0
LINE
  5
21B
100
AcDbEntity
  8
RACCORDO
100
AcDbLine
 62
7
  6
CONTINUOUS
 10
-18.2357546198
 20
-2.271104167
 11
-18.2357903145
 21
-2.2710863213
  0
LINE
  5
21C
100
AcDbEntity
  8
RACCORDO
100
AcDbLine
 62
7
  6
CONTINUOUS
 10
12.5236479586
 20
-17.6508054567
 11
12.5236785165
 21
-17.6508207368
  0
LINE
  5
21D
100
AcDbEntity
  8
RACCORDO
100
AcDbLine
 62
253
  6
CONTINUOUS
 10
12.1302082567
 20
-16.8901696301
 11
-18.6202085235
 21
-1.51496124
  0
LINE
  5
21E
100
AcDbEntity
  8
DRAFT
100
AcDbLine
 62
7
  6
CONTINUOUS
 10
17.6317627345
 20
-3.3612764685
 11
18.4802908719
 21
-3.365811082
  0
LINE
  5
21F
100
AcDbEntity
  8
DRAFT
100
AcDbLine
 62
7
  6
CONTINUOUS
 10
13.6921647963
 20
3.0506412064
 11
12.1542235794
 21
2.3902828741
  0
LINE
  5
220
100
AcDbEntity
  8
RACCORDO
100
AcDbLine
 62
253
  6
CONTINUOUS
 10
15.4138821431
 20
2.189782533
 11
12.3872582007
 21
0.6965999973
  0
LINE
  5
221
100
AcDbEntity
  8
RACCORDO
100
AcDbLine
 62
253
  6
CONTINUOUS
 10
15.5553035002
 20
1.9458865583
 11
12.5274261767
 21
0.452085668
  0
LINE
  5
222
100
AcDbEntity
  8
0
100
AcDbLine
 62
7
  6
CONTINUOUS
 10
18.4802908719
 20
-3.365811082
 11
18.6288094463
 21
-3.4400703692
  0
LINE
  5
223
100
AcDbEntity
  8
DRAFT
100
AcDbLine
 62
7
  6
CONTINUOUS
 10
16.3968642665
 20
-0.1666748761
 11
15.5553035002
 21
-0.5553355264
  0
LINE
  5
224
100
AcDbEntity
  8
RACCORDO
100
AcDbLine
 62
253
  6
CONTINUOUS
 10
11.8265405916
 20
0.4527961786
 11
-18.9134631092
 21
15.822798029
  0
LINE
  5
225
100
AcDbEntity
  8
RACCORDO
100
AcDbLine
 62
253
  6
CONTINUOUS
 10
11.9667298863
 20
0.6962078216
 11
-18.7732779962
 21
16.0662117628
  0
LINE
  5
226
100
AcDbEntity
  8
DRAFT
100
AcDbLine
 62
7
  6
CONTINUOUS
 10
17.2100370649
 20
-0.5732612753
 11
15.5553035002
 21
-1.3374720714
  0
LINE
  5
227
100
AcDbEntity
  8
DRAFT
100
AcDbLine
 62
7
  6
CONTINUOUS
 10
17.2100370649
 20
-0.5732612753
 11
16.3968642665
 21
-0.1666748761
  0
LINE
  5
228
100
AcDbEntity
  8
DRAFT
100
AcDbLine
 62
7
  6
CONTINUOUS
 10
12.1542235794
 20
2.3902828741
 11
-15.4229408869
 21
16.1788651072
  0
LINE
  5
229
100
AcDbEntity
  8
RACCORDO
100
AcDbLine
 62
7
  6
CONTINUOUS
 10
15.4138821431
 20
2.189782533
 11
13.6921647963
 21
3.0506412064
  0
LINE
  5
22A
100
AcDbEntity
  8
RACCORDO
100
AcDbLine
 62
7
  6
CONTINUOUS
 10
-14.132454979
 20
16.9629510941
 11
-15.8541723258
 21
17.8238097675
  0
LINE
  5
22B
100
AcDbEntity
  8
DRAFT
100
AcDbLine
 62
7
  6
CONTINUOUS
 10
17.2100370649
 20
-3.5676318206
 11
17.6317627345
 21
-3.3612764685
  0
LINE
  5
22C
100
AcDbEntity
  8
DRAFT
100
AcDbLine
 62
7
  6
CONTINUOUS
 10
17.3514584211
 20
-3.9181621355
 11
17.2100370649
 21
-3.9873612758
  0
LINE
  5
22D
100
AcDbEntity
  8
0
100
AcDbLine
 62
7
  6
CONTINUOUS
 10
18.6778368725
 20
-3.9030824926
 11
17.2100370649
 21
-4.7918427316
  0
LINE
  5
22E
100
AcDbEntity
  8
DRAFT
100
AcDbLine
 62
7
  6
CONTINUOUS
 10
17.3514584211
 20
-3.9181621355
 11
17.2100370649
 21
-3.6563310912
  0
LINE
  5
22F
100
AcDbEntity
  8
RACCORDO
100
AcDbLine
 62
7
  6
CONTINUOUS
 10
15.5553035002
 20
1.9458865583
 11
15.5553035002
 21
-1.3374720714
  0
LINE
  5
230
100
AcDbEntity
  8
DRAFT
100
AcDbLine
 62
7
  6
CONTINUOUS
 10
17.2100370649
 20
-0.5732612753
 11
17.2100370649
 21
-8.4094994356
  0
LINE
  5
231
100
AcDbEntity
  8
RACCORDO
100
AcDbLine
 62
7
  6
CONTINUOUS
 10
17.2100370649
 20
-8.4094994356
 11
17.2100370649
 21
-15.8236434422
  0
LINE
  5
232
100
AcDbEntity
  8
0
100
AcDbLine
 62
7
  6
CONTINUOUS
 10
18.6778368725
 20
-7.4856778658
 11
17.2100370649
 21
-8.4094994356
  0
LINE
  5
233
100
AcDbEntity
  8
0
100
AcDbLine
 62
253
  6
CONTINUOUS
 10
18.6778368725
 20
-7.4856778658
 11
18.6778368725
 21
-3.9030824926
  0
LINE
  5
234
100
AcDbEntity
  8
0
100
AcDbLine
 62
7
  6
CONTINUOUS
 10
18.8338346995
 20
-7.2622291639
 11
18.8338346995
 21
-3.6860069208
  0
LINE
  5
235
100
AcDbEntity
  8
RACCORDO
100
AcDbLine
 62
253
  6
CONTINUOUS
 10
13.5119811737
 20
-17.3759370954
 11
17.2100370649
 21
-15.8236434422
  0
LINE
  5
236
100
AcDbEntity
  8
RACCORDO
100
AcDbLine
 62
7
  6
CONTINUOUS
 10
13.3581739283
 20
-17.6571327937
 11
17.0687688727
 21
-16.0995757553
  0
SPLINE
  5
237
100
AcDbEntity
  8
RACCORDO
100
AcDbSpline
 62
253
  6
CONTINUOUS
 70
0
 71
3
 72
20
 73
16
 74
14
 42
0.0000001
 43
0.0000001
 44
0.0000000001
 12
-0.7964787063
 22
0.3982347451
 32
0.0
 13
-0.0300282809
 23
0.8894878442
 33
0.0
 40
0.0
 40
0.0
 40
0.0
 40
0.0
 40
0.000819476
 40
0.0726729422
 40
0.1451885518
 40
0.2189445093
 40
0.294466352
 40
0.3722108308
 40
0.4525545389
 40
0.5357902199
 40
0.6221265921
 40
0.7116935995
 40
0.8045468059
 40
0.9006733485
 40
1.0
 40
1.0
 40
1.0
 40
1.0
 10
-18.2357903137
 20
-2.2710863197
 30
0.0
 10
-18.2360078787
 20
-2.2709775384
 30
0.0
 10
-18.2552956022
 20
-2.2613177243
 30
0.0
 10
-18.2926874173
 20
-2.2397432949
 30
0.0
 10
-18.3447509219
 20
-2.2010782178
 30
0.0
 10
-18.3929395532
 20
-2.1560800481
 30
0.0
 10
-18.437014164
 20
-2.1049909895
 30
0.0
 10
-18.4767626559
 20
-2.0480805063
 30
0.0
 10
-18.5119985104
 20
-1.9856419663
 30
0.0
 10
-18.5425589428
 20
-1.9179912165
 30
0.0
 10
-18.5683039861
 20
-1.8454653589
 30
0.0
 10
-18.5891159713
 20
-1.768422788
 30
0.0
 10
-18.6048996646
 20
-1.6872412414
 30
0.0
 10
-18.6155827649
 20
-1.6023231146
 30
0.0
 10
-18.6192143201
 20
-1.54441119
 30
0.0
 10
-18.6202085229
 20
-1.5149612403
 30
0.0
 11
-18.2357903137
 21
-2.2710863197
 31
0.0
 11
-18.2364427912
 21
-2.2707595412
 31
0.0
 11
-18.2918426626
 21
-2.2388165655
 31
0.0
 11
-18.3436848678
 21
-2.2003769567
 31
0.0
 11
-18.3917131361
 21
-2.1556308923
 31
0.0
 11
-18.4356897855
 21
-2.1047999956
 31
0.0
 11
-18.4753975189
 21
-2.0481356207
 31
0.0
 11
-18.510639917
 21
-1.9859182221
 31
0.0
 11
-18.5412427473
 21
-1.9184555659
 31
0.0
 11
-18.5670545699
 21
-1.8460817678
 31
0.0
 11
-18.5879479383
 21
-1.7691544462
 31
0.0
 11
-18.603819538
 21
-1.688054066
 31
0.0
 11
-18.6145907792
 21
-1.6031827385
 31
0.0
 11
-18.6202085229
 21
-1.5149612403
 31
0.0
  0
SPLINE
  5
238
100
AcDbEntity
  8
RACCORDO
100
AcDbSpline
 62
253
  6
CONTINUOUS
 70
0
 71
3
 72
28
 73
24
 74
22
 42
0.0000001
 43
0.0000001
 44
0.0000000001
 12
0.0358050397
 22
-1.030685886
 32
0.0
 13
0.9509307065
 23
0.3991568462
 33
0.0
 40
0.0
 40
0.0
 40
0.0
 40
0.0
 40
0.0571996955
 40
0.112631081
 40
0.1662583365
 40
0.218085203
 40
0.2681540612
 40
0.3165487363
 40
0.3633962717
 40
0.4088690442
 40
0.4531836889
 40
0.4965981169
 40
0.5394044425
 40
0.5819197905
 40
0.6244733139
 40
0.6673928548
 40
0.7109907159
 40
0.7555520461
 40
0.801325402
 40
0.8485177582
 40
0.8972911102
 40
0.9477619475
 40
1.0
 40
1.0
 40
1.0
 40
1.0
 10
12.830792385
 20
-16.8755889271
 30
0.0
 10
12.8314750641
 20
-16.8952405668
 30
0.0
 10
12.8339701792
 20
-16.9339085581
 30
0.0
 10
12.841305105
 20
-16.9906308493
 30
0.0
 10
12.8521418714
 20
-17.0449137821
 30
0.0
 10
12.8664307863
 20
-17.0964859644
 30
0.0
 10
12.8841062889
 20
-17.1450940551
 30
0.0
 10
12.9050872483
 20
-17.1904972023
 30
0.0
 10
12.9292768444
 20
-17.2324685281
 30
0.0
 10
12.9565622194
 20
-17.270795267
 30
0.0
 10
12.9868139264
 20
-17.3052798517
 30
0.0
 10
13.0198849554
 20
-17.3357411017
 30
0.0
 10
13.0556101865
 20
-17.3620165413
 30
0.0
 10
13.0938065095
 20
-17.383965207
 30
0.0
 10
13.1342745976
 20
-17.4014707659
 30
0.0
 10
13.1768016729
 20
-17.4144436219
 30
0.0
 10
13.2211651478
 20
-17.4228217054
 30
0.0
 10
13.2671356337
 20
-17.4265697408
 30
0.0
 10
13.3144795408
 20
-17.4256776541
 30
0.0
 10
13.3629598798
 20
-17.4201589419
 30
0.0
 10
13.4123379172
 20
-17.4100486362
 30
0.0
 10
13.4623671223
 20
-17.3954052716
 30
0.0
 10
13.4954229176
 20
-17.3828874875
 30
0.0
 10
13.5119811737
 20
-17.3759370954
 30
0.0
 11
12.830792385
 21
-16.8755889271
 31
0.0
 11
12.8346474008
 21
-16.9344533117
 31
0.0
 11
12.8420394492
 21
-16.9911401865
 31
0.0
 11
12.8529318227
 21
-17.0453631671
 31
0.0
 11
12.8672706265
 21
-17.0968533755
 31
0.0
 11
12.8849849461
 21
-17.1453561604
 31
0.0
 11
12.9059873227
 21
-17.1906318493
 31
0.0
 11
12.9301738251
 21
-17.2324562078
 31
0.0
 11
12.9574248811
 21
-17.2706223424
 31
0.0
 11
12.9876056911
 21
-17.3049413502
 31
0.0
 11
13.0205671267
 21
-17.3352435237
 31
0.0
 11
13.0561460691
 21
-17.3613787759
 31
0.0
 11
13.0941666418
 21
-17.3832178013
 31
0.0
 11
13.1344406487
 21
-17.4006524055
 31
0.0
 11
13.1767690111
 21
-17.4135963217
 31
0.0
 11
13.2209422744
 21
-17.4219854067
 31
0.0
 11
13.2667419455
 21
-17.425778088
 31
0.0
 11
13.3139411893
 21
-17.4249555423
 31
0.0
 11
13.3623067499
 21
-17.419521804
 31
0.0
 11
13.4115993481
 21
-17.4095036759
 31
0.0
 11
13.4615745282
 21
-17.394950886
 31
0.0
 11
13.5119811737
 21
-17.3759370954
 31
0.0
  0
SPLINE
  5
239
100
AcDbEntity
  8
RACCORDO
100
AcDbSpline
 62
253
  6
CONTINUOUS
 70
0
 71
3
 72
12
 73
8
 74
6
 42
0.0000001
 43
0.0000001
 44
0.0000000001
 12
0.0099597397
 22
-17.331135324
 32
0.0
 13
0.6016267358
 23
-17.3206927138
 33
0.0
 40
0.0
 40
0.0
 40
0.0
 40
0.0
 40
0.201323808
 40
0.4019896653
 40
0.6019934516
 40
0.8013314297
 40
1.0
 40
1.0
 40
1.0
 40
1.0
 10
12.5274261767
 20
0.452085668
 30
0.0
 10
12.5280945543
 20
-0.7109710519
 30
0.0
 10
12.5372129613
 20
-3.0332867618
 30
0.0
 10
12.5743870223
 20
-6.5108572739
 30
0.0
 10
12.6350251422
 20
-9.9766261526
 30
0.0
 10
12.7191253529
 20
-13.4303613651
 30
0.0
 10
12.7909509438
 20
-15.7285631745
 30
0.0
 10
12.830792385
 20
-16.8755889271
 30
0.0
 11
12.5274261767
 21
0.452085668
 31
0.0
 11
12.5411670236
 21
-3.037058011
 31
0.0
 11
12.5783785758
 21
-6.5146266285
 31
0.0
 11
12.6390562152
 21
-9.9803887632
 31
0.0
 11
12.7231959833
 21
-13.4341180536
 31
0.0
 11
12.830792385
 21
-16.8755889271
 31
0.0
  0
SPLINE
  5
23A
100
AcDbEntity
  8
RACCORDO
100
AcDbSpline
 62
253
  6
CONTINUOUS
 70
0
 71
3
 72
20
 73
16
 74
14
 42
0.0000001
 43
0.0000001
 44
0.0000000001
 12
-0.0021367458
 22
0.2937883922
 32
0.0
 13
-0.2608790688
 23
0.1351232642
 33
0.0
 40
0.0
 40
0.0
 40
0.0
 40
0.0
 40
0.0726960909
 40
0.14856793
 40
0.22705462
 40
0.3075042477
 40
0.38920097
 40
0.4713900599
 40
0.5533017817
 40
0.6341748314
 40
0.7132800207
 40
0.7899449137
 40
0.8635802446
 40
0.933709106
 40
1.0
 40
1.0
 40
1.0
 40
1.0
 10
12.5274239933
 20
0.4520845909
 30
0.0
 10
12.5273722156
 20
0.4592036801
 30
0.0
 10
12.5265465862
 20
0.4737544797
 30
0.0
 10
12.5233423625
 20
0.4957831308
 30
0.0
 10
12.5181903805
 20
0.5182187227
 30
0.0
 10
12.5111652885
 20
0.5407359632
 30
0.0
 10
12.5023685053
 20
0.5630113335
 30
0.0
 10
12.4919270109
 20
0.5847232995
 30
0.0
 10
12.4799915032
 20
0.6055585701
 30
0.0
 10
12.4667341705
 20
0.6252164635
 30
0.0
 10
12.4523458685
 20
0.643413588
 30
0.0
 10
12.4370335231
 20
0.659887749
 30
0.0
 10
12.4210149667
 20
0.6744025552
 30
0.0
 10
12.4045211609
 20
0.6867474142
 30
0.0
 10
12.3930228363
 20
0.6936141833
 30
0.0
 10
12.3872582007
 20
0.6965999973
 30
0.0
 11
12.5274239933
 21
0.4520845909
 31
0.0
 11
12.5262599285
 21
0.4734106773
 31
0.0
 11
12.5230872903
 21
0.4954745979
 31
0.0
 11
12.5179523342
 21
0.5179546731
 31
0.0
 11
12.5109299248
 21
0.5405231561
 31
0.0
 11
12.5021224452
 21
0.5628510112
 31
0.0
 11
12.4916583034
 21
0.584612711
 31
0.0
 11
12.4796900607
 21
0.6054909824
 31
0.0
 11
12.4663922076
 21
0.6251814321
 31
0.0
 11
12.4519586191
 21
0.6433969847
 31
0.0
 11
12.4365997288
 21
0.659872068
 31
0.0
 11
12.4205394606
 21
0.6743664849
 31
0.0
 11
12.4040119642
 21
0.6866689154
 31
0.0
 11
12.3872582007
 21
0.6965999973
 31
0.0
  0
SPLINE
  5
23B
100
AcDbEntity
  8
RACCORDO
100
AcDbSpline
 62
253
  6
CONTINUOUS
 70
0
 71
3
 72
20
 73
16
 74
14
 42
0.0000001
 43
0.0000001
 44
0.0000000001
 12
-0.0001667498
 22
0.2932227803
 32
0.0
 13
0.2611405176
 23
0.1333613766
 33
0.0
 40
0.0
 40
0.0
 40
0.0
 40
0.0
 40
0.0726427801
 40
0.14835441
 40
0.226606212
 40
0.3067794997
 40
0.3881918687
 40
0.4701215944
 40
0.5518309153
 40
0.6325888755
 40
0.7116943528
 40
0.7884999207
 40
0.8624372739
 40
0.9330450619
 40
1.0
 40
1.0
 40
1.0
 40
1.0
 10
11.8265426825
 20
0.4527951332
 30
0.0
 10
11.8265386448
 20
0.4598953059
 30
0.0
 10
11.8272571554
 20
0.4744031438
 30
0.0
 10
11.8303244693
 20
0.4963640658
 30
0.0
 10
11.8353607601
 20
0.5187135412
 30
0.0
 10
11.8422936568
 20
0.5411307012
 30
0.0
 10
11.8510239798
 20
0.5632967758
 30
0.0
 10
11.8614269403
 20
0.584895061
 30
0.0
 10
11.8733539044
 20
0.6056170639
 30
0.0
 10
11.8866345585
 20
0.6251667312
 30
0.0
 10
11.9010796579
 20
0.6432650016
 30
0.0
 10
11.916483556
 20
0.6596535997
 30
0.0
 10
11.932629234
 20
0.6740994986
 30
0.0
 10
11.9492860611
 20
0.6863949411
 30
0.0
 10
11.9609016706
 20
0.6932314207
 30
0.0
 10
11.9667298863
 20
0.6962078216
 30
0.0
 11
11.8265426825
 21
0.4527951332
 31
0.0
 11
11.8275514911
 21
0.4740717522
 31
0.0
 11
11.8305869739
 21
0.4960636288
 31
0.0
 11
11.8356053177
 21
0.5184533386
 31
0.0
 11
11.8425340889
 21
0.5409177147
 31
0.0
 11
11.8512732798
 21
0.5631325129
 31
0.0
 11
11.8616967513
 21
0.584777091
 31
0.0
 11
11.8736540541
 21
0.6055390374
 31
0.0
 11
11.8869725998
 21
0.6251186801
 31
0.0
 11
11.9014601524
 21
0.6432334121
 31
0.0
 11
11.9169076025
 21
0.6596217705
 31
0.0
 11
11.9330919863
 21
0.6740472104
 31
0.0
 11
11.9497797028
 21
0.6863015192
 31
0.0
 11
11.9667298863
 21
0.6962078216
 31
0.0
  0
SPLINE
  5
23C
100
AcDbEntity
  8
RACCORDO
100
AcDbSpline
 62
253
  6
CONTINUOUS
 70
0
 71
3
 72
20
 73
16
 74
14
 42
0.0000001
 43
0.0000001
 44
0.0000000001
 12
-0.00016675
 22
0.2932227803
 32
0.0
 13
0.2611405177
 23
0.1333613764
 33
0.0
 40
0.0
 40
0.0
 40
0.0
 40
0.0
 40
0.0726427869
 40
0.1483544248
 40
0.2266062343
 40
0.3067795285
 40
0.3881919025
 40
0.4701216314
 40
0.5518309533
 40
0.6325889122
 40
0.7116943859
 40
0.7884999479
 40
0.8624372934
 40
0.9330450721
 40
1.0
 40
1.0
 40
1.0
 40
1.0
 10
-18.9134652001
 20
15.8227990745
 30
0.0
 10
-18.9134692378
 20
15.8298992478
 30
0.0
 10
-18.9127507271
 20
15.8444070871
 30
0.0
 10
-18.9096834126
 20
15.8663680113
 30
0.0
 10
-18.9046471208
 20
15.8887174887
 30
0.0
 10
-18.8977142231
 20
15.9111346504
 30
0.0
 10
-18.8889838989
 20
15.9333007261
 30
0.0
 10
-18.8785809373
 20
15.9548990118
 30
0.0
 10
-18.8666539724
 20
15.9756210144
 30
0.0
 10
-18.8533733178
 20
15.995170681
 30
0.0
 10
-18.8389282185
 20
16.0132689501
 30
0.0
 10
-18.823524321
 20
16.0296575464
 30
0.0
 10
-18.8073786442
 20
16.0441034434
 30
0.0
 10
-18.790721819
 20
16.0563988839
 30
0.0
 10
-18.7791062111
 20
16.0632353624
 30
0.0
 10
-18.7732779962
 20
16.0662117628
 30
0.0
 11
-18.9134652001
 21
15.8227990745
 31
0.0
 11
-18.9124563912
 21
15.8440756955
 31
0.0
 11
-18.9094209078
 21
15.8660675744
 31
0.0
 11
-18.9044025632
 21
15.8884572862
 31
0.0
 11
-18.8974737909
 21
15.910921664
 31
0.0
 11
-18.8887345988
 21
15.9331364633
 31
0.0
 11
-18.8783111262
 21
15.9547810419
 31
0.0
 11
-18.8663538226
 21
15.9755429882
 31
0.0
 11
-18.8530352764
 21
15.99512263
 31
0.0
 11
-18.8385477239
 21
16.0132373607
 31
0.0
 11
-18.8231002743
 21
16.0296257173
 31
0.0
 11
-18.8069158918
 21
16.0440511553
 31
0.0
 11
-18.7902281773
 21
16.0563054621
 31
0.0
 11
-18.7732779962
 21
16.0662117628
 31
0.0
  0
SPLINE
  5
23D
100
AcDbEntity
  8
RACCORDO
100
AcDbSpline
 62
253
  6
CONTINUOUS
 70
0
 71
3
 72
16
 73
12
 74
10
 42
0.0000001
 43
0.0000001
 44
0.0000000001
 12
-0.2162463561
 22
0.1081251354
 32
0.0
 13
-0.0001728918
 23
0.2421092753
 33
0.0
 40
0.0
 40
0.0
 40
0.0
 40
0.0
 40
0.1452127191
 40
0.2819524673
 40
0.4101422363
 40
0.5299895891
 40
0.6420641926
 40
0.7473490436
 40
0.8472707168
 40
0.9436869452
 40
1.0
 40
1.0
 40
1.0
 40
1.0
 10
-18.9134631085
 20
15.8227980285
 30
0.0
 10
-18.923930349
 20
15.8280317434
 30
0.0
 10
-18.9439029649
 20
15.8389231543
 30
0.0
 10
-18.9715597588
 20
15.8570977093
 30
0.0
 10
-18.9958198665
 20
15.8764937911
 30
0.0
 10
-19.0164804874
 20
15.8969636445
 30
0.0
 10
-19.0333642965
 20
15.918356032
 30
0.0
 10
-19.0463127517
 20
15.9405132385
 30
0.0
 10
-19.0551842787
 20
15.9632630958
 30
0.0
 10
-19.0592385382
 20
15.983326498
 30
0.0
 10
-19.0599076551
 20
15.9956521014
 30
0.0
 10
-19.0599109004
 20
16.0001967391
 30
0.0
 11
-18.9134631085
 21
15.8227980285
 31
0.0
 11
-18.9442485378
 21
15.8396755698
 31
0.0
 11
-18.9718270094
 21
15.8579068049
 31
0.0
 11
-18.9959697494
 21
15.8773406051
 31
0.0
 11
-19.0164741295
 21
15.8978140305
 31
0.0
 11
-19.0331692039
 21
15.9191563064
 31
0.0
 11
-19.0459159258
 21
15.9411897497
 31
0.0
 11
-19.0546076953
 21
15.9637302271
 31
0.0
 11
-19.0591720123
 21
15.9865897163
 31
0.0
 11
-19.0599109004
 21
16.0001967391
 31
0.0
  0
SPLINE
  5
23E
100
AcDbEntity
  8
RACCORDO
100
AcDbSpline
 62
253
  6
CONTINUOUS
 70
0
 71
3
 72
24
 73
20
 74
18
 42
0.0000001
 43
0.0000001
 44
0.0000000001
 12
-0.6480046347
 22
-0.3171833883
 32
0.0
 13
-0.6453024577
 23
0.3226453881
 33
0.0
 40
0.0
 40
0.0
 40
0.0
 40
0.0
 40
0.0520237519
 40
0.1065458796
 40
0.1633244951
 40
0.2220693618
 40
0.2824583466
 40
0.3441430955
 40
0.4067529812
 40
0.4699042848
 40
0.5332047051
 40
0.5962610245
 40
0.6586823493
 40
0.7200878149
 40
0.7801111512
 40
0.8384099487
 40
0.8946696793
 40
0.9486097688
 40
1.0
 40
1.0
 40
1.0
 40
1.0
 10
12.5274261767
 20
0.4520856595
 30
0.0
 10
12.5161889659
 20
0.4465853029
 30
0.0
 10
12.4927562816
 20
0.4361609222
 30
0.0
 10
12.4558918876
 20
0.4225380232
 30
0.0
 10
12.4167401024
 20
0.4106504556
 30
0.0
 10
12.3756264157
 20
0.4005976028
 30
0.0
 10
12.3328904761
 20
0.3924624478
 30
0.0
 10
12.2888864531
 20
0.3863126839
 30
0.0
 10
12.2439791835
 20
0.3821994738
 30
0.0
 10
12.1985416824
 20
0.3801571157
 30
0.0
 10
12.1529510758
 20
0.3802026045
 30
0.0
 10
12.1075859297
 20
0.3823355476
 30
0.0
 10
12.062822738
 20
0.3865381704
 30
0.0
 10
12.0190332537
 20
0.3927754131
 30
0.0
 10
11.9765804219
 20
0.4009953842
 30
0.0
 10
11.9358159384
 20
0.4111297111
 30
0.0
 10
11.8970763262
 20
0.4230948162
 30
0.0
 10
11.8606835663
 20
0.4367907593
 30
0.0
 10
11.8375946731
 20
0.4472692377
 30
0.0
 10
11.8265405923
 20
0.4527961781
 30
0.0
 11
12.5274261767
 21
0.4520856595
 31
0.0
 11
12.4931588734
 21
0.4367718948
 31
0.0
 11
12.4562802094
 21
0.4230868509
 31
0.0
 11
12.417095875
 21
0.4111440282
 31
0.0
 11
12.3759344815
 21
0.4010436888
 31
0.0
 11
12.3331393672
 21
0.3928700253
 31
0.0
 11
12.2890668579
 21
0.3866911127
 31
0.0
 11
12.2440852914
 21
0.3825586163
 31
0.0
 11
12.1985698955
 21
0.380506994
 31
0.0
 11
12.152900725
 21
0.3805533477
 31
0.0
 11
12.1074581883
 21
0.3826972854
 31
0.0
 11
12.062621729
 21
0.3869209223
 31
0.0
 11
12.0187653487
 21
0.3931890301
 31
0.0
 11
11.9762555524
 21
0.4014491896
 31
0.0
 11
11.9354462481
 21
0.4116326063
 31
0.0
 11
11.8966778365
 21
0.423654382
 31
0.0
 11
11.8602753641
 21
0.4374136188
 31
0.0
 11
11.8265405923
 21
0.4527961781
 31
0.0
  0
SPLINE
  5
23F
100
AcDbEntity
  8
RACCORDO
100
AcDbSpline
 62
253
  6
CONTINUOUS
 70
0
 71
3
 72
23
 73
19
 74
17
 42
0.0000001
 43
0.0000001
 44
0.0000000001
 12
-0.6382126633
 22
-0.3397580969
 32
0.0
 13
-0.6469037718
 23
0.3229032024
 33
0.0
 40
0.0
 40
0.0
 40
0.0
 40
0.0
 40
0.0560665728
 40
0.1147948993
 40
0.1758919715
 40
0.2390132886
 40
0.3037737037
 40
0.369757083
 40
0.436525161
 40
0.5036258759
 40
0.5706014077
 40
0.6369960973
 40
0.7023644099
 40
0.7662791112
 40
0.8283398558
 40
0.8881824412
 40
0.9454890608
 40
1.0
 40
1.0
 40
1.0
 40
1.0
 10
12.830792385
 20
-16.8755889271
 30
0.0
 10
12.8188649194
 20
-16.8819386178
 30
0.0
 10
12.7939264457
 20
-16.8939848463
 30
0.0
 10
12.7545451907
 20
-16.9097500963
 30
0.0
 10
12.7126280313
 20
-16.9235142847
 30
0.0
 10
12.6685683952
 20
-16.9351478563
 30
0.0
 10
12.6227765488
 20
-16.9445426443
 30
0.0
 10
12.5756807297
 20
-16.9516105629
 30
0.0
 10
12.5277215165
 20
-16.9562853709
 30
0.0
 10
12.4793479382
 20
-16.958523198
 30
0.0
 10
12.4310129993
 20
-16.9583030729
 30
0.0
 10
12.3831693015
 20
-16.9556271135
 30
0.0
 10
12.3362646702
 20
-16.9505205024
 30
0.0
 10
12.2907376666
 20
-16.943031113
 30
0.0
 10
12.2470137564
 20
-16.9332291412
 30
0.0
 10
12.2054995048
 20
-16.9212054159
 30
0.0
 10
12.166584364
 20
-16.9070729351
 30
0.0
 10
12.1419628214
 20
-16.8960397366
 30
0.0
 10
12.1302083774
 20
-16.8901724843
 30
0.0
 11
12.830792385
 21
-16.8755889271
 31
0.0
 11
12.794322574
 21
-16.8932863832
 31
0.0
 11
12.7549250683
 21
-16.9091234654
 31
0.0
 11
12.7129709162
 21
-16.9229510191
 31
0.0
 11
12.6688552449
 21
-16.9346388153
 31
0.0
 11
12.6229935388
 21
-16.9440767777
 31
0.0
 11
12.5758177266
 21
-16.9511760187
 31
0.0
 11
12.5277721132
 21
-16.9558696774
 31
0.0
 11
12.4793091956
 21
-16.9581135484
 31
0.0
 11
12.4308854009
 21
-16.9578864989
 31
0.0
 11
12.3829567877
 21
-16.9551906672
 31
0.0
 11
12.335974751
 21
-16.9500514429
 31
0.0
 11
12.2903817708
 21
-16.9425172275
 31
0.0
 11
12.2466072449
 21
-16.9326589788
 31
0.0
 11
12.2050634448
 21
-16.9205695424
 31
0.0
 11
12.1661416328
 21
-16.9063627775
 31
0.0
 11
12.1302083774
 21
-16.8901724843
 31
0.0
  0
SPLINE
  5
240
100
AcDbEntity
  8
RACCORDO
100
AcDbSpline
 62
253
  6
CONTINUOUS
 70
0
 71
3
 72
17
 73
13
 74
11
 42
0.0000001
 43
0.0000001
 44
0.0000000001
 12
-0.0143932901
 22
-0.3376442498
 32
0.0
 13
-0.3119368616
 23
-0.1309286533
 33
0.0
 40
0.0
 40
0.0
 40
0.0
 40
0.0
 40
0.1258486274
 40
0.2466401294
 40
0.3621658582
 40
0.4724040736
 40
0.5775478727
 40
0.6780295861
 40
0.7745351835
 40
0.867999348
 40
0.9595712428
 40
1.0
 40
1.0
 40
1.0
 40
1.0
 10
13.5119811737
 20
-17.3759370954
 30
0.0
 10
13.5113773818
 20
-17.3901011172
 30
0.0
 10
13.509122952
 20
-17.4178298339
 30
0.0
 10
13.5023733858
 20
-17.4581175937
 30
0.0
 10
13.4923795389
 20
-17.4959198046
 30
0.0
 10
13.4792275313
 20
-17.5308742926
 30
0.0
 10
13.463029966
 20
-17.5626470669
 30
0.0
 10
13.4439259162
 20
-17.5909276105
 30
0.0
 10
13.4220827023
 20
-17.615430224
 30
0.0
 10
13.3977002237
 20
-17.6358956163
 30
0.0
 10
13.3759026353
 20
-17.6491304461
 30
0.0
 10
13.3623773098
 20
-17.6553675123
 30
0.0
 10
13.3581735699
 20
-17.6571319399
 30
0.0
 11
13.5119811737
 21
-17.3759370954
 31
0.0
 11
13.508466939
 21
-17.4183223152
 31
0.0
 11
13.5016454249
 21
-17.4585699194
 31
0.0
 11
13.49158225
 21
-17.4962927518
 31
0.0
 11
13.4783742155
 21
-17.5311279431
 31
0.0
 11
13.4621483744
 21
-17.562740401
 31
0.0
 11
13.4430608087
 21
-17.5908260339
 31
0.0
 11
13.4212951286
 21
-17.6151146761
 31
0.0
 11
13.3970607061
 21
-17.6353726863
 31
0.0
 11
13.3705906607
 21
-17.6514051955
 31
0.0
 11
13.3581735699
 21
-17.6571319399
 31
0.0
  0
SPLINE
  5
241
100
AcDbEntity
  8
RACCORDO
100
AcDbSpline
 62
253
  6
CONTINUOUS
 70
0
 71
3
 72
20
 73
16
 74
14
 42
0.0000001
 43
0.0000001
 44
0.0000000001
 12
0.0310239891
 22
-0.8981952426
 32
0.0
 13
0.8042527769
 23
-0.4021825786
 33
0.0
 40
0.0
 40
0.0
 40
0.0
 40
0.0
 40
0.0984440285
 40
0.1938120276
 40
0.2860472902
 40
0.3751524342
 40
0.461196822
 40
0.5443216478
 40
0.6247432368
 40
0.7027569947
 40
0.7787358795
 40
0.8531255446
 40
0.9264323264
 40
0.9992073771
 40
1.0
 40
1.0
 40
1.0
 40
1.0
 10
12.1302082561
 20
-16.8901696298
 30
0.0
 10
12.1312262983
 20
-16.9196436158
 30
0.0
 10
12.1349469566
 20
-16.9776294825
 30
0.0
 10
12.1458858528
 20
-17.0626816071
 30
0.0
 10
12.1620468803
 20
-17.1440570368
 30
0.0
 10
12.1833560468
 20
-17.2213517841
 30
0.0
 10
12.2097157185
 20
-17.29418629
 30
0.0
 10
12.2410049759
 20
-17.3621998633
 30
0.0
 10
12.2770796585
 20
-17.4250528264
 30
0.0
 10
12.3177717755
 20
-17.482426687
 30
0.0
 10
12.3628886801
 20
-17.5340256835
 30
0.0
 10
12.4122115222
 20
-17.5795785055
 30
0.0
 10
12.4654943063
 20
-17.6188417538
 30
0.0
 10
12.5037192568
 20
-17.6408244056
 30
0.0
 10
12.5234354694
 20
-17.650699196
 30
0.0
 10
12.5236479591
 20
-17.6508054557
 30
0.0
 11
12.1302082561
 21
-16.8901696298
 31
0.0
 11
12.135958285
 21
-16.9784572706
 31
0.0
 11
12.1469831599
 21
-17.0634554149
 31
0.0
 11
12.1632284956
 21
-17.1447426631
 31
0.0
 11
12.1846138483
 21
-17.2219159769
 31
0.0
 11
12.2110334731
 21
-17.2945936761
 31
0.0
 11
12.2423569214
 21
-17.3624166413
 31
0.0
 11
12.2784291876
 21
-17.4250489739
 31
0.0
 11
12.3190719363
 21
-17.4821808565
 31
0.0
 11
12.3640841233
 21
-17.533529522
 31
0.0
 11
12.4132433345
 21
-17.5788410578
 31
0.0
 11
12.4663062911
 21
-17.6178910424
 31
0.0
 11
12.523010688
 21
-17.6504862808
 31
0.0
 11
12.5236479591
 21
-17.6508054557
 31
0.0
  0
SPLINE
  5
242
100
AcDbEntity
  8
RACCORDO
100
AcDbSpline
 62
253
  6
CONTINUOUS
 70
0
 71
3
 72
15
 73
11
 74
9
 42
0.0000001
 43
0.0000001
 44
0.0000000001
 12
0.0081359458
 22
-0.2415491295
 32
0.0
 13
0.2158020817
 23
-0.108084067
 33
0.0
 40
0.0
 40
0.0
 40
0.0
 40
0.0
 40
0.096605376
 40
0.2047498864
 40
0.3175548501
 40
0.4369092464
 40
0.5641869942
 40
0.7002530637
 40
0.8455167581
 40
1.0
 40
1.0
 40
1.0
 40
1.0
 10
-18.7666720549
 20
-1.3373175275
 30
0.0
 10
-18.7664100628
 20
-1.3450958423
 30
0.0
 10
-18.7644522367
 20
-1.3615354687
 30
0.0
 10
-18.7570214756
 20
-1.3861191209
 30
0.0
 10
-18.7447103129
 20
-1.4107077977
 30
0.0
 10
-18.7278982419
 20
-1.4343594363
 30
0.0
 10
-18.7067749979
 20
-1.4568722851
 30
0.0
 10
-18.6815521504
 20
-1.4780596293
 30
0.0
 10
-18.6524713551
 20
-1.4977415639
 30
0.0
 10
-18.6313210289
 20
-1.5093983788
 30
0.0
 10
-18.6202084272
 20
-1.5149641044
 30
0.0
 11
-18.7666720549
 21
-1.3373175275
 31
0.0
 11
-18.7639318366
 21
-1.3604778963
 31
0.0
 11
-18.7564542192
 21
-1.3854851814
 31
0.0
 11
-18.744366451
 21
-1.4098808609
 31
0.0
 11
-18.7277823753
 21
-1.4334351746
 31
0.0
 11
-18.7068581822
 21
-1.4559262863
 31
0.0
 11
-18.681790937
 21
-1.4771423732
 31
0.0
 11
-18.652816725
 21
-1.4968836208
 31
0.0
 11
-18.6202084272
 21
-1.5149641044
 31
0.0
  0
SPLINE
  5
243
100
AcDbEntity
  8
RACCORDO
100
AcDbSpline
 62
253
  6
CONTINUOUS
 70
0
 71
3
 72
12
 73
8
 74
6
 42
0.0000001
 43
0.0000001
 44
0.0000000001
 12
0.0100365391
 22
-17.3464298712
 32
0.0
 13
0.6021475013
 23
-17.3359784378
 33
0.0
 40
0.0
 40
0.0
 40
0.0
 40
0.0
 40
0.2013239639
 40
0.4019897286
 40
0.6019934846
 40
0.8013314951
 40
1.0
 40
1.0
 40
1.0
 40
1.0
 10
11.8265405916
 20
0.4527961786
 30
0.0
 10
11.8272141236
 20
-0.7112878287
 30
0.0
 10
11.8363549524
 20
-3.0356532676
 30
0.0
 10
11.8735683873
 20
-6.5162928047
 30
0.0
 10
11.9342666101
 20
-9.9851195592
 30
0.0
 10
12.0184436173
 20
-13.4419022255
 30
0.0
 10
12.0903323421
 20
-15.7421319912
 30
0.0
 10
12.1302082567
 20
-16.8901696301
 30
0.0
 11
11.8265405916
 21
0.4527961786
 31
0.0
 11
11.8403100335
 21
-3.0394292823
 31
0.0
 11
11.8775634735
 21
-6.5200651214
 31
0.0
 11
11.9383005721
 21
-9.9888851346
 31
0.0
 11
12.0225173647
 21
-13.4456628075
 31
0.0
 11
12.1302082567
 21
-16.8901696301
 31
0.0
  0
SPLINE
  5
244
100
AcDbEntity
  8
RACCORDO
100
AcDbSpline
 62
253
  6
CONTINUOUS
 70
0
 71
3
 72
12
 73
8
 74
6
 42
0.0000001
 43
0.0000001
 44
0.0000000001
 12
-0.5816945587
 22
17.3312350131
 32
0.0
 13
-0.0096895674
 23
17.3409913716
 33
0.0
 40
0.0
 40
0.0
 40
0.0
 40
0.0
 40
0.1986178892
 40
0.397931222
 40
0.5979356197
 40
0.798626728
 40
1.0
 40
1.0
 40
1.0
 40
1.0
 10
-18.6202085235
 20
-1.51496124
 30
0.0
 10
-18.658720172
 20
-0.367530135
 30
0.0
 10
-18.7281481651
 20
1.9316164931
 30
0.0
 10
-18.8094383479
 20
5.3869504854
 30
0.0
 10
-18.8680538117
 20
8.8547308614
 30
0.0
 10
-18.9039926175
 20
12.3347259506
 30
0.0
 10
-18.9128127026
 20
14.6587939716
 30
0.0
 10
-18.9134631092
 20
15.822798029
 30
0.0
 11
-18.6202085235
 21
-1.51496124
 31
0.0
 11
-18.7242080404
 21
1.927699895
 31
0.0
 11
-18.8055380917
 21
5.3830341973
 31
0.0
 11
-18.8641932743
 21
8.8508132525
 31
0.0
 11
-18.9001697594
 21
12.3308106141
 31
0.0
 11
-18.9134631092
 21
15.822798029
 31
0.0
  0
SPLINE
  5
245
100
AcDbEntity
  8
RACCORDO
100
AcDbSpline
 62
253
  6
CONTINUOUS
 70
0
 71
3
 72
24
 73
20
 74
18
 42
0.0000001
 43
0.0000001
 44
0.0000000001
 12
-0.2568119403
 22
0.1284094414
 32
0.0
 13
0.2538376491
 23
0.1341931638
 33
0.0
 40
0.0
 40
0.0
 40
0.0
 40
0.0
 40
0.0733566107
 40
0.1424623624
 40
0.2072655004
 40
0.2678752522
 40
0.3245825613
 40
0.3778865809
 40
0.4285088764
 40
0.4773862845
 40
0.5256170404
 40
0.5743654931
 40
0.6247427563
 40
0.6777072691
 40
0.7340057366
 40
0.7941618645
 40
0.8584885097
 40
0.9271134778
 40
1.0
 40
1.0
 40
1.0
 40
1.0
 10
-18.7732779962
 20
16.0662117628
 30
0.0
 10
-18.7795576141
 20
16.0693516566
 30
0.0
 10
-18.7915415277
 20
16.0758887473
 30
0.0
 10
-18.8081352311
 20
16.086803379
 30
0.0
 10
-18.8226921266
 20
16.0984586954
 30
0.0
 10
-18.8350890763
 20
16.1107651852
 30
0.0
 10
-18.8452196217
 20
16.1236318374
 30
0.0
 10
-18.8529884763
 20
16.1369635937
 30
0.0
 10
-18.8583107231
 20
16.1506565418
 30
0.0
 10
-18.8611158416
 20
16.1645904042
 30
0.0
 10
-18.8613601717
 20
16.1786256929
 30
0.0
 10
-18.8590402034
 20
16.1926128719
 30
0.0
 10
-18.8541936047
 20
16.2064100701
 30
0.0
 10
-18.8468868578
 20
16.219893863
 30
0.0
 10
-18.837202087
 20
16.2329576942
 30
0.0
 10
-18.8252320357
 20
16.2455044766
 30
0.0
 10
-18.8110804173
 20
16.2574413588
 30
0.0
 10
-18.7948674816
 20
16.2686767299
 30
0.0
 10
-18.783116207
 20
16.2754433529
 30
0.0
 10
-18.7769490925
 20
16.2787036439
 30
0.0
 11
-18.7732779962
 21
16.0662117628
 31
0.0
 11
-18.7917457624
 21
16.0763396655
 31
0.0
 11
-18.8082933716
 21
16.0872888199
 31
0.0
 11
-18.8227794039
 21
16.0989662748
 31
0.0
 11
-18.8350824305
 21
16.1112742936
 31
0.0
 11
-18.8450998385
 21
16.1241101718
 31
0.0
 11
-18.8527481804
 21
16.1373670575
 31
0.0
 11
-18.8579634741
 21
16.1509341619
 31
0.0
 11
-18.8607021968
 21
16.164698314
 31
0.0
 11
-18.8609414797
 21
16.1785445521
 31
0.0
 11
-18.8586793266
 21
16.1923574904
 31
0.0
 11
-18.8539346097
 21
16.2060217868
 31
0.0
 11
-18.8467469087
 21
16.2194234552
 31
0.0
 11
-18.8371763421
 21
16.2324504877
 31
0.0
 11
-18.8253026319
 21
16.2449944292
 31
0.0
 11
-18.811224797
 21
16.2569506026
 31
0.0
 11
-18.795060854
 21
16.2682189273
 31
0.0
 11
-18.7769490925
 21
16.2787036439
 31
0.0
  0
SPLINE
  5
246
100
AcDbEntity
  8
RACCORDO
100
AcDbSpline
 62
253
  6
CONTINUOUS
 70
0
 71
3
 72
13
 73
9
 74
7
 42
0.0000001
 43
0.0000001
 44
0.0000000001
 12
0.0847824755
 22
0.0447992424
 32
0.0
 13
0.0862227726
 23
-0.0416164837
 33
0.0
 40
0.0
 40
0.0
 40
0.0
 40
0.0
 40
0.1221983027
 40
0.281192915
 40
0.4462849708
 40
0.6200763825
 40
0.8043375895
 40
1.0
 40
1.0
 40
1.0
 40
1.0
 10
-18.8691861564
 20
16.282935574
 30
0.0
 10
-18.8657327315
 20
16.2847603711
 30
0.0
 10
-18.8574638251
 20
16.2883515927
 30
0.0
 10
-18.8435339631
 20
16.2917053019
 30
0.0
 10
-18.8275864662
 20
16.2925555555
 30
0.0
 10
-18.8109290694
 20
16.2906612818
 30
0.0
 10
-18.7938059541
 20
16.2860760244
 30
0.0
 10
-18.782572611
 20
16.2814179044
 30
0.0
 10
-18.7769490925
 20
16.2787036439
 30
0.0
 11
-18.8691861564
 21
16.282935574
 31
0.0
 11
-18.8584499495
 21
16.2876025045
 31
0.0
 11
-18.8436604771
 21
16.2912065281
 31
0.0
 11
-18.8278803981
 21
16.2921121284
 31
0.0
 11
-18.8113397771
 21
16.2903061022
 31
0.0
 11
-18.7942797668
 21
16.2858147804
 31
0.0
 11
-18.7769490925
 21
16.2787036439
 31
0.0
  0
SPLINE
  5
247
100
AcDbEntity
  8
RACCORDO
100
AcDbSpline
 62
253
  6
CONTINUOUS
 70
0
 71
3
 72
24
 73
20
 74
18
 42
0.0000001
 43
0.0000001
 44
0.0000000001
 12
-0.3882908276
 22
-0.191557822
 32
0.0
 13
-0.3872634173
 23
0.1936264743
 33
0.0
 40
0.0
 40
0.0
 40
0.0
 40
0.0
 40
0.052074131
 40
0.1066461955
 40
0.1634630169
 40
0.2222358458
 40
0.2826430499
 40
0.3443371293
 40
0.4069483261
 40
0.4700938806
 40
0.5333825206
 40
0.596421925
 40
0.6588222733
 40
0.7202040051
 40
0.780202249
 40
0.8384761628
 40
0.8947126724
 40
0.9486337795
 40
1.0
 40
1.0
 40
1.0
 40
1.0
 10
12.3872582007
 20
0.6965999973
 30
0.0
 10
12.3805182316
 20
0.6932749282
 30
0.0
 10
12.3664618595
 20
0.6869695427
 30
0.0
 10
12.3443444116
 20
0.6787207515
 30
0.0
 10
12.3208530152
 20
0.6715139974
 30
0.0
 10
12.2961844339
 20
0.6654101958
 30
0.0
 10
12.27054238
 20
0.6604596522
 30
0.0
 10
12.2441393753
 20
0.6567035874
 30
0.0
 10
12.2171943208
 20
0.6541732436
 30
0.0
 10
12.1899310318
 20
0.6528897264
 30
0.0
 10
12.1625758232
 20
0.6528637215
 30
0.0
 10
12.1353558933
 20
0.654095437
 30
0.0
 10
12.1084971951
 20
0.6565746
 30
0.0
 10
12.0822228026
 20
0.6602805147
 30
0.0
 10
12.0567504781
 20
0.6651823516
 30
0.0
 10
12.0322912506
 20
0.6712393064
 30
0.0
 10
12.0090469546
 20
0.6784015147
 30
0.0
 10
11.9872121697
 20
0.6866085033
 30
0.0
 10
11.973360639
 20
0.6928925348
 30
0.0
 10
11.9667298863
 20
0.6962078216
 30
0.0
 11
12.3872582007
 21
0.6965999973
 31
0.0
 11
12.3667020573
 21
0.6873374717
 31
0.0
 11
12.3445746728
 21
0.6790508677
 31
0.0
 11
12.3210640782
 21
0.6718110742
 31
0.0
 11
12.2963670697
 21
0.6656787818
 31
0.0
 11
12.2706897409
 21
0.6607051304
 31
0.0
 11
12.2442458647
 21
0.6569315497
 31
0.0
 11
12.2172564521
 21
0.654389601
 31
0.0
 11
12.1899466461
 21
0.6531004892
 31
0.0
 11
12.1625444918
 21
0.6530749697
 31
0.0
 11
12.1352783412
 21
0.6543132542
 31
0.0
 11
12.1083759285
 21
0.6568050031
 31
0.0
 11
12.0820616619
 21
0.6605294216
 31
0.0
 11
12.0565554527
 21
0.665455352
 31
0.0
 11
12.0320696272
 21
0.6715417592
 31
0.0
 11
12.0088085072
 21
0.6787378805
 31
0.0
 11
11.9869667829
 21
0.6869833929
 31
0.0
 11
11.9667298863
 21
0.6962078216
 31
0.0
  0
ELLIPSE
  5
248
100
AcDbEntity
  8
RACCORDO
100
AcDbEllipse
 62
7
  6
CONTINUOUS
 10
-15.8541507842
 20
17.6505873206
 30
0.0
 11
-0.0894818401
 21
0.1789012953
 31
0.0
 40
0.6122950388
 41
-0.6847996396
 42
0.0138137234
  0
ELLIPSE
  5
249
100
AcDbEntity
  8
RACCORDO
100
AcDbEllipse
 62
7
  6
CONTINUOUS
 10
16.8564298182
 20
-15.6464437673
 30
0.0
 11
-0.2234618187
 21
0.4480306886
 31
0.0
 40
0.6116748051
 41
-3.1815273444
 42
-2.2548620396
  0
ELLIPSE
  5
24A
100
AcDbEntity
  8
0
100
AcDbEllipse
 62
7
  6
CONTINUOUS
 10
18.1338346995
 20
-7.2659687245
 30
0.0
 11
0.6999953968
 21
0.0050237095
 31
0.0
 40
0.5053247124
 41
-0.6843049942
 42
-0.0036147725
  0
ELLIPSE
  5
24B
100
AcDbEntity
  8
RACCORDO
100
AcDbEllipse
 62
7
  6
CONTINUOUS
 10
15.4138606015
 20
2.0165816277
 30
0.0
 11
-0.0894578232
 21
0.1788799337
 31
0.0
 40
0.6124778111
 41
-2.255529033
 42
-0.6848850053
  0
ELLIPSE
  5
24C
100
AcDbEntity
  8
0
100
AcDbEllipse
 62
7
  6
CONTINUOUS
 10
18.1338346995
 20
-3.6822673602
 30
0.0
 11
0.6999957133
 21
-0.0049526276
 31
0.0
 40
0.4946372042
 41
-0.6771787527
 42
0.7888978189
  0
ENDSEC
  0
SECTION
  2
OBJECTS
  0
DICTIONARY
  5
C
100
AcDbDictionary
280
0
281
1
  3
ACAD_GROUP
350
D
  3
ACAD_MLINESTYLE
350
17
  3
ACAD_LAYOUT
350
1A
  3
ACAD_PLOTSETTINGS
350
19
  3
ACAD_PLOTSTYLENAME
350
E
  0
DICTIONARY
  5
D
102
{ACAD_REACTORS
330
C
102
}
100
AcDbDictionary
280
0
281
1
  0
ACDBDICTIONARYWDFLT
  5
E
102
{ACAD_REACTORS
330
C
102
}
100
AcDbDictionary
281
1
  3
Normal
350
F
100
AcDbDictionaryWithDefault
340
F
  0
DICTIONARY
  5
17
102
{ACAD_REACTORS
330
C
102
}
100
AcDbDictionary
280
0
281
1
  3
Standard
350
18
  0
DICTIONARY
  5
19
102
{ACAD_REACTORS
330
C
102
}
100
AcDbDictionary
281
1
  0
DICTIONARY
  5
1A
102
{ACAD_REACTORS
330
C
102
}
100
AcDbDictionary
281
1
  3
Model
350
24D
  3
Layout1
350
24E
  0
ACDBPLACEHOLDER
  5
F
102
{ACAD_REACTORS
330
E
102
}
  0
MLINESTYLE
  5
18
102
{ACAD_REACTORS
330
17
102
}
100
AcDbMlineStyle
  2
STANDARD
 70
0
  3

 62
256
 51
90.0
 52
90.0
 71
2
 49
0.5
 62
256
  6
BYLAYER
 49
-0.5
 62
256
  6
BYLAYER
  0
LAYOUT
  5
24D
102
{ACAD_REACTORS
330
1A
102
}
100
AcDbPlotSettings
  1

  2
none_device
  4
ISO_A4_(297.00_x_210.00_MM)
  6

 40
0.0
 41
0.0
 42
0.0
 43
0.0
 44
297.0
 45
210.0
 46
0.0
 47
0.0
 48
0.0
 49
0.0
140
0.0
141
0.0
142
1.0
143
1.0
 70
1024
 72
1
 73
0
 74
0
  7

 75
0
147
1.0
148
0.0
149
0.0
100
AcDbLayout
  1
Model
 70
0
 71
0
 10
0.0
 20
0.0
 11
297.0
 21
210.0
 12
0.0
 22
0.0
 32
0.0
 14
0.0
 24
0.0
 34
0.0
 15
0.0
 25
0.0
 35
0.0
146
0.0
 13
0.0
 23
0.0
 33
0.0
 16
1.0
 26
0.0
 36
0.0
 17
0.0
 27
1.0
 37
0.0
 76
0
330
20E
345
0
346
0
  0
LAYOUT
  5
24E
102
{ACAD_REACTORS
330
1A
102
}
100
AcDbPlotSettings
  1

  2
none_device
  4
ISO_A4_(297.00_x_210.00_MM)
  6

 40
0.0
 41
0.0
 42
0.0
 43
0.0
 44
297.0
 45
210.0
 46
0.0
 47
0.0
 48
0.0
 49
0.0
140
0.0
141
0.0
142
1.0
143
1.0
 70
0
 72
1
 73
0
 74
0
  7

 75
0
147
1.0
148
0.0
149
0.0
100
AcDbLayout
  1
Layout1
 70
0
 71
1
 10
0.0
 20
0.0
 11
297.0
 21
210.0
 12
0.0
 22
0.0
 32
0.0
 14
0.0
 24
0.0
 34
0.0
 15
0.0
 25
0.0
 35
0.0
146
0.0
 13
0.0
 23
0.0
 33
0.0
 16
1.0
 26
0.0
 36
0.0
 17
0.0
 27
1.0
 37
0.0
 76
0
330
20F
345
0
346
0
  0
ENDSEC
  0
EOF
