  0
SECTION
  2
HEADER
  9
$ACADVER
  1
AC1024
  9
$DWGCODEPAGE
  3
ANSI_1252
  9
$EXTMAX
 10
297.0
 20
210.0
 30
0.0
  9
$EXTMIN
 10
0.0
 20
0.0
 30
0.0
  9
$LIMMIN
 10
0.0
 20
0.0
  9
$LIMMAX
 10
297.0
 20
210.0
  9
$VIEWCTR
 10
148.5
 20
105.0
  9
$VIEWSIZE
 40
210.0
  9
$CLAYER
  8
0
  9
$LTSCALE
 40
16.335
  9
$CELTYPE
  6
BYLAYER
  9
$DIMSCALE
 40
1.0
  9
$DIMASZ
 40
3.0
  9
$DIMEXO
 40
0.5
  9
$DIMDLI
 40
11.286
  9
$DIMEXE
 40
1.5
  9
$DIMCEN
 40
2.673
  9
$DIMLFAC
 40
1.0
  9
$DIMBLK
  1
_FILLED
  9
$DIMALT
 70
0
  9
$DIMALTF
 40
0.0393700787
  9
$DIMTXT
 40
3.0
  9
$DIMTOL
 70
1
  9
$DIMLIM
 70
0
  9
$DIMTFAC
 40
1.0
  9
$DIMTP
 40
0.01
  9
$DIMTM
 40
0.01
  9
$DIMGAP
 40
0.625
  9
$DIMDSEP
 70
44
  9
$AUNITS
 70
0
  9
$PDMODE
 70
3
  9
$PDSIZE
 40
3.0
  9
$HANDSEED
  5
5B1
  9
$TILEMODE
 70
1
  9
$MEASUREMENT
 70
1
  9
$INSUNITS
 70
4
  0
ENDSEC
  0
SECTION
  2
CLASSES
  0
CLASS
  1
ACDBDICTIONARYWDFLT
  2
AcDbDictionaryWithDefault
  3
AutoCAD 2000
 90
0
 91
1
280
0
281
0
  0
CLASS
  1
ACDBPLACEHOLDER
  2
AcDbPlaceHolder
  3
AutoCAD 2000
 90
0
 91
1
280
0
281
0
  0
CLASS
  1
LAYOUT
  2
AcDbLayout
  3
AutoCAD 2000
 90
0
 91
0
280
0
281
0
  0
ENDSEC
  0
SECTION
  2
TABLES
  0
TABLE
  2
VPORT
  5
8
100
AcDbSymbolTable
 70
2
  0
VPORT
  5
1F4
100
AcDbSymbolTableRecord
100
AcDbViewportTableRecord
  2
*ACTIVE
 70
0
 10
0.0
 20
0.0
 11
1.0
 21
1.0
 12
148.5
 22
105.0
 13
0.0
 23
0.0
 14
1.0
 24
1.0
 15
0.0
 25
0.0
 16
0.0
 26
0.0
 36
1.0
 17
0.0
 27
0.0
 37
0.0
 40
210.0
 41
1.4142857143
 42
50.0
 43
0.0
 44
0.0
 50
0.0
 51
0.0
 71
0
 72
100
 73
1
 74
1
 75
0
 76
0
 77
0
 78
0
  0
ENDTAB
  0
TABLE
  2
LTYPE
  5
5
100
AcDbSymbolTable
 70
6
  0
LTYPE
  5
14
100
AcDbSymbolTableRecord
100
AcDbLinetypeTableRecord
  2
BYBLOCK
 70
0
  3

 72
65
 73
0
 40
0.0
  0
LTYPE
  5
15
100
AcDbSymbolTableRecord
100
AcDbLinetypeTableRecord
  2
BYLAYER
 70
0
  3

 72
65
 73
0
 40
0.0
  0
LTYPE
  5
16
100
AcDbSymbolTableRecord
100
AcDbLinetypeTableRecord
  2
CONTINUOUS
 70
64
  3
Solid line
 72
65
 73
0
 40
0.0
  0
LTYPE
  5
1F5
100
AcDbSymbolTableRecord
100
AcDbLinetypeTableRecord
  2
CENTER
 70
64
  3
____ _ ____ _ ____ _ ____ _ ____ _ ____ _ ____
 72
65
 73
4
 40
0.6
 49
0.375
 74
0
 49
-0.075
 74
0
 49
0.075
 74
0
 49
-0.075
 74
0
  0
LTYPE
  5
1F6
100
AcDbSymbolTableRecord
100
AcDbLinetypeTableRecord
  2
HIDDEN
 70
64
  3
- - - - - - - - - - - - - - - - - - - -
 72
65
 73
2
 40
0.2
 49
0.1
 74
0
 49
-0.1
 74
0
  0
LTYPE
  5
1F7
100
AcDbSymbolTableRecord
100
AcDbLinetypeTableRecord
  2
PHANTOM
 70
64
  3
_____ _ _ _____ _ _ _____ _ _ _____
 72
65
 73
6
 40
0.8
 49
0.45
 74
0
 49
-0.05
 74
0
 49
0.1
 74
0
 49
-0.05
 74
0
 49
0.1
 74
0
 49
-0.05
 74
0
  0
LTYPE
  5
1F8
100
AcDbSymbolTableRecord
100
AcDbLinetypeTableRecord
  2
DOT
 70
64
  3
. . . . . . . . . . . . . . . . . . . .
 72
65
 73
2
 40
0.2
 49
0.1
 74
0
 49
-0.1
 74
0
  0
LTYPE
  5
1F9
100
AcDbSymbolTableRecord
100
AcDbLinetypeTableRecord
  2
DASHED
 70
64
  3
- - - - - - - - - - - - - - - - - - - -
 72
65
 73
2
 40
0.2
 49
0.1
 74
0
 49
-0.1
 74
0
  0
ENDTAB
  0
TABLE
  2
LAYER
  5
2
100
AcDbSymbolTable
 70
36
  0
LAYER
  5
10
100
AcDbSymbolTableRecord
100
AcDbLayerTableRecord
  2
0
 70
0
 62
7
  6
CONTINUOUS
370
-3
390
F
  0
LAYER
  5
1FA
100
AcDbSymbolTableRecord
100
AcDbLayerTableRecord
  2
DEFAULT_1
 70
0
 62
7
  6
CENTER
370
-3
390
F
  0
LAYER
  5
1FB
100
AcDbSymbolTableRecord
100
AcDbLayerTableRecord
  2
DEFAULT_2
 70
0
 62
7
  6
HIDDEN
370
-3
390
F
  0
LAYER
  5
1FC
100
AcDbSymbolTableRecord
100
AcDbLayerTableRecord
  2
DEFAULT_3
 70
0
 62
7
  6
PHANTOM
370
-3
390
F
  0
LAYER
  5
1FD
100
AcDbSymbolTableRecord
100
AcDbLayerTableRecord
  2
ASSI
 70
0
 62
7
  6
CONTINUOUS
370
-3
390
F
  0
LAYER
  5
1FE
100
AcDbSymbolTableRecord
100
AcDbLayerTableRecord
  2
COLOR5
 70
0
 62
7
  6
CONTINUOUS
370
-3
390
F
  0
LAYER
  5
1FF
100
AcDbSymbolTableRecord
100
AcDbLayerTableRecord
  2
COORDINATE
 70
0
 62
7
  6
CONTINUOUS
370
-3
390
F
  0
LAYER
  5
200
100
AcDbSymbolTableRecord
100
AcDbLayerTableRecord
  2
COORD_ORIGINE
 70
0
 62
7
  6
CONTINUOUS
370
-3
390
F
  0
LAYER
  5
201
100
AcDbSymbolTableRecord
100
AcDbLayerTableRecord
  2
COPERCHIO
 70
0
 62
7
  6
CONTINUOUS
370
-3
390
F
  0
LAYER
  5
202
100
AcDbSymbolTableRecord
100
AcDbLayerTableRecord
  2
COPY_PABLISH
 70
0
 62
7
  6
CONTINUOUS
370
-3
390
F
  0
LAYER
  5
203
100
AcDbSymbolTableRecord
100
AcDbLayerTableRecord
  2
CURVE
 70
0
 62
7
  6
CONTINUOUS
370
-3
390
F
  0
LAYER
  5
204
100
AcDbSymbolTableRecord
100
AcDbLayerTableRecord
  2
DRAFT
 70
0
 62
7
  6
CONTINUOUS
370
-3
390
F
  0
LAYER
  5
205
100
AcDbSymbolTableRecord
100
AcDbLayerTableRecord
  2
IGES_SCRITTE
 70
0
 62
7
  6
CONTINUOUS
370
-3
390
F
  0
LAYER
  5
206
100
AcDbSymbolTableRecord
100
AcDbLayerTableRecord
  2
IMPORT_IGES
 70
0
 62
7
  6
CONTINUOUS
370
-3
390
F
  0
LAYER
  5
207
100
AcDbSymbolTableRecord
100
AcDbLayerTableRecord
  2
IMPOT_ESTER
 70
0
 62
7
  6
CONTINUOUS
370
-3
390
F
  0
LAYER
  5
208
100
AcDbSymbolTableRecord
100
AcDbLayerTableRecord
  2
INTF_1
 70
0
 62
7
  6
CONTINUOUS
370
-3
390
F
  0
LAYER
  5
209
100
AcDbSymbolTableRecord
100
AcDbLayerTableRecord
  2
INTF_7
 70
0
 62
7
  6
CONTINUOUS
370
-3
390
F
  0
LAYER
  5
20A
100
AcDbSymbolTableRecord
100
AcDbLayerTableRecord
  2
NOTE
 70
0
 62
7
  6
CONTINUOUS
370
-3
390
F
  0
LAYER
  5
20B
100
AcDbSymbolTableRecord
100
AcDbLayerTableRecord
  2
PIANI
 70
0
 62
7
  6
CONTINUOUS
370
-3
390
F
  0
LAYER
  5
20C
100
AcDbSymbolTableRecord
100
AcDbLayerTableRecord
  2
PIANI_ORIGINE
 70
0
 62
7
  6
CONTINUOUS
370
-3
390
F
  0
LAYER
  5
20D
100
AcDbSymbolTableRecord
100
AcDbLayerTableRecord
  2
PUNTI
 70
0
 62
7
  6
CONTINUOUS
370
-3
390
F
  0
LAYER
  5
20E
100
AcDbSymbolTableRecord
100
AcDbLayerTableRecord
  2
RACCORDO
 70
0
 62
7
  6
CONTINUOUS
370
-3
390
F
  0
LAYER
  5
20F
100
AcDbSymbolTableRecord
100
AcDbLayerTableRecord
  2
RGB__255__255__255__
 70
0
 62
7
  6
CONTINUOUS
370
-3
390
F
  0
LAYER
  5
210
100
AcDbSymbolTableRecord
100
AcDbLayerTableRecord
  2
RGB____0____0____0__
 70
0
 62
7
  6
CONTINUOUS
370
-3
390
F
  0
LAYER
  5
211
100
AcDbSymbolTableRecord
100
AcDbLayerTableRecord
  2
SKEL_CALOTTA
 70
0
 62
7
  6
CONTINUOUS
370
-3
390
F
  0
LAYER
  5
212
100
AcDbSymbolTableRecord
100
AcDbLayerTableRecord
  2
SKEL_COPERCHIO
 70
0
 62
7
  6
CONTINUOUS
370
-3
390
F
  0
LAYER
  5
213
100
AcDbSymbolTableRecord
100
AcDbLayerTableRecord
  2
SMUSSO
 70
0
 62
7
  6
CONTINUOUS
370
-3
390
F
  0
LAYER
  5
214
100
AcDbSymbolTableRecord
100
AcDbLayerTableRecord
  2
SNAPLINE
 70
0
 62
7
  6
CONTINUOUS
370
-3
390
F
  0
LAYER
  5
215
100
AcDbSymbolTableRecord
100
AcDbLayerTableRecord
  2
SUPERFICI
 70
0
 62
7
  6
CONTINUOUS
370
-3
390
F
  0
LAYER
  5
216
100
AcDbSymbolTableRecord
100
AcDbLayerTableRecord
  2
SUP_APPO
 70
0
 62
7
  6
CONTINUOUS
370
-3
390
F
  0
LAYER
  5
217
100
AcDbSymbolTableRecord
100
AcDbLayerTableRecord
  2
TRASH
 70
0
 62
7
  6
CONTINUOUS
370
-3
390
F
  0
LAYER
  5
218
100
AcDbSymbolTableRecord
100
AcDbLayerTableRecord
  2
XSEC_DATUMS
 70
0
 62
7
  6
CONTINUOUS
370
-3
390
F
  0
ENDTAB
  0
TABLE
  2
STYLE
  5
3
100
AcDbSymbolTable
 70
1
  0
STYLE
  5
11
100
AcDbSymbolTableRecord
100
AcDbTextStyleTableRecord
  2
STANDARD
 70
0
 40
0.0
 41
0.8
 50
0.0
 71
0
 42
0.2
  3
txt
  4

  0
STYLE
  5
219
100
AcDbSymbolTableRecord
100
AcDbTextStyleTableRecord
  2
TEXTSTYLE_1
 70
0
 40
0.0
 41
0.8
 50
0.0
 71
0
 42
0.2
  3
gdt
  4

  0
ENDTAB
  0
TABLE
  2
VIEW
  5
6
100
AcDbSymbolTable
 70
0
  0
ENDTAB
  0
TABLE
  2
UCS
  5
7
100
AcDbSymbolTable
 70
0
  0
ENDTAB
  0
TABLE
  2
APPID
  5
9
100
AcDbSymbolTable
 70
1
  0
APPID
  5
21A
100
AcDbSymbolTableRecord
100
AcDbRegAppTableRecord
  2
ACAD
 70
0
  0
ENDTAB
  0
TABLE
  2
BLOCK_RECORD
  5
1
100
AcDbSymbolTable
 70
0
  0
BLOCK_RECORD
  5
21B
100
AcDbSymbolTableRecord
100
AcDbBlockTableRecord
  2
*Model_Space
  0
BLOCK_RECORD
  5
21C
100
AcDbSymbolTableRecord
100
AcDbBlockTableRecord
  2
*Paper_Space
  0
BLOCK_RECORD
  5
21D
100
AcDbSymbolTableRecord
100
AcDbBlockTableRecord
  2
_FILLED
  0
ENDTAB
  0
TABLE
  2
DIMSTYLE
  5
A
100
AcDbSymbolTable
 70
1
100
AcDbDimStyleTable
 71
0
  0
DIMSTYLE
105
21E
100
AcDbSymbolTableRecord
100
AcDbDimStyleTableRecord
  2
STANDARD
 70
0
  3

  4

 40
1.0
 41
3.0
 42
0.5
 43
0.38
 44
1.5
 45
0.0
 46
0.0
 47
0.01
 48
0.01
140
3.0
141
0.09
142
0.0
143
25.4
144
1.0
145
0.0
146
1.0
147
0.625
 71
1
 72
0
 73
0
 74
0
 75
0
 76
0
 77
1
 78
8
 79
2
170
0
171
1
172
0
173
0
174
0
175
0
176
0
177
0
178
0
270
2
179
2
271
2
272
2
273
2
274
2
275
0
280
0
281
0
282
0
283
1
284
8
285
0
286
0
287
3
288
0
340
11
278
44
341
21D
342
21D
343
21D
344
21D
  0
ENDTAB
  0
ENDSEC
  0
SECTION
  2
BLOCKS
  0
BLOCK
  5
20
100
AcDbEntity
  8
0
100
AcDbBlockBegin
  2
*Model_Space
 70
0
 10
0.0
 20
0.0
 30
0.0
  3
*Model_Space
  1

  0
ENDBLK
  5
21
100
AcDbEntity
  8
0
100
AcDbBlockEnd
  0
BLOCK
  5
1C
100
AcDbEntity
  8
0
100
AcDbBlockBegin
  2
*Paper_Space
 70
0
 10
0.0
 20
0.0
 30
0.0
  3
*Paper_Space
  1

  0
ENDBLK
  5
1D
100
AcDbEntity
  8
0
100
AcDbBlockEnd
  0
BLOCK
  5
21F
100
AcDbEntity
  8
0
100
AcDbBlockBegin
  2
_FILLED
 70
64
 10
0.0
 20
0.0
  3
_FILLED
  1

  0
SOLID
  5
220
100
AcDbEntity
  8
0
  6
BYBLOCK
 62
0
100
AcDbTrace
 10
0.0
 20
0.0
 11
-1.0
 21
0.3166666667
 12
-1.0
 22
-0.3166666667
 13
-1.0
 23
-0.3166666667
  0
ENDBLK
  5
221
100
AcDbEntity
  8
0
  6
BYBLOCK
 62
0
100
AcDbBlockEnd
  0
ENDSEC
  0
SECTION
  2
ENTITIES
  0
LWPOLYLINE
  5
222
100
AcDbEntity
  8
COPY_PABLISH
100
AcDbPolyline
 62
250
  6
CONTINUOUS
 90
10
 70
0
 10
13.6067408429
 20
-55.7199550944
 10
14.0609349271
 20
-55.6543743877
 10
14.488644106
 20
-55.5516906221
 10
14.8829146381
 20
-55.4057047749
 10
15.2351421468
 20
-55.2101150661
 10
15.5362649697
 20
-54.9590950054
 10
15.7840705279
 20
-54.654496542
 10
15.9820568236
 20
-54.3049719246
 10
16.1341001316
 20
-53.9191283812
 10
16.243921981
 20
-53.5055183082
  0
LWPOLYLINE
  5
223
100
AcDbEntity
  8
COPY_PABLISH
100
AcDbPolyline
 62
7
  6
CONTINUOUS
 90
31
 70
0
 10
14.3087252283
 20
-56.1358138875
 10
14.3824601165
 20
-56.1335398238
 10
14.4668603807
 20
-56.1294551667
 10
14.5518402204
 20
-56.1239013174
 10
14.6376807549
 20
-56.11671854
 10
14.7254632257
 20
-56.107736298
 10
14.8153100873
 20
-56.0968070345
 10
14.9069350711
 20
-56.0837905678
 10
15.0008675844
 20
-56.0684114912
 10
15.0968183269
 20
-56.0504923396
 10
15.1948531241
 20
-56.0297902231
 10
15.2959985517
 20
-56.0058038566
 10
15.399038642
 20
-55.9785213161
 10
15.5048562407
 20
-55.947394672
 10
15.6174367568
 20
-55.9106741388
 10
15.7385449676
 20
-55.8668309621
 10
15.8654625726
 20
-55.8158086345
 10
15.9953786499
 20
-55.7578992376
 10
16.1307056103
 20
-55.6910968323
 10
16.2679867401
 20
-55.6161344299
 10
16.3965125046
 20
-55.5389382381
 10
16.5127520522
 20
-55.4628801972
 10
16.6210711834
 20
-55.386309559
 10
16.7233006548
 20
-55.3086633488
 10
16.8201528599
 20
-55.2299454749
 10
16.9112620883
 20
-55.1509845854
 10
16.996719277
 20
-55.0722600157
 10
17.0771905589
 20
-54.9936622161
 10
17.1525885169
 20
-54.9160340596
 10
17.2216471355
 20
-54.8412739512
 10
17.2857075081
 20
-54.7676943811
  0
LINE
  5
224
100
AcDbEntity
  8
COPY_PABLISH
100
AcDbLine
 62
7
  6
CONTINUOUS
 10
6.8247888009
 20
-54.6512936131
 11
6.8201139836
 21
-54.6525380978
  0
LWPOLYLINE
  5
225
100
AcDbEntity
  8
COPY_PABLISH
100
AcDbPolyline
 62
7
  6
CONTINUOUS
 90
6
 70
0
 10
6.9291267324
 20
-54.6200226771
 10
6.9362064002
 20
-54.618377307
 10
6.9439251485
 20
-54.6167007427
 10
6.953045072
 20
-54.6148458813
 10
6.9643701948
 20
-54.6126803751
 10
6.9772210519
 20
-54.6103453784
  0
LINE
  5
226
100
AcDbEntity
  8
COPY_PABLISH
100
AcDbLine
 62
7
  6
CONTINUOUS
 10
6.9772210519
 20
-54.6103453784
 11
7.0141600089
 21
-54.6039141699
  0
LINE
  5
227
100
AcDbEntity
  8
COPY_PABLISH
100
AcDbLine
 62
7
  6
CONTINUOUS
 10
7.0141600089
 20
-54.6039141699
 11
7.100232034
 21
-54.5893261762
  0
LINE
  5
228
100
AcDbEntity
  8
COPY_PABLISH
100
AcDbLine
 62
7
  6
CONTINUOUS
 10
7.2632328233
 20
-54.5637813025
 11
7.2863592007
 21
-54.5599680035
  0
LINE
  5
229
100
AcDbEntity
  8
COPY_PABLISH
100
AcDbLine
 62
7
  6
CONTINUOUS
 10
7.100232034
 20
-54.5893261762
 11
7.1243303206
 21
-54.5853751188
  0
LINE
  5
22A
100
AcDbEntity
  8
COPY_PABLISH
100
AcDbLine
 62
7
  6
CONTINUOUS
 10
7.1243303206
 20
-54.5853751188
 11
7.1483637695
 21
-54.5815774759
  0
LINE
  5
22B
100
AcDbEntity
  8
COPY_PABLISH
100
AcDbLine
 62
7
  6
CONTINUOUS
 10
7.2232517352
 20
-54.570105923
 11
7.2632328233
 21
-54.5637813025
  0
LWPOLYLINE
  5
22C
100
AcDbEntity
  8
COPY_PABLISH
100
AcDbPolyline
 62
7
  6
CONTINUOUS
 90
13
 70
0
 10
7.0750911985
 20
-54.2088689913
 10
7.1037593364
 20
-54.2044373799
 10
7.1330407683
 20
-54.201602828
 10
7.1629228776
 20
-54.2003719669
 10
7.1934836418
 20
-54.2010602997
 10
7.2246201662
 20
-54.203364477
 10
7.2560428441
 20
-54.2063720671
 10
7.2878545365
 20
-54.2101279347
 10
7.3199136456
 20
-54.2146256908
 10
7.3515485107
 20
-54.2188693822
 10
7.3825116552
 20
-54.2225195682
 10
7.4129899317
 20
-54.2259108318
 10
7.4429547329
 20
-54.2290408427
  0
LINE
  5
22D
100
AcDbEntity
  8
COPY_PABLISH
100
AcDbLine
 62
7
  6
CONTINUOUS
 10
7.1483637695
 20
-54.5815774759
 11
7.2232517352
 21
-54.570105923
  0
LWPOLYLINE
  5
22E
100
AcDbEntity
  8
COPY_PABLISH
100
AcDbPolyline
 62
7
  6
CONTINUOUS
 90
8
 70
0
 10
7.2821647724
 20
-54.5605644686
 10
7.3689081216
 20
-54.5514911855
 10
7.4502487065
 20
-54.5450988788
 10
7.5292437341
 20
-54.5411027819
 10
7.6058422211
 20
-54.5395812911
 10
7.6799715876
 20
-54.5406178536
 10
7.7505933857
 20
-54.5442350747
 10
7.8162365096
 20
-54.5502536962
  0
LWPOLYLINE
  5
22F
100
AcDbEntity
  8
COPY_PABLISH
100
AcDbPolyline
 62
250
  6
CONTINUOUS
 90
10
 70
0
 10
16.243921981
 20
-53.5055183082
 10
16.4675909612
 20
-53.4867501238
 10
16.6886574837
 20
-53.4507768584
 10
16.9045905951
 20
-53.3983828642
 10
17.1129043699
 20
-53.3303466443
 10
17.3106436989
 20
-53.2476022422
 10
17.4944902969
 20
-53.1513490564
 10
17.661431162
 20
-53.0427713275
 10
17.8086489903
 20
-52.9229300942
 10
17.9330850746
 20
-52.7930000741
  0
LWPOLYLINE
  5
230
100
AcDbEntity
  8
COPY_PABLISH
100
AcDbPolyline
 62
7
  6
CONTINUOUS
 90
33
 70
0
 10
1.4044577007
 20
-55.730585847
 10
1.5963552619
 20
-55.7309130971
 10
1.7986793973
 20
-55.7296056764
 10
2.0138472638
 20
-55.7261806987
 10
2.2494713861
 20
-55.7198718159
 10
2.5165773324
 20
-55.7092847939
 10
2.8035578053
 20
-55.6935735139
 10
3.0842515053
 20
-55.6735205683
 10
3.3542059911
 20
-55.6494812275
 10
3.6176547786
 20
-55.6211166571
 10
3.861896855
 20
-55.5900586301
 10
4.080883835
 20
-55.5579361029
 10
4.2810257389
 20
-55.5247229971
 10
4.4684183334
 20
-55.4900138185
 10
4.6440542342
 20
-55.4540663425
 10
4.8071958011
 20
-55.4175003522
 10
4.9611969697
 20
-55.3800010257
 10
5.1065986735
 20
-55.3417921182
 10
5.2431264455
 20
-55.3033077436
 10
5.3728295115
 20
-55.264292642
 10
5.4960362273
 20
-55.2249143344
 10
5.6126460695
 20
-55.1854782176
 10
5.7240011349
 20
-55.1457766295
 10
5.8303099687
 20
-55.1059444803
 10
5.9315434727
 20
-55.0662020564
 10
6.0286400252
 20
-55.0263702102
 10
6.1216861874
 20
-54.986596538
 10
6.2106948737
 20
-54.9470804421
 10
6.2964621586
 20
-54.9076478939
 10
6.379045195
 20
-54.8684184904
 10
6.4584231863
 20
-54.8295093924
 10
6.535325687
 20
-54.7906822804
 10
6.610338873
 20
-54.7516751833
  0
LWPOLYLINE
  5
231
100
AcDbEntity
  8
COPY_PABLISH
100
AcDbPolyline
 62
250
  6
CONTINUOUS
 90
10
 70
0
 10
1.2214663342
 20
-55.2519177541
 10
1.9252882373
 20
-55.2881055141
 10
2.615068968
 20
-55.3049628762
 10
3.2871650467
 20
-55.2929277464
 10
3.9381050549
 20
-55.244228209
 10
4.5656602479
 20
-55.1524814204
 10
5.1687858278
 20
-55.0123735745
 10
5.7460270724
 20
-54.8196892694
 10
6.2955433466
 20
-54.5715330644
 10
6.8162145057
 20
-54.2659759992
  0
LWPOLYLINE
  5
232
100
AcDbEntity
  8
COPY_PABLISH
100
AcDbPolyline
 62
250
  6
CONTINUOUS
 90
10
 70
0
 10
7.4429547329
 20
-54.2290408427
 10
7.4765224501
 20
-54.2310705734
 10
7.5096852339
 20
-54.2335461996
 10
7.5424071135
 20
-54.2364641838
 10
7.5741710308
 20
-54.2397887975
 10
7.6054302671
 20
-54.2435169698
 10
7.6375767523
 20
-54.2478281905
 10
7.6710098007
 20
-54.2529356821
 10
7.7051667873
 20
-54.258936622
 10
7.739951724
 20
-54.2659809391
  0
LINE
  5
233
100
AcDbEntity
  8
COPY_PABLISH
100
AcDbLine
 62
7
  6
CONTINUOUS
 10
7.8162365096
 20
-54.5502536962
 11
7.8611171484
 21
-54.5560590173
  0
LWPOLYLINE
  5
234
100
AcDbEntity
  8
COPY_PABLISH
100
AcDbPolyline
 62
250
  6
CONTINUOUS
 90
10
 70
0
 10
12.1877452951
 20
-55.4930651601
 10
12.3503030277
 20
-55.5255143896
 10
12.5120306255
 20
-55.5567802524
 10
12.6727831209
 20
-55.5867286587
 10
12.8324997898
 20
-55.615585249
 10
12.9909936441
 20
-55.6428461465
 10
13.1478807664
 20
-55.6672391763
 10
13.302878562
 20
-55.688193631
 10
13.4558753709
 20
-55.7058788756
 10
13.6066828685
 20
-55.7200868449
  0
LWPOLYLINE
  5
235
100
AcDbEntity
  8
COPY_PABLISH
100
AcDbPolyline
 62
7
  6
CONTINUOUS
 90
33
 70
0
 10
13.1506467368
 20
-56.0178950672
 10
13.1842408854
 20
-56.0246627009
 10
13.2180719002
 20
-56.0313174725
 10
13.2521358309
 20
-56.0378517402
 10
13.2864315137
 20
-56.044258239
 10
13.3209675966
 20
-56.0505312636
 10
13.3557365278
 20
-56.0566618822
 10
13.390740401
 20
-56.0626427083
 10
13.426003568
 20
-56.0684694837
 10
13.461535184
 20
-56.0741343048
 10
13.4973275102
 20
-56.0796262089
 10
13.5333821548
 20
-56.0849355419
 10
13.5697024038
 20
-56.0900526198
 10
13.6062876012
 20
-56.0949669388
 10
13.6431340505
 20
-56.0996674232
 10
13.680243911
 20
-56.1041435833
 10
13.7176186414
 20
-56.1083846
 10
13.7552541673
 20
-56.1123788633
 10
13.7931549586
 20
-56.1161155289
 10
13.8313213674
 20
-56.119583109
 10
13.8697431042
 20
-56.1227691564
 10
13.9084126638
 20
-56.1256619057
 10
13.9473142393
 20
-56.1282489376
 10
13.9864185755
 20
-56.1305167818
 10
14.0257329073
 20
-56.1324536834
 10
14.0652138039
 20
-56.1340448026
 10
14.1047550901
 20
-56.1352745268
 10
14.1443555409
 20
-56.1361376282
 10
14.1840498505
 20
-56.1366339364
 10
14.2238013915
 20
-56.1367636364
 10
14.2636324539
 20
-56.1365291938
 10
14.3035828957
 20
-56.1359335288
 10
14.3136807704
 20
-56.1357266586
  0
LINE
  5
236
100
AcDbEntity
  8
COPY_PABLISH
100
AcDbLine
 62
7
  6
CONTINUOUS
 10
13.0841579353
 20
-56.0040453845
 11
13.1506467368
 21
-56.0178950672
  0
LINE
  5
237
100
AcDbEntity
  8
COPY_PABLISH
100
AcDbLine
 62
7
  6
CONTINUOUS
 10
13.018612418
 20
-55.9898207478
 11
13.0841579353
 21
-56.0040453845
  0
LINE
  5
238
100
AcDbEntity
  8
COPY_PABLISH
100
AcDbLine
 62
7
  6
CONTINUOUS
 10
12.9539733656
 20
-55.9752606666
 11
13.018612418
 21
-55.9898207478
  0
LINE
  5
239
100
AcDbEntity
  8
COPY_PABLISH
100
AcDbLine
 62
7
  6
CONTINUOUS
 10
12.8904392142
 20
-55.9604573136
 11
12.9539733656
 21
-55.9752606666
  0
LWPOLYLINE
  5
23A
100
AcDbEntity
  8
COPY_PABLISH
100
AcDbPolyline
 62
250
  6
CONTINUOUS
 90
10
 70
0
 10
-4.039066373
 20
-54.433401248
 10
-3.4490181703
 20
-54.6024840721
 10
-2.8605947499
 20
-54.7453928963
 10
-2.2736189683
 20
-54.8651660872
 10
-1.6877582212
 20
-54.9647406385
 10
-1.1030257891
 20
-55.0468673893
 10
-0.5197965427
 20
-55.1141411924
 10
0.061866367
 20
-55.1690865977
 10
0.6422532487
 20
-55.2142283432
 10
1.2214663342
 20
-55.2519177541
  0
LWPOLYLINE
  5
23B
100
AcDbEntity
  8
COPY_PABLISH
100
AcDbPolyline
 62
7
  6
CONTINUOUS
 90
37
 70
0
 10
-3.1084430635
 20
-55.1621165139
 10
-3.0146593259
 20
-55.189384142
 10
-2.9191921882
 20
-55.2164459184
 10
-2.8220236061
 20
-55.2431316174
 10
-2.7232883439
 20
-55.2692175186
 10
-2.6228276829
 20
-55.2945479725
 10
-2.5205364828
 20
-55.319008742
 10
-2.4166749799
 20
-55.3425372439
 10
-2.3113566909
 20
-55.3651372805
 10
-2.2044934346
 20
-55.3868638018
 10
-2.0960646916
 20
-55.4077604918
 10
-1.9861240329
 20
-55.4278619092
 10
-1.8747013596
 20
-55.4472167884
 10
-1.7617558477
 20
-55.4658971443
 10
-1.6473497265
 20
-55.4839628087
 10
-1.5315341437
 20
-55.5014810685
 10
-1.4142675848
 20
-55.5185374225
 10
-1.2956098379
 20
-55.5351990068
 10
-1.1755840528
 20
-55.5514674376
 10
-1.0540952787
 20
-55.5673155249
 10
-0.9311175184
 20
-55.5827033368
 10
-0.8066503068
 20
-55.5975854806
 10
-0.680640817
 20
-55.6119203812
 10
-0.5530371423
 20
-55.6256630515
 10
-0.4238633889
 20
-55.6387575855
 10
-0.2931828473
 20
-55.6511429157
 10
-0.1609948337
 20
-55.6627629399
 10
-0.0272733966
 20
-55.67356201
 10
0.1079509326
 20
-55.6834995348
 10
0.2446790048
 20
-55.6925638882
 10
0.3829225727
 20
-55.7007462935
 10
0.5226629352
 20
-55.7080369341
 10
0.6639056251
 20
-55.7144240957
 10
0.806640898
 20
-55.7198418655
 10
0.9508179228
 20
-55.7241830904
 10
1.0963973449
 20
-55.7273358783
 10
1.4044577007
 20
-55.730585847
  0
LINE
  5
23C
100
AcDbEntity
  8
COPY_PABLISH
100
AcDbLine
 62
7
  6
CONTINUOUS
 10
-3.2915884321
 20
-55.1073997933
 11
-3.1084430635
 21
-55.1621165139
  0
LINE
  5
23D
100
AcDbEntity
  8
COPY_PABLISH
100
AcDbLine
 62
7
  6
CONTINUOUS
 10
-7.322241349
 20
-53.4203350155
 11
-10.6059780036
 21
-52.416864906
  0
LINE
  5
23E
100
AcDbEntity
  8
COPY_PABLISH
100
AcDbLine
 62
7
  6
CONTINUOUS
 10
-3.4697607503
 20
-55.052931342
 11
-3.2915884321
 21
-55.1073997933
  0
LINE
  5
23F
100
AcDbEntity
  8
COPY_PABLISH
100
AcDbLine
 62
7
  6
CONTINUOUS
 10
-26.1483396348
 20
-48.1145433403
 11
-3.8808059316
 21
-54.9526872166
  0
LINE
  5
240
100
AcDbEntity
  8
COPY_PABLISH
100
AcDbLine
 62
7
  6
CONTINUOUS
 10
-10.6059780036
 20
-52.416864906
 11
-26.3057742313
 21
-47.5954553712
  0
LINE
  5
241
100
AcDbEntity
  8
COPY_PABLISH
100
AcDbLine
 62
7
  6
CONTINUOUS
 10
-4.0390780183
 20
-54.4333777539
 11
-7.322241349
 21
-53.4203350155
  0
LINE
  5
242
100
AcDbEntity
  8
COPY_PABLISH
100
AcDbLine
 62
7
  6
CONTINUOUS
 10
-3.8653391323
 20
-54.9298954491
 11
-3.4697607503
 21
-55.052931342
  0
LINE
  5
243
100
AcDbEntity
  8
COPY_PABLISH
100
AcDbLine
 62
7
  6
CONTINUOUS
 10
-3.8735069704
 20
-54.9272285839
 11
-3.8653391323
 21
-54.9298954491
  0
LWPOLYLINE
  5
244
100
AcDbEntity
  8
COPY_PABLISH
100
AcDbPolyline
 62
250
  6
CONTINUOUS
 90
3
 70
0
 10
-37.9825952788
 20
-40.045646941
 10
-37.8227022642
 20
-40.1122467979
 10
-37.6614988325
 20
-40.1785923437
  0
LWPOLYLINE
  5
245
100
AcDbEntity
  8
COPY_PABLISH
100
AcDbPolyline
 62
250
  6
CONTINUOUS
 90
7
 70
0
 10
-39.0593026296
 20
-39.5513620897
 10
-38.910264651
 20
-39.6285763427
 10
-38.759381892
 20
-39.7032804617
 10
-38.6068360145
 20
-39.7755682193
 10
-38.4529677458
 20
-39.8449418588
 10
-38.2978228516
 20
-39.9120602899
 10
-37.9825952788
 20
-40.045646941
  0
LWPOLYLINE
  5
246
100
AcDbEntity
  8
COPY_PABLISH
100
AcDbPolyline
 62
7
  6
CONTINUOUS
 90
27
 70
0
 10
-39.0882957576
 20
-39.7685808124
 10
-39.0427539376
 20
-39.7966387201
 10
-38.9809380175
 20
-39.8338954615
 10
-38.9189506409
 20
-39.8703067308
 10
-38.856878023
 20
-39.9058275001
 10
-38.7947169187
 20
-39.9404792507
 10
-38.7325195649
 20
-39.974262434
 10
-38.6705014002
 20
-40.0070925662
 10
-38.6087201587
 20
-40.03897702
 10
-38.5472009213
 20
-40.0699471867
 10
-38.4861162832
 20
-40.0999626737
 10
-38.4255047114
 20
-40.129052102
 10
-38.3653753483
 20
-40.1572566371
 10
-38.3058617828
 20
-40.1845587627
 10
-38.2470148361
 20
-40.210980425
 10
-38.188833465
 20
-40.2365642056
 10
-38.1313823042
 20
-40.2613192744
 10
-38.0746842319
 20
-40.2852715619
 10
-38.0187832574
 20
-40.3084366958
 10
-37.9637755606
 20
-40.3308084421
 10
-37.9096667819
 20
-40.3524171271
 10
-37.8565072674
 20
-40.3732738213
 10
-37.8044607099
 20
-40.3933459193
 10
-37.7535757356
 20
-40.4126534488
 10
-37.7037810668
 20
-40.4312687672
 10
-37.6550499587
 20
-40.4492443067
 10
-37.5608256963
 20
-40.483392563
  0
LWPOLYLINE
  5
247
100
AcDbEntity
  8
COPY_PABLISH
100
AcDbPolyline
 62
250
  6
CONTINUOUS
 90
9
 70
0
 10
-30.2505925493
 20
-45.7489464231
 10
-29.847726468
 20
-46.0048474564
 10
-29.418177274
 20
-46.2577270197
 10
-28.9621235514
 20
-46.5056985971
 10
-28.4800474531
 20
-46.7467015333
 10
-27.972788461
 20
-46.9784442651
 10
-27.4410089034
 20
-47.1986769035
 10
-26.8851374316
 20
-47.4051731904
 10
-26.3057894461
 20
-47.5955396107
  0
LINE
  5
248
100
AcDbEntity
  8
COPY_PABLISH
100
AcDbLine
 62
250
  6
CONTINUOUS
 10
-30.6265142715
 20
-45.4918587042
 11
-30.2505925493
 21
-45.7489464231
  0
LWPOLYLINE
  5
249
100
AcDbEntity
  8
COPY_PABLISH
100
AcDbPolyline
 62
7
  6
CONTINUOUS
 90
13
 70
0
 10
-33.0587341026
 20
-41.7904589118
 10
-33.0412346778
 20
-41.8028935915
 10
-33.0245769404
 20
-41.8144532851
 10
-33.0087655666
 20
-41.8251160873
 10
-32.9940639999
 20
-41.8342979207
 10
-32.98019884
 20
-41.8425254411
 10
-32.9664386638
 20
-41.8514935245
 10
-32.9526900667
 20
-41.8614145789
 10
-32.939218377
 20
-41.8721376165
 10
-32.925911692
 20
-41.8848721929
 10
-32.9127987858
 20
-41.9000473397
 10
-32.9000447496
 20
-41.9173000382
 10
-32.8877540395
 20
-41.9366598103
  0
LWPOLYLINE
  5
24A
100
AcDbEntity
  8
COPY_PABLISH
100
AcDbPolyline
 62
7
  6
CONTINUOUS
 90
10
 70
0
 10
-30.4206163938
 20
-45.9795743044
 10
-30.1741211128
 20
-46.167169877
 10
-29.7656033964
 20
-46.4525778889
 10
-29.3279447151
 20
-46.7285300594
 10
-28.850422034
 20
-46.9974904222
 10
-28.335826864
 20
-47.2566198757
 10
-27.8001347961
 20
-47.4981203147
 10
-27.2392114686
 20
-47.7211392895
 10
-26.6317191036
 20
-47.9345351481
 10
-26.1336201834
 20
-48.0938755687
  0
LINE
  5
24B
100
AcDbEntity
  8
COPY_PABLISH
100
AcDbLine
 62
250
  6
CONTINUOUS
 10
-30.4259002823
 20
-45.9753718057
 11
-30.4206163938
 21
-45.9795743044
  0
LWPOLYLINE
  5
24C
100
AcDbEntity
  8
COPY_PABLISH
100
AcDbPolyline
 62
7
  6
CONTINUOUS
 90
6
 70
0
 10
-32.8486035964
 20
-42.1000357198
 10
-32.8437765691
 20
-42.104878737
 10
-32.8389289174
 20
-42.1096952448
 10
-32.8340617732
 20
-42.1144847703
 10
-32.8291747185
 20
-42.119248401
 10
-32.8276686271
 20
-42.1207027649
  0
LINE
  5
24D
100
AcDbEntity
  8
COPY_PABLISH
100
AcDbLine
 62
7
  6
CONTINUOUS
 10
-32.8541388346
 20
-42.0944228245
 11
-32.8486035964
 21
-42.1000357198
  0
LWPOLYLINE
  5
24E
100
AcDbEntity
  8
COPY_PABLISH
100
AcDbPolyline
 62
250
  6
CONTINUOUS
 90
6
 70
0
 10
-41.917958705
 20
-35.6445713267
 10
-42.0263000836
 20
-35.5252751733
 10
-42.1115046596
 20
-35.3949646369
 10
-42.172930106
 20
-35.25548804
 10
-42.2099404872
 20
-35.1089428168
 10
-42.2185962121
 20
-35.0399082548
  0
LINE
  5
24F
100
AcDbEntity
  8
COPY_PABLISH
100
AcDbLine
 62
7
  6
CONTINUOUS
 10
-32.9650216331
 20
-41.9605922654
 11
-32.8541388346
 21
-42.0944228245
  0
LINE
  5
250
100
AcDbEntity
  8
0
100
AcDbLine
 62
7
  6
CONTINUOUS
 10
-34.2239436089
 20
33.9195126996
 11
-34.2628589772
 21
33.8657024853
  0
LWPOLYLINE
  5
251
100
AcDbEntity
  8
0
100
AcDbPolyline
 62
7
  6
CONTINUOUS
 90
11
 70
0
 10
-42.7815349995
 20
22.6533684923
 10
-42.8876090017
 20
22.5069091875
 10
-43.03487911
 20
22.2761891385
 10
-43.1679162305
 20
22.0309369875
 10
-43.2841108269
 20
21.7746670387
 10
-43.3833698816
 20
21.5069661829
 10
-43.4651947692
 20
21.228205412
 10
-43.5284759241
 20
20.9429256884
 10
-43.5737945041
 20
20.6518213818
 10
-43.6020880831
 20
20.3526406703
 10
-43.6095405232
 20
20.2110905674
  0
LINE
  5
252
100
AcDbEntity
  8
0
100
AcDbLine
 62
7
  6
CONTINUOUS
 10
-34.2652064534
 20
33.866506886
 11
-42.7830713511
 21
22.6513467288
  0
LWPOLYLINE
  5
253
100
AcDbEntity
  8
0
100
AcDbPolyline
 62
250
  6
CONTINUOUS
 90
20
 70
0
 10
-42.7815557551
 20
22.6533403876
 10
-42.7536196634
 20
22.6894429572
 10
-42.6405512556
 20
22.824267351
 10
-42.5146114582
 20
22.9564894361
 10
-42.3735940223
 20
23.0864597102
 10
-42.2161738995
 20
23.2131686146
 10
-42.0419330009
 20
23.3347084724
 10
-41.849730892
 20
23.4495838219
 10
-41.6378750043
 20
23.5565290956
 10
-41.4066251084
 20
23.6530284253
 10
-41.1581592295
 20
23.7358673597
 10
-40.8921600951
 20
23.8035581275
 10
-40.6090687634
 20
23.8543182056
 10
-40.3130758502
 20
23.8854659198
 10
-40.0045297088
 20
23.8959633972
 10
-39.684824818
 20
23.8848966838
 10
-39.360583692
 20
23.8514012444
 10
-39.0351170253
 20
23.7957606217
 10
-38.7080600249
 20
23.7183662666
 10
-38.3808659534
 20
23.619582134
  0
LINE
  5
254
100
AcDbEntity
  8
0
100
AcDbLine
 62
7
  6
CONTINUOUS
 10
-34.2647684626
 20
33.8670834188
 11
-34.2199779267
 21
33.9240236906
  0
LINE
  5
255
100
AcDbEntity
  8
ASSI
100
AcDbLine
 62
7
  6
CONTINUOUS
 10
-33.4969252362
 20
34.8305682514
 11
-34.2237122092
 21
33.9198027148
  0
LINE
  5
256
100
AcDbEntity
  8
DRAFT
100
AcDbLine
 62
7
  6
CONTINUOUS
 10
-33.493072787
 20
34.8353646027
 11
-33.4542884752
 21
34.882707657
  0
LINE
  5
257
100
AcDbEntity
  8
DRAFT
100
AcDbLine
 62
7
  6
CONTINUOUS
 10
-16.6525691016
 20
54.9325531854
 11
-33.4541655969
 21
34.8828543004
  0
LINE
  5
258
100
AcDbEntity
  8
DRAFT
100
AcDbLine
 62
7
  6
CONTINUOUS
 10
-33.4542884752
 20
34.882707657
 11
-33.3655865987
 21
34.98359307
  0
LINE
  5
259
100
AcDbEntity
  8
0
100
AcDbLine
 62
7
  6
CONTINUOUS
 10
-34.0416010205
 20
34.1264572761
 11
-34.2239436089
 21
33.9195126996
  0
LINE
  5
25A
100
AcDbEntity
  8
RACCORDO
100
AcDbLine
 62
250
  6
CONTINUOUS
 10
-16.6525690535
 20
54.9325532427
 11
-16.5589590962
 21
55.0381278636
  0
LINE
  5
25B
100
AcDbEntity
  8
ASSI
100
AcDbLine
 62
7
  6
CONTINUOUS
 10
-33.2871394641
 20
35.0649145247
 11
-33.4965563421
 21
34.8310304276
  0
LINE
  5
25C
100
AcDbEntity
  8
0
100
AcDbLine
 62
7
  6
CONTINUOUS
 10
-34.2199779267
 20
33.9240236906
 11
-34.0139264371
 21
34.1541489881
  0
LWPOLYLINE
  5
25D
100
AcDbEntity
  8
DRAFT
100
AcDbPolyline
 62
7
  6
CONTINUOUS
 90
20
 70
0
 10
-33.3655865987
 20
34.98359307
 10
-33.2275315802
 20
35.1231456069
 10
-33.0790839531
 20
35.2539723335
 10
-32.9214320606
 20
35.3750283227
 10
-32.7546485903
 20
35.4861515292
 10
-32.5786608546
 20
35.5875039983
 10
-32.3944391347
 20
35.678526939
 10
-32.2017716862
 20
35.7592221118
 10
-32.0008702534
 20
35.8295877562
 10
-31.7933403506
 20
35.8890597987
 10
-31.579298488
 20
35.9375195329
 10
-31.3586281555
 20
35.9750856652
 10
-31.132585336
 20
36.0015502412
 10
-30.9009857072
 20
36.0168565121
 10
-30.6640135915
 20
36.0210612267
 10
-30.4234779393
 20
36.0141266761
 10
-30.1794702007
 20
35.9959767991
 10
-29.9318989258
 20
35.9666876569
 10
-29.6822987142
 20
35.9264497239
 10
-29.4311810992
 20
35.8753264913
  0
LWPOLYLINE
  5
25E
100
AcDbEntity
  8
RACCORDO
100
AcDbPolyline
 62
250
  6
CONTINUOUS
 90
16
 70
0
 10
-16.5589590962
 20
55.0381278636
 10
-16.3733395323
 20
55.2170255735
 10
-16.1670923087
 20
55.379289492
 10
-15.942765036
 20
55.5225228235
 10
-15.7014772332
 20
55.646038976
 10
-15.4444383855
 20
55.7492450357
 10
-15.1753202231
 20
55.8310335824
 10
-14.895749786
 20
55.8915711488
 10
-14.6074257417
 20
55.9311149659
 10
-14.3147937336
 20
55.9499574314
 10
-14.0196800566
 20
55.9491302199
 10
-13.7237716979
 20
55.9297353218
 10
-13.4315888071
 20
55.8933791082
 10
-13.1456594362
 20
55.841962758
 10
-12.866339195
 20
55.7770684195
 10
-12.5947628962
 20
55.7003404078
  0
LWPOLYLINE
  5
25F
100
AcDbEntity
  8
0
100
AcDbPolyline
 62
7
  6
CONTINUOUS
 90
3
 70
0
 10
-34.0139264371
 20
34.1541489881
 10
-33.7841942123
 20
34.3609650541
 10
-33.5303854352
 20
34.544082281
  0
LWPOLYLINE
  5
260
100
AcDbEntity
  8
COPY_PABLISH
100
AcDbPolyline
 62
250
  6
CONTINUOUS
 90
10
 70
0
 10
16.3688122631
 20
-47.064045499
 10
16.5329978403
 20
-47.027523592
 10
16.6971185901
 20
-46.980197236
 10
16.8592550814
 20
-46.9225044428
 10
17.0173366253
 20
-46.8549514869
 10
17.1690961239
 20
-46.7781321524
 10
17.3120717107
 20
-46.6927370703
 10
17.4436523083
 20
-46.5995308992
 10
17.5610638002
 20
-46.4993490826
 10
17.6613291658
 20
-46.3931215629
  0
LWPOLYLINE
  5
261
100
AcDbEntity
  8
COPY_PABLISH
100
AcDbPolyline
 62
7
  6
CONTINUOUS
 90
4
 70
0
 10
-32.9814980739
 20
-42.1436641663
 10
-32.9207360577
 20
-42.1582040651
 10
-32.8499937254
 20
-42.1788523284
 10
-32.8177986737
 20
-42.1901809077
  0
LINE
  5
262
100
AcDbEntity
  8
COPY_PABLISH
100
AcDbLine
 62
7
  6
CONTINUOUS
 10
12.8281233904
 20
-55.945499242
 11
12.8904392142
 21
-55.9604573136
  0
LINE
  5
263
100
AcDbEntity
  8
COPY_PABLISH
100
AcDbLine
 62
7
  6
CONTINUOUS
 10
12.7674459091
 20
-55.9305619622
 11
12.8281233904
 21
-55.945499242
  0
LINE
  5
264
100
AcDbEntity
  8
COPY_PABLISH
100
AcDbLine
 62
7
  6
CONTINUOUS
 10
12.7076233309
 20
-55.9155198058
 11
12.7674459091
 21
-55.9305619622
  0
LINE
  5
265
100
AcDbEntity
  8
COPY_PABLISH
100
AcDbLine
 62
7
  6
CONTINUOUS
 10
12.6484392849
 20
-55.9003509319
 11
12.7076233309
 21
-55.9155198058
  0
LINE
  5
266
100
AcDbEntity
  8
COPY_PABLISH
100
AcDbLine
 62
250
  6
CONTINUOUS
 10
8.1547730678
 20
-54.3798970562
 11
8.3717068954
 21
-54.4361762109
  0
LINE
  5
267
100
AcDbEntity
  8
COPY_PABLISH
100
AcDbLine
 62
7
  6
CONTINUOUS
 10
8.350805196
 20
-54.7088161595
 11
8.5893115377
 21
-54.7710428024
  0
LINE
  5
268
100
AcDbEntity
  8
COPY_PABLISH
100
AcDbLine
 62
7
  6
CONTINUOUS
 10
12.5898114464
 20
-55.8849388791
 11
12.6484392849
 21
-55.9003509319
  0
LINE
  5
269
100
AcDbEntity
  8
COPY_PABLISH
100
AcDbLine
 62
7
  6
CONTINUOUS
 10
11.7429531667
 20
-55.6615762158
 11
12.4712900954
 21
-55.8529354345
  0
LINE
  5
26A
100
AcDbEntity
  8
COPY_PABLISH
100
AcDbLine
 62
7
  6
CONTINUOUS
 10
8.5893115377
 20
-54.7710428024
 11
8.6695937759
 21
-54.792447796
  0
LWPOLYLINE
  5
26B
100
AcDbEntity
  8
COPY_PABLISH
100
AcDbPolyline
 62
7
  6
CONTINUOUS
 90
3
 70
0
 10
12.4712900954
 20
-55.8529354345
 10
12.5073350219
 20
-55.862613144
 10
12.5898114464
 20
-55.8849388791
  0
LWPOLYLINE
  5
26C
100
AcDbEntity
  8
COPY_PABLISH
100
AcDbPolyline
 62
250
  6
CONTINUOUS
 90
3
 70
0
 10
8.3717068954
 20
-54.4361762109
 10
8.5894001286
 20
-54.4945321449
 10
8.6987757634
 20
-54.5243277638
  0
LINE
  5
26D
100
AcDbEntity
  8
COPY_PABLISH
100
AcDbLine
 62
7
  6
CONTINUOUS
 10
11.3779929208
 20
-55.5637417616
 11
11.7429531667
 21
-55.6615762158
  0
LINE
  5
26E
100
AcDbEntity
  8
COPY_PABLISH
100
AcDbLine
 62
250
  6
CONTINUOUS
 10
10.4271796362
 20
-55.0375169539
 11
11.0291925827
 21
-55.2007673199
  0
LINE
  5
26F
100
AcDbEntity
  8
COPY_PABLISH
100
AcDbLine
 62
7
  6
CONTINUOUS
 10
11.0581544443
 20
-55.4764671685
 11
11.3779929208
 21
-55.5637417616
  0
LWPOLYLINE
  5
270
100
AcDbEntity
  8
COPY_PABLISH
100
AcDbPolyline
 62
250
  6
CONTINUOUS
 90
6
 70
0
 10
11.0291925827
 20
-55.2007673199
 10
11.4237053579
 20
-55.3099826647
 10
11.6183002731
 20
-55.3613738382
 10
11.8105943194
 20
-55.408698875
 10
12.0004833936
 20
-55.452652347
 10
12.1877452951
 20
-55.4930651601
  0
LWPOLYLINE
  5
271
100
AcDbEntity
  8
COPY_PABLISH
100
AcDbPolyline
 62
7
  6
CONTINUOUS
 90
4
 70
0
 10
8.6695937759
 20
-54.792447796
 10
8.83384646
 20
-54.8377714106
 10
8.9150314474
 20
-54.8605766253
 10
8.9585599143
 20
-54.8731117114
  0
LWPOLYLINE
  5
272
100
AcDbEntity
  8
COPY_PABLISH
100
AcDbPolyline
 62
250
  6
CONTINUOUS
 90
5
 70
0
 10
7.7393255739
 20
-54.2670150317
 10
7.8404847995
 20
-54.295320008
 10
7.9434228773
 20
-54.3236167412
 10
8.0480783774
 20
-54.3518788126
 10
8.1547730678
 20
-54.3798970562
  0
LINE
  5
273
100
AcDbEntity
  8
COPY_PABLISH
100
AcDbLine
 62
7
  6
CONTINUOUS
 10
10.7342890655
 20
-55.3863424067
 11
11.0581544443
 21
-55.4764671685
  0
LINE
  5
274
100
AcDbEntity
  8
COPY_PABLISH
100
AcDbLine
 62
7
  6
CONTINUOUS
 10
10.5894129036
 20
-55.34519978
 11
10.7342890655
 21
-55.3863424067
  0
LINE
  5
275
100
AcDbEntity
  8
COPY_PABLISH
100
AcDbLine
 62
7
  6
CONTINUOUS
 10
9.4680163694
 20
-55.0218106331
 11
10.5894129036
 21
-55.34519978
  0
LINE
  5
276
100
AcDbEntity
  8
COPY_PABLISH
100
AcDbLine
 62
250
  6
CONTINUOUS
 10
10.4271796362
 20
-55.0375169539
 11
10.0486568735
 21
-54.9275412367
  0
LINE
  5
277
100
AcDbEntity
  8
COPY_PABLISH
100
AcDbLine
 62
7
  6
CONTINUOUS
 10
8.9594906035
 20
-54.8733883651
 11
9.4680163694
 21
-55.0218106331
  0
LINE
  5
278
100
AcDbEntity
  8
COPY_PABLISH
100
AcDbLine
 62
7
  6
CONTINUOUS
 10
8.9585599143
 20
-54.8731117114
 11
8.9594906035
 21
-54.8733883651
  0
LWPOLYLINE
  5
279
100
AcDbEntity
  8
COPY_PABLISH
100
AcDbPolyline
 62
250
  6
CONTINUOUS
 90
4
 70
0
 10
10.0486568735
 20
-54.9275412367
 10
9.6664803358
 20
-54.8139628057
 10
9.4742754191
 20
-54.7559779013
 10
8.6987757634
 20
-54.5243277638
  0
LINE
  5
27A
100
AcDbEntity
  8
COPY_PABLISH
100
AcDbLine
 62
7
  6
CONTINUOUS
 10
-33.0473003534
 20
-42.1237090885
 11
-32.9814980739
 21
-42.1436641663
  0
LWPOLYLINE
  5
27B
100
AcDbEntity
  8
COPY_PABLISH
100
AcDbPolyline
 62
250
  6
CONTINUOUS
 90
3
 70
0
 10
-34.2719775508
 20
-41.3284260357
 10
-34.4625358824
 20
-41.2679213239
 10
-35.4006247207
 20
-40.9727641883
  0
LWPOLYLINE
  5
27C
100
AcDbEntity
  8
COPY_PABLISH
100
AcDbPolyline
 62
250
  6
CONTINUOUS
 90
3
 70
0
 10
-35.4006247207
 20
-40.9727641883
 10
-35.7697267785
 20
-40.854333406
 10
-35.9527865399
 20
-40.7946786428
  0
LINE
  5
27D
100
AcDbEntity
  8
COPY_PABLISH
100
AcDbLine
 62
7
  6
CONTINUOUS
 10
-35.1451069143
 20
-41.3128162219
 11
-34.0011252546
 21
-41.6827254477
  0
LWPOLYLINE
  5
27E
100
AcDbEntity
  8
COPY_PABLISH
100
AcDbPolyline
 62
7
  6
CONTINUOUS
 90
18
 70
0
 10
-34.0015425748
 20
-41.6825900402
 10
-33.9824118856
 20
-41.6888113337
 10
-33.9120098821
 20
-41.7129637033
 10
-33.8489690836
 20
-41.7363378085
 10
-33.7923657046
 20
-41.7588402548
 10
-33.7386255393
 20
-41.7816438578
 10
-33.6869316875
 20
-41.8049485409
 10
-33.6365862603
 20
-41.828826268
 10
-33.5844963663
 20
-41.854474247
 10
-33.5311006192
 20
-41.8814108024
 10
-33.4768399873
 20
-41.9092632733
 10
-33.4191158355
 20
-41.9395565713
 10
-33.3558900836
 20
-41.9735234029
 10
-33.2911861017
 20
-42.0086764775
 10
-33.2301259109
 20
-42.0413428532
 10
-33.1696047761
 20
-42.0716595532
 10
-33.1097902858
 20
-42.0984577589
 10
-33.0473003534
 20
-42.1237090885
  0
LINE
  5
27F
100
AcDbEntity
  8
COPY_PABLISH
100
AcDbLine
 62
7
  6
CONTINUOUS
 10
-35.6848572729
 20
-41.1358195161
 11
-35.1451069143
 21
-41.3128162219
  0
LINE
  5
280
100
AcDbEntity
  8
COPY_PABLISH
100
AcDbLine
 62
7
  6
CONTINUOUS
 10
-33.5184775261
 20
-41.5851306081
 11
-33.3142760446
 21
-41.6532372451
  0
LINE
  5
281
100
AcDbEntity
  8
COPY_PABLISH
100
AcDbLine
 62
7
  6
CONTINUOUS
 10
-35.915609914
 20
-41.0584502909
 11
-35.6827314222
 21
-41.1365086917
  0
LINE
  5
282
100
AcDbEntity
  8
COPY_PABLISH
100
AcDbLine
 62
7
  6
CONTINUOUS
 10
-34.2719775508
 20
-41.3284260357
 11
-33.9478899801
 21
-41.4380677142
  0
LINE
  5
283
100
AcDbEntity
  8
COPY_PABLISH
100
AcDbLine
 62
7
  6
CONTINUOUS
 10
-36.1943826119
 20
-40.9634600577
 11
-35.915609914
 21
-41.0584502909
  0
LWPOLYLINE
  5
284
100
AcDbEntity
  8
COPY_PABLISH
100
AcDbPolyline
 62
7
  6
CONTINUOUS
 90
3
 70
0
 10
-33.9478899801
 20
-41.4380677142
 10
-33.7303968609
 20
-41.5130116907
 10
-33.5184775261
 20
-41.5851306081
  0
LWPOLYLINE
  5
285
100
AcDbEntity
  8
COPY_PABLISH
100
AcDbPolyline
 62
7
  6
CONTINUOUS
 90
4
 70
0
 10
7.9348825245
 20
-54.5910793588
 10
8.0064320013
 20
-54.6158379484
 10
8.0885968145
 20
-54.6392464206
 10
8.350805196
 20
-54.7088161595
  0
LINE
  5
286
100
AcDbEntity
  8
COPY_PABLISH
100
AcDbLine
 62
250
  6
CONTINUOUS
 10
-36.915761991
 20
-40.4617632801
 11
-36.343383508
 21
-40.6591576109
  0
LINE
  5
287
100
AcDbEntity
  8
COPY_PABLISH
100
AcDbLine
 62
250
  6
CONTINUOUS
 10
-36.343383508
 20
-40.6591576109
 11
-35.9527865399
 21
-40.7946786428
  0
LINE
  5
288
100
AcDbEntity
  8
COPY_PABLISH
100
AcDbLine
 62
7
  6
CONTINUOUS
 10
-36.5538425965
 20
-40.8389161734
 11
-36.1943826119
 21
-40.9634600577
  0
LWPOLYLINE
  5
289
100
AcDbEntity
  8
COPY_PABLISH
100
AcDbPolyline
 62
7
  6
CONTINUOUS
 90
3
 70
0
 10
-37.5608256963
 20
-40.483392563
 10
-37.5153359804
 20
-40.4995261455
 10
-37.3989641126
 20
-40.5398050946
  0
LINE
  5
28A
100
AcDbEntity
  8
COPY_PABLISH
100
AcDbLine
 62
7
  6
CONTINUOUS
 10
-37.0612026513
 20
-40.6599988176
 11
-36.5538425965
 21
-40.8389161734
  0
LINE
  5
28B
100
AcDbEntity
  8
COPY_PABLISH
100
AcDbLine
 62
7
  6
CONTINUOUS
 10
-37.3967479233
 20
-40.5405674731
 11
-37.0612026513
 21
-40.6599988176
  0
LWPOLYLINE
  5
28C
100
AcDbEntity
  8
COPY_PABLISH
100
AcDbPolyline
 62
250
  6
CONTINUOUS
 90
5
 70
0
 10
-37.6614988325
 20
-40.1785923437
 10
-37.4770658106
 20
-40.252748018
 10
-37.2910856349
 20
-40.3247771291
 10
-37.1037856924
 20
-40.3947163677
 10
-36.915761991
 20
-40.4617632801
  0
LWPOLYLINE
  5
28D
100
AcDbEntity
  8
COPY_PABLISH
100
AcDbPolyline
 62
7
  6
CONTINUOUS
 90
10
 70
0
 10
-33.3147097582
 20
-41.6514751867
 10
-33.2758183657
 20
-41.6677370415
 10
-33.2402720017
 20
-41.684062201
 10
-33.2079129234
 20
-41.7001783396
 10
-33.1791584365
 20
-41.7155399705
 10
-33.1532419188
 20
-41.7301903939
 10
-33.1283867893
 20
-41.744932588
 10
-33.1040706574
 20
-41.7600762121
 10
-33.0808531528
 20
-41.7752648425
 10
-33.0587341026
 20
-41.7904589118
  0
LWPOLYLINE
  5
28E
100
AcDbEntity
  8
COPY_PABLISH
100
AcDbPolyline
 62
250
  6
CONTINUOUS
 90
13
 70
0
 10
-33.990847006
 20
-32.7182376964
 10
-34.0113224774
 20
-32.6949147763
 10
-34.0297290528
 20
-32.6666051276
 10
-34.0459643944
 20
-32.6334659889
 10
-34.059938255
 20
-32.5956813583
 10
-34.0715728893
 20
-32.5534612126
 10
-34.0808035373
 20
-32.5070404353
 10
-34.0875789074
 20
-32.4566769388
 10
-34.0918613237
 20
-32.4026507115
 10
-34.0936269755
 20
-32.3452627031
 10
-34.0928661433
 20
-32.2848322095
 10
-34.089583155
 20
-32.2216949628
 10
-34.0837963422
 20
-32.1562019323
  0
LWPOLYLINE
  5
28F
100
AcDbEntity
  8
COPY_PABLISH
100
AcDbPolyline
 62
250
  6
CONTINUOUS
 90
13
 70
0
 10
-37.5396667383
 20
-28.6276667324
 10
-37.5043987941
 20
-28.6685945243
 10
-37.4643370812
 20
-28.7076782562
 10
-37.4197035909
 20
-28.7447005134
 10
-37.3707450353
 20
-28.7794557728
 10
-37.3177335673
 20
-28.8117500299
 10
-37.2609658409
 20
-28.8414022444
 10
-37.2007584577
 20
-28.8682471617
 10
-37.1374450653
 20
-28.8921361334
 10
-37.0713768824
 20
-28.912936582
 10
-37.002920803
 20
-28.9305328626
 10
-36.9324574526
 20
-28.9448270052
 10
-36.8603784201
 20
-28.9557394634
  0
LWPOLYLINE
  5
290
100
AcDbEntity
  8
COPY_PABLISH
100
AcDbPolyline
 62
7
  6
CONTINUOUS
 90
4
 70
0
 10
-26.2624350128
 20
-47.9924076474
 10
-26.216663772
 20
-48.0685830845
 10
-26.1577126495
 20
-48.1112734436
 10
-26.141269134
 20
-48.0913621897
  0
LINE
  5
291
100
AcDbEntity
  8
COPY_PABLISH
100
AcDbLine
 62
7
  6
CONTINUOUS
 10
-33.0596330215
 20
-41.7912239455
 11
-32.9650216331
 21
-41.9605922654
  0
LINE
  5
292
100
AcDbEntity
  8
COPY_PABLISH
100
AcDbLine
 62
250
  6
CONTINUOUS
 10
-32.8877540395
 20
-41.9366598103
 11
-32.8794460807
 21
-41.9515651051
  0
LWPOLYLINE
  5
293
100
AcDbEntity
  8
COPY_PABLISH
100
AcDbPolyline
 62
250
  6
CONTINUOUS
 90
10
 70
0
 10
-32.8794460807
 20
-41.9515651051
 10
-32.8656471262
 20
-41.9766561902
 10
-32.8602093076
 20
-41.9861817614
 10
-32.85560591
 20
-41.9940467937
 10
-32.8514583598
 20
-42.0020289048
 10
-32.8477757618
 20
-42.0100990049
 10
-32.8445582063
 20
-42.0182736147
 10
-32.8415027354
 20
-42.0284433409
 10
-32.8385652572
 20
-42.0412581129
 10
-32.8369038541
 20
-42.0505427775
  0
LWPOLYLINE
  5
294
100
AcDbEntity
  8
COPY_PABLISH
100
AcDbPolyline
 62
250
  6
CONTINUOUS
 90
5
 70
0
 10
-42.4012411569
 20
-29.0195441601
 10
-42.4556494457
 20
-28.9130687607
 10
-42.4940721557
 20
-28.8029769238
 10
-42.5165124631
 20
-28.6901946167
 10
-42.522833961
 20
-28.6055220694
  0
LINE
  5
295
100
AcDbEntity
  8
COPY_PABLISH
100
AcDbLine
 62
7
  6
CONTINUOUS
 10
-32.8449374224
 20
-42.064296779
 11
-32.8310655627
 21
-42.0950214192
  0
LWPOLYLINE
  5
296
100
AcDbEntity
  8
COPY_PABLISH
100
AcDbPolyline
 62
250
  6
CONTINUOUS
 90
5
 70
0
 10
-35.9527785976
 20
-40.794665086
 10
-35.9010193944
 20
-40.9294899313
 10
-35.8325632693
 20
-41.0340221488
 10
-35.7483263284
 20
-41.1064933205
 10
-35.6848572729
 20
-41.1358195161
  0
LWPOLYLINE
  5
297
100
AcDbEntity
  8
COPY_PABLISH
100
AcDbPolyline
 62
250
  6
CONTINUOUS
 90
5
 70
0
 10
-37.6614738836
 20
-40.1785520064
 10
-37.6092844821
 20
-40.3237712948
 10
-37.541686368
 20
-40.43424897
 10
-37.4602951831
 20
-40.5094541981
 10
-37.3989641126
 20
-40.5398050946
  0
LWPOLYLINE
  5
298
100
AcDbEntity
  8
COPY_PABLISH
100
AcDbPolyline
 62
250
  6
CONTINUOUS
 90
10
 70
0
 10
-41.917958705
 20
-35.6445713267
 10
-41.7860974792
 20
-36.1343475123
 10
-41.6147904037
 20
-36.6213149368
 10
-41.3986154601
 20
-37.0995052934
 10
-41.1320367595
 20
-37.5629756345
 10
-40.8098560764
 20
-38.0056695405
 10
-40.4332893438
 20
-38.4248886074
 10
-40.0106975899
 20
-38.8212918235
 10
-39.5502826012
 20
-39.1961277299
 10
-39.0592970856
 20
-39.5513539821
  0
LINE
  5
299
100
AcDbEntity
  8
COPY_PABLISH
100
AcDbLine
 62
250
  6
CONTINUOUS
 10
-42.0340521351
 20
-34.9097098697
 11
-41.917962763
 21
-35.6445734409
  0
LWPOLYLINE
  5
29A
100
AcDbEntity
  8
COPY_PABLISH
100
AcDbPolyline
 62
7
  6
CONTINUOUS
 90
50
 70
0
 10
-42.2188358886
 20
-35.0370840355
 10
-42.216356904
 20
-35.0646200588
 10
-42.2111156119
 20
-35.1181561079
 10
-42.2053649738
 20
-35.1714780269
 10
-42.1990549982
 20
-35.2249908187
 10
-42.1919991899
 20
-35.2800492466
 10
-42.1841368389
 20
-35.3367138219
 10
-42.1754265972
 20
-35.3948819262
 10
-42.165637713
 20
-35.4556205644
 10
-42.1546792828
 20
-35.5189634264
 10
-42.1424709188
 20
-35.5848687352
 10
-42.1287241916
 20
-35.6543061426
 10
-42.1132309091
 20
-35.7276198001
 10
-42.0959217363
 20
-35.8044397017
 10
-42.0766740157
 20
-35.884655549
 10
-42.0553121756
 20
-35.9683464408
 10
-42.0317132418
 20
-36.0553472153
 10
-42.0058480763
 20
-36.1451735639
 10
-41.9776346501
 20
-36.2375821057
 10
-41.9468782376
 20
-36.3326866936
 10
-41.9133847419
 20
-36.4305370981
 10
-41.8772740999
 20
-36.5302853634
 10
-41.8381161702
 20
-36.6326167176
 10
-41.7947258278
 20
-36.7398484143
 10
-41.7472396689
 20
-36.8507369871
 10
-41.6948501317
 20
-36.9662360866
 10
-41.6343598265
 20
-37.0918105769
 10
-41.5637817659
 20
-37.2291761515
 10
-41.4831214895
 20
-37.3757911555
 10
-41.3916148683
 20
-37.5306415472
 10
-41.2863030122
 20
-37.6959277937
 10
-41.1674890313
 20
-37.8682782852
 10
-41.0403540753
 20
-38.0389180405
 10
-40.9037640003
 20
-38.2090625906
 10
-40.7585234164
 20
-38.3773906162
 10
-40.6154258919
 20
-38.5324521531
 10
-40.480668415
 20
-38.6700319503
 10
-40.3510019875
 20
-38.7955951773
 10
-40.2242048846
 20
-38.9125736239
 10
-40.1004661295
 20
-39.0217052808
 10
-39.9809294014
 20
-39.1228090118
 10
-39.864368355
 20
-39.2176095519
 10
-39.7510920311
 20
-39.3063945615
 10
-39.6416161481
 20
-39.389256792
 10
-39.5348136917
 20
-39.4674645
 10
-39.430711975
 20
-39.5413248242
 10
-39.3298150898
 20
-39.6107694708
 10
-39.2314851708
 20
-39.6763942937
 10
-39.135641171
 20
-39.7386352217
 10
-39.0877838456
 20
-39.7688893798
  0
LWPOLYLINE
  5
29B
100
AcDbEntity
  8
0
100
AcDbPolyline
 62
250
  6
CONTINUOUS
 90
8
 70
0
 10
-43.6096274984
 20
20.2089729662
 10
-43.6049101113
 20
20.1072103158
 10
-43.5847011822
 20
20.0119199438
 10
-43.5493693859
 20
19.9175362426
 10
-43.4991854657
 20
19.8247824624
 10
-43.4345339748
 20
19.7343693636
 10
-43.3559103297
 20
19.64698977
 10
-43.2639170139
 20
19.5633132601
  0
LINE
  5
29C
100
AcDbEntity
  8
COPY_PABLISH
100
AcDbLine
 62
250
  6
CONTINUOUS
 10
-42.4412137245
 20
-27.7150432175
 11
-42.4013198922
 21
-29.0195638092
  0
LWPOLYLINE
  5
29D
100
AcDbEntity
  8
COPY_PABLISH
100
AcDbPolyline
 62
7
  6
CONTINUOUS
 90
6
 70
0
 10
-43.4953324378
 20
11.8601453511
 10
-43.3505421964
 20
6.982895541
 10
-43.2686603434
 20
3.9586669499
 10
-43.1824856954
 20
0.6658273355
 10
-43.0852668541
 20
-3.1107822588
 10
-42.9757445797
 20
-7.4724064492
  0
LWPOLYLINE
  5
29E
100
AcDbEntity
  8
COPY_PABLISH
100
AcDbPolyline
 62
7
  6
CONTINUOUS
 90
9
 70
0
 10
-42.5058196834
 20
-29.3234155687
 10
-42.4815093267
 20
-30.1574403817
 10
-42.4532751649
 20
-30.9567978928
 10
-42.4217267896
 20
-31.7449210215
 10
-42.3883708643
 20
-32.5110413114
 10
-42.351407438
 20
-33.2288065163
 10
-42.3091041166
 20
-33.8986986091
 10
-42.260557541
 20
-34.5425360448
 10
-42.2185962121
 20
-35.0399082548
  0
LINE
  5
29F
100
AcDbEntity
  8
COPY_PABLISH
100
AcDbLine
 62
7
  6
CONTINUOUS
 10
-43.5489485836
 20
13.7403824821
 11
-43.4953324378
 21
11.8601453511
  0
LINE
  5
2A0
100
AcDbEntity
  8
DRAFT
100
AcDbLine
 62
7
  6
CONTINUOUS
 10
-43.3958159258
 20
10.0983636913
 11
-43.2094551782
 21
3.6457181538
  0
LINE
  5
2A1
100
AcDbEntity
  8
DRAFT
100
AcDbLine
 62
7
  6
CONTINUOUS
 10
-43.2094551782
 20
3.6457181538
 11
-43.1202291865
 21
0.5040588893
  0
LWPOLYLINE
  5
2A2
100
AcDbEntity
  8
COPY_PABLISH
100
AcDbPolyline
 62
250
  6
CONTINUOUS
 90
9
 70
0
 10
-42.4013198922
 20
-29.0195638092
 10
-42.3833271102
 20
-29.677507895
 10
-42.3614088252
 20
-30.3779719885
 10
-42.3340387187
 20
-31.1108274204
 10
-42.2968073288
 20
-31.8661575122
 10
-42.2482713621
 20
-32.6319389661
 10
-42.1908569361
 20
-33.3983623589
 10
-42.1222916915
 20
-34.1594676481
 10
-42.0340521351
 20
-34.9097098697
  0
LINE
  5
2A3
100
AcDbEntity
  8
DRAFT
100
AcDbLine
 62
7
  6
CONTINUOUS
 10
-43.1202291865
 20
0.5040588893
 11
-43.0603928664
 21
-1.6812154149
  0
LINE
  5
2A4
100
AcDbEntity
  8
COPY_PABLISH
100
AcDbLine
 62
7
  6
CONTINUOUS
 10
-43.6130987548
 20
16.0773064548
 11
-43.5489485836
 21
13.7403824821
  0
LWPOLYLINE
  5
2A5
100
AcDbEntity
  8
COPY_PABLISH
100
AcDbPolyline
 62
250
  6
CONTINUOUS
 90
4
 70
0
 10
-42.9075087511
 20
-7.7783992568
 10
-42.8783114898
 20
-8.8988655186
 10
-42.8497158662
 20
-10.0427186375
 10
-42.8224623115
 20
-11.174442574
  0
LWPOLYLINE
  5
2A6
100
AcDbEntity
  8
DRAFT
100
AcDbPolyline
 62
7
  6
CONTINUOUS
 90
3
 70
0
 10
-43.0603928664
 20
-1.6812154149
 10
-42.9999289975
 20
-3.9843109975
 10
-42.9680247544
 20
-5.2484270278
  0
LWPOLYLINE
  5
2A7
100
AcDbEntity
  8
COPY_PABLISH
100
AcDbPolyline
 62
7
  6
CONTINUOUS
 90
3
 70
0
 10
-42.9757556283
 20
-7.4719710415
 10
-42.9124373297
 20
-10.0719887659
 10
-42.8524176286
 20
-12.702982792
  0
LWPOLYLINE
  5
2A8
100
AcDbEntity
  8
COPY_PABLISH
100
AcDbPolyline
 62
250
  6
CONTINUOUS
 90
3
 70
0
 10
-42.5056211037
 20
-25.1313878112
 10
-42.4751500867
 20
-26.4116800297
 10
-42.4412137245
 20
-27.7150432175
  0
LINE
  5
2A9
100
AcDbEntity
  8
DRAFT
100
AcDbLine
 62
7
  6
CONTINUOUS
 10
-42.9680247544
 20
-5.2484270278
 11
-42.9147060887
 21
-7.4709774205
  0
LINE
  5
2AA
100
AcDbEntity
  8
DRAFT
100
AcDbLine
 62
7
  6
CONTINUOUS
 10
-42.9147060887
 20
-7.4709774205
 11
-42.907508757
 21
-7.7783990133
  0
LWPOLYLINE
  5
2AB
100
AcDbEntity
  8
DRAFT
100
AcDbPolyline
 62
7
  6
CONTINUOUS
 90
3
 70
0
 10
-43.4371805486
 20
11.7386425559
 10
-43.4185412907
 20
10.9392888543
 10
-43.3958159258
 20
10.0983636913
  0
LWPOLYLINE
  5
2AC
100
AcDbEntity
  8
COPY_PABLISH
100
AcDbPolyline
 62
7
  6
CONTINUOUS
 90
4
 70
0
 10
-42.8524176286
 20
-12.702982792
 10
-42.7440504101
 20
-17.5655884013
 10
-42.695031454
 20
-19.9568981029
 10
-42.6095687698
 20
-24.4445675869
  0
LINE
  5
2AD
100
AcDbEntity
  8
COPY_PABLISH
100
AcDbLine
 62
250
  6
CONTINUOUS
 10
-42.8224623115
 20
-11.174442574
 11
-42.5056211037
 21
-25.1313878112
  0
LINE
  5
2AE
100
AcDbEntity
  8
COPY_PABLISH
100
AcDbLine
 62
7
  6
CONTINUOUS
 10
-42.5058196834
 20
-29.3234155687
 11
-42.5228685988
 21
-28.6039417483
  0
LWPOLYLINE
  5
2AF
100
AcDbEntity
  8
COPY_PABLISH
100
AcDbPolyline
 62
7
  6
CONTINUOUS
 90
3
 70
0
 10
-42.6095687698
 20
-24.4445675869
 10
-42.5656474207
 20
-26.6057468497
 10
-42.5228685988
 20
-28.6039417483
  0
LWPOLYLINE
  5
2B0
100
AcDbEntity
  8
DRAFT
100
AcDbPolyline
 62
7
  6
CONTINUOUS
 90
4
 70
0
 10
-43.503467325
 20
15.8938115301
 10
-43.4975940171
 20
15.0324481077
 10
-43.484905826
 20
14.1714422136
 10
-43.4371805486
 20
11.7386425559
  0
LWPOLYLINE
  5
2B1
100
AcDbEntity
  8
0
100
AcDbPolyline
 62
250
  6
CONTINUOUS
 90
10
 70
0
 10
-43.4709202635
 20
15.9607689199
 10
-43.4644042497
 20
16.3988087328
 10
-43.4548437922
 20
16.8274637261
 10
-43.4417169214
 20
17.2464988456
 10
-43.4241088588
 20
17.6555076883
 10
-43.4016732286
 20
18.0543396868
 10
-43.3748677025
 20
18.4438282452
 10
-43.3435529414
 20
18.8249207501
 10
-43.3067690234
 20
19.1979202099
 10
-43.2639142648
 20
19.5633142032
  0
LINE
  5
2B2
100
AcDbEntity
  8
DRAFT
100
AcDbLine
 62
7
  6
CONTINUOUS
 10
-43.6127230948
 20
16.0772285466
 11
-43.6119369452
 21
16.1024164481
  0
LWPOLYLINE
  5
2B3
100
AcDbEntity
  8
0
100
AcDbPolyline
 62
7
  6
CONTINUOUS
 90
9
 70
0
 10
-43.6096268807
 20
20.2089729443
 10
-43.6217816708
 20
19.8731560326
 10
-43.6356499426
 20
19.3874144849
 10
-43.6455603521
 20
18.8902704313
 10
-43.6515891314
 20
18.3819386912
 10
-43.6539435352
 20
17.8623557822
 10
-43.6529123606
 20
17.3313179612
 10
-43.6487453475
 20
16.7886383152
 10
-43.6410241715
 20
16.1869772577
  0
LINE
  5
2B4
100
AcDbEntity
  8
0
100
AcDbLine
 62
7
  6
CONTINUOUS
 10
-43.6095405232
 20
20.2110905674
 11
-43.6096274984
 21
20.2089729662
  0
LWPOLYLINE
  5
2B5
100
AcDbEntity
  8
DRAFT
100
AcDbPolyline
 62
7
  6
CONTINUOUS
 90
10
 70
0
 10
-42.4772657853
 20
18.7927077852
 10
-42.4629294314
 20
18.9533173934
 10
-42.4390912189
 20
19.1184207079
 10
-42.4040871758
 20
19.286879475
 10
-42.3560252535
 20
19.4580284199
 10
-42.29327023
 20
19.6296013556
 10
-42.2150234749
 20
19.7980223536
 10
-42.1201143502
 20
19.9617183296
 10
-42.0075218222
 20
20.1188273565
 10
-41.9759198378
 20
20.1575481925
  0
LWPOLYLINE
  5
2B6
100
AcDbEntity
  8
0
100
AcDbPolyline
 62
250
  6
CONTINUOUS
 90
34
 70
0
 10
-43.2639142648
 20
19.5633142032
 10
-43.2518350424
 20
19.6478962147
 10
-43.2359258955
 20
19.7336224064
 10
-43.2159320039
 20
19.8199693545
 10
-43.1915416374
 20
19.90557619
 10
-43.1624427586
 20
19.990620017
 10
-43.1282781261
 20
20.0767369818
 10
-43.0883635159
 20
20.1629447374
 10
-43.0423607674
 20
20.2485437776
 10
-42.9903130357
 20
20.33545867
 10
-42.9313193878
 20
20.4228643613
 10
-42.8648670474
 20
20.5096284939
 10
-42.791606225
 20
20.5973685498
 10
-42.7107669111
 20
20.6856436459
 10
-42.621532569
 20
20.7731726419
 10
-42.5247025328
 20
20.8607656003
 10
-42.4198497612
 20
20.9483381694
 10
-42.3058669014
 20
21.0348113304
 10
-42.182771931
 20
21.11993657
 10
-42.049671306
 20
21.2042495156
 10
-41.9057873465
 20
21.2863072606
 10
-41.7516796406
 20
21.3633780931
 10
-41.5864539787
 20
21.4364362441
 10
-41.4096980392
 20
21.5042613366
 10
-41.2236359322
 20
21.5617215084
 10
-41.028610155
 20
21.6096852889
 10
-40.8244276703
 20
21.6482046327
 10
-40.6138161218
 20
21.6719033191
 10
-40.3975413152
 20
21.6812413498
 10
-40.1762842289
 20
21.6773977904
 10
-39.9537894866
 20
21.6568064136
 10
-39.7323533058
 20
21.6190937826
 10
-39.5122327087
 20
21.5666940946
 10
-39.2946015853
 20
21.5004956919
  0
LINE
  5
2B7
100
AcDbEntity
  8
0
100
AcDbLine
 62
250
  6
CONTINUOUS
 10
-38.3808659534
 20
23.619582134
 11
-29.6496460326
 21
34.8294681171
  0
LINE
  5
2B8
100
AcDbEntity
  8
0
100
AcDbLine
 62
250
  6
CONTINUOUS
 10
-28.9228590596
 20
35.7402336537
 11
-29.6496460326
 21
34.8294681171
  0
LINE
  5
2B9
100
AcDbEntity
  8
RACCORDO
100
AcDbLine
 62
250
  6
CONTINUOUS
 10
-12.5947628962
 20
55.7003404078
 11
-28.9228590596
 21
35.7402336537
  0
LWPOLYLINE
  5
2BA
100
AcDbEntity
  8
0
100
AcDbPolyline
 62
250
  6
CONTINUOUS
 90
13
 70
0
 10
-38.3808659534
 20
23.6195821339
 10
-38.4846222392
 20
23.4936730952
 10
-38.5866713833
 20
23.3526030178
 10
-38.685911976
 20
23.1978944934
 10
-38.7812729206
 20
23.0312173146
 10
-38.8717249935
 20
22.8543704531
 10
-38.9562919528
 20
22.669262643
 10
-39.0340610754
 20
22.4778917797
 10
-39.1041930079
 20
22.2823233564
 10
-39.1659308259
 20
22.0846681712
 10
-39.2186082033
 20
21.8870595444
 10
-39.2616566045
 20
21.6916302943
 10
-39.2946114206
 20
21.5004897165
  0
LWPOLYLINE
  5
2BB
100
AcDbEntity
  8
DRAFT
100
AcDbPolyline
 62
7
  6
CONTINUOUS
 90
35
 70
0
 10
-41.9759198378
 20
20.1575481925
 10
-41.8779150426
 20
20.2658576304
 10
-41.731326232
 20
20.4011991843
 10
-41.5676113614
 20
20.5235206836
 10
-41.3882697174
 20
20.6304495226
 10
-41.1934697222
 20
20.7210651777
 10
-40.9843286569
 20
20.7939218075
 10
-40.7646356783
 20
20.8467715606
 10
-40.5358662426
 20
20.8791761857
 10
-40.299358289
 20
20.8909248085
 10
-40.0593857513
 20
20.8813467813
 10
-39.817324214
 20
20.8506191946
 10
-39.5751510594
 20
20.7995695639
 10
-39.3383403859
 20
20.7300068609
 10
-39.1105886204
 20
20.6441366298
 10
-38.8911150828
 20
20.5431391259
 10
-38.6785655504
 20
20.4276970284
 10
-38.4740359949
 20
20.2989738385
 10
-38.2784470194
 20
20.1580650199
 10
-38.0902006282
 20
20.0047510358
 10
-37.9104448623
 20
19.8400826654
 10
-37.7398346066
 20
19.6646356499
 10
-37.5764436811
 20
19.4767265943
 10
-37.4207125106
 20
19.2758113821
 10
-37.2747086558
 20
19.0634854879
 10
-37.1393097022
 20
18.8410036102
 10
-37.0162635963
 20
18.6100277232
 10
-36.9061746556
 20
18.3706679032
 10
-36.8086657412
 20
18.1218563879
 10
-36.725292026
 20
17.8637896034
 10
-36.658036153
 20
17.5984957271
 10
-36.6077849711
 20
17.3277741304
 10
-36.5761087731
 20
17.0533599966
 10
-36.5650975798
 20
16.7769239191
 10
-36.5764695595
 20
16.5004691156
  0
LINE
  5
2BC
100
AcDbEntity
  8
0
100
AcDbLine
 62
7
  6
CONTINUOUS
 10
-33.5303854352
 20
34.544082281
 11
-33.2528959228
 21
34.7038902763
  0
LWPOLYLINE
  5
2BD
100
AcDbEntity
  8
RACCORDO
100
AcDbPolyline
 62
250
  6
CONTINUOUS
 90
44
 70
0
 10
-2.8214718212
 20
48.2360898001
 10
-3.1170694583
 20
48.0681729081
 10
-3.5468501111
 20
47.801061781
 10
-3.9571418424
 20
47.5220275927
 10
-4.3463863864
 20
47.232131144
 10
-4.7134149745
 20
46.9323586197
 10
-5.0579896894
 20
46.6230266716
 10
-5.3800065687
 20
46.3042279628
 10
-5.6790759671
 20
45.9762064625
 10
-5.9541170594
 20
45.639994449
 10
-6.2040689227
 20
45.2968887673
 10
-6.4282282994
 20
44.9480380329
 10
-6.626509547
 20
44.5937791919
 10
-6.7988541077
 20
44.2342177247
 10
-6.9449903979
 20
43.8696588722
 10
-7.0643275132
 20
43.5012674886
 10
-7.156410148
 20
43.1304453479
 10
-7.2210585309
 20
42.7583915487
 10
-7.2583278546
 20
42.3854630173
 10
-7.2682045622
 20
42.0118106887
 10
-7.2505674029
 20
41.6378060964
 10
-7.2053604719
 20
41.2646314153
 10
-7.1327461864
 20
40.8936469146
 10
-7.0330514319
 20
40.5259871087
 10
-6.9064849454
 20
40.162032889
 10
-6.7531278912
 20
39.8020099938
 10
-6.5730659384
 20
39.4463506161
 10
-6.3667470733
 20
39.0961369201
 10
-6.1348644184
 20
38.7525518455
 10
-5.8781635327
 20
38.4165655041
 10
-5.5970449778
 20
38.0885808361
 10
-5.2917788641
 20
37.7689079189
 10
-4.9627301295
 20
37.4580151024
 10
-4.6107457644
 20
37.156782907
 10
-4.2368742292
 20
36.8661139159
 10
-3.8419778828
 20
36.5866397605
 10
-3.4268476621
 20
36.3188830826
 10
-2.9925775559
 20
36.0635020069
 10
-2.5403195347
 20
35.8210964804
 10
-2.0708675196
 20
35.5920184842
 10
-1.5848133016
 20
35.3765283322
 10
-1.0830152692
 20
35.17501433
 10
-0.5666447456
 20
34.9879539798
 10
-0.0367674026
 20
34.8157320502
  0
LWPOLYLINE
  5
2BE
100
AcDbEntity
  8
RACCORDO
100
AcDbPolyline
 62
250
  6
CONTINUOUS
 90
44
 70
0
 10
-1.5508714373
 20
48.9615739653
 10
-1.8943772221
 20
48.7722820814
 10
-2.2928942298
 20
48.5310320686
 10
-2.6730165002
 20
48.2782558746
 10
-3.0332317867
 20
48.0149590878
 10
-3.3723988514
 20
47.7420831686
 10
-3.6902294001
 20
47.4599736459
 10
-3.9865535323
 20
47.1687812495
 10
-4.2609466878
 20
46.8687929833
 10
-4.5123760273
 20
46.5609969537
 10
-4.7398407502
 20
46.2466182579
 10
-4.9426688194
 20
45.9267557698
 10
-5.1207397316
 20
45.6017896135
 10
-5.2739584435
 20
45.2718931196
 10
-5.4020462668
 20
44.9374144327
 10
-5.5044568912
 20
44.5994778641
 10
-5.5807826409
 20
44.2594284747
 10
-5.6308752932
 20
43.9184332969
 10
-5.654791409
 20
43.5768766918
 10
-5.6525181515
 20
43.2349412258
 10
-5.6239452641
 20
42.8930084085
 10
-5.5690573202
 20
42.5522475284
 10
-5.4880726898
 20
42.2140144937
 10
-5.3813792412
 20
41.8794513156
 10
-5.249205904
 20
41.5489143595
 10
-5.0916214574
 20
41.2225769236
 10
-4.9086374011
 20
40.9007334461
 10
-4.7008105695
 20
40.5845972079
 10
-4.4691698967
 20
40.2756806848
 10
-4.2142619831
 20
39.9745384176
 10
-3.9368597706
 20
39.6819254455
 10
-3.6388372359
 20
39.3994798416
 10
-3.3209479472
 20
39.1274756084
 10
-2.9844555402
 20
38.8665854993
 10
-2.6326453218
 20
38.6187144854
 10
-2.2646204208
 20
38.3826246532
 10
-1.883858794
 20
38.1599761841
 10
-1.5017662486
 20
37.9559569664
 10
-1.12454647
 20
37.7715403624
 10
-0.7508291442
 20
37.6038933668
 10
-0.3814981746
 20
37.4516866503
 10
-0.0178957456
 20
37.3139356056
 10
0.3380677624
 20
37.1899233676
 10
0.6849906067
 20
37.0787710564
  0
LWPOLYLINE
  5
2BF
100
AcDbEntity
  8
0
100
AcDbPolyline
 62
7
  6
CONTINUOUS
 90
5
 70
0
 10
-33.1447529028
 20
34.7567540186
 10
-33.3945409643
 20
34.6273293037
 10
-33.6276332397
 20
34.4786601262
 10
-33.8442408938
 20
34.3109898862
 10
-34.0416010205
 20
34.1264572761
  0
LWPOLYLINE
  5
2C0
100
AcDbEntity
  8
RACCORDO
100
AcDbPolyline
 62
250
  6
CONTINUOUS
 90
45
 70
0
 10
-0.0729683863
 20
49.7762101006
 10
-0.2211045492
 20
49.7051985216
 10
-0.5993469438
 20
49.5046287765
 10
-0.9603358722
 20
49.2932496185
 10
-1.3037487055
 20
49.0713569062
 10
-1.6294471825
 20
48.8390387775
 10
-1.9369798105
 20
48.5964945244
 10
-2.2250405873
 20
48.3446236155
 10
-2.4922915093
 20
48.0845966845
 10
-2.7377921694
 20
47.8174816243
 10
-2.961398444
 20
47.5436010354
 10
-3.1630385253
 20
47.2630426616
 10
-3.3423778041
 20
46.9760695551
 10
-3.4985844583
 20
46.6837841393
 10
-3.6309304043
 20
46.3875475555
 10
-3.7390235445
 20
46.0885427749
 10
-3.8228763307
 20
45.7871076382
 10
-3.8824580253
 20
45.4833564285
 10
-3.9175750184
 20
45.1776194254
 10
-3.9279630438
 20
44.8710789057
 10
-3.9135731551
 20
44.5651244595
 10
-3.874582461
 20
44.2609211448
 10
-3.811158589
 20
43.9588207121
 10
-3.723339934
 20
43.6589952934
 10
-3.611109643
 20
43.3618011086
 10
-3.4747845171
 20
43.0684020829
 10
-3.3150082438
 20
42.7801597714
 10
-3.1314041338
 20
42.4965371462
 10
-2.9251751488
 20
42.2195168021
 10
-2.7006111263
 20
41.9538782665
 10
-2.4602443377
 20
41.7008124846
 10
-2.2049079963
 20
41.4595752753
 10
-1.9376400394
 20
41.2315079978
 10
-1.660160237
 20
41.0165068163
 10
-1.3742350463
 20
40.8144962376
 10
-1.0834322181
 20
40.6264854378
 10
-0.7896695251
 20
40.4521457721
 10
-0.4945047121
 20
40.2909466626
 10
-0.2012468028
 20
40.143239952
 10
0.0870722329
 20
40.0090143695
 10
0.3703643301
 20
39.8868821329
 10
0.6499547627
 20
39.7751363354
 10
0.9257139993
 20
39.6729190503
 10
1.1958414816
 20
39.580039374
 10
1.459481852
 20
39.4959460913
  0
LWPOLYLINE
  5
2C1
100
AcDbEntity
  8
0
100
AcDbPolyline
 62
7
  6
CONTINUOUS
 90
7
 70
0
 10
-33.2528959228
 20
34.7038902763
 10
-32.9563381374
 20
34.8377326932
 10
-32.6403933581
 20
34.9451755244
 10
-32.3053803058
 20
35.0266527772
 10
-31.9568676055
 20
35.0808101275
 10
-31.5946296145
 20
35.1071909307
 10
-31.2188919755
 20
35.1062518314
  0
LWPOLYLINE
  5
2C2
100
AcDbEntity
  8
COPY_PABLISH
100
AcDbPolyline
 62
250
  6
CONTINUOUS
 90
16
 70
0
 10
8.9532437178
 20
-42.9051894052
 10
9.080469532
 20
-42.8911073607
 10
9.2084022722
 20
-42.8804720036
 10
9.3368064422
 20
-42.8733026485
 10
9.4654446352
 20
-42.8696122454
 10
9.5940811882
 20
-42.86940725
 10
9.7224826075
 20
-42.8726879039
 10
9.8504136816
 20
-42.8794482411
 10
9.9776379258
 20
-42.8896758085
 10
10.1039212272
 20
-42.9033517857
 10
10.2290312046
 20
-42.9204510066
 10
10.3527376357
 20
-42.9409420062
 10
10.4748128812
 20
-42.9647870779
 10
10.5950323033
 20
-42.9919423431
 10
10.7131746791
 20
-43.0223578318
 10
10.829022608
 20
-43.0559775746
  0
LWPOLYLINE
  5
2C3
100
AcDbEntity
  8
COPY_PABLISH
100
AcDbPolyline
 62
7
  6
CONTINUOUS
 90
12
 70
0
 10
6.6950402261
 20
-43.2697047107
 10
6.8021878151
 20
-43.259005995
 10
6.9057476673
 20
-43.2420313598
 10
7.0056834452
 20
-43.2187172408
 10
7.1020314863
 20
-43.1891272024
 10
7.193819232
 20
-43.153559933
 10
7.2810004942
 20
-43.1119548935
 10
7.3636214609
 20
-43.0643726231
 10
7.4408481375
 20
-43.0112934278
 10
7.5126258891
 20
-42.9526616333
 10
7.5790093505
 20
-42.8885329139
 10
7.6407913955
 20
-42.817725386
  0
LINE
  5
2C4
100
AcDbEntity
  8
COPY_PABLISH
100
AcDbLine
 62
7
  6
CONTINUOUS
 10
6.6015568434
 20
-43.2733832186
 11
6.6950402261
 21
-43.2697047107
  0
LWPOLYLINE
  5
2C5
100
AcDbEntity
  8
COPY_PABLISH
100
AcDbPolyline
 62
250
  6
CONTINUOUS
 90
8
 70
0
 10
6.9781434808
 20
-46.1010446737
 10
6.8295010642
 20
-46.083932991
 10
6.6778183992
 20
-46.063845631
 10
6.5230437851
 20
-46.0406312774
 10
6.3643330237
 20
-46.0145566642
 10
6.2012565528
 20
-45.9854642151
 10
6.0338999874
 20
-45.9528654896
 10
5.8621101829
 20
-45.9164312702
  0
LWPOLYLINE
  5
2C6
100
AcDbEntity
  8
COPY_PABLISH
100
AcDbPolyline
 62
250
  6
CONTINUOUS
 90
4
 70
0
 10
-0.9787103337
 20
-44.8225570086
 10
-1.5334456471
 20
-44.6634242954
 10
-2.1556471853
 20
-44.4800709972
 10
-2.856346967
 20
-44.2677300137
  0
LWPOLYLINE
  5
2C7
100
AcDbEntity
  8
COPY_PABLISH
100
AcDbPolyline
 62
250
  6
CONTINUOUS
 90
3
 70
0
 10
-28.5798406116
 20
-35.3397675007
 10
-27.6962904462
 20
-35.6094395944
 10
-25.8913684622
 20
-36.157858217
  0
LINE
  5
2C8
100
AcDbEntity
  8
COPY_PABLISH
100
AcDbLine
 62
7
  6
CONTINUOUS
 10
-2.8563353724
 20
-44.2674446581
 11
-13.9901549125
 21
-40.8515170127
  0
LINE
  5
2C9
100
AcDbEntity
  8
COPY_PABLISH
100
AcDbLine
 62
7
  6
CONTINUOUS
 10
-13.9900948929
 20
-40.8515354742
 11
-25.1230735311
 21
-37.4295450885
  0
LINE
  5
2CA
100
AcDbEntity
  8
COPY_PABLISH
100
AcDbLine
 62
250
  6
CONTINUOUS
 10
-33.6835431474
 20
-33.772341664
 11
-28.5798406116
 21
-35.3397675007
  0
LINE
  5
2CB
100
AcDbEntity
  8
COPY_PABLISH
100
AcDbLine
 62
250
  6
CONTINUOUS
 10
-0.9831393427
 20
-43.8119054179
 11
5.8621101086
 21
-45.9164286623
  0
LWPOLYLINE
  5
2CC
100
AcDbEntity
  8
COPY_PABLISH
100
AcDbPolyline
 62
250
  6
CONTINUOUS
 90
3
 70
0
 10
-2.7782142536
 20
-43.2633918795
 10
-2.4731803191
 20
-43.3571904563
 10
-0.9831393427
 20
-43.8119054179
  0
LWPOLYLINE
  5
2CD
100
AcDbEntity
  8
COPY_PABLISH
100
AcDbPolyline
 62
250
  6
CONTINUOUS
 90
13
 70
0
 10
-25.1231436789
 20
-37.4301396888
 10
-25.8291711191
 20
-37.2099474218
 10
-26.4748634271
 20
-37.0005096811
 10
-27.0871159105
 20
-36.7950056893
 10
-27.6728251454
 20
-36.5955761815
 10
-28.2160616288
 20
-36.4122024526
 10
-28.7066784929
 20
-36.2556397692
 10
-29.1522764065
 20
-36.1346361157
 10
-29.5767457981
 20
-36.0554850652
 10
-30.0032416593
 20
-36.0235166163
 10
-30.4380601268
 20
-36.0580644306
 10
-30.8677464054
 20
-36.1853121669
 10
-31.2403322045
 20
-36.3849808609
  0
LWPOLYLINE
  5
2CE
100
AcDbEntity
  8
COPY_PABLISH
100
AcDbPolyline
 62
250
  6
CONTINUOUS
 90
7
 70
0
 10
-25.6398765389
 20
-36.2347483435
 10
-25.6819387697
 20
-36.2213602685
 10
-25.7239422585
 20
-36.2082014428
 10
-25.7658869629
 20
-36.1952718132
 10
-25.8077728749
 20
-36.1825713696
 10
-25.8496000211
 20
-36.1701001453
 10
-26.690183326
 20
-35.9252159605
  0
LWPOLYLINE
  5
2CF
100
AcDbEntity
  8
COPY_PABLISH
100
AcDbPolyline
 62
250
  6
CONTINUOUS
 90
7
 70
0
 10
-25.6398765389
 20
-36.2347483435
 10
-25.5486185016
 20
-36.2667815317
 10
-25.4541234406
 20
-36.2988307487
 10
-25.3563890648
 20
-36.3308931131
 10
-25.2554138264
 20
-36.3629666837
 10
-25.1511969214
 20
-36.3950504534
 10
-25.0437382897
 20
-36.427144347
  0
LWPOLYLINE
  5
2D0
100
AcDbEntity
  8
COPY_PABLISH
100
AcDbPolyline
 62
7
  6
CONTINUOUS
 90
3
 70
0
 10
7.8440239618
 20
-54.5510431808
 10
7.8784126582
 20
-54.5666332305
 10
7.9348825245
 20
-54.5910793588
  0
LWPOLYLINE
  5
2D1
100
AcDbEntity
  8
COPY_PABLISH
100
AcDbPolyline
 62
250
  6
CONTINUOUS
 90
10
 70
0
 10
-31.2403322045
 20
-36.3849808609
 10
-31.272160657
 20
-36.3219073679
 10
-31.3066504117
 20
-36.2597625953
 10
-31.3437230507
 20
-36.198681797
 10
-31.3832981737
 20
-36.138802704
 10
-31.4252932324
 20
-36.0802657725
 10
-31.4696234848
 20
-36.0232141846
 10
-31.5162021888
 20
-35.9677935743
 10
-31.5649406124
 20
-35.9141520696
 10
-31.6157478483
 20
-35.8624405253
  0
LWPOLYLINE
  5
2D2
100
AcDbEntity
  8
COPY_PABLISH
100
AcDbPolyline
 62
7
  6
CONTINUOUS
 90
28
 70
0
 10
-37.2463975452
 20
-29.8660926634
 10
-37.182358682
 20
-30.0055879509
 10
-37.1123878999
 20
-30.1444909985
 10
-37.0366183931
 20
-30.282537395
 10
-36.9551943939
 20
-30.4194643598
 10
-36.8682708982
 20
-30.5550112432
 10
-36.7760133709
 20
-30.6889200226
 10
-36.6785974303
 20
-30.8209357937
 10
-36.5762085142
 20
-30.9508072555
 10
-36.4690415267
 20
-31.0782871892
 10
-36.3573004674
 20
-31.2031329279
 10
-36.241198043
 20
-31.3251068196
 10
-36.1209552621
 20
-31.4439766787
 10
-35.9968010149
 20
-31.5595162285
 10
-35.8689716375
 20
-31.6715055316
 10
-35.7377104616
 20
-31.7797314089
 10
-35.6032673517
 20
-31.8839878453
 10
-35.4658982293
 20
-31.9840763816
 10
-35.3258645856
 20
-32.0798064925
 10
-35.1834329842
 20
-32.1709959494
 10
-35.0388745531
 20
-32.257471167
 10
-34.8924644691
 20
-32.339067534
 10
-34.7444817841
 20
-32.4156291567
 10
-34.5952080042
 20
-32.4870107863
 10
-34.4449257481
 20
-32.5530784816
 10
-34.2939197607
 20
-32.6137074603
 10
-34.1424771788
 20
-32.6687819516
 10
-33.9908855335
 20
-32.7181973152
  0
LWPOLYLINE
  5
2D3
100
AcDbEntity
  8
COPY_PABLISH
100
AcDbPolyline
 62
250
  6
CONTINUOUS
 90
5
 70
0
 10
-34.2719774332
 20
-41.3284258306
 10
-34.2198504151
 20
-41.4682012043
 10
-34.1518308603
 20
-41.5760171075
 10
-34.0690644247
 20
-41.6505166391
 10
-34.0015425748
 20
-41.6825900402
  0
LWPOLYLINE
  5
2D4
100
AcDbEntity
  8
COPY_PABLISH
100
AcDbPolyline
 62
250
  6
CONTINUOUS
 90
5
 70
0
 10
-42.9075032171
 20
-7.7783982096
 10
-42.9409791808
 20
-7.6834617616
 10
-42.9634653936
 20
-7.5898156612
 10
-42.9746829372
 20
-7.4972700506
 10
-42.9757445797
 20
-7.4724064492
  0
LINE
  5
2D5
100
AcDbEntity
  8
COPY_PABLISH
100
AcDbLine
 62
7
  6
CONTINUOUS
 10
-32.8876828826
 20
-41.9366318412
 11
-32.8449374224
 21
-42.064296779
  0
LWPOLYLINE
  5
2D6
100
AcDbEntity
  8
COPY_PABLISH
100
AcDbPolyline
 62
250
  6
CONTINUOUS
 90
9
 70
0
 10
-32.753375256
 20
-42.5600279759
 10
-32.6344732856
 20
-43.0133339181
 10
-32.4755445228
 20
-43.4346919341
 10
-32.2755289525
 20
-43.8264707105
 10
-32.0334034817
 20
-44.1921085503
 10
-31.7480627792
 20
-44.5360413138
 10
-31.4186927515
 20
-44.8632849855
 10
-31.0449162002
 20
-45.1795538025
 10
-30.6265142715
 20
-45.4918587042
  0
LWPOLYLINE
  5
2D7
100
AcDbEntity
  8
COPY_PABLISH
100
AcDbPolyline
 62
250
  6
CONTINUOUS
 90
55
 70
0
 10
-38.8703400741
 20
-27.7937847802
 10
-38.8492420185
 20
-27.9414299507
 10
-38.8256258203
 20
-28.0861661711
 10
-38.7998223102
 20
-28.2279588287
 10
-38.7723996951
 20
-28.3665366013
 10
-38.7434136295
 20
-28.5021664491
 10
-38.7123536435
 20
-28.6356050653
 10
-38.6794001237
 20
-28.766812125
 10
-38.6448148345
 20
-28.8958103771
 10
-38.6080908704
 20
-29.0233930239
 10
-38.569347316
 20
-29.1495150423
 10
-38.5287535555
 20
-29.274191236
 10
-38.4857548231
 20
-29.3982556706
 10
-38.4404144916
 20
-29.521657094
 10
-38.3928165324
 20
-29.6443923469
 10
-38.3423104623
 20
-29.7673200659
 10
-38.2889044083
 20
-29.8904048003
 10
-38.2326053472
 20
-30.0135851884
 10
-38.1726419103
 20
-30.1376224039
 10
-38.1088957275
 20
-30.2626815573
 10
-38.0413848161
 20
-30.3884239265
 10
-37.9695014138
 20
-30.5147689536
 10
-37.8931988409
 20
-30.6416206488
 10
-37.8124862921
 20
-30.7687756446
 10
-37.726889041
 20
-30.8958903908
 10
-37.6364089384
 20
-31.0226939214
 10
-37.541122832
 20
-31.1490339831
 10
-37.4407250586
 20
-31.2746606928
 10
-37.3350684631
 20
-31.3994177521
 10
-37.2244723481
 20
-31.5229482152
 10
-37.109385929
 20
-31.6446837176
 10
-36.9897425398
 20
-31.764443024
 10
-36.8659091976
 20
-31.8819257651
 10
-36.7390378811
 20
-31.9964756312
 10
-36.6092495632
 20
-32.1079165501
 10
-36.476803976
 20
-32.2161124309
 10
-36.3430683972
 20
-32.3206380271
 10
-36.2086199705
 20
-32.4211578862
 10
-36.0732500201
 20
-32.5179387833
 10
-35.9370667914
 20
-32.611573467
 10
-35.8004028728
 20
-32.7019266654
 10
-35.6631409037
 20
-32.7891132284
 10
-35.5245759947
 20
-32.8740792412
 10
-35.384720434
 20
-32.9567879682
 10
-35.2436279652
 20
-33.0371728481
 10
-35.1005225771
 20
-33.1160544518
 10
-34.9553571759
 20
-33.1933206516
 10
-34.8081366168
 20
-33.2688828794
 10
-34.6580376013
 20
-33.3435117963
 10
-34.5049616582
 20
-33.4170128524
 10
-34.3488695861
 20
-33.4892626464
 10
-34.1888902525
 20
-33.561054674
 10
-34.0246170437
 20
-33.6324881401
 10
-33.8562001348
 20
-33.7030021957
 10
-33.6835430924
 20
-33.772344266
  0
LWPOLYLINE
  5
2D8
100
AcDbEntity
  8
COPY_PABLISH
100
AcDbPolyline
 62
7
  6
CONTINUOUS
 90
10
 70
0
 10
-37.5396178449
 20
-28.6277297443
 10
-37.5330166282
 20
-28.7606563305
 10
-37.5198195388
 20
-28.8953547427
 10
-37.5000517102
 20
-29.0315692264
 10
-37.4737518475
 20
-29.1690399689
 10
-37.440968757
 20
-29.3075072823
 10
-37.4017614286
 20
-29.4467113508
 10
-37.3562034299
 20
-29.5863881452
 10
-37.3043825873
 20
-29.7262706746
 10
-37.2463975452
 20
-29.8660926634
  0
LINE
  5
2D9
100
AcDbEntity
  8
COPY_PABLISH
100
AcDbLine
 62
250
  6
CONTINUOUS
 10
-39.7267303588
 20
6.6317570649
 11
-38.8703400742
 21
-27.7937847802
  0
LINE
  5
2DA
100
AcDbEntity
  8
COPY_PABLISH
100
AcDbLine
 62
250
  6
CONTINUOUS
 10
-38.3960587686
 20
5.7978765972
 11
-37.5396671994
 21
-28.6276668838
  0
LWPOLYLINE
  5
2DB
100
AcDbEntity
  8
DRAFT
100
AcDbPolyline
 62
7
  6
CONTINUOUS
 90
8
 70
0
 10
-36.5764695595
 20
16.5004691156
 10
-36.6072619135
 20
16.2479835474
 10
-36.6571297212
 20
16.0066293776
 10
-36.7255386668
 20
15.7776612148
 10
-36.8122467078
 20
15.5613136284
 10
-36.9162225518
 20
15.3596325128
 10
-37.0348376751
 20
15.1759571121
 10
-37.0691297295
 20
15.1295302312
  0
LWPOLYLINE
  5
2DC
100
AcDbEntity
  8
0
100
AcDbPolyline
 62
7
  6
CONTINUOUS
 90
19
 70
0
 10
-33.9916464822
 20
22.1696685659
 10
-34.0540938121
 20
22.0857800761
 10
-34.1156857949
 20
21.9953933747
 10
-34.1764224307
 20
21.8985084618
 10
-34.23673249
 20
21.7943554067
 10
-34.2961872023
 20
21.68370414
 10
-34.3535002562
 20
21.5688644539
 10
-34.4084405542
 20
21.450114758
 10
-34.4612391938
 20
21.3271766426
 10
-34.5113031554
 20
21.2015246708
 10
-34.5586245301
 20
21.0731398793
 10
-34.6032112268
 20
20.9420412315
 10
-34.6444939532
 20
20.80976018
 10
-34.6825253973
 20
20.6758092938
 10
-34.7172528711
 20
20.540676004
 10
-34.747949018
 20
20.4073540572
 10
-34.7743713858
 20
20.2768413688
 10
-34.7967624267
 20
20.1481400234
 10
-34.8151221406
 20
20.0212500209
  0
LWPOLYLINE
  5
2DD
100
AcDbEntity
  8
ASSI
100
AcDbPolyline
 62
7
  6
CONTINUOUS
 90
25
 70
0
 10
-33.7596163561
 20
22.1133123987
 10
-33.8067335227
 20
22.0510218259
 10
-33.8533417154
 20
21.9851266936
 10
-33.8994409339
 20
21.915627002
 10
-33.9451546856
 20
21.8422649403
 10
-33.9903594633
 20
21.7652983192
 10
-34.0346847456
 20
21.6855005709
 10
-34.0781003685
 20
21.6029104756
 10
-34.1206364961
 20
21.517489253
 10
-34.1620130992
 20
21.4298939941
 10
-34.2022315674
 20
21.3401229836
 10
-34.2412905112
 20
21.2481779368
 10
-34.2789057326
 20
21.1547210908
 10
-34.3150837302
 20
21.0597316865
 10
-34.3498180055
 20
20.963230483
 10
-34.3828048648
 20
20.8659419943
 10
-34.4140405573
 20
20.7678666752
 10
-34.4435288338
 20
20.6690040708
 10
-34.4709772529
 20
20.5700773307
 10
-34.4963722883
 20
20.4711248181
 10
-34.5197274665
 20
20.3721081697
 10
-34.5407909244
 20
20.273635446
 10
-34.559478708
 20
20.1759093338
 10
-34.5758747715
 20
20.0787271463
 10
-34.5899791149
 20
19.9820888835
  0
LINE
  5
2DE
100
AcDbEntity
  8
0
100
AcDbLine
 62
7
  6
CONTINUOUS
 10
-33.9918895858
 20
22.1693564489
 11
-31.0970655085
 21
25.8859788845
  0
LINE
  5
2DF
100
AcDbEntity
  8
0
100
AcDbLine
 62
7
  6
CONTINUOUS
 10
-31.2827261622
 20
25.2933550048
 11
-33.7470414275
 21
22.1294571631
  0
LINE
  5
2E0
100
AcDbEntity
  8
ASSI
100
AcDbLine
 62
7
  6
CONTINUOUS
 10
-30.4823362445
 20
25.2387026897
 11
-30.6048436218
 21
25.0851838439
  0
LINE
  5
2E1
100
AcDbEntity
  8
0
100
AcDbLine
 62
7
  6
CONTINUOUS
 10
-29.6380331199
 20
24.9794253797
 11
-29.7605404973
 21
24.8259065339
  0
LINE
  5
2E2
100
AcDbEntity
  8
DRAFT
100
AcDbLine
 62
250
  6
CONTINUOUS
 10
-37.5554444816
 20
13.1227890843
 11
-37.7175666378
 21
12.9196273903
  0
LWPOLYLINE
  5
2E3
100
AcDbEntity
  8
DRAFT
100
AcDbPolyline
 62
7
  6
CONTINUOUS
 90
40
 70
0
 10
-37.0691297295
 20
15.1295302312
 10
-37.1664275774
 20
15.0105938195
 10
-37.3093583063
 20
14.8636379374
 10
-37.4595549438
 20
14.7367309093
 10
-37.6133579069
 20
14.6298989116
 10
-37.7698980158
 20
14.5410003701
 10
-37.9290138279
 20
14.4678451516
 10
-38.0887594918
 20
14.4095879089
 10
-38.2481017123
 20
14.3651361989
 10
-38.4090121035
 20
14.3326644754
 10
-38.5703880966
 20
14.3115792999
 10
-38.7316142613
 20
14.3014130777
 10
-38.896111877
 20
14.301707627
 10
-39.0640006789
 20
14.3124739471
 10
-39.2341774825
 20
14.3339319122
 10
-39.4086107963
 20
14.367020138
 10
-39.5867037958
 20
14.4119804473
 10
-39.7679878504
 20
14.4694176859
 10
-39.9546648548
 20
14.5417625814
 10
-40.146999792
 20
14.6302723144
 10
-40.3430104098
 20
14.7355068644
 10
-40.5412933137
 20
14.8593880823
 10
-40.7408816849
 20
15.0031982635
 10
-40.9397901565
 20
15.1669818824
 10
-41.1348501501
 20
15.3504611341
 10
-41.3251679353
 20
15.5557551968
 10
-41.5075680083
 20
15.780714646
 10
-41.6762324213
 20
16.0172401241
 10
-41.8289692244
 20
16.2630407001
 10
-41.965825666
 20
16.5175065182
 10
-42.0859881448
 20
16.7738430142
 10
-42.1893151854
 20
17.0299368081
 10
-42.2757288121
 20
17.2848006313
 10
-42.3457994898
 20
17.5331548399
 10
-42.4006807211
 20
17.7735399747
 10
-42.440779492
 20
18.0050767876
 10
-42.4668222371
 20
18.2235959409
 10
-42.4804218502
 20
18.4273947141
 10
-42.4833604617
 20
18.617169778
 10
-42.4772657853
 20
18.7927077852
  0
LWPOLYLINE
  5
2E4
100
AcDbEntity
  8
COPY_PABLISH
100
AcDbPolyline
 62
250
  6
CONTINUOUS
 90
9
 70
0
 10
-26.690183326
 20
-35.9252159605
 10
-27.4522185322
 20
-35.7335585353
 10
-28.1792067433
 20
-35.5811499946
 10
-28.8876233286
 20
-35.44966764
 10
-29.5637580389
 20
-35.3557845302
 10
-30.1716408559
 20
-35.3485521068
 10
-30.7064824033
 20
-35.4411675829
 10
-31.1868480445
 20
-35.6134663396
 10
-31.6157478484
 20
-35.8624405255
  0
LWPOLYLINE
  5
2E5
100
AcDbEntity
  8
RACCORDO
100
AcDbPolyline
 62
250
  6
CONTINUOUS
 90
16
 70
0
 10
5.6471064604
 20
-42.7403664095
 10
5.7426951669
 20
-42.765838299
 10
5.8422133524
 20
-42.7847945267
 10
5.9445706748
 20
-42.7970274039
 10
6.0486456858
 20
-42.8024029046
 10
6.1532981179
 20
-42.8008621331
 10
6.2573813771
 20
-42.7924219704
 10
6.3597551054
 20
-42.7771748884
 10
6.4592976748
 20
-42.7552879369
 10
6.5549184761
 20
-42.7270009137
 10
6.6455698678
 20
-42.6926237372
 10
6.7302586543
 20
-42.6525330505
 10
6.8080569674
 20
-42.6071680954
 10
6.8781124326
 20
-42.5570258996
 10
6.9396575075
 20
-42.5026558311
 10
6.9920178915
 20
-42.4446535795
  0
LWPOLYLINE
  5
2E6
100
AcDbEntity
  8
RACCORDO
100
AcDbPolyline
 62
250
  6
CONTINUOUS
 90
22
 70
0
 10
4.9500009635
 20
-43.1418354277
 10
5.0034599754
 20
-43.1564782587
 10
5.0559913223
 20
-43.1675035523
 10
5.1075950044
 20
-43.1749113087
 10
5.1585395301
 20
-43.1787123841
 10
5.2085563908
 20
-43.1788959222
 10
5.2568400607
 20
-43.1754293545
 10
5.3033941681
 20
-43.1682452889
 10
5.3482150846
 20
-43.1574111175
 10
5.3904863991
 20
-43.1430964476
 10
5.4301420293
 20
-43.1252412102
 10
5.4672480575
 20
-43.1039054743
 10
5.5011863198
 20
-43.0794390533
 10
5.5319081621
 20
-43.0517805504
 10
5.5594622385
 20
-43.0209913624
 10
5.5833763472
 20
-42.9876054936
 10
5.6035808954
 20
-42.9515587814
 10
5.6201454759
 20
-42.9129153882
 10
5.632806665
 20
-42.8724018054
 10
5.6414766549
 20
-42.8302601965
 10
5.6462432533
 20
-42.7862483979
 10
5.6471064604
 20
-42.7403664095
  0
LINE
  5
2E7
100
AcDbEntity
  8
COPY_PABLISH
100
AcDbLine
 62
250
  6
CONTINUOUS
 10
5.5548832988
 20
-44.8623458327
 11
-33.9908461431
 21
-32.7182354384
  0
LINE
  5
2E8
100
AcDbEntity
  8
RACCORDO
100
AcDbLine
 62
7
  6
CONTINUOUS
 10
-34.4350462361
 20
-31.3844373411
 11
5.1106827207
 21
-43.5285475864
  0
LINE
  5
2E9
100
AcDbEntity
  8
RACCORDO
100
AcDbLine
 62
250
  6
CONTINUOUS
 10
-34.59572796
 20
-30.9977251927
 11
4.9500009635
 21
-43.1418354277
  0
LWPOLYLINE
  5
2EA
100
AcDbEntity
  8
COPY_PABLISH
100
AcDbPolyline
 62
250
  6
CONTINUOUS
 90
16
 70
0
 10
-38.8703400742
 20
-27.7937847802
 10
-38.7569995112
 20
-27.8305466032
 10
-38.6463751174
 20
-27.8703831735
 10
-38.5386704591
 20
-27.9132211854
 10
-38.4340837299
 20
-27.9589818101
 10
-38.3328073859
 20
-28.0075808409
 10
-38.2350277917
 20
-28.0589288479
 10
-38.1409248773
 20
-28.1129313425
 10
-38.0506718069
 20
-28.1694889516
 10
-37.9644346604
 20
-28.2284976003
 10
-37.882372794
 20
-28.2898481826
 10
-37.8046364762
 20
-28.3534282872
 10
-37.7313669772
 20
-28.4191225864
 10
-37.6626989161
 20
-28.4868109143
 10
-37.5987596451
 20
-28.556368307
 10
-37.5396671994
 20
-28.6276668838
  0
LWPOLYLINE
  5
2EB
100
AcDbEntity
  8
RACCORDO
100
AcDbPolyline
 62
250
  6
CONTINUOUS
 90
10
 70
0
 10
-35.3236943827
 20
-30.1586277738
 10
-35.4143043581
 20
-30.1269195962
 10
-35.4989453744
 20
-30.0893223857
 10
-35.5766900549
 20
-30.0462479855
 10
-35.6466865663
 20
-29.9981682477
 10
-35.7081679411
 20
-29.9456098835
 10
-35.7604604869
 20
-29.8891486967
 10
-35.8029911916
 20
-29.8294032374
 10
-35.8352939758
 20
-29.7670280595
 10
-35.8570148105
 20
-29.7027065742
  0
LWPOLYLINE
  5
2EC
100
AcDbEntity
  8
RACCORDO
100
AcDbPolyline
 62
7
  6
CONTINUOUS
 90
16
 70
0
 10
-34.4350462546
 20
-31.3844373355
 10
-34.5933883488
 20
-31.3283215887
 10
-34.7458983582
 20
-31.2595568452
 10
-34.8921811538
 20
-31.17892202
 10
-35.0325526579
 20
-31.0864809222
 10
-35.1658522732
 20
-30.9829509523
 10
-35.2897226439
 20
-30.870287154
 10
-35.4039390893
 20
-30.7488639724
 10
-35.5079265392
 20
-30.6191276473
 10
-35.5995038873
 20
-30.4838420759
 10
-35.6783896873
 20
-30.3437826716
 10
-35.744425672
 20
-30.1992602609
 10
-35.7965003257
 20
-30.0529888221
 10
-35.8344812242
 20
-29.9065370709
 10
-35.8586827873
 20
-29.7600153252
 10
-35.8691433788
 20
-29.6142628601
  0
LWPOLYLINE
  5
2ED
100
AcDbEntity
  8
COPY_PABLISH
100
AcDbPolyline
 62
250
  6
CONTINUOUS
 90
10
 70
0
 10
-32.8920891423
 20
-40.3856423011
 10
-32.9098340777
 20
-40.3162964254
 10
-32.9364210468
 20
-40.2491361655
 10
-32.9713460829
 20
-40.1847340359
 10
-33.0141055637
 20
-40.1236621578
 10
-33.0641962104
 20
-40.0664922597
 10
-33.1211150878
 20
-40.0137956771
 10
-33.1843596044
 20
-39.966143352
 10
-33.2534275135
 20
-39.9241058327
 10
-33.3278169118
 20
-39.8882532749
  0
LINE
  5
2EE
100
AcDbEntity
  8
COPY_PABLISH
100
AcDbLine
 62
250
  6
CONTINUOUS
 10
-32.8202441204
 20
-42.1753315807
 11
-32.753375256
 21
-42.5600279759
  0
LWPOLYLINE
  5
2EF
100
AcDbEntity
  8
RACCORDO
100
AcDbPolyline
 62
250
  6
CONTINUOUS
 90
3
 70
0
 10
-35.8570148105
 20
-29.7027065742
 10
-35.8679156254
 20
-29.6371434878
 10
-35.8691433188
 20
-29.6142652714
  0
LWPOLYLINE
  5
2F0
100
AcDbEntity
  8
COPY_PABLISH
100
AcDbPolyline
 62
7
  6
CONTINUOUS
 90
24
 70
0
 10
-32.8202234803
 20
-42.1754161404
 10
-32.7712674007
 20
-42.4735121263
 10
-32.6950384658
 20
-42.8158460955
 10
-32.5984064164
 20
-43.1471701395
 10
-32.4753335592
 20
-43.4808119643
 10
-32.3285361306
 20
-43.8037164843
 10
-32.1760980944
 20
-44.0843658252
 10
-32.030071549
 20
-44.317546891
 10
-31.8872731534
 20
-44.5211162345
 10
-31.7477773548
 20
-44.702229362
 10
-31.6146237101
 20
-44.8622284061
 10
-31.4894873821
 20
-45.0032425388
 10
-31.3687868353
 20
-45.1320333432
 10
-31.2519398018
 20
-45.250902252
 10
-31.1415482259
 20
-45.3586006261
 10
-31.0379539448
 20
-45.4560290585
 10
-30.9438520696
 20
-45.5417592912
 10
-30.8580964202
 20
-45.6177755844
 10
-30.7747401083
 20
-45.689880976
 10
-30.6915914085
 20
-45.7601879138
 10
-30.6112480338
 20
-45.8266998571
 10
-30.5345789447
 20
-45.8889891681
 10
-30.461967895
 20
-45.9469220338
 10
-30.4259002823
 20
-45.9753718057
  0
LWPOLYLINE
  5
2F1
100
AcDbEntity
  8
COPY_PABLISH
100
AcDbPolyline
 62
7
  6
CONTINUOUS
 90
5
 70
0
 10
-33.2961134063
 20
-41.6595038426
 10
-33.2643372796
 20
-41.8731927552
 10
-33.1885989685
 20
-42.020179534
 10
-33.0780166618
 20
-42.1097927008
 10
-33.0473003534
 20
-42.1237090885
  0
LINE
  5
2F2
100
AcDbEntity
  8
DRAFT
100
AcDbLine
 62
7
  6
CONTINUOUS
 10
-43.6091275978
 20
16.0515031423
 11
-43.6127230948
 21
16.0772285466
  0
LINE
  5
2F3
100
AcDbEntity
  8
COPY_PABLISH
100
AcDbLine
 62
7
  6
CONTINUOUS
 10
-32.8284591773
 20
-42.114877996
 11
-32.8202441204
 21
-42.1753315807
  0
LINE
  5
2F4
100
AcDbEntity
  8
0
100
AcDbLine
 62
7
  6
CONTINUOUS
 10
-43.6375303476
 20
16.1590349376
 11
-43.6411003296
 21
16.1869927648
  0
LWPOLYLINE
  5
2F5
100
AcDbEntity
  8
COPY_PABLISH
100
AcDbPolyline
 62
7
  6
CONTINUOUS
 90
3
 70
0
 10
-32.8511748149
 20
-41.9367153209
 10
-32.845096409
 20
-41.9860080832
 10
-32.8284591773
 20
-42.114877996
  0
LWPOLYLINE
  5
2F6
100
AcDbEntity
  8
COPY_PABLISH
100
AcDbPolyline
 62
250
  6
CONTINUOUS
 90
10
 70
0
 10
-32.8511748149
 20
-41.9367153209
 10
-32.8570031046
 20
-41.8877412043
 10
-32.8763759414
 20
-41.7038725947
 10
-32.8915856032
 20
-41.5205115528
 10
-32.9025569153
 20
-41.3369757909
 10
-32.9092428901
 20
-41.1523794494
 10
-32.9115988822
 20
-40.9656448208
 10
-32.9095659175
 20
-40.7760320227
 10
-32.9030800008
 20
-40.5829377821
 10
-32.8920866291
 20
-40.3856405901
  0
LWPOLYLINE
  5
2F7
100
AcDbEntity
  8
COPY_PABLISH
100
AcDbPolyline
 62
250
  6
CONTINUOUS
 90
5
 70
0
 10
-30.6265250539
 20
-45.4918019998
 10
-30.6138240562
 20
-45.6471190324
 10
-30.5714513016
 20
-45.7844795659
 10
-30.5003945592
 20
-45.9009753498
 10
-30.4259002823
 20
-45.9753718057
  0
LWPOLYLINE
  5
2F8
100
AcDbEntity
  8
RACCORDO
100
AcDbPolyline
 62
250
  6
CONTINUOUS
 90
22
 70
0
 10
-35.3236943827
 20
-30.1586277738
 10
-35.3204826289
 20
-30.2058345139
 10
-35.3134313243
 20
-30.2534911452
 10
-35.3025404691
 20
-30.3015976676
 10
-35.2877213274
 20
-30.3504148429
 10
-35.2690626349
 20
-30.3996819093
 10
-35.2468305995
 20
-30.4486165819
 10
-35.2209458044
 20
-30.4972478654
 10
-35.1914876662
 20
-30.545546755
 10
-35.1589606435
 20
-30.5926439516
 10
-35.1233201018
 20
-30.6384969366
 10
-35.0846106755
 20
-30.6831482285
 10
-35.0434707266
 20
-30.7258560835
 10
-34.9998475069
 20
-30.7665956749
 10
-34.9537937647
 20
-30.8053918295
 10
-34.9061061063
 20
-30.8415772833
 10
-34.8567364808
 20
-30.8751075993
 10
-34.8057329392
 20
-30.9060272146
 10
-34.7540362404
 20
-30.9338021768
 10
-34.7019599708
 20
-30.9582545019
 10
-34.649190544
 20
-30.9795621738
 10
-34.59572796
 20
-30.9977251927
  0
LWPOLYLINE
  5
2F9
100
AcDbEntity
  8
RACCORDO
100
AcDbPolyline
 62
250
  6
CONTINUOUS
 90
9
 70
0
 10
-34.59572796
 20
-30.9977251927
 10
-34.5912234268
 20
-31.075653065
 10
-34.5817914775
 20
-31.1464905571
 10
-34.5675354504
 20
-31.2094615585
 10
-34.5486115376
 20
-31.2638761459
 10
-34.5252270735
 20
-31.3091381415
 10
-34.4976382632
 20
-31.3447516455
 10
-34.4661473756
 20
-31.3703264689
 10
-34.4350462546
 20
-31.3844373354
  0
LWPOLYLINE
  5
2FA
100
AcDbEntity
  8
COPY_PABLISH
100
AcDbPolyline
 62
250
  6
CONTINUOUS
 90
16
 70
0
 10
-33.6835431474
 20
-33.772341664
 10
-33.6872953797
 20
-33.6741503388
 10
-33.6935441212
 20
-33.5792833739
 10
-33.7022778966
 20
-33.4879153323
 10
-33.7134792392
 20
-33.4002147741
 10
-33.7271289527
 20
-33.3163426474
 10
-33.7432061491
 20
-33.2364519913
 10
-33.7616826517
 20
-33.160689385
 10
-33.7825230503
 20
-33.0891946767
 10
-33.8056889954
 20
-33.0220994282
 10
-33.8311378246
 20
-32.9595271807
 10
-33.8588227357
 20
-32.90159299
 10
-33.8886929007
 20
-32.8484032728
 10
-33.9206934193
 20
-32.8000559037
 10
-33.9547653922
 20
-32.7566399755
 10
-33.9908461431
 20
-32.7182354384
  0
LINE
  5
2FB
100
AcDbEntity
  8
RACCORDO
100
AcDbLine
 62
7
  6
CONTINUOUS
 10
-36.7255336389
 20
4.8112779954
 11
-35.8691433188
 21
-29.6142652714
  0
LINE
  5
2FC
100
AcDbEntity
  8
COPY_PABLISH
100
AcDbLine
 62
7
  6
CONTINUOUS
 10
-36.607605408
 20
5.8156483573
 11
-36.5984686521
 21
5.4483651481
  0
LINE
  5
2FD
100
AcDbEntity
  8
RACCORDO
100
AcDbLine
 62
250
  6
CONTINUOUS
 10
-36.1800847771
 20
4.2669184827
 11
-35.3236943827
 21
-30.1586277738
  0
LWPOLYLINE
  5
2FE
100
AcDbEntity
  8
COPY_PABLISH
100
AcDbPolyline
 62
250
  6
CONTINUOUS
 90
16
 70
0
 10
-34.7598646682
 20
9.4922148329
 10
-34.7586367327
 20
9.3908866263
 10
-34.7599186716
 20
9.286602479
 10
-34.7637081258
 20
9.1795542904
 10
-34.7699981222
 20
9.0699390461
 10
-34.7787770861
 20
8.9579584555
 10
-34.7900288629
 20
8.8438185806
 10
-34.8037327475
 20
8.7277294569
 10
-34.8198635226
 20
8.6099047067
 10
-34.838391505
 20
8.4905611464
 10
-34.8592825781
 20
8.3699185081
 10
-34.8824983166
 20
8.2481986743
 10
-34.9079960798
 20
8.1256252597
 10
-34.9357289967
 20
8.0024236896
 10
-34.9656460292
 20
7.8788207946
 10
-34.9976921437
 20
7.7550440251
  0
LWPOLYLINE
  5
2FF
100
AcDbEntity
  8
RACCORDO
100
AcDbPolyline
 62
250
  6
CONTINUOUS
 90
16
 70
0
 10
-35.4829824584
 20
4.6683857046
 10
-35.4825104398
 20
4.7525482532
 10
-35.4770670116
 20
4.8420253647
 10
-35.4667117607
 20
4.9358367972
 10
-35.4515580887
 20
5.0329548112
 10
-35.4317719698
 20
5.1323154108
 10
-35.4075701359
 20
5.232829999
 10
-35.3792176993
 20
5.3333973452
 10
-35.3470252582
 20
5.4329156011
 10
-35.3113455012
 20
5.5302943565
 10
-35.2725693152
 20
5.624466686
 10
-35.2311215261
 20
5.7144007621
 10
-35.1874562669
 20
5.7991111249
 10
-35.1420519545
 20
5.8776695929
 10
-35.095406042
 20
5.9492154207
 10
-35.0480296019
 20
6.0129646661
  0
LWPOLYLINE
  5
300
100
AcDbEntity
  8
RACCORDO
100
AcDbPolyline
 62
7
  6
CONTINUOUS
 90
9
 70
0
 10
-36.7255336364
 20
4.8112778972
 10
-36.7229262341
 20
4.9463088875
 10
-36.7085761408
 20
5.0780821403
 10
-36.6829703666
 20
5.2056000246
 10
-36.6470084661
 20
5.3271406631
 10
-36.6012750803
 20
5.4427824262
 10
-36.5453364562
 20
5.5540590245
 10
-36.4792871967
 20
5.6603441483
 10
-36.4204176893
 20
5.7398491367
  0
LWPOLYLINE
  5
301
100
AcDbEntity
  8
0
100
AcDbPolyline
 62
7
  6
CONTINUOUS
 90
5
 70
0
 10
-35.353894169
 20
14.5766916096
 10
-35.3323444405
 20
14.9004252524
 10
-35.3104000083
 20
15.2134355813
 10
-35.2880608723
 20
15.5157225962
 10
-35.2652938108
 20
15.806301427
  0
LWPOLYLINE
  5
302
100
AcDbEntity
  8
DRAFT
100
AcDbPolyline
 62
7
  6
CONTINUOUS
 90
13
 70
0
 10
-35.1324151646
 20
14.5068233896
 10
-35.1412538927
 20
14.4033633912
 10
-35.1546083453
 20
14.3005983256
 10
-35.1726354014
 20
14.1987612174
 10
-35.1955919577
 20
14.0977097212
 10
-35.2235457966
 20
13.9980976891
 10
-35.2561940583
 20
13.9012882816
 10
-35.2934837959
 20
13.8074664688
 10
-35.3353732032
 20
13.7168036197
 10
-35.3812338901
 20
13.6304579962
 10
-35.4307095226
 20
13.5486739288
 10
-35.4836729243
 20
13.4712886291
 10
-35.5284452281
 20
13.4125056916
  0
LWPOLYLINE
  5
303
100
AcDbEntity
  8
0
100
AcDbPolyline
 62
7
  6
CONTINUOUS
 90
3
 70
0
 10
-35.2652938108
 20
15.806301427
 10
-35.2186752417
 20
16.358243757
 10
-35.1949677541
 20
16.6225508181
  0
LINE
  5
304
100
AcDbEntity
  8
0
100
AcDbLine
 62
7
  6
CONTINUOUS
 10
-35.1949677541
 20
16.6225508181
 11
-35.1466342628
 21
17.1308465828
  0
LINE
  5
305
100
AcDbEntity
  8
0
100
AcDbLine
 62
7
  6
CONTINUOUS
 10
-35.1466342628
 20
17.1308465828
 11
-35.0970774559
 21
17.6198828619
  0
LINE
  5
306
100
AcDbEntity
  8
0
100
AcDbLine
 62
7
  6
CONTINUOUS
 10
-35.0970774559
 20
17.6198828619
 11
-35.0456952604
 21
18.099775037
  0
LINE
  5
307
100
AcDbEntity
  8
0
100
AcDbLine
 62
7
  6
CONTINUOUS
 10
-35.0456952604
 20
18.099775037
 11
-34.992162919
 21
18.5756881408
  0
LINE
  5
308
100
AcDbEntity
  8
0
100
AcDbLine
 62
7
  6
CONTINUOUS
 10
-34.992162919
 20
18.5756881408
 11
-34.9359477461
 21
19.054108441
  0
LINE
  5
309
100
AcDbEntity
  8
0
100
AcDbLine
 62
7
  6
CONTINUOUS
 10
-34.9359477461
 20
19.054108441
 11
-34.8769510292
 21
19.5357899168
  0
LWPOLYLINE
  5
30A
100
AcDbEntity
  8
ASSI
100
AcDbPolyline
 62
7
  6
CONTINUOUS
 90
13
 70
0
 10
-34.5899791149
 20
19.9820888835
 10
-34.6483207104
 20
19.5273972712
 10
-34.7048501407
 20
19.0682890497
 10
-34.7595674055
 20
18.604764219
 10
-34.8128852484
 20
18.1342342144
 10
-34.864390926
 20
17.6592876006
 10
-34.912846208
 20
17.1876900715
 10
-34.9580097572
 20
16.71970218
 10
-35.0001229109
 20
16.2550633732
 10
-35.0386714503
 20
15.8007576872
 10
-35.0734839693
 20
15.3591131339
 10
-35.1047318741
 20
14.9278017014
 10
-35.1324151646
 20
14.5068233896
  0
LINE
  5
30B
100
AcDbEntity
  8
0
100
AcDbLine
 62
7
  6
CONTINUOUS
 10
-34.8769510292
 20
19.5357899168
 11
-34.8151221406
 21
20.0212500209
  0
LWPOLYLINE
  5
30C
100
AcDbEntity
  8
COPY_PABLISH
100
AcDbPolyline
 62
250
  6
CONTINUOUS
 90
10
 70
0
 10
-33.3644982261
 20
19.5966308239
 10
-33.3252159092
 20
19.8371881313
 10
-33.2693800572
 20
20.0874785343
 10
-33.1975839648
 20
20.344148312
 10
-33.1099063312
 20
20.6053607934
 10
-33.007982515
 20
20.8644740261
 10
-32.8958929167
 20
21.1108093218
 10
-32.7767437633
 20
21.3382718208
 10
-32.6517965643
 20
21.5445449734
 10
-32.5231369363
 20
21.7253656779
  0
LWPOLYLINE
  5
30D
100
AcDbEntity
  8
COPY_PABLISH
100
AcDbPolyline
 62
250
  6
CONTINUOUS
 90
13
 70
0
 10
-34.9976921437
 20
7.7550440251
 10
-35.0158043005
 20
7.6833652414
 10
-35.0317320215
 20
7.6120298187
 10
-35.0453867524
 20
7.5414342193
 10
-35.0566925876
 20
7.4719706865
 10
-35.0655866294
 20
7.4040254219
 10
-35.07201938
 20
7.3379764101
 10
-35.0759550809
 20
7.2741908451
 10
-35.0773718735
 20
7.2130231176
 10
-35.0762618863
 20
7.154813182
 10
-35.072631289
 20
7.0998845559
 10
-35.0665002582
 20
7.0485425215
 10
-35.0579028684
 20
7.0010724269
  0
LWPOLYLINE
  5
30E
100
AcDbEntity
  8
0
100
AcDbPolyline
 62
7
  6
CONTINUOUS
 90
9
 70
0
 10
-35.708602336
 20
13.5982313817
 10
-35.6350895478
 20
13.698788493
 10
-35.5686341735
 20
13.8078234274
 10
-35.5105831378
 20
13.9235316218
 10
-35.4611725819
 20
14.0454134848
 10
-35.4208133849
 20
14.1723009708
 10
-35.3895683728
 20
14.3034029092
 10
-35.3672917302
 20
14.4383859339
 10
-35.353894169
 20
14.5766916096
  0
LWPOLYLINE
  5
30F
100
AcDbEntity
  8
COPY_PABLISH
100
AcDbPolyline
 62
7
  6
CONTINUOUS
 90
10
 70
0
 10
-36.3568112543
 20
6.6211685747
 10
-36.4095271454
 20
6.5491397145
 10
-36.4576562156
 20
6.4704140328
 10
-36.4992352315
 20
6.387633495
 10
-36.534197854
 20
6.3007570317
 10
-36.5626104222
 20
6.2098257124
 10
-36.5841861412
 20
6.1157573991
 10
-36.5988294127
 20
6.0188580458
 10
-36.6066358349
 20
5.9188216986
 10
-36.607605408
 20
5.8156483573
  0
LINE
  5
310
100
AcDbEntity
  8
0
100
AcDbLine
 62
250
  6
CONTINUOUS
 10
-35.1075178489
 20
14.8854355328
 11
-35.353894169
 21
14.5766916096
  0
LINE
  5
311
100
AcDbEntity
  8
0
100
AcDbLine
 62
7
  6
CONTINUOUS
 10
-35.708610366
 20
13.598221319
 11
-35.156458928
 21
14.290144151
  0
LWPOLYLINE
  5
312
100
AcDbEntity
  8
DRAFT
100
AcDbPolyline
 62
7
  6
CONTINUOUS
 90
25
 70
0
 10
-35.5284452281
 20
13.4125056916
 10
-35.5396036994
 20
13.3986781528
 10
-35.5979044751
 20
13.3311313386
 10
-35.6585485216
 20
13.2682317064
 10
-35.7219145488
 20
13.2093157107
 10
-35.7878301554
 20
13.1543848299
 10
-35.8561072432
 20
13.1034523123
 10
-35.9272954026
 20
13.0560453412
 10
-36.0013039303
 20
13.0122414012
 10
-36.0780293301
 20
12.9721294973
 10
-36.1581697778
 20
12.9354480088
 10
-36.241699779
 20
12.9023655186
 10
-36.3285653439
 20
12.8730733709
 10
-36.4195635866
 20
12.8475619876
 10
-36.5152017556
 20
12.8260213494
 10
-36.6149670889
 20
12.8089016399
 10
-36.7181241937
 20
12.7966160253
 10
-36.8247850651
 20
12.7893761365
 10
-36.9345907127
 20
12.7874065167
 10
-37.0459505965
 20
12.7908570561
 10
-37.1585950477
 20
12.7997406914
 10
-37.2723122296
 20
12.8140269352
 10
-37.3854751137
 20
12.8334161015
 10
-37.4973454594
 20
12.8575866482
 10
-37.6081230128
 20
12.8863963455
  0
LINE
  5
313
100
AcDbEntity
  8
DRAFT
100
AcDbLine
 62
7
  6
CONTINUOUS
 10
-35.4930618848
 20
13.4749608008
 11
-35.6293258366
 21
13.3562940879
  0
LWPOLYLINE
  5
314
100
AcDbEntity
  8
COPY_PABLISH
100
AcDbPolyline
 62
250
  6
CONTINUOUS
 90
13
 70
0
 10
8.1208113873
 20
-42.7690270774
 10
8.1785049456
 20
-42.7979665271
 10
8.2395536882
 20
-42.8240584762
 10
8.3036182065
 20
-42.8471579887
 10
8.3703421254
 20
-42.8671367076
 10
8.4393547356
 20
-42.8838837675
 10
8.5102731242
 20
-42.8973063035
 10
8.5827044343
 20
-42.9073298628
 10
8.656244862
 20
-42.9138984689
 10
8.7304824641
 20
-42.9169755567
 10
8.8050035332
 20
-42.9165445094
 10
8.8793950222
 20
-42.9126082446
 10
8.9532436299
 20
-42.9051890852
  0
LINE
  5
315
100
AcDbEntity
  8
0
100
AcDbLine
 62
7
  6
CONTINUOUS
 10
-31.0970655085
 20
25.8859788845
 11
-31.09224349
 21
25.6921413304
  0
LWPOLYLINE
  5
316
100
AcDbEntity
  8
COPY_PABLISH
100
AcDbPolyline
 62
250
  6
CONTINUOUS
 90
10
 70
0
 10
-33.3276282343
 20
-39.8883286749
 10
-33.3436143133
 20
-40.0930657622
 10
-33.3552522804
 20
-40.2956998793
 10
-33.3625709789
 20
-40.4963471764
 10
-33.3656939608
 20
-40.6955287143
 10
-33.3645176441
 20
-40.8929231185
 10
-33.3587749054
 20
-41.0874109524
 10
-33.3484253337
 20
-41.278707763
 10
-33.3335999308
 20
-41.4673275378
 10
-33.3142760446
 20
-41.6532372451
  0
LWPOLYLINE
  5
317
100
AcDbEntity
  8
COPY_PABLISH
100
AcDbPolyline
 62
250
  6
CONTINUOUS
 90
9
 70
0
 10
-34.0837947048
 20
-32.1561941141
 10
-34.0737933316
 20
-32.0763980381
 10
-34.0604301076
 20
-31.9944464928
 10
-34.0438083631
 20
-31.9109731686
 10
-34.0240566307
 20
-31.8266235208
 10
-34.0013276347
 20
-31.7420497857
 10
-33.9757971107
 20
-31.6579059368
 10
-33.9476624679
 20
-31.5748426188
 10
-33.9339570381
 20
-31.5383169793
  0
LINE
  5
318
100
AcDbEntity
  8
0
100
AcDbLine
 62
7
  6
CONTINUOUS
 10
-36.4202458275
 20
5.7400645757
 11
-35.9660733981
 21
6.309206032
  0
LINE
  5
319
100
AcDbEntity
  8
RACCORDO
100
AcDbLine
 62
250
  6
CONTINUOUS
 10
-35.0480294337
 20
6.0129646144
 11
-34.5937896594
 21
6.5821921687
  0
LWPOLYLINE
  5
31A
100
AcDbEntity
  8
COPY_PABLISH
100
AcDbPolyline
 62
7
  6
CONTINUOUS
 90
17
 70
0
 10
-35.9660733924
 20
6.3092060275
 10
-35.9113726588
 20
6.3712872934
 10
-35.8521650217
 20
6.426647085
 10
-35.7871831505
 20
6.4769482028
 10
-35.7172559075
 20
6.5215490415
 10
-35.6423199437
 20
6.5603765818
 10
-35.5624386083
 20
6.5935038431
 10
-35.4786308107
 20
6.6205082774
 10
-35.3908462538
 20
6.6413114529
 10
-35.2991352347
 20
6.6559918016
 10
-35.204667554
 20
6.6643620712
 10
-35.1074078994
 20
6.6663414312
 10
-35.0073915832
 20
6.6620107123
 10
-34.9058943423
 20
6.6514251539
 10
-34.8033414224
 20
6.6346031693
 10
-34.6993075779
 20
6.6115263453
 10
-34.5937928087
 20
6.5821946818
  0
LWPOLYLINE
  5
31B
100
AcDbEntity
  8
COPY_PABLISH
100
AcDbPolyline
 62
7
  6
CONTINUOUS
 90
13
 70
0
 10
-36.3568113
 20
6.6211686112
 10
-36.2996160925
 20
6.6826520122
 10
-36.2303509953
 20
6.737882516
 10
-36.1480883348
 20
6.7865428504
 10
-36.0531619014
 20
6.8275953133
 10
-35.9460884133
 20
6.8601766155
 10
-35.8267652286
 20
6.8835996235
 10
-35.6968300325
 20
6.8968618505
 10
-35.5579778263
 20
6.8993376218
 10
-35.4093107886
 20
6.8904564196
 10
-35.2512115812
 20
6.8693804331
 10
-35.0862638987
 20
6.8357049787
 10
-34.9162847341
 20
6.789281049
  0
LWPOLYLINE
  5
31C
100
AcDbEntity
  8
DRAFT
100
AcDbPolyline
 62
7
  6
CONTINUOUS
 90
10
 70
0
 10
-35.6293258366
 20
13.3562940879
 10
-35.7795389119
 20
13.2537153705
 10
-35.9425809396
 20
13.167947428
 10
-36.1172646676
 20
13.0995530349
 10
-36.302267653
 20
13.0491052253
 10
-36.4962520748
 20
13.0169877266
 10
-36.6977485464
 20
13.0033999942
 10
-36.9051274992
 20
13.0084385944
 10
-37.1167776184
 20
13.0320323403
 10
-37.2721709256
 20
13.0624367805
  0
LWPOLYLINE
  5
31D
100
AcDbEntity
  8
COPY_PABLISH
100
AcDbPolyline
 62
250
  6
CONTINUOUS
 90
10
 70
0
 10
16.1817055032
 20
-25.924126357
 10
15.5471934794
 20
-26.0717753303
 10
14.8977238894
 20
-26.180297278
 10
14.2392567445
 20
-26.2492723708
 10
13.5783759548
 20
-26.278579348
 10
12.9201093373
 20
-26.2685112885
 10
12.2680124435
 20
-26.2194705645
 10
11.6268248847
 20
-26.1317094442
 10
11.0026287727
 20
-26.0059221831
 10
10.4007986679
 20
-25.8431956261
  0
LWPOLYLINE
  5
31E
100
AcDbEntity
  8
COPY_PABLISH
100
AcDbPolyline
 62
250
  6
CONTINUOUS
 90
14
 70
0
 10
-36.8603785323
 20
-28.9557397814
 10
-36.7738228731
 20
-28.9641836563
 10
-36.6862462807
 20
-28.9677729661
 10
-36.598325939
 20
-28.9664798346
 10
-36.5107414771
 20
-28.9603141106
 10
-36.4241704429
 20
-28.9493233548
 10
-36.3392830277
 20
-28.9335926067
 10
-36.2567358985
 20
-28.9132435816
 10
-36.17716716
 20
-28.8884335967
 10
-36.101192123
 20
-28.8593545083
 10
-36.0293983068
 20
-28.8262311914
 10
-35.9623408971
 20
-28.7893197859
 10
-35.9005384537
 20
-28.7489057157
 10
-35.890857801
 20
-28.7413772582
  0
LWPOLYLINE
  5
31F
100
AcDbEntity
  8
COPY_PABLISH
100
AcDbPolyline
 62
250
  6
CONTINUOUS
 90
12
 70
0
 10
3.4507326255
 20
-47.026335888
 10
3.0860972914
 20
-46.6629997122
 10
2.681444424
 20
-46.3166374091
 10
2.3343885037
 20
-46.0552272388
 10
2.02974648
 20
-45.8655624172
 10
1.7254005913
 20
-45.7048819975
 10
1.4088283448
 20
-45.562235925
 10
1.0781226784
 20
-45.4360715001
 10
0.7311627913
 20
-45.3200633909
 10
0.3621767957
 20
-45.2068330599
 10
-0.0398889733
 20
-45.0896330195
 10
-0.9787103337
 20
-44.8225570086
  0
LWPOLYLINE
  5
320
100
AcDbEntity
  8
COPY_PABLISH
100
AcDbPolyline
 62
250
  6
CONTINUOUS
 90
10
 70
0
 10
3.921306002
 20
-46.7754470637
 10
3.5059726416
 20
-46.3247158195
 10
3.0636495828
 20
-45.9034713681
 10
2.5856010072
 20
-45.5167424839
 10
2.0625897299
 20
-45.1683550277
 10
1.4985891126
 20
-44.8550334998
 10
0.9060033091
 20
-44.5694361637
 10
0.2952893117
 20
-44.3031926064
 10
-0.3340318667
 20
-44.0508841426
 10
-0.9827062923
 20
-43.8113620882
  0
LWPOLYLINE
  5
321
100
AcDbEntity
  8
DRAFT
100
AcDbPolyline
 62
7
  6
CONTINUOUS
 90
4
 70
0
 10
-43.5721465026
 20
15.9722907114
 10
-43.5883553139
 20
15.9986290859
 10
-43.6010421161
 20
16.0250489326
 10
-43.6091275978
 20
16.0515031423
  0
LWPOLYLINE
  5
322
100
AcDbEntity
  8
COPY_PABLISH
100
AcDbPolyline
 62
250
  6
CONTINUOUS
 90
8
 70
0
 10
-35.0579028684
 20
7.0010724269
 10
-35.0446556431
 20
6.9504076069
 10
-35.0281455928
 20
6.9058891567
 10
-35.0085003904
 20
6.8678613407
 10
-34.9858719542
 20
6.8366182311
 10
-34.9604352694
 20
6.8124014332
 10
-34.9323870357
 20
6.7953982166
 10
-34.9162844801
 20
6.789280971
  0
LINE
  5
323
100
AcDbEntity
  8
0
100
AcDbLine
 62
7
  6
CONTINUOUS
 10
-28.3113929887
 20
24.5720270479
 11
-28.3066014802
 21
24.3794159475
  0
LWPOLYLINE
  5
324
100
AcDbEntity
  8
COPY_PABLISH
100
AcDbPolyline
 62
7
  6
CONTINUOUS
 90
4
 70
0
 10
-26.3057742313
 20
-47.5954553712
 10
-26.3078910787
 20
-47.7515983378
 10
-26.2932309014
 20
-47.8855172279
 10
-26.2624350128
 20
-47.9924076474
  0
LWPOLYLINE
  5
325
100
AcDbEntity
  8
COPY_PABLISH
100
AcDbPolyline
 62
250
  6
CONTINUOUS
 90
5
 70
0
 10
-39.0592970856
 20
-39.5513539821
 10
-39.0916398702
 20
-39.6522779795
 10
-39.1033573359
 20
-39.7229823486
 10
-39.094545716
 20
-39.7629130531
 10
-39.0882957576
 20
-39.7685808124
  0
LINE
  5
326
100
AcDbEntity
  8
0
100
AcDbLine
 62
7
  6
CONTINUOUS
 10
-21.3846338811
 20
9.3595126096
 11
-21.1669851422
 21
9.8671065206
  0
LINE
  5
327
100
AcDbEntity
  8
0
100
AcDbLine
 62
7
  6
CONTINUOUS
 10
-21.1669851422
 20
9.8671065206
 11
-20.9471242085
 21
10.3746161604
  0
LINE
  5
328
100
AcDbEntity
  8
0
100
AcDbLine
 62
7
  6
CONTINUOUS
 10
-20.9471242085
 20
10.3746161604
 11
-20.7251049857
 21
10.8819544044
  0
LWPOLYLINE
  5
329
100
AcDbEntity
  8
0
100
AcDbPolyline
 62
7
  6
CONTINUOUS
 90
3
 70
0
 10
-20.7251049857
 20
10.8819544044
 10
-20.5011430969
 20
11.3887727543
 10
-20.3884201764
 20
11.64200875
  0
LINE
  5
32A
100
AcDbEntity
  8
0
100
AcDbLine
 62
7
  6
CONTINUOUS
 10
-22.8146103609
 20
12.3943013629
 11
-22.791433398
 21
12.4233453329
  0
LINE
  5
32B
100
AcDbEntity
  8
0
100
AcDbLine
 62
7
  6
CONTINUOUS
 10
-22.0590073248
 20
12.1599157693
 11
-22.0358330426
 21
12.18895638
  0
LINE
  5
32C
100
AcDbEntity
  8
0
100
AcDbLine
 62
7
  6
CONTINUOUS
 10
-20.3884201764
 20
11.64200875
 11
-20.3652513525
 21
11.6710425207
  0
LWPOLYLINE
  5
32D
100
AcDbEntity
  8
COPY_PABLISH
100
AcDbPolyline
 62
250
  6
CONTINUOUS
 90
16
 70
0
 10
5.5548832988
 20
-44.8623458327
 10
5.5909640513
 20
-44.9007503704
 10
5.6250360254
 20
-44.9441662992
 10
5.6570365449
 20
-44.9925136689
 10
5.6869067106
 20
-45.0457033865
 10
5.714591622
 20
-45.1036375775
 10
5.7400404513
 20
-45.1662098252
 10
5.7632063965
 20
-45.233305074
 10
5.7840467952
 20
-45.3047997823
 10
5.8025232976
 20
-45.3805623886
 10
5.8186033151
 20
-45.460453911
 10
5.8322558495
 20
-45.5443269039
 10
5.8434515479
 20
-45.6320257286
 10
5.8521683922
 20
-45.7233885706
 10
5.8583917376
 20
-45.8182477362
 10
5.8621101086
 20
-45.9164286623
  0
LWPOLYLINE
  5
32E
100
AcDbEntity
  8
COPY_PABLISH
100
AcDbPolyline
 62
250
  6
CONTINUOUS
 90
6
 70
0
 10
13.6067408429
 20
-55.7199550944
 10
13.7413540417
 20
-55.8744958184
 10
13.8837587877
 20
-55.9940336348
 10
14.031927932
 20
-56.0777879442
 10
14.1847333969
 20
-56.1251456121
 10
14.3087252283
 20
-56.1358138875
  0
LWPOLYLINE
  5
32F
100
AcDbEntity
  8
COPY_PABLISH
100
AcDbPolyline
 62
250
  6
CONTINUOUS
 90
13
 70
0
 10
-38.3960592291
 20
5.7978764463
 10
-38.3607908121
 20
5.7569478334
 10
-38.3207286277
 20
5.7178635086
 10
-38.2760947371
 20
5.6808408709
 10
-38.2271359911
 20
5.6460854703
 10
-38.1741245393
 20
5.6137912273
 10
-38.1173568315
 20
5.584139024
 10
-38.0571494187
 20
5.5572940926
 10
-37.9938359938
 20
5.5334051088
 10
-37.9277676485
 20
5.5126046162
 10
-37.8593112206
 20
5.4950082697
 10
-37.7888473697
 20
5.480714072
 10
-37.7167676828
 20
5.46980159
  0
LWPOLYLINE
  5
330
100
AcDbEntity
  8
0
100
AcDbPolyline
 62
7
  6
CONTINUOUS
 90
10
 70
0
 10
-18.5480698843
 20
7.4001233676
 10
-18.5358235776
 20
7.8031406105
 10
-18.5211021545
 20
8.2067700981
 10
-18.503905615
 20
8.6110118305
 10
-18.4842030177
 20
9.0159533934
 10
-18.462025304
 20
9.4215072011
 10
-18.4374652981
 20
9.8274104962
 10
-18.4105539416
 20
10.2335756927
 10
-18.3812602929
 20
10.6400903767
 10
-18.3495843521
 20
11.0469545479
  0
LWPOLYLINE
  5
331
100
AcDbEntity
  8
0
100
AcDbPolyline
 62
7
  6
CONTINUOUS
 90
10
 70
0
 10
-19.3275859257
 20
7.6045185466
 10
-19.3152563508
 20
8.0080767812
 10
-19.3004602444
 20
8.4121262618
 10
-19.2831976064
 20
8.8166669885
 10
-19.2634358316
 20
9.2217868673
 10
-19.2412075252
 20
9.6273979921
 10
-19.2166105032
 20
10.0332366452
 10
-19.1896773708
 20
10.4392149205
 10
-19.1603755228
 20
10.8454207241
 10
-19.1287049592
 20
11.2518540559
  0
LWPOLYLINE
  5
332
100
AcDbEntity
  8
0
100
AcDbPolyline
 62
7
  6
CONTINUOUS
 90
10
 70
0
 10
-18.3727477057
 20
11.0179276322
 10
-18.4043852295
 20
10.6109109843
 10
-18.433639471
 20
10.2042957597
 10
-18.4605104301
 20
9.7980819585
 10
-18.4850280977
 20
9.3921839064
 10
-18.507162483
 20
8.9866872778
 10
-18.5268236128
 20
8.5818490951
 10
-18.5439814962
 20
8.1777550326
 10
-18.5586661242
 20
7.774319416
 10
-18.5708774967
 20
7.3715422453
  0
LWPOLYLINE
  5
333
100
AcDbEntity
  8
COPY_PABLISH
100
AcDbPolyline
 62
250
  6
CONTINUOUS
 90
10
 70
0
 10
-25.1230735311
 20
-37.4295450885
 10
-25.1045942545
 20
-37.3114558819
 10
-25.0883886747
 20
-37.1943253526
 10
-25.0745177913
 20
-37.0783873286
 10
-25.0630229438
 20
-36.9636953344
 10
-25.0539820774
 20
-36.8506782053
 10
-25.0474691594
 20
-36.7401029888
 10
-25.0434969455
 20
-36.6323439432
 10
-25.0420573297
 20
-36.5274187864
 10
-25.0431495779
 20
-36.4255187824
  0
LWPOLYLINE
  5
334
100
AcDbEntity
  8
COPY_PABLISH
100
AcDbPolyline
 62
250
  6
CONTINUOUS
 90
10
 70
0
 10
-25.1234155983
 20
-37.4319568972
 10
-25.3100663059
 20
-38.5988641562
 10
-25.4831738115
 20
-39.7584619216
 10
-25.6426022252
 20
-40.9100024742
 10
-25.7882381308
 20
-42.0532520822
 10
-25.9199357371
 20
-43.1869483156
 10
-26.0375781394
 20
-44.3088471538
 10
-26.1411227744
 20
-45.4177648816
 10
-26.2305402633
 20
-46.5135318697
 10
-26.3058022387
 20
-47.5954824237
  0
LWPOLYLINE
  5
335
100
AcDbEntity
  8
0
100
AcDbPolyline
 62
7
  6
CONTINUOUS
 90
10
 70
0
 10
-19.6326156478
 20
11.4078770442
 10
-19.7951551708
 20
11.0422702746
 10
-19.9563771396
 20
10.6770647298
 10
-20.1162815539
 20
10.3122604101
 10
-20.274916384
 20
9.9477789667
 10
-20.4322336598
 20
9.5836987482
 10
-20.588089471
 20
9.2202548006
 10
-20.7424358476
 20
8.8575254724
 10
-20.8953207597
 20
8.4954324149
 10
-21.0467442072
 20
8.1339756282
  0
LINE
  5
336
100
AcDbEntity
  8
0
100
AcDbLine
 62
7
  6
CONTINUOUS
 10
-19.6326156478
 20
11.4078770442
 11
-19.6094490395
 21
11.4369080385
  0
LINE
  5
337
100
AcDbEntity
  8
0
100
AcDbLine
 62
7
  6
CONTINUOUS
 10
-19.1287049592
 20
11.2518540559
 11
-19.105539724
 21
11.2808833295
  0
LINE
  5
338
100
AcDbEntity
  8
0
100
AcDbLine
 62
7
  6
CONTINUOUS
 10
-21.0467442072
 20
8.1339756282
 11
-21.0239336628
 21
8.1625604247
  0
LINE
  5
339
100
AcDbEntity
  8
0
100
AcDbLine
 62
7
  6
CONTINUOUS
 10
-18.3727477057
 20
11.0179276322
 11
-18.3495843521
 21
11.0469545479
  0
LINE
  5
33A
100
AcDbEntity
  8
0
100
AcDbLine
 62
7
  6
CONTINUOUS
 10
-17.6166927007
 20
10.7841681736
 11
-17.5935309839
 21
10.8131930381
  0
LINE
  5
33B
100
AcDbEntity
  8
0
100
AcDbLine
 62
7
  6
CONTINUOUS
 10
-16.4733838288
 20
10.4311680116
 11
-16.4502240191
 21
10.4601904863
  0
LINE
  5
33C
100
AcDbEntity
  8
0
100
AcDbLine
 62
7
  6
CONTINUOUS
 10
-18.5708774967
 20
7.3715422453
 11
-18.5480698843
 21
7.4001233676
  0
LWPOLYLINE
  5
33D
100
AcDbEntity
  8
0
100
AcDbPolyline
 62
7
  6
CONTINUOUS
 90
15
 70
0
 10
14.277174407
 20
40.9185876913
 10
14.5188017336
 20
41.1487157411
 10
14.7446122885
 20
41.3854433136
 10
14.9533206216
 20
41.6274228127
 10
15.1448291919
 20
41.8746841924
 10
15.3192355404
 20
42.1271974987
 10
15.4755468411
 20
42.3835252735
 10
15.6136598901
 20
42.6436892724
 10
15.7336778913
 20
42.9076677398
 10
15.8349176298
 20
43.173957951
 10
15.9172720052
 20
43.4425730909
 10
15.9808481178
 20
43.7134999746
 10
16.0252840541
 20
43.9851963228
 10
16.0504706496
 20
44.2576665242
 10
16.0565039217
 20
44.5358386062
  0
LWPOLYLINE
  5
33E
100
AcDbEntity
  8
COPY_PABLISH
100
AcDbPolyline
 62
250
  6
CONTINUOUS
 90
10
 70
0
 10
-39.2984984967
 20
-10.5810229515
 10
-39.8709464094
 20
-10.3832243373
 10
-40.4105144932
 20
-10.1517521268
 10
-40.912374665
 20
-9.8884642745
 10
-41.3722934778
 20
-9.5954424448
 10
-41.7861611786
 20
-9.2751172175
 10
-42.149798253
 20
-8.9302681804
 10
-42.4598121017
 20
-8.5638185386
 10
-42.713263425
 20
-8.1787788315
 10
-42.907508757
 20
-7.7783990133
  0
LWPOLYLINE
  5
33F
100
AcDbEntity
  8
DRAFT
100
AcDbPolyline
 62
7
  6
CONTINUOUS
 90
4
 70
0
 10
-43.503467325
 20
15.8938115301
 10
-43.5298823934
 20
15.919889785
 10
-43.5527754526
 20
15.9460495121
 10
-43.5721465026
 20
15.9722907114
  0
LWPOLYLINE
  5
340
100
AcDbEntity
  8
DRAFT
100
AcDbPolyline
 62
7
  6
CONTINUOUS
 90
3
 70
0
 10
-43.0105049796
 20
15.4098387191
 10
-43.1882653452
 20
15.5958064142
 10
-43.3606943739
 20
15.7943692431
  0
LWPOLYLINE
  5
341
100
AcDbEntity
  8
0
100
AcDbPolyline
 62
7
  6
CONTINUOUS
 90
10
 70
0
 10
-21.8034196959
 20
8.367037677
 10
-21.9299626029
 20
8.8155276616
 10
-22.0529392672
 20
9.2638364926
 10
-22.172349689
 20
9.71196417
 10
-22.2881683407
 20
10.1600079029
 10
-22.4004207499
 20
10.6078704822
 10
-22.5091834983
 20
11.0552602805
 10
-22.6144821132
 20
11.5020800889
 10
-22.7162910675
 20
11.9484271163
 10
-22.8146103609
 20
12.3943013629
  0
LWPOLYLINE
  5
342
100
AcDbEntity
  8
0
100
AcDbPolyline
 62
7
  6
CONTINUOUS
 90
10
 70
0
 10
-22.0590073248
 20
12.1599157693
 10
-21.9910732598
 20
11.8508134524
 10
-21.921396732
 20
11.5411717977
 10
-21.8499777412
 20
11.2309908052
 10
-21.7768251094
 20
10.9202358877
 10
-21.7019300146
 20
10.6089416325
 10
-21.625265991
 20
10.2972118009
 10
-21.5468242166
 20
9.9850809802
 10
-21.4666135133
 20
9.6725145831
 10
-21.3846338811
 20
9.3595126096
  0
LWPOLYLINE
  5
343
100
AcDbEntity
  8
0
100
AcDbPolyline
 62
250
  6
CONTINUOUS
 90
5
 70
0
 10
-14.9754278478
 20
6.569235723
 10
-14.9946843153
 20
5.7633675786
 10
-15.0030356836
 20
4.9695954963
 10
-15.0004733901
 20
4.1883759671
 10
-14.9869911958
 20
3.4201572243
  0
LWPOLYLINE
  5
344
100
AcDbEntity
  8
0
100
AcDbPolyline
 62
7
  6
CONTINUOUS
 90
10
 70
0
 10
-14.8691764756
 20
6.2330025834
 10
-14.8618644654
 20
6.4922051668
 10
-14.8534426246
 20
6.7525528362
 10
-14.8439109532
 20
7.0140455917
 10
-14.8332679586
 20
7.2767100737
 10
-14.8215151334
 20
7.5405196418
 10
-14.8086569557
 20
7.8053943745
 10
-14.7946949181
 20
8.0713076313
 10
-14.7796275278
 20
8.3382860528
 10
-14.763454785
 20
8.6063296389
  0
LWPOLYLINE
  5
345
100
AcDbEntity
  8
0
100
AcDbPolyline
 62
7
  6
CONTINUOUS
 90
8
 70
0
 10
-17.0345646559
 20
6.9342930989
 10
-17.0270710493
 20
7.1949056562
 10
-17.0184901038
 20
7.4563385753
 10
-17.0088218193
 20
7.718591856
 10
-16.9980625257
 20
7.9816941326
 10
-16.9862158932
 20
8.2456167709
 10
-16.9732929321
 20
8.510273868
 10
-16.9592973126
 20
8.7756367896
  0
LWPOLYLINE
  5
346
100
AcDbEntity
  8
0
100
AcDbPolyline
 62
7
  6
CONTINUOUS
 90
10
 70
0
 10
-14.0891575385
 20
6.0292288083
 10
-14.0773910466
 20
6.4269413979
 10
-14.0630910512
 20
6.8265201977
 10
-14.0462575521
 20
7.2279652077
 10
-14.0268768504
 20
7.6313484451
 10
-14.004962645
 20
8.0365978928
 10
-13.9805560333
 20
8.4434974989
 10
-13.9536707141
 20
8.851975246
 10
-13.9242929884
 20
9.2621031514
 10
-13.8924228564
 20
9.6738812152
  0
LWPOLYLINE
  5
347
100
AcDbEntity
  8
0
100
AcDbPolyline
 62
7
  6
CONTINUOUS
 90
10
 70
0
 10
-17.8141554077
 20
7.13860345
 10
-17.8020663544
 20
7.5404196536
 10
-17.7874942993
 20
7.9431095463
 10
-17.7704392422
 20
8.3466731281
 10
-17.7508742634
 20
8.7511931367
 10
-17.7288262826
 20
9.1565868344
 10
-17.70437606
 20
9.5626060083
 10
-17.6775505154
 20
9.9691679206
 10
-17.648322729
 20
10.376355309
 10
-17.6166927007
 20
10.7841681736
  0
LWPOLYLINE
  5
348
100
AcDbEntity
  8
0
100
AcDbPolyline
 62
250
  6
CONTINUOUS
 90
3
 70
0
 10
-14.9042776061
 20
8.2154178617
 10
-14.9452843134
 20
7.3867407488
 10
-14.9754278478
 20
6.569235723
  0
LINE
  5
349
100
AcDbEntity
  8
0
100
AcDbLine
 62
250
  6
CONTINUOUS
 10
-14.9107725124
 20
8.4723415214
 11
-14.9272466671
 21
8.1866203709
  0
LWPOLYLINE
  5
34A
100
AcDbEntity
  8
0
100
AcDbPolyline
 62
7
  6
CONTINUOUS
 90
10
 70
0
 10
-16.9510836681
 20
9.2797355525
 10
-16.9672048821
 20
9.0129220638
 10
-16.9822509167
 20
8.7468457774
 10
-16.996221772
 20
8.4815066932
 10
-17.0091210606
 20
8.2168766392
 10
-17.0209451699
 20
7.9529837875
 10
-17.0316832613
 20
7.6899126539
 10
-17.0413317223
 20
7.4276914106
 10
-17.0498941655
 20
7.1662918855
 10
-17.0573705909
 20
6.9057140786
  0
LINE
  5
34B
100
AcDbEntity
  8
0
100
AcDbLine
 62
7
  6
CONTINUOUS
 10
-16.9592973126
 20
8.7756367896
 11
-16.9344912037
 21
9.2025800668
  0
LWPOLYLINE
  5
34C
100
AcDbEntity
  8
0
100
AcDbPolyline
 62
7
  6
CONTINUOUS
 90
10
 70
0
 10
-13.9155818776
 20
9.6448597286
 10
-13.9474046835
 20
9.2330631759
 10
-13.9767367862
 20
8.8229347617
 10
-14.0035781858
 20
8.4144744861
 10
-14.0279421983
 20
8.0076116992
 10
-14.0498155076
 20
7.6024170509
 10
-14.069158165
 20
7.1991024906
 10
-14.0859568543
 20
6.7977386681
 10
-14.1002248917
 20
6.3982549336
 10
-14.1119622773
 20
6.0006512871
  0
LWPOLYLINE
  5
34D
100
AcDbEntity
  8
0
100
AcDbPolyline
 62
250
  6
CONTINUOUS
 90
6
 70
0
 10
-14.8094562304
 20
9.9190427366
 10
-14.8322396969
 20
9.627353088
 10
-14.8537650297
 20
9.3368191573
 10
-14.8740302154
 20
9.0474599705
 10
-14.8930332738
 20
8.7592944344
 10
-14.9107725124
 20
8.4723415214
  0
LWPOLYLINE
  5
34E
100
AcDbEntity
  8
0
100
AcDbPolyline
 62
250
  6
CONTINUOUS
 90
7
 70
0
 10
-14.4028450495
 20
13.626336959
 10
-14.4799075585
 20
13.0023744668
 10
-14.5517261571
 20
12.3825527013
 10
-14.6182862982
 20
11.7670423458
 10
-14.6795746382
 20
11.1560122366
 10
-14.7355797979
 20
10.549630258
 10
-14.7862912357
 20
9.9480620662
  0
LWPOLYLINE
  5
34F
100
AcDbEntity
  8
COPY_PABLISH
100
AcDbPolyline
 62
250
  6
CONTINUOUS
 90
10
 70
0
 10
-14.4028450495
 20
13.626336959
 10
-14.3628511076
 20
13.8792403226
 10
-14.3063650161
 20
14.1409172996
 10
-14.2343090303
 20
14.4073160369
 10
-14.1468521255
 20
14.676526613
 10
-14.0458647495
 20
14.9410097343
 10
-13.9359892899
 20
15.1886055758
 10
-13.8205693952
 20
15.413194873
 10
-13.7005926866
 20
15.6136555652
 10
-13.5778946923
 20
15.786814156
  0
LINE
  5
350
100
AcDbEntity
  8
0
100
AcDbLine
 62
7
  6
CONTINUOUS
 10
-15.5621165763
 20
6.4814710323
 11
-15.4197462509
 21
6.863823902
  0
LINE
  5
351
100
AcDbEntity
  8
0
100
AcDbLine
 62
7
  6
CONTINUOUS
 10
-15.3705777399
 20
7.0270360912
 11
-15.5849210083
 21
6.4528938954
  0
LINE
  5
352
100
AcDbEntity
  8
0
100
AcDbLine
 62
7
  6
CONTINUOUS
 10
-15.4197462509
 20
6.863823902
 11
-15.2751686919
 21
7.247929903
  0
LINE
  5
353
100
AcDbEntity
  8
0
100
AcDbLine
 62
7
  6
CONTINUOUS
 10
-15.151297944
 20
7.6050624262
 11
-15.3705777399
 21
7.0270360912
  0
LINE
  5
354
100
AcDbEntity
  8
0
100
AcDbLine
 62
7
  6
CONTINUOUS
 10
-15.2751686919
 20
7.247929903
 11
-15.1284019172
 21
7.6337505842
  0
LINE
  5
355
100
AcDbEntity
  8
0
100
AcDbLine
 62
7
  6
CONTINUOUS
 10
-15.1284019172
 20
7.6337505842
 11
-14.9795179988
 21
8.0211321416
  0
LINE
  5
356
100
AcDbEntity
  8
0
100
AcDbLine
 62
7
  6
CONTINUOUS
 10
-15.9186257787
 20
7.8104499718
 11
-15.7338935022
 21
8.290957664
  0
LINE
  5
357
100
AcDbEntity
  8
0
100
AcDbLine
 62
7
  6
CONTINUOUS
 10
-14.9272501263
 20
8.1866115774
 11
-15.151297944
 21
7.6050624262
  0
LINE
  5
358
100
AcDbEntity
  8
0
100
AcDbLine
 62
7
  6
CONTINUOUS
 10
-15.7338935022
 20
8.290957664
 11
-15.5456899516
 21
8.7745185862
  0
LINE
  5
359
100
AcDbEntity
  8
0
100
AcDbLine
 62
7
  6
CONTINUOUS
 10
-14.763454785
 20
8.6063296389
 11
-14.9272501263
 21
8.1866115774
  0
LINE
  5
35A
100
AcDbEntity
  8
0
100
AcDbLine
 62
7
  6
CONTINUOUS
 10
-14.9795179988
 20
8.0211321416
 11
-14.7655841255
 21
8.5710384048
  0
LINE
  5
35B
100
AcDbEntity
  8
0
100
AcDbLine
 62
7
  6
CONTINUOUS
 10
-15.5456899516
 20
8.7745185862
 11
-15.354042313
 21
9.2610727157
  0
LWPOLYLINE
  5
35C
100
AcDbEntity
  8
0
100
AcDbPolyline
 62
7
  6
CONTINUOUS
 90
3
 70
0
 10
-15.354042313
 20
9.2610727157
 10
-15.1590593309
 20
9.7503799615
 10
-15.0603102896
 20
9.9960810086
  0
LWPOLYLINE
  5
35D
100
AcDbEntity
  8
0
100
AcDbPolyline
 62
7
  6
CONTINUOUS
 90
10
 70
0
 10
-13.6070995971
 20
5.8458212771
 10
-13.4572550311
 20
6.2039829843
 10
-13.3055871272
 20
6.563566143
 10
-13.1520958856
 20
6.9245707533
 10
-12.9967409201
 20
7.2870676839
 10
-12.8395626168
 20
7.6509860661
 10
-12.6806821337
 20
8.0161132938
 10
-12.5201398566
 20
8.3823784984
 10
-12.3578953997
 20
8.7498525486
 10
-12.1939487629
 20
9.1185354443
  0
LWPOLYLINE
  5
35E
100
AcDbEntity
  8
0
100
AcDbPolyline
 62
7
  6
CONTINUOUS
 90
3
 70
0
 10
-12.5882343191
 20
6.2367050873
 10
-12.6176308701
 20
6.1671103953
 10
-12.8497399593
 20
5.6136616216
  0
LINE
  5
35F
100
AcDbEntity
  8
0
100
AcDbLine
 62
7
  6
CONTINUOUS
 10
-12.3050751067
 20
6.8768699373
 11
-12.1160917905
 21
7.3158835697
  0
LINE
  5
360
100
AcDbEntity
  8
0
100
AcDbLine
 62
7
  6
CONTINUOUS
 10
-12.0435772566
 20
7.5074005268
 11
-12.3279849578
 21
6.8481606957
  0
LINE
  5
361
100
AcDbEntity
  8
0
100
AcDbLine
 62
7
  6
CONTINUOUS
 10
-12.1160917905
 20
7.3158835697
 11
-11.9725166642
 21
7.6467486093
  0
LINE
  5
362
100
AcDbEntity
  8
0
100
AcDbLine
 62
7
  6
CONTINUOUS
 10
-11.8989582491
 20
7.8392157457
 11
-12.0435772566
 21
7.5074005268
  0
LWPOLYLINE
  5
363
100
AcDbEntity
  8
RACCORDO
100
AcDbPolyline
 62
250
  6
CONTINUOUS
 90
24
 70
0
 10
9.5171209602
 20
46.8625111225
 10
9.5980391904
 20
47.0029618095
 10
9.6647864921
 20
47.1459385014
 10
9.7172685903
 20
47.291235287
 10
9.755282234
 20
47.4385309379
 10
9.7785387107
 20
47.5870415316
 10
9.7868954438
 20
47.7358644172
 10
9.7803888772
 20
47.8842164175
 10
9.7591148822
 20
48.0317426169
 10
9.7231153397
 20
48.1781780261
 10
9.672414651
 20
48.3231384746
 10
9.6072029502
 20
48.465877588
 10
9.5278405074
 20
48.6056005979
 10
9.4347692706
 20
48.7416397752
 10
9.3283033095
 20
48.8736295633
 10
9.2087076844
 20
49.0012481931
 10
9.0762877554
 20
49.1241120731
 10
8.9316363928
 20
49.2416193505
 10
8.7755210009
 20
49.3531537497
 10
8.6075928548
 20
49.4588810379
 10
8.4293809168
 20
49.5577599816
 10
8.2451320444
 20
49.6478087097
 10
8.0572891079
 20
49.7286105544
 10
7.8658708742
 20
49.8008843426
  0
LINE
  5
364
100
AcDbEntity
  8
0
100
AcDbLine
 62
7
  6
CONTINUOUS
 10
-15.0603102896
 20
9.9960810086
 11
-15.0371515114
 21
10.0251021906
  0
LINE
  5
365
100
AcDbEntity
  8
0
100
AcDbLine
 62
7
  6
CONTINUOUS
 10
-17.0573705909
 20
6.9057140786
 11
-17.0345646559
 21
6.9342930989
  0
LINE
  5
366
100
AcDbEntity
  8
0
100
AcDbLine
 62
7
  6
CONTINUOUS
 10
-13.9155818776
 20
9.6448597286
 11
-13.8924228564
 21
9.6738812152
  0
LINE
  5
367
100
AcDbEntity
  8
0
100
AcDbLine
 62
7
  6
CONTINUOUS
 10
-15.5849210083
 20
6.4528938954
 11
-15.5621165763
 21
6.4814710323
  0
LINE
  5
368
100
AcDbEntity
  8
0
100
AcDbLine
 62
7
  6
CONTINUOUS
 10
-12.1939487629
 20
9.1185354443
 11
-12.1707874226
 21
9.1475598371
  0
LINE
  5
369
100
AcDbEntity
  8
0
100
AcDbLine
 62
7
  6
CONTINUOUS
 10
-14.1119622773
 20
6.0006512871
 11
-14.0891575385
 21
6.0292288083
  0
LINE
  5
36A
100
AcDbEntity
  8
0
100
AcDbLine
 62
7
  6
CONTINUOUS
 10
-11.4358369301
 20
8.887250644
 11
-11.4126740225
 21
8.9162770008
  0
LINE
  5
36B
100
AcDbEntity
  8
0
100
AcDbLine
 62
7
  6
CONTINUOUS
 10
-12.3279849578
 20
6.8481606957
 11
-12.3050751067
 21
6.8768699373
  0
LWPOLYLINE
  5
36C
100
AcDbEntity
  8
0
100
AcDbPolyline
 62
7
  6
CONTINUOUS
 90
7
 70
0
 10
28.5504865489
 20
39.7049330865
 10
28.5434319468
 20
39.7002595624
 10
28.5310580505
 20
39.6931914356
 10
28.5133883078
 20
39.6845285001
 10
28.4903998735
 20
39.6749369829
 10
28.4622828569
 20
39.6650970992
 10
28.4292008245
 20
39.6556028104
  0
LINE
  5
36D
100
AcDbEntity
  8
0
100
AcDbLine
 62
7
  6
CONTINUOUS
 10
-43.4708354244
 20
15.9607215365
 11
-43.523498799
 21
16.0022395831
  0
LWPOLYLINE
  5
36E
100
AcDbEntity
  8
0
100
AcDbPolyline
 62
7
  6
CONTINUOUS
 90
8
 70
0
 10
-43.0650097638
 20
15.6995589129
 10
-42.8569310342
 20
15.5084257841
 10
-42.6454531366
 20
15.3302946355
 10
-42.430576071
 20
15.165165467
 10
-42.2104427935
 20
15.0139570712
 10
-41.986910348
 20
14.8757506555
 10
-41.765549867
 20
14.7477898423
 10
-41.5489744874
 20
14.6308385491
  0
LWPOLYLINE
  5
36F
100
AcDbEntity
  8
0
100
AcDbPolyline
 62
7
  6
CONTINUOUS
 90
5
 70
0
 10
-43.523498799
 20
16.0022395831
 10
-43.5664319525
 20
16.042785589
 10
-43.599634885
 20
16.082359554
 10
-43.6234477268
 20
16.1211832662
 10
-43.6375303476
 20
16.1590349376
  0
LINE
  5
370
100
AcDbEntity
  8
COPY_PABLISH
100
AcDbLine
 62
250
  6
CONTINUOUS
 10
7.2651407819
 20
-53.1726138036
 11
6.8408127235
 21
-52.2236639607
  0
LWPOLYLINE
  5
371
100
AcDbEntity
  8
COPY_PABLISH
100
AcDbPolyline
 62
250
  6
CONTINUOUS
 90
5
 70
0
 10
7.7393255739
 20
-54.2670150317
 10
7.6505113835
 20
-54.0568859801
 10
7.5587135119
 20
-53.8424106777
 10
7.4639135417
 20
-53.6236721377
 10
7.2651407819
 20
-53.1726138036
  0
LWPOLYLINE
  5
372
100
AcDbEntity
  8
0
100
AcDbPolyline
 62
7
  6
CONTINUOUS
 90
10
 70
0
 10
-21.3657750099
 20
9.4036083002
 10
-21.4437508853
 20
9.7014505894
 10
-21.5239759958
 20
10.0142139234
 10
-21.6024165053
 20
10.3264903698
 10
-21.6790631507
 20
10.6383157818
 10
-21.753925195
 20
10.9496543064
 10
-21.8270304275
 20
11.2603983843
 10
-21.8983881111
 20
11.5705121627
 10
-21.9679889828
 20
11.8800314946
 10
-22.0358330426
 20
12.18895638
  0
LWPOLYLINE
  5
373
100
AcDbEntity
  8
0
100
AcDbPolyline
 62
7
  6
CONTINUOUS
 90
10
 70
0
 10
-16.3418227884
 20
6.6855995176
 10
-16.4143934489
 20
6.9699316314
 10
-16.4857490742
 20
7.2552604039
 10
-16.5558896643
 20
7.541585835
 10
-16.6248201748
 20
7.8289350617
 10
-16.6925356502
 20
8.1172809471
 10
-16.7590212238
 20
8.4065420799
 10
-16.8242719403
 20
8.6966913233
 10
-16.888292755
 20
8.9877558141
 10
-16.9510836681
 20
9.2797355525
  0
LWPOLYLINE
  5
374
100
AcDbEntity
  8
0
100
AcDbPolyline
 62
7
  6
CONTINUOUS
 90
10
 70
0
 10
-15.9002059293
 20
7.8585114767
 10
-15.9627597583
 20
8.1291670028
 10
-16.0284338641
 20
8.4195120175
 10
-16.092751669
 20
8.7101774353
 10
-16.1557114013
 20
9.0011894756
 10
-16.2173148328
 20
9.2925219189
 10
-16.2775672788
 20
9.5840961074
 10
-16.3364705111
 20
9.8758858218
 10
-16.3940227578
 20
10.1679172814
 10
-16.4502240191
 20
10.4601904863
  0
LWPOLYLINE
  5
375
100
AcDbEntity
  8
0
100
AcDbPolyline
 62
7
  6
CONTINUOUS
 90
10
 70
0
 10
-16.4733838288
 20
10.4311680116
 10
-16.4171177571
 20
10.1387920671
 10
-16.359509369
 20
9.8466933768
 10
-16.3005586645
 20
9.5548719405
 10
-16.2402671256
 20
9.2633024135
 10
-16.1786332703
 20
8.9720101406
 10
-16.1156526526
 20
8.6810711565
 10
-16.0513237904
 20
8.3905108061
 10
-15.9856481658
 20
8.1003037446
 10
-15.9186257787
 20
7.8104499718
  0
LWPOLYLINE
  5
376
100
AcDbEntity
  8
0
100
AcDbPolyline
 62
7
  6
CONTINUOUS
 90
10
 70
0
 10
-9.91273603
 20
4.713982617
 10
-9.9002952312
 20
5.1180569527
 10
-9.8853913089
 20
5.5225239116
 10
-9.8680242631
 20
5.9273834936
 10
-9.8481597484
 20
6.3327252867
 10
-9.8258321103
 20
6.7384597029
 10
-9.801144385
 20
7.144317979
 10
-9.774130918
 20
7.5502105272
 10
-9.7447573639
 20
7.9562269353
 10
-9.7130237227
 20
8.3623672033
  0
LINE
  5
377
100
AcDbEntity
  8
0
100
AcDbLine
 62
7
  6
CONTINUOUS
 10
-9.1459938178
 20
4.7869466879
 11
-9.1551947965
 21
4.4820258553
  0
LINE
  5
378
100
AcDbEntity
  8
0
100
AcDbLine
 62
7
  6
CONTINUOUS
 10
-9.1323844892
 20
4.5106103546
 11
-9.1231637149
 21
4.815549849
  0
LINE
  5
379
100
AcDbEntity
  8
0
100
AcDbLine
 62
7
  6
CONTINUOUS
 10
-9.1353173935
 20
5.092908604
 11
-9.1459938178
 21
4.7869466879
  0
LINE
  5
37A
100
AcDbEntity
  8
0
100
AcDbLine
 62
7
  6
CONTINUOUS
 10
-9.1231637149
 20
4.815549849
 11
-9.1124654997
 21
5.1215369241
  0
LINE
  5
37B
100
AcDbEntity
  8
0
100
AcDbLine
 62
7
  6
CONTINUOUS
 10
-9.1231676672
 20
5.3998985438
 11
-9.1353173935
 21
5.092908604
  0
LINE
  5
37C
100
AcDbEntity
  8
0
100
AcDbLine
 62
7
  6
CONTINUOUS
 10
-9.1124654997
 20
5.1215369241
 11
-9.1002919866
 21
5.4285581918
  0
LINE
  5
37D
100
AcDbEntity
  8
0
100
AcDbLine
 62
7
  6
CONTINUOUS
 10
-9.1002919866
 20
5.4285581918
 11
-9.0866517471
 21
5.7365600999
  0
LWPOLYLINE
  5
37E
100
AcDbEntity
  8
0
100
AcDbPolyline
 62
7
  6
CONTINUOUS
 90
3
 70
0
 10
-9.1021961761
 20
5.8622163134
 10
-9.1095532125
 20
5.7078642675
 10
-9.1231676672
 20
5.3998985438
  0
LINE
  5
37F
100
AcDbEntity
  8
0
100
AcDbLine
 62
7
  6
CONTINUOUS
 10
-9.0866517471
 20
5.7365600999
 11
-9.0809618601
 21
5.8557295309
  0
LINE
  5
380
100
AcDbEntity
  8
0
100
AcDbLine
 62
7
  6
CONTINUOUS
 10
-9.051962558
 20
6.939727865
 11
-9.0765532575
 21
6.5394180418
  0
LINE
  5
381
100
AcDbEntity
  8
0
100
AcDbLine
 62
7
  6
CONTINUOUS
 10
-9.0535739216
 20
6.5682143576
 11
-9.0289334115
 21
6.9686938258
  0
LWPOLYLINE
  5
382
100
AcDbEntity
  8
0
100
AcDbPolyline
 62
7
  6
CONTINUOUS
 90
3
 70
0
 10
-9.0289334115
 20
6.9686938258
 10
-9.0020489776
 20
7.3686642626
 10
-8.9974707597
 20
7.4333714516
  0
LWPOLYLINE
  5
383
100
AcDbEntity
  8
0
100
AcDbPolyline
 62
7
  6
CONTINUOUS
 90
3
 70
0
 10
-9.0180600368
 20
7.4396437601
 10
-9.0251195379
 20
7.3397105759
 10
-9.051962558
 20
6.939727865
  0
LWPOLYLINE
  5
384
100
AcDbEntity
  8
0
100
AcDbPolyline
 62
7
  6
CONTINUOUS
 90
25
 70
0
 10
-6.9896451803
 20
5.8808387745
 10
-6.9495534039
 20
5.9458337334
 10
-6.9154339311
 20
6.0143581476
 10
-6.8862507208
 20
6.0889927847
 10
-6.8624165042
 20
6.1708862108
 10
-6.8451439005
 20
6.2587811344
 10
-6.8352593303
 20
6.3519552139
 10
-6.8333337618
 20
6.4508733694
 10
-6.8400563687
 20
6.5542401524
 10
-6.8555586838
 20
6.6583734803
 10
-6.8792381235
 20
6.7614777747
 10
-6.9108682754
 20
6.863921958
 10
-6.950437591
 20
6.9651503877
 10
-6.9975421385
 20
7.0644368223
 10
-7.0517917975
 20
7.1611919678
 10
-7.1133270677
 20
7.2550379868
 10
-7.1818637857
 20
7.345454823
 10
-7.2568223643
 20
7.431601605
 10
-7.3379352234
 20
7.5125789264
 10
-7.4248450542
 20
7.5878643013
 10
-7.5166999007
 20
7.6566689539
 10
-7.6123524378
 20
7.7178365035
 10
-7.710868612
 20
7.7707613286
 10
-7.8116032559
 20
7.8152625501
 10
-7.9137591188
 20
7.8510201242
  0
LWPOLYLINE
  5
385
100
AcDbEntity
  8
0
100
AcDbPolyline
 62
7
  6
CONTINUOUS
 90
19
 70
0
 10
-7.7408899148
 20
6.3604138448
 10
-7.7164625679
 20
6.3955511802
 10
-7.6950954594
 20
6.437273439
 10
-7.679071468
 20
6.4828763896
 10
-7.6686780492
 20
6.5321710555
 10
-7.6642791822
 20
6.5844417947
 10
-7.6662206644
 20
6.6386690426
 10
-7.6745243866
 20
6.6942491242
 10
-7.6891299986
 20
6.750462677
 10
-7.7099459917
 20
6.8060342083
 10
-7.736606061
 20
6.8601880677
 10
-7.7686898788
 20
6.9122984512
 10
-7.8057659119
 20
6.9613505081
 10
-7.8472940843
 20
7.0067287649
 10
-7.8925750284
 20
7.0478703425
 10
-7.9407830716
 20
7.0839858357
 10
-7.9911302737
 20
7.1146153453
 10
-8.0429265791
 20
7.1395689788
 10
-8.0954525201
 20
7.1586339621
  0
LINE
  5
386
100
AcDbEntity
  8
0
100
AcDbLine
 62
7
  6
CONTINUOUS
 10
-12.8497399593
 20
5.6136616216
 11
-12.8269339129
 21
5.6422407815
  0
LINE
  5
387
100
AcDbEntity
  8
0
100
AcDbLine
 62
7
  6
CONTINUOUS
 10
-9.7130237227
 20
8.3623672033
 11
-9.6898563638
 21
8.3913991382
  0
LINE
  5
388
100
AcDbEntity
  8
0
100
AcDbLine
 62
7
  6
CONTINUOUS
 10
-10.4177433429
 20
4.8686219971
 11
-10.3949345465
 21
4.8972046031
  0
LINE
  5
389
100
AcDbEntity
  8
0
100
AcDbLine
 62
7
  6
CONTINUOUS
 10
-9.0765532575
 20
6.5394180418
 11
-9.0535739216
 21
6.5682143576
  0
LINE
  5
38A
100
AcDbEntity
  8
0
100
AcDbLine
 62
7
  6
CONTINUOUS
 10
-7.9369320019
 20
7.8219791584
 11
-7.9137593106
 21
7.8510177755
  0
LINE
  5
38B
100
AcDbEntity
  8
0
100
AcDbLine
 62
7
  6
CONTINUOUS
 10
-8.1542470759
 20
6.2580461244
 11
-8.1312653669
 21
6.2868454141
  0
LINE
  5
38C
100
AcDbEntity
  8
0
100
AcDbLine
 62
7
  6
CONTINUOUS
 10
-9.1551947965
 20
4.4820258553
 11
-9.1323844892
 21
4.5106103546
  0
LINE
  5
38D
100
AcDbEntity
  8
ASSI
100
AcDbLine
 62
7
  6
CONTINUOUS
 10
-7.0251383728
 20
5.8327954675
 11
-7.0481110492
 21
5.804007497
  0
LWPOLYLINE
  5
38E
100
AcDbEntity
  8
0
100
AcDbPolyline
 62
7
  6
CONTINUOUS
 90
10
 70
0
 10
-7.0481033726
 20
5.804017117
 10
-7.062488475
 20
5.7865076616
 10
-7.1146061232
 20
5.7306097905
 10
-7.1729199993
 20
5.6792575604
 10
-7.2382773497
 20
5.6324817133
 10
-7.3099026258
 20
5.5915430935
 10
-7.3856597696
 20
5.5578562923
 10
-7.4643040116
 20
5.5317101628
 10
-7.5459135116
 20
5.5127843521
 10
-7.629936344
 20
5.5010480818
  0
LINE
  5
38F
100
AcDbEntity
  8
0
100
AcDbLine
 62
250
  6
CONTINUOUS
 10
22.7044916335
 20
41.7973590913
 11
23.6162515666
 21
42.8877116661
  0
LWPOLYLINE
  5
390
100
AcDbEntity
  8
0
100
AcDbPolyline
 62
250
  6
CONTINUOUS
 90
3
 70
0
 10
23.6162515666
 20
42.8877116661
 10
24.5203155531
 20
43.9659603273
 10
24.7451320851
 20
44.2336204063
  0
LWPOLYLINE
  5
391
100
AcDbEntity
  8
0
100
AcDbPolyline
 62
250
  6
CONTINUOUS
 90
7
 70
0
 10
23.1451979555
 20
40.9473671195
 10
23.1906163931
 20
40.9978975652
 10
23.2354675975
 20
41.0378308005
 10
23.2790512118
 20
41.0665431992
 10
23.3206866705
 20
41.0835863444
 10
23.3597238099
 20
41.0886940252
 10
23.3891242748
 20
41.0839887769
  0
LWPOLYLINE
  5
392
100
AcDbEntity
  8
0
100
AcDbPolyline
 62
7
  6
CONTINUOUS
 90
3
 70
0
 10
28.5513761483
 20
39.7055208045
 10
28.5520511631
 20
39.7061043706
 10
28.5504865489
 20
39.7049330865
  0
LWPOLYLINE
  5
393
100
AcDbEntity
  8
COPY_PABLISH
100
AcDbPolyline
 62
250
  6
CONTINUOUS
 90
16
 70
0
 10
8.096856309
 20
-8.4796472018
 10
8.2240808555
 20
-8.4655653599
 10
8.3520126338
 20
-8.4549301137
 10
8.4804161575
 20
-8.4477608035
 10
8.6090541343
 20
-8.4440704037
 10
8.7376907955
 20
-8.4438654037
 10
8.8660923228
 20
-8.4471460589
 10
8.9940233969
 20
-8.4539063959
 10
9.1212476411
 20
-8.4641339632
 10
9.2475309425
 20
-8.4778099405
 10
9.3726409199
 20
-8.4949091618
 10
9.4963473511
 20
-8.5154001617
 10
9.6184225966
 20
-8.5392452336
 10
9.7386420186
 20
-8.5664004988
 10
9.8567843944
 20
-8.5968159872
 10
9.9726323234
 20
-8.6304357295
  0
LWPOLYLINE
  5
394
100
AcDbEntity
  8
DRAFT
100
AcDbPolyline
 62
7
  6
CONTINUOUS
 90
10
 70
0
 10
-43.3606943739
 20
15.7943692431
 10
-43.3773493834
 20
15.8054415247
 10
-43.3938077958
 20
15.8165085827
 10
-43.410069611
 20
15.8275704169
 10
-43.4261364825
 20
15.8386277753
 10
-43.4420067568
 20
15.8496799099
 10
-43.4576754743
 20
15.8607245771
 10
-43.4731409815
 20
15.8717610289
 10
-43.4884049317
 20
15.8827900132
 10
-43.503467325
 20
15.8938115301
  0
LWPOLYLINE
  5
395
100
AcDbEntity
  8
0
100
AcDbPolyline
 62
7
  6
CONTINUOUS
 90
7
 70
0
 10
-43.4708354244
 20
15.9607215365
 10
-43.4108407964
 20
15.917673016
 10
-43.3477889755
 20
15.8744330621
 10
-43.2816799619
 20
15.8310016748
 10
-43.2125137554
 20
15.7873788542
 10
-43.140290356
 20
15.7435646002
 10
-43.0650097638
 20
15.6995589129
  0
LWPOLYLINE
  5
396
100
AcDbEntity
  8
COPY_PABLISH
100
AcDbPolyline
 62
250
  6
CONTINUOUS
 90
10
 70
0
 10
6.8408127235
 20
-52.2236639607
 10
6.5985202194
 20
-51.6253267031
 10
6.3350420394
 20
-51.0190431006
 10
6.0524921463
 20
-50.4076248517
 10
5.7573664675
 20
-49.7921412775
 10
5.4465227088
 20
-49.1753326548
 10
5.1078469479
 20
-48.5629315143
 10
4.7381992105
 20
-47.9584167268
 10
4.3426922571
 20
-47.3621422556
 10
3.921306002
 20
-46.7754470637
  0
LWPOLYLINE
  5
397
100
AcDbEntity
  8
COPY_PABLISH
100
AcDbPolyline
 62
250
  6
CONTINUOUS
 90
10
 70
0
 10
6.1284837047
 20
-52.3684821928
 10
5.895709381
 20
-51.7586285189
 10
5.6488629827
 20
-51.1231858218
 10
5.3977817709
 20
-50.5004262037
 10
5.1446666489
 20
-49.901635986
 10
4.885740434
 20
-49.3238306034
 10
4.6070357249
 20
-48.7573235253
 10
4.2841991831
 20
-48.1858422218
 10
3.9166450807
 20
-47.6151899119
 10
3.4507326255
 20
-47.026335888
  0
LINE
  5
398
100
AcDbEntity
  8
COPY_PABLISH
100
AcDbLine
 62
250
  6
CONTINUOUS
 10
6.1284837047
 20
-52.3684821928
 11
6.2891492137
 21
-52.7970824805
  0
LWPOLYLINE
  5
399
100
AcDbEntity
  8
COPY_PABLISH
100
AcDbPolyline
 62
250
  6
CONTINUOUS
 90
3
 70
0
 10
6.2891492137
 20
-52.7970824805
 10
6.5974651922
 20
-53.6453087279
 10
6.6723569682
 20
-53.8545175456
  0
LWPOLYLINE
  5
39A
100
AcDbEntity
  8
COPY_PABLISH
100
AcDbPolyline
 62
250
  6
CONTINUOUS
 90
5
 70
0
 10
8.6987758728
 20
-54.5243275561
 10
8.7475277733
 20
-54.6620511995
 10
8.8114051481
 20
-54.7679940975
 10
8.8893644087
 20
-54.8406730941
 10
8.9585599143
 20
-54.8731117114
  0
LINE
  5
39B
100
AcDbEntity
  8
COPY_PABLISH
100
AcDbLine
 62
250
  6
CONTINUOUS
 10
6.6723569682
 20
-53.8545175456
 11
6.8162305063
 21
-54.2659940343
  0
LINE
  5
39C
100
AcDbEntity
  8
0
100
AcDbLine
 62
7
  6
CONTINUOUS
 10
-11.1752493764
 20
5.1006308646
 11
-11.2726503261
 21
5.4423826211
  0
LWPOLYLINE
  5
39D
100
AcDbEntity
  8
0
100
AcDbPolyline
 62
7
  6
CONTINUOUS
 90
3
 70
0
 10
-11.2726503261
 20
5.4423826211
 10
-11.368168311
 20
5.7847879503
 10
-11.391753377
 20
5.870487702
  0
LINE
  5
39E
100
AcDbEntity
  8
0
100
AcDbLine
 62
7
  6
CONTINUOUS
 10
-11.5935588655
 20
6.6235600892
 11
-11.6979438148
 21
7.0280888075
  0
LINE
  5
39F
100
AcDbEntity
  8
0
100
AcDbLine
 62
7
  6
CONTINUOUS
 10
-11.6979438148
 20
7.0280888075
 11
-11.7997437431
 21
7.4333296235
  0
LINE
  5
3A0
100
AcDbEntity
  8
0
100
AcDbLine
 62
7
  6
CONTINUOUS
 10
-11.7997437431
 20
7.4333296235
 11
-11.8989582491
 21
7.8392157457
  0
LWPOLYLINE
  5
3A1
100
AcDbEntity
  8
0
100
AcDbPolyline
 62
7
  6
CONTINUOUS
 90
8
 70
0
 10
-11.4358369301
 20
8.887250644
 10
-11.3360678791
 20
8.4409108204
 10
-11.2329723803
 20
7.994463137
 10
-11.1265504337
 20
7.5479075937
 10
-11.0168175951
 20
7.1011585342
 10
-10.9037583088
 20
6.6543016148
 10
-10.7873259072
 20
6.2075938044
 10
-10.6675048344
 20
5.7611207596
  0
LWPOLYLINE
  5
3A2
100
AcDbEntity
  8
RACCORDO
100
AcDbPolyline
 62
250
  6
CONTINUOUS
 90
3
 70
0
 10
-7.9980758921
 20
41.2215619594
 10
-7.979729007
 20
40.8489464957
 10
-7.9319949816
 20
40.4549109801
  0
LINE
  5
3A3
100
AcDbEntity
  8
RACCORDO
100
AcDbLine
 62
250
  6
CONTINUOUS
 10
-5.8756055932
 20
43.1402902729
 11
-5.8714806443
 21
43.0015989735
  0
LINE
  5
3A4
100
AcDbEntity
  8
0
100
AcDbLine
 62
7
  6
CONTINUOUS
 10
-7.9980758921
 20
41.2215619594
 11
-7.9819185935
 21
40.1045780414
  0
LINE
  5
3A5
100
AcDbEntity
  8
0
100
AcDbLine
 62
7
  6
CONTINUOUS
 10
-5.8756055932
 20
43.1402902729
 11
-5.8707590676
 21
42.8052409935
  0
LWPOLYLINE
  5
3A6
100
AcDbEntity
  8
RACCORDO
100
AcDbPolyline
 62
7
  6
CONTINUOUS
 90
24
 70
0
 10
-7.9980758921
 20
41.2215619594
 10
-7.9903432013
 20
41.6244327046
 10
-7.9553047211
 20
42.0285393845
 10
-7.8926980183
 20
42.4329180878
 10
-7.8023261199
 20
42.8366417774
 10
-7.6840833185
 20
43.2387032942
 10
-7.5379670719
 20
43.6380604073
 10
-7.3640615884
 20
44.0337077917
 10
-7.1624200555
 20
44.4248772363
 10
-6.9330233401
 20
44.8109665792
 10
-6.6756549
 20
45.1916209243
 10
-6.3907518064
 20
45.5655369177
 10
-6.0795048754
 20
45.9308192603
 10
-5.7424885463
 20
46.2866721298
 10
-5.3801108037
 20
46.6325347436
 10
-4.9937534834
 20
46.9670433228
 10
-4.5842070381
 20
47.2895648424
 10
-4.1521480255
 20
47.599597255
 10
-3.6991212237
 20
47.8961074661
 10
-3.2261027158
 20
48.1785849911
 10
-2.7339764517
 20
48.4466093323
 10
-2.224415709
 20
48.6994032543
 10
-1.6987323019
 20
48.9364959572
 10
-1.6571860271
 20
48.9534820589
  0
LWPOLYLINE
  5
3A7
100
AcDbEntity
  8
RACCORDO
100
AcDbPolyline
 62
7
  6
CONTINUOUS
 90
21
 70
0
 10
-4.1466886756
 20
44.6104590429
 10
-4.1394598315
 20
44.9183782206
 10
-4.1087917728
 20
45.2265759091
 10
-4.0546053367
 20
45.5342624783
 10
-3.9768728683
 20
45.8406948314
 10
-3.8756494037
 20
46.1450464948
 10
-3.7510971504
 20
46.4464318852
 10
-3.6034172178
 20
46.7440882202
 10
-3.4328367607
 20
47.0373234688
 10
-3.2396583269
 20
47.3254113564
 10
-3.0240982093
 20
47.6078163932
 10
-2.7866295057
 20
47.8837204659
 10
-2.5281131485
 20
48.1520384981
 10
-2.2491607482
 20
48.4121289283
 10
-1.950338777
 20
48.6634495564
 10
-1.632679963
 20
48.9051502561
 10
-1.2970200623
 20
49.1366564039
 10
-0.944071736
 20
49.3575277172
 10
-0.5748461626
 20
49.5671819979
 10
-0.1902800403
 20
49.7651493802
 10
0.1921358078
 20
49.9432938387
  0
LWPOLYLINE
  5
3A8
100
AcDbEntity
  8
RACCORDO
100
AcDbPolyline
 62
7
  6
CONTINUOUS
 90
20
 70
0
 10
-5.8756055932
 20
43.1402902729
 10
-5.8670574747
 20
43.5011410833
 10
-5.8309022781
 20
43.8622140943
 10
-5.767070836
 20
44.2225925241
 10
-5.6755548146
 20
44.5814091149
 10
-5.5564395806
 20
44.9377097453
 10
-5.4099302491
 20
45.2904783884
 10
-5.2362774416
 20
45.638832646
 10
-5.0357692115
 20
45.9819578444
 10
-4.8087868588
 20
46.3189962918
 10
-4.5556314964
 20
46.6492923331
 10
-4.2768636935
 20
46.971920031
 10
-3.9734439338
 20
47.2856850353
 10
-3.6460913711
 20
47.5898383257
 10
-3.295488599
 20
47.8837329105
 10
-2.9227939719
 20
48.1664173753
 10
-2.5289767476
 20
48.4372189795
 10
-2.1148879854
 20
48.6956048577
 10
-1.6816831055
 20
48.9409053462
 10
-1.2815958186
 20
49.1463087317
  0
LINE
  5
3A9
100
AcDbEntity
  8
0
100
AcDbLine
 62
7
  6
CONTINUOUS
 10
-6.881500814
 20
3.7859422219
 11
-6.8586876916
 21
3.8145302489
  0
LINE
  5
3AA
100
AcDbEntity
  8
0
100
AcDbLine
 62
7
  6
CONTINUOUS
 10
23.3475717468
 20
41.2437983457
 11
25.7212965144
 21
44.218406851
  0
LINE
  5
3AB
100
AcDbEntity
  8
0
100
AcDbLine
 62
250
  6
CONTINUOUS
 10
28.5562196979
 20
39.7121376421
 11
28.5365862016
 21
39.6894657844
  0
LWPOLYLINE
  5
3AC
100
AcDbEntity
  8
0
100
AcDbPolyline
 62
250
  6
CONTINUOUS
 90
10
 70
0
 10
29.1518633652
 20
39.8174336944
 10
29.1159401657
 20
39.7762528496
 10
29.0753199991
 20
39.7369677124
 10
29.0300028656
 20
39.6995782827
 10
28.9797007476
 20
39.6638217006
 10
28.9247016627
 20
39.6299608261
 10
28.8658696627
 20
39.5987842389
 10
28.8030673844
 20
39.5703562474
 10
28.736432191
 20
39.5446125432
 10
28.6672402247
 20
39.522148781
  0
LWPOLYLINE
  5
3AD
100
AcDbEntity
  8
0
100
AcDbPolyline
 62
250
  6
CONTINUOUS
 90
7
 70
0
 10
27.7766797825
 20
39.52508392
 10
27.8220985876
 20
39.5756147289
 10
27.8669500501
 20
39.6155480789
 10
27.9105338065
 20
39.6442604036
 10
27.9521692888
 20
39.661303355
 10
27.9912063515
 20
39.6664108045
 10
28.0206138827
 20
39.6617031884
  0
LINE
  5
3AE
100
AcDbEntity
  8
RACCORDO
100
AcDbLine
 62
7
  6
CONTINUOUS
 10
16.5200192273
 20
-2.0417136732
 11
20.9527535392
 21
-0.833862181
  0
LINE
  5
3AF
100
AcDbEntity
  8
DRAFT
100
AcDbLine
 62
7
  6
CONTINUOUS
 10
20.6263493661
 20
-1.1576051382
 11
16.5368361997
 21
-2.1508549028
  0
LWPOLYLINE
  5
3B0
100
AcDbEntity
  8
0
100
AcDbPolyline
 62
7
  6
CONTINUOUS
 90
13
 70
0
 10
16.5200192273
 20
-2.0417136732
 10
16.4427283874
 20
-2.0596917097
 10
16.3573301338
 20
-2.0743521315
 10
16.2638244665
 20
-2.0856949386
 10
16.161240289
 20
-2.0937006222
 10
16.0505486978
 20
-2.0983886911
 10
15.9346629824
 20
-2.0998176712
 10
15.8138223739
 20
-2.0978996415
 10
15.6877876412
 20
-2.092722523
 10
15.5587543803
 20
-2.0846086055
 10
15.4274544568
 20
-2.0736653188
 10
15.2931560051
 20
-2.059785233
 10
15.1558590254
 20
-2.0429683481
  0
LWPOLYLINE
  5
3B1
100
AcDbEntity
  8
DRAFT
100
AcDbPolyline
 62
7
  6
CONTINUOUS
 90
5
 70
0
 10
16.5368361997
 20
-2.1508549028
 10
16.4708221581
 20
-2.1626846114
 10
16.40255799
 20
-2.1724665169
 10
16.3320436955
 20
-2.1802006193
 10
16.2586479558
 20
-2.1856467233
  0
LWPOLYLINE
  5
3B2
100
AcDbEntity
  8
RACCORDO
100
AcDbPolyline
 62
250
  6
CONTINUOUS
 90
16
 70
0
 10
4.7907160117
 20
-8.314817973
 10
4.8863025232
 20
-8.3402894759
 10
4.9858187141
 20
-8.3592456628
 10
5.0881743409
 20
-8.3714787854
 10
5.1922480385
 20
-8.3768547498
 10
5.2968995872
 20
-8.3753145844
 10
5.4009824048
 20
-8.3668750916
 10
5.5033561497
 20
-8.3516286656
 10
5.6028991634
 20
-8.3297422831
 10
5.6985207488
 20
-8.3014556865
 10
5.7891732169
 20
-8.2670787359
 10
5.8738632904
 20
-8.2269880309
 10
5.9516629565
 20
-8.1816228126
 10
6.021719743
 20
-8.1314801064
 10
6.0832660422
 20
-8.0771092627
 10
6.1356274635
 20
-8.0191059746
  0
LWPOLYLINE
  5
3B3
100
AcDbEntity
  8
RACCORDO
100
AcDbPolyline
 62
250
  6
CONTINUOUS
 90
22
 70
0
 10
-35.4829824584
 20
4.6683857046
 10
-35.5364411932
 20
4.6830283766
 10
-35.5889722649
 20
4.6940535374
 10
-35.6405756734
 20
4.701461187
 10
-35.6915199251
 20
4.7052621811
 10
-35.7415365137
 20
4.705445664
 10
-35.7898199205
 20
4.7019790686
 10
-35.8363737732
 20
4.6947950036
 10
-35.8811944441
 20
4.6839608603
 10
-35.9234655313
 20
4.6696462448
 10
-35.9631209529
 20
4.6517910894
 10
-36.0002267908
 20
4.6304554619
 10
-36.0341648876
 20
4.6059891714
 10
-36.0648865906
 20
4.5783308214
 10
-36.0924405526
 20
4.5475418085
 10
-36.1163545748
 20
4.5141561316
 10
-36.1365590651
 20
4.4781096293
 10
-36.1531236156
 20
4.4394664631
 10
-36.1657848042
 20
4.3989531169
 10
-36.1744548237
 20
4.3568117521
 10
-36.1792214813
 20
4.3128002074
 10
-36.1800847771
 20
4.2669184827
  0
LINE
  5
3B4
100
AcDbEntity
  8
RACCORDO
100
AcDbLine
 62
250
  6
CONTINUOUS
 10
4.0627554572
 20
-7.4757272918
 11
-35.4829824584
 21
4.6683857046
  0
LINE
  5
3B5
100
AcDbEntity
  8
RACCORDO
100
AcDbLine
 62
250
  6
CONTINUOUS
 10
4.4977114079
 20
-6.1311492806
 11
-35.0480294337
 21
6.0129646144
  0
LWPOLYLINE
  5
3B6
100
AcDbEntity
  8
COPY_PABLISH
100
AcDbPolyline
 62
250
  6
CONTINUOUS
 90
16
 70
0
 10
-39.7267303588
 20
6.6317570649
 10
-39.6133897959
 20
6.5949952417
 10
-39.5027654021
 20
6.5551586714
 10
-39.3950607438
 20
6.5123206595
 10
-39.2904740145
 20
6.4665600348
 10
-39.1891976706
 20
6.417961004
 10
-39.0914180764
 20
6.366612997
 10
-38.997315162
 20
6.3126105024
 10
-38.9070620915
 20
6.2560528932
 10
-38.8208249451
 20
6.1970442445
 10
-38.7387630115
 20
6.1356936098
 10
-38.661026634
 20
6.072113449
 10
-38.5877572618
 20
6.0064192584
 10
-38.5190895351
 20
5.9387312766
 10
-38.4551507052
 20
5.8691744257
 10
-38.3960587686
 20
5.7978765972
  0
LWPOLYLINE
  5
3B7
100
AcDbEntity
  8
RACCORDO
100
AcDbPolyline
 62
250
  6
CONTINUOUS
 90
12
 70
0
 10
-36.1800847771
 20
4.2669184827
 10
-36.2706967153
 20
4.2986269785
 10
-36.3553391213
 20
4.3362246554
 10
-36.4330846351
 20
4.3792995855
 10
-36.5030814607
 20
4.4273798307
 10
-36.5645626981
 20
4.4799386137
 10
-36.6168547462
 20
4.5364000894
 10
-36.6593846822
 20
4.5961456541
 10
-36.6916865393
 20
4.6585207228
 10
-36.7134064115
 20
4.7228419012
 10
-36.7243063315
 20
4.7884044729
 10
-36.7255336364
 20
4.8112778968
  0
LWPOLYLINE
  5
3B8
100
AcDbEntity
  8
0
100
AcDbPolyline
 62
7
  6
CONTINUOUS
 90
15
 70
0
 10
-41.5489744874
 20
14.6308385491
 10
-41.3345710722
 20
14.5241328585
 10
-41.1200713436
 20
14.4226246399
 10
-40.9058722394
 20
14.3257371404
 10
-40.6915768218
 20
14.234047113
 10
-40.4737259994
 20
14.1442366867
 10
-40.2509463231
 20
14.0554588897
 10
-40.024611242
 20
13.9685606937
 10
-39.7953820127
 20
13.8827651429
 10
-39.5629039562
 20
13.7978576105
 10
-39.3275317514
 20
13.7140527233
 10
-39.0909906915
 20
13.6312174055
 10
-38.8532922066
 20
13.5492892801
 10
-38.6144248666
 20
13.4683307241
 10
-38.1388202976
 20
13.3095025068
  0
LWPOLYLINE
  5
3B9
100
AcDbEntity
  8
COPY_PABLISH
100
AcDbPolyline
 62
250
  6
CONTINUOUS
 90
13
 70
0
 10
7.2644135929
 20
-8.3434820234
 10
7.3221099892
 20
-8.3724233579
 10
7.383161116
 20
-8.3985165526
 10
7.4472273937
 20
-8.4216167713
 10
7.5139519945
 20
-8.441595686
 10
7.5829643802
 20
-8.4583426694
 10
7.6538825302
 20
-8.4717651526
 10
7.726313816
 20
-8.4817887107
 10
7.7998542189
 20
-8.4883573192
 10
7.8740921191
 20
-8.4914344169
 10
7.9486139186
 20
-8.4910033369
 10
8.0230064522
 20
-8.4870669454
 10
8.0968563968
 20
-8.4796475211
  0
LINE
  5
3BA
100
AcDbEntity
  8
0
100
AcDbLine
 62
7
  6
CONTINUOUS
 10
-7.7347761721
 20
4.0471522383
 11
-7.8925881924
 21
4.3986845435
  0
LINE
  5
3BB
100
AcDbEntity
  8
0
100
AcDbLine
 62
7
  6
CONTINUOUS
 10
-7.0480134858
 20
4.1573010627
 11
-6.881500814
 21
3.7859422219
  0
LINE
  5
3BC
100
AcDbEntity
  8
0
100
AcDbLine
 62
7
  6
CONTINUOUS
 10
-6.8586876916
 20
3.8145302489
 11
-7.0251682428
 21
4.1858904553
  0
LINE
  5
3BD
100
AcDbEntity
  8
0
100
AcDbLine
 62
7
  6
CONTINUOUS
 10
-7.8925881924
 20
4.3986845435
 11
-8.049891415
 21
4.7541628971
  0
LINE
  5
3BE
100
AcDbEntity
  8
0
100
AcDbLine
 62
7
  6
CONTINUOUS
 10
-7.2144563883
 20
4.5342375331
 11
-7.0480134858
 21
4.1573010627
  0
LINE
  5
3BF
100
AcDbEntity
  8
0
100
AcDbLine
 62
7
  6
CONTINUOUS
 10
-7.0251682428
 20
4.1858904553
 11
-7.1915829504
 21
4.5628447619
  0
LINE
  5
3C0
100
AcDbEntity
  8
0
100
AcDbLine
 62
7
  6
CONTINUOUS
 10
-8.049891415
 20
4.7541628971
 11
-8.206668498
 21
5.1135904026
  0
LINE
  5
3C1
100
AcDbEntity
  8
0
100
AcDbLine
 62
7
  6
CONTINUOUS
 10
-7.3808018175
 20
4.9167574175
 11
-7.2144563883
 21
4.5342375331
  0
LINE
  5
3C2
100
AcDbEntity
  8
0
100
AcDbLine
 62
7
  6
CONTINUOUS
 10
-7.1915829504
 20
4.5628447619
 11
-7.3579041739
 21
4.9453994359
  0
LWPOLYLINE
  5
3C3
100
AcDbEntity
  8
0
100
AcDbPolyline
 62
7
  6
CONTINUOUS
 90
3
 70
0
 10
-8.206668498
 20
5.1135904026
 10
-8.3628500746
 20
5.476979475
 10
-8.4407218834
 20
5.6601588228
  0
LWPOLYLINE
  5
3C4
100
AcDbEntity
  8
0
100
AcDbPolyline
 62
7
  6
CONTINUOUS
 90
3
 70
0
 10
-7.3579041739
 20
4.9453994359
 10
-7.5240213519
 20
5.333579546
 10
-7.6001817665
 20
5.513633846
  0
LWPOLYLINE
  5
3C5
100
AcDbEntity
  8
0
100
AcDbPolyline
 62
7
  6
CONTINUOUS
 90
3
 70
0
 10
-7.629936344
 20
5.5010480818
 10
-7.5469389569
 20
5.3048838533
 10
-7.3808018175
 20
4.9167574175
  0
LWPOLYLINE
  5
3C6
100
AcDbEntity
  8
COPY_PABLISH
100
AcDbPolyline
 62
250
  6
CONTINUOUS
 90
5
 70
0
 10
12.1878458717
 20
-55.4928579698
 10
12.240904006
 20
-55.6352895682
 10
12.3110478369
 20
-55.744325042
 10
12.3963452221
 20
-55.8190968008
 10
12.4781883531
 20
-55.8547651873
  0
LWPOLYLINE
  5
3C7
100
AcDbEntity
  8
COPY_PABLISH
100
AcDbPolyline
 62
250
  6
CONTINUOUS
 90
5
 70
0
 10
10.4271867229
 20
-55.0375031343
 10
10.4730932866
 20
-55.1691329379
 10
10.5334246632
 20
-55.2703577014
 10
10.607583436
 20
-55.3393068692
 10
10.6724976959
 20
-55.3689135437
  0
LWPOLYLINE
  5
3C8
100
AcDbEntity
  8
0
100
AcDbPolyline
 62
7
  6
CONTINUOUS
 90
3
 70
0
 10
-10.3949345465
 20
4.8972046031
 10
-10.5215174375
 20
5.3435681506
 10
-10.6447132081
 20
5.7900471442
  0
LWPOLYLINE
  5
3C9
100
AcDbEntity
  8
0
100
AcDbPolyline
 62
7
  6
CONTINUOUS
 90
3
 70
0
 10
-10.6675048344
 20
5.7611207596
 10
-10.5443106463
 20
5.3147968238
 10
-10.4177433429
 20
4.8686219971
  0
LWPOLYLINE
  5
3CA
100
AcDbEntity
  8
0
100
AcDbPolyline
 62
7
  6
CONTINUOUS
 90
8
 70
0
 10
-10.6447132081
 20
5.7900471442
 10
-10.7645218582
 20
6.2366415839
 10
-10.8809274696
 20
6.6834387136
 10
-10.9939459606
 20
7.1303512894
 10
-11.1036250859
 20
7.5771175792
 10
-11.2099807637
 20
8.023650339
 10
-11.3129970759
 20
8.4700368129
 10
-11.4126740225
 20
8.9162770008
  0
LWPOLYLINE
  5
3CB
100
AcDbEntity
  8
RACCORDO
100
AcDbPolyline
 62
250
  6
CONTINUOUS
 90
25
 70
0
 10
-5.8714806443
 20
43.0015989735
 10
-5.8423613842
 20
42.6531274028
 10
-5.7864238577
 20
42.3058501758
 10
-5.70389059
 20
41.9611491352
 10
-5.5951568531
 20
41.620188136
 10
-5.4604559683
 20
41.2833303559
 10
-5.2998580484
 20
40.9507523999
 10
-5.1133748177
 20
40.6227543338
 10
-4.9015737532
 20
40.3005726412
 10
-4.665503467
 20
39.9857487191
 10
-4.4057210293
 20
39.6788477012
 10
-4.1230141428
 20
39.3806390739
 10
-3.8192925693
 20
39.0927922678
 10
-3.4953242274
 20
38.8155865752
 10
-3.1523969896
 20
38.549707575
 10
-2.7938591239
 20
38.2970965582
 10
-2.4187967269
 20
38.0564918118
 10
-2.0307541091
 20
37.8295853686
 10
-1.6413549371
 20
37.6216645744
 10
-1.2569213915
 20
37.4337216045
 10
-0.8760571565
 20
37.2628691114
 10
-0.4996632917
 20
37.107752046
 10
-0.1291077028
 20
36.9673668597
 10
0.2336627961
 20
36.8409830729
 10
0.5872196734
 20
36.7277049934
  0
LINE
  5
3CC
100
AcDbEntity
  8
RACCORDO
100
AcDbLine
 62
250
  6
CONTINUOUS
 10
-4.1466886756
 20
44.6104590429
 11
-4.1322962754
 21
44.3281699289
  0
LINE
  5
3CD
100
AcDbEntity
  8
RACCORDO
100
AcDbLine
 62
250
  6
CONTINUOUS
 10
-2.4170109483
 20
46.0280316284
 11
-2.414161194
 21
45.9315722541
  0
LWPOLYLINE
  5
3CE
100
AcDbEntity
  8
COPY_PABLISH
100
AcDbPolyline
 62
250
  6
CONTINUOUS
 90
5
 70
0
 10
1.2263900449
 20
-55.5356483048
 10
1.2289003112
 20
-55.633238593
 10
1.2313852137
 20
-55.6985780617
 10
1.2337421046
 20
-55.7277730877
 10
1.2343254437
 20
-55.7291103629
  0
LINE
  5
3CF
100
AcDbEntity
  8
COPY_PABLISH
100
AcDbLine
 62
250
  6
CONTINUOUS
 10
1.2214691024
 20
-55.2518560888
 11
1.2263900449
 21
-55.5356483048
  0
LINE
  5
3D0
100
AcDbEntity
  8
0
100
AcDbLine
 62
7
  6
CONTINUOUS
 10
-4.1466886756
 20
44.6104590429
 11
-4.1413856641
 21
44.2438520528
  0
LINE
  5
3D1
100
AcDbEntity
  8
0
100
AcDbLine
 62
7
  6
CONTINUOUS
 10
-2.4170109483
 20
46.0280316284
 11
-2.4120122607
 21
45.682463112
  0
LWPOLYLINE
  5
3D2
100
AcDbEntity
  8
COPY_PABLISH
100
AcDbPolyline
 62
7
  6
CONTINUOUS
 90
7
 70
0
 10
-4.0390500788
 20
-54.4333507027
 10
-4.0412557167
 20
-54.5808532132
 10
-4.0281203621
 20
-54.7120308612
 10
-3.9989956936
 20
-54.8207702432
 10
-3.9531116197
 20
-54.9021357586
 10
-3.891539019
 20
-54.9488780025
 10
-3.8735069704
 20
-54.9272285839
  0
LWPOLYLINE
  5
3D3
100
AcDbEntity
  8
RACCORDO
100
AcDbPolyline
 62
7
  6
CONTINUOUS
 90
40
 70
0
 10
-2.4170109483
 20
46.0280316284
 10
-2.4098487544
 20
46.3026569878
 10
-2.3803261856
 20
46.5776024153
 10
-2.3283421774
 20
46.8520419954
 10
-2.2538555857
 20
47.1251929509
 10
-2.1569150414
 20
47.3961995603
 10
-2.0376786764
 20
47.6641632461
 10
-1.8963118853
 20
47.9283631937
 10
-1.7330721548
 20
48.1880201627
 10
-1.5484010816
 20
48.4422218723
 10
-1.3426127387
 20
48.6903653935
 10
-1.1161950537
 20
48.9316992498
 10
-0.8700704074
 20
49.1651710278
 10
-0.6048813132
 20
49.390169458
 10
-0.3212759496
 20
49.6061329407
 10
-0.0204493538
 20
49.812182778
 10
0.2966512737
 20
50.0077533404
 10
0.6292624077
 20
50.1924441704
 10
0.9762775165
 20
50.3657064614
 10
1.3366727418
 20
50.5271052454
 10
1.7095081589
 20
50.6762864998
 10
2.0937031046
 20
50.8128760539
 10
2.4881659749
 20
50.9365426047
 10
2.8918479053
 20
51.0470076336
 10
3.3036751806
 20
51.144018148
 10
3.7225280889
 20
51.2273443785
 10
4.147266824
 20
51.2967889663
 10
4.5767532718
 20
51.3521903482
 10
5.0098147883
 20
51.3934176156
 10
5.4452893993
 20
51.4203768147
 10
5.882038112
 20
51.4330082424
 10
6.3188767709
 20
51.4312834632
 10
6.7546322932
 20
51.4152095579
 10
7.1881827485
 20
51.3848240721
 10
7.618360179
 20
51.3401988003
 10
8.0440013039
 20
51.2814407429
 10
8.4640073527
 20
51.2086814978
 10
8.8772601875
 20
51.1220867501
 10
9.2826206747
 20
51.0218625295
 10
9.6789834953
 20
50.9082456708
  0
LWPOLYLINE
  5
3D4
100
AcDbEntity
  8
RACCORDO
100
AcDbPolyline
 62
7
  6
CONTINUOUS
 90
34
 70
0
 10
1.8132476238
 20
47.4235297869
 10
1.8182975861
 20
47.5845477469
 10
1.8382434369
 20
47.7460767048
 10
1.8732584317
 20
47.9074031907
 10
1.9234489713
 20
48.0678350991
 10
1.988839568
 20
48.2266517172
 10
2.0693792142
 20
48.3831481076
 10
2.165097332
 20
48.5368655554
 10
2.2757834621
 20
48.6870208242
 10
2.400827127
 20
48.8325474455
 10
2.5399454617
 20
48.9729849374
 10
2.6927246775
 20
49.1077793363
 10
2.8579916158
 20
49.2358817688
 10
3.0350007654
 20
49.3568121012
 10
3.2232435575
 20
49.470296531
 10
3.421580441
 20
49.5757342496
 10
3.6291160253
 20
49.6727750996
 10
3.8451800259
 20
49.761211985
 10
4.0687989957
 20
49.8407376872
 10
4.2990523834
 20
49.9111190053
 10
4.5351357927
 20
49.9721912235
 10
4.7761713755
 20
50.0237917723
 10
5.0212358946
 20
50.0657787268
 10
5.269443822
 20
50.0980472021
 10
5.5199395189
 20
50.120519469
 10
5.7717972064
 20
50.1331351243
 10
6.0240966913
 20
50.1358636791
 10
6.2759815264
 20
50.1287003597
 10
6.5265352934
 20
50.1116645047
 10
6.7748335165
 20
50.0848052743
 10
7.0200200547
 20
50.0481913234
 10
7.2612152569
 20
50.0019173568
 10
7.4975097703
 20
49.9461122896
 10
7.7280221131
 20
49.8809308729
  0
LWPOLYLINE
  5
3D5
100
AcDbEntity
  8
COPY_PABLISH
100
AcDbPolyline
 62
250
  6
CONTINUOUS
 90
10
 70
0
 10
-4.0390780183
 20
-54.4333777539
 10
-3.9638913947
 20
-53.3503353339
 10
-3.8744987072
 20
-52.2540452547
 10
-3.7709503911
 20
-51.1451939218
 10
-3.6532980935
 20
-50.0244009888
 10
-3.5216160737
 20
-48.8924430126
 10
-3.3760104705
 20
-47.7502601081
 10
-3.2165862413
 20
-46.5986525539
 10
-3.0434377968
 20
-45.4382732409
 10
-2.8566768729
 20
-44.26985626
  0
LINE
  5
3D6
100
AcDbEntity
  8
0
100
AcDbLine
 62
7
  6
CONTINUOUS
 10
23.3319194098
 20
41.2201637036
 11
23.3475717468
 21
41.2437983457
  0
LINE
  5
3D7
100
AcDbEntity
  8
0
100
AcDbLine
 62
7
  6
CONTINUOUS
 10
9.2427398242
 20
12.8483770093
 11
6.7648906751
 21
9.6671032149
  0
LINE
  5
3D8
100
AcDbEntity
  8
0
100
AcDbLine
 62
7
  6
CONTINUOUS
 10
6.9789164683
 20
9.587627228
 11
9.873735269
 21
13.3042428891
  0
LINE
  5
3D9
100
AcDbEntity
  8
0
100
AcDbLine
 62
250
  6
CONTINUOUS
 10
31.1162740916
 20
42.2771044195
 11
30.2502352258
 21
41.1908119074
  0
LINE
  5
3DA
100
AcDbEntity
  8
0
100
AcDbLine
 62
7
  6
CONTINUOUS
 10
28.5365862016
 20
39.6894657844
 11
28.535859285
 21
39.6885555683
  0
LINE
  5
3DB
100
AcDbEntity
  8
0
100
AcDbLine
 62
7
  6
CONTINUOUS
 10
30.8871800907
 20
42.6320140516
 11
28.9834362306
 21
40.2476489229
  0
LWPOLYLINE
  5
3DC
100
AcDbEntity
  8
0
100
AcDbPolyline
 62
250
  6
CONTINUOUS
 90
3
 70
0
 10
30.2502352258
 20
41.1908119074
 10
29.3729328918
 20
40.0934846971
 10
29.1518633652
 20
39.8174336944
  0
LINE
  5
3DD
100
AcDbEntity
  8
0
100
AcDbLine
 62
7
  6
CONTINUOUS
 10
28.9834362306
 20
40.2476489229
 11
28.5501964502
 21
39.7064655786
  0
LINE
  5
3DE
100
AcDbEntity
  8
DRAFT
100
AcDbLine
 62
7
  6
CONTINUOUS
 10
14.9023969286
 20
-2.0976616456
 11
14.5439692465
 21
-2.1329543713
  0
LWPOLYLINE
  5
3DF
100
AcDbEntity
  8
DRAFT
100
AcDbPolyline
 62
7
  6
CONTINUOUS
 90
20
 70
0
 10
14.5439692465
 20
-2.1329543713
 10
14.1984256559
 20
-2.1580132547
 10
13.8657661568
 20
-2.1728382959
 10
13.5462187636
 20
-2.1762306963
 10
13.239555462
 20
-2.1693892544
 10
12.9450922085
 20
-2.1559103655
 10
12.6628695361
 20
-2.1359902147
 10
12.3928469118
 20
-2.1094326168
 10
12.134218694
 20
-2.0792454122
 10
11.8868432214
 20
-2.0456256966
 10
11.6508621553
 20
-2.0083763744
 10
11.425894838
 20
-1.9699139981
 10
11.2128485501
 20
-1.9307066599
 10
11.0108160109
 20
-1.8902862676
 10
10.8166947219
 20
-1.8496650984
 10
10.6307632881
 20
-1.8091934978
 10
10.4527431044
 20
-1.7685211202
 10
10.2786958564
 20
-1.727609205
 10
10.1084116598
 20
-1.6865818254
 10
9.9421003989
 20
-1.6453149082
  0
LWPOLYLINE
  5
3E0
100
AcDbEntity
  8
DRAFT
100
AcDbPolyline
 62
7
  6
CONTINUOUS
 90
9
 70
0
 10
14.2767860206
 20
-1.9342971188
 10
13.9170723187
 20
-1.9527133359
 10
13.5475048951
 20
-1.9560975013
 10
13.1680837498
 20
-1.944449615
 10
12.7794078696
 20
-1.9176521715
 10
12.3808782677
 20
-1.8758226763
 10
11.9706979837
 20
-1.8193136453
 10
11.546034248
 20
-1.7464228734
 10
11.2866803355
 20
-1.6943693519
  0
LWPOLYLINE
  5
3E1
100
AcDbEntity
  8
DRAFT
100
AcDbPolyline
 62
7
  6
CONTINUOUS
 90
13
 70
0
 10
16.2586479558
 20
-2.1856467233
 10
16.1830020897
 20
-2.1890450242
 10
16.1070000531
 20
-2.1911161075
 10
16.0310625078
 20
-2.1919846022
 10
15.9547687921
 20
-2.1915258793
 10
15.8787508766
 20
-2.1900866377
 10
15.8030511517
 20
-2.1876804878
 10
15.727627227
 20
-2.1842938192
 10
15.6529839019
 20
-2.1802324988
 10
15.5792329133
 20
-2.1755468524
 10
15.5062625244
 20
-2.1701865541
 10
15.4342423237
 20
-2.1643064934
 10
15.3632288407
 20
-2.1579583
  0
LWPOLYLINE
  5
3E2
100
AcDbEntity
  8
DRAFT
100
AcDbPolyline
 62
7
  6
CONTINUOUS
 90
3
 70
0
 10
15.3632288407
 20
-2.1579583
 10
15.2931655459
 20
-2.1510903442
 10
15.2240524394
 20
-2.1437026258
  0
LINE
  5
3E3
100
AcDbEntity
  8
DRAFT
100
AcDbLine
 62
7
  6
CONTINUOUS
 10
15.2240524394
 20
-2.1437026258
 11
15.0811498281
 21
-2.123752031
  0
LINE
  5
3E4
100
AcDbEntity
  8
DRAFT
100
AcDbLine
 62
7
  6
CONTINUOUS
 10
15.0811498281
 20
-2.123752031
 11
14.9381505845
 21
-2.1029804326
  0
LINE
  5
3E5
100
AcDbEntity
  8
DRAFT
100
AcDbLine
 62
7
  6
CONTINUOUS
 10
14.9381505845
 20
-2.1029804326
 11
14.9023969286
 21
-2.0976616456
  0
LWPOLYLINE
  5
3E6
100
AcDbEntity
  8
0
100
AcDbPolyline
 62
7
  6
CONTINUOUS
 90
7
 70
0
 10
14.2941113246
 20
-1.9148714807
 10
14.4391411854
 20
-1.9385207589
 10
14.5836089486
 20
-1.961250117
 10
14.7275146143
 20
-1.983059555
 10
14.8708581823
 20
-2.0039490728
 10
15.0136396526
 20
-2.0239186705
 10
15.1558590254
 20
-2.0429683481
  0
LWPOLYLINE
  5
3E7
100
AcDbEntity
  8
0
100
AcDbPolyline
 62
7
  6
CONTINUOUS
 90
11
 70
0
 10
43.2988364217
 20
-10.5507324721
 10
43.3200111954
 20
-10.5552441464
 10
43.3392317261
 20
-10.5590045656
 10
43.3564541832
 20
-10.5620681703
 10
43.3716333152
 20
-10.5645741587
 10
43.3847400049
 20
-10.5664964416
 10
43.3957506873
 20
-10.5676419406
 10
43.4046160741
 20
-10.5680793625
 10
43.4113191739
 20
-10.5678582262
 10
43.415842701
 20
-10.5667550566
 10
43.417819768
 20
-10.5653234723
  0
LWPOLYLINE
  5
3E8
100
AcDbEntity
  8
0
100
AcDbPolyline
 62
7
  6
CONTINUOUS
 90
39
 70
0
 10
33.51356408
 20
-11.8018074239
 10
33.6373613229
 20
-11.8319086107
 10
33.8875888526
 20
-11.8596795314
 10
34.1487715331
 20
-11.8450010062
 10
34.4207864054
 20
-11.7883494819
 10
34.700557395
 20
-11.6903656009
 10
34.9881725437
 20
-11.5505801886
 10
35.2835438099
 20
-11.3694624198
 10
35.5833309939
 20
-11.1490604607
 10
35.8875842219
 20
-10.888928386
 10
36.1962533679
 20
-10.589512121
 10
36.5058478532
 20
-10.2541976081
 10
36.8163781819
 20
-9.8825773567
 10
37.1278338499
 20
-9.4750588574
 10
37.4366927678
 20
-9.0362505244
 10
37.7429254591
 20
-8.5657971783
 10
38.0465614001
 20
-8.0640539984
 10
38.3441669305
 20
-7.5366949366
 10
38.6356735974
 20
-6.9834292202
 10
38.9211498536
 20
-6.404547622
 10
39.1973673971
 20
-5.8065964119
 10
39.4642211297
 20
-5.1893591256
 10
39.7218161495
 20
-4.5530522275
 10
39.9672394489
 20
-3.9048713804
 10
40.2003528634
 20
-3.2446817997
 10
40.4212945575
 20
-2.5726182701
 10
40.6275660167
 20
-1.8962808072
 10
40.8190007154
 20
-1.2156208966
 10
40.9957651792
 20
-0.5306870527
 10
41.1558604712
 20
0.1507751647
 10
41.2990973749
 20
0.8287263485
 10
41.4256651067
 20
1.5032059059
 10
41.5341323782
 20
2.1665864995
 10
41.6242937261
 20
2.8187421419
 10
41.6963546136
 20
3.4597988205
 10
41.7495001417
 20
4.0825071597
 10
41.7834586775
 20
4.6844507009
 10
41.7985018539
 20
5.2680459027
 10
41.7946296709
 20
5.8332927652
  0
LWPOLYLINE
  5
3E9
100
AcDbEntity
  8
RACCORDO
100
AcDbPolyline
 62
250
  6
CONTINUOUS
 90
15
 70
0
 10
-35.0480294337
 20
6.0129646144
 10
-35.1678891458
 20
6.0458898968
 10
-35.2867657145
 20
6.070785602
 10
-35.4039975188
 20
6.0875362449
 10
-35.5188536187
 20
6.0960692382
 10
-35.6307870793
 20
6.0963763648
 10
-35.7394158848
 20
6.0884543137
 10
-35.8442433245
 20
6.0722944379
 10
-35.9445369947
 20
6.0479629626
 10
-36.0395892402
 20
6.0156183857
 10
-36.1288206612
 20
5.9754728891
 10
-36.2117929753
 20
5.9277396402
 10
-36.2880728058
 20
5.8726692662
 10
-36.3572430283
 20
5.8105542194
 10
-36.4202458275
 20
5.7400645757
  0
LWPOLYLINE
  5
3EA
100
AcDbEntity
  8
COPY_PABLISH
100
AcDbPolyline
 62
7
  6
CONTINUOUS
 90
7
 70
0
 10
-34.997723787
 20
7.7549256584
 10
-35.1491705303
 20
7.7985493823
 10
-35.3001827266
 20
7.8363404664
 10
-35.4504735841
 20
7.8682271735
 10
-35.5997573642
 20
7.8941512915
 10
-35.7477510035
 20
7.9140612974
 10
-35.8941739393
 20
7.9279123551
  0
LINE
  5
3EB
100
AcDbEntity
  8
COPY_PABLISH
100
AcDbLine
 62
250
  6
CONTINUOUS
 10
4.0295546052
 20
-2.3816460923
 11
3.643448938
 21
-2.2656783542
  0
LINE
  5
3EC
100
AcDbEntity
  8
COPY_PABLISH
100
AcDbLine
 62
7
  6
CONTINUOUS
 10
4.9519544507
 20
-5.561921184
 11
-34.5937928087
 21
6.5821946818
  0
LINE
  5
3ED
100
AcDbEntity
  8
COPY_PABLISH
100
AcDbLine
 62
7
  6
CONTINUOUS
 10
4.6294627816
 20
-5.3548348955
 11
-34.9162844801
 21
6.789280971
  0
LINE
  5
3EE
100
AcDbEntity
  8
COPY_PABLISH
100
AcDbLine
 62
250
  6
CONTINUOUS
 10
-34.9976921437
 20
7.7550440251
 11
4.5480551157
 21
-4.3890718407
  0
LINE
  5
3EF
100
AcDbEntity
  8
COPY_PABLISH
100
AcDbLine
 62
250
  6
CONTINUOUS
 10
3.643448938
 20
-2.2656783542
 11
-13.5325140551
 21
3.008893481
  0
LWPOLYLINE
  5
3F0
100
AcDbEntity
  8
COPY_PABLISH
100
AcDbPolyline
 62
250
  6
CONTINUOUS
 90
3
 70
0
 10
-33.5742772097
 20
9.1636345429
 10
-16.4901271438
 20
3.9172575682
 10
-15.9668858309
 20
3.7591844864
  0
LWPOLYLINE
  5
3F1
100
AcDbEntity
  8
COPY_PABLISH
100
AcDbPolyline
 62
250
  6
CONTINUOUS
 90
6
 70
0
 10
-13.5325140551
 20
3.008893481
 10
-14.0367964345
 20
3.1663549305
 10
-14.2814152754
 20
3.2388737904
 10
-14.5213689947
 20
3.3047406464
 10
-14.7565127791
 20
3.3651725839
 10
-14.9868827341
 20
3.4201241395
  0
LINE
  5
3F2
100
AcDbEntity
  8
COPY_PABLISH
100
AcDbLine
 62
250
  6
CONTINUOUS
 10
-33.9757001728
 20
9.2895169005
 11
-33.5742772097
 21
9.1636345429
  0
LWPOLYLINE
  5
3F3
100
AcDbEntity
  8
COPY_PABLISH
100
AcDbPolyline
 62
250
  6
CONTINUOUS
 90
5
 70
0
 10
-15.9668858309
 20
3.7591844864
 10
-15.7139424115
 20
3.6788987565
 10
-15.4661025932
 20
3.5949447153
 10
-15.2237372522
 20
3.5087015847
 10
-14.9868827211
 20
3.4201236147
  0
LWPOLYLINE
  5
3F4
100
AcDbEntity
  8
COPY_PABLISH
100
AcDbPolyline
 62
7
  6
CONTINUOUS
 90
37
 70
0
 10
4.5480234721
 20
-4.3891902074
 10
4.699600423
 20
-4.4386221242
 10
4.8510324764
 20
-4.4937087392
 10
5.0020320187
 20
-4.554345395
 10
5.1523131566
 20
-4.6204147611
 10
5.3015897208
 20
-4.6917935548
 10
5.4495750884
 20
-4.7683524348
 10
5.595986452
 20
-4.849947704
 10
5.7405460745
 20
-4.9364219304
 10
5.8829787774
 20
-5.0276105048
 10
6.0230134311
 20
-5.1233398441
 10
6.1603834709
 20
-5.2234277213
 10
6.2948274041
 20
-5.3276836131
 10
6.4260893082
 20
-5.4359090615
 10
6.5539193181
 20
-5.5478980528
 10
6.678074101
 20
-5.6634374088
 10
6.7983173207
 20
-5.782307193
 10
6.9144200864
 20
-5.9042811293
 10
7.0261613894
 20
-6.0291270326
 10
7.1333285229
 20
-6.1566072509
 10
7.2357174875
 20
-6.2864791174
 10
7.3331333794
 20
-6.418495413
 10
7.4253907614
 20
-6.5524048363
 10
7.5123140156
 20
-6.6879524822
 10
7.5937376781
 20
-6.8248803272
 10
7.6695067539
 20
-6.9629277205
 10
7.7394770118
 20
-7.1018318803
 10
7.803515259
 20
-7.2413283936
 10
7.8614995945
 20
-7.38115172
 10
7.9133196417
 20
-7.5210356971
 10
7.9588767578
 20
-7.6607140469
 10
7.9980819589
 20
-7.7999214981
 10
8.0308628426
 20
-7.9383923131
 10
8.0571638878
 20
-8.0758614588
 10
8.0769374337
 20
-8.2120674269
 10
8.0901436163
 20
-8.3467520616
 10
8.096757308
 20
-8.4796595373
  0
LINE
  5
3F5
100
AcDbEntity
  8
DRAFT
100
AcDbLine
 62
7
  6
CONTINUOUS
 10
-37.7175666378
 20
12.9196273903
 11
-38.1956467596
 21
13.0762336509
  0
LINE
  5
3F6
100
AcDbEntity
  8
DRAFT
100
AcDbLine
 62
7
  6
CONTINUOUS
 10
-38.1956467596
 20
13.0762336509
 11
-38.5158670317
 21
13.1827357806
  0
LWPOLYLINE
  5
3F7
100
AcDbEntity
  8
COPY_PABLISH
100
AcDbPolyline
 62
7
  6
CONTINUOUS
 90
25
 70
0
 10
4.9519544539
 20
-5.5619213113
 10
5.0576231849
 20
-5.5974419987
 10
5.1621017847
 20
-5.6383972842
 10
5.2653902533
 20
-5.6847871677
 10
5.3679194604
 20
-5.7368561456
 10
5.4692585363
 20
-5.7943597215
 10
5.5681148714
 20
-5.8565644067
 10
5.6644566623
 20
-5.9235304165
 10
5.7583157124
 20
-5.9951975356
 10
5.8484948225
 20
-6.0706516291
 10
5.9349468533
 20
-6.1499412073
 10
6.017718944
 20
-6.2330177599
 10
6.0957553127
 20
-6.3188216216
 10
6.168995296
 20
-6.4073877284
 10
6.2374995572
 20
-6.4986811443
 10
6.3003943048
 20
-6.5915373953
 10
6.3576076822
 20
-6.685976501
 10
6.409211546
 20
-6.7819784418
 10
6.454547674
 20
-6.8783186853
 10
6.4935357782
 20
-6.9750015746
 10
6.5262561465
 20
-7.0720227665
 10
6.5522914205
 20
-7.1681446991
 10
6.5715024808
 20
-7.2629548517
 10
6.5840284467
 20
-7.3568657449
 10
6.5898693183
 20
-7.4498773788
  0
LINE
  5
3F8
100
AcDbEntity
  8
COPY_PABLISH
100
AcDbLine
 62
7
  6
CONTINUOUS
 10
4.7940078336
 20
-5.4106829658
 11
4.6294625453
 21
-5.354834823
  0
LINE
  5
3F9
100
AcDbEntity
  8
DRAFT
100
AcDbLine
 62
7
  6
CONTINUOUS
 10
-38.5158670317
 20
13.1827357806
 11
-38.8352229436
 21
13.2906722071
  0
LINE
  5
3FA
100
AcDbEntity
  8
DRAFT
100
AcDbLine
 62
7
  6
CONTINUOUS
 10
-38.8352229436
 20
13.2906722071
 11
-39.1525207815
 21
13.3999331065
  0
LWPOLYLINE
  5
3FB
100
AcDbEntity
  8
DRAFT
100
AcDbPolyline
 62
7
  6
CONTINUOUS
 90
11
 70
0
 10
-39.1525207815
 20
13.3999331065
 10
-39.465209076
 20
13.5101027584
 10
-39.6205712566
 20
13.5660378874
 10
-39.7747610654
 20
13.6223501105
 10
-39.9284548315
 20
13.679362208
 10
-40.084157347
 20
13.7384415386
 10
-40.2418906621
 20
13.7994083199
 10
-40.4016327267
 20
13.8624423342
 10
-40.5658221825
 20
13.9294502868
 10
-40.7350257498
 20
14.0003352702
 10
-40.9086767082
 20
14.0751941918
  0
LWPOLYLINE
  5
3FC
100
AcDbEntity
  8
COPY_PABLISH
100
AcDbPolyline
 62
250
  6
CONTINUOUS
 90
5
 70
0
 10
4.7858827009
 20
-2.651905441
 10
4.5986951934
 20
-2.5786269622
 10
4.4101843277
 20
-2.5089570417
 10
4.2203862191
 20
-2.4428502038
 10
4.0295546052
 20
-2.3816460923
  0
LWPOLYLINE
  5
3FD
100
AcDbEntity
  8
COPY_PABLISH
100
AcDbPolyline
 62
250
  6
CONTINUOUS
 90
55
 70
0
 10
4.7858825912
 20
-2.651901033
 10
4.9584844355
 20
-2.7212994037
 10
5.1267831562
 20
-2.7919542042
 10
5.2909160707
 20
-2.8635618149
 10
5.4507715517
 20
-2.9355155993
 10
5.6067756079
 20
-3.0078882609
 10
5.7597947829
 20
-3.0814719478
 10
5.9098724475
 20
-3.1561355359
 10
6.057112347
 20
-3.2316802153
 10
6.2023245148
 20
-3.3088932954
 10
6.3455003034
 20
-3.38769095
 10
6.4866822148
 20
-3.4679667681
 10
6.6266316143
 20
-3.5505596921
 10
6.7652891611
 20
-3.6354101975
 10
6.9026360255
 20
-3.7224897316
 10
7.0393663509
 20
-3.8127578521
 10
7.1755942669
 20
-3.9063335416
 10
7.3109830741
 20
-4.0030866834
 10
7.4454222135
 20
-4.1036128394
 10
7.5791223448
 20
-4.2081761683
 10
7.7115084509
 20
-4.3164388148
 10
7.8412231659
 20
-4.4279635614
 10
7.9680150899
 20
-4.5426038046
 10
8.0917689832
 20
-4.6601763926
 10
8.211346278
 20
-4.7800087971
 10
8.3263883811
 20
-4.9017900264
 10
8.4369634022
 20
-5.0253369969
 10
8.5426245264
 20
-5.1500788727
 10
8.6430539688
 20
-5.2756567687
 10
8.7383930985
 20
-5.4019215272
 10
8.8289370799
 20
-5.5286368762
 10
8.9146046876
 20
-5.6556560705
 10
8.9953861352
 20
-5.7827180151
 10
9.0717444213
 20
-5.9094942399
 10
9.1436668395
 20
-6.0357858881
 10
9.2111963166
 20
-6.161501549
 10
9.2749378838
 20
-6.286564163
 10
9.334875215
 20
-6.4106330371
 10
9.3911278676
 20
-6.5338716377
 10
9.4444718182
 20
-6.6570349968
 10
9.4949040552
 20
-6.7800567655
 10
9.5424199917
 20
-6.9028970476
 10
9.5876788309
 20
-7.0264032015
 10
9.6306009806
 20
-7.1505665648
 10
9.6711274338
 20
-7.2753304004
 10
9.7098242787
 20
-7.4015142484
 10
9.7465245054
 20
-7.5291299449
 10
9.7811113627
 20
-7.658129516
 10
9.8141019867
 20
-7.7892929685
 10
9.8452300812
 20
-7.9226487672
 10
9.8743096269
 20
-8.0581636064
 10
9.9018504842
 20
-8.1965944651
 10
9.9277786464
 20
-8.3382311486
 10
9.9514943118
 20
-8.4828420975
 10
9.9726323234
 20
-8.6304357295
  0
LWPOLYLINE
  5
3FE
100
AcDbEntity
  8
DRAFT
100
AcDbPolyline
 62
7
  6
CONTINUOUS
 90
12
 70
0
 10
-40.9086767082
 20
14.0751941918
 10
-41.0875135388
 20
14.1562244791
 10
-41.2726996112
 20
14.2435838101
 10
-41.4630715557
 20
14.3371145067
 10
-41.6558777446
 20
14.4385409624
 10
-41.8513460603
 20
14.5476932808
 10
-42.0492486205
 20
14.6647413583
 10
-42.2461501498
 20
14.7919192766
 10
-42.4423489918
 20
14.9291499652
 10
-42.637546803
 20
15.0765104947
 10
-42.8274132773
 20
15.2364661579
 10
-43.0105049796
 20
15.4098387191
  0
LWPOLYLINE
  5
3FF
100
AcDbEntity
  8
COPY_PABLISH
100
AcDbPolyline
 62
7
  6
CONTINUOUS
 90
3
 70
0
 10
5.1282526463
 20
-5.5567207338
 10
4.9607430961
 20
-5.4780524179
 10
4.7940078336
 20
-5.4106829658
  0
LWPOLYLINE
  5
400
100
AcDbEntity
  8
RACCORDO
100
AcDbPolyline
 62
250
  6
CONTINUOUS
 90
23
 70
0
 10
-7.9319949816
 20
40.4549109801
 10
-7.8553214976
 20
40.0631880788
 10
-7.7500537066
 20
39.6749757294
 10
-7.6164120217
 20
39.2906761142
 10
-7.4544821552
 20
38.910527587
 10
-7.264354569
 20
38.5349864986
 10
-7.0465022881
 20
38.1651955085
 10
-6.8016571791
 20
37.802403684
 10
-6.5306064879
 20
37.4476353619
 10
-6.2337731574
 20
37.1013160116
 10
-5.9114423686
 20
36.7637730612
 10
-5.5639994129
 20
36.435501076
 10
-5.1923386827
 20
36.1174297711
 10
-4.7975673613
 20
35.8105121034
 10
-4.3805961421
 20
35.5154148932
 10
-3.9422600166
 20
35.2326900963
 10
-3.4837138379
 20
34.9630328887
 10
-3.0061737767
 20
34.7070770061
 10
-2.5104784164
 20
34.4651939001
 10
-1.9972530292
 20
34.2376580015
 10
-1.467404066
 20
34.0248791519
 10
-0.9221681599
 20
33.8273616767
 10
-0.3626705138
 20
33.6455118402
  0
LWPOLYLINE
  5
401
100
AcDbEntity
  8
COPY_PABLISH
100
AcDbPolyline
 62
7
  6
CONTINUOUS
 90
5
 70
0
 10
7.726653338
 20
-54.2633847144
 10
7.7496179275
 20
-54.3852644515
 10
7.7805100424
 20
-54.4756245819
 10
7.818522682
 20
-54.5330822427
 10
7.8440239618
 20
-54.5510431808
  0
LINE
  5
402
100
AcDbEntity
  8
RACCORDO
100
AcDbLine
 62
250
  6
CONTINUOUS
 10
-2.414161194
 20
45.9315722541
 11
-2.3905107877
 21
45.6603668475
  0
LWPOLYLINE
  5
403
100
AcDbEntity
  8
RACCORDO
100
AcDbPolyline
 62
250
  6
CONTINUOUS
 90
22
 70
0
 10
4.7907160117
 20
-8.314817973
 10
4.7875040171
 20
-8.2676116109
 10
4.7804525381
 20
-8.2199553798
 10
4.769561575
 20
-8.1718492795
 10
4.7547423933
 20
-8.1230325554
 10
4.7360837274
 20
-8.0737659621
 10
4.7138517802
 20
-8.0248317643
 10
4.6879671366
 20
-7.9762009565
 10
4.6585092117
 20
-7.927902544
 10
4.6259824536
 20
-7.8808058072
 10
4.5903422288
 20
-7.8349532635
 10
4.5516331708
 20
-7.7903023954
 10
4.5104936279
 20
-7.7475949309
 10
4.4668708537
 20
-7.7068556962
 10
4.4208175945
 20
-7.6680598651
 10
4.3731304379
 20
-7.6318746863
 10
4.3237613341
 20
-7.5983445955
 10
4.2727583329
 20
-7.5674251571
 10
4.2210621709
 20
-7.5396503133
 10
4.1689864271
 20
-7.5151980448
 10
4.1162175225
 20
-7.493890371
 10
4.0627554572
 20
-7.4757272918
  0
LWPOLYLINE
  5
404
100
AcDbEntity
  8
RACCORDO
100
AcDbPolyline
 62
250
  6
CONTINUOUS
 90
9
 70
0
 10
4.9500009635
 20
-43.1418354277
 10
4.9545053404
 20
-43.2197616244
 10
4.9639369562
 20
-43.2905980122
 10
4.9781925311
 20
-43.353568444
 10
4.9971159337
 20
-43.407982941
 10
5.0204998871
 20
-43.4532452445
 10
5.0480882366
 20
-43.4888593561
 10
5.0795787655
 20
-43.5144349885
 10
5.1106827207
 20
-43.5285475864
  0
LWPOLYLINE
  5
405
100
AcDbEntity
  8
COPY_PABLISH
100
AcDbPolyline
 62
250
  6
CONTINUOUS
 90
11
 70
0
 10
7.7825746731
 20
-42.3105613124
 10
7.7840291093
 20
-42.3360807887
 10
7.792821362
 20
-42.3911910988
 10
7.8092650752
 20
-42.4454855816
 10
7.8332330886
 20
-42.4985443733
 10
7.8645401522
 20
-42.5499573069
 10
7.9029441093
 20
-42.5993266523
 10
7.9481475751
 20
-42.6462702517
 10
7.9998006759
 20
-42.6904250382
 10
8.0575039487
 20
-42.7314497791
 10
8.1208110477
 20
-42.7690273255
  0
LINE
  5
406
100
AcDbEntity
  8
RACCORDO
100
AcDbLine
 62
250
  6
CONTINUOUS
 10
1.8132476238
 20
47.4235297869
 11
1.8199921224
 21
47.2989987797
  0
LINE
  5
407
100
AcDbEntity
  8
RACCORDO
100
AcDbLine
 62
250
  6
CONTINUOUS
 10
5.6471064604
 20
-42.7403664095
 11
4.7907160117
 21
-8.314817973
  0
LINE
  5
408
100
AcDbEntity
  8
0
100
AcDbLine
 62
7
  6
CONTINUOUS
 10
1.8132476238
 20
47.4235297869
 11
1.8170996345
 21
47.1572331711
  0
LWPOLYLINE
  5
409
100
AcDbEntity
  8
COPY_PABLISH
100
AcDbPolyline
 62
250
  6
CONTINUOUS
 90
19
 70
0
 10
4.7858827009
 20
-2.651905441
 10
4.787080173
 20
-2.736133491
 10
4.7865347017
 20
-2.8224366454
 10
4.7842469535
 20
-2.9107046524
 10
4.7802198116
 20
-3.0008249248
 10
4.7744583944
 20
-3.0926821544
 10
4.7669700829
 20
-3.1861584259
 10
4.7577644666
 20
-3.2811340927
 10
4.7468532969
 20
-3.3774879626
 10
4.7342505176
 20
-3.4750968999
 10
4.7199722343
 20
-3.5738361648
 10
4.7040366943
 20
-3.6735795735
 10
4.6864642623
 20
-3.7741996585
 10
4.6672773952
 20
-3.8755678323
 10
4.6465006129
 20
-3.9775545512
 10
4.6241604674
 20
-4.080029481
 10
4.6002855082
 20
-4.1828616637
 10
4.5749062465
 20
-4.2859196847
 10
4.5480551157
 20
-4.3890718407
  0
LWPOLYLINE
  5
40A
100
AcDbEntity
  8
RACCORDO
100
AcDbPolyline
 62
250
  6
CONTINUOUS
 90
16
 70
0
 10
4.0627554572
 20
-7.4757272918
 10
4.0632277611
 20
-7.3915628543
 10
4.06867166
 20
-7.3020839542
 10
4.0790275102
 20
-7.2082709411
 10
4.0941818516
 20
-7.1111516504
 10
4.1139686509
 20
-7.0117901415
 10
4.1381711205
 20
-6.9112750402
 10
4.1665240939
 20
-6.8107076112
 10
4.1987169308
 20
-6.7111896926
 10
4.2343969205
 20
-6.6138116238
 10
4.2731731465
 20
-6.5196402994
 10
4.3146207689
 20
-6.4297074805
 10
4.3582856799
 20
-6.34499849
 10
4.4036894782
 20
-6.2664414177
 10
4.4503347112
 20
-6.1948969516
 10
4.4977103247
 20
-6.1311489479
  0
LWPOLYLINE
  5
40B
100
AcDbEntity
  8
ASSI
100
AcDbPolyline
 62
7
  6
CONTINUOUS
 90
13
 70
0
 10
5.3930508217
 20
2.0618453942
 10
5.4207212928
 20
2.4827918692
 10
5.4519946222
 20
2.9144157635
 10
5.4868708101
 20
3.3567170771
 10
5.5255244563
 20
3.812097231
 10
5.5677809608
 20
4.2781548042
 10
5.6131165245
 20
4.7476855334
 10
5.6618045862
 20
5.2211657471
 10
5.713571707
 20
5.6981191169
 10
5.7670737706
 20
6.1699123945
 10
5.8218627383
 20
6.6336678303
 10
5.8783866489
 20
7.0922631739
 10
5.9366455022
 20
7.5456984252
  0
LINE
  5
40C
100
AcDbEntity
  8
0
100
AcDbLine
 62
7
  6
CONTINUOUS
 10
5.8179577755
 20
4.485991834
 11
5.7757132825
 21
4.0389308905
  0
LINE
  5
40D
100
AcDbEntity
  8
0
100
AcDbLine
 62
7
  6
CONTINUOUS
 10
5.8611859823
 20
4.9170635119
 11
5.8179577755
 21
4.485991834
  0
LINE
  5
40E
100
AcDbEntity
  8
0
100
AcDbLine
 62
7
  6
CONTINUOUS
 10
5.9055737424
 20
5.3383682062
 11
5.8611859823
 21
4.9170635119
  0
LINE
  5
40F
100
AcDbEntity
  8
0
100
AcDbLine
 62
7
  6
CONTINUOUS
 10
5.9515511307
 20
5.7558592991
 11
5.9055737424
 21
5.3383682062
  0
LINE
  5
410
100
AcDbEntity
  8
0
100
AcDbLine
 62
7
  6
CONTINUOUS
 10
6.024074506
 20
6.3821904451
 11
5.9515511307
 21
5.7558592991
  0
LINE
  5
411
100
AcDbEntity
  8
0
100
AcDbLine
 62
7
  6
CONTINUOUS
 10
6.1014406706
 20
7.0146779514
 11
6.024074506
 21
6.3821904451
  0
LINE
  5
412
100
AcDbEntity
  8
0
100
AcDbLine
 62
7
  6
CONTINUOUS
 10
6.1556786404
 20
7.4395140463
 11
6.1014406706
 21
7.0146779514
  0
LWPOLYLINE
  5
413
100
AcDbEntity
  8
ASSI
100
AcDbPolyline
 62
7
  6
CONTINUOUS
 90
34
 70
0
 10
5.9366455022
 20
7.5456984252
 10
5.9428561415
 20
7.5900661493
 10
5.9497130482
 20
7.6352406976
 10
5.9572162224
 20
7.6812220698
 10
5.9652932384
 20
7.7277816208
 10
5.9740165219
 20
7.7751479959
 10
5.9836033496
 20
7.8240071309
 10
5.994077721
 20
7.8745654617
 10
6.0054156367
 20
7.9266165524
 10
6.0177623752
 20
7.9802270312
 10
6.0311055511
 20
8.0353853143
 10
6.0454575499
 20
8.0921029855
 10
6.061000807
 20
8.1504814235
 10
6.0777369825
 20
8.210569007
 10
6.0956644163
 20
8.2723173573
 10
6.1149605642
 20
8.3356827174
 10
6.1356373762
 20
8.400732105
 10
6.1576829022
 20
8.4673985023
 10
6.1812387479
 20
8.5354370991
 10
6.2062627051
 20
8.6047839215
 10
6.2327969819
 20
8.6755029433
 10
6.2611098077
 20
8.7475412755
 10
6.2912234196
 20
8.8210349316
 10
6.3231155804
 20
8.8958478982
 10
6.3569878084
 20
8.9715192457
 10
6.3928434719
 20
9.0481470114
 10
6.4306792026
 20
9.1256331581
 10
6.4706864132
 20
9.2032226445
 10
6.5129195494
 20
9.2811263991
 10
6.5573241655
 20
9.3591334934
 10
6.6039283375
 20
9.4358561015
 10
6.6527414241
 20
9.5108316146
 10
6.7037540665
 20
9.5845226415
 10
6.7569662648
 20
9.6569291821
  0
LWPOLYLINE
  5
414
100
AcDbEntity
  8
0
100
AcDbPolyline
 62
7
  6
CONTINUOUS
 90
19
 70
0
 10
6.1556786404
 20
7.4395140463
 10
6.1740382886
 20
7.566403989
 10
6.1964292848
 20
7.695105303
 10
6.2228516292
 20
7.8256179881
 10
6.2535477835
 20
7.9589399787
 10
6.2882752859
 20
8.0940733404
 10
6.326306751
 20
8.2280242709
 10
6.3675894783
 20
8.3603053088
 10
6.4121761684
 20
8.4914039154
 10
6.4594975377
 20
8.6197886715
 10
6.5095614942
 20
8.7454406193
 10
6.5623601299
 20
8.8683787166
 10
6.6173004381
 20
8.9871284181
 10
6.6746135312
 20
9.1019681588
 10
6.7340682968
 20
9.2126195037
 10
6.7943783904
 20
9.3167726023
 10
6.8551150306
 20
9.4136575046
 10
6.9167069989
 20
9.5040441607
 10
6.9791542952
 20
9.5879325705
  0
LWPOLYLINE
  5
415
100
AcDbEntity
  8
COPY_PABLISH
100
AcDbPolyline
 62
250
  6
CONTINUOUS
 90
10
 70
0
 10
-2.8563353724
 20
-44.2674446581
 10
-2.8378824301
 20
-44.1484597504
 10
-2.8217606868
 20
-44.0307932264
 10
-2.8080111391
 20
-43.9146681727
 10
-2.7966515085
 20
-43.8002852492
 10
-2.7877346387
 20
-43.6878872456
 10
-2.7813425766
 20
-43.5777533667
 10
-2.777511098
 20
-43.4701137228
 10
-2.7762354561
 20
-43.3651541901
 10
-2.7775247727
 20
-43.2630772999
  0
LINE
  5
416
100
AcDbEntity
  8
RACCORDO
100
AcDbLine
 62
250
  6
CONTINUOUS
 10
9.9790989848
 20
47.1954200819
 11
10.0036890887
 21
47.3524466515
  0
LWPOLYLINE
  5
417
100
AcDbEntity
  8
COPY_PABLISH
100
AcDbPolyline
 62
250
  6
CONTINUOUS
 90
10
 70
0
 10
4.6950932827
 20
7.9089880151
 10
4.7343434617
 20
8.1531088472
 10
4.7890585731
 20
8.4059956444
 10
4.8587334308
 20
8.6641921804
 10
4.9434578104
 20
8.9259356537
 10
5.0418240832
 20
9.1845088737
 10
5.1500042314
 20
9.429077402
 10
5.2651866598
 20
9.6537527991
 10
5.3864873761
 20
9.8567251409
 10
5.5122240788
 20
10.0342452752
  0
LINE
  5
418
100
AcDbEntity
  8
0
100
AcDbLine
 62
7
  6
CONTINUOUS
 10
23.3213214882
 20
41.1963309689
 11
23.3319194098
 21
41.2201637036
  0
LWPOLYLINE
  5
419
100
AcDbEntity
  8
0
100
AcDbPolyline
 62
250
  6
CONTINUOUS
 90
13
 70
0
 10
11.4966314579
 20
8.3026631167
 10
11.4129116877
 20
8.1706026788
 10
11.3306828748
 20
8.0234479647
 10
11.2508325091
 20
7.8627872048
 10
11.1742224097
 20
7.6903543992
 10
11.1016794241
 20
7.5080106027
 10
11.0339865032
 20
7.3177238391
 10
10.9718742519
 20
7.1215478597
 10
10.9160130436
 20
6.9215999779
 10
10.8670057843
 20
6.7200382167
 10
10.8253814061
 20
6.5190380179
 10
10.7915891584
 20
6.320768762
 10
10.765993759
 20
6.1273703549
  0
LINE
  5
41A
100
AcDbEntity
  8
0
100
AcDbLine
 62
250
  6
CONTINUOUS
 10
11.4966306452
 20
8.3026861396
 11
20.227850566
 21
19.5125721228
  0
LINE
  5
41B
100
AcDbEntity
  8
0
100
AcDbLine
 62
250
  6
CONTINUOUS
 10
5.5205896333
 20
2.2216693294
 11
5.3930508217
 21
2.0618453942
  0
LINE
  5
41C
100
AcDbEntity
  8
0
100
AcDbLine
 62
250
  6
CONTINUOUS
 10
20.954637539
 20
20.4233376593
 11
20.227850566
 21
19.5125721228
  0
LINE
  5
41D
100
AcDbEntity
  8
RACCORDO
100
AcDbLine
 62
250
  6
CONTINUOUS
 10
37.2827337024
 20
40.3834444134
 11
20.954637539
 21
20.4233376593
  0
LWPOLYLINE
  5
41E
100
AcDbEntity
  8
DRAFT
100
AcDbPolyline
 62
7
  6
CONTINUOUS
 90
37
 70
0
 10
7.6870628263
 20
4.5846682025
 10
7.7542566414
 20
4.661646428
 10
7.9150366035
 20
4.8232924377
 10
8.0877226071
 20
4.9682595828
 10
8.2717195655
 20
5.096731924
 10
8.4651574875
 20
5.2081150025
 10
8.6652940674
 20
5.3015004214
 10
8.8694153964
 20
5.3767611439
 10
9.0773037901
 20
5.4349611387
 10
9.2901576056
 20
5.4768024729
 10
9.5071343624
 20
5.5023620376
 10
9.7269962872
 20
5.511711068
 10
9.9507792488
 20
5.5046867717
 10
10.1772618396
 20
5.4811748092
 10
10.4056625411
 20
5.4410605219
 10
10.6378076021
 20
5.3832947139
 10
10.8738969557
 20
5.3068145814
 10
11.1112649495
 20
5.211631444
 10
11.3473258837
 20
5.0981227313
 10
11.5803744582
 20
4.9662558118
 10
11.8089734752
 20
4.8163906029
 10
12.0309130102
 20
4.6500916322
 10
12.2453807215
 20
4.4671525268
 10
12.4497607294
 20
4.2691778228
 10
12.6397545992
 20
4.0613883785
 10
12.814083454
 20
3.8459250938
 10
12.9722525895
 20
3.6237463948
 10
13.1123719071
 20
3.3990701664
 10
13.2345342156
 20
3.1736097959
 10
13.338688152
 20
2.9487226529
 10
13.4239701252
 20
2.7282083248
 10
13.4912507747
 20
2.5134394164
 10
13.5416943277
 20
2.3052601268
 10
13.5760103243
 20
2.1064309077
 10
13.5957057052
 20
1.9181490048
 10
13.6025855765
 20
1.7401028649
 10
13.5982444605
 20
1.5724618459
  0
LWPOLYLINE
  5
41F
100
AcDbEntity
  8
COPY_PABLISH
100
AcDbPolyline
 62
250
  6
CONTINUOUS
 90
10
 70
0
 10
-31.6157478484
 20
-35.8624405255
 10
-31.9738358666
 20
-36.2087979546
 10
-32.2914827613
 20
-36.5853774477
 10
-32.5671902368
 20
-36.9912803633
 10
-32.7936323852
 20
-37.429959046
 10
-32.9726749472
 20
-37.8963800957
 10
-33.1167639012
 20
-38.3772484927
 10
-33.2286857442
 20
-38.8679854423
 10
-33.30011496
 20
-39.3720568413
 10
-33.3276282343
 20
-39.8883286749
  0
LWPOLYLINE
  5
420
100
AcDbEntity
  8
COPY_PABLISH
100
AcDbPolyline
 62
250
  6
CONTINUOUS
 90
16
 70
0
 10
-37.7167675706
 20
5.4698019078
 10
-37.6302124562
 20
5.4613581638
 10
-37.5426362849
 20
5.4577689107
 10
-37.4547162276
 20
5.4590620475
 10
-37.3671318597
 20
5.4652277484
 10
-37.2805607775
 20
5.4762184823
 10
-37.1956733158
 20
5.4919492197
 10
-37.1131261864
 20
5.5122982388
 10
-37.0335574477
 20
5.537108224
 10
-36.9575824105
 20
5.566187318
 10
-36.8857885942
 20
5.5993106505
 10
-36.8187311846
 20
5.6362220772
 10
-36.7569287409
 20
5.6766361596
 10
-36.7008591854
 20
5.7202403733
 10
-36.6509561066
 20
5.7666975245
 10
-36.607605408
 20
5.8156483573
  0
LWPOLYLINE
  5
421
100
AcDbEntity
  8
COPY_PABLISH
100
AcDbPolyline
 62
250
  6
CONTINUOUS
 90
54
 70
0
 10
-34.9316935654
 20
9.5285878061
 10
-35.0991591444
 20
9.5610429691
 10
-35.2623735062
 20
9.5899605356
 10
-35.421214976
 20
9.6158754973
 10
-35.5760908168
 20
9.6389710403
 10
-35.7278417549
 20
9.6589793025
 10
-35.8765126903
 20
9.6760585153
 10
-36.0222148676
 20
9.6904735096
 10
-36.1657451898
 20
9.7019304509
 10
-36.307103043
 20
9.7105103211
 10
-36.4463417024
 20
9.7163489436
 10
-36.5842074978
 20
9.7190703745
 10
-36.7206490091
 20
9.7187001247
 10
-36.8556553732
 20
9.7152576285
 10
-36.9898945757
 20
9.7082016249
 10
-37.1234799927
 20
9.697482996
 10
-37.2560805419
 20
9.6830267893
 10
-37.3875564838
 20
9.6641605785
 10
-37.5181064464
 20
9.6407458934
 10
-37.6471613917
 20
9.612769261
 10
-37.7733547235
 20
9.5798313964
 10
-37.8964298491
 20
9.5419229034
 10
-38.0162730448
 20
9.4991566215
 10
-38.1317480662
 20
9.4515065061
 10
-38.2424975397
 20
9.3990636825
 10
-38.3485983476
 20
9.3420557599
 10
-38.4496231289
 20
9.2807851233
 10
-38.545265513
 20
9.2154189857
 10
-38.6356825516
 20
9.146198147
 10
-38.7211970941
 20
9.0735486649
 10
-38.8017385759
 20
8.9975706718
 10
-38.8773183308
 20
8.9185257377
 10
-38.9484354354
 20
8.8370377766
 10
-39.015090653
 20
8.7533019778
 10
-39.0773359486
 20
8.6674388924
 10
-39.1357924464
 20
8.5799021204
 10
-39.19045896
 20
8.4910269767
 10
-39.2414473327
 20
8.400721056
 10
-39.2895026457
 20
8.3086964284
 10
-39.3346210205
 20
8.2150173269
 10
-39.3767961012
 20
8.1197202873
 10
-39.4166455234
 20
8.0223500559
 10
-39.4540843353
 20
7.9228647653
 10
-39.4890509149
 20
7.8212841088
 10
-39.5220670655
 20
7.717122627
 10
-39.5529601503
 20
7.6102641816
 10
-39.5816115827
 20
7.5006844766
 10
-39.6084965638
 20
7.3879082423
 10
-39.633348012
 20
7.2717432188
 10
-39.6559845455
 20
7.1521098865
 10
-39.6768863411
 20
7.0285552973
 10
-39.6959827414
 20
6.9007452207
 10
-39.7127092494
 20
6.7685536714
 10
-39.7267303588
 20
6.6317570649
  0
LINE
  5
422
100
AcDbEntity
  8
COPY_PABLISH
100
AcDbLine
 62
250
  6
CONTINUOUS
 10
-34.7598646682
 20
9.4922148329
 11
-34.9316935654
 21
9.5285878061
  0
LWPOLYLINE
  5
423
100
AcDbEntity
  8
COPY_PABLISH
100
AcDbPolyline
 62
250
  6
CONTINUOUS
 90
5
 70
0
 10
-34.7598646682
 20
9.4922148329
 10
-34.5659958436
 20
9.4485218232
 10
-34.3706717123
 20
9.40035475
 10
-34.1738559419
 20
9.3477593629
 10
-33.9757001728
 20
9.2895169005
  0
LWPOLYLINE
  5
424
100
AcDbEntity
  8
0
100
AcDbPolyline
 62
7
  6
CONTINUOUS
 90
10
 70
0
 10
-8.1542468077
 20
6.258044062
 10
-8.0997238169
 20
6.2446202728
 10
-8.0457740371
 20
6.2375663085
 10
-7.9931223048
 20
6.2369457548
 10
-7.9422735046
 20
6.2428097923
 10
-7.8940808975
 20
6.2550266316
 10
-7.8496365085
 20
6.2731084599
 10
-7.8096453716
 20
6.2964714428
 10
-7.7740828305
 20
6.324785936
 10
-7.7408899148
 20
6.3604138448
  0
LINE
  5
425
100
AcDbEntity
  8
DRAFT
100
AcDbLine
 62
7
  6
CONTINUOUS
 10
9.9421003989
 20
-1.6453149082
 11
9.6106564303
 21
-1.5606955835
  0
LINE
  5
426
100
AcDbEntity
  8
DRAFT
100
AcDbLine
 62
7
  6
CONTINUOUS
 10
9.6106564303
 20
-1.5606955835
 11
9.2801894419
 21
-1.4733310853
  0
LWPOLYLINE
  5
427
100
AcDbEntity
  8
0
100
AcDbPolyline
 62
7
  6
CONTINUOUS
 90
20
 70
0
 10
8.9801298649
 20
-1.1400188968
 10
9.2287800145
 20
-1.2074808143
 10
9.47804215
 20
-1.2738688764
 10
9.7279396126
 20
-1.3391274501
 10
9.9774631831
 20
-1.4022930723
 10
10.226061826
 20
-1.4633044632
 10
10.4742865768
 20
-1.5222229026
 10
10.7227813224
 20
-1.5782687668
 10
10.9695593593
 20
-1.6312717217
 10
11.2166073909
 20
-1.6814021015
 10
11.4705294147
 20
-1.7283912852
 10
11.7309796
 20
-1.7728179144
 10
11.9983037774
 20
-1.8141033475
 10
12.2801434354
 20
-1.8502430393
 10
12.5789412234
 20
-1.8820554765
 10
12.892254492
 20
-1.9087221723
 10
13.2203967823
 20
-1.9257831212
 10
13.563472608
 20
-1.9317516546
 10
13.9213774554
 20
-1.9281144411
 10
14.2941113246
 20
-1.9148714807
  0
LINE
  5
428
100
AcDbEntity
  8
DRAFT
100
AcDbLine
 62
7
  6
CONTINUOUS
 10
9.2801894419
 20
-1.4733310853
 11
8.9480620903
 21
-1.3831412355
  0
LINE
  5
429
100
AcDbEntity
  8
DRAFT
100
AcDbLine
 62
7
  6
CONTINUOUS
 10
8.9480620903
 20
-1.3831412355
 11
8.6163672914
 21
-1.2911329471
  0
LINE
  5
42A
100
AcDbEntity
  8
0
100
AcDbLine
 62
7
  6
CONTINUOUS
 10
8.4858147903
 20
-1.0025031604
 11
8.9801298649
 21
-1.1400188968
  0
LINE
  5
42B
100
AcDbEntity
  8
DRAFT
100
AcDbLine
 62
7
  6
CONTINUOUS
 10
8.6163672914
 20
-1.2911329471
 11
8.1218708365
 21
-1.1510380661
  0
LINE
  5
42C
100
AcDbEntity
  8
0
100
AcDbLine
 62
7
  6
CONTINUOUS
 10
7.9990774933
 20
-0.8641867682
 11
8.4858147903
 21
-1.0025031604
  0
LINE
  5
42D
100
AcDbEntity
  8
DRAFT
100
AcDbLine
 62
7
  6
CONTINUOUS
 10
8.1218708365
 20
-1.1510380661
 11
7.7956490084
 21
-1.0570402046
  0
LINE
  5
42E
100
AcDbEntity
  8
0
100
AcDbLine
 62
7
  6
CONTINUOUS
 10
7.7582807005
 20
-0.7945291853
 11
7.9990774933
 21
-0.8641867682
  0
LWPOLYLINE
  5
42F
100
AcDbEntity
  8
0
100
AcDbPolyline
 62
7
  6
CONTINUOUS
 90
3
 70
0
 10
-37.6658679875
 20
13.1547868096
 10
-37.5096004025
 20
13.1095047185
 10
-37.3566177527
 20
13.0755162848
  0
LINE
  5
430
100
AcDbEntity
  8
DRAFT
100
AcDbLine
 62
7
  6
CONTINUOUS
 10
-37.6081230128
 20
12.8863963455
 11
-37.7175666378
 21
12.9196273903
  0
LINE
  5
431
100
AcDbEntity
  8
0
100
AcDbLine
 62
7
  6
CONTINUOUS
 10
-9.7130237227
 20
8.3623672033
 11
-7.9369320019
 21
7.8219791584
  0
LINE
  5
432
100
AcDbEntity
  8
0
100
AcDbLine
 62
7
  6
CONTINUOUS
 10
-7.9137593106
 20
7.8510177755
 11
-9.6898563638
 21
8.3913991382
  0
LINE
  5
433
100
AcDbEntity
  8
0
100
AcDbLine
 62
7
  6
CONTINUOUS
 10
-8.0954527232
 20
7.1586353067
 11
-9.0180600368
 21
7.4396437601
  0
LINE
  5
434
100
AcDbEntity
  8
0
100
AcDbLine
 62
7
  6
CONTINUOUS
 10
-9.0765532575
 20
6.5394180418
 11
-8.1542470759
 21
6.2580461244
  0
LINE
  5
435
100
AcDbEntity
  8
0
100
AcDbLine
 62
7
  6
CONTINUOUS
 10
-8.1312653669
 20
6.2868454141
 11
-9.0535739216
 21
6.5682143576
  0
LINE
  5
436
100
AcDbEntity
  8
0
100
AcDbLine
 62
7
  6
CONTINUOUS
 10
-12.1939487629
 20
9.1185354443
 11
-11.4358369301
 21
8.887250644
  0
LINE
  5
437
100
AcDbEntity
  8
0
100
AcDbLine
 62
7
  6
CONTINUOUS
 10
-11.4126740225
 20
8.9162770008
 11
-12.1707874226
 21
9.1475598371
  0
LINE
  5
438
100
AcDbEntity
  8
0
100
AcDbLine
 62
7
  6
CONTINUOUS
 10
-8.4407218834
 20
5.6601588228
 11
-9.1021961761
 21
5.8622163134
  0
LINE
  5
439
100
AcDbEntity
  8
0
100
AcDbLine
 62
7
  6
CONTINUOUS
 10
-12.3279849578
 20
6.8481606957
 11
-11.5935588655
 21
6.6235600892
  0
LINE
  5
43A
100
AcDbEntity
  8
0
100
AcDbLine
 62
7
  6
CONTINUOUS
 10
-11.6036605447
 20
6.6623643895
 11
-12.3050751067
 21
6.8768699373
  0
LINE
  5
43B
100
AcDbEntity
  8
0
100
AcDbLine
 62
7
  6
CONTINUOUS
 10
-6.881500814
 20
3.7859422219
 11
-7.7347761721
 21
4.0471522383
  0
LINE
  5
43C
100
AcDbEntity
  8
0
100
AcDbLine
 62
7
  6
CONTINUOUS
 10
-11.391753377
 20
5.870487702
 11
-12.5882343191
 21
6.2367050873
  0
LINE
  5
43D
100
AcDbEntity
  8
0
100
AcDbLine
 62
7
  6
CONTINUOUS
 10
-10.4177433429
 20
4.8686219971
 11
-11.1752493764
 21
5.1006308646
  0
LINE
  5
43E
100
AcDbEntity
  8
0
100
AcDbLine
 62
7
  6
CONTINUOUS
 10
-9.1551947965
 20
4.4820258553
 11
-9.91273603
 21
4.713982617
  0
LINE
  5
43F
100
AcDbEntity
  8
0
100
AcDbLine
 62
7
  6
CONTINUOUS
 10
-12.8497399593
 20
5.6136616216
 11
-13.6070995971
 21
5.8458212771
  0
LINE
  5
440
100
AcDbEntity
  8
0
100
AcDbLine
 62
7
  6
CONTINUOUS
 10
-14.1119622773
 20
6.0006512871
 11
-14.8691764756
 21
6.2330025834
  0
LINE
  5
441
100
AcDbEntity
  8
DRAFT
100
AcDbLine
 62
7
  6
CONTINUOUS
 10
14.9023969286
 20
-2.0976616456
 11
14.3219428764
 21
-1.9194098296
  0
LINE
  5
442
100
AcDbEntity
  8
DRAFT
100
AcDbLine
 62
7
  6
CONTINUOUS
 10
-43.0794564425
 20
15.7080037989
 11
-43.3606943739
 21
15.7943692431
  0
LINE
  5
443
100
AcDbEntity
  8
DRAFT
100
AcDbLine
 62
7
  6
CONTINUOUS
 10
20.6263493661
 20
-1.1576051382
 11
20.2212198505
 21
-1.0331937888
  0
LINE
  5
444
100
AcDbEntity
  8
0
100
AcDbLine
 62
7
  6
CONTINUOUS
 10
-15.0603102896
 20
9.9960810086
 11
-13.9155818776
 21
9.6448597286
  0
LINE
  5
445
100
AcDbEntity
  8
0
100
AcDbLine
 62
7
  6
CONTINUOUS
 10
-13.8924228564
 20
9.6738812152
 11
-15.0371515114
 21
10.0251021906
  0
LINE
  5
446
100
AcDbEntity
  8
0
100
AcDbLine
 62
7
  6
CONTINUOUS
 10
-15.5849210083
 20
6.4528938954
 11
-16.3418227884
 21
6.6855995176
  0
LINE
  5
447
100
AcDbEntity
  8
0
100
AcDbLine
 62
7
  6
CONTINUOUS
 10
-18.5708774967
 20
7.3715422453
 11
-19.3275859257
 21
7.6045185466
  0
LINE
  5
448
100
AcDbEntity
  8
0
100
AcDbLine
 62
7
  6
CONTINUOUS
 10
-17.0573705909
 20
6.9057140786
 11
-17.8141554077
 21
7.13860345
  0
LINE
  5
449
100
AcDbEntity
  8
0
100
AcDbLine
 62
7
  6
CONTINUOUS
 10
-21.0467442072
 20
8.1339756282
 11
-21.8034196959
 21
8.367037677
  0
LINE
  5
44A
100
AcDbEntity
  8
0
100
AcDbLine
 62
7
  6
CONTINUOUS
 10
-17.6166927007
 20
10.7841681736
 11
-16.4733838288
 21
10.4311680116
  0
LINE
  5
44B
100
AcDbEntity
  8
0
100
AcDbLine
 62
7
  6
CONTINUOUS
 10
-16.4502240191
 20
10.4601904863
 11
-17.5935309839
 21
10.8131930381
  0
LINE
  5
44C
100
AcDbEntity
  8
0
100
AcDbLine
 62
7
  6
CONTINUOUS
 10
-19.1287049592
 20
11.2518540559
 11
-18.3727477057
 21
11.0179276322
  0
LINE
  5
44D
100
AcDbEntity
  8
0
100
AcDbLine
 62
7
  6
CONTINUOUS
 10
-18.3495843521
 20
11.0469545479
 11
-19.105539724
 21
11.2808833295
  0
LINE
  5
44E
100
AcDbEntity
  8
0
100
AcDbLine
 62
7
  6
CONTINUOUS
 10
-20.3884201764
 20
11.64200875
 11
-19.6326156478
 21
11.4078770442
  0
LINE
  5
44F
100
AcDbEntity
  8
0
100
AcDbLine
 62
7
  6
CONTINUOUS
 10
-19.6094490395
 20
11.4369080385
 11
-20.3652513525
 21
11.6710425207
  0
LINE
  5
450
100
AcDbEntity
  8
0
100
AcDbLine
 62
7
  6
CONTINUOUS
 10
-22.8146103609
 20
12.3943013629
 11
-22.0590073248
 21
12.1599157693
  0
LINE
  5
451
100
AcDbEntity
  8
0
100
AcDbLine
 62
7
  6
CONTINUOUS
 10
-22.0358330426
 20
12.18895638
 11
-22.791433398
 21
12.4233453329
  0
LWPOLYLINE
  5
452
100
AcDbEntity
  8
DRAFT
100
AcDbPolyline
 62
7
  6
CONTINUOUS
 90
37
 70
0
 10
7.7956490084
 20
-1.0570402046
 10
7.6826790567
 20
-1.0219423465
 10
7.5687252158
 20
-0.9816024192
 10
7.4540297399
 20
-0.9359411979
 10
7.3383648793
 20
-0.8846719281
 10
7.2225030068
 20
-0.8279293815
 10
7.1081738908
 20
-0.7664536658
 10
6.995634337
 20
-0.7003598023
 10
6.8851350348
 20
-0.6298230457
 10
6.7782840242
 20
-0.5560041625
 10
6.6754603782
 20
-0.4793577036
 10
6.5765659301
 20
-0.4000472561
 10
6.482343219
 20
-0.3190070336
 10
6.3933154399
 20
-0.2370402661
 10
6.3089802513
 20
-0.1540323596
 10
6.2285274058
 20
-0.0695145568
 10
6.1519907362
 20
0.0162750179
 10
6.0794097347
 20
0.1031328595
 10
6.0101125057
 20
0.1917121675
 10
5.944175392
 20
0.2818510767
 10
5.8816935481
 20
0.3734022723
 10
5.8221812017
 20
0.4671334224
 10
5.765793307
 20
0.5629091324
 10
5.7126984032
 20
0.6606143612
 10
5.6626174667
 20
0.7611031345
 10
5.6156031711
 20
0.8647379788
 10
5.5721753822
 20
0.9708966262
 10
5.5328056981
 20
1.0789518286
 10
5.4976579495
 20
1.18896235
 10
5.4670202672
 20
1.3005001616
 10
5.4413453048
 20
1.4121842905
 10
5.4207099109
 20
1.5238146631
 10
5.4051435971
 20
1.6351903004
 10
5.3947244138
 20
1.7449520092
 10
5.3893344071
 20
1.8525511752
 10
5.3888206578
 20
1.9582278359
 10
5.3930508217
 20
2.0618453942
  0
LINE
  5
453
100
AcDbEntity
  8
0
100
AcDbLine
 62
7
  6
CONTINUOUS
 10
-38.1388202976
 20
13.3095025068
 11
-37.6658679875
 21
13.1547868096
  0
LWPOLYLINE
  5
454
100
AcDbEntity
  8
0
100
AcDbPolyline
 62
7
  6
CONTINUOUS
 90
26
 70
0
 10
-7.936932295
 20
7.8219808995
 10
-7.8350484563
 20
7.7863352859
 10
-7.7345331949
 20
7.7419691594
 10
-7.6361797059
 20
7.6891903323
 10
-7.5406759383
 20
7.6282051466
 10
-7.4489081489
 20
7.55957738
 10
-7.3619025112
 20
7.4843226914
 10
-7.2804315296
 20
7.4030817981
 10
-7.2050048283
 20
7.3164545651
 10
-7.1361033852
 20
7.2255532046
 10
-7.0743562612
 20
7.1313069571
 10
-7.0199833447
 20
7.0341821995
 10
-6.9728405714
 20
6.9345882913
 10
-6.9333094575
 20
6.8331360326
 10
-6.9017751579
 20
6.730546618
 10
-6.878228851
 20
6.6273644124
 10
-6.862906611
 20
6.5234125055
 10
-6.8563422126
 20
6.4202895057
 10
-6.8584191383
 20
6.3211072851
 10
-6.8686575795
 20
6.2266880761
 10
-6.8866242228
 20
6.1371750618
 10
-6.9112801553
 20
6.0542861192
 10
-6.9411166826
 20
5.9795455446
 10
-6.9756950487
 20
5.9113946052
 10
-7.016014519
 20
5.8471183912
 10
-7.0481033726
 20
5.804017117
  0
LINE
  5
455
100
AcDbEntity
  8
ASSI
100
AcDbLine
 62
7
  6
CONTINUOUS
 10
-31.09224349
 20
25.6921413304
 11
-30.4823362445
 21
25.2387026897
  0
LWPOLYLINE
  5
456
100
AcDbEntity
  8
COPY_PABLISH
100
AcDbPolyline
 62
250
  6
CONTINUOUS
 90
8
 70
0
 10
4.4878443911
 20
-5.1430434389
 10
4.5010916092
 20
-5.1937082562
 10
4.5176016551
 20
-5.2382267047
 10
4.537246856
 20
-5.2762545202
 10
4.5598752951
 20
-5.3074976308
 10
4.5853119857
 20
-5.3317144308
 10
4.6133602238
 20
-5.3487176491
 10
4.6294625409
 20
-5.3548348216
  0
LWPOLYLINE
  5
457
100
AcDbEntity
  8
RACCORDO
100
AcDbPolyline
 62
250
  6
CONTINUOUS
 90
25
 70
0
 10
-4.1322962754
 20
44.3281699289
 10
-4.0924278809
 20
44.0171187292
 10
-4.027576289
 20
43.7082177507
 10
-3.9377807647
 20
43.4016429988
 10
-3.8230240651
 20
43.0977587164
 10
-3.6836301337
 20
42.7977550263
 10
-3.5202571848
 20
42.5030241172
 10
-3.332520085
 20
42.2130168504
 10
-3.1216488339
 20
41.9297604635
 10
-2.8920297604
 20
41.6581421155
 10
-2.6462521058
 20
41.399379587
 10
-2.3851678815
 20
41.1527119284
 10
-2.1118834501
 20
40.9195106719
 10
-1.8281572952
 20
40.6996696445
 10
-1.5357956392
 20
40.4931116534
 10
-1.2384465775
 20
40.3008685639
 10
-0.9380710978
 20
40.1226042846
 10
-0.6362619555
 20
39.9577763357
 10
-0.3364025573
 20
39.8067445929
 10
-0.0415930572
 20
39.6694976319
 10
0.2480763999
 20
39.5446163435
 10
0.5339607835
 20
39.4303552276
 10
0.8159276166
 20
39.3258369814
 10
1.0921358627
 20
39.2308664571
 10
1.3617109187
 20
39.1448800284
  0
LINE
  5
458
100
AcDbEntity
  8
DRAFT
100
AcDbLine
 62
7
  6
CONTINUOUS
 10
5.5473775219
 20
1.8057866642
 11
5.5243383554
 21
2.015696871
  0
LWPOLYLINE
  5
459
100
AcDbEntity
  8
COPY_PABLISH
100
AcDbPolyline
 62
7
  6
CONTINUOUS
 90
19
 70
0
 10
6.9261844016
 20
-7.8850199963
 10
6.9181924914
 20
-7.7693361568
 10
6.8993069434
 20
-7.6457655948
 10
6.8690080381
 20
-7.5154767993
 10
6.8271406253
 20
-7.3801894109
 10
6.7736050106
 20
-7.2410154584
 10
6.7079486054
 20
-7.0981261473
 10
6.6299587736
 20
-6.9524222651
 10
6.5400177956
 20
-6.8056747816
 10
6.4383937033
 20
-6.6590961578
 10
6.325475415
 20
-6.5138997649
 10
6.2019788157
 20
-6.3715219393
 10
6.0688049966
 20
-6.2333648158
 10
5.9268257727
 20
-6.100591196
 10
5.7771179144
 20
-5.9743879298
 10
5.6210906331
 20
-5.8560129211
 10
5.4600120103
 20
-5.7464021296
 10
5.2951864439
 20
-5.6463606597
 10
5.1282526463
 20
-5.5567207338
  0
LWPOLYLINE
  5
45A
100
AcDbEntity
  8
RACCORDO
100
AcDbPolyline
 62
250
  6
CONTINUOUS
 90
22
 70
0
 10
6.1356274614
 20
-8.0191058903
 10
6.1285357365
 20
-7.913300459
 10
6.112515791
 20
-7.8054351763
 10
6.0876835021
 20
-7.6961190808
 10
6.0542305777
 20
-7.5860457634
 10
6.0123538547
 20
-7.4757516219
 10
5.96219364
 20
-7.3656122507
 10
5.9039273336
 20
-7.2561143465
 10
5.8379079621
 20
-7.1480053196
 10
5.7645860804
 20
-7.0420429924
 10
5.6844260249
 20
-6.938878934
 10
5.5978400306
 20
-6.8390258899
 10
5.5052818644
 20
-6.7430058999
 10
5.4072475991
 20
-6.6513407539
 10
5.3043010428
 20
-6.5645643962
 10
5.1970399712
 20
-6.4831816731
 10
5.0860782529
 20
-6.4076550689
 10
4.9720259981
 20
-6.3383966894
 10
4.8555080361
 20
-6.2757856863
 10
4.7371714348
 20
-6.2201713896
 10
4.6176829612
 20
-6.1718687608
 10
4.4977114079
 20
-6.1311492806
  0
LWPOLYLINE
  5
45B
100
AcDbEntity
  8
COPY_PABLISH
100
AcDbPolyline
 62
250
  6
CONTINUOUS
 90
11
 70
0
 10
6.9261843893
 20
-7.8850195018
 10
6.9276388069
 20
-7.9105387356
 10
6.9364310373
 20
-7.9656490683
 10
6.9528747347
 20
-8.0199435751
 10
6.9768427385
 20
-8.0730023923
 10
7.0081499328
 20
-8.1244155465
 10
7.04655408
 20
-8.1737850958
 10
7.0917572335
 20
-8.2207283504
 10
7.1434090882
 20
-8.2648821769
 10
7.2011101542
 20
-8.3059056533
 10
7.2644139323
 20
-8.3434817754
  0
LINE
  5
45C
100
AcDbEntity
  8
RACCORDO
100
AcDbLine
 62
250
  6
CONTINUOUS
 10
6.9920178823
 20
-42.4446532099
 11
6.1356274614
 21
-8.0191058903
  0
LINE
  5
45D
100
AcDbEntity
  8
COPY_PABLISH
100
AcDbLine
 62
7
  6
CONTINUOUS
 10
6.5898693183
 20
-7.4498773788
 11
7.4462596462
 21
-41.8754209617
  0
LINE
  5
45E
100
AcDbEntity
  8
COPY_PABLISH
100
AcDbLine
 62
7
  6
CONTINUOUS
 10
6.9261843881
 20
-7.8850194555
 11
7.7825746731
 21
-42.3105613124
  0
LINE
  5
45F
100
AcDbEntity
  8
COPY_PABLISH
100
AcDbLine
 62
250
  6
CONTINUOUS
 10
8.096856309
 20
-8.4796472018
 11
8.9532437178
 21
-42.9051894052
  0
LINE
  5
460
100
AcDbEntity
  8
0
100
AcDbLine
 62
7
  6
CONTINUOUS
 10
9.2427398242
 20
12.8483770093
 11
9.251279849
 21
12.5050814488
  0
LINE
  5
461
100
AcDbEntity
  8
COPY_PABLISH
100
AcDbLine
 62
250
  6
CONTINUOUS
 10
10.829022608
 20
-43.0559775746
 11
9.9726323234
 21
-8.6304357295
  0
LINE
  5
462
100
AcDbEntity
  8
DRAFT
100
AcDbLine
 62
7
  6
CONTINUOUS
 10
5.5243383554
 20
2.015696871
 11
5.5205896333
 21
2.2216693294
  0
LWPOLYLINE
  5
463
100
AcDbEntity
  8
COPY_PABLISH
100
AcDbPolyline
 62
7
  6
CONTINUOUS
 90
22
 70
0
 10
8.9531332131
 20
-42.9052031737
 10
8.9530784727
 20
-43.0360857803
 10
8.9464195365
 20
-43.1646865997
 10
8.9331690996
 20
-43.290761494
 10
8.9133549244
 20
-43.4140710622
 10
8.8870120565
 20
-43.5343813667
 10
8.8541828965
 20
-43.6514637274
 10
8.8149274151
 20
-43.7650951238
 10
8.7693228929
 20
-43.8750592675
 10
8.7174561409
 20
-43.9811468345
 10
8.659425891
 20
-44.08315588
 10
8.5953426078
 20
-44.1808922229
 10
8.5253282779
 20
-44.2741698155
 10
8.4495161785
 20
-44.3628110976
 10
8.3680506228
 20
-44.4466473347
 10
8.281086686
 20
-44.5255189388
 10
8.1887899099
 20
-44.5992757725
 10
8.0913359875
 20
-44.6677774348
 10
7.988910429
 20
-44.730893528
 10
7.8817082081
 20
-44.7885039066
 10
7.7699333917
 20
-44.8404989052
 10
7.6537987504
 20
-44.886779548
  0
LWPOLYLINE
  5
464
100
AcDbEntity
  8
COPY_PABLISH
100
AcDbPolyline
 62
7
  6
CONTINUOUS
 90
9
 70
0
 10
7.4462596462
 20
-41.8754209617
 10
7.4449925152
 20
-41.9662498943
 10
7.436982366
 20
-42.0538545822
 10
7.4222291986
 20
-42.1382350256
 10
7.4006124341
 20
-42.219724046
 10
7.3722526513
 20
-42.2979888217
 10
7.3375115875
 20
-42.3720308884
 10
7.2963074978
 20
-42.4417960988
 10
7.2500623077
 20
-42.5057419946
  0
LWPOLYLINE
  5
465
100
AcDbEntity
  8
0
100
AcDbPolyline
 62
7
  6
CONTINUOUS
 90
25
 70
0
 10
5.6169066084
 20
1.9949556142
 10
5.6127680597
 20
1.8505455699
 10
5.6188424237
 20
1.7035944894
 10
5.6352046956
 20
1.5546494254
 10
5.6619253402
 20
1.4039094254
 10
5.6989890952
 20
1.2523457316
 10
5.746080096
 20
1.1017077137
 10
5.8029225156
 20
0.9526764934
 10
5.8691514629
 20
0.8058158648
 10
5.9439014827
 20
0.662665797
 10
6.0265132303
 20
0.5239868464
 10
6.1164873422
 20
0.3900573812
 10
6.2129591093
 20
0.2615878584
 10
6.3149490726
 20
0.1393656024
 10
6.4221300209
 20
0.0233220986
 10
6.5346918003
 20
-0.0871090858
 10
6.651994876
 20
-0.1914890203
 10
6.7736393835
 20
-0.2895500629
 10
6.9004031951
 20
-0.3818925223
 10
7.0317983182
 20
-0.4680618112
 10
7.1673980283
 20
-0.5475722097
 10
7.3082202963
 20
-0.6206117118
 10
7.4542831704
 20
-0.6866924736
 10
7.6045161286
 20
-0.7448920576
 10
7.7582807005
 20
-0.7945291853
  0
LWPOLYLINE
  5
466
100
AcDbEntity
  8
RACCORDO
100
AcDbPolyline
 62
250
  6
CONTINUOUS
 90
3
 70
0
 10
10.0036890887
 20
47.3524466515
 10
10.0125250495
 20
47.5098034255
 10
10.0123898765
 20
47.542131306
  0
LWPOLYLINE
  5
467
100
AcDbEntity
  8
0
100
AcDbPolyline
 62
7
  6
CONTINUOUS
 90
4
 70
0
 10
5.6939551626
 20
3.0791322888
 10
5.6741822964
 20
2.8211462072
 10
5.6547647023
 20
2.5541307194
 10
5.6169066084
 20
1.9949556142
  0
LINE
  5
468
100
AcDbEntity
  8
0
100
AcDbLine
 62
7
  6
CONTINUOUS
 10
5.7343892673
 20
3.5719044114
 11
5.6939551626
 21
3.0791322888
  0
LWPOLYLINE
  5
469
100
AcDbEntity
  8
COPY_PABLISH
100
AcDbPolyline
 62
250
  6
CONTINUOUS
 90
13
 70
0
 10
5.4619338138
 20
-44.3003054392
 10
5.4561465386
 20
-44.3658016515
 10
5.4528633387
 20
-44.4289411743
 10
5.4521024618
 20
-44.4893730886
 10
5.453868138
 20
-44.5467615243
 10
5.4581505528
 20
-44.6007875254
 10
5.4649259021
 20
-44.651150823
 10
5.4741565501
 20
-44.6975716015
 10
5.4857911842
 20
-44.7397917485
 10
5.499765045
 20
-44.7775763803
 10
5.5160003872
 20
-44.8107155201
 10
5.5344069635
 20
-44.8390251698
 10
5.5548824359
 20
-44.8623480907
  0
LINE
  5
46A
100
AcDbEntity
  8
0
100
AcDbLine
 62
7
  6
CONTINUOUS
 10
5.7757132825
 20
4.0389308905
 11
5.7343892673
 21
3.5719044114
  0
LWPOLYLINE
  5
46B
100
AcDbEntity
  8
DRAFT
100
AcDbPolyline
 62
7
  6
CONTINUOUS
 90
8
 70
0
 10
7.0819475169
 20
3.0933921923
 10
7.1179075338
 20
3.3569920735
 10
7.1760097946
 20
3.6091555248
 10
7.2551590959
 20
3.8487329686
 10
7.354495148
 20
4.0752386272
 10
7.4723885023
 20
4.2873845677
 10
7.6063301328
 20
4.4831670049
 10
7.6870628263
 20
4.5846682025
  0
LWPOLYLINE
  5
46C
100
AcDbEntity
  8
COPY_PABLISH
100
AcDbPolyline
 62
250
  6
CONTINUOUS
 90
13
 70
0
 10
4.5480551157
 20
-4.3890718407
 10
4.5299429554
 20
-4.4607506236
 10
4.5140152322
 20
-4.5320860457
 10
4.5003605003
 20
-4.6026816447
 10
4.4890546664
 20
-4.6721451775
 10
4.4801606272
 20
-4.7400904424
 10
4.4737278778
 20
-4.8061394542
 10
4.4697921748
 20
-4.8699250182
 10
4.4683753788
 20
-4.9310927445
 10
4.4694853643
 20
-4.9893026797
 10
4.4731159627
 20
-5.0442313064
 10
4.4792469965
 20
-5.0955733422
 10
4.4878443911
 20
-5.1430434389
  0
LINE
  5
46D
100
AcDbEntity
  8
DRAFT
100
AcDbLine
 62
250
  6
CONTINUOUS
 10
7.9588349596
 20
-0.852545427
 11
7.7956490084
 21
-1.0570402046
  0
LINE
  5
46E
100
AcDbEntity
  8
RACCORDO
100
AcDbLine
 62
250
  6
CONTINUOUS
 10
4.4977114079
 20
-6.1311492806
 11
4.9519530989
 21
-5.5619201053
  0
LINE
  5
46F
100
AcDbEntity
  8
RACCORDO
100
AcDbLine
 62
250
  6
CONTINUOUS
 10
6.1356274614
 20
-8.0191058903
 11
6.5898692919
 21
-7.4498773578
  0
LWPOLYLINE
  5
470
100
AcDbEntity
  8
0
100
AcDbPolyline
 62
250
  6
CONTINUOUS
 90
13
 70
0
 10
16.5528368486
 20
2.2438974475
 10
16.4640987114
 20
2.1642029432
 10
16.3625140184
 20
2.0894625646
 10
16.2488611977
 20
2.0202490295
 10
16.1240111536
 20
1.957092704
 10
15.988920593
 20
1.900477539
 10
15.8446246943
 20
1.8508373615
 10
15.6922291753
 20
1.8085525504
 10
15.5329018197
 20
1.7739471214
 10
15.3678635289
 20
1.7472862444
 10
15.1983789665
 20
1.7287742115
 10
15.0257468669
 20
1.7185528714
 10
14.851290084
 20
1.7167005426
  0
LWPOLYLINE
  5
471
100
AcDbEntity
  8
COPY_PABLISH
100
AcDbPolyline
 62
250
  6
CONTINUOUS
 90
10
 70
0
 10
-31.2403322045
 20
-36.3849808609
 10
-31.6510538559
 20
-36.738194894
 10
-31.932948048
 20
-37.1044970462
 10
-32.1591782363
 20
-37.4993675112
 10
-32.3586381605
 20
-37.9177609018
 10
-32.5266260321
 20
-38.3591547722
 10
-32.6610835919
 20
-38.8284334051
 10
-32.766189114
 20
-39.331839657
 10
-32.8446301036
 20
-39.8621992519
 10
-32.8920891423
 20
-40.3856423011
  0
LWPOLYLINE
  5
472
100
AcDbEntity
  8
0
100
AcDbPolyline
 62
7
  6
CONTINUOUS
 90
4
 70
0
 10
-7.9752116936
 20
6.2655217112
 10
-8.0263742653
 20
6.2666296441
 10
-8.0786134335
 20
6.2737666718
 10
-8.1312655199
 20
6.2868428237
  0
LWPOLYLINE
  5
473
100
AcDbEntity
  8
COPY_PABLISH
100
AcDbPolyline
 62
7
  6
CONTINUOUS
 90
31
 70
0
 10
-35.8941739393
 20
7.9279123551
 10
-36.0387475453
 20
7.9356757511
 10
-36.1811963747
 20
7.9373390397
 10
-36.3212492671
 20
7.9328990549
 10
-36.4586396229
 20
7.9223642484
 10
-36.593105911
 20
7.9057546738
 10
-36.7243921662
 20
7.8831019486
 10
-36.852248477
 20
7.8544491936
 10
-36.9764314607
 20
7.8198509511
 10
-37.0967047272
 20
7.7793730812
 10
-37.2128393287
 20
7.7330926358
 10
-37.3246141957
 20
7.6810977129
 10
-37.4318165578
 20
7.623487288
 10
-37.5342423483
 20
7.5603710262
 10
-37.6316965934
 20
7.4918690732
 10
-37.7239937828
 20
7.418111827
 10
-37.8109582228
 20
7.339239689
 10
-37.8924243714
 20
7.2554027973
 10
-37.9682371524
 20
7.1667607408
 10
-38.0382522515
 20
7.0734822552
 10
-38.1023363905
 20
6.9757449021
 10
-38.1603675812
 20
6.8737347305
 10
-38.2122353576
 20
6.7676459234
 10
-38.2578409862
 20
6.6576804275
 10
-38.2970976537
 20
6.544047569
 10
-38.3299296325
 20
6.4269620379
 10
-38.3562753977
 20
6.3066484439
 10
-38.3760878728
 20
6.1833403135
 10
-38.389330443
 20
6.0572732748
 10
-38.3959768997
 20
5.9286851933
 10
-38.3960145517
 20
5.7978202809
  0
LWPOLYLINE
  5
474
100
AcDbEntity
  8
0
100
AcDbPolyline
 62
7
  6
CONTINUOUS
 90
15
 70
0
 10
-37.3566177527
 20
13.0755162848
 10
-37.2075869998
 20
13.0524337316
 10
-37.0634954869
 20
13.0398774977
 10
-36.9244073377
 20
13.0372542959
 10
-36.7895630568
 20
13.044039888
 10
-36.6595030785
 20
13.0598884725
 10
-36.5345135113
 20
13.0845085878
 10
-36.4136172066
 20
13.1179366428
 10
-36.2971580722
 20
13.1600966775
 10
-36.1857364704
 20
13.210832168
 10
-36.0790106013
 20
13.2704581005
 10
-35.977182713
 20
13.339192966
 10
-35.8812121729
 20
13.416743686
 10
-35.7919282599
 20
13.5026858914
 10
-35.708602336
 20
13.5982313817
  0
LWPOLYLINE
  5
475
100
AcDbEntity
  8
0
100
AcDbPolyline
 62
250
  6
CONTINUOUS
 90
3
 70
0
 10
8.7840968454
 20
6.6760305759
 10
9.2887945665
 20
6.5337300885
 10
10.7659950812
 20
6.1273714406
  0
LINE
  5
476
100
AcDbEntity
  8
ASSI
100
AcDbLine
 62
250
  6
CONTINUOUS
 10
5.9375875346
 20
7.5533394362
 11
5.3138109269
 21
7.7307488801
  0
LINE
  5
477
100
AcDbEntity
  8
0
100
AcDbLine
 62
250
  6
CONTINUOUS
 10
7.2293411222
 20
7.1238432458
 11
8.7840968454
 21
6.6760305759
  0
LINE
  5
478
100
AcDbEntity
  8
ASSI
100
AcDbLine
 62
250
  6
CONTINUOUS
 10
5.3138109269
 20
7.7307488801
 11
4.6950157682
 21
7.9089317702
  0
LWPOLYLINE
  5
479
100
AcDbEntity
  8
0
100
AcDbPolyline
 62
250
  6
CONTINUOUS
 90
3
 70
0
 10
6.1555133434
 20
7.4381608061
 10
6.6949023335
 20
7.2793637037
 10
7.2293411222
 20
7.1238432458
  0
LWPOLYLINE
  5
47A
100
AcDbEntity
  8
COPY_PABLISH
100
AcDbPolyline
 62
250
  6
CONTINUOUS
 90
3
 70
0
 10
-1.3978214486
 20
9.7215604522
 10
2.7757465477
 20
8.4833365029
 10
4.6950157682
 20
7.9089317702
  0
LWPOLYLINE
  5
47B
100
AcDbEntity
  8
COPY_PABLISH
100
AcDbPolyline
 62
250
  6
CONTINUOUS
 90
7
 70
0
 10
-14.4028450495
 20
13.626336959
 10
-12.4283931725
 20
13.0277633363
 10
-10.2377481565
 20
12.3661461373
 10
-7.9612323041
 20
11.6811011818
 10
-5.7222677367
 20
11.0099237943
 10
-3.5533010873
 20
10.3624793888
 10
-1.3978214486
 20
9.7215604522
  0
LWPOLYLINE
  5
47C
100
AcDbEntity
  8
0
100
AcDbPolyline
 62
250
  6
CONTINUOUS
 90
34
 70
0
 10
10.7659950812
 20
6.1273714406
 10
10.9947031444
 20
6.0564533842
 10
11.2233070522
 20
5.9708902801
 10
11.4506120928
 20
5.8705136063
 10
11.6760242002
 20
5.7530987013
 10
11.8975826934
 20
5.6203569457
 10
12.1125693989
 20
5.4779647331
 10
12.320242676
 20
5.3251880112
 10
12.5199923196
 20
5.161982363
 10
12.7104665455
 20
4.9951026263
 10
12.8919718318
 20
4.8244219036
 10
13.0641684766
 20
4.6492361128
 10
13.2260091018
 20
4.4756300072
 10
13.3781488544
 20
4.3045182833
 10
13.5212814249
 20
4.1344423818
 10
13.6552983949
 20
3.9682430096
 10
13.7811945086
 20
3.806786646
 10
13.8996349442
 20
3.6490931079
 10
14.0103564787
 20
3.4954921303
 10
14.1146224129
 20
3.3463457261
 10
14.212693454
 20
3.2015269589
 10
14.3030198525
 20
3.0609247953
 10
14.3864556541
 20
2.9253026901
 10
14.4636815413
 20
2.7946634432
 10
14.5330711967
 20
2.6680777709
 10
14.5950157656
 20
2.5463849769
 10
14.6504512084
 20
2.4298551841
 10
14.6985727229
 20
2.3168465399
 10
14.7395412358
 20
2.2079016205
 10
14.7741355064
 20
2.1035510687
 10
14.802360423
 20
2.0020714217
 10
14.824393013
 20
1.9031412122
 10
14.8406251597
 20
1.8078931928
 10
14.8512902366
 20
1.7166979184
  0
LINE
  5
47D
100
AcDbEntity
  8
COPY_PABLISH
100
AcDbLine
 62
250
  6
CONTINUOUS
 10
-33.3645792002
 20
19.5965756893
 11
-31.4529523312
 21
18.9943626169
  0
LINE
  5
47E
100
AcDbEntity
  8
ASSI
100
AcDbLine
 62
250
  6
CONTINUOUS
 10
-33.3645792002
 20
19.5965756893
 11
-33.9752037339
 21
19.7893121804
  0
LWPOLYLINE
  5
47F
100
AcDbEntity
  8
COPY_PABLISH
100
AcDbPolyline
 62
250
  6
CONTINUOUS
 90
8
 70
0
 10
-31.4529523312
 20
18.9943626169
 10
-27.3003196525
 20
17.675506628
 10
-25.1597198994
 20
16.9972462717
 10
-23.0087170065
 20
16.3182704632
 10
-20.7899867995
 20
15.6206938874
 10
-18.5343563766
 20
14.9140311839
 10
-16.3631390012
 20
14.2361653069
 10
-14.4028450495
 20
13.626336959
  0
LINE
  5
480
100
AcDbEntity
  8
ASSI
100
AcDbLine
 62
250
  6
CONTINUOUS
 10
-33.9752037339
 20
19.7893121804
 11
-34.5896182686
 21
19.9850315375
  0
LWPOLYLINE
  5
481
100
AcDbEntity
  8
0
100
AcDbPolyline
 62
250
  6
CONTINUOUS
 90
3
 70
0
 10
-35.8664968046
 20
20.3580645393
 10
-35.3435075412
 20
20.1888804744
 10
-34.8153132069
 20
20.0198793781
  0
LWPOLYLINE
  5
482
100
AcDbEntity
  8
0
100
AcDbPolyline
 62
250
  6
CONTINUOUS
 90
3
 70
0
 10
-37.8753767366
 20
21.0172927555
 10
-37.385140734
 20
20.8540458954
 10
-35.8664968046
 20
20.3580645393
  0
LINE
  5
483
100
AcDbEntity
  8
0
100
AcDbLine
 62
250
  6
CONTINUOUS
 10
-39.2946015853
 20
21.5004956919
 11
-37.8753767366
 21
21.0172927555
  0
LWPOLYLINE
  5
484
100
AcDbEntity
  8
0
100
AcDbPolyline
 62
250
  6
CONTINUOUS
 90
7
 70
0
 10
-38.3808659534
 20
23.619582134
 10
-37.9322574593
 20
23.4639442387
 10
-37.4736906463
 20
23.3070829185
 10
-37.0051655144
 20
23.1489981736
 10
-36.5264228207
 20
22.9898915346
 10
-36.0377218081
 20
22.8295614708
 10
-35.0330372556
 20
22.5032157601
  0
LWPOLYLINE
  5
485
100
AcDbEntity
  8
DRAFT
100
AcDbPolyline
 62
7
  6
CONTINUOUS
 90
4
 70
0
 10
5.7089389418
 20
1.2205174597
 10
5.6499861137
 20
1.3800745849
 10
5.5894331614
 20
1.5934515359
 10
5.5473775219
 20
1.8057866642
  0
LWPOLYLINE
  5
486
100
AcDbEntity
  8
RACCORDO
100
AcDbPolyline
 62
250
  6
CONTINUOUS
 90
22
 70
0
 10
-2.3905107877
 20
45.6603668475
 10
-2.3440010694
 20
45.3911635599
 10
-2.2748142326
 20
45.1243202283
 10
-2.18299487
 20
44.8600111183
 10
-2.0685027909
 20
44.598515356
 10
-1.9317268132
 20
44.3410390361
 10
-1.7735186039
 20
44.0891097969
 10
-1.5943634035
 20
43.8432730865
 10
-1.394959401
 20
43.6042870196
 10
-1.1770500953
 20
43.3738245968
 10
-0.9414708159
 20
43.152223499
 10
-0.6893663977
 20
42.9400622733
 10
-0.4236168121
 20
42.7390545272
 10
-0.1440422965
 20
42.548362015
 10
0.146627194
 20
42.3691927825
 10
0.4398214427
 20
42.2054528772
 10
0.7305417799
 20
42.0578712164
 10
1.0194656531
 20
41.9242064423
 10
1.305897847
 20
41.8032769515
 10
1.5886902528
 20
41.694249242
 10
1.8661231442
 20
41.5965550039
 10
2.1369629737
 20
41.5094588787
  0
LINE
  5
487
100
AcDbEntity
  8
RACCORDO
100
AcDbLine
 62
250
  6
CONTINUOUS
 10
1.8199921224
 20
47.2989987797
 11
1.842486035
 21
47.1430130392
  0
LWPOLYLINE
  5
488
100
AcDbEntity
  8
COPY_PABLISH
100
AcDbPolyline
 62
250
  6
CONTINUOUS
 90
10
 70
0
 10
17.9330862642
 20
-52.7929998615
 10
17.8784511752
 20
-52.1342906654
 10
17.8307320163
 20
-51.4612958511
 10
17.7899287874
 20
-50.7740154185
 10
17.7571161099
 20
-50.0708646743
 10
17.7312193625
 20
-49.3534283117
 10
17.7090146808
 20
-48.6264604113
 10
17.6894274434
 20
-47.8915456664
 10
17.6735322717
 20
-47.1470993836
 10
17.6613291658
 20
-46.3931215629
  0
LINE
  5
489
100
AcDbEntity
  8
0
100
AcDbLine
 62
7
  6
CONTINUOUS
 10
10.0123898765
 20
47.542131306
 11
10.0162418871
 21
47.2758346902
  0
LINE
  5
48A
100
AcDbEntity
  8
RACCORDO
100
AcDbLine
 62
250
  6
CONTINUOUS
 10
16.0408978196
 20
44.5586301035
 11
16.0511983371
 21
44.9026237609
  0
LWPOLYLINE
  5
48B
100
AcDbEntity
  8
RACCORDO
100
AcDbPolyline
 62
250
  6
CONTINUOUS
 90
3
 70
0
 10
17.7957336355
 20
42.9252064712
 10
17.8201070869
 20
43.2732946274
 10
17.8219153078
 20
43.4830775905
  0
LWPOLYLINE
  5
48C
100
AcDbEntity
  8
RACCORDO
100
AcDbPolyline
 62
250
  6
CONTINUOUS
 90
3
 70
0
 10
14.2564597326
 20
45.8222915132
 10
14.2789659024
 20
46.0939455031
 10
14.2812421761
 20
46.2695737467
  0
LWPOLYLINE
  5
48D
100
AcDbEntity
  8
DRAFT
100
AcDbPolyline
 62
7
  6
CONTINUOUS
 90
9
 70
0
 10
13.5982444605
 20
1.5724618459
 10
13.582775619
 20
1.3995168572
 10
13.5536676334
 20
1.2194382015
 10
13.5092804482
 20
1.033442553
 10
13.4476206095
 20
0.8420402555
 10
13.3672440722
 20
0.6478141785
 10
13.2679449294
 20
0.45506324
 10
13.1485622326
 20
0.2651229293
 10
13.0774754859
 20
0.166959681
  0
LWPOLYLINE
  5
48E
100
AcDbEntity
  8
COPY_PABLISH
100
AcDbPolyline
 62
250
  6
CONTINUOUS
 90
5
 70
0
 10
6.8162145057
 20
-54.2659759992
 10
6.7973458243
 20
-54.4325665435
 10
6.7579763415
 20
-54.5697447
 10
6.6989104833
 20
-54.6749360209
 10
6.6177400031
 20
-54.7475354804
  0
LINE
  5
48F
100
AcDbEntity
  8
RACCORDO
100
AcDbLine
 62
250
  6
CONTINUOUS
 10
16.0049902873
 20
44.2460106923
 11
16.0408978196
 21
44.5586301035
  0
LWPOLYLINE
  5
490
100
AcDbEntity
  8
RACCORDO
100
AcDbPolyline
 62
250
  6
CONTINUOUS
 90
4
 70
0
 10
19.8812275932
 20
40.4230789739
 10
19.9494898804
 20
40.8159309441
 10
19.9888425883
 20
41.209706544
 10
19.9989952146
 20
41.6265427566
  0
LINE
  5
491
100
AcDbEntity
  8
RACCORDO
100
AcDbLine
 62
250
  6
CONTINUOUS
 10
42.1719617329
 20
34.7478567897
 11
26.4143834747
 21
14.1301403628
  0
LWPOLYLINE
  5
492
100
AcDbEntity
  8
DRAFT
100
AcDbPolyline
 62
7
  6
CONTINUOUS
 90
39
 70
0
 10
13.0774754859
 20
0.166959681
 10
13.0085433878
 20
0.0799977906
 10
12.849830929
 20
-0.0955257984
 10
12.67196839
 20
-0.2603716239
 10
12.4754382015
 20
-0.4125693589
 10
12.2649029916
 20
-0.5469588406
 10
12.0404836815
 20
-0.6629553309
 10
11.8040771564
 20
-0.759499349
 10
11.564765509
 20
-0.8330002114
 10
11.3269973557
 20
-0.8836341324
 10
11.0904726454
 20
-0.9137359215
 10
10.8580161058
 20
-0.9248875893
 10
10.6320298256
 20
-0.9184865644
 10
10.4131793841
 20
-0.8963152808
 10
10.2014579672
 20
-0.8607293579
 10
9.9988579718
 20
-0.8135124587
 10
9.8052227524
 20
-0.75579495
 10
9.6170564401
 20
-0.6882606198
 10
9.4346040818
 20
-0.6117340114
 10
9.2587445617
 20
-0.5269110718
 10
9.0869267328
 20
-0.4333452967
 10
8.9200740736
 20
-0.3318843343
 10
8.758271102
 20
-0.2225272244
 10
8.5980424992
 20
-0.1026882864
 10
8.4397797043
 20
0.0277987996
 10
8.2847848085
 20
0.1687860476
 10
8.1316201604
 20
0.3231407508
 10
7.9811757802
 20
0.4913623879
 10
7.8354892732
 20
0.6730750317
 10
7.6955821114
 20
0.8701049138
 10
7.56250122
 20
1.0840053979
 10
7.4396918608
 20
1.3125680937
 10
7.3315252789
 20
1.5515560194
 10
7.2399193394
 20
1.7997822931
 10
7.1663242648
 20
2.0559845492
 10
7.1129636264
 20
2.315333785
 10
7.0807825943
 20
2.5751773709
 10
7.0702422463
 20
2.8350649089
 10
7.0819475169
 20
3.0933921923
  0
LINE
  5
493
100
AcDbEntity
  8
0
100
AcDbLine
 62
250
  6
CONTINUOUS
 10
26.4143834747
 20
14.1301403628
 11
25.6875965016
 21
13.2193748263
  0
LINE
  5
494
100
AcDbEntity
  8
0
100
AcDbLine
 62
250
  6
CONTINUOUS
 10
16.5528368486
 20
2.2438974475
 11
25.6875965016
 21
13.2193748263
  0
LINE
  5
495
100
AcDbEntity
  8
DRAFT
100
AcDbLine
 62
7
  6
CONTINUOUS
 10
14.2767860206
 20
-1.9342971188
 11
14.2958464567
 21
-1.9113958719
  0
LINE
  5
496
100
AcDbEntity
  8
0
100
AcDbLine
 62
7
  6
CONTINUOUS
 10
-35.7079536208
 20
13.3026001119
 11
-35.8752654269
 21
13.3030182824
  0
LWPOLYLINE
  5
497
100
AcDbEntity
  8
0
100
AcDbPolyline
 62
250
  6
CONTINUOUS
 90
6
 70
0
 10
9.0702744266
 20
8.9774344256
 10
9.5711405542
 20
8.8338807909
 10
10.0641265812
 20
8.6945704647
 10
10.5495080363
 20
8.5596990477
 10
11.027009391
 20
8.4290709394
 10
11.4966306452
 20
8.3026861396
  0
LINE
  5
498
100
AcDbEntity
  8
ASSI
100
AcDbLine
 62
250
  6
CONTINUOUS
 10
6.3488070079
 20
9.7900518197
 11
5.512224063
 21
10.0342457195
  0
LWPOLYLINE
  5
499
100
AcDbEntity
  8
0
100
AcDbPolyline
 62
250
  6
CONTINUOUS
 90
4
 70
0
 10
6.9789164683
 20
9.587627228
 10
7.5148848694
 20
9.4296431678
 10
8.0421465842
 20
9.2753156141
 10
9.0702744266
 20
8.9774344256
  0
LINE
  5
49A
100
AcDbEntity
  8
ASSI
100
AcDbLine
 62
250
  6
CONTINUOUS
 10
6.7648906751
 20
9.6671032149
 11
6.3488070079
 21
9.7900518197
  0
LINE
  5
49B
100
AcDbEntity
  8
COPY_PABLISH
100
AcDbLine
 62
250
  6
CONTINUOUS
 10
5.512224063
 20
10.0342457195
 11
1.224965588
 21
11.3171403636
  0
LWPOLYLINE
  5
49C
100
AcDbEntity
  8
COPY_PABLISH
100
AcDbPolyline
 62
250
  6
CONTINUOUS
 90
7
 70
0
 10
1.224965588
 20
11.3171403636
 10
-3.0387214461
 20
12.5966848026
 10
-5.1617863153
 20
13.2351794572
 10
-7.2773816168
 20
13.8733887486
 10
-9.3850222098
 20
14.5114825809
 10
-11.4851932349
 20
15.1492910501
 10
-13.5778946923
 20
15.786814156
  0
LWPOLYLINE
  5
49D
100
AcDbEntity
  8
COPY_PABLISH
100
AcDbPolyline
 62
250
  6
CONTINUOUS
 90
5
 70
0
 10
-13.5778946923
 20
15.786814156
 10
-15.6617507157
 20
16.4324944313
 10
-17.7507670828
 20
17.0820476834
 10
-19.8449437937
 20
17.7354739125
 10
-21.9441043417
 20
18.3932174769
  0
LWPOLYLINE
  5
49E
100
AcDbEntity
  8
0
100
AcDbPolyline
 62
250
  6
CONTINUOUS
 90
34
 70
0
 10
11.4966306452
 20
8.3026861396
 10
11.8354730501
 20
8.1968819119
 10
12.1720617236
 20
8.0702440094
 10
12.5049205431
 20
7.9233072361
 10
12.8341212775
 20
7.7555208379
 10
13.1565931534
 20
7.5685792431
 10
13.4664578436
 20
7.3672963176
 10
13.7621160779
 20
7.1535717892
 10
14.043314331
 20
6.928656322
 10
14.3070224513
 20
6.6975561493
 10
14.5527783001
 20
6.4624389761
 10
14.7808284282
 20
6.2246102551
 10
14.9900415958
 20
5.9882132852
 10
15.1802984479
 20
5.7558814687
 10
15.3530193937
 20
5.5279365242
 10
15.5097321175
 20
5.3049423429
 10
15.650972881
 20
5.0884581978
 10
15.7778214904
 20
4.8787911404
 10
15.8923322785
 20
4.6742976815
 10
15.9953676107
 20
4.4752036679
 10
16.0873139282
 20
4.2823392673
 10
16.1691422196
 20
4.094756107
 10
16.2414777125
 20
3.912664459
 10
16.3048158
 20
3.7364853619
 10
16.3597381445
 20
3.5654902127
 10
16.4067246144
 20
3.3998906973
 10
16.4463119528
 20
3.2398297826
 10
16.4790061724
 20
3.084427782
 10
16.505202154
 20
2.9337640816
 10
16.5253483476
 20
2.7879384973
 10
16.5398608933
 20
2.6460878319
 10
16.5490640091
 20
2.5079584375
 10
16.5532801812
 20
2.3738896471
 10
16.5528368486
 20
2.2438974475
  0
LINE
  5
49F
100
AcDbEntity
  8
COPY_PABLISH
100
AcDbLine
 62
250
  6
CONTINUOUS
 10
-21.9441043417
 20
18.3932174769
 11
-26.1584359885
 21
19.7189904611
  0
LWPOLYLINE
  5
4A0
100
AcDbEntity
  8
COPY_PABLISH
100
AcDbPolyline
 62
250
  6
CONTINUOUS
 90
3
 70
0
 10
-26.1584359885
 20
19.7189904611
 10
-30.395880101
 20
21.0540343338
 10
-32.5231369521
 20
21.7253661222
  0
LWPOLYLINE
  5
4A1
100
AcDbEntity
  8
0
100
AcDbPolyline
 62
250
  6
CONTINUOUS
 90
3
 70
0
 10
-35.0330372556
 20
22.5032157601
 10
-34.5170537157
 20
22.3372001132
 10
-33.9918895858
 20
22.1693564489
  0
LINE
  5
4A2
100
AcDbEntity
  8
ASSI
100
AcDbLine
 62
250
  6
CONTINUOUS
 10
-33.1340211879
 20
21.9289569594
 11
-33.7470414275
 21
22.1294571631
  0
LINE
  5
4A3
100
AcDbEntity
  8
ASSI
100
AcDbLine
 62
250
  6
CONTINUOUS
 10
-32.5231369521
 20
21.7253661222
 11
-33.1340211879
 21
21.9289569594
  0
LINE
  5
4A4
100
AcDbEntity
  8
0
100
AcDbLine
 62
250
  6
CONTINUOUS
 10
41.1629248421
 20
-18.0463398027
 11
41.1099649677
 21
-18.0057037745
  0
LINE
  5
4A5
100
AcDbEntity
  8
0
100
AcDbLine
 62
250
  6
CONTINUOUS
 10
41.2359173937
 20
-18.1129918623
 11
41.1629248421
 21
-18.0463398027
  0
LINE
  5
4A6
100
AcDbEntity
  8
RACCORDO
100
AcDbLine
 62
250
  6
CONTINUOUS
 10
13.4514064861
 20
-1.9298020262
 11
13.4661436769
 21
-1.9535997854
  0
LINE
  5
4A7
100
AcDbEntity
  8
RACCORDO
100
AcDbLine
 62
7
  6
CONTINUOUS
 10
13.3368169863
 20
-1.9278084982
 11
13.3503380658
 21
-1.9500446578
  0
LINE
  5
4A8
100
AcDbEntity
  8
RACCORDO
100
AcDbLine
 62
250
  6
CONTINUOUS
 10
13.9548413522
 20
-1.9507796795
 11
13.9407196908
 21
-1.9274272257
  0
LWPOLYLINE
  5
4A9
100
AcDbEntity
  8
RACCORDO
100
AcDbPolyline
 62
250
  6
CONTINUOUS
 90
17
 70
0
 10
1.842486035
 20
47.1430130392
 10
1.8805498596
 20
46.9881806431
 10
1.9341577487
 20
46.8349077908
 10
2.0031087175
 20
46.6839836444
 10
2.0870219351
 20
46.5362485414
 10
2.1854302137
 20
46.3924085106
 10
2.2980013575
 20
46.2528500821
 10
2.4244548906
 20
46.1179134588
 10
2.5644677205
 20
45.988004173
 10
2.7174132617
 20
45.8637585926
 10
2.8824805987
 20
45.7458284375
 10
3.0600387444
 20
45.6340385813
 10
3.2484706133
 20
45.5294899187
 10
3.4432852427
 20
45.4342777678
 10
3.6418995793
 20
45.3488425751
 10
3.8442940205
 20
45.2724243381
 10
4.0493306275
 20
45.2048293948
  0
LWPOLYLINE
  5
4AA
100
AcDbEntity
  8
0
100
AcDbPolyline
 62
250
  6
CONTINUOUS
 90
3
 70
0
 10
14.8512902366
 20
1.7166979184
 10
14.8880536966
 20
1.326925007
 10
14.9232419076
 20
0.9318816114
  0
LWPOLYLINE
  5
4AB
100
AcDbEntity
  8
0
100
AcDbPolyline
 62
250
  6
CONTINUOUS
 90
3
 70
0
 10
14.9232419076
 20
0.9318816114
 10
15.0268945239
 20
-0.2940352043
 10
15.0602758358
 20
-0.7187192356
  0
LWPOLYLINE
  5
4AC
100
AcDbEntity
  8
0
100
AcDbPolyline
 62
250
  6
CONTINUOUS
 90
3
 70
0
 10
15.0602758358
 20
-0.7187192356
 10
15.1239339073
 20
-1.5930182402
 10
15.1560662751
 20
-2.0430106807
  0
LWPOLYLINE
  5
4AD
100
AcDbEntity
  8
DRAFT
100
AcDbPolyline
 62
7
  6
CONTINUOUS
 90
6
 70
0
 10
15.5616632077
 20
-8.8544249957
 10
15.5226264105
 20
-7.9919810097
 10
15.4819182306
 20
-7.1461446198
 10
15.4362725705
 20
-6.3391032078
 10
15.387886758
 20
-5.5542808522
 10
15.343398378
 20
-4.7385931216
  0
LINE
  5
4AE
100
AcDbEntity
  8
DRAFT
100
AcDbLine
 62
7
  6
CONTINUOUS
 10
15.343398378
 20
-4.7385931216
 11
15.2240524394
 21
-2.1437026258
  0
LINE
  5
4AF
100
AcDbEntity
  8
DRAFT
100
AcDbLine
 62
7
  6
CONTINUOUS
 10
15.6785330764
 20
-11.5192049075
 11
15.5616632077
 21
-8.8544249957
  0
LWPOLYLINE
  5
4B0
100
AcDbEntity
  8
DRAFT
100
AcDbPolyline
 62
7
  6
CONTINUOUS
 90
5
 70
0
 10
15.8770866847
 20
-16.5621314692
 10
15.839972071
 20
-15.5146672601
 10
15.8000914384
 20
-14.4702196147
 10
15.7588208282
 20
-13.4460503154
 10
15.6785330764
 20
-11.5192049075
  0
LINE
  5
4B1
100
AcDbEntity
  8
DRAFT
100
AcDbLine
 62
7
  6
CONTINUOUS
 10
15.9849723283
 20
-19.8108248184
 11
15.8770866847
 21
-16.5621314692
  0
LINE
  5
4B2
100
AcDbEntity
  8
DRAFT
100
AcDbLine
 62
7
  6
CONTINUOUS
 10
16.1817055032
 20
-25.924126357
 11
15.9849723283
 21
-19.8108248184
  0
LINE
  5
4B3
100
AcDbEntity
  8
DRAFT
100
AcDbLine
 62
250
  6
CONTINUOUS
 10
17.1739657526
 20
-25.357451995
 11
17.0678948641
 21
-20.8736469085
  0
LWPOLYLINE
  5
4B4
100
AcDbEntity
  8
DRAFT
100
AcDbPolyline
 62
250
  6
CONTINUOUS
 90
12
 70
0
 10
17.0678948641
 20
-20.8736469085
 10
17.0011803236
 20
-17.9537376751
 10
16.9653694254
 20
-16.432214862
 10
16.925661448
 20
-14.7902366481
 10
16.8833028732
 20
-13.08433618
 10
16.8389886104
 20
-11.4154825279
 10
16.7928238964
 20
-9.8259034185
 10
16.7447034945
 20
-8.2733711252
 10
16.6950066039
 20
-6.7321715379
 10
16.6438596245
 20
-5.1937332868
 10
16.5911361564
 20
-3.6666277418
 10
16.5368361997
 20
-2.1508549028
  0
LWPOLYLINE
  5
4B5
100
AcDbEntity
  8
COPY_PABLISH
100
AcDbPolyline
 62
250
  6
CONTINUOUS
 90
10
 70
0
 10
17.6613291658
 20
-46.3931215629
 10
17.6096938738
 20
-44.0128718983
 10
17.5564604531
 20
-41.6445280188
 10
17.5016289037
 20
-39.2880899243
 10
17.4439071201
 20
-36.9451143128
 10
17.3845872077
 20
-34.6140444864
 10
17.3275454831
 20
-32.2902103508
 10
17.2740740518
 20
-29.972055208
 10
17.2228808083
 20
-27.6611357561
 10
17.1739657526
 20
-25.357451995
  0
LINE
  5
4B6
100
AcDbEntity
  8
COPY_PABLISH
100
AcDbLine
 62
250
  6
CONTINUOUS
 10
16.2243347994
 20
-28.1976247148
 11
16.18170551
 21
-25.9241266009
  0
LINE
  5
4B7
100
AcDbEntity
  8
0
100
AcDbLine
 62
7
  6
CONTINUOUS
 10
14.2812421761
 20
46.2695737467
 11
14.2862408637
 21
45.9240052304
  0
LINE
  5
4B8
100
AcDbEntity
  8
0
100
AcDbLine
 62
7
  6
CONTINUOUS
 10
16.0511983371
 20
44.9026237609
 11
16.0565013486
 21
44.5360167707
  0
LINE
  5
4B9
100
AcDbEntity
  8
0
100
AcDbLine
 62
7
  6
CONTINUOUS
 10
17.8219153078
 20
43.4830775905
 11
17.8267618335
 21
43.1480283111
  0
LWPOLYLINE
  5
4BA
100
AcDbEntity
  8
COPY_PABLISH
100
AcDbPolyline
 62
250
  6
CONTINUOUS
 90
9
 70
0
 10
16.3472423448
 20
-42.064021541
 10
16.3386229103
 20
-38.5912570235
 10
16.3365723104
 20
-37.3763371142
 10
16.3314090097
 20
-36.1459971962
 10
16.3218981233
 20
-34.8883357301
 10
16.3098649872
 20
-33.6317241958
 10
16.2961390454
 20
-32.4364694898
 10
16.280954483
 20
-31.3750089195
 10
16.2243347994
 20
-28.1976247148
  0
LWPOLYLINE
  5
4BB
100
AcDbEntity
  8
COPY_PABLISH
100
AcDbPolyline
 62
250
  6
CONTINUOUS
 90
5
 70
0
 10
16.3688157363
 20
-47.0640534348
 10
16.3664185023
 20
-45.7851262883
 10
16.3599255058
 20
-44.5059978869
 10
16.3525417826
 20
-43.2483026598
 10
16.3472423448
 20
-42.064021541
  0
LINE
  5
4BC
100
AcDbEntity
  8
COPY_PABLISH
100
AcDbLine
 62
250
  6
CONTINUOUS
 10
16.3678860004
 20
-47.7220753782
 11
16.3688157363
 21
-47.0640534348
  0
LWPOLYLINE
  5
4BD
100
AcDbEntity
  8
COPY_PABLISH
100
AcDbPolyline
 62
250
  6
CONTINUOUS
 90
5
 70
0
 10
16.311303461
 20
-52.1119139539
 10
16.3413227196
 20
-50.6355310117
 10
16.3580756916
 20
-49.8883385828
 10
16.367102863
 20
-49.1455619376
 10
16.3678860004
 20
-47.7220753782
  0
LWPOLYLINE
  5
4BE
100
AcDbEntity
  8
0
100
AcDbPolyline
 62
250
  6
CONTINUOUS
 90
13
 70
0
 10
16.5528368486
 20
2.2438974475
 10
16.5399409642
 20
1.9259727726
 10
16.5289791127
 20
1.6010907895
 10
16.519951294
 20
1.269251498
 10
16.5129004478
 20
0.9306380367
 10
16.5077836344
 20
0.5850672671
 10
16.504472035
 20
0.2319897739
 10
16.503015228
 20
-0.1289046145
 10
16.5033636349
 20
-0.4973057265
 10
16.5052397014
 20
-0.8728324626
 10
16.5085509092
 20
-1.2553577896
 10
16.5133897765
 20
-1.6450087407
 10
16.5197563033
 20
-2.0417853159
  0
LWPOLYLINE
  5
4BF
100
AcDbEntity
  8
COPY_PABLISH
100
AcDbPolyline
 62
250
  6
CONTINUOUS
 90
3
 70
0
 10
16.243921981
 20
-53.5055183083
 10
16.2867324082
 20
-52.8237354687
 10
16.311303461
 20
-52.1119139539
  0
LWPOLYLINE
  5
4C0
100
AcDbEntity
  8
COPY_PABLISH
100
AcDbPolyline
 62
250
  6
CONTINUOUS
 90
48
 70
0
 10
10.829022608
 20
-43.0559775746
 10
10.8149595144
 20
-43.1928250968
 10
10.7981321743
 20
-43.3251414984
 10
10.7789104786
 20
-43.4531073515
 10
10.7578907153
 20
-43.576808939
 10
10.7351618015
 20
-43.6965576177
 10
10.7102437603
 20
-43.812805924
 10
10.6833235651
 20
-43.9256263459
 10
10.654672893
 20
-44.0352054469
 10
10.6238060079
 20
-44.1420315987
 10
10.5908391268
 20
-44.2461320371
 10
10.5559425216
 20
-44.3476258708
 10
10.5185827881
 20
-44.4470129991
 10
10.4788171544
 20
-44.544279205
 10
10.4367261581
 20
-44.6394718486
 10
10.3916831161
 20
-44.733057361
 10
10.3436908059
 20
-44.82500364
 10
10.2927490898
 20
-44.9152514244
 10
10.2381078987
 20
-45.004094669
 10
10.1796539618
 20
-45.0916273494
 10
10.1173869046
 20
-45.1775161618
 10
10.0506884835
 20
-45.2613040535
 10
9.9795102834
 20
-45.3428658321
 10
9.9038551399
 20
-45.4220018245
 10
9.8232362674
 20
-45.4980732095
 10
9.7376501376
 20
-45.5708085058
 10
9.6471716993
 20
-45.6401020755
 10
9.551489337
 20
-45.7055144751
 10
9.4504518156
 20
-45.7667977735
 10
9.344363774
 20
-45.8237866314
 10
9.2336505639
 20
-45.8761812552
 10
9.1182339513
 20
-45.9237559123
 10
8.9984627011
 20
-45.9664300431
 10
8.8754597712
 20
-46.0042459489
 10
8.7493332801
 20
-46.0370979093
 10
8.6203314666
 20
-46.0650058262
 10
8.4898110923
 20
-46.0883809793
 10
8.3583392594
 20
-46.1072393029
 10
8.22571542
 20
-46.1217219035
 10
8.0920815822
 20
-46.13249838
 10
7.9577729461
 20
-46.139638532
 10
7.8226795544
 20
-46.1431874023
 10
7.6861443606
 20
-46.1436728386
 10
7.5481848242
 20
-46.1410672408
 10
7.408858028
 20
-46.1353380812
 10
7.2674324577
 20
-46.126842984
 10
7.1238594575
 20
-46.1154404181
 10
6.9781434808
 20
-46.1010446737
  0
LWPOLYLINE
  5
4C1
100
AcDbEntity
  8
COPY_PABLISH
100
AcDbPolyline
 62
7
  6
CONTINUOUS
 90
6
 70
0
 10
7.4428531365
 20
-54.2298886623
 10
7.4179763841
 20
-54.3613613014
 10
7.3847301682
 20
-54.4604521291
 10
7.3434869486
 20
-54.5263248588
 10
7.2941740563
 20
-54.5582598847
 10
7.2863592007
 20
-54.5599680035
  0
LWPOLYLINE
  5
4C2
100
AcDbEntity
  8
COPY_PABLISH
100
AcDbPolyline
 62
250
  6
CONTINUOUS
 90
6
 70
0
 10
7.0750706981
 20
-54.208813021
 10
7.0455752474
 20
-54.3636430235
 10
6.999849657
 20
-54.487882339
 10
6.938247474
 20
-54.5798161552
 10
6.8603319864
 20
-54.6381044558
 10
6.8284955411
 20
-54.650230179
  0
LINE
  5
4C3
100
AcDbEntity
  8
0
100
AcDbLine
 62
7
  6
CONTINUOUS
 10
-35.8752654269
 20
13.3030182824
 11
-36.0495810444
 21
13.2903233523
  0
LWPOLYLINE
  5
4C4
100
AcDbEntity
  8
0
100
AcDbPolyline
 62
7
  6
CONTINUOUS
 90
39
 70
0
 10
39.9872432722
 20
10.268341595
 10
39.8634460293
 20
10.2984427818
 10
39.6132184996
 20
10.3262137025
 10
39.3520358191
 20
10.3115351773
 10
39.0800209469
 20
10.254883653
 10
38.8002499573
 20
10.156899772
 10
38.5126348085
 20
10.0171143598
 10
38.2172635424
 20
9.8359965909
 10
37.9174763584
 20
9.6155946318
 10
37.6132231303
 20
9.3554625571
 10
37.3045539844
 20
9.0560462921
 10
36.994959499
 20
8.7207317792
 10
36.6844291704
 20
8.3491115279
 10
36.3729735023
 20
7.9415930286
 10
36.0641145844
 20
7.5027846955
 10
35.7578818931
 20
7.0323313494
 10
35.4542459521
 20
6.5305881695
 10
35.1566404217
 20
6.0032291077
 10
34.8651337548
 20
5.4499633914
 10
34.5796574986
 20
4.8710817931
 10
34.3034399552
 20
4.273130583
 10
34.0365862226
 20
3.6558932968
 10
33.7789912027
 20
3.0195863987
 10
33.5335679033
 20
2.3714055515
 10
33.3004544888
 20
1.7112159709
 10
33.0795127947
 20
1.0391524412
 10
32.8732413355
 20
0.3628149783
 10
32.6818066368
 20
-0.3178449323
 10
32.505042173
 20
-1.0027787761
 10
32.3449468811
 20
-1.6842409936
 10
32.2017099773
 20
-2.3621921774
 10
32.0751422455
 20
-3.0366717348
 10
31.9666749741
 20
-3.7000523283
 10
31.8765136262
 20
-4.3522079707
 10
31.8044527387
 20
-4.9932646493
 10
31.7513072105
 20
-5.6159729885
 10
31.7173486748
 20
-6.2179165298
 10
31.7023054984
 20
-6.8015117316
 10
31.7061776814
 20
-7.366758594
  0
LINE
  5
4C5
100
AcDbEntity
  8
0
100
AcDbLine
 62
7
  6
CONTINUOUS
 10
-31.2827261622
 20
25.2933550048
 11
9.2427398242
 21
12.8483770093
  0
LINE
  5
4C6
100
AcDbEntity
  8
ASSI
100
AcDbLine
 62
7
  6
CONTINUOUS
 10
-30.4823362445
 20
25.2387026897
 11
9.5855480999
 21
12.9342435835
  0
LINE
  5
4C7
100
AcDbEntity
  8
0
100
AcDbLine
 62
7
  6
CONTINUOUS
 10
-31.09224349
 20
25.6921413304
 11
9.752830371
 21
13.149014853
  0
LINE
  5
4C8
100
AcDbEntity
  8
0
100
AcDbLine
 62
7
  6
CONTINUOUS
 10
-31.0970655085
 20
25.8859788845
 11
9.873735269
 21
13.3042428891
  0
LINE
  5
4C9
100
AcDbEntity
  8
RACCORDO
100
AcDbLine
 62
250
  6
CONTINUOUS
 10
20.285298676
 20
-1.0157333007
 11
20.286229667
 21
-1.0531576737
  0
LINE
  5
4CA
100
AcDbEntity
  8
DRAFT
100
AcDbLine
 62
7
  6
CONTINUOUS
 10
20.6263493661
 20
-1.1576051382
 11
21.7954193341
 21
-48.152378223
  0
LINE
  5
4CB
100
AcDbEntity
  8
RACCORDO
100
AcDbLine
 62
250
  6
CONTINUOUS
 10
20.9527535392
 20
-0.833862181
 11
22.1201704602
 21
-47.7621853835
  0
LINE
  5
4CC
100
AcDbEntity
  8
0
100
AcDbLine
 62
7
  6
CONTINUOUS
 10
19.9989952146
 20
41.6265427566
 11
20.0151525132
 21
40.5095588385
  0
LWPOLYLINE
  5
4CD
100
AcDbEntity
  8
RACCORDO
100
AcDbPolyline
 62
250
  6
CONTINUOUS
 90
18
 70
0
 10
22.1201704602
 20
-47.7621853835
 10
22.1213624007
 20
-47.8462034841
 10
22.1205709473
 20
-47.9385011321
 10
22.1171552925
 20
-48.0388253133
 10
22.1103806843
 20
-48.1473146809
 10
22.0994937513
 20
-48.2631708696
 10
22.0838631034
 20
-48.3847072586
 10
22.0627562448
 20
-48.5115174587
 10
22.0354068635
 20
-48.6431332347
 10
22.0013538974
 20
-48.7778128902
 10
21.9599349367
 20
-48.9150465331
 10
21.9104705355
 20
-49.054293074
 10
21.8527648039
 20
-49.1938493217
 10
21.7862921491
 20
-49.333173258
 10
21.7105429833
 20
-49.4716648772
 10
21.6256894305
 20
-49.607681773
 10
21.5314183462
 20
-49.7406893039
 10
21.4444958867
 20
-49.8499712575
  0
LWPOLYLINE
  5
4CE
100
AcDbEntity
  8
COPY_PABLISH
100
AcDbPolyline
 62
250
  6
CONTINUOUS
 90
10
 70
0
 10
5.6406642861
 20
-43.6084167547
 10
5.628588187
 20
-43.6376124662
 10
5.5980669792
 20
-43.7189529699
 10
5.5699323403
 20
-43.8020162937
 10
5.5444018278
 20
-43.8861601518
 10
5.5216728502
 20
-43.9707338994
 10
5.5019211417
 20
-44.0550835616
 10
5.4852994263
 20
-44.1385569017
 10
5.471936237
 20
-44.2205084646
 10
5.4619349043
 20
-44.3003045596
  0
LWPOLYLINE
  5
4CF
100
AcDbEntity
  8
DRAFT
100
AcDbPolyline
 62
7
  6
CONTINUOUS
 90
3
 70
0
 10
26.3790457364
 20
14.5805737981
 10
26.4026718398
 20
14.3542922397
 10
26.4143834747
 20
14.1301403628
  0
LWPOLYLINE
  5
4D0
100
AcDbEntity
  8
ASSI
100
AcDbPolyline
 62
7
  6
CONTINUOUS
 90
22
 70
0
 10
26.4143834747
 20
14.1301403628
 10
26.3900221865
 20
14.4857723008
 10
26.3367762941
 20
14.8445508437
 10
26.2546457976
 20
15.2064759913
 10
26.1428512352
 20
15.5735993
 10
26.0021720686
 20
15.9438692134
 10
25.8349466829
 20
16.311131063
 10
25.6407313654
 20
16.6753345698
 10
25.4199698289
 20
17.0365300128
 10
25.1763315967
 20
17.3887135601
 10
24.9094342911
 20
17.7317345804
 10
24.6196602899
 20
18.0657437051
 10
24.3118262495
 20
18.3851889964
 10
23.9856303013
 20
18.6898270239
 10
23.6413743139
 20
18.9799012182
 10
23.2847805494
 20
19.2505899327
 10
22.9156427854
 20
19.5015691448
 10
22.5341672444
 20
19.7331628772
 10
22.1466948563
 20
19.9415215525
 10
21.7553392643
 20
20.1253619785
 10
21.3579868253
 20
20.2859673474
 10
20.954637539
 20
20.4233376593
  0
LINE
  5
4D1
100
AcDbEntity
  8
0
100
AcDbLine
 62
7
  6
CONTINUOUS
 10
25.6875965016
 20
13.2193748263
 11
25.6681264998
 21
13.5294151164
  0
LINE
  5
4D2
100
AcDbEntity
  8
0
100
AcDbLine
 62
7
  6
CONTINUOUS
 10
27.0570497428
 20
-41.8304905228
 11
25.6875965016
 21
13.2193748263
  0
LINE
  5
4D3
100
AcDbEntity
  8
DRAFT
100
AcDbLine
 62
7
  6
CONTINUOUS
 10
26.4143834747
 20
14.1301403628
 11
27.7838367158
 21
-40.9197249863
  0
LINE
  5
4D4
100
AcDbEntity
  8
ASSI
100
AcDbLine
 62
7
  6
CONTINUOUS
 10
27.7838367158
 20
-40.9197249863
 11
26.4143834747
 21
14.1301403628
  0
LINE
  5
4D5
100
AcDbEntity
  8
DRAFT
100
AcDbLine
 62
7
  6
CONTINUOUS
 10
27.7838367158
 20
-40.9197249863
 11
27.7831828879
 21
-41.1400795494
  0
LWPOLYLINE
  5
4D6
100
AcDbEntity
  8
0
100
AcDbPolyline
 62
7
  6
CONTINUOUS
 90
4
 70
0
 10
27.0570497428
 20
-41.8304905228
 10
27.0501434138
 20
-42.1765204786
 10
27.0140655222
 20
-42.5078685527
 10
26.9488160681
 20
-42.8245347453
  0
LINE
  5
4D7
100
AcDbEntity
  8
0
100
AcDbLine
 62
7
  6
CONTINUOUS
 10
34.1588823909
 20
-10.8747886795
 11
34.8819858815
 21
-10.4106477893
  0
LWPOLYLINE
  5
4D8
100
AcDbEntity
  8
0
100
AcDbPolyline
 62
7
  6
CONTINUOUS
 90
19
 70
0
 10
34.8825177727
 20
-10.410306318
 10
34.7185399985
 20
-10.509392762
 10
34.4376680286
 20
-10.6489323522
 10
34.1635548544
 20
-10.7463090509
 10
33.8996968848
 20
-10.8002807843
 10
33.6462254872
 20
-10.810291543
 10
33.4030092943
 20
-10.7768973364
 10
33.1731506134
 20
-10.7005241194
 10
32.9568205518
 20
-10.5806213387
 10
32.7538480021
 20
-10.4177395475
 10
32.5668219501
 20
-10.2139563599
 10
32.3959466674
 20
-9.9687478365
 10
32.2410178822
 20
-9.6826379166
 10
32.1040117654
 20
-9.359276032
 10
31.9851579028
 20
-8.9981849919
 10
31.8842267086
 20
-8.599841987
 10
31.8025055951
 20
-8.1693280213
 10
31.7404237
 20
-7.7083367627
 10
31.7106953221
 20
-7.3663658643
  0
LWPOLYLINE
  5
4D9
100
AcDbEntity
  8
0
100
AcDbPolyline
 62
7
  6
CONTINUOUS
 90
7
 70
0
 10
34.1594495736
 20
-10.8744245513
 10
33.9845917575
 20
-10.9800854513
 10
33.6850837327
 20
-11.1288835925
 10
33.3927829545
 20
-11.2327213043
 10
33.111417821
 20
-11.2902741006
 10
32.841128416
 20
-11.3009490803
 10
32.748203893
 20
-11.2881903051
  0
LWPOLYLINE
  5
4DA
100
AcDbEntity
  8
0
100
AcDbPolyline
 62
7
  6
CONTINUOUS
 90
11
 70
0
 10
-30.0013631844
 20
34.9272420617
 10
-30.3481439857
 20
35.0041664367
 10
-30.6899884365
 20
35.0602412422
 10
-31.0283140356
 20
35.0955278613
 10
-31.3617032841
 20
35.109964911
 10
-31.6859036862
 20
35.1033682415
 10
-32.0007975342
 20
35.0754684149
 10
-32.3065025358
 20
35.0265348691
 10
-32.5991193169
 20
34.9571917687
 10
-32.8784802201
 20
34.867177671
 10
-33.1447529028
 20
34.7567540186
  0
LWPOLYLINE
  5
4DB
100
AcDbEntity
  8
DRAFT
100
AcDbPolyline
 62
7
  6
CONTINUOUS
 90
3
 70
0
 10
-29.4311810992
 20
35.8753264913
 10
-29.1780345477
 20
35.813254468
 10
-28.9228590596
 20
35.7402336537
  0
LWPOLYLINE
  5
4DC
100
AcDbEntity
  8
ASSI
100
AcDbPolyline
 62
7
  6
CONTINUOUS
 90
14
 70
0
 10
-28.9228590596
 20
35.7402336537
 10
-29.3255312236
 20
35.8503847204
 10
-29.7209492936
 20
35.9332314945
 10
-30.1091132694
 20
35.9887739759
 10
-30.4921050025
 20
36.0170173679
 10
-30.8678426414
 20
36.0179564672
 10
-31.2300806325
 20
35.9915756641
 10
-31.5785933327
 20
35.9374183137
 10
-31.9136063851
 20
35.8559410609
 10
-32.2295511644
 20
35.7484982298
 10
-32.5261089498
 20
35.6146558128
 10
-32.8035984622
 20
35.4548478175
 10
-33.0574072393
 20
35.2717305906
 10
-33.2871394641
 20
35.0649145247
  0
LINE
  5
4DD
100
AcDbEntity
  8
0
100
AcDbLine
 62
7
  6
CONTINUOUS
 10
-29.6496460326
 20
34.8294681171
 11
-30.0013631844
 21
34.9272420617
  0
LINE
  5
4DE
100
AcDbEntity
  8
0
100
AcDbLine
 62
7
  6
CONTINUOUS
 10
-29.6496460326
 20
34.8294681171
 11
20.227850566
 21
19.5125721228
  0
LINE
  5
4DF
100
AcDbEntity
  8
DRAFT
100
AcDbLine
 62
7
  6
CONTINUOUS
 10
-28.9228590596
 20
35.7402336537
 11
20.954637539
 21
20.4233376593
  0
LINE
  5
4E0
100
AcDbEntity
  8
ASSI
100
AcDbLine
 62
7
  6
CONTINUOUS
 10
20.954637539
 20
20.4233376593
 11
-28.9228590596
 21
35.7402336537
  0
LINE
  5
4E1
100
AcDbEntity
  8
DRAFT
100
AcDbLine
 62
7
  6
CONTINUOUS
 10
20.954637539
 20
20.4233376593
 11
21.21008081
 21
20.3395523995
  0
LWPOLYLINE
  5
4E2
100
AcDbEntity
  8
0
100
AcDbPolyline
 62
7
  6
CONTINUOUS
 90
22
 70
0
 10
20.227850566
 20
19.5125721228
 10
20.6311998522
 20
19.3752018108
 10
21.0285522913
 20
19.2145964419
 10
21.4199078832
 20
19.030756016
 10
21.8073802714
 20
18.8223973406
 10
22.1888558124
 20
18.5908036082
 10
22.5579935764
 20
18.3398243962
 10
22.9145873408
 20
18.0691356816
 10
23.2588433283
 20
17.7790614874
 10
23.5850392765
 20
17.4744234599
 10
23.8928733169
 20
17.1549781685
 10
24.1826473181
 20
16.8209690438
 10
24.4495446236
 20
16.4779480235
 10
24.6931828558
 20
16.1257644762
 10
24.9139443924
 20
15.7645690333
 10
25.1081597098
 20
15.4003655265
 10
25.2753850955
 20
15.0331036769
 10
25.4160642621
 20
14.6628337634
 10
25.5278588245
 20
14.2957104548
 10
25.6099893211
 20
13.9337853071
 10
25.6632352134
 20
13.5750067643
 10
25.6875965016
 20
13.2193748263
  0
LWPOLYLINE
  5
4E3
100
AcDbEntity
  8
DRAFT
100
AcDbPolyline
 62
7
  6
CONTINUOUS
 90
31
 70
0
 10
21.21008081
 20
20.3395523995
 10
21.4640128368
 20
20.245905504
 10
21.7164336196
 20
20.1423969729
 10
21.9678593842
 20
20.0287746826
 10
22.2177739047
 20
19.9052907566
 10
22.4646285038
 20
19.7727015651
 10
22.708519853
 20
19.6308732767
 10
22.9493512807
 20
19.4799397229
 10
23.1852840947
 20
19.3210587682
 10
23.4161339798
 20
19.154286869
 10
23.6420852512
 20
18.979567569
 10
23.8618521622
 20
18.7978893631
 10
24.0755589685
 20
18.6090596082
 10
24.2830814143
 20
18.4132709475
 10
24.4827609859
 20
18.2120898058
 10
24.6743825906
 20
18.0056490213
 10
24.8581613212
 20
17.7938157559
 10
25.0330839421
 20
17.5777579192
 10
25.1992323841
 20
17.3572659842
 10
25.3565247165
 20
17.132549478
 10
25.503701911
 20
16.9054048918
 10
25.6405825323
 20
16.6759919385
 10
25.7673480157
 20
16.444150905
 10
25.88328364
 20
16.2111991438
 10
25.9883932289
 20
15.9769762521
 10
26.0826729585
 20
15.7416426326
 10
26.1653966362
 20
15.5069968454
 10
26.2364416698
 20
15.2731577942
 10
26.2959306513
 20
15.0400065753
 10
26.3435051643
 20
14.8089850378
 10
26.3790457364
 20
14.5805737981
  0
LWPOLYLINE
  5
4E4
100
AcDbEntity
  8
0
100
AcDbPolyline
 62
7
  6
CONTINUOUS
 90
3
 70
0
 10
20.9283441221
 20
19.2576537032
 10
20.5800808611
 20
19.3941706262
 10
20.227850566
 20
19.5125721228
  0
LWPOLYLINE
  5
4E5
100
AcDbEntity
  8
0
100
AcDbPolyline
 62
7
  6
CONTINUOUS
 90
15
 70
0
 10
-2.2682031592
 20
40.6880757806
 10
-2.5158511925
 20
40.9113489043
 10
-2.7472981953
 20
41.1412730311
 10
-2.962636045
 20
41.3778104425
 10
-3.1606389087
 20
41.6196146251
 10
-3.3412079176
 20
41.8667156174
 10
-3.5044419403
 20
42.1190833807
 10
-3.6494117505
 20
42.3752812855
 10
-3.7760131796
 20
42.6353311768
 10
-3.884350396
 20
42.8992112096
 10
-3.9738066791
 20
43.1654192195
 10
-4.0442743427
 20
43.433968484
 10
-4.095861073
 20
43.7048457257
 10
-4.1282732071
 20
43.9765089479
 10
-4.1413882372
 20
44.2440302172
  0
LWPOLYLINE
  5
4E6
100
AcDbEntity
  8
RACCORDO
100
AcDbPolyline
 62
250
  6
CONTINUOUS
 90
13
 70
0
 10
2.2912146756
 20
46.8151082574
 10
2.384285913
 20
46.6790690435
 10
2.4907518749
 20
46.5470791935
 10
2.6103474999
 20
46.4194605743
 10
2.742767426
 20
46.2965968934
 10
2.8874187847
 20
46.1790898875
 10
3.0435341753
 20
46.0675555818
 10
3.2114623254
 20
45.961828014
 10
3.38967427
 20
45.8629486126
 10
3.5739231467
 20
45.7728995842
 10
3.7617660837
 20
45.6920977083
 10
3.9531843156
 20
45.6198240462
 10
4.1471015608
 20
45.5558954578
  0
LWPOLYLINE
  5
4E7
100
AcDbEntity
  8
0
100
AcDbPolyline
 62
7
  6
CONTINUOUS
 90
22
 70
0
 10
25.6681264998
 20
13.5294151164
 10
25.6263727342
 20
13.8424528296
 10
25.5623352048
 20
14.1584879658
 10
25.4755501748
 20
14.4788955731
 10
25.3664813811
 20
14.8023006035
 10
25.2365200341
 20
15.124577913
 10
25.085398504
 20
15.4457130559
 10
24.9133844207
 20
15.7657204779
 10
24.7226718837
 20
16.0805183729
 10
24.5130213693
 20
16.3900400079
 10
24.2846724012
 20
16.6943521159
 10
24.04053765
 20
16.9895730898
 10
23.7804149029
 20
17.2755864741
 10
23.5045063728
 20
17.5525087243
 10
23.216331369
 20
17.8168076008
 10
22.9157327605
 20
18.0683214003
 10
22.6028676784
 20
18.307211826
 10
22.2817268259
 20
18.5304317473
 10
21.9522041919
 20
18.7377804279
 10
21.6144057875
 20
18.9294586041
 10
21.2726403491
 20
19.1030213538
 10
20.9283441221
 20
19.2576537032
  0
LWPOLYLINE
  5
4E8
100
AcDbEntity
  8
0
100
AcDbPolyline
 62
7
  6
CONTINUOUS
 90
15
 70
0
 10
31.7061776814
 20
-7.366758594
 10
31.7297859377
 20
-7.9061821505
 10
31.7720011168
 20
-8.4148586995
 10
31.8328232186
 20
-8.8927882409
 10
31.9126231872
 20
-9.341546465
 10
32.0110300785
 20
-9.7595576815
 10
32.1269310603
 20
-10.1420948197
 10
32.2605247127
 20
-10.4887552038
 10
32.4116124557
 20
-10.7999415096
 10
32.5784857167
 20
-11.0721346934
 10
32.7613236814
 20
-11.3048921339
 10
32.9599471641
 20
-11.4986564524
 10
33.1721100355
 20
-11.6512364694
 10
33.3979659849
 20
-11.7621646908
 10
33.51356408
 20
-11.8018074239
  0
LWPOLYLINE
  5
4E9
100
AcDbEntity
  8
DRAFT
100
AcDbPolyline
 62
7
  6
CONTINUOUS
 90
3
 70
0
 10
27.7831828879
 20
-41.1400795494
 10
27.7705379264
 20
-41.3552226151
 10
27.7459018311
 20
-41.5651541832
  0
LWPOLYLINE
  5
4EA
100
AcDbEntity
  8
0
100
AcDbPolyline
 62
7
  6
CONTINUOUS
 90
3
 70
0
 10
27.0261221166
 20
-42.4252697259
 10
27.0528242161
 20
-42.1332541457
 10
27.0570497428
 20
-41.8304905228
  0
LWPOLYLINE
  5
4EB
100
AcDbEntity
  8
RACCORDO
100
AcDbPolyline
 62
250
  6
CONTINUOUS
 90
8
 70
0
 10
6.7959228896
 20
-43.074842023
 10
6.8481842216
 20
-43.0016455267
 10
6.893786506
 20
-42.9206895502
 10
6.930963299
 20
-42.8343200662
 10
6.9595112333
 20
-42.7430104108
 10
6.9792698987
 20
-42.6472670783
 10
6.9901261316
 20
-42.5476289208
 10
6.9920178823
 20
-42.4446532099
  0
LWPOLYLINE
  5
4EC
100
AcDbEntity
  8
COPY_PABLISH
100
AcDbPolyline
 62
7
  6
CONTINUOUS
 90
10
 70
0
 10
7.6407991789
 20
-42.8177157234
 10
7.6707822345
 20
-42.7763512676
 10
7.6973605198
 20
-42.731542986
 10
7.7205668378
 20
-42.6830175339
 10
7.7403024385
 20
-42.6307155145
 10
7.7564892606
 20
-42.5744981884
 10
7.7690181547
 20
-42.5141461261
 10
7.7776725228
 20
-42.4497649228
 10
7.7822374616
 20
-42.3817659255
 10
7.7825745873
 20
-42.3105578625
  0
LINE
  5
4ED
100
AcDbEntity
  8
RACCORDO
100
AcDbLine
 62
250
  6
CONTINUOUS
 10
6.7957510227
 20
-43.0750574682
 11
6.7959228896
 21
-43.074842023
  0
LINE
  5
4EE
100
AcDbEntity
  8
RACCORDO
100
AcDbLine
 62
250
  6
CONTINUOUS
 10
6.9920178823
 20
-42.4446532099
 11
7.4462610157
 21
-41.8754220546
  0
LINE
  5
4EF
100
AcDbEntity
  8
0
100
AcDbLine
 62
7
  6
CONTINUOUS
 10
6.7957510227
 20
-43.0750574682
 11
7.2500623134
 21
-42.5057419992
  0
LWPOLYLINE
  5
4F0
100
AcDbEntity
  8
RACCORDO
100
AcDbPolyline
 62
7
  6
CONTINUOUS
 90
15
 70
0
 10
6.7959228896
 20
-43.074842023
 10
6.7792856464
 20
-43.0952942313
 10
6.6940371283
 20
-43.1889398514
 10
6.5995194837
 20
-43.2752435233
 10
6.4963903055
 20
-43.3532108949
 10
6.3843403233
 20
-43.4225720103
 10
6.2637124021
 20
-43.4824414021
 10
6.1356464955
 20
-43.5316741707
 10
6.0008083538
 20
-43.5695353389
 10
5.8594274102
 20
-43.5954060768
 10
5.7130588486
 20
-43.6084842697
 10
5.5641155564
 20
-43.6083453655
 10
5.4138233836
 20
-43.5950080257
 10
5.2624354239
 20
-43.5684356563
 10
5.1106827265
 20
-43.5285475882
  0
LINE
  5
4F1
100
AcDbEntity
  8
0
100
AcDbLine
 62
7
  6
CONTINUOUS
 10
35.2277950656
 20
-10.1583274131
 11
34.905967241
 21
-10.4833572866
  0
LINE
  5
4F2
100
AcDbEntity
  8
0
100
AcDbLine
 62
7
  6
CONTINUOUS
 10
34.905967241
 20
-10.4833572866
 11
34.5817012614
 21
-10.7708093175
  0
LWPOLYLINE
  5
4F3
100
AcDbEntity
  8
0
100
AcDbPolyline
 62
7
  6
CONTINUOUS
 90
7
 70
0
 10
34.5817012614
 20
-10.7708093175
 10
34.2607083126
 20
-11.0154219173
 10
33.9470827712
 20
-11.2140749671
 10
33.6409190126
 20
-11.3661797336
 10
33.3421226615
 20
-11.4723249502
 10
33.0545049696
 20
-11.5311566975
 10
33.0077087563
 20
-11.5330048966
  0
LWPOLYLINE
  5
4F4
100
AcDbEntity
  8
COPY_PABLISH
100
AcDbPolyline
 62
250
  6
CONTINUOUS
 90
10
 70
0
 10
16.1817033914
 20
-25.9241232044
 10
16.324589647
 20
-25.8825590915
 10
16.4593722555
 20
-25.835841686
 10
16.586026993
 20
-25.783885226
 10
16.7045305904
 20
-25.7266046454
 10
16.8148592449
 20
-25.6639162679
 10
16.9169889506
 20
-25.5957380332
 10
17.0108973256
 20
-25.5219884623
 10
17.0965632785
 20
-25.4425864252
 10
17.1739657526
 20
-25.357451995
  0
LWPOLYLINE
  5
4F5
100
AcDbEntity
  8
0
100
AcDbPolyline
 62
7
  6
CONTINUOUS
 90
3
 70
0
 10
30.8871800907
 20
42.6320140516
 10
30.8952624337
 20
42.6341688485
 10
30.9045826274
 20
42.6329652779
  0
LWPOLYLINE
  5
4F6
100
AcDbEntity
  8
0
100
AcDbPolyline
 62
250
  6
CONTINUOUS
 90
13
 70
0
 10
28.6672402247
 20
39.522148781
 10
28.5954348423
 20
39.5030609063
 10
28.5210726869
 20
39.4872529735
 10
28.4455998293
 20
39.4750328008
 10
28.3689675676
 20
39.4664986425
 10
28.2912246038
 20
39.4615522443
 10
28.2139631151
 20
39.4602066602
 10
28.1372327063
 20
39.4625659618
 10
28.0609837727
 20
39.4685260776
 10
27.9866596772
 20
39.4777878473
 10
27.9147415408
 20
39.4902515509
 10
27.8447482426
 20
39.5060169085
 10
27.7766797825
 20
39.52508392
  0
LWPOLYLINE
  5
4F7
100
AcDbEntity
  8
0
100
AcDbPolyline
 62
7
  6
CONTINUOUS
 90
11
 70
0
 10
28.4292008245
 20
39.6556028104
 10
28.3917192876
 20
39.6470908171
 10
28.3507543973
 20
39.6401424258
 10
28.3068964727
 20
39.6351477799
 10
28.2611614426
 20
39.6324550761
 10
28.2153001486
 20
39.6322511638
 10
28.1703291816
 20
39.6344867428
 10
28.1271231406
 20
39.6390056271
 10
28.0871486721
 20
39.6454202147
 10
28.051021879
 20
39.6532916585
 10
28.0206209081
 20
39.6617007985
  0
LINE
  5
4F8
100
AcDbEntity
  8
0
100
AcDbLine
 62
7
  6
CONTINUOUS
 10
-31.2188919755
 20
35.1062518314
 11
-30.8359002425
 21
35.0780084394
  0
LWPOLYLINE
  5
4F9
100
AcDbEntity
  8
0
100
AcDbPolyline
 62
7
  6
CONTINUOUS
 90
4
 70
0
 10
-30.8359002425
 20
35.0780084394
 10
-30.4477362666
 20
35.022465958
 10
-30.0523181967
 20
34.9396191839
 10
-29.6496460326
 20
34.8294681171
  0
LWPOLYLINE
  5
4FA
100
AcDbEntity
  8
RACCORDO
100
AcDbPolyline
 62
250
  6
CONTINUOUS
 90
43
 70
0
 10
-0.3626705138
 20
33.6455118402
 10
0.2099461965
 20
33.4797002999
 10
0.7945153765
 20
33.3302655441
 10
1.3898324543
 20
33.1975168203
 10
1.9944990595
 20
33.0817591947
 10
2.60743575
 20
32.9831926581
 10
3.2279060611
 20
32.9019603525
 10
3.8549231819
 20
32.8382513026
 10
4.4869297495
 20
32.7922831088
 10
5.1223195892
 20
32.7642065645
 10
5.7598634854
 20
32.7541004832
 10
6.3981523632
 20
32.7620116277
 10
7.0352950098
 20
32.7879133784
 10
7.6695505888
 20
32.8316899271
 10
8.3000317632
 20
32.8932348751
 10
8.9261270076
 20
32.9724911853
 10
9.5470196804
 20
33.0694102228
 10
10.1609070096
 20
33.1837659064
 10
10.765727417
 20
33.3151718423
 10
11.3597092353
 20
33.4631783824
 10
11.9421955136
 20
33.6275560897
 10
12.5128154984
 20
33.8082023116
 10
13.0709071917
 20
34.0049827036
 10
13.6147025225
 20
34.2173509904
 10
14.1422266344
 20
34.4445341516
 10
14.65188556
 20
34.6857580704
 10
15.1432392674
 20
34.9407240198
 10
15.6160838084
 20
35.2093276045
 10
16.0698896156
 20
35.4913705068
 10
16.5031170472
 20
35.7860029816
 10
16.9141207356
 20
36.0921049267
 10
17.3016665808
 20
36.4086350284
 10
17.6655033628
 20
36.7352589345
 10
18.0055213032
 20
37.0718788028
 10
18.3213089731
 20
37.418237026
 10
18.6117251299
 20
37.7732436201
 10
18.8756495452
 20
38.1355292451
 10
19.1123396485
 20
38.5038810768
 10
19.3217050099
 20
38.8779433334
 10
19.5036838006
 20
39.2576046383
 10
19.6579892584
 20
39.642542688
 10
19.7839974439
 20
40.0315275116
 10
19.8812275932
 20
40.4230789739
  0
LWPOLYLINE
  5
4FB
100
AcDbEntity
  8
RACCORDO
100
AcDbPolyline
 62
250
  6
CONTINUOUS
 90
65
 70
0
 10
-0.0367674026
 20
34.8157320502
 10
0.5055338212
 20
34.6586982685
 10
1.0591549208
 20
34.5171745065
 10
1.622955054
 20
34.3914536518
 10
2.1956098997
 20
34.2818247988
 10
2.776097038
 20
34.188477192
 10
3.3637188208
 20
34.1115458853
 10
3.9575406668
 20
34.0512096049
 10
4.5560877881
 20
34.0076747075
 10
5.1578391104
 20
33.9810843387
 10
5.7616304818
 20
33.9715132927
 10
6.3661273901
 20
33.9790057062
 10
6.969538742
 20
34.0035362506
 10
7.5702158751
 20
34.0449952005
 10
8.1673184317
 20
34.1032818391
 10
8.7602672584
 20
34.1783421769
 10
9.3482889445
 20
34.2701301623
 10
9.9296761607
 20
34.3784316747
 10
10.5024764708
 20
34.5028807778
 10
11.0650119997
 20
34.6430516318
 10
11.616660577
 20
34.798726943
 10
12.1570710827
 20
34.9698094843
 10
12.6856165708
 20
35.1561720179
 10
13.2006225718
 20
35.3572971955
 10
13.7002187742
 20
35.5724529311
 10
14.1828955918
 20
35.8009060958
 10
14.6482362922
 20
36.0423737718
 10
15.0960477319
 20
36.2967570828
 10
15.5258283848
 20
36.5638682069
 10
15.9361201161
 20
36.8429023902
 10
16.3253646602
 20
37.1327988355
 10
16.6923932482
 20
37.4325713599
 10
17.0369679631
 20
37.7419033097
 10
17.3589848424
 20
38.0607020196
 10
17.6580542408
 20
38.3887235197
 10
17.9330953331
 20
38.7249355324
 10
18.1830471964
 20
39.0680412134
 10
18.4072065732
 20
39.416891947
 10
18.6054878208
 20
39.7711507872
 10
18.7778323814
 20
40.1307122546
 10
18.9239686716
 20
40.4952711096
 10
19.0433057868
 20
40.8636624967
 10
19.1353884216
 20
41.2344846394
 10
19.2000368046
 20
41.6065384371
 10
19.2373061283
 20
41.9794669655
 10
19.2471828359
 20
42.3531192936
 10
19.2295456765
 20
42.7271238904
 10
19.1843387454
 20
43.1002985784
 10
19.1117244598
 20
43.4712830837
 10
19.0120297054
 20
43.8389428888
 10
18.8854632189
 20
44.2028971054
 10
18.7321061648
 20
44.5629199995
 10
18.5520442119
 20
44.91857938
 10
18.3457253467
 20
45.2687930807
 10
18.1138426917
 20
45.6123781615
 10
17.8571418059
 20
45.9483645147
 10
17.5760232508
 20
46.2763491958
 10
17.2707571371
 20
46.596022114
 10
16.941708403
 20
46.9069148958
 10
16.5897240386
 20
47.2081470445
 10
16.2158525034
 20
47.4988160337
 10
15.8209561553
 20
47.778290306
 10
15.4058259323
 20
48.0460471459
 10
14.9715558255
 20
48.3014282638
 10
14.6168657281
 20
48.4915382437
  0
LWPOLYLINE
  5
4FC
100
AcDbEntity
  8
0
100
AcDbPolyline
 62
7
  6
CONTINUOUS
 90
56
 70
0
 10
-0.3465132152
 20
32.5285279222
 10
0.1253146864
 20
32.3905192672
 10
0.6040270101
 20
32.263910191
 10
1.0896237557
 20
32.1487006934
 10
1.5828026804
 20
32.0447616507
 10
2.082866027
 20
31.9522221867
 10
2.587720525
 20
31.8714696726
 10
3.0973862581
 20
31.8025535176
 10
3.6118431427
 20
31.7454243125
 10
4.1289376563
 20
31.7003212008
 10
4.6486808558
 20
31.6672945941
 10
5.1710616844
 20
31.6462940808
 10
5.6938934502
 20
31.6374075693
 10
6.2171780436
 20
31.6406858397
 10
6.7409135743
 20
31.6560781118
 10
7.2629076795
 20
31.6835199534
 10
7.7831530594
 20
31.7230618747
 10
8.301657014
 20
31.7746533655
 10
8.8162490798
 20
31.8380784633
 10
9.3269128589
 20
31.9133867729
 10
9.8336647492
 20
32.0005286895
 10
10.3343834819
 20
32.099139436
 10
10.8290437667
 20
32.2092670882
 10
11.3176708938
 20
32.3308635703
 10
11.7982194647
 20
32.4634198782
 10
12.2706556152
 20
32.6069819539
 10
12.7350132094
 20
32.7615038553
 10
13.1893484414
 20
32.9263387521
 10
13.6336192989
 20
33.1015298749
 10
14.0678677941
 20
33.287033993
 10
14.4902761581
 20
33.4820745842
 10
14.9007947587
 20
33.6866916241
 10
15.2994732281
 20
33.900845137
 10
15.6846426938
 20
34.1236386741
 10
16.056246528
 20
34.355108453
 10
16.4143413585
 20
34.595218256
 10
16.7574281964
 20
34.8429629809
 10
17.0854441303
 20
35.0983746321
 10
17.3984520716
 20
35.3614212052
 10
17.6951417657
 20
35.6310015842
 10
17.9754448087
 20
35.907143158
 10
18.2394296044
 20
36.1898185378
 10
18.4859911095
 20
36.4778444413
 10
18.7150562882
 20
36.7712432972
 10
18.9266981763
 20
37.0699926769
 10
19.1200308385
 20
37.372842012
 10
19.2949775253
 20
37.6798084892
 10
19.4516149863
 20
37.9908749219
 10
19.5892875353
 20
38.3047391826
 10
19.7079156741
 20
38.6214129994
 10
19.8075789009
 20
38.9408846442
 10
19.8878600244
 20
39.2618168052
 10
19.9486777976
 20
39.5842156048
 10
19.9901134674
 20
39.9080749205
 10
20.0119935838
 20
40.2320390737
 10
20.015149925
 20
40.5097375654
  0
LWPOLYLINE
  5
4FD
100
AcDbEntity
  8
0
100
AcDbPolyline
 62
7
  6
CONTINUOUS
 90
31
 70
0
 10
-0.3465132152
 20
32.5285279222
 10
-0.8093381888
 20
32.6775421103
 10
-1.2613771611
 20
32.83675774
 10
-1.7026301323
 20
33.0061748112
 10
-2.1336835168
 20
33.1860585567
 10
-2.5539509001
 20
33.3761437438
 10
-2.9616730383
 20
33.5756346736
 10
-3.3567973435
 20
33.7845707738
 10
-3.7393764035
 20
34.0029126169
 10
-4.1078087383
 20
34.2297462213
 10
-4.4620350467
 20
34.4651071836
 10
-4.8021146298
 20
34.7089599072
 10
-5.1266239108
 20
34.9602836221
 10
-5.4354976211
 20
35.2191096457
 10
-5.7288010292
 20
35.4854066604
 10
-6.0053063639
 20
35.7580599443
 10
-6.26494321
 20
36.0370961417
 10
-6.5077819826
 20
36.3224886082
 10
-6.7328061559
 20
36.6130426876
 10
-6.9399410538
 20
36.9087800169
 10
-7.1292613524
 20
37.2096789592
 10
-7.2999745549
 20
37.5144799482
 10
-7.452002663
 20
37.8231993407
 10
-7.585423675
 20
38.13582078
 10
-7.6996790891
 20
38.4510356293
 10
-7.7946885657
 20
38.7688547597
 10
-7.8705324445
 20
39.0892673
 10
-7.9268932421
 20
39.4109319999
 10
-7.963689288
 20
39.7338541081
 10
-7.9810022528
 20
40.0580283759
 10
-7.9819160052
 20
40.1043993145
  0
LWPOLYLINE
  5
4FE
100
AcDbEntity
  8
0
100
AcDbPolyline
 62
7
  6
CONTINUOUS
 90
8
 70
0
 10
41.1109455209
 20
-18.2375464748
 10
41.1134922453
 20
-18.2456095259
 10
41.1167090739
 20
-18.2574254335
 10
41.1179087387
 20
-18.2628970855
 10
41.1177796871
 20
-18.2618895505
 10
41.1169577752
 20
-18.2544718513
 10
41.1159807602
 20
-18.2405344629
 10
41.115482546
 20
-18.2273892697
  0
LINE
  5
4FF
100
AcDbEntity
  8
0
100
AcDbLine
 62
7
  6
CONTINUOUS
 10
26.9769434443
 20
-42.7065372635
 11
27.0261221166
 21
-42.4252697259
  0
LINE
  5
500
100
AcDbEntity
  8
DRAFT
100
AcDbLine
 62
7
  6
CONTINUOUS
 10
27.7459018311
 20
-41.5651541832
 11
27.7091773867
 21
-41.7702883276
  0
LWPOLYLINE
  5
501
100
AcDbEntity
  8
DRAFT
100
AcDbPolyline
 62
7
  6
CONTINUOUS
 90
3
 70
0
 10
27.7091773867
 20
-41.7702883276
 10
27.6604618086
 20
-41.9702109746
 10
27.6000467428
 20
-42.1636799028
  0
LINE
  5
502
100
AcDbEntity
  8
0
100
AcDbLine
 62
7
  6
CONTINUOUS
 10
26.9048862622
 20
-42.9781659663
 11
26.9769434443
 21
-42.7065372635
  0
LWPOLYLINE
  5
503
100
AcDbEntity
  8
0
100
AcDbPolyline
 62
7
  6
CONTINUOUS
 90
4
 70
0
 10
26.9488160681
 20
-42.8245347453
 10
26.853706446
 20
-43.1281197834
 10
26.7294252613
 20
-43.4170229399
 10
26.57803833
 20
-43.6864420337
  0
LWPOLYLINE
  5
504
100
AcDbEntity
  8
0
100
AcDbPolyline
 62
7
  6
CONTINUOUS
 90
17
 70
0
 10
24.7451267288
 20
44.2336220512
 10
24.8048021788
 20
44.248257593
 10
24.8642552228
 20
44.2612554833
 10
24.9234423481
 20
44.2725609138
 10
24.9823870194
 20
44.2820880063
 10
25.040978363
 20
44.2898245578
 10
25.0989703822
 20
44.295822449
 10
25.1562478247
 20
44.3000226856
 10
25.2128366345
 20
44.302392578
 10
25.2686961011
 20
44.3029839792
 10
25.3238496161
 20
44.3017099147
 10
25.3781671386
 20
44.2985027722
 10
25.4313660413
 20
44.2933917587
 10
25.4833637271
 20
44.2862858899
 10
25.5341191969
 20
44.2771097316
 10
25.5833926141
 20
44.2658534229
 10
25.6277268746
 20
44.2534365576
  0
LWPOLYLINE
  5
505
100
AcDbEntity
  8
0
100
AcDbPolyline
 62
7
  6
CONTINUOUS
 90
47
 70
0
 10
2.8123319996
 20
35.8773848949
 10
3.274413202
 20
35.808312717
 10
3.7408961861
 20
35.7509114693
 10
4.2117596595
 20
35.7051246966
 10
4.6847185747
 20
35.671174597
 10
5.159783117
 20
35.6491187057
 10
5.636943101
 20
35.6388994875
 10
6.1138829229
 20
35.6405665351
 10
6.5906015126
 20
35.6541776248
 10
7.0670999402
 20
35.6796749802
 10
7.5410658123
 20
35.7169348657
 10
8.0124868189
 20
35.766014456
 10
8.48137527
 20
35.8268565763
 10
8.9454557026
 20
35.8991659667
 10
9.4047047462
 20
35.9829983666
 10
9.8591457714
 20
36.0782980366
 10
10.3065734268
 20
36.1846024981
 10
10.7469536223
 20
36.3019652426
 10
11.180320448
 20
36.4303327785
 10
11.6045708235
 20
36.5690821527
 10
12.0196604359
 20
36.7182638286
 10
12.4256335981
 20
36.8778273427
 10
12.8205201678
 20
37.0469983513
 10
13.204266256
 20
37.2258235538
 10
13.5769257517
 20
37.4142562508
 10
13.9366901803
 20
37.6113819995
 10
14.283496862
 20
37.8172430546
 10
14.6174084767
 20
38.0317971614
 10
14.9368045886
 20
38.2540031129
 10
15.2416146417
 20
38.4838981027
 10
15.531909192
 20
38.7214449373
 10
15.8062794728
 20
38.9654908285
 10
16.0646480802
 20
39.2160673666
 10
16.307092418
 20
39.4731429612
 10
16.5324359311
 20
39.7354700535
 10
16.7405954966
 20
40.0030741695
 10
16.9316542375
 20
40.2759297831
 10
17.1046849671
 20
40.5527127567
 10
17.2596000557
 20
40.8334421801
 10
17.396487133
 20
41.1180989635
 10
17.5146819013
 20
41.4053016994
 10
17.6140935021
 20
41.6950627631
 10
17.694812794
 20
41.9873697793
 10
17.7564480553
 20
42.2808042149
 10
17.7989065233
 20
42.57537155
 10
17.8222809607
 20
42.8710663045
 10
17.8267624429
 20
43.1479861653
  0
LWPOLYLINE
  5
506
100
AcDbEntity
  8
0
100
AcDbPolyline
 62
7
  6
CONTINUOUS
 90
30
 70
0
 10
2.9986007157
 20
38.3839027036
 10
3.4231524246
 20
38.3133667557
 10
3.8517076534
 20
38.2544951485
 10
4.2842892361
 20
38.2073544088
 10
4.7208743389
 20
38.1718780098
 10
5.158977656
 20
38.1482679047
 10
5.5986078463
 20
38.1365917719
 10
6.0397562509
 20
38.1367819329
 10
6.4799115869
 20
38.1488373053
 10
6.9190681904
 20
38.1728255613
 10
7.3572317254
 20
38.2086790287
 10
7.7919079005
 20
38.2561936078
 10
8.2230768259
 20
38.3154358069
 10
8.6507583916
 20
38.3863391178
 10
9.072517976
 20
38.468499916
 10
9.4883218035
 20
38.5619824078
 10
9.8982036497
 20
38.6667223869
 10
10.2998302199
 20
38.7821236102
 10
10.6931544307
 20
38.9082468833
 10
11.0782233655
 20
39.0450314005
 10
11.4528449796
 20
39.191698502
 10
11.8169596874
 20
39.3483045522
 10
12.1706270745
 20
39.5147931866
 10
12.5118338528
 20
39.6902166514
 10
12.840508954
 20
39.8746259058
 10
13.1567234464
 20
40.0679699906
 10
13.4586772462
 20
40.2691482747
 10
13.7462890187
 20
40.4782054398
 10
14.0196400987
 20
40.6950968042
 10
14.277174407
 20
40.9185876913
  0
LWPOLYLINE
  5
507
100
AcDbEntity
  8
0
100
AcDbPolyline
 62
7
  6
CONTINUOUS
 90
25
 70
0
 10
2.5831234773
 20
35.848470894
 10
3.0395291793
 20
35.7702400714
 10
3.5010999225
 20
35.7039629891
 10
3.967025955
 20
35.6497559198
 10
4.4364898842
 20
35.607713961
 10
4.9086681109
 20
35.5779108687
 10
5.382732274
 20
35.5603989275
 10
5.8578507038
 20
35.5552088593
 10
6.3331898812
 20
35.5623497694
 10
6.8079158998
 20
35.5818091301
 10
7.2811959288
 20
35.6135528031
 10
7.7521996742
 20
35.6575250992
 10
8.2201008354
 20
35.7136488761
 10
8.6840785548
 20
35.7818256735
 10
9.1433188577
 20
35.8619358863
 10
9.5970160807
 20
35.9538389738
 10
10.0443742847
 20
36.0573737069
 10
10.4846086513
 20
36.1723584504
 10
10.9169468598
 20
36.298591482
 10
11.3406304423
 20
36.4358513461
 10
11.7549161135
 20
36.5838972422
 10
12.1590770759
 20
36.7424694476
 10
12.5524042935
 20
36.9112897726
 10
12.934207737
 20
37.0900620492
 10
13.1607923512
 20
37.2055647679
  0
LINE
  5
508
100
AcDbEntity
  8
0
100
AcDbLine
 62
7
  6
CONTINUOUS
 10
2.3546312866
 20
35.9580715478
 11
2.8123319996
 21
35.8773848949
  0
LWPOLYLINE
  5
509
100
AcDbEntity
  8
0
100
AcDbPolyline
 62
7
  6
CONTINUOUS
 90
5
 70
0
 10
1.3670139302
 20
38.7782730382
 10
1.7650787394
 20
38.6628197043
 10
2.1695638732
 20
38.5586291779
 10
2.5804693315
 20
38.4657014592
 10
2.9986007157
 20
38.3839027036
  0
LWPOLYLINE
  5
50A
100
AcDbEntity
  8
0
100
AcDbPolyline
 62
7
  6
CONTINUOUS
 90
5
 70
0
 10
0.8249996095
 20
36.277877466
 10
1.2528498097
 20
36.1534099962
 10
1.6889994939
 20
36.0402240565
 10
2.1326835073
 20
35.9385182136
 10
2.5831234773
 20
35.848470894
  0
LWPOLYLINE
  5
50B
100
AcDbEntity
  8
0
100
AcDbPolyline
 62
7
  6
CONTINUOUS
 90
5
 70
0
 10
0.592066199
 20
36.392655714
 10
1.0226198842
 20
36.267207935
 10
1.4597752289
 20
36.1529830679
 10
1.903532233
 20
36.0499811125
 10
2.3546312866
 20
35.9580715478
  0
LWPOLYLINE
  5
50C
100
AcDbEntity
  8
RACCORDO
100
AcDbPolyline
 62
250
  6
CONTINUOUS
 90
44
 70
0
 10
0.5872196734
 20
36.7277049934
 10
0.9479453829
 20
36.6216602461
 10
1.331414806
 20
36.518965813
 10
1.7379449556
 20
36.420867186
 10
2.1673596701
 20
36.3287589287
 10
2.6201176112
 20
36.2439309551
 10
3.0973432776
 20
36.1676621664
 10
3.6036549945
 20
36.10099761
 10
4.1339476379
 20
36.0464492921
 10
4.6741877679
 20
36.0065605452
 10
5.2199729878
 20
35.9820426083
 10
5.7735485447
 20
35.9731824089
 10
6.3303854248
 20
35.9804428815
 10
6.8887789836
 20
36.0040276454
 10
7.4479375803
 20
36.0441305153
 10
8.0046571379
 20
36.1006860461
 10
8.5574820652
 20
36.1736176686
 10
9.1053201173
 20
36.2628532858
 10
9.6455852293
 20
36.3679900671
 10
10.1763405692
 20
36.4885699915
 10
10.6971678197
 20
36.6244157559
 10
11.2077916122
 20
36.7754553233
 10
11.7075962788
 20
36.9415849415
 10
12.1948259056
 20
37.1223012788
 10
12.6675435013
 20
37.3168859364
 10
13.1242025196
 20
37.5246175627
 10
13.5643611881
 20
37.7452077537
 10
13.9877829
 20
37.9785380095
 10
14.3939206987
 20
38.2244014264
 10
14.7813119922
 20
38.4820114394
 10
15.1484156264
 20
38.7503432271
 10
15.494068547
 20
39.0284373251
 10
15.8179769415
 20
39.315941599
 10
16.1199676531
 20
39.6127024378
 10
16.3996079993
 20
39.9184273496
 10
16.6558453932
 20
40.2321093317
 10
16.8876598979
 20
40.5524998595
 10
17.0943666248
 20
40.8784790455
 10
17.2758427666
 20
41.2096594964
 10
17.4319914664
 20
41.5458645675
 10
17.5625287116
 20
41.8867394574
 10
17.6668977404
 20
42.2311383552
 10
17.7446830704
 20
42.577690477
 10
17.7957336355
 20
42.9252064712
  0
LWPOLYLINE
  5
50D
100
AcDbEntity
  8
RACCORDO
100
AcDbPolyline
 62
250
  6
CONTINUOUS
 90
65
 70
0
 10
0.6849906067
 20
37.0787710564
 10
1.0389475009
 20
36.9747159015
 10
1.4152214404
 20
36.8739483424
 10
1.8141234716
 20
36.7776905057
 10
2.2354807668
 20
36.6873109146
 10
2.6797432971
 20
36.6040751628
 10
3.1480143232
 20
36.5292377834
 10
3.644825484
 20
36.4638239718
 10
4.165167566
 20
36.4102988275
 10
4.6952705363
 20
36.3711582933
 10
5.2308145985
 20
36.3471004308
 10
5.7740028191
 20
36.3384066198
 10
6.3203911534
 20
36.345530947
 10
6.8683069577
 20
36.3686731391
 10
7.4169734543
 20
36.4080234462
 10
7.9632466841
 20
36.4635177055
 10
8.5056983616
 20
36.5350808027
 10
9.0432567383
 20
36.6226419753
 10
9.5733842734
 20
36.7258059491
 10
10.0941804742
 20
36.8441233023
 10
10.6052348732
 20
36.9774200536
 10
11.1062772771
 20
37.1256255006
 10
11.5967035796
 20
37.288637827
 10
12.0747908103
 20
37.4659631583
 10
12.5386383107
 20
37.6568965938
 10
12.9867285435
 20
37.8607303275
 10
13.4186280322
 20
38.0771813553
 10
13.8341046224
 20
38.3061333866
 10
14.2326216302
 20
38.5473833929
 10
14.6127439008
 20
38.8001595769
 10
14.9729591873
 20
39.0634563567
 10
15.312126252
 20
39.3363322752
 10
15.6299568007
 20
39.6184418001
 10
15.9262809328
 20
39.9096341981
 10
16.2006740883
 20
40.2096224634
 10
16.4521034278
 20
40.5174184914
 10
16.6795681506
 20
40.8317971859
 10
16.8823962198
 20
41.1516596729
 10
17.060467132
 20
41.4766258282
 10
17.2136858438
 20
41.8065223231
 10
17.3417736669
 20
42.1410010149
 10
17.4441842912
 20
42.4789375904
 10
17.5205100407
 20
42.8189869843
 10
17.5706026931
 20
43.1599821604
 10
17.5945188088
 20
43.5015387615
 10
17.5922455513
 20
43.8434742278
 10
17.5636726636
 20
44.185407055
 10
17.5087847193
 20
44.5261679494
 10
17.4278000888
 20
44.8644009942
 10
17.3211066401
 20
45.1989641727
 10
17.1889333028
 20
45.5295011248
 10
17.0313488562
 20
45.8558385604
 10
16.8483647997
 20
46.1776820436
 10
16.6405379678
 20
46.493818291
 10
16.4088972947
 20
46.8027348281
 10
16.1539893806
 20
47.1038771225
 10
15.8765871676
 20
47.3964901266
 10
15.5785646327
 20
47.6789357424
 10
15.2606753445
 20
47.9509399344
 10
14.9241829384
 20
48.2118299822
 10
14.5723727201
 20
48.4597009885
 10
14.2043478174
 20
48.6957909429
 10
13.8235861882
 20
48.9184395881
 10
13.4414936418
 20
49.1224588808
 10
13.3319108721
 20
49.1760320724
  0
LWPOLYLINE
  5
50E
100
AcDbEntity
  8
RACCORDO
100
AcDbPolyline
 62
250
  6
CONTINUOUS
 90
43
 70
0
 10
1.3617109187
 20
39.1448800284
 10
1.6362632299
 20
39.0637885784
 10
1.9266065623
 20
38.9848355988
 10
2.2329554502
 20
38.9087934175
 10
2.5544628536
 20
38.8366884904
 10
2.8921968949
 20
38.7691172167
 10
3.2492519817
 20
38.7064666379
 10
3.6274682342
 20
38.6496333922
 10
4.0249620141
 20
38.600161353
 10
4.4391117341
 20
38.5595134892
 10
4.86962708
 20
38.5287971506
 10
5.3158027834
 20
38.5091696061
 10
5.7740898598
 20
38.5017989861
 10
6.2435468577
 20
38.5076146138
 10
6.7232050786
 20
38.5275395013
 10
7.2092574491
 20
38.5622566555
 10
7.7020899447
 20
38.6126100296
 10
8.1986577225
 20
38.6791246243
 10
8.6900890221
 20
38.7610249471
 10
9.1730161504
 20
38.8576943532
 10
9.6483749962
 20
38.9692640209
 10
10.1140421234
 20
39.0952395503
 10
10.5683027994
 20
39.2350786063
 10
11.0106547011
 20
39.3885464125
 10
11.4408242296
 20
39.5555500049
 10
11.8582291064
 20
39.7359523632
 10
12.2612166328
 20
39.9291312871
 10
12.6479735691
 20
40.1342160389
 10
13.0170886681
 20
40.3503535246
 10
13.3682320297
 20
40.5772412309
 10
13.7012622642
 20
40.8147890405
 10
14.0157177042
 20
41.0627931768
 10
14.3102629569
 20
41.3203339201
 10
14.5835299117
 20
41.5862142826
 10
14.8345569985
 20
41.8593423323
 10
15.0631968447
 20
42.1393882081
 10
15.2693760218
 20
42.4262621915
 10
15.4527523889
 20
42.7196953093
 10
15.6124753985
 20
43.0185603214
 10
15.7478005716
 20
43.3214654461
 10
15.8583269773
 20
43.6272010812
 10
15.9440673541
 20
43.9354217811
 10
16.0049902873
 20
44.2460106923
  0
LWPOLYLINE
  5
50F
100
AcDbEntity
  8
RACCORDO
100
AcDbPolyline
 62
250
  6
CONTINUOUS
 90
65
 70
0
 10
1.459481852
 20
39.4959460913
 10
1.7279897359
 20
39.4166397432
 10
2.0119410581
 20
39.3394248801
 10
2.3115456193
 20
39.2650568302
 10
2.625975045
 20
39.1945395232
 10
2.9562738945
 20
39.1284561631
 10
3.3054683671
 20
39.0671850627
 10
3.675358051
 20
39.0116029971
 10
4.0641008374
 20
38.9632199671
 10
4.4691328985
 20
38.9234668832
 10
4.8901703142
 20
38.8934267825
 10
5.3265233217
 20
38.874231392
 10
5.7747210611
 20
38.8670230816
 10
6.2338428081
 20
38.8727107126
 10
6.7029411909
 20
38.8921969788
 10
7.1782929569
 20
38.9261498135
 10
7.6602755992
 20
38.975394554
 10
8.1459113124
 20
39.0404446813
 10
8.6265236329
 20
39.1205418498
 10
9.0988189878
 20
39.2150830249
 10
9.5637126661
 20
39.3241964601
 10
10.0191279917
 20
39.4473986064
 10
10.4633879877
 20
39.58415906
 10
10.8960013859
 20
39.7342482219
 10
11.3167006154
 20
39.8975751689
 10
11.7249162245
 20
40.0740058902
 10
12.1190318946
 20
40.2629318921
 10
12.4972742894
 20
40.4635016233
 10
12.858263218
 20
40.6748807802
 10
13.2016760512
 20
40.8967734977
 10
13.5273745282
 20
41.1290916281
 10
13.8349071564
 20
41.3716358742
 10
14.1229679333
 20
41.6235067728
 10
14.3902188555
 20
41.8835336964
 10
14.6357195157
 20
42.1506487548
 10
14.8593257903
 20
42.4245293448
 10
15.0609658716
 20
42.7050877206
 10
15.2403051505
 20
42.9920608302
 10
15.3965118046
 20
43.2843462501
 10
15.5288577506
 20
43.5805828364
 10
15.6369508909
 20
43.8795876152
 10
15.7208036772
 20
44.1810227486
 10
15.7803853719
 20
44.4847739597
 10
15.8155023649
 20
44.7905109734
 10
15.8258903901
 20
45.0970515082
 10
15.8115005012
 20
45.4030059665
 10
15.7725098072
 20
45.707209287
 10
15.7090859352
 20
46.0093097225
 10
15.6212672802
 20
46.3091351434
 10
15.5090369893
 20
46.6063293252
 10
15.3727118634
 20
46.8997283475
 10
15.21293559
 20
47.187970671
 10
15.0293314794
 20
47.4715933407
 10
14.8231024935
 20
47.7486137449
 10
14.5985384706
 20
48.0142523215
 10
14.3581716819
 20
48.2673181079
 10
14.1028353407
 20
48.5085553025
 10
13.835567384
 20
48.7366225642
 10
13.5580875819
 20
48.9516237288
 10
13.2721623914
 20
49.1536342895
 10
12.9813595631
 20
49.3416450884
 10
12.6875968695
 20
49.515984799
 10
12.3924320555
 20
49.6771839705
 10
12.099174146
 20
49.824890692
 10
11.8228692594
 20
49.9535230526
  0
LWPOLYLINE
  5
510
100
AcDbEntity
  8
0
100
AcDbPolyline
 62
7
  6
CONTINUOUS
 90
28
 70
0
 10
0.592066199
 20
36.392655714
 10
0.1703663294
 20
36.5289267451
 10
-0.2406093276
 20
36.6751546919
 10
-0.6408607718
 20
36.8313395543
 10
-1.031001759
 20
36.9977666562
 10
-1.4104185334
 20
37.1741506737
 10
-1.7772698281
 20
37.3596356351
 10
-2.1314945654
 20
37.5542657776
 10
-2.473153823
 20
37.7579968639
 10
-2.8005895668
 20
37.9698402099
 10
-3.1137326599
 20
38.1898352473
 10
-3.4126522393
 20
38.4179425444
 10
-3.6958976817
 20
38.6530551221
 10
-3.9633927992
 20
38.8952070313
 10
-4.2152137798
 20
39.1443642211
 10
-4.4501385646
 20
39.3993175596
 10
-4.6680850253
 20
39.6600952205
 10
-4.8691352902
 20
39.9266690302
 10
-5.0523136849
 20
40.1977453358
 10
-5.2175333387
 20
40.4733460229
 10
-5.3648811223
 20
40.753449206
 10
-5.4936419734
 20
41.0366955757
 10
-5.6037255457
 20
41.3231004104
 10
-5.6952221855
 20
41.6126484317
 10
-5.7676878699
 20
41.9039344957
 10
-5.8210300943
 20
42.1969670506
 10
-5.8553413632
 20
42.491737648
 10
-5.870759677
 20
42.8052831392
  0
LWPOLYLINE
  5
511
100
AcDbEntity
  8
0
100
AcDbPolyline
 62
7
  6
CONTINUOUS
 90
6
 70
0
 10
0.8249996095
 20
36.277877466
 10
0.4061994878
 20
36.4134081077
 10
-0.0028158375
 20
36.5597641545
 10
-0.4013288147
 20
36.7166888482
 10
-0.7886403165
 20
36.8839068896
 10
-1.0190258242
 20
36.9926579386
  0
LWPOLYLINE
  5
512
100
AcDbEntity
  8
0
100
AcDbPolyline
 62
7
  6
CONTINUOUS
 90
12
 70
0
 10
1.3670139302
 20
38.7782730382
 10
0.9778257225
 20
38.9045774789
 10
0.5995224151
 20
39.0407736992
 10
0.232104008
 20
39.1868616991
 10
-0.1250866259
 20
39.3431568241
 10
-0.4713923595
 20
39.5093437287
 10
-0.8048418116
 20
39.6844763768
 10
-1.1253616575
 20
39.8686057898
 10
-1.433025222
 20
40.0616809462
 10
-1.7260810983
 20
40.262602746
 10
-2.0044459728
 20
40.4714159417
 10
-2.2682031592
 20
40.6880757806
  0
LWPOLYLINE
  5
513
100
AcDbEntity
  8
0
100
AcDbPolyline
 62
7
  6
CONTINUOUS
 90
3
 70
0
 10
39.7433841534
 20
9.9909208054
 10
39.5395168929
 20
10.2130541379
 10
39.412557779
 20
10.3149365251
  0
LWPOLYLINE
  5
514
100
AcDbEntity
  8
0
100
AcDbPolyline
 62
7
  6
CONTINUOUS
 90
5
 70
0
 10
23.3294739558
 20
41.0990191037
 10
23.3199981446
 20
41.1228032588
 10
23.3153608556
 20
41.1476507465
 10
23.315777982
 20
41.1723001416
 10
23.3213214882
 20
41.1963309689
  0
LWPOLYLINE
  5
515
100
AcDbEntity
  8
0
100
AcDbPolyline
 62
7
  6
CONTINUOUS
 90
9
 70
0
 10
43.4578531853
 20
-15.0112676584
 10
43.4777339914
 20
-15.0669807194
 10
43.4946835755
 20
-15.1237742494
 10
43.5087938721
 20
-15.181537306
 10
43.5201464621
 20
-15.2401825543
 10
43.5288771611
 20
-15.299596652
 10
43.535120837
 20
-15.3596463757
 10
43.5389490045
 20
-15.4202909565
 10
43.5399486193
 20
-15.4496346264
  0
LWPOLYLINE
  5
516
100
AcDbEntity
  8
0
100
AcDbPolyline
 62
250
  6
CONTINUOUS
 90
8
 70
0
 10
41.5050864609
 20
-18.6587757414
 10
41.4972623978
 20
-18.5807756931
 10
41.4784800825
 20
-18.5007275951
 10
41.4490289707
 20
-18.4198654017
 10
41.4093629603
 20
-18.339435627
 10
41.3600933958
 20
-18.2606781305
 10
41.3019796448
 20
-18.1848070051
 10
41.2359173937
 20
-18.1129918623
  0
LWPOLYLINE
  5
517
100
AcDbEntity
  8
0
100
AcDbPolyline
 62
7
  6
CONTINUOUS
 90
8
 70
0
 10
40.9289482818
 20
5.4197709712
 10
40.9052865483
 20
5.9451041516
 10
40.862414734
 20
6.4382663712
 10
40.8003328389
 20
6.8992576298
 10
40.7186117255
 20
7.3297715955
 10
40.6176805312
 20
7.7281146004
 10
40.4988266687
 20
8.0892056405
 10
40.3871471066
 20
8.3589586592
  0
LWPOLYLINE
  5
518
100
AcDbEntity
  8
0
100
AcDbPolyline
 62
7
  6
CONTINUOUS
 90
15
 70
0
 10
41.7946296709
 20
5.8332927652
 10
41.7710214145
 20
6.3727163217
 10
41.7288062354
 20
6.8813928706
 10
41.6679841336
 20
7.359322412
 10
41.5881841651
 20
7.8080806361
 10
41.4897772738
 20
8.2260918526
 10
41.3738762919
 20
8.6086289908
 10
41.2402826395
 20
8.9552893749
 10
41.0891948965
 20
9.2664756807
 10
40.9223216355
 20
9.5386688645
 10
40.7394836708
 20
9.771426305
 10
40.5408601881
 20
9.9651906235
 10
40.3286973167
 20
10.1177706405
 10
40.1028413674
 20
10.228698862
 10
39.9872432722
 20
10.268341595
  0
LINE
  5
519
100
AcDbEntity
  8
0
100
AcDbLine
 62
250
  6
CONTINUOUS
 10
41.034502794
 20
-18.4583731569
 11
40.9342048101
 21
-14.4265520327
  0
LINE
  5
51A
100
AcDbEntity
  8
0
100
AcDbLine
 62
7
  6
CONTINUOUS
 10
41.1154861369
 20
-18.2276460859
 11
41.015188016
 21
-14.1958194555
  0
LINE
  5
51B
100
AcDbEntity
  8
0
100
AcDbLine
 62
250
  6
CONTINUOUS
 10
42.1719617329
 20
34.7478567897
 11
43.2988365377
 21
-10.5507371349
  0
LINE
  5
51C
100
AcDbEntity
  8
0
100
AcDbLine
 62
250
  6
CONTINUOUS
 10
43.4368080816
 20
-16.0969760895
 11
43.5414149741
 21
-20.3020085594
  0
LINE
  5
51D
100
AcDbEntity
  8
0
100
AcDbLine
 62
7
  6
CONTINUOUS
 10
43.3494450717
 20
-10.6534320803
 11
43.4578531853
 21
-15.0112676584
  0
LINE
  5
51E
100
AcDbEntity
  8
RACCORDO
100
AcDbLine
 62
7
  6
CONTINUOUS
 10
42.2833138295
 20
35.0651065109
 11
43.4184000882
 21
-10.5635749399
  0
LINE
  5
51F
100
AcDbEntity
  8
RACCORDO
100
AcDbLine
 62
7
  6
CONTINUOUS
 10
43.5399487243
 20
-15.4496388469
 11
43.6527670707
 21
-19.9847588405
  0
LWPOLYLINE
  5
520
100
AcDbEntity
  8
0
100
AcDbPolyline
 62
7
  6
CONTINUOUS
 90
12
 70
0
 10
43.5399486193
 20
-15.4496346264
 10
43.5404274916
 20
-15.4814197241
 10
43.5396203851
 20
-15.5428073701
 10
43.5365926532
 20
-15.6043107742
 10
43.5314107511
 20
-15.6659459171
 10
43.5240875587
 20
-15.7277294131
 10
43.5146424085
 20
-15.7896800211
 10
43.5031235424
 20
-15.8516609396
 10
43.4895454297
 20
-15.9134539216
 10
43.4739347709
 20
-15.9749481252
 10
43.4563408419
 20
-16.0361417802
 10
43.4368081977
 20
-16.0969807555
  0
LWPOLYLINE
  5
521
100
AcDbEntity
  8
0
100
AcDbPolyline
 62
7
  6
CONTINUOUS
 90
22
 70
0
 10
41.0151947179
 20
-14.1959701446
 10
41.0150211195
 20
-14.1830948664
 10
41.0154718889
 20
-14.1543389026
 10
41.0172731348
 20
-14.1194474511
 10
41.0207770851
 20
-14.0788103147
 10
41.0263031105
 20
-14.0327149704
 10
41.0341068715
 20
-13.9816633917
 10
41.0443181579
 20
-13.9264650754
 10
41.0571600391
 20
-13.8673338638
 10
41.0726016943
 20
-13.8055505858
 10
41.0900876205
 20
-13.7437087618
 10
41.1093527854
 20
-13.6827750811
 10
41.1300722145
 20
-13.6236409441
 10
41.1512702869
 20
-13.5686361541
 10
41.1722821332
 20
-13.5187839215
 10
41.1928126672
 20
-13.4740207251
 10
41.2123766356
 20
-13.4347201696
 10
41.2305388109
 20
-13.4010824209
 10
41.2469007276
 20
-13.373125289
 10
41.2610190203
 20
-13.3508718283
 10
41.2724476592
 20
-13.3342720379
 10
41.2795089459
 20
-13.3247697586
  0
LWPOLYLINE
  5
522
100
AcDbEntity
  8
0
100
AcDbPolyline
 62
7
  6
CONTINUOUS
 90
31
 70
0
 10
40.9289482818
 20
5.4197709712
 10
40.9320914171
 20
4.8675906046
 10
40.9156854491
 20
4.2968674499
 10
40.8797303778
 20
3.7076015071
 10
40.8239057302
 20
3.0971182942
 10
40.7485319793
 20
2.4680922932
 10
40.6545705434
 20
1.82854695
 10
40.5417833179
 20
1.1783475136
 10
40.4104084075
 20
0.517628735
 10
40.2621215449
 20
-0.1451816875
 10
40.0967060912
 20
-0.8101105475
 10
39.9143786854
 20
-1.4771310516
 10
39.7174649771
 20
-2.1377351205
 10
39.5057781184
 20
-2.7918405611
 10
39.2795049571
 20
-3.4395295667
 10
39.0415316864
 20
-4.0725406382
 10
38.79170843
 20
-4.6906857541
 10
38.530185064
 20
-5.2941529359
 10
38.2602974103
 20
-5.8752447495
 10
37.9819383237
 20
-6.4336745705
 10
37.6952149493
 20
-6.9697290233
 10
37.4037845437
 20
-7.4765705464
 10
37.1075868106
 20
-7.9538249277
 10
36.8066820463
 20
-8.4018663793
 10
36.5049083958
 20
-8.8149799765
 10
36.202254729
 20
-9.1927182999
 10
35.898732176
 20
-9.5355287687
 10
35.5982122729
 20
-9.8390387161
 10
35.300733483
 20
-10.1027447096
 10
35.006257343
 20
-10.3271501816
 10
34.8825177727
 20
-10.410306318
  0
LWPOLYLINE
  5
523
100
AcDbEntity
  8
0
100
AcDbPolyline
 62
250
  6
CONTINUOUS
 90
6
 70
0
 10
40.9342048101
 20
-14.4265520327
 10
40.9339131893
 20
-14.3668132191
 10
40.9360956932
 20
-14.3043851967
 10
40.9407523219
 20
-14.2392679656
 10
40.9479040529
 20
-14.1710240455
 10
40.9575299086
 20
-14.1000909167
  0
LWPOLYLINE
  5
524
100
AcDbEntity
  8
RACCORDO
100
AcDbPolyline
 62
250
  6
CONTINUOUS
 90
6
 70
0
 10
42.2833138295
 20
35.0651065109
 10
42.2825724155
 20
35.026462154
 10
42.2721461324
 20
34.9547217141
 10
42.2500574108
 20
34.8838708724
 10
42.2165429161
 20
34.8146687467
 10
42.1719617329
 20
34.7478567897
  0
LINE
  5
525
100
AcDbEntity
  8
0
100
AcDbLine
 62
250
  6
CONTINUOUS
 10
41.1130878132
 20
-18.2754906388
 11
41.1154861369
 21
-18.2276460859
  0
LWPOLYLINE
  5
526
100
AcDbEntity
  8
0
100
AcDbPolyline
 62
250
  6
CONTINUOUS
 90
6
 70
0
 10
41.3654555084
 20
-13.0461743763
 10
41.3614586447
 20
-13.1218920676
 10
41.3464439384
 20
-13.1931927466
 10
41.3206428333
 20
-13.2589773503
 10
41.2844530397
 20
-13.3182318435
 10
41.2795071779
 20
-13.3247683412
  0
LWPOLYLINE
  5
527
100
AcDbEntity
  8
0
100
AcDbPolyline
 62
250
  6
CONTINUOUS
 90
3
 70
0
 10
40.9575299086
 20
-14.1000909167
 10
40.9695669565
 20
-14.0277810196
 10
40.9840932224
 20
-13.9540204905
  0
LWPOLYLINE
  5
528
100
AcDbEntity
  8
0
100
AcDbPolyline
 62
250
  6
CONTINUOUS
 90
6
 70
0
 10
40.9840932224
 20
-13.9540204905
 10
41.0010306805
 20
-13.8788831933
 10
41.0200823212
 20
-13.8039031594
 10
41.0413020184
 20
-13.7291085262
 10
41.0646358981
 20
-13.6544711564
 10
41.0896253295
 20
-13.5814406695
  0
LINE
  5
529
100
AcDbEntity
  8
0
100
AcDbLine
 62
7
  6
CONTINUOUS
 10
26.8103525074
 20
-43.2390466265
 11
26.9048862622
 21
-42.9781659663
  0
LWPOLYLINE
  5
52A
100
AcDbEntity
  8
0
100
AcDbPolyline
 62
250
  6
CONTINUOUS
 90
10
 70
0
 10
41.0896253295
 20
-13.5814406695
 10
41.1163190392
 20
-13.5100523324
 10
41.1446683005
 20
-13.4402708781
 10
41.1740683028
 20
-13.3734401255
 10
41.2045348029
 20
-13.3096722211
 10
41.236052044
 20
-13.2488550184
 10
41.2679679455
 20
-13.1919958961
 10
41.3000651471
 20
-13.1394306471
 10
41.3325610092
 20
-13.0908234785
 10
41.3654555316
 20
-13.0461743903
  0
LINE
  5
52B
100
AcDbEntity
  8
DRAFT
100
AcDbLine
 62
7
  6
CONTINUOUS
 10
27.6000467428
 20
-42.1636799028
 11
27.5278136713
 21
-42.3507399736
  0
LWPOLYLINE
  5
52C
100
AcDbEntity
  8
DRAFT
100
AcDbPolyline
 62
7
  6
CONTINUOUS
 90
3
 70
0
 10
27.5278136713
 20
-42.3507399736
 10
27.4438811121
 20
-42.5313463257
 10
27.3488962658
 20
-42.7041221548
  0
LINE
  5
52D
100
AcDbEntity
  8
0
100
AcDbLine
 62
7
  6
CONTINUOUS
 10
26.6945479907
 20
-43.4858516203
 11
26.8103525074
 21
-43.2390466265
  0
LWPOLYLINE
  5
52E
100
AcDbEntity
  8
0
100
AcDbPolyline
 62
7
  6
CONTINUOUS
 90
3
 70
0
 10
43.417819768
 20
-10.5653234723
 10
43.4181231336
 20
-10.5648530063
 10
43.4184005122
 20
-10.5635919885
  0
LWPOLYLINE
  5
52F
100
AcDbEntity
  8
0
100
AcDbPolyline
 62
250
  6
CONTINUOUS
 90
5
 70
0
 10
40.9342048101
 20
-14.4265520327
 10
40.9723560102
 20
-14.3676428085
 10
40.9986880117
 20
-14.3063617134
 10
41.0127895629
 20
-14.243665613
 10
41.015191733
 20
-14.1959703067
  0
LINE
  5
530
100
AcDbEntity
  8
0
100
AcDbLine
 62
250
  6
CONTINUOUS
 10
41.3654555316
 20
-13.0461743903
 11
42.4452445437
 21
-11.6513769487
  0
LINE
  5
531
100
AcDbEntity
  8
0
100
AcDbLine
 62
7
  6
CONTINUOUS
 10
41.2795001901
 20
-13.3247773762
 11
42.3246041199
 21
-11.9747438761
  0
LINE
  5
532
100
AcDbEntity
  8
0
100
AcDbLine
 62
250
  6
CONTINUOUS
 10
42.4452445437
 20
-11.6513769487
 11
43.2988365377
 21
-10.5507371349
  0
LINE
  5
533
100
AcDbEntity
  8
0
100
AcDbLine
 62
7
  6
CONTINUOUS
 10
42.3246041199
 20
-11.9747438761
 11
43.4178199337
 21
-10.5653606042
  0
LWPOLYLINE
  5
534
100
AcDbEntity
  8
COPY_PABLISH
100
AcDbPolyline
 62
250
  6
CONTINUOUS
 90
10
 70
0
 10
3.4507326255
 20
-47.026335888
 10
3.5052329968
 20
-46.990997165
 10
3.5594175616
 20
-46.9577013897
 10
3.6131902005
 20
-46.92638016
 10
3.6664515783
 20
-46.8969597887
 10
3.7190975913
 20
-46.8693620275
 10
3.7710193962
 20
-46.8435037839
 10
3.8221052953
 20
-46.8192960207
 10
3.8722405717
 20
-46.7966438373
 10
3.921306002
 20
-46.7754470637
  0
LWPOLYLINE
  5
535
100
AcDbEntity
  8
0
100
AcDbPolyline
 62
7
  6
CONTINUOUS
 90
64
 70
0
 10
3.1952937328
 20
43.4902904422
 10
3.4662253931
 20
43.4123820184
 10
3.7418732056
 20
43.3432625396
 10
4.0222371704
 20
43.2829320058
 10
4.3080365729
 20
43.2312843034
 10
4.5985521277
 20
43.188425546
 10
4.8916259781
 20
43.1546740748
 10
5.1872771735
 20
43.1300977037
 10
5.4854866645
 20
43.1146286189
 10
5.7840394465
 20
43.1083817196
 10
6.0829380757
 20
43.1114256753
 10
6.3821799957
 20
43.1236918167
 10
6.6795425335
 20
43.1450890347
 10
6.9750116949
 20
43.1756853204
 10
7.268601474
 20
43.2154126828
 10
7.5581311799
 20
43.2639760396
 10
7.8435705807
 20
43.3214411847
 10
8.1249499083
 20
43.3877423244
 10
8.400179167
 20
43.4623869948
 10
8.6692125628
 20
43.5454373231
 10
8.9320958896
 20
43.6368311821
 10
9.1868765344
 20
43.7358897277
 10
9.4334941635
 20
43.8426700319
 10
9.6720091106
 20
43.9571150225
 10
9.9006497628
 20
44.0783746389
 10
10.119342595
 20
44.2064996236
 10
10.3281611324
 20
44.3414392339
 10
10.5255543377
 20
44.4821911817
 10
10.7114371366
 20
44.6287987463
 10
10.8858946033
 20
44.7812186484
 10
11.0476309237
 20
44.9383187616
 10
11.1965513746
 20
45.1001339355
 10
11.3327506791
 20
45.2666293206
 10
11.4552171924
 20
45.4365682424
 10
11.5638486585
 20
45.6099763419
 10
11.6587473334
 20
45.7868279782
 10
11.7392083401
 20
45.9658095538
 10
11.8051241741
 20
46.1469369286
 10
11.8566023398
 20
46.3301942428
 10
11.8932604739
 20
46.5142203197
 10
11.9149882249
 20
46.6990208835
 10
11.9218959442
 20
46.88459021
 10
11.9139323237
 20
47.0695499496
 10
11.8909866296
 20
47.2538955632
 10
11.8531695956
 20
47.4376315899
 10
11.8007621145
 20
47.6193932973
 10
11.7336555442
 20
47.7991659843
 10
11.6519585269
 20
47.976964352
 10
11.5562778818
 20
48.151467771
 10
11.4465094852
 20
48.3226517067
 10
11.3227574609
 20
48.4905406937
 10
11.1859409993
 20
48.6538877062
 10
11.035962821
 20
48.8126589243
 10
10.8729202055
 20
48.966888168
 10
10.698024181
 20
49.1154298718
 10
10.5111864857
 20
49.2582416856
 10
10.3124953815
 20
49.3953659596
 10
10.1034266824
 20
49.5257841784
 10
9.8839031155
 20
49.6494464081
 10
9.6540019536
 20
49.7664025826
 10
9.415430829
 20
49.875783989
 10
9.1687589525
 20
49.9773010562
 10
8.9134171133
 20
50.0712433552
 10
8.6494053114
 20
50.1576108861
  0
LWPOLYLINE
  5
536
100
AcDbEntity
  8
0
100
AcDbPolyline
 62
7
  6
CONTINUOUS
 90
26
 70
0
 10
2.3748950718
 20
41.0491121143
 10
2.711617446
 20
40.9518890985
 10
3.0556594721
 20
40.8647666122
 10
3.4062417845
 20
40.7879420159
 10
3.7625702014
 20
40.7215893421
 10
4.1238375242
 20
40.6658589008
 10
4.4892253664
 20
40.6208769396
 10
4.857906007
 20
40.5867453569
 10
5.2290442656
 20
40.5635414719
 10
5.6017993949
 20
40.5513178487
 10
5.9753269845
 20
40.5501021778
 10
6.3487808743
 20
40.5598972131
 10
6.7213150711
 20
40.5806807656
 10
7.0920856652
 20
40.612405754
 10
7.4602527419
 20
40.655000311
 10
7.8249822843
 20
40.7083679461
 10
8.1854480628
 20
40.7723877645
 10
8.5408335064
 20
40.8469147408
 10
8.8903335528
 20
40.9317800474
 10
9.2331564719
 20
41.026791437
 10
9.5685256596
 20
41.1317336782
 10
9.8956813968
 20
41.2463690433
 10
10.2138825706
 20
41.3704378461
 10
10.5224083529
 20
41.503659031
 10
10.8205598336
 20
41.6457308091
 10
10.9716967173
 20
41.7250103455
  0
LWPOLYLINE
  5
537
100
AcDbEntity
  8
0
100
AcDbPolyline
 62
7
  6
CONTINUOUS
 90
46
 70
0
 10
2.1419616614
 20
41.1638903624
 10
2.4856197054
 20
41.0644755683
 10
2.8349637115
 20
40.975217477
 10
3.1899936798
 20
40.8961160885
 10
3.5514679852
 20
40.8270497241
 10
3.9186282527
 20
40.7681400624
 10
4.2891993577
 20
40.7197521399
 10
4.6632024793
 20
40.6819512898
 10
5.0406164385
 20
40.6546721789
 10
5.419102573
 20
40.6380838432
 10
5.7986675404
 20
40.6322526658
 10
6.1793046832
 20
40.6371122638
 10
6.5586553667
 20
40.6526325243
 10
6.9367116027
 20
40.6788796434
 10
7.3134813794
 20
40.7157874251
 10
7.6866300263
 20
40.7631271688
 10
8.0561350586
 20
40.8209636502
 10
8.4220189611
 20
40.8892320936
 10
8.7820145182
 20
40.9675094704
 10
9.1360851671
 20
41.05585793
 10
9.4842674706
 20
41.154215323
 10
9.8244039018
 20
41.2619721737
 10
10.1564445011
 20
41.3791868467
 10
10.480439228
 20
41.5058009774
 10
10.7943804352
 20
41.6410299956
 10
11.0982056967
 20
41.7849273945
 10
11.3919774384
 20
41.937439681
 10
11.6738752909
 20
42.0976218061
 10
11.9438255248
 20
42.2655213946
 10
12.2019018695
 20
42.4410908217
 10
12.4465051436
 20
42.6232421637
 10
12.6775516879
 20
42.8120162902
 10
12.8951251617
 20
43.0073723316
 10
13.0978773613
 20
43.2080997556
 10
13.285716256
 20
43.4142319152
 10
13.4587338766
 20
43.6257354575
 10
13.6158581118
 20
43.8412997915
 10
13.7569902737
 20
44.0609501322
 10
13.8822290502
 20
44.2846612645
 10
13.9907983938
 20
44.5110469528
 10
14.0825947978
 20
44.7401238042
 10
14.1577217689
 20
44.9718752115
 10
14.2157137794
 20
45.204865117
 10
14.2564644321
 20
45.4391012109
 10
14.2800801244
 20
45.6745758029
 10
14.2862402625
 20
45.9240467732
  0
LWPOLYLINE
  5
538
100
AcDbEntity
  8
RACCORDO
100
AcDbPolyline
 62
250
  6
CONTINUOUS
 90
40
 70
0
 10
2.1369629737
 20
41.5094588787
 10
2.4136378655
 20
41.4284384109
 10
2.7081792972
 20
41.35054847
 10
3.0208106573
 20
41.2768406821
 10
3.3512745684
 20
41.2084999198
 10
3.6999431485
 20
41.146602637
 10
4.0678513751
 20
41.0922169397
 10
4.4583218912
 20
41.0463535484
 10
4.8674083184
 20
41.0110266405
 10
5.2847927701
 20
40.9881010967
 10
5.7072218677
 20
40.9781820005
 10
6.1359254851
 20
40.9816701792
 10
6.5669590777
 20
40.9989412323
 10
6.9988671458
 20
41.0301993891
 10
7.4307197117
 20
41.0756426346
 10
7.8593452892
 20
41.13512274
 10
8.2833413911
 20
41.2085248756
 10
8.7017002901
 20
41.2957555298
 10
9.1119563955
 20
41.3963232481
 10
9.5123139077
 20
41.5096998812
 10
9.9024187123
 20
41.6356954324
 10
10.2820153725
 20
41.7742270021
 10
10.6505264058
 20
41.9251690866
 10
11.006359158
 20
42.0879574905
 10
11.3477942897
 20
42.2618056502
 10
11.6734929232
 20
42.4459368544
 10
11.9830886884
 20
42.6400447806
 10
12.2763741628
 20
42.8439994736
 10
12.5528596139
 20
43.0575707889
 10
12.8113066737
 20
43.2799197413
 10
13.0504650274
 20
43.5099706487
 10
13.2694438256
 20
43.7467305721
 10
13.4680474581
 20
43.9898400514
 10
13.6461438141
 20
44.2391374405
 10
13.8033804559
 20
44.494311517
 10
13.9389937839
 20
44.7543301493
 10
14.0523274697
 20
45.017935032
 10
14.1430274159
 20
45.2840155581
 10
14.2110866284
 20
45.5521939893
 10
14.2564597326
 20
45.8222915132
  0
LWPOLYLINE
  5
539
100
AcDbEntity
  8
RACCORDO
100
AcDbPolyline
 62
250
  6
CONTINUOUS
 90
54
 70
0
 10
2.2347339071
 20
41.8605249417
 10
2.5040409967
 20
41.7816617037
 10
2.7907389757
 20
41.7058458157
 10
3.0950452584
 20
41.6341009071
 10
3.416709353
 20
41.5675804615
 10
3.7560933585
 20
41.5073321188
 10
4.1142045233
 20
41.4543950668
 10
4.494276988
 20
41.4097528023
 10
4.8924696124
 20
41.3753661578
 10
5.298739361
 20
41.3530507743
 10
5.7099194712
 20
41.3433958324
 10
6.1272070085
 20
41.3467912805
 10
6.546762461
 20
41.3636025188
 10
6.9671691122
 20
41.394028251
 10
7.3875217568
 20
41.4382612784
 10
7.8047333545
 20
41.4961573859
 10
8.2174387562
 20
41.5676048217
 10
8.6246570719
 20
41.6525125439
 10
9.023988364
 20
41.7504021889
 10
9.4136846449
 20
41.8607596814
 10
9.7934012321
 20
41.9834000727
 10
10.1628895077
 20
42.1182426433
 10
10.5215873837
 20
42.2651652152
 10
10.8679446076
 20
42.4236186367
 10
11.2002876019
 20
42.5928373164
 10
11.5173131241
 20
42.7720652394
 10
11.8186645716
 20
42.9610042239
 10
12.104140066
 20
43.1595277565
 10
12.3732629296
 20
43.3674118128
 10
12.6248277606
 20
43.58383976
 10
12.857617524
 20
43.8077645709
 10
13.0707650845
 20
44.0382197512
 10
13.2640800472
 20
44.2748554077
 10
13.4374338251
 20
44.5175141951
 10
13.590483366
 20
44.7658931783
 10
13.7224854038
 20
45.0189877108
 10
13.8328010926
 20
45.2755729928
 10
13.9210857712
 20
45.5345679904
 10
13.9873326253
 20
45.7956050269
 10
14.0314974723
 20
46.0585100557
 10
14.0534042874
 20
46.322930108
 10
14.0528460329
 20
46.5877722433
 10
14.0298253872
 20
46.8517556541
 10
13.9845541865
 20
47.1137902548
 10
13.917209755
 20
47.3735277421
 10
13.8278354711
 20
47.6307984938
 10
13.7163922057
 20
47.8853308159
 10
13.583258433
 20
48.1359507288
 10
13.4292631439
 20
48.381171273
 10
13.2548786385
 20
48.6204615231
 10
13.0607845357
 20
48.8530835514
 10
12.848677966
 20
49.0774089147
 10
12.6193720855
 20
49.2931089413
 10
12.3739811577
 20
49.4996204872
  0
LWPOLYLINE
  5
53A
100
AcDbEntity
  8
0
100
AcDbPolyline
 62
7
  6
CONTINUOUS
 90
25
 70
0
 10
2.1419616614
 20
41.1638903624
 10
1.8063051124
 20
41.2730864986
 10
1.4805266106
 20
41.391151989
 10
1.1646261559
 20
41.5180868334
 10
0.8579907918
 20
41.6541904759
 10
0.5612334748
 20
41.7991634724
 10
0.2761930747
 20
41.9521074916
 10
0.0029423461
 20
42.1130720283
 10
-0.2585914657
 20
42.2820075877
 10
-0.5067877549
 20
42.4578673531
 10
-0.741563704
 20
42.6406943195
 10
-0.9630021305
 20
42.8304454919
 10
-1.1697308815
 20
43.0259450689
 10
-1.3616586193
 20
43.2272287443
 10
-1.5388766817
 20
43.4342608244
 10
-1.7002869291
 20
43.6457584257
 10
-1.845791205
 20
43.8617492763
 10
-1.975487666
 20
44.0822056481
 10
-2.0885726422
 20
44.3057614736
 10
-2.1849429869
 20
44.5324359984
 10
-2.2647018468
 20
44.7622099769
 10
-2.3273549928
 20
44.9936596045
 10
-2.372796209
 20
45.226795286
 10
-2.4011317113
 20
45.4616066167
 10
-2.4120116595
 20
45.6824215692
  0
LINE
  5
53B
100
AcDbEntity
  8
0
100
AcDbLine
 62
7
  6
CONTINUOUS
 10
2.3748950718
 20
41.0491121143
 11
2.0462551341
 21
41.1562154184
  0
LWPOLYLINE
  5
53C
100
AcDbEntity
  8
0
100
AcDbPolyline
 62
7
  6
CONTINUOUS
 90
64
 70
0
 10
3.1952937328
 20
43.4902904422
 10
2.9312819309
 20
43.5766579731
 10
2.6759400917
 20
43.6706002721
 10
2.4292682152
 20
43.7721173393
 10
2.1906970906
 20
43.8814987457
 10
1.9607959288
 20
43.9984549202
 10
1.7412723619
 20
44.1221171499
 10
1.5322036627
 20
44.2525353687
 10
1.3335125585
 20
44.3896596427
 10
1.1466748632
 20
44.5324714565
 10
0.9717788388
 20
44.6810131603
 10
0.8087362232
 20
44.835242404
 10
0.658758045
 20
44.9940136221
 10
0.5219415833
 20
45.1573606346
 10
0.398189559
 20
45.3252496216
 10
0.2884211625
 20
45.4964335573
 10
0.1927405173
 20
45.6709369763
 10
0.1110435
 20
45.848735344
 10
0.0439369297
 20
46.028508031
 10
-0.0084705514
 20
46.2102697384
 10
-0.0462875854
 20
46.3940057651
 10
-0.0692332795
 20
46.5783513787
 10
-0.0771969
 20
46.7633111183
 10
-0.0702891807
 20
46.9488804448
 10
-0.0485614297
 20
47.1336810086
 10
-0.0119032956
 20
47.3177070855
 10
0.0395748702
 20
47.5009643997
 10
0.1054907041
 20
47.6820917745
 10
0.1859517108
 20
47.8610733501
 10
0.2808503857
 20
48.0379249864
 10
0.3894818518
 20
48.2113330859
 10
0.5119483651
 20
48.3812720077
 10
0.6481476697
 20
48.5477673928
 10
0.7970681205
 20
48.7095825667
 10
0.9588044409
 20
48.8666826799
 10
1.1332619076
 20
49.019102582
 10
1.3191447065
 20
49.1657101466
 10
1.5165379118
 20
49.3064620944
 10
1.7253564492
 20
49.4414017047
 10
1.9440492814
 20
49.5695266894
 10
2.1726899336
 20
49.6907863058
 10
2.4112048807
 20
49.8052312964
 10
2.6578225098
 20
49.9120116006
 10
2.9126031546
 20
50.0110701462
 10
3.1754864815
 20
50.1024640052
 10
3.4445198772
 20
50.1855143334
 10
3.7197491359
 20
50.2601590039
 10
4.0011284635
 20
50.3264601436
 10
4.2865678644
 20
50.3839252887
 10
4.5760975702
 20
50.4324886455
 10
4.8696873493
 20
50.4722160079
 10
5.1651565107
 20
50.5028122936
 10
5.4625190485
 20
50.5242095116
 10
5.7617609686
 20
50.5364756529
 10
6.0606595977
 20
50.5395196087
 10
6.3592123797
 20
50.5332727094
 10
6.6574218707
 20
50.5178036245
 10
6.9530730661
 20
50.4932272535
 10
7.2461469165
 20
50.4594757823
 10
7.5366624713
 20
50.4166170249
 10
7.8224618738
 20
50.3649693225
 10
8.1028258386
 20
50.3046387887
 10
8.3784736511
 20
50.2355193099
 10
8.6494053114
 20
50.1576108861
  0
LWPOLYLINE
  5
53D
100
AcDbEntity
  8
0
100
AcDbPolyline
 62
7
  6
CONTINUOUS
 90
5
 70
0
 10
2.0462551341
 20
41.1562154184
 10
1.7264421082
 20
41.2729563872
 10
1.4161804732
 20
41.3990705649
 10
1.1161730717
 20
41.5342722624
 10
1.0180399283
 20
41.583150821
  0
LINE
  5
53E
100
AcDbEntity
  8
0
100
AcDbLine
 62
7
  6
CONTINUOUS
 10
23.3387898483
 20
41.0835754128
 11
23.3294739558
 21
41.0990191037
  0
LWPOLYLINE
  5
53F
100
AcDbEntity
  8
0
100
AcDbPolyline
 62
7
  6
CONTINUOUS
 90
20
 70
0
 10
40.3871471066
 20
8.3589586592
 10
40.3618205518
 20
8.4125675251
 10
40.2068917667
 20
8.698677445
 10
40.0360164839
 20
8.9438859684
 10
39.8489904319
 20
9.147669156
 10
39.6460178823
 20
9.3105509472
 10
39.4296878206
 20
9.4304537279
 10
39.1998291397
 20
9.5068269449
 10
38.9566129468
 20
9.5402211515
 10
38.7031415492
 20
9.5302103928
 10
38.4392835797
 20
9.4762386594
 10
38.1651704054
 20
9.3788619607
 10
37.8842984355
 20
9.2393223705
 10
37.5965810911
 20
9.0570797901
 10
37.302104951
 20
8.8326743181
 10
37.0046261611
 20
8.5689683246
 10
36.704106258
 20
8.2654583772
 10
36.4005837051
 20
7.9226479084
 10
36.0979300382
 20
7.544909585
 10
36.039209562
 20
7.4645240804
  0
LWPOLYLINE
  5
540
100
AcDbEntity
  8
0
100
AcDbPolyline
 62
7
  6
CONTINUOUS
 90
7
 70
0
 10
40.029314977
 20
9.1401945003
 10
40.0023079872
 20
9.1973603525
 10
39.8370995671
 20
9.502453869
 10
39.6548865879
 20
9.7639321522
 10
39.4554512243
 20
9.9812364992
 10
39.2390113017
 20
10.154925613
 10
39.0669347718
 20
10.2503004965
  0
LINE
  5
541
100
AcDbEntity
  8
0
100
AcDbLine
 62
7
  6
CONTINUOUS
 10
40.0295792509
 20
9.1396176482
 11
40.3873949368
 21
8.3584177002
  0
LWPOLYLINE
  5
542
100
AcDbEntity
  8
0
100
AcDbPolyline
 62
7
  6
CONTINUOUS
 90
4
 70
0
 10
40.2478691889
 20
9.0592787418
 10
40.0985260284
 20
9.4117585212
 10
39.92964631
 20
9.7236318936
 10
39.7433841534
 20
9.9909208054
  0
LWPOLYLINE
  5
543
100
AcDbEntity
  8
0
100
AcDbPolyline
 62
7
  6
CONTINUOUS
 90
3
 70
0
 10
40.4874453172
 20
8.2314596407
 10
40.377425532
 20
8.6656723948
 10
40.2478691889
 20
9.0592787418
  0
LINE
  5
544
100
AcDbEntity
  8
0
100
AcDbLine
 62
7
  6
CONTINUOUS
 10
40.5357310904
 20
7.977085969
 11
40.4874453172
 21
8.2314596407
  0
LWPOLYLINE
  5
545
100
AcDbEntity
  8
RACCORDO
100
AcDbPolyline
 62
7
  6
CONTINUOUS
 90
22
 70
0
 10
42.2833138295
 20
35.065106511
 10
42.2627927951
 20
35.3849228697
 10
42.2169729213
 20
35.7094412622
 10
42.1458544587
 20
36.0373659732
 10
42.0491217397
 20
36.3685212078
 10
41.9270769174
 20
36.7004712
 10
41.7814779164
 20
37.0285263601
 10
41.6136697069
 20
37.3506396937
 10
41.4242429032
 20
37.6663721321
 10
41.2148437032
 20
37.9735054804
 10
40.9868375789
 20
38.2706212967
 10
40.7412369832
 20
38.5568303972
 10
40.4795140386
 20
38.8307294692
 10
40.2030411787
 20
39.0911493444
 10
39.9130218418
 20
39.3371322614
 10
39.6108012597
 20
39.5676246625
 10
39.2976549736
 20
39.7816684712
 10
38.9749741475
 20
39.9782619728
 10
38.6442995312
 20
40.1563786868
 10
38.3070441355
 20
40.3151315969
 10
37.9645225489
 20
40.4537123895
 10
37.6181430941
 20
40.5712959063
  0
LINE
  5
546
100
AcDbEntity
  8
RACCORDO
100
AcDbLine
 62
250
  6
CONTINUOUS
 10
42.1583554066
 20
34.9867875326
 11
42.1719617329
 21
34.7478567897
  0
LWPOLYLINE
  5
547
100
AcDbEntity
  8
RACCORDO
100
AcDbPolyline
 62
250
  6
CONTINUOUS
 90
9
 70
0
 10
43.5414149741
 20
-20.3020085594
 10
43.5394899904
 20
-20.5383185938
 10
43.5210140665
 20
-20.7763582538
 10
43.4844864271
 20
-21.0146943821
 10
43.4282169544
 20
-21.2525274125
 10
43.3508832982
 20
-21.4872608818
 10
43.2521942527
 20
-21.7148538867
 10
43.1314952725
 20
-21.9336402246
 10
42.9927136804
 20
-22.1360415239
  0
LWPOLYLINE
  5
548
100
AcDbEntity
  8
RACCORDO
100
AcDbPolyline
 62
250
  6
CONTINUOUS
 90
6
 70
0
 10
43.6527670707
 20
-19.9847588408
 10
43.6520257616
 20
-20.0234015376
 10
43.6415996692
 20
-20.0951423397
 10
43.6195110068
 20
-20.1659935834
 10
43.585996419
 20
-20.2351961464
 10
43.541414974
 20
-20.3020085582
  0
LWPOLYLINE
  5
549
100
AcDbEntity
  8
ASSI
100
AcDbPolyline
 62
7
  6
CONTINUOUS
 90
7
 70
0
 10
27.3048253031
 20
-42.7756764971
 10
27.4562122344
 20
-42.5062574034
 10
27.580493419
 20
-42.2173542468
 10
27.6756030411
 20
-41.9137692088
 10
27.7408524953
 20
-41.5971030162
 10
27.7769303868
 20
-41.265754942
 10
27.7838367158
 20
-40.9197249863
  0
LINE
  5
54A
100
AcDbEntity
  8
0
100
AcDbLine
 62
7
  6
CONTINUOUS
 10
26.5572002378
 20
-43.718400641
 11
26.6945479907
 21
-43.4858516203
  0
LWPOLYLINE
  5
54B
100
AcDbEntity
  8
COPY_PABLISH
100
AcDbPolyline
 62
7
  6
CONTINUOUS
 90
4
 70
0
 10
21.1195011289
 20
-50.2377923378
 10
21.5059452181
 20
-49.6186796586
 10
21.7181642337
 20
-48.9394915124
 10
21.7954192142
 20
-48.1523734055
  0
LINE
  5
54C
100
AcDbEntity
  8
DRAFT
100
AcDbLine
 62
7
  6
CONTINUOUS
 10
27.3488962658
 20
-42.7041221548
 11
27.2428549732
 21
-42.8689069554
  0
LWPOLYLINE
  5
54D
100
AcDbEntity
  8
COPY_PABLISH
100
AcDbPolyline
 62
250
  6
CONTINUOUS
 90
14
 70
0
 10
17.4802212685
 20
-54.5611093325
 10
17.5569281962
 20
-54.4424990521
 10
17.6275481531
 20
-54.3195962272
 10
17.6919880687
 20
-54.1925628325
 10
17.7501630173
 20
-54.0615662859
 10
17.8037522142
 20
-53.9246653067
 10
17.8509299657
 20
-53.7841468888
 10
17.8863732474
 20
-53.6465488915
 10
17.9048345805
 20
-53.5183961488
 10
17.9114934876
 20
-53.3935976672
 10
17.9166595175
 20
-53.2597487911
 10
17.923727962
 20
-53.1128120947
 10
17.9292130484
 20
-52.9571679022
 10
17.9330838194
 20
-52.7929990384
  0
LWPOLYLINE
  5
54E
100
AcDbEntity
  8
0
100
AcDbPolyline
 62
250
  6
CONTINUOUS
 90
4
 70
0
 10
41.034502794
 20
-18.4583731569
 10
41.0726543116
 20
-18.3994656798
 10
41.098986378
 20
-18.3381858754
 10
41.1130878132
 20
-18.2754906388
  0
LWPOLYLINE
  5
54F
100
AcDbEntity
  8
RACCORDO
100
AcDbPolyline
 62
7
  6
CONTINUOUS
 90
10
 70
0
 10
42.9927136193
 20
-22.1360416044
 10
43.1308057544
 20
-21.9388187815
 10
43.2544044801
 20
-21.7295125017
 10
43.3626546669
 20
-21.5088350852
 10
43.4546986951
 20
-21.2778069594
 10
43.5299710387
 20
-21.0370523121
 10
43.5880400178
 20
-20.7866456296
 10
43.6282787734
 20
-20.5270985816
 10
43.6500264881
 20
-20.2595093629
 10
43.6527670707
 20
-19.9847588408
  0
LINE
  5
550
100
AcDbEntity
  8
ASSI
100
AcDbLine
 62
7
  6
CONTINUOUS
 10
27.1292449486
 20
-43.0215270579
 11
27.3048253031
 21
-42.7756764971
  0
LINE
  5
551
100
AcDbEntity
  8
0
100
AcDbLine
 62
7
  6
CONTINUOUS
 10
26.57803833
 20
-43.6864420337
 11
26.3990925871
 21
-43.936051394
  0
LINE
  5
552
100
AcDbEntity
  8
0
100
AcDbLine
 62
7
  6
CONTINUOUS
 10
26.4030582692
 20
-43.931540403
 11
26.5572002378
 21
-43.718400641
  0
LINE
  5
553
100
AcDbEntity
  8
DRAFT
100
AcDbLine
 62
7
  6
CONTINUOUS
 10
27.2428549732
 20
-42.8689069554
 11
27.1711329806
 21
-42.9677362757
  0
LINE
  5
554
100
AcDbEntity
  8
0
100
AcDbLine
 62
250
  6
CONTINUOUS
 10
43.4368080816
 20
-16.0969760895
 11
42.3693566279
 21
-17.513690862
  0
LINE
  5
555
100
AcDbEntity
  8
0
100
AcDbLine
 62
250
  6
CONTINUOUS
 10
42.3693566279
 20
-17.513690862
 11
41.5050778836
 21
-18.6587732332
  0
LINE
  5
556
100
AcDbEntity
  8
DRAFT
100
AcDbLine
 62
7
  6
CONTINUOUS
 10
42.99271362
 20
-22.1360416035
 11
27.1711080868
 21
-42.9677690529
  0
LINE
  5
557
100
AcDbEntity
  8
RACCORDO
100
AcDbLine
 62
250
  6
CONTINUOUS
 10
43.5414149741
 20
-20.3020085594
 11
27.7838367158
 21
-40.9197249863
  0
LINE
  5
558
100
AcDbEntity
  8
DRAFT
100
AcDbLine
 62
7
  6
CONTINUOUS
 10
27.1711329806
 20
-42.9677362757
 11
27.1257613935
 21
-43.025861233
  0
LWPOLYLINE
  5
559
100
AcDbEntity
  8
0
100
AcDbPolyline
 62
250
  6
CONTINUOUS
 90
22
 70
0
 10
41.5050778836
 20
-18.6587732332
 10
41.4720887584
 20
-18.7003336908
 10
41.4392731819
 20
-18.7371717867
 10
41.4066311541
 20
-18.7692875209
 10
41.3739371995
 20
-18.7969227075
 10
41.3414167935
 20
-18.8198355323
 10
41.3097463628
 20
-18.8373005533
 10
41.2789376364
 20
-18.8491628632
 10
41.2489788851
 20
-18.8555773692
 10
41.2205113482
 20
-18.8562833501
 10
41.1935849399
 20
-18.8511199913
 10
41.1681497458
 20
-18.8402481075
 10
41.1446972624
 20
-18.823889421
 10
41.1232787806
 20
-18.8018888153
 10
41.1038430094
 20
-18.774401407
 10
41.0867275722
 20
-18.7421142691
 10
41.0720055439
 20
-18.7049082078
 10
41.0596038495
 20
-18.6629024168
 10
41.0496408875
 20
-18.6171415508
 10
41.042156124
 20
-18.5679738279
 10
41.0371100928
 20
-18.5150510299
 10
41.034502794
 20
-18.4583731569
  0
LINE
  5
55A
100
AcDbEntity
  8
0
100
AcDbLine
 62
7
  6
CONTINUOUS
 10
43.4578531853
 20
-15.0112676584
 11
41.1087055602
 21
-17.9550775733
  0
LINE
  5
55B
100
AcDbEntity
  8
0
100
AcDbLine
 62
250
  6
CONTINUOUS
 10
27.7838367158
 20
-40.9197249863
 11
27.0570497428
 21
-41.8304905228
  0
LINE
  5
55C
100
AcDbEntity
  8
ASSI
100
AcDbLine
 62
7
  6
CONTINUOUS
 10
27.1296138426
 20
-43.0210648817
 11
26.4028268696
 21
-43.9318304182
  0
LINE
  5
55D
100
AcDbEntity
  8
COPY_PABLISH
100
AcDbLine
 62
250
  6
CONTINUOUS
 10
21.7954193341
 20
-48.152378223
 11
17.9330862642
 21
-52.7929998615
  0
LINE
  5
55E
100
AcDbEntity
  8
RACCORDO
100
AcDbLine
 62
250
  6
CONTINUOUS
 10
22.1201704602
 20
-47.7621853835
 11
27.0570497428
 21
-41.8304905228
  0
LWPOLYLINE
  5
55F
100
AcDbEntity
  8
COPY_PABLISH
100
AcDbPolyline
 62
7
  6
CONTINUOUS
 90
16
 70
0
 10
7.6537987504
 20
-44.886779548
 10
7.5335253545
 20
-44.9272577366
 10
7.4093421523
 20
-44.961856418
 10
7.281485535
 20
-44.9905097314
 10
7.1501988862
 20
-45.0131631332
 10
7.0157321188
 20
-45.0297735013
 10
6.8783411994
 20
-45.0403092165
 10
6.7382876608
 20
-45.0447502236
 10
6.5958381044
 20
-45.0430880688
 10
6.4512636923
 20
-45.0353259161
 10
6.3048384694
 20
-45.0214777225
 10
6.1568424858
 20
-45.0015706877
 10
6.0075604675
 20
-44.9756450964
 10
5.8572767797
 20
-44.9437509348
 10
5.7062756884
 20
-44.9059479041
 10
5.5548439082
 20
-44.8623077094
  0
LWPOLYLINE
  5
560
100
AcDbEntity
  8
RACCORDO
100
AcDbPolyline
 62
250
  6
CONTINUOUS
 90
8
 70
0
 10
37.6181430941
 20
40.5712959063
 10
37.5761083319
 20
40.5777993652
 10
37.5318295088
 20
40.5727338639
 10
37.4850155863
 20
40.5563863949
 10
37.4361681611
 20
40.5289320896
 10
37.3858106086
 20
40.4906650901
 10
37.3344824716
 20
40.4419953818
 10
37.282733701
 20
40.3834444138
  0
LWPOLYLINE
  5
561
100
AcDbEntity
  8
0
100
AcDbPolyline
 62
250
  6
CONTINUOUS
 90
9
 70
0
 10
29.1518632626
 20
39.8174411001
 10
29.0632595899
 20
39.8392443478
 10
28.9761619214
 20
39.8510291632
 10
28.8919127983
 20
39.8526138939
 10
28.8118108539
 20
39.8439741141
 10
28.7370907962
 20
39.8252430005
 10
28.6689043763
 20
39.79670928
 10
28.608302634
 20
39.7588127786
 10
28.5562196979
 20
39.7121376421
  0
LWPOLYLINE
  5
562
100
AcDbEntity
  8
0
100
AcDbPolyline
 62
7
  6
CONTINUOUS
 90
40
 70
0
 10
5.4462609309
 20
47.7601570399
 10
5.5202404742
 20
47.7398136193
 10
5.5956932731
 20
47.7233764042
 10
5.6726193278
 20
47.7108453946
 10
5.7515344051
 20
47.7021901207
 10
5.8319227381
 20
47.6974410523
 10
5.9122370257
 20
47.6966895987
 10
5.9924758336
 20
47.7000132021
 10
6.072640596
 20
47.7073344202
 10
6.1511883152
 20
47.7185123355
 10
6.2280876656
 20
47.7336216604
 10
6.3033699728
 20
47.7525876825
 10
6.3755862157
 20
47.775045347
 10
6.444676998
 20
47.8010622944
 10
6.510701716
 20
47.8305708842
 10
6.5723895369
 20
47.86300314
 10
6.629656446
 20
47.8984156994
 10
6.6825864581
 20
47.9367519249
 10
6.7301607852
 20
47.9772739272
 10
6.7722756765
 20
48.0200240495
 10
6.8090348828
 20
48.0649599486
 10
6.8397308691
 20
48.111216706
 10
6.8642461781
 20
48.1588199094
 10
6.8826982672
 20
48.207743971
 10
6.8947319736
 20
48.2570472088
 10
6.9002229597
 20
48.3067369681
 10
6.8992955632
 20
48.3568059036
 10
6.8919676344
 20
48.4062902969
 10
6.8781151815
 20
48.455178824
 10
6.8578621963
 20
48.5034828088
 10
6.8315985049
 20
48.5502725045
 10
6.7992076671
 20
48.5955185759
 10
6.7608061232
 20
48.639250358
 10
6.7171330194
 20
48.680626109
 10
6.6680862346
 20
48.7196001875
 10
6.6137678899
 20
48.7562182347
 10
6.5552234959
 20
48.7897754328
 10
6.4928015558
 20
48.8200368424
 10
6.4261535663
 20
48.8472374027
 10
6.3552795274
 20
48.8713771139
  0
LWPOLYLINE
  5
563
100
AcDbEntity
  8
RACCORDO
100
AcDbPolyline
 62
250
  6
CONTINUOUS
 90
32
 70
0
 10
4.0493306275
 20
45.2048293948
 10
4.2776381748
 20
45.140122851
 10
4.5121490606
 20
45.0843001129
 10
4.7519740933
 20
45.0375731348
 10
4.9961939049
 20
45.0001207298
 10
5.2438920966
 20
44.972083093
 10
5.4941599693
 20
44.9535651013
 10
5.746041557
 20
44.9446408481
 10
5.998588992
 20
44.9453473092
 10
6.2508967846
 20
44.9556888027
 10
6.5020276003
 20
44.975638043
 10
6.7510032382
 20
45.0051284862
 10
6.9968617995
 20
45.044055463
 10
7.2386965171
 20
45.0922860544
 10
7.4755490778
 20
45.1496399866
 10
7.7064092215
 20
45.2158746367
 10
7.930225124
 20
45.2906704794
 10
8.1463354275
 20
45.3737882069
 10
8.3543161685
 20
45.4650921016
 10
8.5536443009
 20
45.5644442588
 10
8.7431540608
 20
45.6713598681
 10
8.9215454166
 20
45.7851164721
 10
9.0878841288
 20
45.905030568
 10
9.2419077664
 20
46.0308193014
 10
9.3834009454
 20
46.1623067217
 10
9.5119724665
 20
46.2992345736
 10
9.6268391834
 20
46.4408852046
 10
9.7272808963
 20
46.5863698004
 10
9.8128391756
 20
46.7348742995
 10
9.8834139415
 20
46.8860496458
 10
9.9389055111
 20
47.0396781229
 10
9.9790989848
 20
47.1954200819
  0
LWPOLYLINE
  5
564
100
AcDbEntity
  8
RACCORDO
100
AcDbPolyline
 62
250
  6
CONTINUOUS
 90
28
 70
0
 10
4.1471015608
 20
45.5558954578
 10
4.3630266921
 20
45.4946968437
 10
4.5848192302
 20
45.4419008775
 10
4.8116380585
 20
45.39770806
 10
5.042613645
 20
45.3622880076
 10
5.2768789253
 20
45.3357728669
 10
5.5135741389
 20
45.3182603954
 10
5.7517952896
 20
45.3098198326
 10
5.9906462444
 20
45.3104869518
 10
6.2292706821
 20
45.3202668437
 10
6.4667819555
 20
45.3391341587
 10
6.7022548643
 20
45.3670255006
 10
6.9347797375
 20
45.4038415101
 10
7.1634990745
 20
45.4494563168
 10
7.3875065108
 20
45.5036995951
 10
7.6058465174
 20
45.5663420153
 10
7.8175242576
 20
45.6370814441
 10
8.0219142657
 20
45.7156914809
 10
8.2186156188
 20
45.8020437005
 10
8.4071336782
 20
45.8960076439
 10
8.5863658771
 20
45.9971248347
 10
8.75508264
 20
46.1047120417
 10
8.9124003584
 20
46.2181228499
 10
9.0580708561
 20
46.3370897177
 10
9.1918904662
 20
46.46144621
 10
9.3134892272
 20
46.5909480672
 10
9.4221264466
 20
46.7249165714
 10
9.5171209602
 20
46.8625111225
  0
LWPOLYLINE
  5
565
100
AcDbEntity
  8
0
100
AcDbPolyline
 62
7
  6
CONTINUOUS
 90
22
 70
0
 10
4.2861160485
 20
44.823754531
 10
4.4764375021
 20
44.7696615894
 10
4.670319303
 20
44.7227960814
 10
4.867761451
 20
44.6831580069
 10
5.0694545616
 20
44.650662346
 10
5.2747080195
 20
44.6253941186
 10
5.4814499784
 20
44.6076083843
 10
5.6896955141
 20
44.5973809272
 10
5.8994295509
 20
44.5946359633
 10
6.1085350153
 20
44.5994012005
 10
6.3170055409
 20
44.6117527033
 10
6.5248474941
 20
44.6316144072
 10
6.7299629002
 20
44.6587858264
 10
6.9323241443
 20
44.6933409949
 10
7.1319588413
 20
44.7352058788
 10
7.3268518613
 20
44.7839578902
 10
7.5169551798
 20
44.8396667832
 10
7.7023168214
 20
44.9022628038
 10
7.8810657295
 20
44.9711141023
 10
8.0531349293
 20
45.0462840332
 10
8.2185913958
 20
45.127709242
 10
8.3009325521
 20
45.1732132919
  0
LWPOLYLINE
  5
566
100
AcDbEntity
  8
0
100
AcDbPolyline
 62
7
  6
CONTINUOUS
 90
39
 70
0
 10
4.0531826381
 20
44.938532779
 10
4.2582578224
 20
44.8799933114
 10
4.4670821786
 20
44.8288233198
 10
4.6796557065
 20
44.7850228044
 10
4.8966454047
 20
44.7485036847
 10
5.1173842748
 20
44.7193540411
 10
5.3398713209
 20
44.6978381149
 10
5.5641224384
 20
44.6840253153
 10
5.790121732
 20
44.677846233
 10
6.0158205204
 20
44.6793568814
 10
6.2412160713
 20
44.6886271791
 10
6.4663111169
 20
44.7055872075
 10
6.689065173
 20
44.730083224
 10
6.9094569541
 20
44.7621837494
 10
7.1275077457
 20
44.8018202629
 10
7.3412409194
 20
44.8486334601
 10
7.5506172176
 20
44.9026885946
 10
7.7556758979
 20
44.9639204126
 10
7.9545581056
 20
45.0317738484
 10
8.1472076811
 20
45.1063091088
 10
8.333680784
 20
45.1874659869
 10
8.5122870373
 20
45.2745087965
 10
8.682954912
 20
45.3674910552
 10
8.8457559373
 20
45.4663592453
 10
8.9992143233
 20
45.5702171278
 10
9.1432451225
 20
45.6791100711
 10
9.2779332825
 20
45.7929927068
 10
9.4020578565
 20
45.9108326898
 10
9.5155227954
 20
46.0326660022
 10
9.6184241483
 20
46.158456662
 10
9.7098291154
 20
46.287064378
 10
9.7896331663
 20
46.4185147643
 10
9.8579408314
 20
46.5527822068
 10
9.9141329024
 20
46.6886495726
 10
9.9580992188
 20
46.8261314089
 10
9.9899499411
 20
46.9652131684
 10
10.0093963429
 20
47.1046340764
 10
10.0163256382
 20
47.2443972166
 10
10.0162406534
 20
47.2759198222
  0
LINE
  5
567
100
AcDbEntity
  8
0
100
AcDbLine
 62
250
  6
CONTINUOUS
 10
27.7766797825
 20
39.52508392
 11
23.1451979555
 21
40.9473671195
  0
LINE
  5
568
100
AcDbEntity
  8
0
100
AcDbLine
 62
7
  6
CONTINUOUS
 10
28.0206138827
 20
39.6617031884
 11
23.3891320415
 21
41.0839863922
  0
LWPOLYLINE
  5
569
100
AcDbEntity
  8
0
100
AcDbPolyline
 62
7
  6
CONTINUOUS
 90
21
 70
0
 10
4.0531826381
 20
44.938532779
 10
3.8539094135
 20
45.0041647904
 10
3.6620287568
 20
45.0760474263
 10
3.4775406679
 20
45.1541806867
 10
3.2999308076
 20
45.2388392686
 10
3.129713515
 20
45.329748475
 10
2.9684318084
 20
45.4260842148
 10
2.8161669341
 20
45.5278958286
 10
2.6728376458
 20
45.6351339758
 10
2.539743222
 20
45.7468265437
 10
2.4169767227
 20
45.863014034
 10
2.304445088
 20
45.983655945
 10
2.2031684158
 20
46.1076586589
 10
2.1132490416
 20
46.2350527338
 10
2.0345846301
 20
46.3658076117
 10
1.9678882732
 20
46.4987380009
 10
1.9132687903
 20
46.6338636822
 10
1.870617362
 20
46.7711648748
 10
1.8403206232
 20
46.9093969448
 10
1.8224909086
 20
47.048568356
 10
1.8171008682
 20
47.1571480391
  0
LWPOLYLINE
  5
56A
100
AcDbEntity
  8
0
100
AcDbPolyline
 62
7
  6
CONTINUOUS
 90
5
 70
0
 10
23.3891242064
 20
41.0839885613
 10
23.3686873895
 20
41.0907393899
 10
23.3467371594
 20
41.0992216861
 10
23.3294517043
 20
41.1070846481
 10
23.3226091721
 20
41.1105912096
  0
LINE
  5
56B
100
AcDbEntity
  8
0
100
AcDbLine
 62
7
  6
CONTINUOUS
 10
4.2861160485
 20
44.823754531
 11
4.1014864533
 21
44.884805424
  0
LWPOLYLINE
  5
56C
100
AcDbEntity
  8
0
100
AcDbPolyline
 62
250
  6
CONTINUOUS
 90
22
 70
0
 10
23.1451979555
 20
40.9473671195
 10
23.0795343857
 20
40.9693682529
 10
23.017036694
 20
40.9942887238
 10
22.9577048801
 20
41.0221285323
 10
22.901121431
 20
41.0530637858
 10
22.8477038599
 20
41.0869183768
 10
22.7987047061
 20
41.1231639832
 10
22.7542297174
 20
41.1618868885
 10
22.714173146
 20
41.2030008091
 10
22.6794702884
 20
41.2457185721
 10
22.650277827
 20
41.2900756361
 10
22.6264390793
 20
41.3360365425
 10
22.6084192947
 20
41.3827077423
 10
22.5963780528
 20
41.4301196673
 10
22.590155774
 20
41.4782418857
 10
22.5897389696
 20
41.5260895529
 10
22.5952947911
 20
41.5736336913
 10
22.6066560869
 20
41.6209032786
 10
22.6233079134
 20
41.6670004034
 10
22.6450786227
 20
41.7116257619
 10
22.6721398628
 20
41.7550786579
 10
22.7044916335
 20
41.7973590913
  0
LWPOLYLINE
  5
56D
100
AcDbEntity
  8
0
100
AcDbPolyline
 62
7
  6
CONTINUOUS
 90
40
 70
0
 10
5.4462609309
 20
47.7601570399
 10
5.3753868919
 20
47.7842967511
 10
5.3087389024
 20
47.8114973115
 10
5.2463169624
 20
47.841758721
 10
5.1877725683
 20
47.8753159191
 10
5.1334542237
 20
47.9119339664
 10
5.0844074389
 20
47.9509080448
 10
5.0407343351
 20
47.9922837958
 10
5.0023327911
 20
48.036015578
 10
4.9699419534
 20
48.0812616494
 10
4.9436782619
 20
48.128051345
 10
4.9234252768
 20
48.1763553298
 10
4.9095728238
 20
48.225243857
 10
4.902244895
 20
48.2747282502
 10
4.9013174985
 20
48.3247971857
 10
4.9068084846
 20
48.3744869451
 10
4.9188421911
 20
48.4237901828
 10
4.9372942801
 20
48.4727142444
 10
4.9618095891
 20
48.5203174478
 10
4.9925055755
 20
48.5665742052
 10
5.0292647818
 20
48.6115101043
 10
5.071379673
 20
48.6542602266
 10
5.1189540002
 20
48.6947822289
 10
5.1718840123
 20
48.7331184544
 10
5.2291509213
 20
48.7685310139
 10
5.2908387423
 20
48.8009632697
 10
5.3568634603
 20
48.8304718594
 10
5.4259542426
 20
48.8564888068
 10
5.4981704854
 20
48.8789464713
 10
5.5734527927
 20
48.8979124934
 10
5.6503521431
 20
48.9130218183
 10
5.7288998623
 20
48.9241997336
 10
5.8090646247
 20
48.9315209518
 10
5.8893034325
 20
48.9348445552
 10
5.9696177201
 20
48.9340931015
 10
6.0500060531
 20
48.9293440331
 10
6.1289211305
 20
48.9206887592
 10
6.2058471851
 20
48.9081577496
 10
6.2812999841
 20
48.8917205345
 10
6.3552795274
 20
48.8713771139
  0
LWPOLYLINE
  5
56E
100
AcDbEntity
  8
0
100
AcDbPolyline
 62
250
  6
CONTINUOUS
 90
10
 70
0
 10
22.7044916386
 20
41.7973590727
 10
22.7924702553
 20
41.7649369632
 10
22.8792327848
 20
41.7233322781
 10
22.9634418277
 20
41.6731863315
 10
23.0437993456
 20
41.6152720969
 10
23.1190666691
 20
41.5504822921
 10
23.1880835921
 20
41.4798156184
 10
23.2497862547
 20
41.404361366
 10
23.3032235423
 20
41.3252826225
 10
23.3475717468
 20
41.2437983457
  0
LWPOLYLINE
  5
56F
100
AcDbEntity
  8
0
100
AcDbPolyline
 62
7
  6
CONTINUOUS
 90
5
 70
0
 10
4.1014864533
 20
44.884805424
 10
3.9241766945
 20
44.9519292479
 10
3.7541867722
 20
45.0251260025
 10
3.5909922153
 20
45.1046838092
 10
3.5794811732
 20
45.1110074711
  0
LWPOLYLINE
  5
570
100
AcDbEntity
  8
RACCORDO
100
AcDbPolyline
 62
250
  6
CONTINUOUS
 90
6
 70
0
 10
12.1153083008
 20
49.6952755434
 10
11.8431783961
 20
49.8808899785
 10
11.5602488896
 20
50.0552879417
 10
11.274862087
 20
50.214667504
 10
10.9918837143
 20
50.3583192613
 10
10.7106541129
 20
50.4884248264
  0
LWPOLYLINE
  5
571
100
AcDbEntity
  8
RACCORDO
100
AcDbPolyline
 62
7
  6
CONTINUOUS
 90
15
 70
0
 10
12.1060594659
 20
49.7697641793
 10
12.3927323961
 20
49.5626084839
 10
12.6614806778
 20
49.3459949625
 10
12.9116894893
 20
49.1204074199
 10
13.1426462528
 20
48.8864653536
 10
13.3533688267
 20
48.6452185844
 10
13.5433819746
 20
48.3973556542
 10
13.7123251149
 20
48.1434966999
 10
13.8596506685
 20
47.8846927576
 10
13.9850569728
 20
47.6218639185
 10
14.0884902093
 20
47.3555764015
 10
14.1698860081
 20
47.0864221972
 10
14.2291592212
 20
46.8151366665
 10
14.266263363
 20
46.5425827064
 10
14.2812421761
 20
46.2695737467
  0
LINE
  5
572
100
AcDbEntity
  8
RACCORDO
100
AcDbLine
 62
250
  6
CONTINUOUS
 10
12.3739811577
 20
49.4996204872
 11
12.1153083008
 21
49.6952755434
  0
LINE
  5
573
100
AcDbEntity
  8
RACCORDO
100
AcDbLine
 62
250
  6
CONTINUOUS
 10
42.1281224779
 20
35.2378217179
 11
42.1583554066
 21
34.9867875326
  0
LINE
  5
574
100
AcDbEntity
  8
0
100
AcDbLine
 62
7
  6
CONTINUOUS
 10
26.3990925871
 20
-43.936051394
 11
26.359827829
 21
-43.9844021116
  0
LINE
  5
575
100
AcDbEntity
  8
0
100
AcDbLine
 62
7
  6
CONTINUOUS
 10
26.3600672303
 20
-43.9841164673
 11
21.4444959227
 21
-49.8499712146
  0
LINE
  5
576
100
AcDbEntity
  8
COPY_PABLISH
100
AcDbLine
 62
7
  6
CONTINUOUS
 10
21.121144977
 20
-50.2358325668
 11
17.3241443444
 21
-54.7668733935
  0
LINE
  5
577
100
AcDbEntity
  8
0
100
AcDbLine
 62
7
  6
CONTINUOUS
 10
26.3579436697
 20
-43.982741945
 11
26.4030582692
 21
-43.931540403
  0
LINE
  5
578
100
AcDbEntity
  8
RACCORDO
100
AcDbLine
 62
7
  6
CONTINUOUS
 10
21.2516599911
 20
-50.0591146512
 11
21.4444959227
 21
-49.8499712146
  0
LWPOLYLINE
  5
579
100
AcDbEntity
  8
RACCORDO
100
AcDbPolyline
 62
250
  6
CONTINUOUS
 90
8
 70
0
 10
22.1201704602
 20
-47.7621853835
 10
22.0861618735
 20
-47.7974253115
 10
22.0453381523
 20
-47.8297044842
 10
21.9983823878
 20
-47.8584827844
 10
21.9460802764
 20
-47.8832786738
 10
21.8893069736
 20
-47.9036772507
 10
21.8290124503
 20
-47.9193371919
 10
21.789787671
 20
-47.9259942303
  0
LWPOLYLINE
  5
57A
100
AcDbEntity
  8
COPY_PABLISH
100
AcDbPolyline
 62
7
  6
CONTINUOUS
 90
3
 70
0
 10
6.61921174
 20
-54.7467322055
 10
6.6217458763
 20
-54.7452046656
 10
6.624317802
 20
-54.7436857141
  0
LINE
  5
57B
100
AcDbEntity
  8
COPY_PABLISH
100
AcDbLine
 62
250
  6
CONTINUOUS
 10
6.6177400031
 20
-54.7475354804
 11
6.6171251233
 21
-54.7478922149
  0
LINE
  5
57C
100
AcDbEntity
  8
COPY_PABLISH
100
AcDbLine
 62
7
  6
CONTINUOUS
 10
6.624317802
 20
-54.7436857141
 11
6.6295547308
 21
-54.7407224337
  0
LINE
  5
57D
100
AcDbEntity
  8
COPY_PABLISH
100
AcDbLine
 62
7
  6
CONTINUOUS
 10
6.6171251233
 20
-54.7478922149
 11
6.610338873
 21
-54.7516751833
  0
LINE
  5
57E
100
AcDbEntity
  8
COPY_PABLISH
100
AcDbLine
 62
7
  6
CONTINUOUS
 10
6.6295547308
 20
-54.7407224337
 11
6.6372863628
 21
-54.7363960686
  0
LINE
  5
57F
100
AcDbEntity
  8
COPY_PABLISH
100
AcDbLine
 62
7
  6
CONTINUOUS
 10
6.6372863628
 20
-54.7363960686
 11
6.6423961985
 21
-54.733576833
  0
LWPOLYLINE
  5
580
100
AcDbEntity
  8
COPY_PABLISH
100
AcDbPolyline
 62
250
  6
CONTINUOUS
 90
10
 70
0
 10
6.1284837047
 20
-52.3684821928
 10
6.2032374984
 20
-52.327553146
 10
6.2810122347
 20
-52.2924475923
 10
6.3609859663
 20
-52.2633315673
 10
6.4423370767
 20
-52.2403710392
 10
6.5242442803
 20
-52.223731909
 10
6.6058866221
 20
-52.2135800104
 10
6.6864434781
 20
-52.2100811096
 10
6.7650945559
 20
-52.2134009057
 10
6.8410198932
 20
-52.2237050304
  0
LINE
  5
581
100
AcDbEntity
  8
COPY_PABLISH
100
AcDbLine
 62
7
  6
CONTINUOUS
 10
6.6423961985
 20
-54.733576833
 11
6.6479226285
 21
-54.7305707238
  0
LINE
  5
582
100
AcDbEntity
  8
COPY_PABLISH
100
AcDbLine
 62
7
  6
CONTINUOUS
 10
6.6479226285
 20
-54.7305707238
 11
6.653800527
 21
-54.7274186838
  0
LINE
  5
583
100
AcDbEntity
  8
COPY_PABLISH
100
AcDbLine
 62
7
  6
CONTINUOUS
 10
6.653800527
 20
-54.7274186838
 11
6.6600150411
 21
-54.7241332661
  0
LINE
  5
584
100
AcDbEntity
  8
COPY_PABLISH
100
AcDbLine
 62
7
  6
CONTINUOUS
 10
6.6600150411
 20
-54.7241332661
 11
6.6665231204
 21
-54.7207414704
  0
LINE
  5
585
100
AcDbEntity
  8
COPY_PABLISH
100
AcDbLine
 62
7
  6
CONTINUOUS
 10
6.6665231204
 20
-54.7207414704
 11
6.6732703886
 21
-54.7172754718
  0
LINE
  5
586
100
AcDbEntity
  8
COPY_PABLISH
100
AcDbLine
 62
7
  6
CONTINUOUS
 10
6.6732703886
 20
-54.7172754718
 11
6.6802270167
 21
-54.7137544593
  0
LINE
  5
587
100
AcDbEntity
  8
COPY_PABLISH
100
AcDbLine
 62
7
  6
CONTINUOUS
 10
6.6802270167
 20
-54.7137544593
 11
6.6873550714
 21
-54.7102012567
  0
LINE
  5
588
100
AcDbEntity
  8
COPY_PABLISH
100
AcDbLine
 62
7
  6
CONTINUOUS
 10
6.6873550714
 20
-54.7102012567
 11
6.694680474
 21
-54.706606924
  0
LINE
  5
589
100
AcDbEntity
  8
COPY_PABLISH
100
AcDbLine
 62
7
  6
CONTINUOUS
 10
6.694680474
 20
-54.706606924
 11
6.70221739
 21
-54.7029683608
  0
LINE
  5
58A
100
AcDbEntity
  8
COPY_PABLISH
100
AcDbLine
 62
7
  6
CONTINUOUS
 10
6.70221739
 20
-54.7029683608
 11
6.7100126807
 21
-54.6992658332
  0
LINE
  5
58B
100
AcDbEntity
  8
COPY_PABLISH
100
AcDbLine
 62
7
  6
CONTINUOUS
 10
6.610338873
 20
-54.7516751833
 11
6.586781041
 21
-54.7627423326
  0
LINE
  5
58C
100
AcDbEntity
  8
COPY_PABLISH
100
AcDbLine
 62
7
  6
CONTINUOUS
 10
6.7100126807
 20
-54.6992658332
 11
6.7180438604
 21
-54.6955134439
  0
LINE
  5
58D
100
AcDbEntity
  8
COPY_PABLISH
100
AcDbLine
 62
7
  6
CONTINUOUS
 10
6.7180438604
 20
-54.6955134439
 11
6.7263030529
 21
-54.6917184741
  0
LWPOLYLINE
  5
58E
100
AcDbEntity
  8
COPY_PABLISH
100
AcDbPolyline
 62
250
  6
CONTINUOUS
 90
10
 70
0
 10
6.8162305063
 20
-54.2659940343
 10
6.8427215403
 20
-54.2538996602
 10
6.8698901991
 20
-54.2440608379
 10
6.8977122647
 20
-54.2364557986
 10
6.9262458314
 20
-54.2321295183
 10
6.955385577
 20
-54.2299769321
 10
6.9848759273
 20
-54.226827394
 10
7.0146279117
 20
-54.2216942047
 10
7.0447058772
 20
-54.2156899478
 10
7.0750911985
 20
-54.2088689913
  0
LINE
  5
58F
100
AcDbEntity
  8
COPY_PABLISH
100
AcDbLine
 62
7
  6
CONTINUOUS
 10
6.7263030529
 20
-54.6917184741
 11
6.7347956361
 21
-54.6878821524
  0
LINE
  5
590
100
AcDbEntity
  8
COPY_PABLISH
100
AcDbLine
 62
7
  6
CONTINUOUS
 10
6.7347956361
 20
-54.6878821524
 11
6.7435132752
 21
-54.6840118834
  0
LWPOLYLINE
  5
591
100
AcDbEntity
  8
RACCORDO
100
AcDbPolyline
 62
7
  6
CONTINUOUS
 90
16
 70
0
 10
-12.2593535082
 20
55.8881919018
 10
-12.6140504826
 20
55.9854021729
 10
-12.9669597757
 20
56.0587829689
 10
-13.3166878482
 20
56.1081377576
 10
-13.6625986164
 20
56.1333230022
 10
-14.0025356849
 20
56.1340631591
 10
-14.3329412588
 20
56.1104925671
 10
-14.6523461197
 20
56.0630848573
 10
-14.9597710442
 20
55.9923237672
 10
-15.2526000546
 20
55.8992889932
 10
-15.5288943051
 20
55.785397793
 10
-15.7885967945
 20
55.6515116525
 10
-16.0317907164
 20
55.4981607177
 10
-16.2576729213
 20
55.3262348059
 10
-16.4648875784
 20
55.1372272483
 10
-16.6525691025
 20
54.9325531843
  0
LWPOLYLINE
  5
592
100
AcDbEntity
  8
RACCORDO
100
AcDbPolyline
 62
250
  6
CONTINUOUS
 90
40
 70
0
 10
7.6719536248
 20
49.8648132144
 10
7.4560285038
 20
49.9260111175
 10
7.2342359706
 20
49.9788067442
 10
7.0074171419
 20
50.0229995936
 10
6.776441546
 20
50.0584202999
 10
6.5421762509
 20
50.0849364659
 10
6.3054810279
 20
50.1024495828
 10
6.0672598795
 20
50.1108899857
 10
5.8284089325
 20
50.1102223268
 10
5.5897845005
 20
50.1004420398
 10
5.3522732273
 20
50.0815747138
 10
5.1168003165
 20
50.0536835057
 10
4.8842754421
 20
50.0168675814
 10
4.6555561058
 20
49.9712527221
 10
4.431548671
 20
49.9170093426
 10
4.2132086656
 20
49.8543668464
 10
4.0015309256
 20
49.7836274051
 10
3.7971409172
 20
49.705017381
 10
3.6004395642
 20
49.6186651592
 10
3.4119215054
 20
49.5247011754
 10
3.2326893073
 20
49.4235839294
 10
3.0639725449
 20
49.3159966818
 10
2.9066548267
 20
49.2025858642
 10
2.7609843288
 20
49.0836190017
 10
2.6271647188
 20
48.9592625097
 10
2.505565958
 20
48.8297606376
 10
2.3969287389
 20
48.6957921135
 10
2.3019342255
 20
48.558197548
 10
2.2210159954
 20
48.4177468558
 10
2.1542686937
 20
48.2747701642
 10
2.1017865954
 20
48.1294733832
 10
2.0637729515
 20
47.9821777439
 10
2.0405164746
 20
47.8336671663
 10
2.0321597413
 20
47.6848442929
 10
2.038666308
 20
47.536492292
 10
2.059940303
 20
47.3889660882
 10
2.0959398454
 20
47.2425306895
 10
2.1466405334
 20
47.097570286
 10
2.2118522333
 20
46.9548312326
 10
2.2912146756
 20
46.8151082574
  0
LWPOLYLINE
  5
593
100
AcDbEntity
  8
RACCORDO
100
AcDbPolyline
 62
250
  6
CONTINUOUS
 90
64
 70
0
 10
9.622915006
 20
50.8921280127
 10
9.3536079187
 20
50.9709910941
 10
9.0669099404
 20
51.0468069308
 10
8.7626036569
 20
51.1185518937
 10
8.4409395588
 20
51.1850725826
 10
8.1015555482
 20
51.245321274
 10
7.7434443804
 20
51.2982585291
 10
7.3633719171
 20
51.3429006947
 10
6.9651792962
 20
51.3772870948
 10
6.5589095501
 20
51.3996023069
 10
6.1477294397
 20
51.409257257
 10
5.7304419012
 20
51.40586189
 10
5.3108864479
 20
51.3890507043
 10
4.890479797
 20
51.3586249508
 10
4.4701271531
 20
51.3143918736
 10
4.052915556
 20
51.2564957219
 10
3.6402101547
 20
51.185048258
 10
3.2329918393
 20
51.1001405133
 10
2.8336605475
 20
51.0022508535
 10
2.4439642665
 20
50.8918933597
 10
2.0642476792
 20
50.7692529746
 10
1.6947594037
 20
50.6344104024
 10
1.3360615279
 20
50.4874878105
 10
0.9897043044
 20
50.3290343611
 10
0.6573613104
 20
50.1598156619
 10
0.3403357882
 20
49.9805877368
 10
0.0389843406
 20
49.7916487586
 10
-0.2464911538
 20
49.5931252281
 10
-0.5156140173
 20
49.3852411628
 10
-0.767178848
 20
49.1688132026
 10
-0.9999686113
 20
48.9448883822
 10
-1.2131161717
 20
48.7144331996
 10
-1.4064311344
 20
48.4777975445
 10
-1.5797849123
 20
48.2351387592
 10
-1.7328344532
 20
47.9867597787
 10
-1.864836491
 20
47.7336652498
 10
-1.9751521798
 20
47.47707997
 10
-2.0634368584
 20
47.2180849703
 10
-2.1296837123
 20
46.9570479305
 10
-2.1738485593
 20
46.6941429038
 10
-2.1957553746
 20
46.429722865
 10
-2.1951971203
 20
46.1648807486
 10
-2.1721764748
 20
45.9008973514
 10
-2.126905274
 20
45.6388627516
 10
-2.0595608424
 20
45.3791252601
 10
-1.9701865585
 20
45.12185451
 10
-1.8587432931
 20
44.8673221997
 10
-1.7256095206
 20
44.6167023045
 10
-1.5716142318
 20
44.3714817833
 10
-1.3972297269
 20
44.1321915704
 10
-1.2031356246
 20
43.8995695843
 10
-0.9910290552
 20
43.6752442398
 10
-0.761723174
 20
43.4595441702
 10
-0.5163322452
 20
43.2530325578
 10
-0.2576593883
 20
43.0573774971
 10
0.0144705143
 20
42.8717632102
 10
0.2974000177
 20
42.6973654572
 10
0.582786819
 20
42.5379859812
 10
0.865765194
 20
42.3943340531
 10
1.1469947996
 20
42.2642281932
 10
1.4257992437
 20
42.1465186177
 10
1.7010610559
 20
42.0403941555
 10
1.9711061837
 20
41.94530152
 10
2.2347339071
 20
41.8605249417
  0
LINE
  5
594
100
AcDbEntity
  8
0
100
AcDbLine
 62
250
  6
CONTINUOUS
 10
-12.5947628962
 20
55.7003404078
 11
2.7154239969
 21
50.9987303374
  0
LINE
  5
595
100
AcDbEntity
  8
0
100
AcDbLine
 62
250
  6
CONTINUOUS
 10
17.8847696137
 20
46.3403712584
 11
24.7451320851
 21
44.2336204063
  0
LINE
  5
596
100
AcDbEntity
  8
0
100
AcDbLine
 62
250
  6
CONTINUOUS
 10
31.1162740916
 20
42.2771044195
 11
37.2827337024
 21
40.3834444134
  0
LINE
  5
597
100
AcDbEntity
  8
0
100
AcDbLine
 62
7
  6
CONTINUOUS
 10
25.7212965144
 20
44.218406851
 11
30.8871800907
 21
42.6320140516
  0
LINE
  5
598
100
AcDbEntity
  8
RACCORDO
100
AcDbLine
 62
7
  6
CONTINUOUS
 10
-12.2593535082
 20
55.8881919018
 11
3.2390267206
 21
51.1287894811
  0
LINE
  5
599
100
AcDbEntity
  8
RACCORDO
100
AcDbLine
 62
7
  6
CONTINUOUS
 10
17.4389201948
 20
46.7681397632
 11
25.6278722525
 21
44.2533919205
  0
LINE
  5
59A
100
AcDbEntity
  8
RACCORDO
100
AcDbLine
 62
7
  6
CONTINUOUS
 10
30.9043527045
 20
42.633035892
 11
37.618143094
 21
40.5712959063
  0
LINE
  5
59B
100
AcDbEntity
  8
RACCORDO
100
AcDbLine
 62
250
  6
CONTINUOUS
 10
9.8865427315
 20
50.8073512978
 11
9.622915006
 21
50.8921280127
  0
LWPOLYLINE
  5
59C
100
AcDbEntity
  8
RACCORDO
100
AcDbPolyline
 62
7
  6
CONTINUOUS
 90
3
 70
0
 10
9.6789834953
 20
50.9082456708
 10
10.0640317891
 20
50.7819365152
 10
10.4379417954
 20
50.6429151591
  0
LINE
  5
59D
100
AcDbEntity
  8
RACCORDO
100
AcDbLine
 62
250
  6
CONTINUOUS
 10
7.8658708742
 20
49.8008843426
 11
7.6719536248
 21
49.8648132144
  0
LWPOLYLINE
  5
59E
100
AcDbEntity
  8
RACCORDO
100
AcDbPolyline
 62
250
  6
CONTINUOUS
 90
23
 70
0
 10
37.2827337024
 20
40.3834444134
 10
37.5571349059
 20
40.2923852573
 10
37.8397839509
 20
40.1843478086
 10
38.1295873186
 20
40.0583924499
 10
38.426256727
 20
39.9131537408
 10
38.7272840671
 20
39.7483069806
 10
39.0280992958
 20
39.5650895749
 10
39.3270196672
 20
39.3634845521
 10
39.6222602881
 20
39.1436087142
 10
39.9093402786
 20
38.9079589201
 10
40.1865596704
 20
38.6573668553
 10
40.4522980319
 20
38.3927038399
 10
40.7028183748
 20
38.1173871203
 10
40.9369031491
 20
37.8327800263
 10
41.1534093469
 20
37.5402992976
 10
41.3496690893
 20
37.2439845372
 10
41.5252613495
 20
36.9453778258
 10
41.6798431248
 20
36.6460576437
 10
41.8120757061
 20
36.3502987714
 10
41.9224648365
 20
36.0595133703
 10
42.0116502384
 20
35.7749497117
 10
42.0797868039
 20
35.5004603806
 10
42.1281224779
 20
35.2378217179
  0
LWPOLYLINE
  5
59F
100
AcDbEntity
  8
RACCORDO
100
AcDbPolyline
 62
7
  6
CONTINUOUS
 90
19
 70
0
 10
7.7280221131
 20
49.8809308729
 10
7.9509604316
 20
49.806886527
 10
8.166318203
 20
49.7239926643
 10
8.373326262
 20
49.6324841621
 10
8.5713648015
 20
49.5325443874
 10
8.7595403667
 20
49.4245161891
 10
8.9367896163
 20
49.3089391024
 10
9.1026307296
 20
49.1860629745
 10
9.2563279945
 20
49.0563463482
 10
9.3967353296
 20
48.9207768305
 10
9.5234642568
 20
48.7798603895
 10
9.6362105559
 20
48.6340614928
 10
9.7343199663
 20
48.4844741201
 10
9.8175472188
 20
48.3319563898
 10
9.8859990968
 20
48.1768700354
 10
9.9396995552
 20
48.0196814296
 10
9.9786348638
 20
47.8610084237
 10
10.0028270741
 20
47.7015931005
 10
10.0123898765
 20
47.542131306
  0
LWPOLYLINE
  5
5A0
100
AcDbEntity
  8
0
100
AcDbPolyline
 62
7
  6
CONTINUOUS
 90
3
 70
0
 10
25.6277268746
 20
44.2534365576
 10
25.6770402681
 20
44.2366332994
 10
25.7212965144
 20
44.218406851
  0
LWPOLYLINE
  5
5A1
100
AcDbEntity
  8
RACCORDO
100
AcDbPolyline
 62
7
  6
CONTINUOUS
 90
23
 70
0
 10
11.5699099349
 20
50.1023212195
 10
11.6853348294
 20
50.0557801846
 10
12.0597042962
 20
49.8888969626
 10
12.4214616305
 20
49.7111633735
 10
12.7697966966
 20
49.5229401258
 10
13.1040445978
 20
49.3245433471
 10
13.4234481319
 20
49.1163728922
 10
13.7271467869
 20
48.8989565957
 10
14.0145744973
 20
48.6726745986
 10
14.2850990551
 20
48.4379924251
 10
14.5379004483
 20
48.1956245563
 10
14.7725187822
 20
47.9460485147
 10
14.9885130424
 20
47.6897665623
 10
15.185262865
 20
47.4275954167
 10
15.3624345153
 20
47.1601246419
 10
15.5197897904
 20
46.8878691754
 10
15.6570031197
 20
46.6115932055
 10
15.773863461
 20
46.3320260946
 10
15.8703180243
 20
46.0496508408
 10
15.9463307449
 20
45.7649022404
 10
16.001834845
 20
45.4783542691
 10
16.0367835788
 20
45.1907120222
 10
16.0511983371
 20
44.9026237609
  0
LWPOLYLINE
  5
5A2
100
AcDbEntity
  8
RACCORDO
100
AcDbPolyline
 62
7
  6
CONTINUOUS
 90
23
 70
0
 10
13.4302097266
 20
49.1736587106
 10
13.8775033454
 20
48.992214351
 10
14.4047373665
 20
48.755284637
 10
14.9145326469
 20
48.5022952601
 10
15.4055597688
 20
48.2337856643
 10
15.8770225505
 20
47.9500536449
 10
16.3277044286
 20
47.6516712548
 10
16.7558806878
 20
47.3396935132
 10
17.1608420329
 20
47.0145998618
 10
17.5417161499
 20
46.6770319212
 10
17.8969102321
 20
46.3284568804
 10
18.2258836148
 20
45.9695824079
 10
18.5281638898
 20
45.6010954555
 10
18.8026774341
 20
45.224617152
 10
19.0490573945
 20
44.8411756079
 10
19.2672597801
 20
44.4514082342
 10
19.4569839269
 20
44.0565043926
 10
19.6180496057
 20
43.6577469792
 10
19.7506497374
 20
43.2557267365
 10
19.8550184939
 20
42.8506789226
 10
19.9311784575
 20
42.4433464786
 10
19.979123066
 20
42.0349663409
 10
19.9989952146
 20
41.6265427566
  0
LWPOLYLINE
  5
5A3
100
AcDbEntity
  8
RACCORDO
100
AcDbPolyline
 62
7
  6
CONTINUOUS
 90
6
 70
0
 10
10.4379417954
 20
50.6429151591
 10
10.7997115621
 20
50.4915106805
 10
11.1484283097
 20
50.3280485686
 10
11.4830679002
 20
50.1529439667
 10
11.8025412934
 20
49.9667136363
 10
12.1060594659
 20
49.7697641793
  0
LWPOLYLINE
  5
5A4
100
AcDbEntity
  8
RACCORDO
100
AcDbPolyline
 62
250
  6
CONTINUOUS
 90
4
 70
0
 10
10.7106541129
 20
50.4884248264
 10
10.4318496717
 20
50.6061341972
 10
10.1565878601
 20
50.7122586159
 10
9.8865427315
 20
50.8073512978
  0
LWPOLYLINE
  5
5A5
100
AcDbEntity
  8
0
100
AcDbPolyline
 62
7
  6
CONTINUOUS
 90
9
 70
0
 10
30.9045826274
 20
42.6329652779
 10
30.9133302199
 20
42.6290786563
 10
30.9236339211
 20
42.6220349485
 10
30.9348018302
 20
42.6121889187
 10
30.9464735137
 20
42.5997351756
 10
30.9586825718
 20
42.5847517897
 10
30.9715192119
 20
42.5673277314
 10
30.9846883798
 20
42.5476119484
 10
30.9982062538
 20
42.5257074854
  0
LWPOLYLINE
  5
5A6
100
AcDbEntity
  8
RACCORDO
100
AcDbPolyline
 62
7
  6
CONTINUOUS
 90
22
 70
0
 10
13.0543278245
 20
49.3540533234
 10
13.1444296551
 20
49.3139213341
 10
13.5681503407
 20
49.1059566056
 10
13.9761305107
 20
48.8857713421
 10
14.3675810603
 20
48.653748125
 10
14.7416274558
 20
48.4103556133
 10
15.0973003274
 20
48.1561909316
 10
15.4339269698
 20
47.891708404
 10
15.750771178
 20
47.6174529211
 10
16.046916217
 20
47.334219721
 10
16.321813147
 20
47.0425685952
 10
16.5749357051
 20
46.7430890005
 10
16.8055831586
 20
46.4366890333
 10
17.0133532872
 20
46.1240460218
 10
17.1979427885
 20
45.8057694913
 10
17.358964322
 20
45.4827283226
 10
17.4961587014
 20
45.1557498774
 10
17.6094342975
 20
44.8254125325
 10
17.6987210109
 20
44.4922547301
 10
17.7639268398
 20
44.156952323
 10
17.8049878492
 20
43.8203099219
 10
17.8219153078
 20
43.4830775905
  0
LWPOLYLINE
  5
5A7
100
AcDbEntity
  8
0
100
AcDbPolyline
 62
7
  6
CONTINUOUS
 90
9
 70
0
 10
30.9982062538
 20
42.5257074854
 10
31.0121634894
 20
42.5016667809
 10
31.0263650181
 20
42.4755115294
 10
31.0408633047
 20
42.4472509519
 10
31.0556953049
 20
42.4169686889
 10
31.0706361865
 20
42.3847589263
 10
31.0856398745
 20
42.350683093
 10
31.1008398162
 20
42.3147792367
 10
31.1162794515
 20
42.2771027735
  0
LWPOLYLINE
  5
5A8
100
AcDbEntity
  8
COPY_PABLISH
100
AcDbPolyline
 62
250
  6
CONTINUOUS
 90
3
 70
0
 10
17.2857075081
 20
-54.7676943811
 10
17.3975284626
 20
-54.6752707513
 10
17.4802212685
 20
-54.5611093325
  0
LINE
  5
5A9
100
AcDbEntity
  8
COPY_PABLISH
100
AcDbLine
 62
7
  6
CONTINUOUS
 10
6.7435132752
 20
-54.6840118834
 11
6.752433201
 21
-54.6801216981
  0
LINE
  5
5AA
100
AcDbEntity
  8
COPY_PABLISH
100
AcDbLine
 62
7
  6
CONTINUOUS
 10
6.752433201
 20
-54.6801216981
 11
6.7615141138
 21
-54.676233818
  0
LINE
  5
5AB
100
AcDbEntity
  8
COPY_PABLISH
100
AcDbLine
 62
7
  6
CONTINUOUS
 10
6.7615141138
 20
-54.676233818
 11
6.7707049177
 21
-54.6723760073
  0
LWPOLYLINE
  5
5AC
100
AcDbEntity
  8
COPY_PABLISH
100
AcDbPolyline
 62
7
  6
CONTINUOUS
 90
12
 70
0
 10
6.7707049177
 20
-54.6723760073
 10
6.7800069508
 20
-54.6685553994
 10
6.7847273694
 20
-54.6666509548
 10
6.7894896004
 20
-54.6647544207
 10
6.7943409097
 20
-54.662848738
 10
6.7993732979
 20
-54.6609008678
 10
6.8044696312
 20
-54.6589594812
 10
6.8093634228
 20
-54.6571263713
 10
6.8141314385
 20
-54.6553714719
 10
6.8186708043
 20
-54.6537360679
 10
6.8224678494
 20
-54.6524058571
 10
6.8234058151
 20
-54.6520842361
  0
LINE
  5
5AD
100
AcDbEntity
  8
COPY_PABLISH
100
AcDbLine
 62
7
  6
CONTINUOUS
 10
6.8284955411
 20
-54.650230179
 11
6.8247888009
 21
-54.6512936131
  0
LWPOLYLINE
  5
5AE
100
AcDbEntity
  8
RACCORDO
100
AcDbPolyline
 62
250
  6
CONTINUOUS
 90
8
 70
0
 10
-12.2593535082
 20
55.8881919018
 10
-12.3013895797
 20
55.894695379
 10
-12.3456683405
 20
55.8896295659
 10
-12.3924821201
 20
55.8732818838
 10
-12.4413293412
 20
55.8458274868
 10
-12.4916866397
 20
55.8075605299
 10
-12.5430144721
 20
55.7588910168
 10
-12.5947628962
 20
55.7003404078
  0
ENDSEC
  0
SECTION
  2
OBJECTS
  0
DICTIONARY
  5
C
100
AcDbDictionary
280
0
281
1
  3
ACAD_GROUP
350
D
  3
ACAD_MLINESTYLE
350
17
  3
ACAD_LAYOUT
350
1A
  3
ACAD_PLOTSETTINGS
350
19
  3
ACAD_PLOTSTYLENAME
350
E
  0
DICTIONARY
  5
D
102
{ACAD_REACTORS
330
C
102
}
100
AcDbDictionary
280
0
281
1
  0
ACDBDICTIONARYWDFLT
  5
E
102
{ACAD_REACTORS
330
C
102
}
100
AcDbDictionary
281
1
  3
Normal
350
F
100
AcDbDictionaryWithDefault
340
F
  0
DICTIONARY
  5
17
102
{ACAD_REACTORS
330
C
102
}
100
AcDbDictionary
280
0
281
1
  3
Standard
350
18
  0
DICTIONARY
  5
19
102
{ACAD_REACTORS
330
C
102
}
100
AcDbDictionary
281
1
  0
DICTIONARY
  5
1A
102
{ACAD_REACTORS
330
C
102
}
100
AcDbDictionary
281
1
  3
Model
350
5AF
  3
Layout1
350
5B0
  0
ACDBPLACEHOLDER
  5
F
102
{ACAD_REACTORS
330
E
102
}
  0
MLINESTYLE
  5
18
102
{ACAD_REACTORS
330
17
102
}
100
AcDbMlineStyle
  2
STANDARD
 70
0
  3

 62
256
 51
90.0
 52
90.0
 71
2
 49
0.5
 62
256
  6
BYLAYER
 49
-0.5
 62
256
  6
BYLAYER
  0
LAYOUT
  5
5AF
102
{ACAD_REACTORS
330
1A
102
}
100
AcDbPlotSettings
  1

  2
none_device
  4
ISO_A4_(297.00_x_210.00_MM)
  6

 40
0.0
 41
0.0
 42
0.0
 43
0.0
 44
297.0
 45
210.0
 46
0.0
 47
0.0
 48
0.0
 49
0.0
140
0.0
141
0.0
142
1.0
143
1.0
 70
1024
 72
1
 73
0
 74
0
  7

 75
0
147
1.0
148
0.0
149
0.0
100
AcDbLayout
  1
Model
 70
0
 71
0
 10
0.0
 20
0.0
 11
297.0
 21
210.0
 12
0.0
 22
0.0
 32
0.0
 14
0.0
 24
0.0
 34
0.0
 15
0.0
 25
0.0
 35
0.0
146
0.0
 13
0.0
 23
0.0
 33
0.0
 16
1.0
 26
0.0
 36
0.0
 17
0.0
 27
1.0
 37
0.0
 76
0
330
21B
345
0
346
0
  0
LAYOUT
  5
5B0
102
{ACAD_REACTORS
330
1A
102
}
100
AcDbPlotSettings
  1

  2
none_device
  4
ISO_A4_(297.00_x_210.00_MM)
  6

 40
0.0
 41
0.0
 42
0.0
 43
0.0
 44
297.0
 45
210.0
 46
0.0
 47
0.0
 48
0.0
 49
0.0
140
0.0
141
0.0
142
1.0
143
1.0
 70
0
 72
1
 73
0
 74
0
  7

 75
0
147
1.0
148
0.0
149
0.0
100
AcDbLayout
  1
Layout1
 70
0
 71
1
 10
0.0
 20
0.0
 11
297.0
 21
210.0
 12
0.0
 22
0.0
 32
0.0
 14
0.0
 24
0.0
 34
0.0
 15
0.0
 25
0.0
 35
0.0
146
0.0
 13
0.0
 23
0.0
 33
0.0
 16
1.0
 26
0.0
 36
0.0
 17
0.0
 27
1.0
 37
0.0
 76
0
330
21C
345
0
346
0
  0
ENDSEC
  0
EOF
