  0
SECTION
  2
HEADER
  9
$ACADVER
  1
AC1024
  9
$DWGCODEPAGE
  3
ANSI_1252
  9
$EXTMAX
 10
297.0
 20
210.0
 30
0.0
  9
$EXTMIN
 10
0.0
 20
0.0
 30
0.0
  9
$LIMMIN
 10
0.0
 20
0.0
  9
$LIMMAX
 10
297.0
 20
210.0
  9
$VIEWCTR
 10
148.5
 20
105.0
  9
$VIEWSIZE
 40
210.0
  9
$CLAYER
  8
0
  9
$LTSCALE
 40
16.335
  9
$CELTYPE
  6
BYLAYER
  9
$DIMSCALE
 40
1.0
  9
$DIMASZ
 40
3.0
  9
$DIMEXO
 40
0.5
  9
$DIMDLI
 40
11.286
  9
$DIMEXE
 40
1.5
  9
$DIMCEN
 40
2.673
  9
$DIMLFAC
 40
1.0
  9
$DIMBLK
  1
_FILLED
  9
$DIMALT
 70
0
  9
$DIMALTF
 40
0.0393700787
  9
$DIMTXT
 40
3.0
  9
$DIMTOL
 70
1
  9
$DIMLIM
 70
0
  9
$DIMTFAC
 40
1.0
  9
$DIMTP
 40
0.01
  9
$DIMTM
 40
0.01
  9
$DIMGAP
 40
0.625
  9
$DIMDSEP
 70
44
  9
$AUNITS
 70
0
  9
$PDMODE
 70
3
  9
$PDSIZE
 40
3.0
  9
$HANDSEED
  5
58A
  9
$TILEMODE
 70
1
  9
$MEASUREMENT
 70
1
  9
$INSUNITS
 70
4
  0
ENDSEC
  0
SECTION
  2
CLASSES
  0
CLASS
  1
ACDBDICTIONARYWDFLT
  2
AcDbDictionaryWithDefault
  3
AutoCAD 2000
 90
0
 91
1
280
0
281
0
  0
CLASS
  1
ACDBPLACEHOLDER
  2
AcDbPlaceHolder
  3
AutoCAD 2000
 90
0
 91
1
280
0
281
0
  0
CLASS
  1
LAYOUT
  2
AcDbLayout
  3
AutoCAD 2000
 90
0
 91
0
280
0
281
0
  0
ENDSEC
  0
SECTION
  2
TABLES
  0
TABLE
  2
VPORT
  5
8
100
AcDbSymbolTable
 70
2
  0
VPORT
  5
1F4
100
AcDbSymbolTableRecord
100
AcDbViewportTableRecord
  2
*ACTIVE
 70
0
 10
0.0
 20
0.0
 11
1.0
 21
1.0
 12
148.5
 22
105.0
 13
0.0
 23
0.0
 14
1.0
 24
1.0
 15
0.0
 25
0.0
 16
0.0
 26
0.0
 36
1.0
 17
0.0
 27
0.0
 37
0.0
 40
210.0
 41
1.4142857143
 42
50.0
 43
0.0
 44
0.0
 50
0.0
 51
0.0
 71
0
 72
100
 73
1
 74
1
 75
0
 76
0
 77
0
 78
0
  0
ENDTAB
  0
TABLE
  2
LTYPE
  5
5
100
AcDbSymbolTable
 70
6
  0
LTYPE
  5
14
100
AcDbSymbolTableRecord
100
AcDbLinetypeTableRecord
  2
BYBLOCK
 70
0
  3

 72
65
 73
0
 40
0.0
  0
LTYPE
  5
15
100
AcDbSymbolTableRecord
100
AcDbLinetypeTableRecord
  2
BYLAYER
 70
0
  3

 72
65
 73
0
 40
0.0
  0
LTYPE
  5
16
100
AcDbSymbolTableRecord
100
AcDbLinetypeTableRecord
  2
CONTINUOUS
 70
64
  3
Solid line
 72
65
 73
0
 40
0.0
  0
LTYPE
  5
1F5
100
AcDbSymbolTableRecord
100
AcDbLinetypeTableRecord
  2
CENTER
 70
64
  3
____ _ ____ _ ____ _ ____ _ ____ _ ____ _ ____
 72
65
 73
4
 40
0.6
 49
0.375
 74
0
 49
-0.075
 74
0
 49
0.075
 74
0
 49
-0.075
 74
0
  0
LTYPE
  5
1F6
100
AcDbSymbolTableRecord
100
AcDbLinetypeTableRecord
  2
HIDDEN
 70
64
  3
- - - - - - - - - - - - - - - - - - - -
 72
65
 73
2
 40
0.2
 49
0.1
 74
0
 49
-0.1
 74
0
  0
LTYPE
  5
1F7
100
AcDbSymbolTableRecord
100
AcDbLinetypeTableRecord
  2
PHANTOM
 70
64
  3
_____ _ _ _____ _ _ _____ _ _ _____
 72
65
 73
6
 40
0.8
 49
0.45
 74
0
 49
-0.05
 74
0
 49
0.1
 74
0
 49
-0.05
 74
0
 49
0.1
 74
0
 49
-0.05
 74
0
  0
LTYPE
  5
1F8
100
AcDbSymbolTableRecord
100
AcDbLinetypeTableRecord
  2
DOT
 70
64
  3
. . . . . . . . . . . . . . . . . . . .
 72
65
 73
2
 40
0.2
 49
0.1
 74
0
 49
-0.1
 74
0
  0
LTYPE
  5
1F9
100
AcDbSymbolTableRecord
100
AcDbLinetypeTableRecord
  2
DASHED
 70
64
  3
- - - - - - - - - - - - - - - - - - - -
 72
65
 73
2
 40
0.2
 49
0.1
 74
0
 49
-0.1
 74
0
  0
ENDTAB
  0
TABLE
  2
LAYER
  5
2
100
AcDbSymbolTable
 70
36
  0
LAYER
  5
10
100
AcDbSymbolTableRecord
100
AcDbLayerTableRecord
  2
0
 70
0
 62
7
  6
CONTINUOUS
370
-3
390
F
  0
LAYER
  5
1FA
100
AcDbSymbolTableRecord
100
AcDbLayerTableRecord
  2
DEFAULT_1
 70
0
 62
7
  6
CENTER
370
-3
390
F
  0
LAYER
  5
1FB
100
AcDbSymbolTableRecord
100
AcDbLayerTableRecord
  2
DEFAULT_2
 70
0
 62
7
  6
HIDDEN
370
-3
390
F
  0
LAYER
  5
1FC
100
AcDbSymbolTableRecord
100
AcDbLayerTableRecord
  2
DEFAULT_3
 70
0
 62
7
  6
PHANTOM
370
-3
390
F
  0
LAYER
  5
1FD
100
AcDbSymbolTableRecord
100
AcDbLayerTableRecord
  2
ASSI
 70
0
 62
7
  6
CONTINUOUS
370
-3
390
F
  0
LAYER
  5
1FE
100
AcDbSymbolTableRecord
100
AcDbLayerTableRecord
  2
COLOR5
 70
0
 62
7
  6
CONTINUOUS
370
-3
390
F
  0
LAYER
  5
1FF
100
AcDbSymbolTableRecord
100
AcDbLayerTableRecord
  2
COORDINATE
 70
0
 62
7
  6
CONTINUOUS
370
-3
390
F
  0
LAYER
  5
200
100
AcDbSymbolTableRecord
100
AcDbLayerTableRecord
  2
COORD_ORIGINE
 70
0
 62
7
  6
CONTINUOUS
370
-3
390
F
  0
LAYER
  5
201
100
AcDbSymbolTableRecord
100
AcDbLayerTableRecord
  2
COPY_PABLISH
 70
0
 62
7
  6
CONTINUOUS
370
-3
390
F
  0
LAYER
  5
202
100
AcDbSymbolTableRecord
100
AcDbLayerTableRecord
  2
CURVE
 70
0
 62
7
  6
CONTINUOUS
370
-3
390
F
  0
LAYER
  5
203
100
AcDbSymbolTableRecord
100
AcDbLayerTableRecord
  2
DRAFT
 70
0
 62
7
  6
CONTINUOUS
370
-3
390
F
  0
LAYER
  5
204
100
AcDbSymbolTableRecord
100
AcDbLayerTableRecord
  2
IMPORT_GEOMET
 70
0
 62
7
  6
CONTINUOUS
370
-3
390
F
  0
LAYER
  5
205
100
AcDbSymbolTableRecord
100
AcDbLayerTableRecord
  2
IMPORT_IGES
 70
0
 62
7
  6
CONTINUOUS
370
-3
390
F
  0
LAYER
  5
206
100
AcDbSymbolTableRecord
100
AcDbLayerTableRecord
  2
INTF_1
 70
0
 62
7
  6
CONTINUOUS
370
-3
390
F
  0
LAYER
  5
207
100
AcDbSymbolTableRecord
100
AcDbLayerTableRecord
  2
INTF_2
 70
0
 62
7
  6
CONTINUOUS
370
-3
390
F
  0
LAYER
  5
208
100
AcDbSymbolTableRecord
100
AcDbLayerTableRecord
  2
INTF_7
 70
0
 62
7
  6
CONTINUOUS
370
-3
390
F
  0
LAYER
  5
209
100
AcDbSymbolTableRecord
100
AcDbLayerTableRecord
  2
NOTE
 70
0
 62
7
  6
CONTINUOUS
370
-3
390
F
  0
LAYER
  5
20A
100
AcDbSymbolTableRecord
100
AcDbLayerTableRecord
  2
PIANI
 70
0
 62
7
  6
CONTINUOUS
370
-3
390
F
  0
LAYER
  5
20B
100
AcDbSymbolTableRecord
100
AcDbLayerTableRecord
  2
PIANI_ORIGINE
 70
0
 62
7
  6
CONTINUOUS
370
-3
390
F
  0
LAYER
  5
20C
100
AcDbSymbolTableRecord
100
AcDbLayerTableRecord
  2
PIANI_RIF
 70
0
 62
7
  6
CONTINUOUS
370
-3
390
F
  0
LAYER
  5
20D
100
AcDbSymbolTableRecord
100
AcDbLayerTableRecord
  2
PUNTI
 70
0
 62
7
  6
CONTINUOUS
370
-3
390
F
  0
LAYER
  5
20E
100
AcDbSymbolTableRecord
100
AcDbLayerTableRecord
  2
RACCORDO
 70
0
 62
7
  6
CONTINUOUS
370
-3
390
F
  0
LAYER
  5
20F
100
AcDbSymbolTableRecord
100
AcDbLayerTableRecord
  2
RGB__255__255__255__
 70
0
 62
7
  6
CONTINUOUS
370
-3
390
F
  0
LAYER
  5
210
100
AcDbSymbolTableRecord
100
AcDbLayerTableRecord
  2
RGB____0____0____0__
 70
0
 62
7
  6
CONTINUOUS
370
-3
390
F
  0
LAYER
  5
211
100
AcDbSymbolTableRecord
100
AcDbLayerTableRecord
  2
SKEL_ASSIEMI
 70
0
 62
7
  6
CONTINUOUS
370
-3
390
F
  0
LAYER
  5
212
100
AcDbSymbolTableRecord
100
AcDbLayerTableRecord
  2
SMUSSO
 70
0
 62
7
  6
CONTINUOUS
370
-3
390
F
  0
LAYER
  5
213
100
AcDbSymbolTableRecord
100
AcDbLayerTableRecord
  2
SNAPLINE
 70
0
 62
7
  6
CONTINUOUS
370
-3
390
F
  0
LAYER
  5
214
100
AcDbSymbolTableRecord
100
AcDbLayerTableRecord
  2
SOLIDO
 70
0
 62
7
  6
CONTINUOUS
370
-3
390
F
  0
LAYER
  5
215
100
AcDbSymbolTableRecord
100
AcDbLayerTableRecord
  2
SUPERFICI
 70
0
 62
7
  6
CONTINUOUS
370
-3
390
F
  0
LAYER
  5
216
100
AcDbSymbolTableRecord
100
AcDbLayerTableRecord
  2
TRASH
 70
0
 62
7
  6
CONTINUOUS
370
-3
390
F
  0
LAYER
  5
217
100
AcDbSymbolTableRecord
100
AcDbLayerTableRecord
  2
XSEC_DATUMS
 70
0
 62
7
  6
CONTINUOUS
370
-3
390
F
  0
ENDTAB
  0
TABLE
  2
STYLE
  5
3
100
AcDbSymbolTable
 70
1
  0
STYLE
  5
11
100
AcDbSymbolTableRecord
100
AcDbTextStyleTableRecord
  2
STANDARD
 70
0
 40
0.0
 41
0.8
 50
0.0
 71
0
 42
0.2
  3
txt
  4

  0
STYLE
  5
218
100
AcDbSymbolTableRecord
100
AcDbTextStyleTableRecord
  2
TEXTSTYLE_1
 70
0
 40
0.0
 41
0.8
 50
0.0
 71
0
 42
0.2
  3
gdt
  4

  0
ENDTAB
  0
TABLE
  2
VIEW
  5
6
100
AcDbSymbolTable
 70
0
  0
ENDTAB
  0
TABLE
  2
UCS
  5
7
100
AcDbSymbolTable
 70
0
  0
ENDTAB
  0
TABLE
  2
APPID
  5
9
100
AcDbSymbolTable
 70
1
  0
APPID
  5
219
100
AcDbSymbolTableRecord
100
AcDbRegAppTableRecord
  2
ACAD
 70
0
  0
ENDTAB
  0
TABLE
  2
BLOCK_RECORD
  5
1
100
AcDbSymbolTable
 70
0
  0
BLOCK_RECORD
  5
21A
100
AcDbSymbolTableRecord
100
AcDbBlockTableRecord
  2
*Model_Space
  0
BLOCK_RECORD
  5
21B
100
AcDbSymbolTableRecord
100
AcDbBlockTableRecord
  2
*Paper_Space
  0
BLOCK_RECORD
  5
21C
100
AcDbSymbolTableRecord
100
AcDbBlockTableRecord
  2
_FILLED
  0
ENDTAB
  0
TABLE
  2
DIMSTYLE
  5
A
100
AcDbSymbolTable
 70
1
100
AcDbDimStyleTable
 71
0
  0
DIMSTYLE
105
21D
100
AcDbSymbolTableRecord
100
AcDbDimStyleTableRecord
  2
STANDARD
 70
0
  3

  4

 40
1.0
 41
3.0
 42
0.5
 43
0.38
 44
1.5
 45
0.0
 46
0.0
 47
0.01
 48
0.01
140
3.0
141
0.09
142
0.0
143
25.4
144
1.0
145
0.0
146
1.0
147
0.625
 71
1
 72
0
 73
0
 74
0
 75
0
 76
0
 77
1
 78
8
 79
2
170
0
171
1
172
0
173
0
174
0
175
0
176
0
177
0
178
0
270
2
179
2
271
2
272
2
273
2
274
2
275
0
280
0
281
0
282
0
283
1
284
8
285
0
286
0
287
3
288
0
340
11
278
44
341
21C
342
21C
343
21C
344
21C
  0
ENDTAB
  0
ENDSEC
  0
SECTION
  2
BLOCKS
  0
BLOCK
  5
20
100
AcDbEntity
  8
0
100
AcDbBlockBegin
  2
*Model_Space
 70
0
 10
0.0
 20
0.0
 30
0.0
  3
*Model_Space
  1

  0
ENDBLK
  5
21
100
AcDbEntity
  8
0
100
AcDbBlockEnd
  0
BLOCK
  5
1C
100
AcDbEntity
  8
0
100
AcDbBlockBegin
  2
*Paper_Space
 70
0
 10
0.0
 20
0.0
 30
0.0
  3
*Paper_Space
  1

  0
ENDBLK
  5
1D
100
AcDbEntity
  8
0
100
AcDbBlockEnd
  0
BLOCK
  5
21E
100
AcDbEntity
  8
0
100
AcDbBlockBegin
  2
_FILLED
 70
64
 10
0.0
 20
0.0
  3
_FILLED
  1

  0
SOLID
  5
21F
100
AcDbEntity
  8
0
  6
BYBLOCK
 62
0
100
AcDbTrace
 10
0.0
 20
0.0
 11
-1.0
 21
0.3166666667
 12
-1.0
 22
-0.3166666667
 13
-1.0
 23
-0.3166666667
  0
ENDBLK
  5
220
100
AcDbEntity
  8
0
  6
BYBLOCK
 62
0
100
AcDbBlockEnd
  0
ENDSEC
  0
SECTION
  2
ENTITIES
  0
LWPOLYLINE
  5
221
100
AcDbEntity
  8
COPY_PABLISH
100
AcDbPolyline
 62
7
  6
CONTINUOUS
 90
12
 70
0
 10
-54.9776609485
 20
38.1460353523
 10
-55.1160793113
 20
38.037632729
 10
-55.3151509426
 20
37.8552932549
 10
-55.5012660636
 20
37.6494075727
 10
-55.671292119
 20
37.4209692886
 10
-55.8218740871
 20
37.1726881921
 10
-55.951840474
 20
36.9051638696
 10
-56.060064201
 20
36.6193442798
 10
-56.1453976228
 20
36.3179671709
 10
-56.2080765012
 20
36.0011234021
 10
-56.2485581093
 20
35.6670644329
 10
-56.261252094
 20
35.4789015666
  0
LINE
  5
222
100
AcDbEntity
  8
0
100
AcDbLine
 62
7
  6
CONTINUOUS
 10
-41.4015455319
 20
48.1618774239
 11
-41.4215490114
 21
48.1470408362
  0
LINE
  5
223
100
AcDbEntity
  8
COPY_PABLISH
100
AcDbLine
 62
7
  6
CONTINUOUS
 10
-41.4256261024
 20
48.144476838
 11
-54.9815442691
 21
38.143211435
  0
LINE
  5
224
100
AcDbEntity
  8
RACCORDO
100
AcDbLine
 62
250
  6
CONTINUOUS
 10
-14.4867920237
 20
66.4252674316
 11
-14.4440641394
 21
66.4530408645
  0
LWPOLYLINE
  5
225
100
AcDbEntity
  8
RACCORDO
100
AcDbPolyline
 62
250
  6
CONTINUOUS
 90
15
 70
0
 10
-14.4440641394
 20
66.4530408645
 10
-14.2721672566
 20
66.5438526265
 10
-14.0855552566
 20
66.6112555863
 10
-13.8852073762
 20
66.6549397322
 10
-13.6721848836
 20
66.674714312
 10
-13.4501980833
 20
66.6706960233
 10
-13.2207195357
 20
66.6437371736
 10
-12.9852514027
 20
66.5947941508
 10
-12.748205562
 20
66.5258954488
 10
-12.5111450288
 20
66.4388981142
 10
-12.2755262474
 20
66.3356704947
 10
-12.0458452656
 20
66.2197753771
 10
-11.8244088162
 20
66.0942965273
 10
-11.6111685332
 20
65.9610254925
 10
-11.4069361279
 20
65.8221046027
  0
LWPOLYLINE
  5
226
100
AcDbEntity
  8
COPY_PABLISH
100
AcDbPolyline
 62
7
  6
CONTINUOUS
 90
7
 70
0
 10
-56.2732273799
 20
35.2215093486
 10
-56.2900671484
 20
34.7911610648
 10
-56.3037858041
 20
34.3497887128
 10
-56.3148283436
 20
33.8971337335
 10
-56.3235328589
 20
33.4329272359
 10
-56.3301688902
 20
32.9568526926
 10
-56.337462105
 20
32.1510405805
  0
LWPOLYLINE
  5
227
100
AcDbEntity
  8
DRAFT
100
AcDbPolyline
 62
7
  6
CONTINUOUS
 90
3
 70
0
 10
-56.3257689662
 20
31.9453026901
 10
-56.3242564906
 20
31.980000799
 10
-56.3151597705
 20
32.0190421906
  0
LINE
  5
228
100
AcDbEntity
  8
COPY_PABLISH
100
AcDbLine
 62
7
  6
CONTINUOUS
 10
-56.2732273799
 20
35.2215093486
 11
-56.2612680848
 21
35.4789023745
  0
LWPOLYLINE
  5
229
100
AcDbEntity
  8
COPY_PABLISH
100
AcDbPolyline
 62
250
  6
CONTINUOUS
 90
9
 70
0
 10
-56.0268605652
 20
34.7849922875
 10
-56.048982074
 20
34.4646998831
 10
-56.0673328974
 20
34.137944318
 10
-56.0826646629
 20
33.8056986583
 10
-56.0959274094
 20
33.469885438
 10
-56.1074133392
 20
33.1304684072
 10
-56.1167566886
 20
32.7855033738
 10
-56.1241525551
 20
32.4349518507
 10
-56.1358068216
 20
31.7233891466
  0
LWPOLYLINE
  5
22A
100
AcDbEntity
  8
DRAFT
100
AcDbPolyline
 62
7
  6
CONTINUOUS
 90
9
 70
0
 10
-55.645128196
 20
34.219227448
 10
-55.6277084976
 20
34.4088333696
 10
-55.5969725548
 20
34.5909559969
 10
-55.5517256335
 20
34.7634098345
 10
-55.490913637
 20
34.9244146677
 10
-55.4133298322
 20
35.0707857023
 10
-55.3185528268
 20
35.1989366152
 10
-55.2067313891
 20
35.3072432497
 10
-55.1444974959
 20
35.3535298061
  0
LWPOLYLINE
  5
22B
100
AcDbEntity
  8
COPY_PABLISH
100
AcDbPolyline
 62
250
  6
CONTINUOUS
 90
13
 70
0
 10
-53.1037163261
 20
35.5914898214
 10
-53.0537656393
 20
35.7674436924
 10
-52.9879346023
 20
35.9476619732
 10
-52.9069810727
 20
36.1300699595
 10
-52.8118370006
 20
36.3125677391
 10
-52.7035977006
 20
36.4930543663
 10
-52.583509242
 20
36.669452048
 10
-52.4529541033
 20
36.8397300641
 10
-52.3134352574
 20
37.0019281448
 10
-52.1665588691
 20
37.1541790381
 10
-52.0140158045
 20
37.2947300059
 10
-51.8575621653
 20
37.4219630013
 10
-51.6989990726
 20
37.5344132965
  0
LINE
  5
22C
100
AcDbEntity
  8
COPY_PABLISH
100
AcDbLine
 62
7
  6
CONTINUOUS
 10
-54.9773785432
 20
38.1462739879
 11
-54.9813396274
 21
38.1433624152
  0
LINE
  5
22D
100
AcDbEntity
  8
COPY_PABLISH
100
AcDbLine
 62
250
  6
CONTINUOUS
 10
-51.6989994272
 20
37.5344331889
 11
-37.9370152088
 21
47.5058418804
  0
LINE
  5
22E
100
AcDbEntity
  8
ASSI
100
AcDbLine
 62
7
  6
CONTINUOUS
 10
-40.269745974
 20
48.9621806789
 11
-41.4011168239
 21
48.1621806789
  0
LINE
  5
22F
100
AcDbEntity
  8
0
100
AcDbLine
 62
250
  6
CONTINUOUS
 10
-36.8056443589
 20
48.3058418804
 11
-37.9370152088
 21
47.5058418804
  0
LINE
  5
230
100
AcDbEntity
  8
DRAFT
100
AcDbLine
 62
7
  6
CONTINUOUS
 10
-40.2617216184
 20
48.9677151483
 11
-40.244816984
 21
48.9794329464
  0
LINE
  5
231
100
AcDbEntity
  8
RACCORDO
100
AcDbLine
 62
250
  6
CONTINUOUS
 10
-11.4069361279
 20
65.8221046027
 11
-36.8056443589
 21
48.3058418804
  0
LINE
  5
232
100
AcDbEntity
  8
DRAFT
100
AcDbLine
 62
7
  6
CONTINUOUS
 10
-14.4867921001
 20
66.4252673799
 11
-40.2448848733
 21
48.9793869679
  0
LINE
  5
233
100
AcDbEntity
  8
COPY_PABLISH
100
AcDbLine
 62
7
  6
CONTINUOUS
 10
-41.4260060256
 20
48.1441964464
 11
-41.2540452668
 21
48.2539388421
  0
LINE
  5
234
100
AcDbEntity
  8
0
100
AcDbLine
 62
7
  6
CONTINUOUS
 10
-41.2540452668
 20
48.2539388421
 11
-41.4015455319
 21
48.1618774239
  0
LINE
  5
235
100
AcDbEntity
  8
DRAFT
100
AcDbLine
 62
7
  6
CONTINUOUS
 10
-40.244816984
 20
48.9794329464
 11
-40.1403600174
 21
49.0440192634
  0
LWPOLYLINE
  5
236
100
AcDbEntity
  8
DRAFT
100
AcDbPolyline
 62
7
  6
CONTINUOUS
 90
33
 70
0
 10
-55.1444974959
 20
35.3535298061
 10
-55.0782393317
 20
35.3942503283
 10
-54.9346270283
 20
35.4584482402
 10
-54.7769856749
 20
35.4996829822
 10
-54.6067528571
 20
35.517587062
 10
-54.4268970935
 20
35.5117714093
 10
-54.2381521588
 20
35.4827117297
 10
-54.0429130656
 20
35.4309439386
 10
-53.8471997513
 20
35.3578257866
 10
-53.6532983327
 20
35.2651832209
 10
-53.4623865736
 20
35.1551352812
 10
-53.2790393226
 20
35.0313298058
 10
-53.1067581256
 20
34.8977786805
 10
-52.9443682766
 20
34.7557664011
 10
-52.789197868
 20
34.604688107
 10
-52.6423955853
 20
34.4466701329
 10
-52.504040445
 20
34.2824952819
 10
-52.3699869571
 20
34.1079467316
 10
-52.2406420429
 20
33.9234049357
 10
-52.1170619519
 20
33.7296322701
 10
-51.9967616066
 20
33.5217400152
 10
-51.8805482557
 20
33.2990940637
 10
-51.7703402288
 20
33.0631185563
 10
-51.6662315196
 20
32.8116026723
 10
-51.5695381595
 20
32.5423803516
 10
-51.4835055779
 20
32.2597050678
 10
-51.4109250777
 20
31.9714160695
 10
-51.3536660127
 20
31.6794576493
 10
-51.3131521914
 20
31.3859506497
 10
-51.2897753824
 20
31.0991056286
 10
-51.2835782676
 20
30.8228637418
 10
-51.2952601994
 20
30.5571546311
 10
-51.3250741215
 20
30.3038382229
  0
LINE
  5
237
100
AcDbEntity
  8
ASSI
100
AcDbLine
 62
7
  6
CONTINUOUS
 10
-40.0548071229
 20
49.0883113152
 11
-40.2692478441
 21
48.962532758
  0
LINE
  5
238
100
AcDbEntity
  8
DRAFT
100
AcDbLine
 62
7
  6
CONTINUOUS
 10
-40.1403600174
 20
49.0440192634
 11
-40.0118299919
 21
49.1088728396
  0
LWPOLYLINE
  5
239
100
AcDbEntity
  8
COPY_PABLISH
100
AcDbPolyline
 62
7
  6
CONTINUOUS
 90
13
 70
0
 10
-41.2540452668
 20
48.2539388421
 10
-41.0473497596
 20
48.3476978075
 10
-40.8221731704
 20
48.4136505035
 10
-40.5822584102
 20
48.4507006569
 10
-40.3273591344
 20
48.4583651694
 10
-40.0577216875
 20
48.4371271393
 10
-39.7778280139
 20
48.3873395874
 10
-39.4875066835
 20
48.3085253164
 10
-39.1869291264
 20
48.2011615237
 10
-38.8810915769
 20
48.0670328224
 10
-38.5716594466
 20
47.9067340836
 10
-38.2569673239
 20
47.7196704363
 10
-37.9370152088
 20
47.5058418804
  0
LWPOLYLINE
  5
23A
100
AcDbEntity
  8
DRAFT
100
AcDbPolyline
 62
7
  6
CONTINUOUS
 90
15
 70
0
 10
-40.0118299919
 20
49.1088728396
 10
-39.8761929775
 20
49.1621501232
 10
-39.7333875386
 20
49.2039768679
 10
-39.5842004024
 20
49.2341226465
 10
-39.4284623736
 20
49.2525292558
 10
-39.2663426474
 20
49.259254899
 10
-39.0991355378
 20
49.2542437592
 10
-38.9269361207
 20
49.2374215008
 10
-38.74964932
 20
49.2088624594
 10
-38.5682842215
 20
49.1687338248
 10
-38.3826942693
 20
49.1169317851
 10
-38.1930260194
 20
49.0535601522
 10
-38.0007282247
 20
48.979097551
 10
-37.8058754386
 20
48.8935008189
 10
-37.6083931079
 20
48.7968131184
  0
LINE
  5
23B
100
AcDbEntity
  8
0
100
AcDbLine
 62
7
  6
CONTINUOUS
 10
-0.4454188317
 20
-58.4936932965
 11
-0.3712121454
 21
-58.4942626799
  0
LWPOLYLINE
  5
23C
100
AcDbEntity
  8
0
100
AcDbPolyline
 62
7
  6
CONTINUOUS
 90
5
 70
0
 10
-0.3712121454
 20
-58.4942626799
 10
-0.3377979767
 20
-58.4947540455
 10
-0.3035733047
 20
-58.4956999468
 10
-0.2690301305
 20
-58.4969977382
 10
-0.2342468428
 20
-58.4985622325
  0
LWPOLYLINE
  5
23D
100
AcDbEntity
  8
0
100
AcDbPolyline
 62
250
  6
CONTINUOUS
 90
16
 70
0
 10
-0.3175206314
 20
-58.1942882757
 10
-0.3370866119
 20
-58.1936419525
 10
-0.3566608358
 20
-58.1919898302
 10
-0.3762280247
 20
-58.1892977659
 10
-0.3957688001
 20
-58.1852265484
 10
-0.4152767919
 20
-58.1800405252
 10
-0.4347626129
 20
-58.1746333589
 10
-0.4541704391
 20
-58.1690065837
 10
-0.4735453361
 20
-58.1631324838
 10
-0.4930554547
 20
-58.1579123288
 10
-0.5128261914
 20
-58.1533337365
 10
-0.5327249819
 20
-58.1494445861
 10
-0.5525377194
 20
-58.1472807777
 10
-0.5721938845
 20
-58.1472157447
 10
-0.5917629024
 20
-58.1489434329
 10
-0.6112435117
 20
-58.1524959462
  0
LWPOLYLINE
  5
23E
100
AcDbEntity
  8
0
100
AcDbPolyline
 62
7
  6
CONTINUOUS
 90
6
 70
0
 10
-0.2342468428
 20
-58.4985622325
 10
-0.0857653994
 20
-58.506265078
 10
-0.0444267637
 20
-58.5090823914
 10
-0.0021294872
 20
-58.5129751692
 10
0.0388905955
 20
-58.5182217379
 10
0.0751971495
 20
-58.5245601227
  0
LWPOLYLINE
  5
23F
100
AcDbEntity
  8
0
100
AcDbPolyline
 62
250
  6
CONTINUOUS
 90
10
 70
0
 10
13.6135946275
 20
-64.7365453056
 10
13.8646505599
 20
-64.8149977188
 10
14.1298935015
 20
-64.8679133495
 10
14.4051643672
 20
-64.8946351341
 10
14.6886973576
 20
-64.8943882769
 10
14.9727514958
 20
-64.8661533012
 10
15.2441371233
 20
-64.8113360569
 10
15.4959738139
 20
-64.7326005511
 10
15.7271246401
 20
-64.6312023457
 10
15.9342015304
 20
-64.5087419423
  0
LWPOLYLINE
  5
240
100
AcDbEntity
  8
0
100
AcDbPolyline
 62
250
  6
CONTINUOUS
 90
19
 70
0
 10
-56.032300266
 20
-15.4893542495
 10
-56.0069922242
 20
-15.7267757487
 10
-55.965781686
 20
-15.9938327427
 10
-55.9059655468
 20
-16.287400287
 10
-55.8188797944
 20
-16.6160425666
 10
-55.7045380425
 20
-16.9643732673
 10
-55.5764155774
 20
-17.2981884793
 10
-55.4398970597
 20
-17.6089010632
 10
-55.2889926661
 20
-17.9099380873
 10
-55.1244551875
 20
-18.2044151539
 10
-54.9472141269
 20
-18.4941887362
 10
-54.7545373252
 20
-18.7810269314
 10
-54.5411902377
 20
-19.0677540737
 10
-54.2973020753
 20
-19.3666827759
 10
-54.0283512458
 20
-19.669214596
 10
-53.7591304279
 20
-19.9456482463
 10
-53.5050365663
 20
-20.1852144665
 10
-53.263669599
 20
-20.3975997725
 10
-53.0401895143
 20
-20.5817148058
  0
LINE
  5
241
100
AcDbEntity
  8
COPY_PABLISH
100
AcDbLine
 62
7
  6
CONTINUOUS
 10
-56.33308296
 20
32.0929556026
 11
-56.3375064472
 21
32.1510559948
  0
LWPOLYLINE
  5
242
100
AcDbEntity
  8
0
100
AcDbPolyline
 62
250
  6
CONTINUOUS
 90
7
 70
0
 10
-56.032300266
 20
-15.4893542495
 10
-56.0730631431
 20
-14.9061880872
 10
-56.1043914927
 20
-14.3033749722
 10
-56.1269101751
 20
-13.6815871132
 10
-56.1415416057
 20
-13.0423973652
 10
-56.1495876814
 20
-12.3843615806
 10
-56.1525983526
 20
-11.703360917
  0
LINE
  5
243
100
AcDbEntity
  8
0
100
AcDbLine
 62
250
  6
CONTINUOUS
 10
-56.2587658174
 20
-14.8850846775
 11
-56.2596815369
 21
-14.8642233074
  0
LINE
  5
244
100
AcDbEntity
  8
DRAFT
100
AcDbLine
 62
7
  6
CONTINUOUS
 10
-56.3229464301
 20
31.900964644
 11
-56.3257689662
 21
31.9453026901
  0
LWPOLYLINE
  5
245
100
AcDbEntity
  8
0
100
AcDbPolyline
 62
7
  6
CONTINUOUS
 90
25
 70
0
 10
-56.2596815369
 20
-14.8642233074
 10
-56.2587658174
 20
-14.8850846775
 10
-56.2481775606
 20
-15.0557482934
 10
-56.2311867218
 20
-15.2382064748
 10
-56.207116934
 20
-15.4319814235
 10
-56.1749234667
 20
-15.6388172705
 10
-56.1327169721
 20
-15.8628693188
 10
-56.0787090012
 20
-16.1046642051
 10
-56.0107953315
 20
-16.3645218215
 10
-55.9250806572
 20
-16.6470209905
 10
-55.8160230114
 20
-16.9588051742
 10
-55.6823540779
 20
-17.2927633249
 10
-55.5282237606
 20
-17.6319301831
 10
-55.3550873178
 20
-17.9700295531
 10
-55.1612799925
 20
-18.3070462075
 10
-54.9506712029
 20
-18.635182506
 10
-54.7281341383
 20
-18.949765192
 10
-54.4948139582
 20
-19.2517366164
 10
-54.2507222837
 20
-19.5425568181
 10
-53.9963167076
 20
-19.8222334887
 10
-53.7362329068
 20
-20.0866468788
 10
-53.4768284754
 20
-20.3317523788
 10
-53.2222206055
 20
-20.5562976158
 10
-52.9737315033
 20
-20.7612306829
 10
-52.8495085702
 20
-20.8585579358
  0
LINE
  5
246
100
AcDbEntity
  8
0
100
AcDbLine
 62
7
  6
CONTINUOUS
 10
-56.341735935
 20
28.9345587783
 11
-56.3246089145
 21
22.5704681368
  0
LINE
  5
247
100
AcDbEntity
  8
0
100
AcDbLine
 62
250
  6
CONTINUOUS
 10
-56.1536312602
 20
28.3384805495
 11
-56.1396785718
 21
21.97922415
  0
LWPOLYLINE
  5
248
100
AcDbEntity
  8
0
100
AcDbPolyline
 62
7
  6
CONTINUOUS
 90
10
 70
0
 10
-56.3370092463
 20
-10.5263234607
 10
-56.3361344612
 20
-11.0822439703
 10
-56.3336379964
 20
-11.6284141631
 10
-56.3292115759
 20
-12.1609604082
 10
-56.3224734596
 20
-12.6827492377
 10
-56.3130945694
 20
-13.1933379332
 10
-56.3012026562
 20
-13.6822679195
 10
-56.2873171149
 20
-14.1431422575
 10
-56.2715966482
 20
-14.5795222268
 10
-56.2598427011
 20
-14.859805769
  0
LINE
  5
249
100
AcDbEntity
  8
0
100
AcDbLine
 62
7
  6
CONTINUOUS
 10
-56.3319634365
 20
29.7971394885
 11
-56.3303886534
 21
28.9165988119
  0
LINE
  5
24A
100
AcDbEntity
  8
0
100
AcDbLine
 62
7
  6
CONTINUOUS
 10
-56.3131751526
 20
10.2396716654
 11
-56.3242321048
 21
22.5697407811
  0
LWPOLYLINE
  5
24B
100
AcDbEntity
  8
0
100
AcDbPolyline
 62
7
  6
CONTINUOUS
 90
8
 70
0
 10
-56.3038361335
 20
10.2247688433
 10
-56.3027404684
 20
7.9817149961
 10
-56.3027177135
 20
5.6018710427
 10
-56.303846864
 20
3.2683620493
 10
-56.3062267936
 20
1.0431059458
 10
-56.3103048793
 20
-1.0811722748
 10
-56.3169124342
 20
-3.1715385239
 10
-56.3316809101
 20
-7.2084894479
  0
LINE
  5
24C
100
AcDbEntity
  8
0
100
AcDbLine
 62
250
  6
CONTINUOUS
 10
-56.1517375722
 20
-7.7103484637
 11
-56.1509565161
 21
-10.2749653424
  0
LINE
  5
24D
100
AcDbEntity
  8
0
100
AcDbLine
 62
250
  6
CONTINUOUS
 10
-56.1406228002
 20
21.978915026
 11
-56.132156566
 21
7.4610794506
  0
LWPOLYLINE
  5
24E
100
AcDbEntity
  8
0
100
AcDbPolyline
 62
250
  6
CONTINUOUS
 90
6
 70
0
 10
-56.132156566
 20
7.4610794506
 10
-56.1312458737
 20
2.8537219426
 10
-56.1323173307
 20
0.6027783645
 10
-56.1352411926
 20
-1.5657217713
 10
-56.1402358763
 20
-3.6896763772
 10
-56.1517375722
 20
-7.7103484637
  0
LINE
  5
24F
100
AcDbEntity
  8
DRAFT
100
AcDbLine
 62
250
  6
CONTINUOUS
 10
-56.1536312602
 20
28.3384805495
 11
-56.154155134
 21
29.0542724027
  0
LINE
  5
250
100
AcDbEntity
  8
0
100
AcDbLine
 62
7
  6
CONTINUOUS
 10
-56.3316853544
 20
30.5445875824
 11
-56.3319634365
 21
29.7971394885
  0
LINE
  5
251
100
AcDbEntity
  8
0
100
AcDbLine
 62
7
  6
CONTINUOUS
 10
-56.3353565289
 20
-8.9341245571
 11
-56.3370092463
 21
-10.5263234607
  0
LINE
  5
252
100
AcDbEntity
  8
0
100
AcDbLine
 62
250
  6
CONTINUOUS
 10
-56.1525983526
 20
-11.703360917
 11
-56.1509565161
 21
-10.2749653424
  0
LINE
  5
253
100
AcDbEntity
  8
0
100
AcDbLine
 62
7
  6
CONTINUOUS
 10
-56.3316809101
 20
-7.2084894479
 11
-56.3353565289
 21
-8.9341245571
  0
LINE
  5
254
100
AcDbEntity
  8
DRAFT
100
AcDbLine
 62
250
  6
CONTINUOUS
 10
-56.154155134
 20
29.0542724027
 11
-56.1527655854
 21
29.7932132364
  0
LINE
  5
255
100
AcDbEntity
  8
0
100
AcDbLine
 62
7
  6
CONTINUOUS
 10
-56.3290108036
 20
31.3519104232
 11
-56.3316853544
 21
30.5445875824
  0
LINE
  5
256
100
AcDbEntity
  8
DRAFT
100
AcDbLine
 62
250
  6
CONTINUOUS
 10
-56.1527655854
 20
29.7932132364
 11
-56.1495178587
 21
30.5174797103
  0
LINE
  5
257
100
AcDbEntity
  8
0
100
AcDbLine
 62
7
  6
CONTINUOUS
 10
-56.3256159709
 20
31.9452495463
 11
-56.3290108036
 21
31.3519104232
  0
LINE
  5
258
100
AcDbEntity
  8
0
100
AcDbLine
 62
7
  6
CONTINUOUS
 10
-56.3038361335
 20
10.2247688433
 11
-56.303740126
 21
10.2396536829
  0
LWPOLYLINE
  5
259
100
AcDbEntity
  8
DRAFT
100
AcDbPolyline
 62
250
  6
CONTINUOUS
 90
3
 70
0
 10
-56.1495178587
 20
30.5174797103
 10
-56.1440098852
 20
31.2043436231
 10
-56.1406022494
 20
31.5261439552
  0
LWPOLYLINE
  5
25A
100
AcDbEntity
  8
COPY_PABLISH
100
AcDbPolyline
 62
7
  6
CONTINUOUS
 90
16
 70
0
 10
-50.4736464084
 20
28.1963827308
 10
-50.4366861437
 20
28.4851976684
 10
-50.3963043068
 20
28.7802554855
 10
-50.3525008977
 20
29.081556182
 10
-50.3052976344
 20
29.3895633872
 10
-50.254672799
 20
29.7038134719
 10
-50.2005612375
 20
30.0229155486
 10
-50.1428560553
 20
30.3470928486
 10
-50.0816641471
 20
30.6761221405
 10
-50.017241044
 20
31.0079428426
 10
-49.9495260077
 20
31.342676775
 10
-49.8785797765
 20
31.6802021176
 10
-49.804840096
 20
32.018092828
 10
-49.7284528814
 20
32.3555402256
 10
-49.6492722175
 20
32.693352991
 10
-49.5672981044
 20
33.0315311243
  0
LWPOLYLINE
  5
25B
100
AcDbEntity
  8
ASSI
100
AcDbPolyline
 62
7
  6
CONTINUOUS
 90
5
 70
0
 10
-50.2273790565
 20
28.5937331964
 10
-50.2476287151
 20
28.4597783525
 10
-50.2666296418
 20
28.3276153822
 10
-50.2846220713
 20
28.1970338206
 10
-50.3016060036
 20
28.0680336677
  0
LINE
  5
25C
100
AcDbEntity
  8
ASSI
100
AcDbLine
 62
7
  6
CONTINUOUS
 10
-50.1189310515
 20
29.2802832038
 11
-50.2273790565
 21
28.5937331964
  0
LINE
  5
25D
100
AcDbEntity
  8
ASSI
100
AcDbLine
 62
7
  6
CONTINUOUS
 10
-50.0738854064
 20
29.5542791659
 11
-50.1189310515
 21
29.2802832038
  0
LINE
  5
25E
100
AcDbEntity
  8
ASSI
100
AcDbLine
 62
7
  6
CONTINUOUS
 10
-50.0277651809
 20
29.8239360645
 11
-50.0738854064
 21
29.5542791659
  0
LINE
  5
25F
100
AcDbEntity
  8
ASSI
100
AcDbLine
 62
7
  6
CONTINUOUS
 10
-49.9808230163
 20
30.0879203442
 11
-50.0277651809
 21
29.8239360645
  0
LWPOLYLINE
  5
260
100
AcDbEntity
  8
DRAFT
100
AcDbPolyline
 62
7
  6
CONTINUOUS
 90
7
 70
0
 10
-50.3016060036
 20
28.0680336677
 10
-50.333484382
 20
27.8903639036
 10
-50.3761485625
 20
27.7287548286
 10
-50.4284534209
 20
27.5833238652
 10
-50.4892465101
 20
27.454003511
 10
-50.5573199712
 20
27.3405473886
 10
-50.6314530533
 20
27.2425798561
  0
LINE
  5
261
100
AcDbEntity
  8
ASSI
100
AcDbLine
 62
7
  6
CONTINUOUS
 10
-49.9106326533
 20
30.4690279974
 11
-49.9808230163
 21
30.0879203442
  0
LWPOLYLINE
  5
262
100
AcDbEntity
  8
DRAFT
100
AcDbPolyline
 62
7
  6
CONTINUOUS
 90
10
 70
0
 10
-51.3250741215
 20
30.3038382229
 10
-51.3680576638
 20
30.0782669918
 10
-51.4234803739
 20
29.8758447465
 10
-51.4892530165
 20
29.696151713
 10
-51.5630063837
 20
29.5388948029
 10
-51.6430041562
 20
29.4026895379
 10
-51.7284051989
 20
29.2853604737
 10
-51.8173207754
 20
29.1861751353
 10
-51.9084441774
 20
29.1036736063
 10
-51.9489628825
 20
29.0722875976
  0
LINE
  5
263
100
AcDbEntity
  8
ASSI
100
AcDbLine
 62
7
  6
CONTINUOUS
 10
-49.8423878396
 20
30.8312135927
 11
-49.9106326533
 21
30.4690279974
  0
LINE
  5
264
100
AcDbEntity
  8
ASSI
100
AcDbLine
 62
7
  6
CONTINUOUS
 10
-49.7973704591
 20
31.0628835183
 11
-49.8423878396
 21
30.8312135927
  0
LINE
  5
265
100
AcDbEntity
  8
ASSI
100
AcDbLine
 62
7
  6
CONTINUOUS
 10
-49.7519472893
 20
31.2903498249
 11
-49.7973704591
 21
31.0628835183
  0
LINE
  5
266
100
AcDbEntity
  8
ASSI
100
AcDbLine
 62
7
  6
CONTINUOUS
 10
-49.7056763204
 20
31.5157089155
 11
-49.7519472893
 21
31.2903498249
  0
LINE
  5
267
100
AcDbEntity
  8
ASSI
100
AcDbLine
 62
7
  6
CONTINUOUS
 10
-49.657818715
 20
31.7427432119
 11
-49.7056763204
 21
31.5157089155
  0
LINE
  5
268
100
AcDbEntity
  8
ASSI
100
AcDbLine
 62
7
  6
CONTINUOUS
 10
-49.6081346532
 20
31.9716610571
 11
-49.657818715
 21
31.7427432119
  0
LINE
  5
269
100
AcDbEntity
  8
ASSI
100
AcDbLine
 62
7
  6
CONTINUOUS
 10
-49.556552865
 20
32.2024536055
 11
-49.6081346532
 21
31.9716610571
  0
LINE
  5
26A
100
AcDbEntity
  8
ASSI
100
AcDbLine
 62
7
  6
CONTINUOUS
 10
-49.5031781333
 20
32.4343061878
 11
-49.556552865
 21
32.2024536055
  0
LINE
  5
26B
100
AcDbEntity
  8
ASSI
100
AcDbLine
 62
7
  6
CONTINUOUS
 10
-49.4481134117
 20
32.6665423831
 11
-49.5031781333
 21
32.4343061878
  0
LINE
  5
26C
100
AcDbEntity
  8
ASSI
100
AcDbLine
 62
7
  6
CONTINUOUS
 10
-49.3913883142
 20
32.8989563614
 11
-49.4481134117
 21
32.6665423831
  0
LINE
  5
26D
100
AcDbEntity
  8
COPY_PABLISH
100
AcDbLine
 62
7
  6
CONTINUOUS
 10
-49.5286436888
 20
33.1711207763
 11
-49.5672981044
 21
33.0315311243
  0
LWPOLYLINE
  5
26E
100
AcDbEntity
  8
0
100
AcDbPolyline
 62
250
  6
CONTINUOUS
 90
10
 70
0
 10
-45.5503868175
 20
30.2019860847
 10
-45.4827463266
 20
30.4269574112
 10
-45.3900192754
 20
30.6623378183
 10
-45.2725873385
 20
30.9039346525
 10
-45.1296385909
 20
31.1500182941
 10
-44.9642815943
 20
31.3920651626
 10
-44.7857794086
 20
31.6162070573
 10
-44.6009554465
 20
31.8162115604
 10
-44.411895787
 20
31.9921272135
 10
-44.2224761103
 20
32.1419026264
  0
LWPOLYLINE
  5
26F
100
AcDbEntity
  8
COPY_PABLISH
100
AcDbPolyline
 62
7
  6
CONTINUOUS
 90
8
 70
0
 10
-50.7437123745
 20
27.4830719694
 10
-50.6853517762
 20
27.5634649269
 10
-50.6330751324
 20
27.6527178174
 10
-50.5872120159
 20
27.7502609426
 10
-50.5485025615
 20
27.8542384924
 10
-50.5169396593
 20
27.9634654911
 10
-50.4920700498
 20
28.077730634
 10
-50.4736464084
 20
28.1963827308
  0
LINE
  5
270
100
AcDbEntity
  8
DRAFT
100
AcDbLine
 62
7
  6
CONTINUOUS
 10
-50.6314530533
 20
27.2425798561
 11
-50.7102932469
 21
27.1597763816
  0
LWPOLYLINE
  5
271
100
AcDbEntity
  8
ASSI
100
AcDbPolyline
 62
7
  6
CONTINUOUS
 90
5
 70
0
 10
-40.0291299729
 20
35.0199089529
 10
-39.9347951054
 20
35.102404955
 10
-39.8528099711
 20
35.2084029791
 10
-39.7885597811
 20
35.3326048677
 10
-39.7503540311
 20
35.4508356309
  0
LINE
  5
272
100
AcDbEntity
  8
DRAFT
100
AcDbLine
 62
7
  6
CONTINUOUS
 10
-50.7102932469
 20
27.1597763816
 11
-50.7929687438
 21
27.0914058986
  0
LWPOLYLINE
  5
273
100
AcDbEntity
  8
COPY_PABLISH
100
AcDbPolyline
 62
7
  6
CONTINUOUS
 90
15
 70
0
 10
-48.2369902364
 20
34.9811599856
 10
-48.3552557812
 20
34.8907016875
 10
-48.4717067108
 20
34.7916451474
 10
-48.5863430253
 20
34.6839903654
 10
-48.7004102822
 20
34.566373986
 10
-48.8126629241
 20
34.4401593647
 10
-48.9193642785
 20
34.3094365672
 10
-49.019667925
 20
34.1749489529
 10
-49.1144202841
 20
34.0359531625
 10
-49.2024239448
 20
33.8943091842
 10
-49.2839845962
 20
33.7491933925
 10
-49.3587965492
 20
33.6014294129
 10
-49.4247453244
 20
33.4553481099
 10
-49.4811260955
 20
33.3123931048
 10
-49.5286436888
 20
33.1711207763
  0
LWPOLYLINE
  5
274
100
AcDbEntity
  8
ASSI
100
AcDbPolyline
 62
7
  6
CONTINUOUS
 90
22
 70
0
 10
-48.0445059001
 20
34.8675405718
 10
-48.130792542
 20
34.8024819306
 10
-48.2159342643
 20
34.7328133578
 10
-48.2999310668
 20
34.6585348533
 10
-48.3830525336
 20
34.5792053666
 10
-48.4650290807
 20
34.4952659482
 10
-48.5450519562
 20
34.4080397497
 10
-48.6230710989
 20
34.3175930217
 10
-48.6991365701
 20
34.2238595135
 10
-48.7725898018
 20
34.1279636246
 10
-48.8434083286
 20
34.0299596536
 10
-48.9116146159
 20
33.9297933019
 10
-48.9766174913
 20
33.8284260731
 10
-49.0384300699
 20
33.7259031417
 10
-49.0970392366
 20
33.6221793331
 10
-49.1518144741
 20
33.5180806274
 10
-49.2028161297
 20
33.4134494307
 10
-49.2499838559
 20
33.3084433369
 10
-49.2925060935
 20
33.2043611069
 10
-49.3301123224
 20
33.1016356612
 10
-49.3630730627
 20
32.9998340794
 10
-49.3913883142
 20
32.8989563614
  0
LWPOLYLINE
  5
275
100
AcDbEntity
  8
COPY_PABLISH
100
AcDbPolyline
 62
7
  6
CONTINUOUS
 90
4
 70
0
 10
-50.9094385363
 20
27.3263689835
 10
-50.8778066689
 20
27.3499726553
 10
-50.8081141192
 20
27.4116671598
 10
-50.7437123745
 20
27.4830719694
  0
LINE
  5
276
100
AcDbEntity
  8
0
100
AcDbLine
 62
7
  6
CONTINUOUS
 10
-48.237427076
 20
34.9808434683
 11
-43.5938694583
 21
38.3453881483
  0
LINE
  5
277
100
AcDbEntity
  8
0
100
AcDbLine
 62
7
  6
CONTINUOUS
 10
-44.1241995442
 20
37.7080452844
 11
-48.0443510137
 21
34.8676527965
  0
LINE
  5
278
100
AcDbEntity
  8
ASSI
100
AcDbLine
 62
7
  6
CONTINUOUS
 10
-42.7173273803
 20
37.5488026057
 11
-43.3081618842
 21
37.1310195214
  0
LINE
  5
279
100
AcDbEntity
  8
0
100
AcDbLine
 62
7
  6
CONTINUOUS
 10
-42.656740528
 20
36.670395063
 11
-42.0659060241
 21
37.0881781473
  0
LINE
  5
27A
100
AcDbEntity
  8
DRAFT
100
AcDbLine
 62
250
  6
CONTINUOUS
 10
-52.2250388095
 20
27.5280623002
 11
-52.3862359832
 21
27.4140786855
  0
LINE
  5
27B
100
AcDbEntity
  8
0
100
AcDbLine
 62
7
  6
CONTINUOUS
 10
-40.0659060241
 20
35.6739645849
 11
-40.656740528
 21
35.2561815006
  0
LINE
  5
27C
100
AcDbEntity
  8
ASSI
100
AcDbLine
 62
250
  6
CONTINUOUS
 10
-39.9823273803
 20
35.6148655591
 11
-40.5731618842
 21
35.1970824749
  0
LINE
  5
27D
100
AcDbEntity
  8
ASSI
100
AcDbLine
 62
250
  6
CONTINUOUS
 10
-50.2642050105
 20
28.3444801635
 11
-50.4736464084
 21
28.1963827308
  0
LINE
  5
27E
100
AcDbEntity
  8
COPY_PABLISH
100
AcDbLine
 62
7
  6
CONTINUOUS
 10
-50.909443666
 20
27.3263653563
 11
-50.3883476556
 21
27.6948358788
  0
LINE
  5
27F
100
AcDbEntity
  8
COPY_PABLISH
100
AcDbLine
 62
7
  6
CONTINUOUS
 10
-40.1758653278
 20
34.9161513856
 11
-40.0291734418
 21
35.0198782129
  0
LWPOLYLINE
  5
280
100
AcDbEntity
  8
DRAFT
100
AcDbPolyline
 62
7
  6
CONTINUOUS
 90
38
 70
0
 10
-51.9489628825
 20
29.0722875976
 10
-52.0025641447
 20
29.0352025972
 10
-52.0986936447
 20
28.9800501553
 10
-52.1959260596
 20
28.9374649394
 10
-52.2960661518
 20
28.9058566713
 10
-52.3987398263
 20
28.8849640266
 10
-52.5034150709
 20
28.874691675
 10
-52.6124388589
 20
28.8750184434
 10
-52.7260276328
 20
28.8863305052
 10
-52.8436851252
 20
28.909207673
 10
-52.967230898
 20
28.945213904
 10
-53.0968881169
 20
28.9953830219
 10
-53.2321919763
 20
29.0607367946
 10
-53.3741480276
 20
29.1438929221
 10
-53.5230720641
 20
29.2468509577
 10
-53.6777682481
 20
29.3704626058
 10
-53.8367924533
 20
29.5159116356
 10
-53.9994603756
 20
29.6851312844
 10
-54.1640971127
 20
29.8779767898
 10
-54.3274619787
 20
30.0914734181
 10
-54.4882943956
 20
30.3266477391
 10
-54.6442996792
 20
30.5814958634
 10
-54.7911261258
 20
30.8464288455
 10
-54.9273277224
 20
31.1190091234
 10
-55.0519646044
 20
31.3975946146
 10
-55.1629972126
 20
31.6722672225
 10
-55.2602383046
 20
31.9388680029
 10
-55.3443543114
 20
32.1975206126
 10
-55.4159239985
 20
32.4446718259
 10
-55.4754525345
 20
32.6765344564
 10
-55.5245142271
 20
32.8948120967
 10
-55.5649514037
 20
33.1044722877
 10
-55.5969792931
 20
33.3043506044
 10
-55.6213007917
 20
33.4944945495
 10
-55.6388136791
 20
33.681305154
 10
-55.6490480257
 20
33.8661343856
 10
-55.6512966167
 20
34.0457543313
 10
-55.645128196
 20
34.219227448
  0
LWPOLYLINE
  5
281
100
AcDbEntity
  8
0
100
AcDbPolyline
 62
250
  6
CONTINUOUS
 90
9
 70
0
 10
-0.6112563453
 20
-58.152447597
 10
-1.6892803721
 20
-58.4333873518
 10
-2.7671173616
 20
-58.5464224971
 10
-3.8497671403
 20
-58.5020185567
 10
-4.9433034426
 20
-58.3179840512
 10
-6.059014702
 20
-58.0195865037
 10
-7.2069421855
 20
-57.6274323501
 10
-8.3767210419
 20
-57.1341067585
 10
-9.5494603747
 20
-56.526876513
  0
LINE
  5
282
100
AcDbEntity
  8
0
100
AcDbLine
 62
7
  6
CONTINUOUS
 10
-0.7830868023
 20
-58.5401219619
 11
-0.7117715589
 21
-58.5246281128
  0
LWPOLYLINE
  5
283
100
AcDbEntity
  8
0
100
AcDbPolyline
 62
7
  6
CONTINUOUS
 90
9
 70
0
 10
-0.7121520211
 20
-58.524715911
 10
-0.6798280482
 20
-58.5182028079
 10
-0.6479987831
 20
-58.5124328221
 10
-0.6156427765
 20
-58.5072585926
 10
-0.5824994964
 20
-58.5027297497
 10
-0.5488607383
 20
-58.498988875
 10
-0.5149004201
 20
-58.4961502751
 10
-0.4803148841
 20
-58.4943199671
 10
-0.4454188317
 20
-58.4936932965
  0
LINE
  5
284
100
AcDbEntity
  8
0
100
AcDbLine
 62
7
  6
CONTINUOUS
 10
0.0751971495
 20
-58.5245601227
 11
0.0754162728
 21
-58.5246019855
  0
LWPOLYLINE
  5
285
100
AcDbEntity
  8
0
100
AcDbPolyline
 62
7
  6
CONTINUOUS
 90
8
 70
0
 10
0.0754162728
 20
-58.5246019855
 10
0.1550998822
 20
-58.5417493288
 10
0.2248700768
 20
-58.55905082
 10
0.2878025061
 20
-58.5772367835
 10
0.3405317009
 20
-58.5951278351
 10
0.3811168252
 20
-58.6112691521
 10
0.4112303778
 20
-58.6252153344
 10
0.4318315516
 20
-58.6362224195
  0
LWPOLYLINE
  5
286
100
AcDbEntity
  8
0
100
AcDbPolyline
 62
250
  6
CONTINUOUS
 90
10
 70
0
 10
13.6189084633
 20
-58.8633732443
 10
13.8631102391
 20
-58.9304418934
 10
14.1201894829
 20
-58.9738194839
 10
14.3863932266
 20
-58.9928571662
 10
14.6602602861
 20
-58.9867502266
 10
14.9344888559
 20
-58.9545942439
 10
15.1964994723
 20
-58.8978673711
 10
15.4397942952
 20
-58.8190978051
 10
15.6633581374
 20
-58.7193857518
 10
15.8639352773
 20
-58.6002064962
  0
LINE
  5
287
100
AcDbEntity
  8
0
100
AcDbLine
 62
250
  6
CONTINUOUS
 10
0.0355517609
 20
-58.2964792531
 11
-0.0765949696
 21
-58.2557506963
  0
LWPOLYLINE
  5
288
100
AcDbEntity
  8
0
100
AcDbPolyline
 62
250
  6
CONTINUOUS
 90
6
 70
0
 10
-0.0765949696
 20
-58.2557506963
 10
-0.1560702092
 20
-58.2243700084
 10
-0.1963445338
 20
-58.2113630809
 10
-0.2366009156
 20
-58.2025323917
 10
-0.2769999843
 20
-58.1968141925
 10
-0.3175206314
 20
-58.1942882757
  0
LWPOLYLINE
  5
289
100
AcDbEntity
  8
0
100
AcDbPolyline
 62
250
  6
CONTINUOUS
 90
17
 70
0
 10
11.0870427809
 20
-65.8592474314
 10
11.342539511
 20
-65.9805450359
 10
11.6038007323
 20
-66.0801874656
 10
11.8589856451
 20
-66.1499644675
 10
12.0923643217
 20
-66.1907736127
 10
12.3003621176
 20
-66.2044866196
 10
12.4901218761
 20
-66.190658329
 10
12.668418526
 20
-66.1546709298
 10
12.8396673552
 20
-66.099844781
 10
13.0010312822
 20
-66.0213834888
 10
13.1480647576
 20
-65.911896289
 10
13.287135767
 20
-65.7662278414
 10
13.4123467304
 20
-65.5852558098
 10
13.5052311079
 20
-65.3811286456
 10
13.5641242356
 20
-65.1681580222
 10
13.5993636136
 20
-64.9509326024
 10
13.6136961347
 20
-64.736402697
  0
LINE
  5
28A
100
AcDbEntity
  8
0
100
AcDbLine
 62
250
  6
CONTINUOUS
 10
-9.5494603747
 20
-56.526876513
 11
-10.7041438678
 21
-55.7914958482
  0
LINE
  5
28B
100
AcDbEntity
  8
0
100
AcDbLine
 62
7
  6
CONTINUOUS
 10
-38.8593346234
 20
-36.2068787114
 11
-38.8548708877
 21
-36.209951407
  0
LWPOLYLINE
  5
28C
100
AcDbEntity
  8
0
100
AcDbPolyline
 62
7
  6
CONTINUOUS
 90
74
 70
0
 10
-10.5749850799
 20
-56.2069341897
 10
-10.4069766337
 20
-56.3238787079
 10
-10.1042545859
 20
-56.5255538709
 10
-9.8126307931
 20
-56.7092318465
 10
-9.5332675694
 20
-56.8758729573
 10
-9.2664534066
 20
-57.0268124169
 10
-9.0105456078
 20
-57.1641394669
 10
-8.7644382012
 20
-57.2895071061
 10
-8.5271893272
 20
-57.4044179939
 10
-8.2973676148
 20
-57.5104915819
 10
-8.0758220981
 20
-57.6080543898
 10
-7.862463745
 20
-57.6977403908
 10
-7.6547928221
 20
-57.7810957285
 10
-7.4532959232
 20
-57.8583447439
 10
-7.2585155922
 20
-57.9297066877
 10
-7.0678364468
 20
-57.9965099834
 10
-6.882041499
 20
-58.058855432
 10
-6.7022058164
 20
-58.1167525696
 10
-6.5261878464
 20
-58.1711748433
 10
-6.3541815887
 20
-58.2222712042
 10
-6.1870804476
 20
-58.2699810846
 10
-6.0235687788
 20
-58.3148489998
 10
-5.8636324651
 20
-58.35700232
 10
-5.7078013502
 20
-58.3964046893
 10
-5.5554224223
 20
-58.4333014868
 10
-5.4063410492
 20
-58.4677955994
 10
-5.2606417252
 20
-58.4999314142
 10
-5.1180294256
 20
-58.5298373666
 10
-4.9784162018
 20
-58.5575966823
 10
-4.8418309536
 20
-58.5832682598
 10
-4.708162645
 20
-58.6069360177
 10
-4.5773116727
 20
-58.6286767686
 10
-4.4492278406
 20
-58.6485472924
 10
-4.323842196
 20
-58.6666031216
 10
-4.2009608379
 20
-58.682922293
 10
-4.0804505433
 20
-58.6975759741
 10
-3.9623610733
 20
-58.7106175852
 10
-3.8466291014
 20
-58.7221147772
 10
-3.7331064028
 20
-58.7321400844
 10
-3.6217444612
 20
-58.7407576636
 10
-3.5125604042
 20
-58.7480301115
 10
-3.4054260865
 20
-58.7540316928
 10
-3.3001057673
 20
-58.7588375192
 10
-3.1966791339
 20
-58.7624985994
 10
-3.0951946482
 20
-58.7650663765
 10
-2.9954211182
 20
-58.7665960639
 10
-2.8974272618
 20
-58.7671326911
 10
-2.8012623412
 20
-58.766723065
 10
-2.7066492176
 20
-58.7654091075
 10
-2.6136136118
 20
-58.7632319704
 10
-2.5222137254
 20
-58.7602375378
 10
-2.4322084532
 20
-58.7564591744
 10
-2.3436173282
 20
-58.7519349559
 10
-2.2564832713
 20
-58.7467043096
 10
-2.1705914211
 20
-58.7407884449
 10
-2.0859114271
 20
-58.7342153912
 10
-2.0025216504
 20
-58.7270212422
 10
-1.9203625228
 20
-58.7192300016
 10
-1.8394236939
 20
-58.7108682715
 10
-1.7597486422
 20
-58.7019681911
 10
-1.6813542953
 20
-58.6925600198
 10
-1.6042528189
 20
-58.6826781259
 10
-1.5284564524
 20
-58.6723597775
 10
-1.4539790617
 20
-58.6616417508
 10
-1.3808312128
 20
-58.6505595649
 10
-1.3090223651
 20
-58.6391487455
 10
-1.2385653721
 20
-58.6274470656
 10
-1.1694766458
 20
-58.6154923845
 10
-1.101762724
 20
-58.6033215847
 10
-1.0354193168
 20
-58.5909689028
 10
-0.9704745442
 20
-58.5784679332
 10
-0.9069129298
 20
-58.5658333519
 10
-0.8446890729
 20
-58.5530771129
 10
-0.7830868023
 20
-58.5401219619
  0
LINE
  5
28D
100
AcDbEntity
  8
0
100
AcDbLine
 62
7
  6
CONTINUOUS
 10
-10.5834888883
 20
-56.2286759457
 11
-38.8680837955
 21
-36.2284574873
  0
LINE
  5
28E
100
AcDbEntity
  8
0
100
AcDbLine
 62
7
  6
CONTINUOUS
 10
-10.704150889
 20
-55.791493336
 11
-38.9884207086
 21
-35.7915153923
  0
LWPOLYLINE
  5
28F
100
AcDbEntity
  8
0
100
AcDbPolyline
 62
250
  6
CONTINUOUS
 90
8
 70
0
 10
-38.9884107701
 20
-35.7914998151
 10
-40.0282959054
 20
-34.9748508058
 10
-40.8803772977
 20
-34.1498415265
 10
-41.556109863
 20
-33.3377787766
 10
-42.0668277668
 20
-32.5569879864
 10
-42.4253134978
 20
-31.8133252042
 10
-42.643630263
 20
-31.0703500609
 10
-42.6974297125
 20
-30.7369300247
  0
LWPOLYLINE
  5
290
100
AcDbEntity
  8
0
100
AcDbPolyline
 62
250
  6
CONTINUOUS
 90
4
 70
0
 10
-56.032300266
 20
-15.4893542495
 10
-56.1439617077
 20
-15.3094060922
 10
-56.2184717218
 20
-15.1192993303
 10
-56.255780359
 20
-14.922964087
  0
LWPOLYLINE
  5
291
100
AcDbEntity
  8
0
100
AcDbPolyline
 62
250
  6
CONTINUOUS
 90
5
 70
0
 10
-56.151413182
 20
-9.5285324842
 10
-56.2461728332
 20
-9.3559780454
 10
-56.3073878667
 20
-9.1743523326
 10
-56.334151605
 20
-8.9862934081
 10
-56.3353591864
 20
-8.9360285278
  0
LWPOLYLINE
  5
292
100
AcDbEntity
  8
0
100
AcDbPolyline
 62
250
  6
CONTINUOUS
 90
4
 70
0
 10
-45.2059913491
 20
-26.2533576747
 10
-45.1371522357
 20
-26.3828902958
 10
-45.0429846503
 20
-26.484244347
 10
-45.0153517813
 20
-26.5052055752
  0
LWPOLYLINE
  5
293
100
AcDbEntity
  8
0
100
AcDbPolyline
 62
250
  6
CONTINUOUS
 90
4
 70
0
 10
-49.0685129489
 20
-23.5134876631
 10
-48.9999549067
 20
-23.6447393037
 10
-48.9054748392
 20
-23.7478557651
 10
-48.8777337254
 20
-23.7692061437
  0
LWPOLYLINE
  5
294
100
AcDbEntity
  8
0
100
AcDbPolyline
 62
250
  6
CONTINUOUS
 90
4
 70
0
 10
-53.0401110364
 20
-20.5816438197
 10
-52.9740274067
 20
-20.7217544111
 10
-52.8811206952
 20
-20.8323381081
 10
-52.8495085702
 20
-20.8585579358
  0
LWPOLYLINE
  5
295
100
AcDbEntity
  8
0
100
AcDbPolyline
 62
250
  6
CONTINUOUS
 90
3
 70
0
 10
-56.3137709589
 20
28.7015540148
 10
-56.3406630998
 20
28.890854554
 10
-56.3303886534
 20
28.9165988119
  0
LWPOLYLINE
  5
296
100
AcDbEntity
  8
RACCORDO
100
AcDbPolyline
 62
250
  6
CONTINUOUS
 90
7
 70
0
 10
-47.4466114252
 20
-16.3782457275
 10
-47.4427378015
 20
-16.4494194334
 10
-47.4311594108
 20
-16.5143352406
 10
-47.4120031084
 20
-16.5722819183
 10
-47.3854787746
 20
-16.6226245908
 10
-47.3518770156
 20
-16.6648116934
 10
-47.3168549132
 20
-16.6947421161
  0
LWPOLYLINE
  5
297
100
AcDbEntity
  8
RACCORDO
100
AcDbPolyline
 62
250
  6
CONTINUOUS
 90
19
 70
0
 10
-48.0132870331
 20
-15.4108699546
 10
-48.0110358437
 20
-15.4622737175
 10
-48.0046346847
 20
-15.5155562724
 10
-47.9940835562
 20
-15.5707176194
 10
-47.9792440886
 20
-15.6282134358
 10
-47.9602546514
 20
-15.6875880441
 10
-47.9375303535
 20
-15.7474744123
 10
-47.9109798123
 20
-15.8078846828
 10
-47.8806944105
 20
-15.8688067131
 10
-47.847363405
 20
-15.9288370436
 10
-47.8109186093
 20
-15.9879461855
 10
-47.7714282099
 20
-16.0461636276
 10
-47.7297860237
 20
-16.1021743769
 10
-47.6859167148
 20
-16.1559483475
 10
-47.6398956189
 20
-16.2075156254
 10
-47.5928425597
 20
-16.2556514759
 10
-47.5451308116
 20
-16.2999476539
 10
-47.4963871001
 20
-16.3408124045
 10
-47.4466114252
 20
-16.3782457275
  0
LINE
  5
298
100
AcDbEntity
  8
0
100
AcDbLine
 62
250
  6
CONTINUOUS
 10
-50.2053107905
 20
-12.0618160477
 11
-50.2053107905
 21
3.6359054617
  0
LINE
  5
299
100
AcDbEntity
  8
0
100
AcDbLine
 62
7
  6
CONTINUOUS
 10
-50.2053107905
 20
3.6359054617
 11
-50.2053107905
 21
19.3337339995
  0
LINE
  5
29A
100
AcDbEntity
  8
0
100
AcDbLine
 62
250
  6
CONTINUOUS
 10
-49.3567827241
 20
-13.2618647335
 11
-49.3567827285
 21
18.1336730912
  0
LINE
  5
29B
100
AcDbEntity
  8
RACCORDO
100
AcDbLine
 62
7
  6
CONTINUOUS
 10
-48.3061800595
 20
16.4826880028
 11
-48.3061800595
 21
-14.9108700263
  0
LINE
  5
29C
100
AcDbEntity
  8
RACCORDO
100
AcDbLine
 62
250
  6
CONTINUOUS
 10
-48.0132870315
 20
15.9826881377
 11
-48.0132870331
 21
-15.4108699546
  0
LINE
  5
29D
100
AcDbEntity
  8
0
100
AcDbLine
 62
7
  6
CONTINUOUS
 10
-47.6597327973
 20
17.6375455063
 11
-47.6597328014
 21
17.7336737221
  0
LWPOLYLINE
  5
29E
100
AcDbEntity
  8
0
100
AcDbPolyline
 62
250
  6
CONTINUOUS
 90
10
 70
0
 10
-46.1746345584
 20
20.5140656915
 10
-46.1801105729
 20
20.358426927
 10
-46.1964241255
 20
20.1959387774
 10
-46.2234820276
 20
20.0274399626
 10
-46.2611448204
 20
19.8537644248
 10
-46.3092057417
 20
19.6758381394
 10
-46.3673717049
 20
19.4946820218
 10
-46.4353043756
 20
19.3112653474
 10
-46.5126423077
 20
19.1264933777
 10
-46.5989671158
 20
18.9413091029
  0
LWPOLYLINE
  5
29F
100
AcDbEntity
  8
RACCORDO
100
AcDbPolyline
 62
7
  6
CONTINUOUS
 90
11
 70
0
 10
-48.3061804411
 20
16.4826882727
 10
-48.2992914911
 20
16.6277177811
 10
-48.2789947409
 20
16.7668681223
 10
-48.2459957147
 20
16.8991252594
 10
-48.2015318629
 20
17.0227865474
 10
-48.1464055204
 20
17.1381089896
 10
-48.0802445085
 20
17.2466249522
 10
-48.0035888858
 20
17.3473511756
 10
-47.9173710546
 20
17.4390880729
 10
-47.8210293895
 20
17.5221330054
 10
-47.7792680228
 20
17.5530211835
  0
LWPOLYLINE
  5
2A0
100
AcDbEntity
  8
RACCORDO
100
AcDbPolyline
 62
250
  6
CONTINUOUS
 90
16
 70
0
 10
-47.446608415
 20
16.1486644617
 10
-47.4427349568
 20
16.2253144357
 10
-47.4311570364
 20
16.306602804
 10
-47.4120014157
 20
16.3916390351
 10
-47.3854778779
 20
16.479491525
 10
-47.3518769356
 20
16.5691977885
 10
-47.3115666535
 20
16.6597750029
 10
-47.2649886017
 20
16.7502308103
 10
-47.2126530389
 20
16.8395741453
 10
-47.1551333395
 20
16.9268260811
 10
-47.0930596576
 20
17.0110306439
 10
-47.0271120637
 20
17.0912652174
 10
-46.9580131329
 20
17.1666506199
 10
-46.8865199478
 20
17.2363608405
 10
-46.8134157948
 20
17.2996320787
 10
-46.7395016373
 20
17.3557710546
  0
LWPOLYLINE
  5
2A1
100
AcDbEntity
  8
0
100
AcDbPolyline
 62
250
  6
CONTINUOUS
 90
5
 70
0
 10
-50.2053141164
 20
19.3337338454
 10
-50.1682825567
 20
19.8511729251
 10
-50.060320698
 20
20.3015179152
 10
-49.8861665593
 20
20.6793725215
 10
-49.652858376
 20
20.979942271
  0
LWPOLYLINE
  5
2A2
100
AcDbEntity
  8
0
100
AcDbPolyline
 62
250
  6
CONTINUOUS
 90
9
 70
0
 10
-49.3567859054
 20
18.1336727703
 10
-49.3148854271
 20
18.582628208
 10
-49.1905044401
 20
18.9587941761
 10
-48.9873878262
 20
19.2507246013
 10
-48.7116378114
 20
19.4495373046
 10
-48.3716170849
 20
19.5491164986
 10
-47.9777616486
 20
19.54640865
 10
-47.5421025624
 20
19.4415622971
 10
-47.0778375268
 20
19.237811914
  0
LWPOLYLINE
  5
2A3
100
AcDbEntity
  8
0
100
AcDbPolyline
 62
250
  6
CONTINUOUS
 90
8
 70
0
 10
-48.7756504306
 20
17.5883546898
 10
-48.7436675593
 20
17.9113926205
 10
-48.6480548029
 20
18.1819665213
 10
-48.4909756033
 20
18.3933870615
 10
-48.2743263038
 20
18.541677272
 10
-48.0067690623
 20
18.6207508909
 10
-47.7053111198
 20
18.6254420705
 10
-47.3820225934
 20
18.5552835169
  0
LWPOLYLINE
  5
2A4
100
AcDbEntity
  8
0
100
AcDbPolyline
 62
250
  6
CONTINUOUS
 90
7
 70
0
 10
-46.5989766885
 20
18.9413158819
 10
-46.6418928362
 20
18.8467414042
 10
-46.677928354
 20
18.7518721864
 10
-46.7063665961
 20
18.6579205302
 10
-46.7266798833
 20
18.5654546313
 10
-46.7380360888
 20
18.476573211
 10
-46.7400292509
 20
18.3944825335
  0
LWPOLYLINE
  5
2A5
100
AcDbEntity
  8
0
100
AcDbPolyline
 62
250
  6
CONTINUOUS
 90
9
 70
0
 10
-49.652858376
 20
20.979942271
 10
-49.3659859674
 20
21.2030468625
 10
-49.0269648441
 20
21.3493400434
 10
-48.6411147491
 20
21.4160278841
 10
-48.2149688556
 20
21.4022306562
 10
-47.7489722551
 20
21.3067189069
 10
-47.2472832747
 20
21.1267652101
 10
-46.7196181406
 20
20.862117596
 10
-46.1747411289
 20
20.5141385269
  0
LINE
  5
2A6
100
AcDbEntity
  8
DRAFT
100
AcDbLine
 62
7
  6
CONTINUOUS
 10
-50.7929687438
 20
27.0914058986
 11
-50.8027254485
 21
27.0844030701
  0
LINE
  5
2A7
100
AcDbEntity
  8
COPY_PABLISH
100
AcDbLine
 62
7
  6
CONTINUOUS
 10
-50.9522546801
 20
27.2982086207
 11
-50.9094385363
 21
27.3263689835
  0
LINE
  5
2A8
100
AcDbEntity
  8
DRAFT
100
AcDbLine
 62
7
  6
CONTINUOUS
 10
-50.8027254485
 20
27.0844030701
 11
-50.8790556086
 21
27.0363619721
  0
LWPOLYLINE
  5
2A9
100
AcDbEntity
  8
DRAFT
100
AcDbPolyline
 62
7
  6
CONTINUOUS
 90
16
 70
0
 10
-50.8790556086
 20
27.0363619721
 10
-50.9673647791
 20
26.993992096
 10
-51.0571155203
 20
26.9634105266
 10
-51.1487139038
 20
26.9433099375
 10
-51.2413197095
 20
26.9329825726
 10
-51.3343751665
 20
26.9318287271
 10
-51.4291056569
 20
26.9393116158
 10
-51.5249900964
 20
26.9551286173
 10
-51.6217338753
 20
26.9790385386
 10
-51.7213004172
 20
27.0114989813
 10
-51.8235964135
 20
27.0526630939
 10
-51.9282121595
 20
27.1027397133
 10
-52.0368839088
 20
27.1632029792
 10
-52.1500325711
 20
27.2351144047
 10
-52.2666321642
 20
27.3185897789
 10
-52.3862359832
 20
27.4140786855
  0
LWPOLYLINE
  5
2AA
100
AcDbEntity
  8
0
100
AcDbPolyline
 62
250
  6
CONTINUOUS
 90
19
 70
0
 10
3.4640802505
 20
-50.6118535989
 10
3.5699606746
 20
-50.6239135441
 10
3.6751630244
 20
-50.6386422786
 10
3.7795528746
 20
-50.656020933
 10
3.8829966675
 20
-50.6760274403
 10
3.9853624097
 20
-50.6986359932
 10
4.0865198219
 20
-50.7238171199
 10
4.1863398049
 20
-50.7515384582
 10
4.2846946361
 20
-50.7817647676
 10
4.3814586449
 20
-50.8144574342
 10
4.4765081817
 20
-50.8495746766
 10
4.5697217876
 20
-50.8870716166
 10
4.6609803607
 20
-50.9269003531
 10
4.7501674178
 20
-50.9690100544
 10
4.8371688519
 20
-51.0133468465
 10
4.9218731209
 20
-51.0598538682
 10
5.0041718979
 20
-51.1084715887
 10
5.0839601763
 20
-51.1591379157
 10
5.1611360343
 20
-51.2117880767
  0
LWPOLYLINE
  5
2AB
100
AcDbEntity
  8
0
100
AcDbPolyline
 62
7
  6
CONTINUOUS
 90
4
 70
0
 10
1.8248925581
 20
-50.1718493734
 10
2.0692741366
 20
-50.2276090966
 10
2.2992296725
 20
-50.2239342754
 10
2.507796306
 20
-50.1628627572
  0
LWPOLYLINE
  5
2AC
100
AcDbEntity
  8
0
100
AcDbPolyline
 62
250
  6
CONTINUOUS
 90
10
 70
0
 10
-2.2553978094
 20
-52.4544482686
 10
-2.3026787277
 20
-52.4417793375
 10
-2.3532159091
 20
-52.4319522991
 10
-2.4068457781
 20
-52.4250052584
 10
-2.4635495764
 20
-52.4209706958
 10
-2.5230175965
 20
-52.4199084055
 10
-2.5845863288
 20
-52.4218286111
 10
-2.647858304
 20
-52.4266837952
 10
-2.7127648341
 20
-52.4344455864
 10
-2.7790862206
 20
-52.4450837884
  0
LWPOLYLINE
  5
2AD
100
AcDbEntity
  8
0
100
AcDbPolyline
 62
7
  6
CONTINUOUS
 90
17
 70
0
 10
0.5796382866
 20
-58.7172197923
 10
0.607959336
 20
-58.7327108753
 10
0.6354792959
 20
-58.7479513026
 10
0.6629654991
 20
-58.7633841259
 10
0.6904115132
 20
-58.7790322607
 10
0.7176406299
 20
-58.7948195637
 10
0.7451803918
 20
-58.8110737561
 10
0.7731529805
 20
-58.8278692983
 10
0.8013865961
 20
-58.8450981428
 10
0.8300043547
 20
-58.8628294146
 10
0.8589610413
 20
-58.881029938
 10
0.8882640238
 20
-58.8996983687
 10
0.9181130284
 20
-58.9189582459
 10
0.9485074609
 20
-58.9388074171
 10
0.9794098969
 20
-58.9592186805
 10
1.0109621596
 20
-58.9802835898
 10
1.0432532722
 20
-59.0020614354
  0
LWPOLYLINE
  5
2AE
100
AcDbEntity
  8
0
100
AcDbPolyline
 62
7
  6
CONTINUOUS
 90
4
 70
0
 10
0.4318587554
 20
-58.6362380501
 10
0.4577721339
 20
-58.6509032541
 10
0.4906111962
 20
-58.6690263963
 10
0.5796382866
 20
-58.7172197923
  0
LINE
  5
2AF
100
AcDbEntity
  8
0
100
AcDbLine
 62
7
  6
CONTINUOUS
 10
0.4318315516
 20
-58.6362224195
 11
0.4318587554
 21
-58.6362380501
  0
LWPOLYLINE
  5
2B0
100
AcDbEntity
  8
0
100
AcDbPolyline
 62
250
  6
CONTINUOUS
 90
3
 70
0
 10
10.5994347669
 20
-65.5817246872
 10
10.8376960557
 20
-65.724332388
 10
11.0870427809
 20
-65.8592474314
  0
LWPOLYLINE
  5
2B1
100
AcDbEntity
  8
0
100
AcDbPolyline
 62
250
  6
CONTINUOUS
 90
8
 70
0
 10
10.5995776643
 20
-65.5815727742
 10
10.1656117201
 20
-65.3060561949
 10
9.7280338849
 20
-65.021707478
 10
9.2834221234
 20
-64.727336722
 10
8.835056627
 20
-64.4254119072
 10
8.3813935346
 20
-64.1157844683
 10
7.9211068998
 20
-63.7982353173
 10
7.4533835726
 20
-63.473144328
  0
LWPOLYLINE
  5
2B2
100
AcDbEntity
  8
0
100
AcDbPolyline
 62
7
  6
CONTINUOUS
 90
18
 70
0
 10
10.8177528876
 20
-65.8781136794
 10
10.962795558
 20
-65.9704359741
 10
11.2455374999
 20
-66.1388966969
 10
11.5470188969
 20
-66.3007207093
 10
11.8754804872
 20
-66.4544370594
 10
12.2205576636
 20
-66.5884691436
 10
12.5525403207
 20
-66.6889911601
 10
12.8594980789
 20
-66.756232362
 10
13.1523429931
 20
-66.7968146264
 10
13.4350040497
 20
-66.8133440195
 10
13.7061384231
 20
-66.8073341598
 10
13.9645332823
 20
-66.780526271
 10
14.2128930976
 20
-66.7339019281
 10
14.4493630726
 20
-66.668710768
 10
14.6732621391
 20
-66.5862715085
 10
14.8882033769
 20
-66.4859306924
 10
15.0942758509
 20
-66.3674773853
 10
15.1676362749
 20
-66.3193862083
  0
LINE
  5
2B3
100
AcDbEntity
  8
0
100
AcDbLine
 62
7
  6
CONTINUOUS
 10
-44.4041016055
 20
-26.9126604875
 11
-43.9892877287
 21
-27.1769261328
  0
LINE
  5
2B4
100
AcDbEntity
  8
0
100
AcDbLine
 62
7
  6
CONTINUOUS
 10
-44.5502483292
 20
-26.8180213758
 11
-44.4041016055
 21
-26.9126604875
  0
LWPOLYLINE
  5
2B5
100
AcDbEntity
  8
0
100
AcDbPolyline
 62
7
  6
CONTINUOUS
 90
21
 70
0
 10
-43.9892877287
 20
-27.1769261328
 10
-43.8620590923
 20
-27.2593219902
 10
-43.8001971127
 20
-27.2999666755
 10
-43.7394968861
 20
-27.3402945759
 10
-43.6793456446
 20
-27.380713283
 10
-43.6194744869
 20
-27.4213871853
 10
-43.5601086224
 20
-27.4621462316
 10
-43.5013532665
 20
-27.5028973548
 10
-43.4432314883
 20
-27.5436099141
 10
-43.3857038826
 20
-27.5843399866
 10
-43.3287773735
 20
-27.6251226506
 10
-43.2724892341
 20
-27.6659652412
 10
-43.2168083463
 20
-27.7069206642
 10
-43.161641969
 20
-27.7480877126
 10
-43.1069681093
 20
-27.7895178726
 10
-43.0529594253
 20
-27.8311185582
 10
-42.9998519952
 20
-27.8727447739
 10
-42.9478731343
 20
-27.9142515444
 10
-42.896928351
 20
-27.9557488528
 10
-42.8467770435
 20
-27.9974063697
 10
-42.828036305
 20
-28.0132357439
  0
LWPOLYLINE
  5
2B6
100
AcDbEntity
  8
0
100
AcDbPolyline
 62
250
  6
CONTINUOUS
 90
10
 70
0
 10
0.2590342612
 20
-58.4039701601
 10
0.2355561693
 20
-58.3884999353
 10
0.2116554667
 20
-58.3739005995
 10
0.187392299
 20
-58.360134184
 10
0.1628701795
 20
-58.3470517771
 10
0.1381030516
 20
-58.3347187959
 10
0.1129838194
 20
-58.323455887
 10
0.0874791444
 20
-58.3133860814
 10
0.0616610225
 20
-58.3043939174
 10
0.0355517609
 20
-58.2964792531
  0
LINE
  5
2B7
100
AcDbEntity
  8
0
100
AcDbLine
 62
250
  6
CONTINUOUS
 10
10.8164491197
 20
-65.8772479954
 11
10.8177528876
 21
-65.8781136794
  0
LINE
  5
2B8
100
AcDbEntity
  8
0
100
AcDbLine
 62
7
  6
CONTINUOUS
 10
1.0432532722
 20
-59.0020614354
 11
1.1096424417
 21
-59.047471662
  0
LWPOLYLINE
  5
2B9
100
AcDbEntity
  8
0
100
AcDbPolyline
 62
7
  6
CONTINUOUS
 90
9
 70
0
 10
8.1446603262
 20
-64.0776476522
 10
8.5239123067
 20
-64.3397211669
 10
8.8975758916
 20
-64.5961877077
 10
9.270536542
 20
-64.8501806644
 10
9.6411064787
 20
-65.1003437575
 10
9.9997320052
 20
-65.3400973623
 10
10.337309847
 20
-65.5638031049
 10
10.6578396077
 20
-65.7741567613
 10
10.8164491197
 20
-65.8772479954
  0
LWPOLYLINE
  5
2BA
100
AcDbEntity
  8
0
100
AcDbPolyline
 62
7
  6
CONTINUOUS
 90
6
 70
0
 10
-45.0029155926
 20
-26.513946817
 10
-44.9253707094
 20
-26.567815084
 10
-44.8488370342
 20
-26.6200331976
 10
-44.7732862176
 20
-26.6708351281
 10
-44.6983194637
 20
-26.7206895578
 10
-44.5502483292
 20
-26.8180213758
  0
LINE
  5
2BB
100
AcDbEntity
  8
0
100
AcDbLine
 62
7
  6
CONTINUOUS
 10
7.3637456828
 20
-63.5339042205
 11
8.1446603262
 21
-64.0776476522
  0
LINE
  5
2BC
100
AcDbEntity
  8
0
100
AcDbLine
 62
7
  6
CONTINUOUS
 10
1.1096424417
 20
-59.047471662
 11
1.1780908028
 21
-59.0950803191
  0
LINE
  5
2BD
100
AcDbEntity
  8
0
100
AcDbLine
 62
250
  6
CONTINUOUS
 10
7.4533835726
 20
-63.473144328
 11
6.4995547541
 21
-62.8067576317
  0
LINE
  5
2BE
100
AcDbEntity
  8
0
100
AcDbLine
 62
7
  6
CONTINUOUS
 10
-42.8282212822
 20
-27.9377749811
 11
-43.051524488
 21
-27.7812999992
  0
LINE
  5
2BF
100
AcDbEntity
  8
0
100
AcDbLine
 62
7
  6
CONTINUOUS
 10
-44.9351233914
 20
-26.4433424222
 11
-45.2059913491
 21
-26.2533576747
  0
LINE
  5
2C0
100
AcDbEntity
  8
0
100
AcDbLine
 62
250
  6
CONTINUOUS
 10
6.4995547541
 20
-62.8067576317
 11
5.6472338595
 21
-62.2088647271
  0
LINE
  5
2C1
100
AcDbEntity
  8
0
100
AcDbLine
 62
7
  6
CONTINUOUS
 10
6.4388173926
 20
-62.8851936274
 11
7.3637456828
 21
-63.5339042205
  0
LINE
  5
2C2
100
AcDbEntity
  8
0
100
AcDbLine
 62
7
  6
CONTINUOUS
 10
5.1410397845
 20
-61.9710274015
 11
6.4388173926
 21
-62.8851936274
  0
LINE
  5
2C3
100
AcDbEntity
  8
0
100
AcDbLine
 62
250
  6
CONTINUOUS
 10
5.6472338595
 20
-62.2088647271
 11
4.7911250499
 21
-61.605684456
  0
LINE
  5
2C4
100
AcDbEntity
  8
0
100
AcDbLine
 62
7
  6
CONTINUOUS
 10
-45.8890828817
 20
-25.8891105571
 11
-45.0029155926
 21
-26.513946817
  0
LINE
  5
2C5
100
AcDbEntity
  8
0
100
AcDbLine
 62
7
  6
CONTINUOUS
 10
1.0528426303
 20
-58.9665607631
 11
0.5224471315
 21
-58.5927220173
  0
LINE
  5
2C6
100
AcDbEntity
  8
0
100
AcDbLine
 62
250
  6
CONTINUOUS
 10
-45.2059913491
 20
-26.2533576747
 11
-46.5018925895
 21
-25.3381085387
  0
LINE
  5
2C7
100
AcDbEntity
  8
0
100
AcDbLine
 62
7
  6
CONTINUOUS
 10
1.1780908028
 20
-59.0950803191
 11
1.2486251728
 21
-59.1448518865
  0
LINE
  5
2C8
100
AcDbEntity
  8
0
100
AcDbLine
 62
7
  6
CONTINUOUS
 10
3.7176168053
 20
-60.9642550162
 11
5.1410397845
 21
-61.9710274015
  0
LINE
  5
2C9
100
AcDbEntity
  8
0
100
AcDbLine
 62
250
  6
CONTINUOUS
 10
4.7911250499
 20
-61.605684456
 11
3.5035542028
 21
-60.6949931411
  0
LINE
  5
2CA
100
AcDbEntity
  8
0
100
AcDbLine
 62
7
  6
CONTINUOUS
 10
-47.3171405127
 20
-24.8782987916
 11
-45.8890828817
 21
-25.8891105571
  0
LINE
  5
2CB
100
AcDbEntity
  8
0
100
AcDbLine
 62
250
  6
CONTINUOUS
 10
3.5035542028
 20
-60.6949931411
 11
2.6454156896
 21
-60.0866355111
  0
LINE
  5
2CC
100
AcDbEntity
  8
0
100
AcDbLine
 62
250
  6
CONTINUOUS
 10
-46.5018925895
 20
-25.3381085387
 11
-47.3631300877
 21
-24.7277854726
  0
LINE
  5
2CD
100
AcDbEntity
  8
0
100
AcDbLine
 62
7
  6
CONTINUOUS
 10
-43.051524488
 20
-27.7812999992
 11
-43.58909539
 21
-27.4006113728
  0
LINE
  5
2CE
100
AcDbEntity
  8
0
100
AcDbLine
 62
7
  6
CONTINUOUS
 10
-44.395540941
 20
-26.8256936119
 11
-44.9351233914
 21
-26.4433424222
  0
LINE
  5
2CF
100
AcDbEntity
  8
0
100
AcDbLine
 62
250
  6
CONTINUOUS
 10
-47.3631300877
 20
-24.7277854726
 11
-48.2194406227
 21
-24.1190905411
  0
LWPOLYLINE
  5
2D0
100
AcDbEntity
  8
0
100
AcDbPolyline
 62
7
  6
CONTINUOUS
 90
4
 70
0
 10
2.6454156896
 20
-60.0866355111
 10
2.3754773069
 20
-59.8943108124
 10
2.1083466284
 20
-59.7055772464
 10
1.0528426303
 20
-58.9665607631
  0
LINE
  5
2D1
100
AcDbEntity
  8
0
100
AcDbLine
 62
7
  6
CONTINUOUS
 10
0.5224471315
 20
-58.5927220173
 11
0.2539962754
 21
-58.4012782092
  0
LINE
  5
2D2
100
AcDbEntity
  8
0
100
AcDbLine
 62
7
  6
CONTINUOUS
 10
-48.8777337254
 20
-23.7692061437
 11
-47.3171405127
 21
-24.8782987916
  0
LINE
  5
2D3
100
AcDbEntity
  8
0
100
AcDbLine
 62
7
  6
CONTINUOUS
 10
-43.58909539
 20
-27.4006113728
 11
-44.395540941
 21
-26.8256936119
  0
LINE
  5
2D4
100
AcDbEntity
  8
0
100
AcDbLine
 62
250
  6
CONTINUOUS
 10
-48.2194406227
 20
-24.1190905411
 11
-49.0685129489
 21
-23.5134876631
  0
LWPOLYLINE
  5
2D5
100
AcDbEntity
  8
0
100
AcDbPolyline
 62
250
  6
CONTINUOUS
 90
8
 70
0
 10
-49.0685129489
 20
-23.5134876631
 10
-50.0161434923
 20
-22.8354591598
 10
-50.4773348057
 20
-22.5038280114
 10
-50.9281239652
 20
-22.1772856565
 10
-51.3689117379
 20
-21.85457882
 10
-51.8005737339
 20
-21.5343570928
 10
-52.2242425929
 20
-21.214864545
 10
-52.6363930789
 20
-20.8984340638
  0
LINE
  5
2D6
100
AcDbEntity
  8
0
100
AcDbLine
 62
7
  6
CONTINUOUS
 10
1.2486251728
 20
-59.1448518865
 11
1.321155077
 21
-59.196661889
  0
LINE
  5
2D7
100
AcDbEntity
  8
0
100
AcDbLine
 62
7
  6
CONTINUOUS
 10
1.321155077
 20
-59.196661889
 11
1.395251006
 21
-59.2501841445
  0
LWPOLYLINE
  5
2D8
100
AcDbEntity
  8
0
100
AcDbPolyline
 62
7
  6
CONTINUOUS
 90
4
 70
0
 10
2.7011156807
 20
-60.2413903198
 10
2.748509907
 20
-60.2759585318
 10
2.7964329921
 20
-60.3105425837
 10
3.7176168053
 20
-60.9642550162
  0
LINE
  5
2D9
100
AcDbEntity
  8
0
100
AcDbLine
 62
7
  6
CONTINUOUS
 10
1.395251006
 20
-59.2501841445
 11
1.470750384
 21
-59.3053359538
  0
LINE
  5
2DA
100
AcDbEntity
  8
0
100
AcDbLine
 62
7
  6
CONTINUOUS
 10
1.470750384
 20
-59.3053359538
 11
1.5475576131
 21
-59.3620870557
  0
LINE
  5
2DB
100
AcDbEntity
  8
0
100
AcDbLine
 62
7
  6
CONTINUOUS
 10
2.607852113
 20
-60.1724718774
 11
2.7011156807
 21
-60.2413903198
  0
LINE
  5
2DC
100
AcDbEntity
  8
0
100
AcDbLine
 62
7
  6
CONTINUOUS
 10
1.5475576131
 20
-59.3620870557
 11
1.625538035
 21
-59.4203774122
  0
LINE
  5
2DD
100
AcDbEntity
  8
0
100
AcDbLine
 62
7
  6
CONTINUOUS
 10
2.5164043948
 20
-60.1040197462
 11
2.607852113
 21
-60.1724718774
  0
LINE
  5
2DE
100
AcDbEntity
  8
0
100
AcDbLine
 62
7
  6
CONTINUOUS
 10
1.625538035
 20
-59.4203774122
 11
1.704751729
 21
-59.4802454197
  0
LINE
  5
2DF
100
AcDbEntity
  8
0
100
AcDbLine
 62
7
  6
CONTINUOUS
 10
2.3817697002
 20
-60.0021863833
 11
2.5164043948
 21
-60.1040197462
  0
LINE
  5
2E0
100
AcDbEntity
  8
0
100
AcDbLine
 62
7
  6
CONTINUOUS
 10
2.2490928554
 20
-59.9006868308
 11
2.3817697002
 21
-60.0021863833
  0
LINE
  5
2E1
100
AcDbEntity
  8
0
100
AcDbLine
 62
7
  6
CONTINUOUS
 10
1.704751729
 20
-59.4802454197
 11
1.8258442439
 21
-59.5728394221
  0
LWPOLYLINE
  5
2E2
100
AcDbEntity
  8
0
100
AcDbPolyline
 62
7
  6
CONTINUOUS
 90
9
 70
0
 10
-52.8475397223
 20
-20.860052132
 10
-52.5864847903
 20
-21.0605937851
 10
-52.1803451745
 20
-21.3683830385
 10
-51.7423570064
 20
-21.6963026881
 10
-51.2809210462
 20
-22.0373830676
 10
-50.799285527
 20
-22.3894308006
 10
-50.300678214
 20
-22.7504397422
 10
-49.7894671002
 20
-23.1179316191
 10
-48.8777337254
 20
-23.7692061437
  0
LINE
  5
2E3
100
AcDbEntity
  8
0
100
AcDbLine
 62
7
  6
CONTINUOUS
 10
1.8258442439
 20
-59.5728394221
 11
2.2490928554
 21
-59.9006868308
  0
LINE
  5
2E4
100
AcDbEntity
  8
0
100
AcDbLine
 62
250
  6
CONTINUOUS
 10
-52.6363930789
 20
-20.8984340638
 11
-53.0401110364
 21
-20.5816438197
  0
LWPOLYLINE
  5
2E5
100
AcDbEntity
  8
0
100
AcDbPolyline
 62
250
  6
CONTINUOUS
 90
10
 70
0
 10
-42.554994729
 20
-23.9582762947
 10
-42.507193434
 20
-24.0129709302
 10
-42.4632067287
 20
-24.0701585334
 10
-42.42316585
 20
-24.1295810528
 10
-42.3872021722
 20
-24.1909801615
 10
-42.3554472078
 20
-24.2540972567
 10
-42.3280326072
 20
-24.3186734591
 10
-42.3050901583
 20
-24.3844496141
 10
-42.2867517863
 20
-24.4511662925
 10
-42.2731495545
 20
-24.5185637884
  0
LWPOLYLINE
  5
2E6
100
AcDbEntity
  8
0
100
AcDbPolyline
 62
250
  6
CONTINUOUS
 90
3
 70
0
 10
-48.02699492
 20
-15.8917826617
 10
-48.2701834925
 20
-15.4772859278
 10
-48.48803266
 20
-15.0218028057
  0
LWPOLYLINE
  5
2E7
100
AcDbEntity
  8
0
100
AcDbPolyline
 62
250
  6
CONTINUOUS
 90
12
 70
0
 10
-46.336722862
 20
-18.2440013327
 10
-46.3089207877
 20
-18.2948952766
 10
-46.283658171
 20
-18.3485335094
 10
-46.2609672952
 20
-18.4048474878
 10
-46.2408771569
 20
-18.463765249
 10
-46.2234134283
 20
-18.5252115071
 10
-46.2085995076
 20
-18.5891068521
 10
-46.1964532348
 20
-18.6553705112
 10
-46.1869869278
 20
-18.7239205099
 10
-46.1802116742
 20
-18.7946702026
 10
-46.1761372551
 20
-18.8675283308
 10
-46.1747689215
 20
-18.9424018374
  0
LWPOLYLINE
  5
2E8
100
AcDbEntity
  8
0
100
AcDbPolyline
 62
250
  6
CONTINUOUS
 90
4
 70
0
 10
-48.48803266
 20
-15.0218028057
 10
-48.6464667187
 20
-14.5865056577
 10
-48.7431987862
 20
-14.1782740882
 10
-48.7756469458
 20
-13.8071800812
  0
LWPOLYLINE
  5
2E9
100
AcDbEntity
  8
0
100
AcDbPolyline
 62
250
  6
CONTINUOUS
 90
10
 70
0
 10
-49.3567827241
 20
-13.2618647335
 10
-49.3354475111
 20
-13.3376343137
 10
-49.3020795929
 20
-13.4121854525
 10
-49.2566679818
 20
-13.4845124295
 10
-49.1988833306
 20
-13.5541032872
 10
-49.1294009077
 20
-13.619302514
 10
-49.0507243681
 20
-13.6777612023
 10
-48.964918268
 20
-13.7285640787
 10
-48.8727690464
 20
-13.7717936619
 10
-48.7756468973
 20
-13.8071800965
  0
LWPOLYLINE
  5
2EA
100
AcDbEntity
  8
0
100
AcDbPolyline
 62
7
  6
CONTINUOUS
 90
17
 70
0
 10
-49.2615807401
 20
-14.0475002837
 10
-49.221611507
 20
-14.2109049311
 10
-49.1362574902
 20
-14.5016694185
 10
-49.0336345003
 20
-14.7917235922
 10
-48.9143371758
 20
-15.0812663537
 10
-48.7793679936
 20
-15.3687992247
 10
-48.6297192089
 20
-15.6529754639
 10
-48.4655635207
 20
-15.9337123169
 10
-48.2877984488
 20
-16.2094007972
 10
-48.0973612217
 20
-16.4784511118
 10
-47.8941415725
 20
-16.7405537767
 10
-47.6787463787
 20
-16.9942435265
 10
-47.4522477001
 20
-17.23741874
 10
-47.2148521207
 20
-17.4689713744
 10
-46.9669749538
 20
-17.6872734292
 10
-46.7096831204
 20
-17.8900235896
 10
-46.6079363136
 20
-17.96372488
  0
LINE
  5
2EB
100
AcDbEntity
  8
COPY_PABLISH
100
AcDbLine
 62
7
  6
CONTINUOUS
 10
-56.316062146
 20
32.0213627013
 11
-56.33308296
 21
32.0929556026
  0
LINE
  5
2EC
100
AcDbEntity
  8
0
100
AcDbLine
 62
7
  6
CONTINUOUS
 10
-49.2616456616
 20
-14.0472113671
 11
-49.2623918992
 21
-14.0439114171
  0
LWPOLYLINE
  5
2ED
100
AcDbEntity
  8
0
100
AcDbPolyline
 62
250
  6
CONTINUOUS
 90
10
 70
0
 10
-42.8275306886
 20
-27.7889687758
 10
-42.8959164047
 20
-27.4842349457
 10
-42.968029647
 20
-27.0052802364
 10
-43.0075774273
 20
-26.5325619365
 10
-43.0223831858
 20
-26.0613000967
 10
-43.0082840604
 20
-25.5967054173
 10
-42.951826163
 20
-25.1532169766
 10
-42.8521677139
 20
-24.7349374517
 10
-42.7186357717
 20
-24.3366908889
 10
-42.5549028469
 20
-23.9582988425
  0
LWPOLYLINE
  5
2EE
100
AcDbEntity
  8
0
100
AcDbPolyline
 62
250
  6
CONTINUOUS
 90
3
 70
0
 10
-49.2623918992
 20
-14.0439114171
 10
-49.3148862156
 20
-13.7703327039
 10
-49.3567858722
 20
-13.2618650515
  0
LWPOLYLINE
  5
2EF
100
AcDbEntity
  8
RACCORDO
100
AcDbPolyline
 62
250
  6
CONTINUOUS
 90
3
 70
0
 10
-48.2938670158
 20
-15.0214920798
 10
-48.3048091202
 20
-14.9478835319
 10
-48.3061800595
 20
-14.9108700263
  0
LWPOLYLINE
  5
2F0
100
AcDbEntity
  8
0
100
AcDbPolyline
 62
7
  6
CONTINUOUS
 90
20
 70
0
 10
-42.6974297125
 20
-30.7369300247
 10
-42.6830692881
 20
-30.8442769684
 10
-42.6529053908
 20
-31.022874364
 10
-42.6151132573
 20
-31.2056570191
 10
-42.5692461133
 20
-31.3946370121
 10
-42.5143777468
 20
-31.5880785852
 10
-42.4494638375
 20
-31.7884570499
 10
-42.3704242722
 20
-32.0043058357
 10
-42.2738394852
 20
-32.2388411276
 10
-42.1577949238
 20
-32.4909784089
 10
-42.0188476519
 20
-32.7632520613
 10
-41.8579856966
 20
-33.0495998504
 10
-41.6690515178
 20
-33.3559011969
 10
-41.4342641968
 20
-33.7014161122
 10
-41.1430510224
 20
-34.0871199303
 10
-40.7964922141
 20
-34.4979221274
 10
-40.3918950631
 20
-34.9262620147
 10
-39.9193008449
 20
-35.3704946419
 10
-39.3598789755
 20
-35.8352260054
 10
-38.8593346234
 20
-36.2068787114
  0
LINE
  5
2F1
100
AcDbEntity
  8
0
100
AcDbLine
 62
250
  6
CONTINUOUS
 10
-42.6974297125
 20
-30.7369300247
 11
-42.7194295069
 21
-30.5173398625
  0
LWPOLYLINE
  5
2F2
100
AcDbEntity
  8
0
100
AcDbPolyline
 62
250
  6
CONTINUOUS
 90
4
 70
0
 10
-46.7400292509
 20
18.3944825335
 10
-46.7330458636
 20
18.3205908626
 10
-46.7175367516
 20
18.2549119493
 10
-46.6939964346
 20
18.1979718076
  0
LINE
  5
2F3
100
AcDbEntity
  8
0
100
AcDbLine
 62
7
  6
CONTINUOUS
 10
-43.5938694583
 20
38.3453881483
 11
-43.5938694583
 21
38.168611453
  0
LWPOLYLINE
  5
2F4
100
AcDbEntity
  8
0
100
AcDbPolyline
 62
7
  6
CONTINUOUS
 90
19
 70
0
 10
-42.7615067788
 20
-26.2195287914
 10
-42.7682493897
 20
-26.3071018907
 10
-42.780371164
 20
-26.4753762642
 10
-42.7910555585
 20
-26.6401534444
 10
-42.8004936066
 20
-26.8059961113
 10
-42.8083215549
 20
-26.9677329028
 10
-42.8147951523
 20
-27.1315069021
 10
-42.8203167874
 20
-27.3133013636
 10
-42.8245541997
 20
-27.5140300239
 10
-42.8272412729
 20
-27.7266066906
 10
-42.8282889591
 20
-27.9523577182
 10
-42.8272749038
 20
-28.196698443
 10
-42.8236661568
 20
-28.4601209082
 10
-42.8170374998
 20
-28.7396001524
 10
-42.8066290923
 20
-29.0445433026
 10
-42.791566263
 20
-29.3843437356
 10
-42.7715763042
 20
-29.7544800638
 10
-42.7460398241
 20
-30.1539294025
 10
-42.7194295191
 20
-30.5173395601
  0
LWPOLYLINE
  5
2F5
100
AcDbEntity
  8
0
100
AcDbPolyline
 62
7
  6
CONTINUOUS
 90
5
 70
0
 10
-47.3803281275
 20
18.4192055265
 10
-47.4353669502
 20
18.3723520944
 10
-47.5524254456
 20
18.2107454521
 10
-47.6272140626
 20
17.9978526614
 10
-47.6597328014
 20
17.7336737221
  0
LINE
  5
2F6
100
AcDbEntity
  8
0
100
AcDbLine
 62
7
  6
CONTINUOUS
 10
-47.7795432116
 20
17.55282675
 11
-47.0724665089
 21
18.0528054813
  0
LINE
  5
2F7
100
AcDbEntity
  8
RACCORDO
100
AcDbLine
 62
250
  6
CONTINUOUS
 10
-46.7395016338
 20
17.3557710521
 11
-46.1484122102
 21
17.7737343918
  0
LINE
  5
2F8
100
AcDbEntity
  8
RACCORDO
100
AcDbLine
 62
250
  6
CONTINUOUS
 10
-47.7792680228
 20
17.5530211835
 11
-47.7795432116
 21
17.55282675
  0
LWPOLYLINE
  5
2F9
100
AcDbEntity
  8
0
100
AcDbPolyline
 62
7
  6
CONTINUOUS
 90
5
 70
0
 10
-47.072466508
 20
18.0528054801
 10
-47.0627931255
 20
18.0594593526
 10
-47.0222566796
 20
18.0835889543
 10
-46.9789066843
 20
18.1036842474
 10
-46.93309728
 20
18.1195810668
  0
LINE
  5
2FA
100
AcDbEntity
  8
0
100
AcDbLine
 62
250
  6
CONTINUOUS
 10
-47.7573089113
 20
17.6731298363
 11
-47.6597708624
 21
17.7336778716
  0
LWPOLYLINE
  5
2FB
100
AcDbEntity
  8
0
100
AcDbPolyline
 62
7
  6
CONTINUOUS
 90
11
 70
0
 10
-47.3853210812
 20
18.4170610131
 10
-47.3847910257
 20
18.4173793078
 10
-47.378604502
 20
18.4190598073
 10
-47.3620531146
 20
18.4215347118
 10
-47.3299088206
 20
18.4224820016
 10
-47.2809662891
 20
18.4184846346
 10
-47.2173929074
 20
18.4069620387
 10
-47.1397099461
 20
18.3857535222
 10
-47.0493469559
 20
18.3532523003
 10
-46.9486123832
 20
18.3086589149
 10
-46.8382031665
 20
18.2508353521
  0
LINE
  5
2FC
100
AcDbEntity
  8
RACCORDO
100
AcDbLine
 62
250
  6
CONTINUOUS
 10
4.3256833175
 20
46.3627185089
 11
3.8686775052
 21
46.150300246
  0
LWPOLYLINE
  5
2FD
100
AcDbEntity
  8
RACCORDO
100
AcDbPolyline
 62
7
  6
CONTINUOUS
 90
7
 70
0
 10
4.0812775391
 20
46.3111810356
 10
4.5716885626
 20
46.5234939097
 10
5.0760935952
 20
46.7183594117
 10
5.5934578375
 20
46.8954313491
 10
6.1226995244
 20
47.0543679732
 10
6.6626805377
 20
47.1948371089
 10
6.7133935473
 20
47.2060673233
  0
LWPOLYLINE
  5
2FE
100
AcDbEntity
  8
DRAFT
100
AcDbPolyline
 62
7
  6
CONTINUOUS
 90
9
 70
0
 10
-50.6404968827
 20
27.2330813952
 10
-50.6666804799
 20
27.2230469288
 10
-50.7374431627
 20
27.2031052839
 10
-50.8079205927
 20
27.1895800617
 10
-50.879082723
 20
27.1816492195
 10
-50.9505019712
 20
27.1789393538
 10
-51.0219517341
 20
27.1811002249
 10
-51.0950478087
 20
27.1879714768
 10
-51.1701326858
 20
27.199604186
  0
LWPOLYLINE
  5
2FF
100
AcDbEntity
  8
RACCORDO
100
AcDbPolyline
 62
250
  6
CONTINUOUS
 90
44
 70
0
 10
4.9435435789
 20
46.667151704
 10
4.9084747825
 20
46.6564962494
 10
4.3685449381
 20
46.4713755232
 10
3.8411305607
 20
46.2689698433
 10
3.3282352606
 20
46.0500490506
 10
2.8314567113
 20
45.8153941292
 10
2.3511778516
 20
45.5652878874
 10
1.8875432564
 20
45.2998050736
 10
1.4410433315
 20
45.0191154466
 10
1.0132154362
 20
44.7240697524
 10
0.6057098245
 20
44.4158060416
 10
0.219764297
 20
44.0953874339
 10
-0.1443722785
 20
43.7631539425
 10
-0.4865919356
 20
43.4192046017
 10
-0.8064855424
 20
43.063802174
 10
-1.1029135897
 20
42.6980533386
 10
-1.3747469834
 20
42.3233495315
 10
-1.6212184309
 20
41.9409299278
 10
-1.8422024612
 20
41.5511887413
 10
-2.0376110827
 20
41.1542840678
 10
-2.2071444913
 20
40.7505845663
 10
-2.3501611003
 20
40.3413402267
 10
-2.4661373529
 20
39.9280422448
 10
-2.5548178272
 20
39.5119789879
 10
-2.6162104979
 20
39.0936060931
 10
-2.6502798093
 20
38.6731836721
 10
-2.6568916678
 20
38.251193463
 10
-2.6359313794
 20
37.8288961532
 10
-2.5874661695
 20
37.4077172832
 10
-2.5117188883
 20
36.9888672415
 10
-2.4088681527
 20
36.5728699718
 10
-2.2790153044
 20
36.1601197724
 10
-2.1222726566
 20
35.7512021615
 10
-1.9390037124
 20
35.3472554689
 10
-1.729751752
 20
34.9494885927
 10
-1.4950187739
 20
34.5587775318
 10
-1.2352933886
 20
34.1758651913
 10
-0.9512836579
 20
33.8017099297
 10
-0.6437815163
 20
33.437221472
 10
-0.3133634292
 20
33.0829610696
 10
0.0395398464
 20
32.7393448739
 10
0.4143089068
 20
32.4069879886
 10
0.8100725105
 20
32.0866738295
 10
1.226013253
 20
31.7790620834
  0
LWPOLYLINE
  5
300
100
AcDbEntity
  8
RACCORDO
100
AcDbPolyline
 62
250
  6
CONTINUOUS
 90
5
 70
0
 10
5.8932513409
 20
46.9388183412
 10
5.781074074
 20
46.9061660489
 10
5.2836225427
 20
46.7413820155
 10
4.7978481087
 20
46.5599923064
 10
4.3256833175
 20
46.3627185089
  0
LINE
  5
301
100
AcDbEntity
  8
0
100
AcDbLine
 62
7
  6
CONTINUOUS
 10
1.7392362653
 20
-50.1353797119
 11
1.8248925581
 21
-50.1718493734
  0
LWPOLYLINE
  5
302
100
AcDbEntity
  8
0
100
AcDbPolyline
 62
250
  6
CONTINUOUS
 90
10
 70
0
 10
0.9191938193
 20
-51.5618386784
 10
1.1849594813
 20
-51.7161331598
 10
1.6490876645
 20
-51.9199805885
 10
2.0846543548
 20
-52.024889889
 10
2.4784615902
 20
-52.0276273609
 10
2.8184789858
 20
-51.9280455114
 10
3.0942718623
 20
-51.7291984851
 10
3.2974781131
 20
-51.4372022406
 10
3.4219955939
 20
-51.0609392744
 10
3.464079801
 20
-50.611855824
  0
LWPOLYLINE
  5
303
100
AcDbEntity
  8
0
100
AcDbPolyline
 62
250
  6
CONTINUOUS
 90
4
 70
0
 10
1.514036976
 20
-52.6205550178
 10
1.3266568398
 20
-52.5104830069
 10
1.2297818722
 20
-52.4525574848
 10
1.1306831701
 20
-52.3924073951
  0
LWPOLYLINE
  5
304
100
AcDbEntity
  8
0
100
AcDbPolyline
 62
250
  6
CONTINUOUS
 90
10
 70
0
 10
0.6112391433
 20
-50.8105316245
 10
0.9569236529
 20
-51.0229822333
 10
1.2951328361
 20
-51.1665155142
 10
1.6176460192
 20
-51.2374853571
 10
1.919144883
 20
-51.2340305117
 10
2.1874177627
 20
-51.1561804688
 10
2.4052722788
 20
-51.0087859052
 10
2.5637085592
 20
-50.797553039
 10
2.6604411911
 20
-50.5261281337
 10
2.692889437
 20
-50.2009325234
  0
LWPOLYLINE
  5
305
100
AcDbEntity
  8
RACCORDO
100
AcDbPolyline
 62
250
  6
CONTINUOUS
 90
16
 70
0
 10
0.4235278629
 20
-49.6608702266
 10
0.501314258
 20
-49.7103953829
 10
0.5859956145
 20
-49.7538998272
 10
0.6766441459
 20
-49.7909069158
 10
0.7722666885
 20
-49.8210111915
 10
0.8718155818
 20
-49.8438828257
 10
0.9742001479
 20
-49.859271232
 10
1.0782986404
 20
-49.8670078119
 10
1.1829705348
 20
-49.8670078018
 10
1.2870690243
 20
-49.8592712019
 10
1.3894535845
 20
-49.8438827759
 10
1.489002469
 20
-49.8210111226
 10
1.584625
 20
-49.7909068285
 10
1.6752735172
 20
-49.7538997224
 10
1.7599548569
 20
-49.7103952618
 10
1.8377412329
 20
-49.6608700906
  0
LWPOLYLINE
  5
306
100
AcDbEntity
  8
0
100
AcDbPolyline
 62
250
  6
CONTINUOUS
 90
6
 70
0
 10
-36.6643702232
 20
-25.6679525648
 10
-36.8788369459
 20
-25.526247088
 10
-37.0893169341
 20
-25.3849171189
 10
-37.2957841559
 20
-25.2439443193
 10
-37.4980429201
 20
-25.1026032426
 10
-45.5403278702
 20
-19.4141715515
  0
LWPOLYLINE
  5
307
100
AcDbEntity
  8
RACCORDO
100
AcDbPolyline
 62
250
  6
CONTINUOUS
 90
19
 70
0
 10
-0.143147745
 20
-49.8268456694
 10
-0.0933358133
 20
-49.8598168347
 10
-0.0445795613
 20
-49.8878915522
 10
0.0031210112
 20
-49.9110698219
 10
0.0501237393
 20
-49.9294663021
 10
0.0960707879
 20
-49.9429663345
 10
0.139888651
 20
-49.9512259448
 10
0.1815248537
 20
-49.9541166449
 10
0.221031871
 20
-49.9517669228
 10
0.2574936215
 20
-49.9442182684
 10
0.2908324012
 20
-49.9313475499
 10
0.3211259141
 20
-49.913277899
 10
0.3476911912
 20
-49.8904202002
 10
0.370444876
 20
-49.8626401762
 10
0.3894703249
 20
-49.8300721043
 10
0.4043346381
 20
-49.7935297017
 10
0.4148935155
 20
-49.7532842074
 10
0.4212912571
 20
-49.7090643824
 10
0.4235278629
 20
-49.6608702266
  0
LWPOLYLINE
  5
308
100
AcDbEntity
  8
0
100
AcDbPolyline
 62
7
  6
CONTINUOUS
 90
3
 70
0
 10
0.6965508641
 20
-51.413054772
 10
0.8896559309
 20
-51.5430879177
 10
0.9191938193
 20
-51.5618386784
  0
LINE
  5
309
100
AcDbEntity
  8
0
100
AcDbLine
 62
250
  6
CONTINUOUS
 10
-8.1729088856
 20
-45.8126263269
 11
-8.3798045304
 21
-45.6684308457
  0
LWPOLYLINE
  5
30A
100
AcDbEntity
  8
0
100
AcDbPolyline
 62
250
  6
CONTINUOUS
 90
6
 70
0
 10
-45.5403278702
 20
-19.4141715515
 10
-45.7540259858
 20
-19.2647930646
 10
-45.8599970331
 20
-19.1881313187
 10
-45.9654436312
 20
-19.1083941166
 10
-46.0703583768
 20
-19.0264777941
 10
-46.1747689215
 20
-18.9424018374
  0
LINE
  5
30B
100
AcDbEntity
  8
0
100
AcDbLine
 62
250
  6
CONTINUOUS
 10
-36.8218355366
 20
-26.5811883763
 11
-37.8723428598
 21
-25.8444134189
  0
LWPOLYLINE
  5
30C
100
AcDbEntity
  8
0
100
AcDbPolyline
 62
250
  6
CONTINUOUS
 90
16
 70
0
 10
-36.6642192592
 20
-25.6678026543
 10
-37.2240113908
 20
-25.2748253268
 10
-37.7622616666
 20
-24.9070660744
 10
-38.2794501987
 20
-24.5618996641
 10
-38.7749085782
 20
-24.2394713614
 10
-39.2500057609
 20
-23.943627029
 10
-39.707400763
 20
-23.6831066481
 10
-40.1449223397
 20
-23.4704553123
 10
-40.5582267586
 20
-23.3185919289
 10
-40.9453023147
 20
-23.2316528896
 10
-41.307707684
 20
-23.2075174456
 10
-41.6388176404
 20
-23.2486910413
 10
-41.9298623327
 20
-23.3503738483
 10
-42.1777400849
 20
-23.5042266814
 10
-42.3860086467
 20
-23.7085164563
 10
-42.554994729
 20
-23.9582762947
  0
LINE
  5
30D
100
AcDbEntity
  8
0
100
AcDbLine
 62
250
  6
CONTINUOUS
 10
-7.955097775
 20
-45.9660887628
 11
-8.1729088856
 21
-45.8126263269
  0
LINE
  5
30E
100
AcDbEntity
  8
0
100
AcDbLine
 62
7
  6
CONTINUOUS
 10
-8.5375547274
 20
-46.5811855241
 11
-36.8218259747
 21
-26.5811855242
  0
LINE
  5
30F
100
AcDbEntity
  8
0
100
AcDbLine
 62
7
  6
CONTINUOUS
 10
-46.6105724064
 20
-17.9618610809
 11
0.6946186751
 21
-51.4117479481
  0
LINE
  5
310
100
AcDbEntity
  8
RACCORDO
100
AcDbLine
 62
7
  6
CONTINUOUS
 10
-47.3168549132
 20
-16.6947421161
 11
-0.0133912945
 21
-50.1433420145
  0
LINE
  5
311
100
AcDbEntity
  8
RACCORDO
100
AcDbLine
 62
250
  6
CONTINUOUS
 10
-47.4466114252
 20
-16.3782457275
 11
-0.143147745
 21
-49.8268456694
  0
LINE
  5
312
100
AcDbEntity
  8
0
100
AcDbLine
 62
7
  6
CONTINUOUS
 10
0.6965508641
 20
-51.413054772
 11
0.6947047281
 21
-51.411743491
  0
LINE
  5
313
100
AcDbEntity
  8
0
100
AcDbLine
 62
250
  6
CONTINUOUS
 10
1.1306849407
 20
-52.3924044351
 11
-7.955097775
 21
-45.9660887628
  0
LWPOLYLINE
  5
314
100
AcDbEntity
  8
0
100
AcDbPolyline
 62
250
  6
CONTINUOUS
 90
14
 70
0
 10
-37.8723428598
 20
-25.8444134189
 10
-38.3327274462
 20
-25.5144614998
 10
-38.7614160945
 20
-25.1914322899
 10
-39.1664151569
 20
-24.8744608984
 10
-39.5551324318
 20
-24.5766008523
 10
-39.9368281383
 20
-24.3111095191
 10
-40.315870744
 20
-24.0934959872
 10
-40.682746483
 20
-23.9374522309
 10
-41.0266752624
 20
-23.8529300213
 10
-41.3411956652
 20
-23.8490509776
 10
-41.6230221762
 20
-23.9266603308
 10
-41.8711418943
 20
-24.0683348686
 10
-42.0875478761
 20
-24.2682834903
 10
-42.2727655391
 20
-24.518978143
  0
LWPOLYLINE
  5
315
100
AcDbEntity
  8
0
100
AcDbPolyline
 62
250
  6
CONTINUOUS
 90
25
 70
0
 10
-46.1747706951
 20
-18.9423982497
 10
-46.4476211502
 20
-18.7402203035
 10
-46.7192084088
 20
-18.5204873853
 10
-46.9882867606
 20
-18.2842097317
 10
-47.2525133347
 20
-18.0335652789
 10
-47.5118272129
 20
-17.7687339913
 10
-47.7682217243
 20
-17.4873155209
 10
-48.022287374
 20
-17.1876509847
 10
-48.2703142224
 20
-16.8730590956
 10
-48.5079058625
 20
-16.5487008415
 10
-48.7349531995
 20
-16.2145489734
 10
-48.9491266408
 20
-15.8738464501
 10
-49.1442071363
 20
-15.5375556132
 10
-49.3172107979
 20
-15.2137947102
 10
-49.4722046296
 20
-14.8980465289
 10
-49.6136960116
 20
-14.5823549299
 10
-49.7434322199
 20
-14.2619422346
 10
-49.8579836113
 20
-13.9442950164
 10
-49.9543031751
 20
-13.6395035111
 10
-50.0318770191
 20
-13.3541245742
 10
-50.0936846718
 20
-13.0828179579
 10
-50.142073466
 20
-12.8177779088
 10
-50.1771694024
 20
-12.5572620983
 10
-50.1982745092
 20
-12.3049806837
 10
-50.205315636
 20
-12.061815127
  0
LWPOLYLINE
  5
316
100
AcDbEntity
  8
0
100
AcDbPolyline
 62
250
  6
CONTINUOUS
 90
3
 70
0
 10
-7.2837197017
 20
-46.4571587843
 10
-7.5065438523
 20
-46.2910570418
 10
-7.7261098154
 20
-46.1286304188
  0
LWPOLYLINE
  5
317
100
AcDbEntity
  8
0
100
AcDbPolyline
 62
250
  6
CONTINUOUS
 90
3
 70
0
 10
0.7413687228
 20
-51.4428821945
 10
0.7811513589
 20
-51.4730455141
 10
0.8160637352
 20
-51.5032002704
  0
LWPOLYLINE
  5
318
100
AcDbEntity
  8
0
100
AcDbPolyline
 62
250
  6
CONTINUOUS
 90
3
 70
0
 10
-6.5941938077
 20
-46.9781705379
 10
-6.8274243818
 20
-46.8008068907
 10
-7.2837197017
 20
-46.4571587843
  0
LWPOLYLINE
  5
319
100
AcDbEntity
  8
RACCORDO
100
AcDbPolyline
 62
7
  6
CONTINUOUS
 90
13
 70
0
 10
-47.3168549131
 20
-16.6947425009
 10
-47.4615960252
 20
-16.5826453937
 10
-47.5948145007
 20
-16.460883013
 10
-47.7169589636
 20
-16.3312089108
 10
-47.8284337234
 20
-16.1948266659
 10
-47.9297624308
 20
-16.0521056894
 10
-48.0212771642
 20
-15.9027680135
 10
-48.1034704903
 20
-15.7448524525
 10
-48.174135544
 20
-15.5803492902
 10
-48.230369147
 20
-15.414456489
 10
-48.2714888906
 20
-15.2484634637
 10
-48.2972270289
 20
-15.0805120843
 10
-48.3061804442
 20
-14.9108697237
  0
LWPOLYLINE
  5
31A
100
AcDbEntity
  8
RACCORDO
100
AcDbPolyline
 62
250
  6
CONTINUOUS
 90
7
 70
0
 10
-48.0132870331
 20
-15.4108699546
 10
-48.0833246384
 20
-15.3558679981
 10
-48.144848293
 20
-15.295990558
 10
-48.1971838615
 20
-15.2318935885
 10
-48.2397578624
 20
-15.1642792806
 10
-48.2721037463
 20
-15.0938883811
 10
-48.2938670158
 20
-15.0214920798
  0
LINE
  5
31B
100
AcDbEntity
  8
0
100
AcDbLine
 62
250
  6
CONTINUOUS
 10
-46.6940483805
 20
-17.3606483707
 11
-47.0397256597
 21
-17.0842331451
  0
LWPOLYLINE
  5
31C
100
AcDbEntity
  8
0
100
AcDbPolyline
 62
250
  6
CONTINUOUS
 90
10
 70
0
 10
-46.6105724064
 20
-17.9618610809
 10
-46.6424428136
 20
-17.9351939575
 10
-46.6785834392
 20
-17.8908112655
 10
-46.7068485654
 20
-17.8368890293
 10
-46.7268094905
 20
-17.7737392061
 10
-46.7379710805
 20
-17.7022059727
 10
-46.7400822747
 20
-17.623917275
 10
-46.7332915777
 20
-17.5402628719
 10
-46.7178397661
 20
-17.45212221
 10
-46.6940502712
 20
-17.3606546701
  0
LWPOLYLINE
  5
31D
100
AcDbEntity
  8
0
100
AcDbPolyline
 62
250
  6
CONTINUOUS
 90
6
 70
0
 10
-46.5124512562
 20
-18.032858555
 10
-46.4725675039
 20
-18.0691148319
 10
-46.4350011435
 20
-18.1084130558
 10
-46.399803352
 20
-18.1507006211
 10
-46.3670288678
 20
-18.1959167111
 10
-46.336722862
 20
-18.2440013327
  0
LWPOLYLINE
  5
31E
100
AcDbEntity
  8
0
100
AcDbPolyline
 62
250
  6
CONTINUOUS
 90
4
 70
0
 10
-47.0397256597
 20
-17.0842331451
 10
-47.377926186
 20
-16.7494744961
 10
-47.7004301029
 20
-16.3643509511
 10
-47.7643118211
 20
-16.2732757157
  0
LWPOLYLINE
  5
31F
100
AcDbEntity
  8
0
100
AcDbPolyline
 62
250
  6
CONTINUOUS
 90
10
 70
0
 10
-56.1328177209
 20
9.6537169159
 10
-55.6306509575
 20
8.9149858607
 10
-55.0872248011
 20
8.1915580232
 10
-54.5034622361
 20
7.4843673714
 10
-53.8802801432
 20
6.7943743742
 10
-53.2185927113
 20
6.1225527217
 10
-52.5193190662
 20
5.4698596714
 10
-51.783383319
 20
4.8372358838
 10
-51.0117103441
 20
4.2256218397
 10
-50.2052255816
 20
3.6359585866
  0
LWPOLYLINE
  5
320
100
AcDbEntity
  8
0
100
AcDbPolyline
 62
250
  6
CONTINUOUS
 90
5
 70
0
 10
-56.1328491209
 20
9.6537067688
 10
-56.2272330294
 20
9.8304454378
 10
-56.287415858
 20
10.0143145674
 10
-56.3124324933
 20
10.202020622
 10
-56.3038361335
 20
10.2247688433
  0
LWPOLYLINE
  5
321
100
AcDbEntity
  8
0
100
AcDbPolyline
 62
250
  6
CONTINUOUS
 90
10
 70
0
 10
-49.3567827285
 20
18.1336730912
 10
-49.3350752185
 20
18.056880349
 10
-49.3012843086
 20
17.9818707032
 10
-49.2556438722
 20
17.9096155872
 10
-49.1983319377
 20
17.8408483235
 10
-49.1300473828
 20
17.7767721384
 10
-49.0523592623
 20
17.7188596162
 10
-48.9667100903
 20
17.6679179757
 10
-48.8740469499
 20
17.6242712049
 10
-48.7756256674
 20
17.5883468466
  0
LWPOLYLINE
  5
322
100
AcDbEntity
  8
0
100
AcDbPolyline
 62
250
  6
CONTINUOUS
 90
10
 70
0
 10
-36.6643702232
 20
-25.6679525648
 10
-36.6663379168
 20
-25.7609242694
 10
-36.67225861
 20
-25.856466273
 10
-36.6821160409
 20
-25.9543974901
 10
-36.6958923545
 20
-26.0545272846
 10
-36.7135510344
 20
-26.1566722491
 10
-36.7350374896
 20
-26.2606568268
 10
-36.7603017473
 20
-26.3662916157
 10
-36.789298047
 20
-26.4733734803
 10
-36.8219681755
 20
-26.5817025285
  0
LWPOLYLINE
  5
323
100
AcDbEntity
  8
0
100
AcDbPolyline
 62
7
  6
CONTINUOUS
 90
5
 70
0
 10
-38.9884207086
 20
-35.7915153923
 10
-38.9976063676
 20
-35.9258989927
 10
-38.9828588175
 20
-36.0460060556
 10
-38.942966253
 20
-36.1462672371
 10
-38.8593346234
 20
-36.2068787114
  0
LWPOLYLINE
  5
324
100
AcDbEntity
  8
0
100
AcDbPolyline
 62
250
  6
CONTINUOUS
 90
3
 70
0
 10
-46.6265783724
 20
-17.182841339
 10
-46.6558504088
 20
-17.2502049125
 10
-46.6940502712
 20
-17.3606546701
  0
LWPOLYLINE
  5
325
100
AcDbEntity
  8
RACCORDO
100
AcDbPolyline
 62
250
  6
CONTINUOUS
 90
39
 70
0
 10
3.8686775052
 20
46.150300246
 10
3.4272756882
 20
45.9230394262
 10
3.0017137867
 20
45.6810574542
 10
2.5925366938
 20
45.4245619221
 10
2.2012143393
 20
45.1543675768
 10
1.8293043262
 20
44.8715498394
 10
1.4779901267
 20
44.5771259687
 10
1.1475751152
 20
44.271473977
 10
0.8382355887
 20
43.9547568779
 10
0.5504087696
 20
43.6272816149
 10
0.2851717562
 20
43.2901219539
 10
0.0435803068
 20
42.9446198504
 10
-0.1736441234
 20
42.5919875799
 10
-0.3663636987
 20
42.2326489865
 10
-0.5344753591
 20
41.8667961287
 10
-0.6776847431
 20
41.4948108882
 10
-0.7953950057
 20
41.1179389305
 10
-0.8871377379
 20
40.7376798448
 10
-0.9527115236
 20
40.3553442344
 10
-0.9921556694
 20
39.9713662435
 10
-1.0054490062
 20
39.5859470673
 10
-0.9924558094
 20
39.1994039649
 10
-0.9530991558
 20
38.8131631004
 10
-0.8876001337
 20
38.4290804281
 10
-0.796200147
 20
38.0478759282
 10
-0.6792550632
 20
37.6705365954
 10
-0.5377235256
 20
37.2992497062
 10
-0.3721825812
 20
36.9344838
 10
-0.1834936782
 20
36.5772524238
 10
0.0261811437
 20
36.2303572363
 10
0.2570746314
 20
35.8922664261
 10
0.5067204849
 20
35.5655650728
 10
0.7669027859
 20
35.2584566705
 10
1.0322324778
 20
34.9734283682
 10
1.3025963003
 20
34.7071337164
 10
1.5764953881
 20
34.4583586489
 10
1.852168646
 20
34.2263643168
 10
2.1274503482
 20
34.0108304849
 10
2.4005756685
 20
33.8111451615
  0
LINE
  5
326
100
AcDbEntity
  8
RACCORDO
100
AcDbLine
 62
7
  6
CONTINUOUS
 10
3.6062035671
 20
46.0819432976
 11
4.0812775391
 21
46.3111810356
  0
LWPOLYLINE
  5
327
100
AcDbEntity
  8
0
100
AcDbPolyline
 62
250
  6
CONTINUOUS
 90
10
 70
0
 10
13.6715995407
 20
-39.7054894533
 10
13.921547502
 20
-39.7722308831
 10
14.181574403
 20
-39.8147852753
 10
14.4470251356
 20
-39.8324717006
 10
14.7133462493
 20
-39.8250439803
 10
14.9756397539
 20
-39.7926909377
 10
15.2287865486
 20
-39.7361919424
 10
15.4682691571
 20
-39.6568158433
 10
15.6902037673
 20
-39.5561285923
 10
15.8909025843
 20
-39.4360703584
  0
LWPOLYLINE
  5
328
100
AcDbEntity
  8
0
100
AcDbPolyline
 62
250
  6
CONTINUOUS
 90
10
 70
0
 10
-50.2053107905
 20
-12.0618160477
 10
-50.0589388815
 20
-12.1730080881
 10
-49.9242334994
 20
-12.2912887488
 10
-49.8018744616
 20
-12.4160458688
 10
-49.6924571347
 20
-12.5466620421
 10
-49.5965555285
 20
-12.6824388694
 10
-49.5146925717
 20
-12.8225909056
 10
-49.4472607882
 20
-12.9663617654
 10
-49.394547864
 20
-13.1130375118
 10
-49.3567827253
 20
-13.2618647336
  0
LWPOLYLINE
  5
329
100
AcDbEntity
  8
0
100
AcDbPolyline
 62
250
  6
CONTINUOUS
 90
10
 70
0
 10
0.6947047281
 20
-51.411743491
 10
0.6628339434
 20
-51.3850763886
 10
0.6266933318
 20
-51.3406949095
 10
0.5984275543
 20
-51.2867733824
 10
0.5784652157
 20
-51.2236224431
 10
0.5673025742
 20
-51.1520865784
 10
0.5651922368
 20
-51.0737963585
 10
0.5719857351
 20
-50.9901428241
 10
0.5874416095
 20
-50.9020046906
 10
0.6112361904
 20
-50.8105414615
  0
LWPOLYLINE
  5
32A
100
AcDbEntity
  8
0
100
AcDbPolyline
 62
250
  6
CONTINUOUS
 90
6
 70
0
 10
0.8160637352
 20
-51.5032002704
 10
0.8492758724
 20
-51.5355955077
 10
0.88075756
 20
-51.5702014968
 10
0.9104821486
 20
-51.6069878031
 10
0.9384226985
 20
-51.6459205725
 10
0.9645520074
 20
-51.6869625658
  0
LWPOLYLINE
  5
32B
100
AcDbEntity
  8
0
100
AcDbPolyline
 62
7
  6
CONTINUOUS
 90
11
 70
0
 10
-56.1396785718
 20
21.97922415
 10
-56.1752033927
 20
22.0368298909
 10
-56.2070751361
 20
22.0954976136
 10
-56.235230363
 20
22.1551113504
 10
-56.2596130127
 20
22.2155529941
 10
-56.2801743443
 20
22.2767032226
 10
-56.2968731246
 20
22.338441719
 10
-56.3096759288
 20
22.400646317
 10
-56.3185570107
 20
22.4631938085
 10
-56.3234983551
 20
22.5259608599
 10
-56.324607358
 20
22.5699413328
  0
LWPOLYLINE
  5
32C
100
AcDbEntity
  8
0
100
AcDbPolyline
 62
250
  6
CONTINUOUS
 90
3
 70
0
 10
-56.1536312602
 20
28.3384805495
 10
-56.2510921428
 20
28.5162989131
 10
-56.3137709589
 20
28.7015540148
  0
LWPOLYLINE
  5
32D
100
AcDbEntity
  8
0
100
AcDbPolyline
 62
250
  6
CONTINUOUS
 90
10
 70
0
 10
-38.9884221346
 20
-35.7914933374
 10
-38.8340991318
 20
-34.8077771671
 10
-38.657870199
 20
-33.8126603137
 10
-38.4598445802
 20
-32.8067699417
 10
-38.2401447966
 20
-31.7907378196
 10
-37.9989080194
 20
-30.7652067164
 10
-37.736286465
 20
-29.7308302015
 10
-37.4524451437
 20
-28.6882630574
 10
-37.1475612777
 20
-27.6381606645
 10
-36.8218259747
 20
-26.5811855242
  0
LWPOLYLINE
  5
32E
100
AcDbEntity
  8
0
100
AcDbPolyline
 62
7
  6
CONTINUOUS
 90
10
 70
0
 10
-27.1954781736
 20
9.8155415247
 10
-27.0518747076
 20
10.1060583879
 10
-26.9055278356
 20
10.3968646262
 10
-26.7564375577
 20
10.6879602397
 10
-26.604535837
 20
10.9794158494
 10
-26.4498907104
 20
11.2711608343
 10
-26.2927062883
 20
11.5629833308
 10
-26.1330506075
 20
11.8548127179
 10
-25.9708556312
 20
12.1467196166
 10
-25.8061213594
 20
12.4387040269
  0
LWPOLYLINE
  5
32F
100
AcDbEntity
  8
0
100
AcDbPolyline
 62
7
  6
CONTINUOUS
 90
10
 70
0
 10
-27.4323435232
 20
11.0090742115
 10
-27.3276023035
 20
11.2117333359
 10
-27.2215351322
 20
11.4145695549
 10
-27.1141420093
 20
11.6175828685
 10
-27.0053980941
 20
11.8207992185
 10
-26.8953282274
 20
12.024192663
 10
-26.7840069313
 20
12.2276853767
 10
-26.6714590468
 20
12.4312514177
 10
-26.5576597329
 20
12.634916728
 10
-26.4426089897
 20
12.8386813074
  0
LWPOLYLINE
  5
330
100
AcDbEntity
  8
0
100
AcDbPolyline
 62
7
  6
CONTINUOUS
 90
10
 70
0
 10
-25.8421584199
 20
12.4132219771
 10
-26.0068365807
 20
12.121249323
 10
-26.1689737209
 20
11.8293627677
 10
-26.3285698405
 20
11.5375623112
 10
-26.4856920187
 20
11.2457785259
 10
-26.6402731762
 20
10.9540808393
 10
-26.7921120756
 20
10.6626775346
 10
-26.9411416375
 20
10.3716380394
 10
-27.0874289412
 20
10.0808929261
 10
-27.2309739867
 20
9.7904421945
  0
LWPOLYLINE
  5
331
100
AcDbEntity
  8
0
100
AcDbPolyline
 62
250
  6
CONTINUOUS
 90
3
 70
0
 10
-47.9871629555
 20
17.5795295484
 10
-47.8669231189
 20
17.6212854948
 10
-47.7573089113
 20
17.6731298363
  0
LWPOLYLINE
  5
332
100
AcDbEntity
  8
DRAFT
100
AcDbPolyline
 62
7
  6
CONTINUOUS
 90
10
 70
0
 10
-56.1406028584
 20
31.5261437517
 10
-56.144215146
 20
31.5315030257
 10
-56.1477967521
 20
31.5368881322
 10
-56.1513476767
 20
31.5422990713
 10
-56.154868103
 20
31.5477359286
 10
-56.1583578478
 20
31.5531986184
 10
-56.1618163613
 20
31.5586868843
 10
-56.1652434604
 20
31.5642006409
 10
-56.1686393283
 20
31.5697399735
 10
-56.1720039649
 20
31.5753048823
  0
LWPOLYLINE
  5
333
100
AcDbEntity
  8
0
100
AcDbPolyline
 62
250
  6
CONTINUOUS
 90
5
 70
0
 10
-46.6939964346
 20
18.1979718076
 10
-46.6762774992
 20
18.1681867824
 10
-46.6556646418
 20
18.1413470355
 10
-46.632178746
 20
18.1176489991
 10
-46.6189820575
 20
18.1112997431
  0
LWPOLYLINE
  5
334
100
AcDbEntity
  8
DRAFT
100
AcDbPolyline
 62
7
  6
CONTINUOUS
 90
4
 70
0
 10
-56.2318526602
 20
31.6583242056
 10
-56.2767445149
 20
31.7401263473
 10
-56.3066795292
 20
31.8207113074
 10
-56.3229464301
 20
31.900964644
  0
LWPOLYLINE
  5
335
100
AcDbEntity
  8
0
100
AcDbPolyline
 62
7
  6
CONTINUOUS
 90
10
 70
0
 10
-27.7695364021
 20
13.7795709359
 10
-27.7403836705
 20
13.4731283762
 10
-27.7091690757
 20
13.1663758794
 10
-27.6758926177
 20
12.8593134456
 10
-27.6405761934
 20
12.5519912952
 10
-27.6031979058
 20
12.2443592078
 10
-27.5636920641
 20
11.9362665219
 10
-27.5220367713
 20
11.627663017
 10
-27.4782539244
 20
11.3185989135
 10
-27.4323435232
 20
11.0090742115
  0
LWPOLYLINE
  5
336
100
AcDbEntity
  8
0
100
AcDbPolyline
 62
7
  6
CONTINUOUS
 90
10
 70
0
 10
-23.3315877115
 20
10.6367275496
 10
-23.3117309337
 20
10.3470757752
 10
-23.290107549
 20
10.0581672202
 10
-23.2667175573
 20
9.7700018848
 10
-23.2415601665
 20
9.482558573
 10
-23.2146361688
 20
9.1958584808
 10
-23.18594794
 20
8.9099651958
 10
-23.1554962723
 20
8.6248999139
 10
-23.1232803735
 20
8.3406414393
 10
-23.0893002438
 20
8.0571897719
  0
LWPOLYLINE
  5
337
100
AcDbEntity
  8
0
100
AcDbPolyline
 62
250
  6
CONTINUOUS
 90
4
 70
0
 10
-22.522087947
 20
3.7891900567
 10
-22.5135493892
 20
4.4894206342
 10
-22.4879817715
 20
5.2011730986
 10
-22.4454463884
 20
5.9240017033
  0
LWPOLYLINE
  5
338
100
AcDbEntity
  8
0
100
AcDbPolyline
 62
250
  6
CONTINUOUS
 90
4
 70
0
 10
-22.4454463884
 20
5.9240017033
 10
-22.3860045094
 20
6.6574608909
 10
-22.3097173791
 20
7.4011052931
 10
-22.2166462175
 20
8.1544897308
  0
LINE
  5
339
100
AcDbEntity
  8
0
100
AcDbLine
 62
7
  6
CONTINUOUS
 10
-24.0356303782
 20
7.5685423283
 11
-24.0148293138
 21
7.8050280144
  0
LWPOLYLINE
  5
33A
100
AcDbEntity
  8
0
100
AcDbPolyline
 62
7
  6
CONTINUOUS
 90
10
 70
0
 10
-22.3344401207
 20
6.3141374954
 10
-22.3136702374
 20
6.5497386695
 10
-22.2911780919
 20
6.7863968615
 10
-22.2669636842
 20
7.0241120713
 10
-22.2410244339
 20
7.262908867
 10
-22.2133629214
 20
7.5027626805
 10
-22.1839868885
 20
7.7435998084
 10
-22.1528989156
 20
7.9853956829
 10
-22.1200964222
 20
8.2281748717
 10
-22.0855794084
 20
8.4719373749
  0
LWPOLYLINE
  5
33B
100
AcDbEntity
  8
0
100
AcDbPolyline
 62
7
  6
CONTINUOUS
 90
10
 70
0
 10
-25.8701831969
 20
8.8213848116
 10
-25.8376311724
 20
9.1861675789
 10
-25.8012908107
 20
9.5517045578
 10
-25.7611621116
 20
9.9179957482
 10
-25.7172102265
 20
10.2851126707
 10
-25.6694700042
 20
10.6529838048
 10
-25.6180459903
 20
11.0213945891
 10
-25.5629730335
 20
11.390273503
 10
-25.5042162852
 20
11.759692067
 10
-25.4417757454
 20
12.1296502813
  0
LWPOLYLINE
  5
33C
100
AcDbEntity
  8
0
100
AcDbPolyline
 62
7
  6
CONTINUOUS
 90
10
 70
0
 10
-25.2353146766
 20
8.4202804257
 10
-25.2028240354
 20
8.7834090314
 10
-25.166482602
 20
9.1477403867
 10
-25.1262903766
 20
9.5132744915
 10
-25.0822198157
 20
9.8800802374
 10
-25.0342984627
 20
10.2480887329
 10
-24.9826089476
 20
10.6170933031
 10
-24.9271788138
 20
10.9870250564
 10
-24.8679805178
 20
11.3579528844
 10
-24.8050140598
 20
11.7298767872
  0
LWPOLYLINE
  5
33D
100
AcDbEntity
  8
0
100
AcDbPolyline
 62
7
  6
CONTINUOUS
 90
10
 70
0
 10
-24.6711457623
 20
7.9691970906
 10
-24.6387810672
 20
8.3307538106
 10
-24.6025218714
 20
8.6939154582
 10
-24.5623681749
 20
9.0586820333
 10
-24.5182998588
 20
9.4251175228
 10
-24.470337042
 20
9.7931579399
 10
-24.4185400812
 20
10.1626113244
 10
-24.3629290951
 20
10.5334136895
 10
-24.3034839651
 20
10.905629022
 10
-24.240204691
 20
11.2792573219
  0
LWPOLYLINE
  5
33E
100
AcDbEntity
  8
0
100
AcDbPolyline
 62
7
  6
CONTINUOUS
 90
8
 70
0
 10
-24.0148293138
 20
7.8050280144
 10
-23.9923287691
 20
8.0423386899
 10
-23.9681287442
 20
8.2804743547
 10
-23.942223967
 20
8.5194614457
 10
-23.9146197096
 20
8.7592735261
 10
-23.8853317879
 20
8.9998312854
 10
-23.854365474
 20
9.2411082866
 10
-23.8217154958
 20
9.4831309668
  0
LINE
  5
33F
100
AcDbEntity
  8
0
100
AcDbLine
 62
250
  6
CONTINUOUS
 10
-22.2523759832
 20
8.1292375314
 11
-22.2167412917
 21
8.3890761391
  0
LWPOLYLINE
  5
340
100
AcDbEntity
  8
0
100
AcDbPolyline
 62
7
  6
CONTINUOUS
 90
10
 70
0
 10
-23.8231925502
 20
9.7005773393
 10
-23.8574842218
 20
9.457825938
 10
-23.8900939355
 20
9.2158225903
 10
-23.9210216914
 20
8.9745672963
 10
-23.9502726387
 20
8.7340342409
 10
-23.9778416282
 20
8.4942492392
 10
-24.0037132123
 20
8.2552897357
 10
-24.0278822418
 20
8.0171815453
 10
-24.0503538659
 20
7.7798988532
 10
-24.0711280847
 20
7.5434416593
  0
LINE
  5
341
100
AcDbEntity
  8
0
100
AcDbLine
 62
7
  6
CONTINUOUS
 10
-23.8217154958
 20
9.4831309668
 11
-23.809945007
 21
9.5663584391
  0
LWPOLYLINE
  5
342
100
AcDbEntity
  8
0
100
AcDbPolyline
 62
250
  6
CONTINUOUS
 90
6
 70
0
 10
-22.2167412917
 20
8.3890761391
 10
-22.1791692068
 20
8.6498879615
 10
-22.1396645302
 20
8.9116542392
 10
-22.0982320588
 20
9.1743562557
 10
-22.0548765831
 20
9.4379753364
 10
-22.0096028865
 20
9.7024928477
  0
LWPOLYLINE
  5
343
100
AcDbEntity
  8
0
100
AcDbPolyline
 62
7
  6
CONTINUOUS
 90
10
 70
0
 10
-24.8410570808
 20
11.7043905226
 10
-24.9039526437
 20
11.3324525441
 10
-24.9630820674
 20
10.9615260928
 10
-25.0184453519
 20
10.5916111688
 10
-25.0700693392
 20
10.2226404849
 10
-25.1179271873
 20
9.8546813282
 10
-25.1619383706
 20
9.4879355599
 10
-25.2020760474
 20
9.1224704672
 10
-25.2383670593
 20
8.758218763
 10
-25.2708114065
 20
8.3951804472
  0
LWPOLYLINE
  5
344
100
AcDbEntity
  8
0
100
AcDbPolyline
 62
7
  6
CONTINUOUS
 90
10
 70
0
 10
-21.300165974
 20
9.2007866356
 10
-21.3640819741
 20
8.8241913499
 10
-21.4240545986
 20
8.4497140582
 10
-21.4800838473
 20
8.0773547604
 10
-21.5321775837
 20
7.707056269
 10
-21.5803279445
 20
7.3388757716
 10
-21.6245113394
 20
6.9729848306
 10
-21.6647199051
 20
6.6094406333
 10
-21.7009615049
 20
6.2481859925
 10
-21.7332361388
 20
5.8892209079
  0
LWPOLYLINE
  5
345
100
AcDbEntity
  8
0
100
AcDbPolyline
 62
250
  6
CONTINUOUS
 90
7
 70
0
 10
-21.9735597471
 20
9.7279885744
 10
-21.8743973862
 20
10.2743716325
 10
-21.7671015365
 20
10.8247285163
 10
-21.6516943157
 20
11.3789066378
 10
-21.5281965158
 20
11.9367526526
 10
-21.3966288246
 20
12.4981132024
 10
-21.2570119238
 20
13.0628349746
  0
LWPOLYLINE
  5
346
100
AcDbEntity
  8
0
100
AcDbPolyline
 62
7
  6
CONTINUOUS
 90
10
 70
0
 10
-21.2570118719
 20
13.0628349379
 10
-21.1853838194
 20
13.2982322681
 10
-21.0887634267
 20
13.5392978239
 10
-20.9691223816
 20
13.781296703
 10
-20.8287598032
 20
14.0196688738
 10
-20.6705600127
 20
14.2496057531
 10
-20.4980536
 20
14.4662143991
 10
-20.3148446741
 20
14.6653092812
 10
-20.1244202208
 20
14.8434082037
 10
-19.9304682952
 20
14.9973303617
  0
LINE
  5
347
100
AcDbEntity
  8
0
100
AcDbLine
 62
7
  6
CONTINUOUS
 10
-22.766063833
 20
7.0247228577
 11
-22.9027616063
 21
6.7159445902
  0
LINE
  5
348
100
AcDbEntity
  8
0
100
AcDbLine
 62
7
  6
CONTINUOUS
 10
-22.8672629919
 20
6.7410459012
 11
-22.7305176597
 21
7.0498643667
  0
LINE
  5
349
100
AcDbEntity
  8
0
100
AcDbLine
 62
7
  6
CONTINUOUS
 10
-22.6248708561
 20
7.3365679775
 11
-22.766063833
 21
7.0247228577
  0
LINE
  5
34A
100
AcDbEntity
  8
0
100
AcDbLine
 62
7
  6
CONTINUOUS
 10
-22.7305176597
 20
7.0498643667
 11
-22.5892734077
 21
7.3617489118
  0
LINE
  5
34B
100
AcDbEntity
  8
0
100
AcDbLine
 62
7
  6
CONTINUOUS
 10
-22.4791958914
 20
7.6514489959
 11
-22.6248708561
 21
7.3365679775
  0
LINE
  5
34C
100
AcDbEntity
  8
0
100
AcDbLine
 62
7
  6
CONTINUOUS
 10
-22.5892734077
 20
7.3617489118
 11
-22.4435445337
 21
7.676666449
  0
LWPOLYLINE
  5
34D
100
AcDbEntity
  8
0
100
AcDbPolyline
 62
7
  6
CONTINUOUS
 90
10
 70
0
 10
-23.0893002438
 20
8.0571897719
 10
-22.9981069321
 20
8.2513517018
 10
-22.9052504743
 20
8.4465965166
 10
-22.8107308703
 20
8.6429242162
 10
-22.7145419115
 20
8.8403483341
 10
-22.6166898066
 20
9.0388553368
 10
-22.5171931821
 20
9.238404624
 10
-22.416058247
 20
9.4389826622
 10
-22.3132787924
 20
9.6406029848
 10
-22.2088548183
 20
9.8432655919
  0
LINE
  5
34E
100
AcDbEntity
  8
0
100
AcDbLine
 62
7
  6
CONTINUOUS
 10
-22.3290918015
 20
7.9692420979
 11
-22.4791958914
 21
7.6514489959
  0
LINE
  5
34F
100
AcDbEntity
  8
0
100
AcDbLine
 62
7
  6
CONTINUOUS
 10
-22.4435445337
 20
7.676666449
 11
-22.29338823
 21
7.9944846284
  0
LINE
  5
350
100
AcDbEntity
  8
0
100
AcDbLine
 62
7
  6
CONTINUOUS
 10
-22.1973251228
 20
8.2431242583
 11
-22.3290918015
 21
7.9692420979
  0
LINE
  5
351
100
AcDbEntity
  8
0
100
AcDbLine
 62
7
  6
CONTINUOUS
 10
-22.29338823
 20
7.9944846284
 11
-22.1615675928
 21
8.2684013385
  0
LINE
  5
352
100
AcDbEntity
  8
0
100
AcDbLine
 62
7
  6
CONTINUOUS
 10
-22.1615675928
 20
8.2684013385
 11
-22.0950779851
 21
8.4048575044
  0
LINE
  5
353
100
AcDbEntity
  8
0
100
AcDbLine
 62
7
  6
CONTINUOUS
 10
-22.0855794084
 20
8.4719373749
 11
-22.1973251228
 21
8.2431242583
  0
LWPOLYLINE
  5
354
100
AcDbEntity
  8
0
100
AcDbPolyline
 62
250
  6
CONTINUOUS
 90
6
 70
0
 10
-42.2727655391
 20
-24.518978143
 10
-42.4448313628
 20
-24.8520551526
 10
-42.5825834045
 20
-25.2252443939
 10
-42.6812466822
 20
-25.6243886576
 10
-42.7456803483
 20
-26.0504491578
 10
-42.7615067788
 20
-26.2195287914
  0
LINE
  5
355
100
AcDbEntity
  8
0
100
AcDbLine
 62
7
  6
CONTINUOUS
 10
-28.3335859756
 20
14.2307706576
 11
-28.3696027657
 21
14.2053029411
  0
LINE
  5
356
100
AcDbEntity
  8
0
100
AcDbLine
 62
7
  6
CONTINUOUS
 10
-27.7335142966
 20
13.805042411
 11
-27.7695364021
 21
13.7795709359
  0
LINE
  5
357
100
AcDbEntity
  8
0
100
AcDbLine
 62
7
  6
CONTINUOUS
 10
-26.4065761686
 20
12.8641603595
 11
-26.4426089897
 21
12.8386813074
  0
LINE
  5
358
100
AcDbEntity
  8
0
100
AcDbLine
 62
7
  6
CONTINUOUS
 10
-25.8061213594
 20
12.4387040269
 11
-25.8421584199
 21
12.4132219771
  0
LINE
  5
359
100
AcDbEntity
  8
0
100
AcDbLine
 62
7
  6
CONTINUOUS
 10
-25.405736116
 20
12.1551341476
 11
-25.4417757454
 21
12.1296502813
  0
LINE
  5
35A
100
AcDbEntity
  8
0
100
AcDbLine
 62
7
  6
CONTINUOUS
 10
-24.8050140598
 20
11.7298767872
 11
-24.8410570808
 21
11.7043905226
  0
LINE
  5
35B
100
AcDbEntity
  8
0
100
AcDbLine
 62
7
  6
CONTINUOUS
 10
-27.1954781736
 20
9.8155415247
 11
-27.2309739867
 21
9.7904421945
  0
LINE
  5
35C
100
AcDbEntity
  8
0
100
AcDbLine
 62
7
  6
CONTINUOUS
 10
-24.204158898
 20
11.3047455466
 11
-24.240204691
 21
11.2792573219
  0
LWPOLYLINE
  5
35D
100
AcDbEntity
  8
0
100
AcDbPolyline
 62
250
  6
CONTINUOUS
 90
9
 70
0
 10
-48.7756468973
 20
-13.8071800965
 10
-48.7155805524
 20
-13.8245732268
 10
-48.6535217987
 20
-13.8392850419
 10
-48.5897025103
 20
-13.851180708
 10
-48.5242855208
 20
-13.8601444565
 10
-48.4576256556
 20
-13.8660428037
 10
-48.3902764524
 20
-13.8687676273
 10
-48.3225384148
 20
-13.8682665286
 10
-48.3061800595
 20
-13.8673582926
  0
LWPOLYLINE
  5
35E
100
AcDbEntity
  8
0
100
AcDbPolyline
 62
250
  6
CONTINUOUS
 90
10
 70
0
 10
5.1611961382
 20
-35.5140363368
 10
5.993870541
 20
-36.0833369869
 10
6.8586192202
 20
-36.628620078
 10
7.7538018404
 20
-37.1490786416
 10
8.6777789941
 20
-37.6439061708
 10
9.6289111458
 20
-38.1122967597
 10
10.6055354157
 20
-38.5534480887
 10
11.6059658077
 20
-38.9665613912
 10
12.6285351462
 20
-39.3508360591
 10
13.6716138614
 20
-39.7054672295
  0
LWPOLYLINE
  5
35F
100
AcDbEntity
  8
COPY_PABLISH
100
AcDbPolyline
 62
7
  6
CONTINUOUS
 90
5
 70
0
 10
-56.1361892364
 20
31.7238272542
 10
-56.1980274029
 20
31.8000187312
 10
-56.2485343675
 20
31.8748942656
 10
-56.2877101301
 20
31.9484538573
 10
-56.316062146
 20
32.0213627013
  0
LWPOLYLINE
  5
360
100
AcDbEntity
  8
0
100
AcDbPolyline
 62
250
  6
CONTINUOUS
 90
10
 70
0
 10
2.6928899818
 20
-50.2009333835
 10
2.7429348755
 20
-50.2696087812
 10
2.8040715431
 20
-50.3347677819
 10
2.8759183634
 20
-50.395441523
 10
2.9585923231
 20
-50.4510740126
 10
3.0507987753
 20
-50.5002052976
 10
3.1492150508
 20
-50.5410647558
 10
3.2514996336
 20
-50.5731748297
 10
3.3569287954
 20
-50.596768515
 10
3.4640802507
 20
-50.611853598
  0
LINE
  5
361
100
AcDbEntity
  8
DRAFT
100
AcDbLine
 62
7
  6
CONTINUOUS
 10
-56.1720039649
 20
31.5753048823
 11
-56.2318526602
 21
31.6583242056
  0
LWPOLYLINE
  5
362
100
AcDbEntity
  8
COPY_PABLISH
100
AcDbPolyline
 62
7
  6
CONTINUOUS
 90
19
 70
0
 10
-56.0829306727
 20
31.662252837
 10
-55.9144302995
 20
31.4218553101
 10
-55.740081316
 20
31.1817944763
 10
-55.5598837224
 20
30.9420703354
 10
-55.3736091314
 20
30.7021931588
 10
-55.1814859302
 20
30.4626526753
 10
-54.9841992803
 20
30.2249180703
 10
-54.7811894592
 20
29.9887011997
 10
-54.5730161895
 20
29.7542902076
 10
-54.3620437993
 20
29.5240187131
 10
-54.1482125346
 20
29.2980967591
 10
-53.9315821494
 20
29.0763143026
 10
-53.7146962347
 20
28.8603748328
 10
-53.5013578759
 20
28.6537059297
 10
-53.2877639875
 20
28.4528800134
 10
-53.0650489042
 20
28.2493178334
 10
-52.8302574044
 20
28.0401596397
 10
-52.5863447098
 20
27.8282651824
 10
-52.3333108204
 20
27.6136344614
  0
LWPOLYLINE
  5
363
100
AcDbEntity
  8
COPY_PABLISH
100
AcDbPolyline
 62
250
  6
CONTINUOUS
 90
6
 70
0
 10
-56.0268696323
 20
34.7849892334
 10
-56.1156821681
 20
34.916394939
 10
-56.1841700831
 20
35.0528777532
 10
-56.2315817287
 20
35.1929397928
 10
-56.2573967667
 20
35.3350438928
 10
-56.2613378116
 20
35.4775103938
  0
LWPOLYLINE
  5
364
100
AcDbEntity
  8
0
100
AcDbPolyline
 62
250
  6
CONTINUOUS
 90
14
 70
0
 10
0.9645520074
 20
-51.6869625658
 10
0.9888455438
 20
-51.7300752505
 10
1.0112804987
 20
-51.7752181486
 10
1.0318358078
 20
-51.8223488755
 10
1.0504921727
 20
-51.871423183
 10
1.0672320767
 20
-51.9223949956
 10
1.0820398024
 20
-51.9752164564
 10
1.0949014472
 20
-52.0298379746
 10
1.1058038822
 20
-52.0862075226
 10
1.1147379221
 20
-52.1442729191
 10
1.1216983347
 20
-52.2039818823
 10
1.1266796385
 20
-52.2652790989
 10
1.1296761089
 20
-52.3281062769
 10
1.1306849407
 20
-52.3924044351
  0
LWPOLYLINE
  5
365
100
AcDbEntity
  8
0
100
AcDbPolyline
 62
250
  6
CONTINUOUS
 90
4
 70
0
 10
2.6454156896
 20
-60.0866355111
 10
2.714720627
 20
-60.2167115536
 10
2.8092449625
 20
-60.3184301299
 10
2.8354777276
 20
-60.3384145956
  0
LWPOLYLINE
  5
366
100
AcDbEntity
  8
0
100
AcDbPolyline
 62
250
  6
CONTINUOUS
 90
4
 70
0
 10
6.4995547541
 20
-62.8067576317
 10
6.5678820494
 20
-62.9375320501
 10
6.662172804
 20
-63.0402991632
 10
6.6928357827
 20
-63.0636703421
  0
LWPOLYLINE
  5
367
100
AcDbEntity
  8
0
100
AcDbPolyline
 62
250
  6
CONTINUOUS
 90
4
 70
0
 10
0.2539962754
 20
-58.4012782092
 10
0.3089430197
 20
-58.5170790887
 10
0.3846957613
 20
-58.6034352685
 10
0.4318315516
 20
-58.6362224195
  0
LWPOLYLINE
  5
368
100
AcDbEntity
  8
0
100
AcDbPolyline
 62
250
  6
CONTINUOUS
 90
16
 70
0
 10
-2.7794700496
 20
-52.4449726511
 10
-3.0168195995
 20
-51.8975134745
 10
-3.2703446135
 20
-51.365356907
 10
-3.5448050033
 20
-50.8518004534
 10
-3.8493443554
 20
-50.3582745514
 10
-4.1870780879
 20
-49.9024863184
 10
-4.5560958704
 20
-49.4860893592
 10
-4.9464149869
 20
-49.1078443153
 10
-5.344608381
 20
-48.7719142042
 10
-5.7403978276
 20
-48.477809317
 10
-6.1402629158
 20
-48.2069293612
 10
-6.5568636659
 20
-47.9358718031
 10
-7.0015674002
 20
-47.6431373937
 10
-7.4792991575
 20
-47.3194567744
 10
-7.9896824595
 20
-46.9662566592
 10
-8.5375738512
 20
-46.5811912284
  0
LWPOLYLINE
  5
369
100
AcDbEntity
  8
0
100
AcDbPolyline
 62
250
  6
CONTINUOUS
 90
25
 70
0
 10
-2.2554698584
 20
-52.4543027755
 10
-2.3765883823
 20
-52.1750387634
 10
-2.502194154
 20
-51.897665232
 10
-2.6321777389
 20
-51.6225792111
 10
-2.7657148891
 20
-51.3501876282
 10
-2.9035302733
 20
-51.0807344798
 10
-3.0478754672
 20
-50.8143711995
 10
-3.2013024228
 20
-50.5486887972
 10
-3.3613754208
 20
-50.2865793559
 10
-3.5230506952
 20
-50.0361426427
 10
-3.6851861458
 20
-49.8012632147
 10
-3.8496466834
 20
-49.5782089238
 10
-4.0159646574
 20
-49.363592599
 10
-4.1834887834
 20
-49.1574469473
 10
-4.3534858501
 20
-48.959608933
 10
-4.5282441432
 20
-48.766357594
 10
-4.7096649462
 20
-48.5759473378
 10
-4.8965417907
 20
-48.3897954906
 10
-5.0864080977
 20
-48.208940903
 10
-5.2763492859
 20
-48.036234733
 10
-5.4698564753
 20
-47.8685151833
 10
-5.6740608323
 20
-47.6977750817
 10
-5.8952539875
 20
-47.5194855396
 10
-6.1280903202
 20
-47.3375306596
 10
-6.5941938077
 20
-46.9781705379
  0
LWPOLYLINE
  5
36A
100
AcDbEntity
  8
0
100
AcDbPolyline
 62
7
  6
CONTINUOUS
 90
10
 70
0
 10
-27.8295834179
 20
10.2172176283
 10
-27.9074081273
 20
10.6654575873
 10
-27.9807471887
 20
11.1124787858
 10
-28.0496006022
 20
11.5582812237
 10
-28.113928357
 20
12.0029463431
 10
-28.1737704639
 20
12.446392702
 10
-28.229246955
 20
12.8883759738
 10
-28.280397841
 20
13.3288147166
 10
-28.3271831112
 20
13.7677903723
 10
-28.3696027657
 20
14.2053029411
  0
LWPOLYLINE
  5
36B
100
AcDbEntity
  8
0
100
AcDbPolyline
 62
7
  6
CONTINUOUS
 90
10
 70
0
 10
-27.4017672171
 20
11.0682349455
 10
-27.4426055286
 20
11.3437995059
 10
-27.4863494463
 20
11.6528834983
 10
-27.5279632884
 20
11.9615076671
 10
-27.5674248495
 20
12.2696184555
 10
-27.6047563349
 20
12.5772694201
 10
-27.6400243607
 20
12.884621231
 10
-27.6732511322
 20
13.1917274448
 10
-27.7044144442
 20
13.4985345048
 10
-27.7335142966
 20
13.805042411
  0
LWPOLYLINE
  5
36C
100
AcDbEntity
  8
0
100
AcDbPolyline
 62
7
  6
CONTINUOUS
 90
10
 70
0
 10
-19.3333037161
 20
7.8102380541
 10
-19.2911432413
 20
7.3649838823
 10
-19.244705314
 20
6.9207506664
 10
-19.1939899341
 20
6.4775384064
 10
-19.1391380755
 20
6.0360704088
 10
-19.0800087642
 20
5.5956233671
 10
-19.016179079
 20
5.1540273611
 10
-18.9475080461
 20
4.7105590842
 10
-18.8741366393
 20
4.2659418431
 10
-18.7960648585
 20
3.8201756378
  0
LWPOLYLINE
  5
36D
100
AcDbEntity
  8
0
100
AcDbPolyline
 62
7
  6
CONTINUOUS
 90
10
 70
0
 10
-18.3940770365
 20
3.5377470237
 10
-18.3614952768
 20
3.9035485952
 10
-18.3251670292
 20
4.2698246289
 10
-18.2850922936
 20
4.6365751249
 10
-18.2412319517
 20
5.003873527
 10
-18.1936251219
 20
5.3716463913
 10
-18.1423891596
 20
5.7396733863
 10
-18.0875631833
 20
6.1078810682
 10
-18.0291080745
 20
6.4763428809
 10
-17.9670238332
 20
6.8450588242
  0
LINE
  5
36E
100
AcDbEntity
  8
0
100
AcDbLine
 62
7
  6
CONTINUOUS
 10
-17.7663974905
 20
3.3937040371
 11
-17.7908999999
 21
3.1142145966
  0
LINE
  5
36F
100
AcDbEntity
  8
0
100
AcDbLine
 62
7
  6
CONTINUOUS
 10
-17.7554049528
 20
3.1393133851
 11
-17.7308697131
 21
3.418863891
  0
LWPOLYLINE
  5
370
100
AcDbEntity
  8
0
100
AcDbPolyline
 62
7
  6
CONTINUOUS
 90
10
 70
0
 10
-21.6977375458
 20
5.9143222038
 10
-21.66542363
 20
6.2733061616
 10
-21.6291371984
 20
6.6345867376
 10
-21.588878251
 20
6.9981639316
 10
-21.5446388388
 20
7.3640962072
 10
-21.4964269109
 20
7.7323251009
 10
-21.4442663143
 20
8.1026752223
 10
-21.3881649983
 20
8.4750881078
 10
-21.3281150138
 20
8.8496222209
 10
-21.2641163606
 20
9.2262775617
  0
LINE
  5
371
100
AcDbEntity
  8
0
100
AcDbLine
 62
7
  6
CONTINUOUS
 10
-17.7398266035
 20
3.6724088119
 11
-17.7663974905
 21
3.3937040371
  0
LINE
  5
372
100
AcDbEntity
  8
0
100
AcDbLine
 62
7
  6
CONTINUOUS
 10
-17.7308697131
 20
3.418863891
 11
-17.7042650076
 21
3.6976093281
  0
LINE
  5
373
100
AcDbEntity
  8
0
100
AcDbLine
 62
7
  6
CONTINUOUS
 10
-17.7111994138
 20
3.9503120662
 11
-17.7398266035
 21
3.6724088119
  0
LINE
  5
374
100
AcDbEntity
  8
0
100
AcDbLine
 62
7
  6
CONTINUOUS
 10
-17.7042650076
 20
3.6976093281
 11
-17.6756031642
 21
3.9755323264
  0
LWPOLYLINE
  5
375
100
AcDbEntity
  8
0
100
AcDbPolyline
 62
7
  6
CONTINUOUS
 90
3
 70
0
 10
-17.6756031642
 20
3.9755323264
 10
-17.6449334935
 20
4.2525634055
 10
-17.6342529923
 20
4.3442856726
  0
LWPOLYLINE
  5
376
100
AcDbEntity
  8
0
100
AcDbPolyline
 62
7
  6
CONTINUOUS
 90
3
 70
0
 10
-17.664490607
 20
4.3655418993
 10
-17.6805642223
 20
4.2273463808
 10
-17.7111994138
 20
3.9503120662
  0
LINE
  5
377
100
AcDbEntity
  8
0
100
AcDbLine
 62
7
  6
CONTINUOUS
 10
-17.5709488786
 20
5.1627328133
 11
-17.5957171768
 21
4.9819723924
  0
LINE
  5
378
100
AcDbEntity
  8
0
100
AcDbLine
 62
7
  6
CONTINUOUS
 10
-17.5599721567
 20
5.0072479385
 11
-17.5351655049
 21
5.1880789858
  0
LINE
  5
379
100
AcDbEntity
  8
0
100
AcDbLine
 62
7
  6
CONTINUOUS
 10
-17.5452758474
 20
5.3437246223
 11
-17.5709488786
 21
5.1627328133
  0
LINE
  5
37A
100
AcDbEntity
  8
0
100
AcDbLine
 62
7
  6
CONTINUOUS
 10
-17.5351655049
 20
5.1880789858
 11
-17.5094564894
 21
5.3691149419
  0
LINE
  5
37B
100
AcDbEntity
  8
0
100
AcDbLine
 62
7
  6
CONTINUOUS
 10
-17.5186999331
 20
5.5249420122
 11
-17.5452758474
 21
5.3437246223
  0
LINE
  5
37C
100
AcDbEntity
  8
0
100
AcDbLine
 62
7
  6
CONTINUOUS
 10
-17.5094564894
 20
5.3691149419
 11
-17.4828471324
 21
5.5503498388
  0
LWPOLYLINE
  5
37D
100
AcDbEntity
  8
0
100
AcDbPolyline
 62
7
  6
CONTINUOUS
 90
3
 70
0
 10
-17.4828471324
 20
5.5503498388
 10
-17.4553455233
 20
5.7317598053
 10
-17.4483498414
 20
5.7768412493
  0
LWPOLYLINE
  5
37E
100
AcDbEntity
  8
0
100
AcDbPolyline
 62
7
  6
CONTINUOUS
 90
3
 70
0
 10
-17.4771565659
 20
5.7971489567
 10
-17.4912285344
 20
5.7063617529
 10
-17.5186999331
 20
5.5249420122
  0
LWPOLYLINE
  5
37F
100
AcDbEntity
  8
0
100
AcDbPolyline
 62
7
  6
CONTINUOUS
 90
10
 70
0
 10
-21.3322255016
 20
5.6060932489
 10
-21.1920025536
 20
5.8887012497
 10
-21.0479944063
 20
6.1737179239
 10
-20.9002010598
 20
6.4611432713
 10
-20.7486015795
 20
6.7510175678
 10
-20.5932169
 20
7.0433005376
 10
-20.4341098245
 20
7.337871353
 10
-20.2713012875
 20
7.6346897383
 10
-20.1047703545
 20
7.9337959694
 10
-19.9345170255
 20
8.2351900461
  0
LINE
  5
380
100
AcDbEntity
  8
0
100
AcDbLine
 62
7
  6
CONTINUOUS
 10
-20.6211086225
 20
5.4023561224
 11
-20.7304133897
 21
5.1816147452
  0
LINE
  5
381
100
AcDbEntity
  8
0
100
AcDbLine
 62
7
  6
CONTINUOUS
 10
-20.6949156369
 20
5.206715447
 11
-20.5717487782
 21
5.4551814659
  0
LINE
  5
382
100
AcDbEntity
  8
0
100
AcDbLine
 62
7
  6
CONTINUOUS
 10
-20.5717487782
 20
5.4551814659
 11
-20.4629618583
 21
5.6713390097
  0
LWPOLYLINE
  5
383
100
AcDbEntity
  8
0
100
AcDbPolyline
 62
7
  6
CONTINUOUS
 90
3
 70
0
 10
-20.4811379293
 20
5.6805420532
 10
-20.5094282149
 20
5.6247055837
 10
-20.6211086225
 20
5.4023561224
  0
LINE
  5
384
100
AcDbEntity
  8
0
100
AcDbLine
 62
7
  6
CONTINUOUS
 10
-20.0897607095
 20
6.434544503
 11
-20.2285688512
 21
6.1708640072
  0
LINE
  5
385
100
AcDbEntity
  8
0
100
AcDbLine
 62
7
  6
CONTINUOUS
 10
-20.1929112309
 20
6.1960777523
 11
-20.0540516005
 21
6.4597939809
  0
LINE
  5
386
100
AcDbEntity
  8
0
100
AcDbLine
 62
7
  6
CONTINUOUS
 10
-19.948006089
 20
6.6999079278
 11
-20.0897607095
 21
6.434544503
  0
LINE
  5
387
100
AcDbEntity
  8
0
100
AcDbLine
 62
7
  6
CONTINUOUS
 10
-20.0540516005
 20
6.4597939809
 11
-19.9122403762
 21
6.7251977018
  0
LINE
  5
388
100
AcDbEntity
  8
0
100
AcDbLine
 62
7
  6
CONTINUOUS
 10
-19.8033298901
 20
6.9669127991
 11
-19.948006089
 21
6.6999079278
  0
LINE
  5
389
100
AcDbEntity
  8
0
100
AcDbLine
 62
7
  6
CONTINUOUS
 10
-19.9122403762
 20
6.7251977018
 11
-19.799381485
 21
6.933702556
  0
LINE
  5
38A
100
AcDbEntity
  8
0
100
AcDbLine
 62
7
  6
CONTINUOUS
 10
-23.2955390244
 20
10.6622178207
 11
-23.3315877115
 21
10.6367275496
  0
LINE
  5
38B
100
AcDbEntity
  8
0
100
AcDbLine
 62
7
  6
CONTINUOUS
 10
-25.2353146766
 20
8.4202804257
 11
-25.2708114065
 21
8.3951804472
  0
LINE
  5
38C
100
AcDbEntity
  8
0
100
AcDbLine
 62
7
  6
CONTINUOUS
 10
-22.1728049538
 20
9.8687566955
 11
-22.2088548183
 21
9.8432655919
  0
LINE
  5
38D
100
AcDbEntity
  8
0
100
AcDbLine
 62
7
  6
CONTINUOUS
 10
-24.0356303782
 20
7.5685423283
 11
-24.0711280847
 21
7.5434416593
  0
LINE
  5
38E
100
AcDbEntity
  8
0
100
AcDbLine
 62
7
  6
CONTINUOUS
 10
-21.2641163606
 20
9.2262775617
 11
-21.300165974
 21
9.2007866356
  0
LINE
  5
38F
100
AcDbEntity
  8
0
100
AcDbLine
 62
7
  6
CONTINUOUS
 10
-22.8672629919
 20
6.7410459012
 11
-22.9027616063
 21
6.7159445902
  0
LINE
  5
390
100
AcDbEntity
  8
0
100
AcDbLine
 62
7
  6
CONTINUOUS
 10
-19.8984707503
 20
8.2606786117
 11
-19.9345170255
 21
8.2351900461
  0
LINE
  5
391
100
AcDbEntity
  8
0
100
AcDbLine
 62
7
  6
CONTINUOUS
 10
-19.2972600533
 20
7.8357247724
 11
-19.3333037161
 21
7.8102380541
  0
LINE
  5
392
100
AcDbEntity
  8
0
100
AcDbLine
 62
7
  6
CONTINUOUS
 10
-21.6977375458
 20
5.9143222038
 11
-21.7332361388
 21
5.8892209079
  0
LINE
  5
393
100
AcDbEntity
  8
0
100
AcDbLine
 62
7
  6
CONTINUOUS
 10
-20.1929112309
 20
6.1960777523
 11
-20.2285688512
 21
6.1708640072
  0
LINE
  5
394
100
AcDbEntity
  8
RACCORDO
100
AcDbLine
 62
7
  6
CONTINUOUS
 10
15.8626981453
 20
-18.0884062609
 11
22.384739276
 21
-17.3111643254
  0
LINE
  5
395
100
AcDbEntity
  8
DRAFT
100
AcDbLine
 62
7
  6
CONTINUOUS
 10
15.8737358932
 20
-18.2791378448
 11
21.8874026217
 21
-17.5851634132
  0
LWPOLYLINE
  5
396
100
AcDbEntity
  8
COPY_PABLISH
100
AcDbPolyline
 62
7
  6
CONTINUOUS
 90
16
 70
0
 10
15.8626981453
 20
-18.0884062609
 10
15.7342091101
 20
-18.0992042327
 10
15.5989379697
 20
-18.1027906766
 10
15.4568847239
 20
-18.0991655925
 10
15.3062912547
 20
-18.0879924137
 10
15.1489156801
 20
-18.0696077069
 10
14.9900323547
 20
-18.0450211728
 10
14.8306000794
 20
-18.0142180221
 10
14.6696600532
 20
-17.977213044
 10
14.5096102279
 20
-17.9350603069
 10
14.3500133684
 20
-17.887543324
 10
14.1913067098
 20
-17.8348785821
 10
14.0371999084
 20
-17.77876961
 10
13.8889295162
 20
-17.7197842506
 10
13.7452589812
 20
-17.6573546609
 10
13.6061883034
 20
-17.591480841
  0
LWPOLYLINE
  5
397
100
AcDbEntity
  8
DRAFT
100
AcDbPolyline
 62
7
  6
CONTINUOUS
 90
13
 70
0
 10
15.8737358932
 20
-18.2791378448
 10
15.6891486124
 20
-18.2880756153
 10
15.5016082165
 20
-18.2862333682
 10
15.3111147055
 20
-18.2736111037
 10
15.1154965849
 20
-18.2488089105
 10
14.9169253492
 20
-18.2132266998
 10
14.7219154814
 20
-18.1710642052
 10
14.5314556687
 20
-18.1228589211
 10
14.3445572238
 20
-18.0680733531
 10
14.1647685679
 20
-18.009294752
 10
13.993272508
 20
-17.9473855349
 10
13.8288862369
 20
-17.8814832848
 10
13.6716097549
 20
-17.8115880016
  0
LWPOLYLINE
  5
398
100
AcDbEntity
  8
0
100
AcDbPolyline
 62
250
  6
CONTINUOUS
 90
10
 70
0
 10
3.464080662
 20
-19.2163237802
 10
3.6755448703
 20
-19.2431635832
 10
3.8836843389
 20
-19.2806271102
 10
4.0874358131
 20
-19.3285124565
 10
4.2857986109
 20
-19.3865793481
 10
4.4777218339
 20
-19.454510395
 10
4.6621230025
 20
-19.5318936532
 10
4.8380474075
 20
-19.61828843
 10
5.0046590131
 20
-19.7132468439
 10
5.1611360343
 20
-19.8162629211
  0
LWPOLYLINE
  5
399
100
AcDbEntity
  8
0
100
AcDbPolyline
 62
7
  6
CONTINUOUS
 90
11
 70
0
 10
56.0319787648
 20
-26.9752903584
 10
56.0710647142
 20
-26.9806656211
 10
56.1079787134
 20
-26.9842568713
 10
56.1425929546
 20
-26.9861379034
 10
56.174749385
 20
-26.9865272377
 10
56.2043707699
 20
-26.9853731412
 10
56.2314308484
 20
-26.9823409253
 10
56.2557675199
 20
-26.977552604
 10
56.2772841179
 20
-26.9710668096
 10
56.2959708081
 20
-26.9624363313
 10
56.3067535642
 20
-26.9555540175
  0
LWPOLYLINE
  5
39A
100
AcDbEntity
  8
0
100
AcDbPolyline
 62
7
  6
CONTINUOUS
 90
8
 70
0
 10
39.8494380655
 20
-27.1438505033
 10
40.2305613343
 20
-27.2278668396
 10
40.6358045115
 20
-27.2696697013
 10
41.0599985791
 20
-27.2687258786
 10
41.5033862944
 20
-27.2244877944
 10
41.9657249
 20
-27.1375030257
 10
42.441117106
 20
-27.0088810935
 10
42.9297301266
 20
-26.8380886336
  0
LWPOLYLINE
  5
39B
100
AcDbEntity
  8
0
100
AcDbPolyline
 62
7
  6
CONTINUOUS
 90
28
 70
0
 10
13.6534332675
 20
-27.3719585117
 10
13.7348997366
 20
-27.3970781053
 10
13.817867797
 20
-27.4196143866
 10
13.9021737822
 20
-27.4395227355
 10
13.9876515471
 20
-27.456764136
 10
14.0741321979
 20
-27.4713040191
 10
14.1614444024
 20
-27.4831123953
 10
14.2494157889
 20
-27.492165911
 10
14.3378725716
 20
-27.4984466836
 10
14.426639269
 20
-27.501941224
 10
14.5155405136
 20
-27.5026427253
 10
14.6044006087
 20
-27.5005498871
 10
14.6930431354
 20
-27.4956659081
 10
14.7812929054
 20
-27.4880006407
 10
14.868975452
 20
-27.4775694297
 10
14.9559165971
 20
-27.4643921158
 10
15.041944488
 20
-27.4484950463
 10
15.1268890332
 20
-27.4299099459
 10
15.2105814413
 20
-27.4086729479
 10
15.2928562962
 20
-27.3848264285
 10
15.3735509518
 20
-27.3584179283
 10
15.4525050578
 20
-27.3294992237
 10
15.5294976226
 20
-27.2981557815
 10
15.6044450098
 20
-27.2644263123
 10
15.6773823352
 20
-27.2282817476
 10
15.7482065401
 20
-27.1897427802
 10
15.8166948324
 20
-27.1488999039
 10
15.8826901967
 20
-27.1058191039
  0
LWPOLYLINE
  5
39C
100
AcDbEntity
  8
RACCORDO
100
AcDbPolyline
 62
250
  6
CONTINUOUS
 90
9
 70
0
 10
-48.0132870315
 20
15.9826881377
 10
-48.0833261794
 20
16.0376914251
 10
-48.1448507548
 20
16.0975701865
 10
-48.1971866817
 20
16.1616683778
 10
-48.2397605569
 20
16.2292837261
 10
-48.2721059324
 20
16.2996754237
 10
-48.2938684254
 20
16.3720722448
 10
-48.3048096018
 20
16.4456809948
 10
-48.3061800595
 20
16.4826880028
  0
LINE
  5
39D
100
AcDbEntity
  8
COPY_PABLISH
100
AcDbLine
 62
7
  6
CONTINUOUS
 10
-56.0825782447
 20
31.6624426988
 11
-56.1183301969
 21
31.7032671819
  0
LINE
  5
39E
100
AcDbEntity
  8
COPY_PABLISH
100
AcDbLine
 62
7
  6
CONTINUOUS
 10
-56.1183301969
 20
31.7032671819
 11
-56.1361892364
 21
31.7238272542
  0
LWPOLYLINE
  5
39F
100
AcDbEntity
  8
0
100
AcDbPolyline
 62
250
  6
CONTINUOUS
 90
4
 70
0
 10
10.5995776643
 20
-65.5815727742
 10
10.6656674175
 20
-65.7216993599
 10
10.7585780498
 20
-65.8322934544
 10
10.8164491197
 20
-65.8772479954
  0
LWPOLYLINE
  5
3A0
100
AcDbEntity
  8
0
100
AcDbPolyline
 62
250
  6
CONTINUOUS
 90
3
 70
0
 10
-2.2554698584
 20
-52.4543027755
 10
-1.9740758151
 20
-53.1502483957
 10
-1.4166856484
 20
-54.5288889291
  0
LWPOLYLINE
  5
3A1
100
AcDbEntity
  8
0
100
AcDbPolyline
 62
250
  6
CONTINUOUS
 90
5
 70
0
 10
-2.7794700496
 20
-52.4449726511
 10
-2.5228921551
 20
-53.0806546589
 10
-2.2709798253
 20
-53.7294234186
 10
-2.0302195558
 20
-54.3691650513
 10
-1.7937977001
 20
-55.0082570703
  0
LWPOLYLINE
  5
3A2
100
AcDbEntity
  8
0
100
AcDbPolyline
 62
250
  6
CONTINUOUS
 90
6
 70
0
 10
-1.4166856484
 20
-54.5288889291
 10
-0.8845687254
 20
-55.8634482864
 10
-0.6136803272
 20
-56.514979255
 10
-0.3304167426
 20
-57.1586422131
 10
-0.0402630495
 20
-57.7899481756
 10
0.257792137
 20
-58.4051755317
  0
LWPOLYLINE
  5
3A3
100
AcDbEntity
  8
0
100
AcDbPolyline
 62
250
  6
CONTINUOUS
 90
5
 70
0
 10
-1.7937977001
 20
-55.0082570703
 10
-1.3154433295
 20
-56.3103224205
 10
-1.0759247682
 20
-56.9537661784
 10
-0.839692723
 20
-57.5708444418
 10
-0.6112563453
 20
-58.152447597
  0
LINE
  5
3A4
100
AcDbEntity
  8
0
100
AcDbLine
 62
7
  6
CONTINUOUS
 10
-19.3988499099
 20
4.2439923114
 11
-19.4442280531
 21
4.5000092551
  0
LWPOLYLINE
  5
3A5
100
AcDbEntity
  8
0
100
AcDbPolyline
 62
7
  6
CONTINUOUS
 90
10
 70
0
 10
-18.7605690484
 20
3.8452749658
 10
-18.8386720325
 20
4.2915411681
 10
-18.9120426035
 20
4.7364872556
 10
-18.9806807613
 20
5.1801132283
 10
-19.0444335052
 20
5.6216198966
 10
-19.1034538359
 20
6.0618064501
 10
-19.1582007559
 20
6.5030704575
 10
-19.2088272658
 20
6.9462111085
 10
-19.255180365
 20
7.3904292135
 10
-19.2972600533
 20
7.8357247724
  0
LINE
  5
3A6
100
AcDbEntity
  8
0
100
AcDbLine
 62
7
  6
CONTINUOUS
 10
-19.4442280531
 20
4.5000092551
 11
-19.4879801037
 21
4.7555324964
  0
LINE
  5
3A7
100
AcDbEntity
  8
0
100
AcDbLine
 62
7
  6
CONTINUOUS
 10
-19.4879801037
 20
4.7555324964
 11
-19.5301151524
 21
5.0105377079
  0
LWPOLYLINE
  5
3A8
100
AcDbEntity
  8
0
100
AcDbPolyline
 62
7
  6
CONTINUOUS
 90
10
 70
0
 10
-23.503510809
 20
7.1411546841
 10
-23.546104974
 20
7.4217360837
 10
-23.5869329767
 20
7.7032874763
 10
-23.6259948171
 20
7.9858088617
 10
-23.6632936026
 20
8.2693272654
 10
-23.6988262258
 20
8.553815662
 10
-23.7325833644
 20
8.8391929753
 10
-23.7645619109
 20
9.1254321799
 10
-23.7947649729
 20
9.4125603013
 10
-23.8231925502
 20
9.7005773393
  0
LINE
  5
3A9
100
AcDbEntity
  8
0
100
AcDbLine
 62
7
  6
CONTINUOUS
 10
-19.645117688
 20
5.7595212812
 11
-19.6830594522
 21
6.0271856756
  0
LINE
  5
3AA
100
AcDbEntity
  8
0
100
AcDbLine
 62
7
  6
CONTINUOUS
 10
-19.6830594522
 20
6.0271856756
 11
-19.7193853143
 21
6.2950392048
  0
LINE
  5
3AB
100
AcDbEntity
  8
0
100
AcDbLine
 62
7
  6
CONTINUOUS
 10
-19.7193853143
 20
6.2950392048
 11
-19.754112435
 21
6.5632033576
  0
LWPOLYLINE
  5
3AC
100
AcDbEntity
  8
0
100
AcDbPolyline
 62
7
  6
CONTINUOUS
 90
4
 70
0
 10
-10.7132053154
 20
-55.9259779332
 10
-10.6983526625
 20
-56.0461588915
 10
-10.6583905491
 20
-56.1464702638
 10
-10.5749850799
 20
-56.2069341897
  0
LWPOLYLINE
  5
3AD
100
AcDbEntity
  8
0
100
AcDbPolyline
 62
7
  6
CONTINUOUS
 90
3
 70
0
 10
-19.754112435
 20
6.5632033576
 10
-19.7873094566
 20
6.8321640888
 10
-19.8033298901
 20
6.9669127991
  0
LINE
  5
3AE
100
AcDbEntity
  8
0
100
AcDbLine
 62
7
  6
CONTINUOUS
 10
-23.0584946164
 20
8.1227787934
 11
-23.0876008049
 21
8.3658531265
  0
LWPOLYLINE
  5
3AF
100
AcDbEntity
  8
0
100
AcDbPolyline
 62
7
  6
CONTINUOUS
 90
9
 70
0
 10
-23.0876008049
 20
8.3658531265
 10
-23.1197770084
 20
8.6501268
 10
-23.1501872571
 20
8.9352132077
 10
-23.1788324646
 20
9.2211338775
 10
-23.2057117171
 20
9.5078672815
 10
-23.2308222735
 20
9.7953488361
 10
-23.2541632199
 20
10.0835570136
 10
-23.2757354702
 20
10.3725133418
 10
-23.2955390244
 20
10.6622178207
  0
LWPOLYLINE
  5
3B0
100
AcDbEntity
  8
0
100
AcDbPolyline
 62
7
  6
CONTINUOUS
 90
23
 70
0
 10
-15.954394753
 20
3.7670288874
 10
-15.9127820174
 20
3.8126771455
 10
-15.8760112923
 20
3.863645575
 10
-15.8437762387
 20
3.9199778679
 10
-15.815090941
 20
3.9841853088
 10
-15.7903985528
 20
4.0575845257
 10
-15.7709417281
 20
4.1394473473
 10
-15.7576423782
 20
4.2297885525
 10
-15.7511783354
 20
4.3291587452
 10
-15.7524667626
 20
4.4367130715
 10
-15.7623587734
 20
4.5499346136
 10
-15.780860601
 20
4.6674348812
 10
-15.8081727452
 20
4.7888845426
 10
-15.8449299754
 20
4.9129684504
 10
-15.8911832515
 20
5.0389936882
 10
-15.9465862126
 20
5.1652183811
 10
-16.0108006286
 20
5.2886338255
 10
-16.0834778574
 20
5.4081609061
 10
-16.1634781183
 20
5.5220867333
 10
-16.2486422452
 20
5.6268333664
 10
-16.3373681654
 20
5.7208297205
 10
-16.4289268118
 20
5.8041337499
 10
-16.5222524524
 20
5.8761813295
  0
LWPOLYLINE
  5
3B1
100
AcDbEntity
  8
0
100
AcDbPolyline
 62
7
  6
CONTINUOUS
 90
16
 70
0
 10
18.6474084583
 20
35.8920676801
 10
18.9077229368
 20
36.1378067155
 10
19.1528040846
 20
36.3918423507
 10
19.3812567519
 20
36.6527284614
 10
19.5929860995
 20
36.920504119
 10
19.7880869666
 20
37.1951302521
 10
19.9654487214
 20
37.4750435232
 10
20.1249701902
 20
37.7602740871
 10
20.2667525466
 20
38.050791789
 10
20.3899886801
 20
38.3449428268
 10
20.4945728135
 20
38.6427479231
 10
20.5806107239
 20
38.9441863553
 10
20.6476126316
 20
39.247542154
 10
20.6954699662
 20
39.5528262548
 10
20.7242912981
 20
39.8600277221
 10
20.7331775737
 20
40.0817747755
  0
LWPOLYLINE
  5
3B2
100
AcDbEntity
  8
0
100
AcDbPolyline
 62
7
  6
CONTINUOUS
 90
18
 70
0
 10
-16.5400008638
 20
4.4266062494
 10
-16.5282097419
 20
4.4356397842
 10
-16.4997593204
 20
4.4644505225
 10
-16.475626458
 20
4.500502591
 10
-16.4565451366
 20
4.5433665134
 10
-16.4432820351
 20
4.5923371204
 10
-16.43610834
 20
4.6470078711
 10
-16.4353195192
 20
4.7065241639
 10
-16.4413566396
 20
4.7691748561
 10
-16.4540438536
 20
4.8339686843
 10
-16.4730485507
 20
4.8997958628
 10
-16.4980471253
 20
4.9645712081
 10
-16.5279907994
 20
5.0264887851
 10
-16.5624041169
 20
5.0853186868
 10
-16.6018253304
 20
5.141236552
 10
-16.6460825292
 20
5.1934383704
 10
-16.6939981214
 20
5.2403744375
 10
-16.7446831718
 20
5.2808924465
  0
LINE
  5
3B3
100
AcDbEntity
  8
0
100
AcDbLine
 62
7
  6
CONTINUOUS
 10
-20.6949156369
 20
5.206715447
 11
-20.7304133897
 21
5.1816147452
  0
LINE
  5
3B4
100
AcDbEntity
  8
0
100
AcDbLine
 62
7
  6
CONTINUOUS
 10
-17.9309883046
 20
6.8705397909
 11
-17.9670238332
 21
6.8450588242
  0
LINE
  5
3B5
100
AcDbEntity
  8
0
100
AcDbLine
 62
7
  6
CONTINUOUS
 10
-16.5222528186
 20
5.8761792059
 11
-16.5582771759
 21
5.8507061386
  0
LINE
  5
3B6
100
AcDbEntity
  8
0
100
AcDbLine
 62
7
  6
CONTINUOUS
 10
-17.5599721567
 20
5.0072479385
 11
-17.5957171768
 21
4.9819723924
  0
LINE
  5
3B7
100
AcDbEntity
  8
0
100
AcDbLine
 62
7
  6
CONTINUOUS
 10
-18.7605690484
 20
3.8452749658
 11
-18.7960648585
 21
3.8201756378
  0
LINE
  5
3B8
100
AcDbEntity
  8
0
100
AcDbLine
 62
7
  6
CONTINUOUS
 10
-16.8268760012
 20
4.4914432013
 11
-16.8626170094
 21
4.466170492
  0
LINE
  5
3B9
100
AcDbEntity
  8
0
100
AcDbLine
 62
7
  6
CONTINUOUS
 10
-17.7554049528
 20
3.1393133851
 11
-17.7908999999
 21
3.1142145966
  0
LINE
  5
3BA
100
AcDbEntity
  8
ASSI
100
AcDbLine
 62
7
  6
CONTINUOUS
 10
-16.0482897734
 20
3.6933159697
 11
-16.0125843733
 21
3.7185635001
  0
LWPOLYLINE
  5
3BB
100
AcDbEntity
  8
0
100
AcDbPolyline
 62
7
  6
CONTINUOUS
 90
8
 70
0
 10
-16.0483164476
 20
3.6932971081
 10
-16.0930734451
 20
3.6653033505
 10
-16.150588161
 20
3.6386740849
 10
-16.2130707648
 20
3.6195196516
 10
-16.2786508043
 20
3.6086017476
 10
-16.3462584313
 20
3.6058582471
 10
-16.4159717001
 20
3.6110067895
 10
-16.4873174499
 20
3.6238638096
  0
LWPOLYLINE
  5
3BC
100
AcDbEntity
  8
0
100
AcDbPolyline
 62
7
  6
CONTINUOUS
 90
8
 70
0
 10
-16.5238971187
 20
4.4400070256
 10
-16.5275874453
 20
4.4377751302
 10
-16.5637531905
 20
4.4237418297
 10
-16.6022958976
 20
4.4169437068
 10
-16.6428341957
 20
4.4170950283
 10
-16.6859457117
 20
4.4243491112
 10
-16.731584111
 20
4.439141946
 10
-16.7787888174
 20
4.4615134208
  0
LWPOLYLINE
  5
3BD
100
AcDbEntity
  8
0
100
AcDbPolyline
 62
250
  6
CONTINUOUS
 90
10
 70
0
 10
13.6214055695
 20
-20.9999211503
 10
13.8726761994
 20
-21.0688013345
 10
14.134425603
 20
-21.1131126384
 10
14.4018817406
 20
-21.1321538866
 10
14.6703758687
 20
-21.1256835618
 10
14.9348930861
 20
-21.0938921296
 10
15.1901989219
 20
-21.0375600585
 10
15.4316758555
 20
-20.9579895653
 10
15.6553579403
 20
-20.8568066182
 10
15.8574879827
 20
-20.7360111143
  0
LWPOLYLINE
  5
3BE
100
AcDbEntity
  8
DRAFT
100
AcDbPolyline
 62
7
  6
CONTINUOUS
 90
10
 70
0
 10
13.6716097549
 20
-17.8115880016
 10
13.6621846981
 20
-17.8088075084
 10
13.6528113416
 20
-17.8059951823
 10
13.6434896855
 20
-17.8031510233
 10
13.6342193337
 20
-17.8002750061
 10
13.6250006822
 20
-17.7973671559
 10
13.6158349188
 20
-17.7944275482
 10
13.6067224394
 20
-17.7914562079
 10
13.5976628481
 20
-17.7884531101
 10
13.5886561449
 20
-17.7854182546
  0
LINE
  5
3BF
100
AcDbEntity
  8
COPY_PABLISH
100
AcDbLine
 62
7
  6
CONTINUOUS
 10
13.0933973583
 20
-17.3962137306
 11
13.4966255522
 21
-17.5375711245
  0
LWPOLYLINE
  5
3C0
100
AcDbEntity
  8
DRAFT
100
AcDbPolyline
 62
7
  6
CONTINUOUS
 90
13
 70
0
 10
13.5886561449
 20
-17.7854182546
 10
12.9753240067
 20
-17.5663747587
 10
12.3871308482
 20
-17.3459001797
 10
11.8240766694
 20
-17.1239945178
 10
11.2869984577
 20
-16.8999012018
 10
10.7750592257
 20
-16.6743768027
 10
10.285748011
 20
-16.4496910337
 10
9.8193135676
 20
-16.2262059468
 10
9.3755071415
 20
-16.0035594899
 10
8.9510715075
 20
-15.78293522
 10
8.5449209238
 20
-15.5647276559
 10
8.1581411322
 20
-15.3485422788
 10
7.7907321326
 20
-15.1343790885
  0
LWPOLYLINE
  5
3C1
100
AcDbEntity
  8
0
100
AcDbPolyline
 62
250
  6
CONTINUOUS
 90
4
 70
0
 10
0.6869842501
 20
-15.339049233
 10
0.6731661328
 20
-15.3322869745
 10
0.6496540046
 20
-15.3085736269
 10
0.6290192372
 20
-15.2817175867
  0
LWPOLYLINE
  5
3C2
100
AcDbEntity
  8
RACCORDO
100
AcDbPolyline
 62
250
  6
CONTINUOUS
 90
16
 70
0
 10
0.4235278614
 20
-18.2673121321
 10
0.5013123516
 20
-18.3168362137
 10
0.5859918199
 20
-18.3603400208
 10
0.6766386071
 20
-18.3973468677
 10
0.7722596652
 20
-18.427451242
 10
0.8718074198
 20
-18.4503232431
 10
0.9741912444
 20
-18.4657122034
 10
1.0782894483
 20
-18.473449442
 10
1.1829615146
 20
-18.4734501066
 10
1.2870605792
 20
-18.4657141155
 10
1.3894461003
 20
-18.4503261565
 10
1.4889962738
 20
-18.4274547592
 10
1.5846202805
 20
-18.3973504741
 10
1.6752703653
 20
-18.3603431032
 10
1.7599533083
 20
-18.3168380679
 10
1.8377412329
 20
-18.2673119937
  0
LWPOLYLINE
  5
3C3
100
AcDbEntity
  8
RACCORDO
100
AcDbPolyline
 62
250
  6
CONTINUOUS
 90
19
 70
0
 10
-47.446608415
 20
16.1486644617
 10
-47.4964206106
 20
16.1816358009
 10
-47.545177121
 20
16.2097106667
 10
-47.5928779463
 20
16.2328890591
 10
-47.6398809234
 20
16.2512856367
 10
-47.6858282153
 20
16.2647857409
 10
-47.7296463107
 20
16.2730453952
 10
-47.7712827346
 20
16.2759361108
 10
-47.8107899619
 20
16.2735863766
 10
-47.8472519062
 20
16.2660376822
 10
-47.880590863
 20
16.2531668956
 10
-47.9108845369
 20
16.2350971489
 10
-47.9374499551
 20
16.2122393289
 10
-47.9602037608
 20
16.1844591574
 10
-47.9792293108
 20
16.1518909126
 10
-47.9940937031
 20
16.1153483161
 10
-48.0046526369
 20
16.0751026084
 10
-48.0110504131
 20
16.0308825489
 10
-48.0132870315
 20
15.9826881377
  0
LWPOLYLINE
  5
3C4
100
AcDbEntity
  8
RACCORDO
100
AcDbPolyline
 62
250
  6
CONTINUOUS
 90
12
 70
0
 10
-46.7395016338
 20
17.3557714336
 10
-46.850429813
 20
17.429370194
 10
-46.9605122613
 20
17.492729593
 10
-47.0689126813
 20
17.5453690537
 10
-47.1747911073
 20
17.5868838171
 10
-47.2773610013
 20
17.6169686866
 10
-47.3758894882
 20
17.6354020642
 10
-47.4696500562
 20
17.6420282401
 10
-47.5578904826
 20
17.6367732316
 10
-47.6398942412
 20
17.6196717044
 10
-47.7150251319
 20
17.5908599882
 10
-47.7792680228
 20
17.5530211835
  0
LINE
  5
3C5
100
AcDbEntity
  8
RACCORDO
100
AcDbLine
 62
250
  6
CONTINUOUS
 10
-0.1431507551
 20
-17.2999312232
 11
-47.446608415
 21
16.1486644617
  0
LINE
  5
3C6
100
AcDbEntity
  8
RACCORDO
100
AcDbLine
 62
250
  6
CONTINUOUS
 10
0.5639560261
 20
-16.0928246328
 11
-46.7395016338
 21
17.3557710521
  0
LINE
  5
3C7
100
AcDbEntity
  8
0
100
AcDbLine
 62
7
  6
CONTINUOUS
 10
0.6946406508
 20
-15.3493059377
 11
-46.6106862515
 21
18.1006115012
  0
LINE
  5
3C8
100
AcDbEntity
  8
0
100
AcDbLine
 62
250
  6
CONTINUOUS
 10
0.7062874401
 20
-14.5085571692
 11
-46.5989671158
 21
18.9413091029
  0
LINE
  5
3C9
100
AcDbEntity
  8
0
100
AcDbLine
 62
7
  6
CONTINUOUS
 10
0.6869842501
 20
-15.339049233
 11
0.7733043677
 21
-15.4024160021
  0
LWPOLYLINE
  5
3CA
100
AcDbEntity
  8
0
100
AcDbPolyline
 62
250
  6
CONTINUOUS
 90
10
 70
0
 10
-50.2053107905
 20
19.3337339995
 10
-50.0589312272
 20
19.2225208665
 10
-49.9242212562
 20
19.1042256764
 10
-49.8018602827
 20
18.9794609466
 10
-49.6924432103
 20
18.8488474326
 10
-49.5965435058
 20
18.7130807521
 10
-49.514683499
 20
18.5729374287
 10
-49.4472551126
 20
18.4291709447
 10
-49.3945454245
 20
18.2824983563
 10
-49.3567827297
 20
18.1336730911
  0
LWPOLYLINE
  5
3CB
100
AcDbEntity
  8
0
100
AcDbPolyline
 62
7
  6
CONTINUOUS
 90
5
 70
0
 10
0.7733043677
 20
-15.4024160021
 10
0.9011516604
 20
-15.5046200585
 10
1.0339471957
 20
-15.6213241908
 10
1.1699877324
 20
-15.7520791987
 10
1.306390984
 20
-15.8947953743
  0
LINE
  5
3CC
100
AcDbEntity
  8
0
100
AcDbLine
 62
250
  6
CONTINUOUS
 10
0.9594510753
 20
-15.5305602651
 11
0.6112850246
 21
-15.2519198875
  0
LINE
  5
3CD
100
AcDbEntity
  8
0
100
AcDbLine
 62
7
  6
CONTINUOUS
 10
-51.0164951369
 20
27.2070205735
 11
-50.9829262134
 21
27.1799199674
  0
LWPOLYLINE
  5
3CE
100
AcDbEntity
  8
DRAFT
100
AcDbPolyline
 62
7
  6
CONTINUOUS
 90
3
 70
0
 10
-52.3862359832
 20
27.4140786855
 10
-52.5019091393
 20
27.513179046
 10
-52.6171708552
 20
27.6131589807
  0
LINE
  5
3CF
100
AcDbEntity
  8
0
100
AcDbLine
 62
7
  6
CONTINUOUS
 10
-51.0602032617
 20
27.2451387264
 11
-51.0164951369
 21
27.2070205735
  0
LWPOLYLINE
  5
3D0
100
AcDbEntity
  8
DRAFT
100
AcDbPolyline
 62
7
  6
CONTINUOUS
 90
32
 70
0
 10
-52.6171708552
 20
27.6131589807
 10
-52.7320211308
 20
27.7140184897
 10
-52.8465924524
 20
27.8158998684
 10
-52.9607523339
 20
27.9186608213
 10
-53.0741033167
 20
28.0218744619
 10
-53.1867001769
 20
28.1255139943
 10
-53.2984881385
 20
28.2296062143
 10
-53.4089054156
 20
28.3338046229
 10
-53.5178162353
 20
28.4380090028
 10
-53.6253563704
 20
28.5423195712
 10
-53.7313713538
 20
28.6466904814
 10
-53.8353308855
 20
28.7506124243
 10
-53.9377652653
 20
28.854594709
 10
-54.0401109256
 20
28.9601194161
 10
-54.1422564245
 20
29.0670483179
 10
-54.2443132037
 20
29.175519642
 10
-54.3480520212
 20
29.2874301521
 10
-54.4537367971
 20
29.4029175113
 10
-54.5611036112
 20
29.5218440563
 10
-54.6711314603
 20
29.6456935613
 10
-54.7844088287
 20
29.7749950594
 10
-54.900347232
 20
29.9092195175
 10
-55.0181602143
 20
30.0482636101
 10
-55.1378147542
 20
30.1920575981
 10
-55.2593438731
 20
30.3406712208
 10
-55.3820601792
 20
30.4942103706
 10
-55.5057831089
 20
30.6524492108
 10
-55.6306932258
 20
30.8156135781
 10
-55.7566448292
 20
30.9844868755
 10
-55.8835893524
 20
31.1593302374
 10
-56.0115753621
 20
31.3398825295
 10
-56.1406028584
 20
31.5261437517
  0
LINE
  5
3D1
100
AcDbEntity
  8
0
100
AcDbLine
 62
7
  6
CONTINUOUS
 10
-16.6594456553
 20
2.3204496362
 11
-16.7716225969
 21
2.69592747
  0
LINE
  5
3D2
100
AcDbEntity
  8
0
100
AcDbLine
 62
7
  6
CONTINUOUS
 10
-16.0988214604
 20
2.2430668875
 11
-15.9795148157
 21
1.8438111218
  0
LINE
  5
3D3
100
AcDbEntity
  8
0
100
AcDbLine
 62
7
  6
CONTINUOUS
 10
-15.9440207757
 20
1.8689091982
 11
-16.0632989684
 21
2.2681889296
  0
LINE
  5
3D4
100
AcDbEntity
  8
0
100
AcDbLine
 62
7
  6
CONTINUOUS
 10
-16.7716225969
 20
2.69592747
 11
-16.8805055616
 21
3.0696023061
  0
LINE
  5
3D5
100
AcDbEntity
  8
0
100
AcDbLine
 62
7
  6
CONTINUOUS
 10
-16.2144392623
 20
2.6402341998
 11
-16.0988214604
 21
2.2430668875
  0
LINE
  5
3D6
100
AcDbEntity
  8
0
100
AcDbLine
 62
7
  6
CONTINUOUS
 10
-16.0632989684
 20
2.2681889296
 11
-16.1788843955
 21
2.6653814794
  0
LINE
  5
3D7
100
AcDbEntity
  8
0
100
AcDbLine
 62
7
  6
CONTINUOUS
 10
-16.8805055616
 20
3.0696023061
 11
-16.9860940539
 21
3.4414584515
  0
LINE
  5
3D8
100
AcDbEntity
  8
0
100
AcDbLine
 62
7
  6
CONTINUOUS
 10
-16.3263658447
 20
3.0353000103
 11
-16.2144392623
 21
2.6402341998
  0
LINE
  5
3D9
100
AcDbEntity
  8
0
100
AcDbLine
 62
7
  6
CONTINUOUS
 10
-16.1788843955
 20
2.6653814794
 11
-16.290774573
 21
3.0604734034
  0
LWPOLYLINE
  5
3DA
100
AcDbEntity
  8
0
100
AcDbPolyline
 62
7
  6
CONTINUOUS
 90
3
 70
0
 10
-16.9860940539
 20
3.4414584515
 10
-17.0883860925
 20
3.811433134
 10
-17.1382960654
 20
3.9957188498
  0
LWPOLYLINE
  5
3DB
100
AcDbEntity
  8
0
100
AcDbPolyline
 62
7
  6
CONTINUOUS
 90
3
 70
0
 10
-16.290774573
 20
3.0604734034
 10
-16.3989595654
 20
3.4534109242
 10
-16.4427069676
 20
3.615824678
  0
LWPOLYLINE
  5
3DC
100
AcDbEntity
  8
0
100
AcDbPolyline
 62
7
  6
CONTINUOUS
 90
3
 70
0
 10
-16.4873174499
 20
3.6238638096
 10
-16.4345917004
 20
3.4282121256
 10
-16.3263658447
 20
3.0353000103
  0
LWPOLYLINE
  5
3DD
100
AcDbEntity
  8
0
100
AcDbPolyline
 62
250
  6
CONTINUOUS
 90
10
 70
0
 10
-8.3798045304
 20
-45.6684308457
 10
-8.3818564299
 20
-45.7613230804
 10
-8.3878408818
 20
-45.8568088004
 10
-8.3977431406
 20
-45.9547080185
 10
-8.411537558
 20
-46.0548553289
 10
-8.4291996305
 20
-46.1570444977
 10
-8.4507004895
 20
-46.2610259745
 10
-8.4759937069
 20
-46.3665834342
 10
-8.5050210008
 20
-46.4735370032
 10
-8.5377204588
 20
-46.5816858886
  0
LWPOLYLINE
  5
3DE
100
AcDbEntity
  8
RACCORDO
100
AcDbPolyline
 62
7
  6
CONTINUOUS
 90
31
 70
0
 10
-3.4098534213
 20
37.7938567048
 10
-3.3880455851
 20
38.2466917438
 10
-3.33810516
 20
38.6994075181
 10
-3.2599022201
 20
39.1509699484
 10
-3.1533923695
 20
39.6002968181
 10
-3.0185856307
 20
40.0463994498
 10
-2.8555096358
 20
40.4884015305
 10
-2.6641450208
 20
40.9255979649
 10
-2.4447797006
 20
41.3566926923
 10
-2.1980925486
 20
41.7800160783
 10
-1.9247199539
 20
42.194376027
 10
-1.6249615166
 20
42.5992250653
 10
-1.2991401374
 20
42.9939484699
 10
-0.9475290969
 20
43.3779663668
 10
-0.5708913485
 20
43.7502051782
 10
-0.170399034
 20
44.1093839258
 10
0.2532226872
 20
44.4547968812
 10
0.6991929884
 20
44.7857436627
 10
1.1660012639
 20
45.1011006342
 10
1.6525888007
 20
45.4002148268
 10
2.1581032318
 20
45.6826105345
 10
2.6811454622
 20
45.9475621846
 10
3.2206482036
 20
46.1946022833
 10
3.7755193694
 20
46.4232912262
 10
4.3441853807
 20
46.6330583146
 10
4.9252791636
 20
46.8235056204
 10
5.5177927827
 20
46.9943974074
 10
6.1206135485
 20
47.1454798643
 10
6.7326472653
 20
47.2765239413
 10
7.3525331784
 20
47.387274633
 10
7.5337386635
 20
47.4133854496
  0
LINE
  5
3DF
100
AcDbEntity
  8
0
100
AcDbLine
 62
7
  6
CONTINUOUS
 10
-10.7041608102
 20
-55.7914969638
 11
-10.7132053154
 21
-55.9259779332
  0
LINE
  5
3E0
100
AcDbEntity
  8
0
100
AcDbLine
 62
7
  6
CONTINUOUS
 10
-15.9440207757
 20
1.8689091982
 11
-15.9795148157
 21
1.8438111218
  0
LWPOLYLINE
  5
3E1
100
AcDbEntity
  8
COPY_PABLISH
100
AcDbPolyline
 62
250
  6
CONTINUOUS
 90
13
 70
0
 10
13.6136856156
 20
-14.4583140819
 10
13.8034127631
 20
-14.5238653365
 10
14.0013626798
 20
-14.575782361
 10
14.2053629035
 20
-14.6134953752
 10
14.4131745711
 20
-14.6365904859
 10
14.6225169897
 20
-14.6448142281
 10
14.8310926666
 20
-14.6380763472
 10
15.0366125239
 20
-14.6164507899
 10
15.2368210209
 20
-14.5801748924
 10
15.4295209078
 20
-14.5296467754
 10
15.6125973406
 20
-14.4654209751
 10
15.7840410907
 20
-14.3882023573
 10
15.941970596
 20
-14.2988383815
  0
LINE
  5
3E2
100
AcDbEntity
  8
COPY_PABLISH
100
AcDbLine
 62
7
  6
CONTINUOUS
 10
13.4966255522
 20
-17.5375711245
 11
13.6061883034
 21
-17.591480841
  0
LWPOLYLINE
  5
3E3
100
AcDbEntity
  8
0
100
AcDbPolyline
 62
7
  6
CONTINUOUS
 90
3
 70
0
 10
39.4770242657
 20
-27.0090927745
 10
39.4927436765
 20
-27.017079946
 10
39.8494380655
 20
-27.1438505033
  0
LWPOLYLINE
  5
3E4
100
AcDbEntity
  8
COPY_PABLISH
100
AcDbPolyline
 62
7
  6
CONTINUOUS
 90
12
 70
0
 10
8.8403503704
 20
-15.4974259307
 10
9.1920736041
 20
-15.6861699477
 10
9.5433142699
 20
-15.8683500366
 10
9.9055920486
 20
-16.0494109711
 10
10.2845451382
 20
-16.2322523261
 10
10.6745353408
 20
-16.4139745267
 10
11.0701677436
 20
-16.591323621
 10
11.4716823015
 20
-16.7639373262
 10
11.8788390597
 20
-16.9321779251
 10
12.2855232416
 20
-17.0938783147
 10
12.6896965881
 20
-17.2483161273
 10
13.0933973583
 20
-17.3962137306
  0
LWPOLYLINE
  5
3E5
100
AcDbEntity
  8
COPY_PABLISH
100
AcDbPolyline
 62
7
  6
CONTINUOUS
 90
4
 70
0
 10
7.7707655804
 20
-14.8863655386
 10
8.1277764117
 20
-15.096616264
 10
8.484304675
 20
-15.3003030613
 10
8.8403503704
 20
-15.4974259307
  0
LWPOLYLINE
  5
3E6
100
AcDbEntity
  8
0
100
AcDbPolyline
 62
7
  6
CONTINUOUS
 90
3
 70
0
 10
-46.8382031665
 20
18.2508353521
 10
-46.7187660122
 20
18.1786850073
 10
-46.6082317724
 20
18.1040824396
  0
LINE
  5
3E7
100
AcDbEntity
  8
0
100
AcDbLine
 62
250
  6
CONTINUOUS
 10
-47.0421666384
 20
18.4117076211
 11
-46.6939911475
 21
18.1979616797
  0
LINE
  5
3E8
100
AcDbEntity
  8
0
100
AcDbLine
 62
250
  6
CONTINUOUS
 10
-47.0778375268
 20
19.237811914
 11
-46.5990597495
 21
18.9413826402
  0
LINE
  5
3E9
100
AcDbEntity
  8
0
100
AcDbLine
 62
7
  6
CONTINUOUS
 10
-16.7787888174
 20
4.4615134208
 11
-16.8268763156
 21
4.4914408577
  0
LWPOLYLINE
  5
3EA
100
AcDbEntity
  8
0
100
AcDbPolyline
 62
7
  6
CONTINUOUS
 90
9
 70
0
 10
-16.8626166956
 20
4.4661685926
 10
-16.8157273134
 20
4.4368264442
 10
-16.7689548311
 20
4.4144690663
 10
-16.723011766
 20
4.3994000377
 10
-16.6785454442
 20
4.3918498784
 10
-16.6362053532
 20
4.391849178
 10
-16.5966525273
 20
4.3992714379
 10
-16.5605664385
 20
4.4139329091
 10
-16.5400008638
 20
4.4266062494
  0
LINE
  5
3EB
100
AcDbEntity
  8
DRAFT
100
AcDbLine
 62
7
  6
CONTINUOUS
 10
7.7907321326
 20
-15.1343790885
 11
7.6501922547
 21
-15.0461382026
  0
LINE
  5
3EC
100
AcDbEntity
  8
DRAFT
100
AcDbLine
 62
7
  6
CONTINUOUS
 10
7.6501922547
 20
-15.0461382026
 11
7.5151745121
 21
-14.9519578999
  0
LINE
  5
3ED
100
AcDbEntity
  8
0
100
AcDbLine
 62
7
  6
CONTINUOUS
 10
-15.9795148157
 20
1.8438111218
 11
-16.6594456553
 21
2.3204496362
  0
LINE
  5
3EE
100
AcDbEntity
  8
0
100
AcDbLine
 62
7
  6
CONTINUOUS
 10
-17.7908999999
 20
3.1142145966
 11
-18.3940770365
 21
3.5377470237
  0
LINE
  5
3EF
100
AcDbEntity
  8
0
100
AcDbLine
 62
7
  6
CONTINUOUS
 10
-17.1382960654
 20
3.9957188498
 11
-17.664490607
 21
4.3655418993
  0
LINE
  5
3F0
100
AcDbEntity
  8
0
100
AcDbLine
 62
7
  6
CONTINUOUS
 10
-18.7960648585
 20
3.8201756378
 11
-19.3988499099
 21
4.2439923114
  0
LINE
  5
3F1
100
AcDbEntity
  8
0
100
AcDbLine
 62
7
  6
CONTINUOUS
 10
-17.5957171768
 20
4.9819723924
 11
-16.8626170094
 21
4.466170492
  0
LINE
  5
3F2
100
AcDbEntity
  8
0
100
AcDbLine
 62
7
  6
CONTINUOUS
 10
-16.8268760012
 20
4.4914432013
 11
-17.5599721567
 21
5.0072479385
  0
LINE
  5
3F3
100
AcDbEntity
  8
0
100
AcDbLine
 62
7
  6
CONTINUOUS
 10
-16.7446834189
 20
5.280893686
 11
-17.4771565659
 21
5.7971489567
  0
LINE
  5
3F4
100
AcDbEntity
  8
0
100
AcDbLine
 62
7
  6
CONTINUOUS
 10
-19.5301151524
 20
5.0105377079
 11
-20.4811379293
 21
5.6805420532
  0
LINE
  5
3F5
100
AcDbEntity
  8
0
100
AcDbLine
 62
7
  6
CONTINUOUS
 10
-19.6531412635
 20
5.8155182437
 11
-20.1929112309
 21
6.1960777523
  0
LINE
  5
3F6
100
AcDbEntity
  8
0
100
AcDbLine
 62
7
  6
CONTINUOUS
 10
-20.7304133897
 20
5.1816147452
 11
-21.3322255016
 21
5.6060932489
  0
LINE
  5
3F7
100
AcDbEntity
  8
0
100
AcDbLine
 62
7
  6
CONTINUOUS
 10
-20.2285688512
 20
6.1708640072
 11
-19.645117688
 21
5.7595212812
  0
LWPOLYLINE
  5
3F8
100
AcDbEntity
  8
0
100
AcDbPolyline
 62
7
  6
CONTINUOUS
 90
4
 70
0
 10
-46.1746345584
 20
20.5140656915
 10
-42.6623744892
 20
18.0309535902
 10
-41.7267878044
 20
17.3690800411
 10
-20.7206685151
 20
2.5151460883
  0
LINE
  5
3F9
100
AcDbEntity
  8
0
100
AcDbLine
 62
7
  6
CONTINUOUS
 10
-20.7206685151
 20
2.5151460883
 11
-12.9457332171
 21
-2.9812675022
  0
LINE
  5
3FA
100
AcDbEntity
  8
0
100
AcDbLine
 62
7
  6
CONTINUOUS
 10
-21.7332361388
 20
5.8892209079
 11
-22.3344401207
 21
6.3141374954
  0
LINE
  5
3FB
100
AcDbEntity
  8
DRAFT
100
AcDbLine
 62
7
  6
CONTINUOUS
 10
13.6716097549
 20
-17.8115880016
 11
13.0742738916
 21
-17.389207762
  0
LINE
  5
3FC
100
AcDbEntity
  8
DRAFT
100
AcDbLine
 62
7
  6
CONTINUOUS
 10
-55.8716072584
 20
31.3628923341
 11
-56.1720039649
 21
31.5753048823
  0
LINE
  5
3FD
100
AcDbEntity
  8
0
100
AcDbLine
 62
7
  6
CONTINUOUS
 10
-12.9457332171
 20
-2.9812675022
 11
-9.2300774819
 21
-5.6097108091
  0
LINE
  5
3FE
100
AcDbEntity
  8
0
100
AcDbLine
 62
7
  6
CONTINUOUS
 10
-9.2300774819
 20
-5.6097108091
 11
1.1304597984
 21
-12.9356876193
  0
LINE
  5
3FF
100
AcDbEntity
  8
0
100
AcDbLine
 62
7
  6
CONTINUOUS
 10
-22.9027616063
 20
6.7159445902
 11
-23.503510809
 21
7.1411546841
  0
LINE
  5
400
100
AcDbEntity
  8
0
100
AcDbLine
 62
7
  6
CONTINUOUS
 10
-24.0711280847
 20
7.5434416593
 11
-24.6711457623
 21
7.9691970906
  0
LINE
  5
401
100
AcDbEntity
  8
0
100
AcDbLine
 62
7
  6
CONTINUOUS
 10
-25.2708114065
 20
8.3951804472
 11
-25.8701831969
 21
8.8213848116
  0
LINE
  5
402
100
AcDbEntity
  8
0
100
AcDbLine
 62
7
  6
CONTINUOUS
 10
-27.2309739867
 20
9.7904421945
 11
-27.8295834179
 21
10.2172176283
  0
LWPOLYLINE
  5
403
100
AcDbEntity
  8
DRAFT
100
AcDbPolyline
 62
7
  6
CONTINUOUS
 90
23
 70
0
 10
7.5151745121
 20
-14.9519578999
 10
7.3861193931
 20
-14.8529006519
 10
7.2642139281
 20
-14.7506204116
 10
7.1488702341
 20
-14.6454631392
 10
7.037854655
 20
-14.5361235721
 10
6.9314396879
 20
-14.4232882123
 10
6.829852117
 20
-14.3073286992
 10
6.73104048
 20
-14.185881502
 10
6.6351824069
 20
-14.0590643689
 10
6.542930901
 20
-13.9273432539
 10
6.453353944
 20
-13.7885312991
 10
6.3667423214
 20
-13.6425827303
 10
6.284234567
 20
-13.4901977827
 10
6.2065719458
 20
-13.3302613223
 10
6.134574644
 20
-13.1628519191
 10
6.0694502467
 20
-12.9891461947
 10
6.0127194708
 20
-12.809840024
 10
5.9655213661
 20
-12.6259017484
 10
5.9289563867
 20
-12.4384792631
 10
5.9044953011
 20
-12.2487515291
 10
5.893380473
 20
-12.0581072612
 10
5.8966304071
 20
-11.868149002
 10
5.9153386118
 20
-11.6805835772
  0
LWPOLYLINE
  5
404
100
AcDbEntity
  8
0
100
AcDbPolyline
 62
250
  6
CONTINUOUS
 90
13
 70
0
 10
1.1305766704
 20
-12.9357727754
 10
1.655953146
 20
-13.3416867798
 10
2.1726199465
 20
-13.8097213268
 10
2.671723168
 20
-14.3319645448
 10
3.1447529349
 20
-14.8996830525
 10
3.5834712134
 20
-15.5030859917
 10
3.9801656753
 20
-16.1314883056
 10
4.328121623
 20
-16.774120265
 10
4.6213701817
 20
-17.4200778231
 10
4.8546857989
 20
-18.0580462929
 10
5.0240702274
 20
-18.6769892202
 10
5.1267782253
 20
-19.26641374
 10
5.1611358169
 20
-19.8162652727
  0
LWPOLYLINE
  5
405
100
AcDbEntity
  8
0
100
AcDbPolyline
 62
7
  6
CONTINUOUS
 90
25
 70
0
 10
-16.5582775402
 20
5.8507077456
 10
-16.4619225833
 20
5.776073191
 10
-16.3676569901
 20
5.6896644767
 10
-16.2766403094
 20
5.5921650573
 10
-16.1896160866
 20
5.4834770989
 10
-16.1083479634
 20
5.3654552119
 10
-16.0352202507
 20
5.2423580248
 10
-15.9714552889
 20
5.1163648215
 10
-15.9171530088
 20
4.9883850614
 10
-15.8723200461
 20
4.861133615
 10
-15.8371419945
 20
4.7360946922
 10
-15.8116339987
 20
4.614247641
 10
-15.7951274385
 20
4.4973556232
 10
-15.7872508243
 20
4.38585878
 10
-15.7877913641
 20
4.2808474272
 10
-15.7957338931
 20
4.1846039484
 10
-15.8099447883
 20
4.0981724529
 10
-15.8296549644
 20
4.0204608049
 10
-15.8542684435
 20
3.95031155
 10
-15.8828618976
 20
3.888220473
 10
-15.9150277358
 20
3.8333369983
 10
-15.951886992
 20
3.7832872624
 10
-15.994073278
 20
3.7379565581
 10
-16.0410915349
 20
3.6985088504
 10
-16.0483164476
 20
3.6932971081
  0
LWPOLYLINE
  5
406
100
AcDbEntity
  8
COPY_PABLISH
100
AcDbPolyline
 62
7
  6
CONTINUOUS
 90
10
 70
0
 10
-52.3333108204
 20
27.6136344614
 10
-52.2192753645
 20
27.5235071946
 10
-52.1065532691
 20
27.4445531055
 10
-51.9956764487
 20
27.3766678411
 10
-51.8874723529
 20
27.3198818367
 10
-51.7819787359
 20
27.2737000666
 10
-51.6785268848
 20
27.2374255426
 10
-51.577406989
 20
27.2109708787
 10
-51.4790907799
 20
27.1943216095
 10
-51.383284966
 20
27.1873033482
  0
LWPOLYLINE
  5
407
100
AcDbEntity
  8
0
100
AcDbPolyline
 62
7
  6
CONTINUOUS
 90
10
 70
0
 10
1.306390984
 20
-15.8947953743
 10
1.4419960407
 20
-16.0487015313
 10
1.5756555391
 20
-16.2128778853
 10
1.7049166887
 20
-16.3843699024
 10
1.8287397813
 20
-16.5615872195
 10
1.9465827991
 20
-16.7434235296
 10
2.0571641448
 20
-16.9274189619
 10
2.1598747214
 20
-17.1121624311
 10
2.2538549175
 20
-17.2962353056
 10
2.3376887111
 20
-17.4769151682
  0
LWPOLYLINE
  5
408
100
AcDbEntity
  8
0
100
AcDbPolyline
 62
250
  6
CONTINUOUS
 90
10
 70
0
 10
2.6928878927
 20
-18.8053960721
 10
2.7436902199
 20
-18.8749847436
 10
2.8054130742
 20
-18.9405035165
 10
2.8774525992
 20
-19.001064253
 10
2.959352081
 20
-19.0559972459
 10
3.0499698916
 20
-19.1042818106
 10
3.147221397
 20
-19.1448075999
 10
3.2494041122
 20
-19.177080301
 10
3.3554818009
 20
-19.2009741678
 10
3.4640806621
 20
-19.2163237794
  0
LINE
  5
409
100
AcDbEntity
  8
0
100
AcDbLine
 62
250
  6
CONTINUOUS
 10
0.6290192372
 20
-15.2817175867
 11
0.6112827404
 21
-15.2519155126
  0
LINE
  5
40A
100
AcDbEntity
  8
0
100
AcDbLine
 62
250
  6
CONTINUOUS
 10
2.6476300146
 20
-18.7193838241
 11
2.6928878927
 21
-18.8053960721
  0
LWPOLYLINE
  5
40B
100
AcDbEntity
  8
0
100
AcDbPolyline
 62
250
  6
CONTINUOUS
 90
4
 70
0
 10
0.6112827404
 20
-15.2519155126
 10
0.5877334724
 20
-15.1949687348
 10
0.5722189514
 20
-15.1292852449
 10
0.5652334601
 20
-15.0553913513
  0
LWPOLYLINE
  5
40C
100
AcDbEntity
  8
0
100
AcDbPolyline
 62
250
  6
CONTINUOUS
 90
6
 70
0
 10
2.6151398898
 20
-50.0097403609
 10
2.6246970683
 20
-50.0497043113
 10
2.6373716152
 20
-50.0889277939
 10
2.653036706
 20
-50.1272598327
 10
2.6715844046
 20
-50.1646286043
 10
2.6928899818
 20
-50.2009333835
  0
LWPOLYLINE
  5
40D
100
AcDbEntity
  8
0
100
AcDbPolyline
 62
250
  6
CONTINUOUS
 90
5
 70
0
 10
0.0355667798
 20
-58.2964521427
 10
0.0421762812
 20
-58.4046455517
 10
0.0526931554
 20
-58.4789733483
 10
0.0668962283
 20
-58.5183421547
 10
0.0751971495
 20
-58.5245601227
  0
LWPOLYLINE
  5
40E
100
AcDbEntity
  8
RACCORDO
100
AcDbPolyline
 62
250
  6
CONTINUOUS
 90
7
 70
0
 10
-0.143147745
 20
-49.8268456694
 10
-0.1392743182
 20
-49.8980177687
 10
-0.1276964249
 20
-49.962932504
 10
-0.1085408268
 20
-50.0208786125
 10
-0.0820173075
 20
-50.0712211686
 10
-0.0484163793
 20
-50.1134085336
 10
-0.0133912945
 20
-50.1433420145
  0
LWPOLYLINE
  5
40F
100
AcDbEntity
  8
RACCORDO
100
AcDbPolyline
 62
250
  6
CONTINUOUS
 90
19
 70
0
 10
0.4235278614
 20
-18.2673121321
 10
0.4212766593
 20
-18.2159080963
 10
0.414875466
 20
-18.1626252587
 10
0.4043242813
 20
-18.1074636192
 10
0.3894847351
 20
-18.0499674983
 10
0.3704951976
 20
-17.9905925756
 10
0.3477707795
 20
-17.9307058901
 10
0.3212200975
 20
-17.870295299
 10
0.2909345349
 20
-17.809372945
 10
0.2576033525
 20
-17.7493422956
 10
0.2211583634
 20
-17.6902328398
 10
0.1816677544
 20
-17.6320150885
 10
0.1400253471
 20
-17.5760040417
 10
0.0961558053
 20
-17.5222297856
 10
0.0501344651
 20
-17.4706622338
 10
0.003081156
 20
-17.4225261276
 10
-0.0446308455
 20
-17.378229714
 10
-0.0933748158
 20
-17.3373647458
 10
-0.1431507551
 20
-17.2999312232
  0
LWPOLYLINE
  5
410
100
AcDbEntity
  8
RACCORDO
100
AcDbPolyline
 62
250
  6
CONTINUOUS
 90
19
 70
0
 10
-1.2313625093
 20
39.3805605382
 10
-1.2181208584
 20
38.9866256053
 10
-1.1780116136
 20
38.592998687
 10
-1.1112600932
 20
38.2015712272
 10
-1.0181123376
 20
37.8130769668
 10
-0.8989309981
 20
37.4285217784
 10
-0.7546929913
 20
37.0501347872
 10
-0.5859863248
 20
36.6783935291
 10
-0.3936890009
 20
36.3143309104
 10
-0.1800045704
 20
35.9608020871
 10
0.0553040062
 20
35.6162458529
 10
0.3097234475
 20
35.2832967908
 10
0.5748810511
 20
34.9703154654
 10
0.8452849104
 20
34.6798367599
 10
1.1208193494
 20
34.4084501085
 10
1.3999564914
 20
34.1549179816
 10
1.680901469
 20
33.9184872983
 10
1.9614472681
 20
33.6988317724
 10
2.2397953267
 20
33.4953276997
  0
LINE
  5
411
100
AcDbEntity
  8
RACCORDO
100
AcDbLine
 62
250
  6
CONTINUOUS
 10
0.4235278629
 20
-49.6608702266
 11
0.4235278614
 21
-18.2673121321
  0
LWPOLYLINE
  5
412
100
AcDbEntity
  8
RACCORDO
100
AcDbPolyline
 62
250
  6
CONTINUOUS
 90
3
 70
0
 10
-3.4098534213
 20
37.7938567048
 10
-3.4098843632
 20
37.5602670594
 10
-3.3877523862
 20
37.1143629132
  0
LINE
  5
413
100
AcDbEntity
  8
RACCORDO
100
AcDbLine
 62
250
  6
CONTINUOUS
 10
-1.2305044298
 20
39.4774781286
 11
-1.2313625093
 21
39.3805605382
  0
LINE
  5
414
100
AcDbEntity
  8
0
100
AcDbLine
 62
7
  6
CONTINUOUS
 10
-3.4098534213
 20
37.7938567048
 11
-3.4274094168
 21
36.7756604324
  0
LINE
  5
415
100
AcDbEntity
  8
0
100
AcDbLine
 62
7
  6
CONTINUOUS
 10
-1.2305044298
 20
39.4774781286
 11
-1.2357705071
 21
39.1720610837
  0
LINE
  5
416
100
AcDbEntity
  8
0
100
AcDbLine
 62
7
  6
CONTINUOUS
 10
0.5419447844
 20
40.7643808954
 11
0.5361827044
 21
40.4301971486
  0
LWPOLYLINE
  5
417
100
AcDbEntity
  8
RACCORDO
100
AcDbPolyline
 62
250
  6
CONTINUOUS
 90
16
 70
0
 10
-0.1431507551
 20
-17.2999312232
 10
-0.1392771316
 20
-17.2232793862
 10
-0.127698741
 20
-17.1419892618
 10
-0.1085424387
 20
-17.0569514814
 10
-0.0820181051
 20
-16.9690977363
 10
-0.048416346
 20
-16.8793905702
 10
-0.0081053095
 20
-16.7888128332
 10
0.0384733487
 20
-16.6983569137
 10
0.090809303
 20
-16.6090138653
 10
0.14832915
 20
-16.5217625488
 10
0.2104026905
 20
-16.4375589075
 10
0.2763498341
 20
-16.3573254939
 10
0.3454480501
 20
-16.2819413618
 10
0.4169402845
 20
-16.212232435
 10
0.4900432535
 20
-16.1489624591
 10
0.5639560261
 20
-16.0928246328
  0
LWPOLYLINE
  5
418
100
AcDbEntity
  8
RACCORDO
100
AcDbPolyline
 62
7
  6
CONTINUOUS
 90
29
 70
0
 10
0.5419447844
 20
40.7643808954
 10
0.5596617647
 20
41.1096552377
 10
0.6009313281
 20
41.4541813611
 10
0.6657495039
 20
41.7971054212
 10
0.7540480366
 20
42.1375683848
 10
0.865700916
 20
42.4747333125
 10
1.0005345659
 20
42.8077958766
 10
1.1583757567
 20
43.1360592669
 10
1.3388883704
 20
43.4585966104
 10
1.541517696
 20
43.7743123242
 10
1.7656884874
 20
44.0823088814
 10
2.0109983848
 20
44.3820296824
 10
2.2770555791
 20
44.6729347529
 10
2.563498304
 20
44.9545110158
 10
2.8695588564
 20
45.225890076
 10
3.1941239534
 20
45.4860587999
 10
3.5362625368
 20
45.7343153323
 10
3.8953289813
 20
45.9702287213
 10
4.2704997173
 20
46.1932712093
 10
4.6610210729
 20
46.4029926591
 10
5.0658855172
 20
46.5988458679
 10
5.4837959617
 20
46.7802290083
 10
5.9135844885
 20
46.94669373
 10
6.3543925876
 20
47.0979607016
 10
6.8053171251
 20
47.23374844
 10
7.2654048166
 20
47.3537797573
 10
7.7334808274
 20
47.4577546937
 10
8.2082739071
 20
47.5454100113
 10
8.3143986115
 20
47.561129386
  0
LWPOLYLINE
  5
419
100
AcDbEntity
  8
RACCORDO
100
AcDbPolyline
 62
7
  6
CONTINUOUS
 90
20
 70
0
 10
-1.2305044298
 20
39.4774781286
 10
-1.2096746327
 20
39.8823556075
 10
-1.1611296117
 20
40.2862758199
 10
-1.084889316
 20
40.6882427952
 10
-0.9810475122
 20
41.0872577847
 10
-0.849766256
 20
41.4823423993
 10
-0.6912665212
 20
41.8725497554
 10
-0.5057776502
 20
42.2570462882
 10
-0.2937009922
 20
42.6347720777
 10
-0.0556678918
 20
43.0044982496
 10
0.207661477
 20
43.365198503
 10
0.4957922334
 20
43.7161914135
 10
0.8082304897
 20
44.0568143096
 10
1.1445055927
 20
44.3864367263
 10
1.5037301165
 20
44.7040751575
 10
1.884659023
 20
45.0086032881
 10
2.2862231121
 20
45.2992120857
 10
2.7076373678
 20
45.5753721378
 10
3.1479331741
 20
45.8364625194
 10
3.6062035671
 20
46.0819432976
  0
LWPOLYLINE
  5
41A
100
AcDbEntity
  8
RACCORDO
100
AcDbPolyline
 62
7
  6
CONTINUOUS
 90
46
 70
0
 10
2.3135673275
 20
42.003339159
 10
2.3298353617
 20
42.3080511102
 10
2.3681689746
 20
42.612095476
 10
2.4285763324
 20
42.9146091175
 10
2.5109999207
 20
43.214736146
 10
2.6153138834
 20
43.5116188097
 10
2.7413273392
 20
43.8044124811
 10
2.8888476912
 20
44.0923986489
 10
3.0575296817
 20
44.3746732513
 10
3.2468095701
 20
44.6501760611
 10
3.4561238216
 20
44.9180602794
 10
3.6850316847
 20
45.1777338497
 10
3.9330388891
 20
45.4285742189
 10
4.1997172702
 20
45.6700493428
 10
4.4842847528
 20
45.9013530963
 10
4.7855825377
 20
46.1215247457
 10
5.1026744875
 20
46.3299247126
 10
5.4348451793
 20
46.5261192146
 10
5.7811113633
 20
46.7095533054
 10
6.1405767546
 20
46.8797789705
 10
6.5122660866
 20
47.0363550509
 10
6.8949866444
 20
47.1788112928
 10
7.2876333797
 20
47.3067829969
 10
7.6892292532
 20
47.4199926849
 10
8.0987103795
 20
47.5181707223
 10
8.5150066681
 20
47.6010845284
 10
8.9369924467
 20
47.6685296343
 10
9.3634869381
 20
47.720337687
 10
9.7933236699
 20
47.7563888542
 10
10.2253961331
 20
47.7766084928
 10
10.6585966949
 20
47.7809554715
 10
11.0918057776
 20
47.769422314
 10
11.5238502299
 20
47.7420406094
 10
11.9535432191
 20
47.6988864409
 10
12.3797162264
 20
47.6400788824
 10
12.8012762116
 20
47.5657669904
 10
13.2171653207
 20
47.4761266424
 10
13.6263702723
 20
47.3713529463
 10
14.0277125041
 20
47.2517201127
 10
14.4199281558
 20
47.1175914843
 10
14.8018670887
 20
46.9693642821
 10
15.1726532097
 20
46.8073781243
 10
15.5314792893
 20
46.6319585047
 10
15.8774389882
 20
46.4434969662
 10
16.2095393792
 20
46.2424754653
 10
16.5268741148
 20
46.0293809532
  0
LINE
  5
41B
100
AcDbEntity
  8
0
100
AcDbLine
 62
250
  6
CONTINUOUS
 10
39.1337815146
 20
25.7335567491
 11
40.539183202
 21
26.685246774
  0
LWPOLYLINE
  5
41C
100
AcDbEntity
  8
0
100
AcDbPolyline
 62
250
  6
CONTINUOUS
 90
3
 70
0
 10
40.539183202
 20
26.685246774
 10
41.9325533342
 20
27.6266678219
 10
42.2790133486
 20
27.8604056734
  0
LWPOLYLINE
  5
41D
100
AcDbEntity
  8
0
100
AcDbPolyline
 62
250
  6
CONTINUOUS
 90
9
 70
0
 10
39.1278034556
 20
24.7226200254
 10
39.1982652771
 20
24.7667969233
 10
39.267472864
 20
24.8013433125
 10
39.3343455291
 20
24.8257196765
 10
39.3978390422
 20
24.8395452996
 10
39.4569619027
 20
24.8426042055
 10
39.5107908315
 20
24.8348485517
 10
39.5584852335
 20
24.8163993836
 10
39.5797026395
 20
24.8033136977
  0
LINE
  5
41E
100
AcDbEntity
  8
0
100
AcDbLine
 62
250
  6
CONTINUOUS
 10
-47.3820225934
 20
18.5552835169
 11
-47.0421666384
 21
18.4117076211
  0
LWPOLYLINE
  5
41F
100
AcDbEntity
  8
0
100
AcDbPolyline
 62
7
  6
CONTINUOUS
 90
40
 70
0
 10
39.8769435514
 20
-27.3445350703
 10
40.0233769563
 20
-27.4375330875
 10
40.3559514369
 20
-27.6065171192
 10
40.7126458259
 20
-27.7332876766
 10
41.0937690947
 20
-27.8173040128
 10
41.4990122719
 20
-27.8591068746
 10
41.9232063395
 20
-27.8581630519
 10
42.3665940548
 20
-27.8139249676
 10
42.8289326604
 20
-27.7269401989
 10
43.3043248664
 20
-27.5983182667
 10
43.792937887
 20
-27.4275258068
 10
44.2946045078
 20
-27.2150961835
 10
44.8029257964
 20
-26.9637390106
 10
45.3179869978
 20
-26.6729556334
 10
45.8397028669
 20
-26.3432447068
 10
46.361418736
 20
-25.9788118083
 10
46.8831346051
 20
-25.579212156
 10
47.4048504743
 20
-25.144890532
 10
47.9199116756
 20
-24.6813868599
 10
48.4282329642
 20
-24.1883273231
 10
48.9298995851
 20
-23.6660857382
 10
49.4185126056
 20
-23.1213234786
 10
49.8939048116
 20
-22.5537520587
 10
50.3562434173
 20
-21.9636599641
 10
50.7996311326
 20
-21.3585740252
 10
51.2238252001
 20
-20.7383021736
 10
51.6290683773
 20
-20.1030364776
 10
52.0101916462
 20
-19.4608799727
 10
52.3668860351
 20
-18.8117443888
 10
52.6994605158
 20
-18.1557179958
 10
53.0036729847
 20
-17.5011686392
 10
53.2791601297
 20
-16.8481152394
 10
53.526285263
 20
-16.1965388759
 10
53.7418962174
 20
-15.5547506323
 10
53.9255893021
 20
-14.9228758926
 10
54.0777682078
 20
-14.3007892728
 10
54.1964918396
 20
-13.6964257045
 10
54.2811131657
 20
-13.1124301649
 10
54.332279218
 20
-12.5461576769
 10
54.3499899963
 20
-11.9976082405
  0
LWPOLYLINE
  5
420
100
AcDbEntity
  8
COPY_PABLISH
100
AcDbPolyline
 62
250
  6
CONTINUOUS
 90
10
 70
0
 10
11.9406108796
 20
-7.4655668111
 10
11.5634371778
 20
-7.2209839344
 10
11.1803825843
 20
-6.9693699802
 10
10.7914470992
 20
-6.7107249484
 10
10.3967503003
 20
-6.4447540017
 10
9.9961726098
 20
-6.1717519775
 10
9.589355294
 20
-5.8926033872
 10
9.1761787752
 20
-5.6076030681
 10
8.7567626312
 20
-5.316456183
 10
8.3311068619
 20
-5.0191627318
  0
LWPOLYLINE
  5
421
100
AcDbEntity
  8
COPY_PABLISH
100
AcDbPolyline
 62
250
  6
CONTINUOUS
 90
3
 70
0
 10
10.6683604134
 20
-9.5021747661
 10
9.4899232782
 20
-8.7033432001
 10
9.0878491357
 20
-8.4270183864
  0
LWPOLYLINE
  5
422
100
AcDbEntity
  8
COPY_PABLISH
100
AcDbPolyline
 62
250
  6
CONTINUOUS
 90
4
 70
0
 10
9.0878491357
 20
-8.4270183864
 10
7.851078064
 20
-7.5671129503
 10
7.4276282625
 20
-7.2708042405
 10
7.0009203565
 20
-6.9700389748
  0
LWPOLYLINE
  5
423
100
AcDbEntity
  8
ASSI
100
AcDbPolyline
 62
250
  6
CONTINUOUS
 90
3
 70
0
 10
-48.1543639745
 20
32.0276966869
 10
-46.1876697753
 20
30.6496943639
 10
-45.5503868175
 20
30.2019860847
  0
LWPOLYLINE
  5
424
100
AcDbEntity
  8
ASSI
100
AcDbPolyline
 62
250
  6
CONTINUOUS
 90
7
 70
0
 10
4.3175019731
 20
-2.1791971411
 10
4.9676792426
 20
-2.6352228088
 10
5.6159954019
 20
-3.0880816071
 10
6.262450451
 20
-3.5377735359
 10
6.9070443901
 20
-3.9842985953
 10
7.549777219
 20
-4.4276567851
 10
8.1906489378
 20
-4.8678481054
  0
LWPOLYLINE
  5
425
100
AcDbEntity
  8
COPY_PABLISH
100
AcDbPolyline
 62
250
  6
CONTINUOUS
 90
25
 70
0
 10
-53.1037132737
 20
35.5914909883
 10
-53.2610519322
 20
35.7019048749
 10
-53.4271592391
 20
35.804988517
 10
-53.6002203128
 20
35.8985814769
 10
-53.7782926298
 20
35.9786281486
 10
-53.9592894075
 20
36.0440848171
 10
-54.1413311509
 20
36.0972773701
 10
-54.323290204
 20
36.134808385
 10
-54.5024997031
 20
36.1542125874
 10
-54.6760044119
 20
36.1604277091
 10
-54.8439883526
 20
36.1528042098
 10
-55.0046246461
 20
36.1276559994
 10
-55.1542469109
 20
36.0883720403
 10
-55.2949205372
 20
36.037356703
 10
-55.4256742288
 20
35.9714171479
 10
-55.5411057787
 20
35.8903570538
 10
-55.6429930037
 20
35.7987455938
 10
-55.7333416071
 20
35.6971228229
 10
-55.8090171933
 20
35.5835747411
 10
-55.8707706229
 20
35.4621452153
 10
-55.9215290604
 20
35.3360942779
 10
-55.9616118736
 20
35.2033510457
 10
-55.9917620712
 20
35.0648427688
 10
-56.0132535378
 20
34.9246714947
 10
-56.0268605652
 20
34.7849922875
  0
LINE
  5
426
100
AcDbEntity
  8
0
100
AcDbLine
 62
250
  6
CONTINUOUS
 10
-39.3309202227
 20
25.8222172974
 11
-45.5503868175
 21
30.2019860847
  0
LWPOLYLINE
  5
427
100
AcDbEntity
  8
ASSI
100
AcDbPolyline
 62
250
  6
CONTINUOUS
 90
3
 70
0
 10
-49.3915519086
 20
32.8984258547
 10
-48.7942331554
 20
32.4770849653
 10
-48.1543639745
 20
32.0276966869
  0
LINE
  5
428
100
AcDbEntity
  8
0
100
AcDbLine
 62
7
  6
CONTINUOUS
 10
-44.2211499434
 20
32.142812939
 11
-19.9304674409
 21
14.9972820377
  0
LINE
  5
429
100
AcDbEntity
  8
0
100
AcDbLine
 62
7
  6
CONTINUOUS
 10
-17.9670238332
 20
6.8450588242
 11
-16.5582771759
 21
5.8507061386
  0
LINE
  5
42A
100
AcDbEntity
  8
0
100
AcDbLine
 62
7
  6
CONTINUOUS
 10
-16.5222528186
 20
5.8761792059
 11
-17.9309883046
 21
6.8705397909
  0
LINE
  5
42B
100
AcDbEntity
  8
0
100
AcDbLine
 62
250
  6
CONTINUOUS
 10
-21.2570118719
 20
13.0628349379
 11
-39.3309202227
 21
25.8222172974
  0
LINE
  5
42C
100
AcDbEntity
  8
0
100
AcDbLine
 62
7
  6
CONTINUOUS
 10
-19.9345170255
 20
8.2351900461
 11
-19.3333037161
 21
7.8102380541
  0
LINE
  5
42D
100
AcDbEntity
  8
0
100
AcDbLine
 62
7
  6
CONTINUOUS
 10
-19.2972600533
 20
7.8357247724
 11
-19.8984707503
 21
8.2606786117
  0
LINE
  5
42E
100
AcDbEntity
  8
0
100
AcDbLine
 62
7
  6
CONTINUOUS
 10
-22.2088548183
 20
9.8432655919
 11
-21.300165974
 21
9.2007866356
  0
LINE
  5
42F
100
AcDbEntity
  8
0
100
AcDbLine
 62
7
  6
CONTINUOUS
 10
-21.2641163606
 20
9.2262775617
 11
-22.1728049538
 21
9.8687566955
  0
LINE
  5
430
100
AcDbEntity
  8
DRAFT
100
AcDbLine
 62
7
  6
CONTINUOUS
 10
21.8874026217
 20
-17.5851634132
 11
21.6275256791
 21
-17.4014026649
  0
LINE
  5
431
100
AcDbEntity
  8
0
100
AcDbLine
 62
7
  6
CONTINUOUS
 10
-24.240204691
 20
11.2792573219
 11
-23.3315877115
 21
10.6367275496
  0
LINE
  5
432
100
AcDbEntity
  8
0
100
AcDbLine
 62
7
  6
CONTINUOUS
 10
-23.2955390244
 20
10.6622178207
 11
-24.204158898
 21
11.3047455466
  0
LINE
  5
433
100
AcDbEntity
  8
0
100
AcDbLine
 62
7
  6
CONTINUOUS
 10
-25.4417757454
 20
12.1296502813
 11
-24.8410570808
 21
11.7043905226
  0
LINE
  5
434
100
AcDbEntity
  8
0
100
AcDbLine
 62
7
  6
CONTINUOUS
 10
-24.8050140598
 20
11.7298767872
 11
-25.405736116
 21
12.1551341476
  0
LINE
  5
435
100
AcDbEntity
  8
0
100
AcDbLine
 62
7
  6
CONTINUOUS
 10
-19.9304674409
 20
14.9972820377
 11
4.3175019731
 21
-2.1791971411
  0
LINE
  5
436
100
AcDbEntity
  8
0
100
AcDbLine
 62
7
  6
CONTINUOUS
 10
-26.4426089897
 20
12.8386813074
 11
-25.8421584199
 21
12.4132219771
  0
LINE
  5
437
100
AcDbEntity
  8
0
100
AcDbLine
 62
7
  6
CONTINUOUS
 10
-25.8061213594
 20
12.4387040269
 11
-26.4065761686
 21
12.8641603595
  0
LINE
  5
438
100
AcDbEntity
  8
0
100
AcDbLine
 62
250
  6
CONTINUOUS
 10
2.9882651159
 20
-4.120023847
 11
-21.2570119549
 21
13.0628349966
  0
LWPOLYLINE
  5
439
100
AcDbEntity
  8
COPY_PABLISH
100
AcDbPolyline
 62
250
  6
CONTINUOUS
 90
3
 70
0
 10
-49.567723284
 20
33.0300589795
 10
-49.9917696084
 20
33.3308817876
 10
-50.4097911534
 20
33.629581523
  0
LINE
  5
43A
100
AcDbEntity
  8
0
100
AcDbLine
 62
7
  6
CONTINUOUS
 10
-28.3696027657
 20
14.2053029411
 11
-27.7695364021
 21
13.7795709359
  0
LINE
  5
43B
100
AcDbEntity
  8
0
100
AcDbLine
 62
7
  6
CONTINUOUS
 10
-27.7335142966
 20
13.805042411
 11
-28.3335859756
 21
14.2307706576
  0
LINE
  5
43C
100
AcDbEntity
  8
ASSI
100
AcDbLine
 62
250
  6
CONTINUOUS
 10
2.9882651159
 20
-4.120023847
 11
6.825964244
 21
-6.8408673868
  0
LINE
  5
43D
100
AcDbEntity
  8
ASSI
100
AcDbLine
 62
250
  6
CONTINUOUS
 10
-45.5060748647
 20
33.055738339
 11
-44.2211499434
 21
32.142812939
  0
LINE
  5
43E
100
AcDbEntity
  8
ASSI
100
AcDbLine
 62
250
  6
CONTINUOUS
 10
-46.7804752215
 20
33.9640182915
 11
-45.5060748647
 21
33.055738339
  0
LWPOLYLINE
  5
43F
100
AcDbEntity
  8
COPY_PABLISH
100
AcDbPolyline
 62
250
  6
CONTINUOUS
 90
16
 70
0
 10
-51.6989994272
 20
37.5344331889
 10
-51.9381690905
 20
37.7054746357
 10
-52.1841895361
 20
37.8632653772
 10
-52.4359491744
 20
38.0059376516
 10
-52.6936918182
 20
38.1319469896
 10
-52.9544575642
 20
38.2387732372
 10
-53.2123347822
 20
38.3239549046
 10
-53.4656124987
 20
38.3863394575
 10
-53.7132359387
 20
38.4252802071
 10
-53.950704869
 20
38.4407268514
 10
-54.1760563508
 20
38.4328030876
 10
-54.3891069735
 20
38.4014918182
 10
-54.5883495902
 20
38.34731332
 10
-54.7731144394
 20
38.2704774689
 10
-54.9421271217
 20
38.1712551449
 10
-54.9773785432
 20
38.1462739879
  0
LINE
  5
440
100
AcDbEntity
  8
ASSI
100
AcDbLine
 62
250
  6
CONTINUOUS
 10
-48.0443510137
 20
34.8676527965
 11
-46.7804752215
 21
33.9640182915
  0
LWPOLYLINE
  5
441
100
AcDbEntity
  8
COPY_PABLISH
100
AcDbPolyline
 62
250
  6
CONTINUOUS
 90
10
 70
0
 10
-48.237427076
 20
34.9808434683
 10
-48.6593472736
 20
35.2828920312
 10
-49.0721610186
 20
35.580234378
 10
-49.475868311
 20
35.8728705086
 10
-49.8707608965
 20
36.1606309255
 10
-50.2565470294
 20
36.4436851263
 10
-50.6323514726
 20
36.7225416037
 10
-50.9978824805
 20
36.9973698554
 10
-51.3534317986
 20
37.2680003838
 10
-51.6989994272
 20
37.5344331889
  0
LWPOLYLINE
  5
442
100
AcDbEntity
  8
COPY_PABLISH
100
AcDbPolyline
 62
250
  6
CONTINUOUS
 90
3
 70
0
 10
-50.4097911534
 20
33.629581523
 10
-51.6149359938
 20
34.496375383
 10
-52.0001614261
 20
34.7767566741
  0
LWPOLYLINE
  5
443
100
AcDbEntity
  8
COPY_PABLISH
100
AcDbPolyline
 62
250
  6
CONTINUOUS
 90
3
 70
0
 10
-52.0001614261
 20
34.7767566741
 10
-52.7460677021
 20
35.3270116548
 10
-53.1037132737
 20
35.5914909883
  0
LWPOLYLINE
  5
444
100
AcDbEntity
  8
0
100
AcDbPolyline
 62
7
  6
CONTINUOUS
 90
8
 70
0
 10
2.3376887111
 20
-17.4769151682
 10
2.4110412259
 20
-17.6532502758
 10
2.4732502955
 20
-17.8232177027
 10
2.5231441187
 20
-17.9821956986
 10
2.5612257259
 20
-18.1289030107
 10
2.5881829466
 20
-18.2621604711
 10
2.6045874153
 20
-18.3779786863
 10
2.6121959948
 20
-18.4751323823
  0
LWPOLYLINE
  5
445
100
AcDbEntity
  8
0
100
AcDbPolyline
 62
250
  6
CONTINUOUS
 90
8
 70
0
 10
2.6609045209
 20
-18.4371158893
 10
2.5652917084
 20
-18.0313181886
 10
2.4082142239
 20
-17.5977528249
 10
2.1915700477
 20
-17.1430798142
 10
1.924021715
 20
-16.6856342328
 10
1.6225743291
 20
-16.2546300506
 10
1.2992964859
 20
-15.8676020458
 10
0.9594510753
 20
-15.5305602651
  0
LWPOLYLINE
  5
446
100
AcDbEntity
  8
RACCORDO
100
AcDbPolyline
 62
250
  6
CONTINUOUS
 90
19
 70
0
 10
0.5495792633
 20
40.3923705648
 10
0.5829253129
 20
40.0387323529
 10
0.6415367366
 20
39.6869099907
 10
0.723694002
 20
39.3431481487
 10
0.8275519534
 20
39.009351921
 10
0.9519249822
 20
38.68490707
 10
1.0945548721
 20
38.3720035917
 10
1.2537237912
 20
38.0709382725
 10
1.4276831385
 20
37.7820499979
 10
1.6134926406
 20
37.5072922411
 10
1.8091282453
 20
37.2467633851
 10
2.0128117801
 20
37.0002554066
 10
2.2215189729
 20
36.768942081
 10
2.4323088547
 20
36.5535344111
 10
2.64438944
 20
36.3525372547
 10
2.8581744792
 20
36.1637696368
 10
3.0731016945
 20
35.9863251547
 10
3.2873307877
 20
35.8204247928
 10
3.4997530157
 20
35.6656704033
  0
LINE
  5
447
100
AcDbEntity
  8
0
100
AcDbLine
 62
250
  6
CONTINUOUS
 10
2.6928878898
 20
-18.8053960676
 11
2.6609045209
 21
-18.4371158893
  0
LWPOLYLINE
  5
448
100
AcDbEntity
  8
0
100
AcDbPolyline
 62
250
  6
CONTINUOUS
 90
10
 70
0
 10
3.4640802083
 20
-19.2163260257
 10
3.4219970472
 20
-18.7079743401
 10
3.2974770933
 20
-18.1558017484
 10
3.0942670059
 20
-17.576551923
 10
2.8184717577
 20
-16.9877395166
 10
2.4784548638
 20
-16.4073052507
 10
2.084649365
 20
-15.8530559972
 10
1.649084515
 20
-15.3418563428
 10
1.1849590889
 20
-14.8891381737
 10
0.7063663336
 20
-14.5086075801
  0
LWPOLYLINE
  5
449
100
AcDbEntity
  8
RACCORDO
100
AcDbPolyline
 62
250
  6
CONTINUOUS
 90
17
 70
0
 10
2.3165384417
 20
41.7624672529
 10
2.3408866586
 20
41.4563999984
 10
2.3881015865
 20
41.1519554372
 10
2.457899665
 20
40.8501064107
 10
2.5494631759
 20
40.5530470724
 10
2.6621693603
 20
40.261333066
 10
2.7952223504
 20
39.9758495775
 10
2.9467486137
 20
39.6990992615
 10
3.1165009531
 20
39.4301446038
 10
3.3024961367
 20
39.170913124
 10
3.4985647181
 20
38.9275773002
 10
3.7003368278
 20
38.702082002
 10
3.9073378173
 20
38.4918745346
 10
4.1183210712
 20
38.2958546571
 10
4.331784503
 20
38.1133996911
 10
4.5458168607
 20
37.9443036369
 10
4.7588840336
 20
37.7880686036
  0
LWPOLYLINE
  5
44A
100
AcDbEntity
  8
0
100
AcDbPolyline
 62
250
  6
CONTINUOUS
 90
3
 70
0
 10
2.6134724637
 20
-18.5300693983
 10
2.6181741565
 20
-18.6284927303
 10
2.6476300146
 20
-18.7193838241
  0
LWPOLYLINE
  5
44B
100
AcDbEntity
  8
RACCORDO
100
AcDbPolyline
 62
250
  6
CONTINUOUS
 90
19
 70
0
 10
1.8377416145
 20
-18.267312267
 10
1.8329023072
 20
-18.1529621809
 10
1.8184216605
 20
-18.032640369
 10
1.7944104491
 20
-17.9072614586
 10
1.7610578595
 20
-17.7777991904
 10
1.7186148615
 20
-17.6452175647
 10
1.6673780777
 20
-17.5104592006
 10
1.6077055202
 20
-17.3745037625
 10
1.5400551079
 20
-17.2384272707
 10
1.4649681669
 20
-17.103329027
 10
1.3830308884
 20
-16.9702597311
 10
1.2948559935
 20
-16.8402108106
 10
1.2011127338
 20
-16.7141694024
 10
1.1025137993
 20
-16.593094444
 10
0.9998110304
 20
-16.4779098247
 10
0.8937872726
 20
-16.3694938982
 10
0.7852503227
 20
-16.2686729127
 10
0.6750266992
 20
-16.1762148493
 10
0.5639560261
 20
-16.0928242512
  0
LINE
  5
44C
100
AcDbEntity
  8
0
100
AcDbLine
 62
7
  6
CONTINUOUS
 10
2.6121959948
 20
-18.4751323823
 11
2.6134724637
 21
-18.5300693983
  0
LINE
  5
44D
100
AcDbEntity
  8
RACCORDO
100
AcDbLine
 62
250
  6
CONTINUOUS
 10
0.5419447844
 20
40.7643808954
 11
0.5495792633
 21
40.3923705648
  0
LINE
  5
44E
100
AcDbEntity
  8
RACCORDO
100
AcDbLine
 62
250
  6
CONTINUOUS
 10
2.3135673275
 20
42.003339159
 11
2.3165384417
 21
41.7624672529
  0
LINE
  5
44F
100
AcDbEntity
  8
RACCORDO
100
AcDbLine
 62
250
  6
CONTINUOUS
 10
1.8377412329
 20
-49.6608700906
 11
1.8377412329
 21
-18.2673119972
  0
LINE
  5
450
100
AcDbEntity
  8
0
100
AcDbLine
 62
7
  6
CONTINUOUS
 10
2.5448480526
 20
-49.161859576
 11
2.544855787
 21
-18.0658387149
  0
LINE
  5
451
100
AcDbEntity
  8
0
100
AcDbLine
 62
7
  6
CONTINUOUS
 10
2.6055157894
 20
-49.9118757068
 11
2.6055157894
 21
-18.5163416946
  0
LINE
  5
452
100
AcDbEntity
  8
0
100
AcDbLine
 62
250
  6
CONTINUOUS
 10
3.4640802507
 20
-50.611853598
 11
3.4640806621
 21
-19.2163237794
  0
LINE
  5
453
100
AcDbEntity
  8
0
100
AcDbLine
 62
7
  6
CONTINUOUS
 10
5.1611360343
 20
-19.8162629211
 11
5.1611360343
 21
-35.5140845383
  0
LINE
  5
454
100
AcDbEntity
  8
0
100
AcDbLine
 62
250
  6
CONTINUOUS
 10
5.1611360343
 20
-35.5140845383
 11
5.1611360343
 21
-51.2117880767
  0
LINE
  5
455
100
AcDbEntity
  8
0
100
AcDbLine
 62
7
  6
CONTINUOUS
 10
2.6137016474
 20
-49.9119706126
 11
2.6135237322
 21
-49.926817284
  0
LINE
  5
456
100
AcDbEntity
  8
0
100
AcDbLine
 62
7
  6
CONTINUOUS
 10
2.3135673275
 20
42.003339159
 11
2.308135916
 21
41.6883332135
  0
LINE
  5
457
100
AcDbEntity
  8
0
100
AcDbLine
 62
7
  6
CONTINUOUS
 10
6.583903061
 20
43.146115022
 11
6.5797175914
 21
42.9033700574
  0
LWPOLYLINE
  5
458
100
AcDbEntity
  8
0
100
AcDbPolyline
 62
250
  6
CONTINUOUS
 90
7
 70
0
 10
0.5652334601
 20
-15.0553913513
 10
0.5672292822
 20
-14.9733027386
 10
0.5785908227
 20
-14.8844262532
 10
0.5989069674
 20
-14.7919631119
 10
0.6273441509
 20
-14.6980102226
 10
0.663376489
 20
-14.6031374678
 10
0.7062874401
 20
-14.5085571692
  0
LWPOLYLINE
  5
459
100
AcDbEntity
  8
0
100
AcDbPolyline
 62
7
  6
CONTINUOUS
 90
14
 70
0
 10
2.5448480526
 20
-49.161859576
 10
2.5433302663
 20
-49.221596369
 10
2.53896615
 20
-49.2789013941
 10
2.5317557038
 20
-49.3337746512
 10
2.5216696833
 20
-49.3863266144
 10
2.5087373328
 20
-49.4364468096
 10
2.4930463856
 20
-49.4838038145
 10
2.4745779413
 20
-49.5283814091
 10
2.4533509002
 20
-49.5701958134
 10
2.4295096966
 20
-49.6089642648
 10
2.4030368938
 20
-49.6446656502
 10
2.3739499285
 20
-49.6773210826
 10
2.3424455447
 20
-49.7067111389
 10
2.3110758433
 20
-49.7310280668
  0
LWPOLYLINE
  5
45A
100
AcDbEntity
  8
RACCORDO
100
AcDbPolyline
 62
7
  6
CONTINUOUS
 90
40
 70
0
 10
6.583903061
 20
43.146115022
 10
6.5939035047
 20
43.3195969218
 10
6.6180034346
 20
43.4928833389
 10
6.6562718067
 20
43.6652966819
 10
6.7087323893
 20
43.8362074298
 10
6.775322322
 20
44.0048948531
 10
6.8558645834
 20
44.1705777965
 10
6.9501711562
 20
44.3326369789
 10
7.0580080929
 20
44.4904721976
 10
7.1790140936
 20
44.6434033783
 10
7.3129311695
 20
44.7909678562
 10
7.4593220712
 20
44.932552392
 10
7.6173997283
 20
45.0673443707
 10
7.7865750117
 20
45.1948525017
 10
7.96636174
 20
45.3147106646
 10
8.155960159
 20
45.4263923156
 10
8.3547933925
 20
45.529571598
 10
8.5621369443
 20
45.6238764616
 10
8.7768275142
 20
45.7088193662
 10
8.9979305808
 20
45.7841152546
 10
9.224829201
 20
45.8496276653
 10
9.456744966
 20
45.9051814809
 10
9.6928920559
 20
45.9506272356
 10
9.9324357448
 20
45.9858352974
 10
10.1744929714
 20
46.0107047355
 10
10.418205544
 20
46.0251746929
 10
10.662760085
 20
46.0292176094
 10
10.9073271771
 20
46.0228320126
 10
11.1510817432
 20
46.0060440649
 10
11.393176664
 20
45.9789105053
 10
11.6327566446
 20
45.9415218304
 10
11.8690338262
 20
45.8939887184
 10
12.1011662692
 20
45.8364614247
 10
12.3282495278
 20
45.7691478806
 10
12.5494608821
 20
45.6922801565
 10
12.7640988745
 20
45.606082286
 10
12.9714843894
 20
45.5107896812
 10
13.1709201514
 20
45.4066682771
 10
13.3616851882
 20
45.2940282753
 10
13.5430953459
 20
45.1731971787
  0
LWPOLYLINE
  5
45B
100
AcDbEntity
  8
0
100
AcDbPolyline
 62
250
  6
CONTINUOUS
 90
6
 70
0
 10
-0.6112563453
 20
-58.152447597
 10
-0.6203890407
 20
-58.2751388576
 10
-0.6350184966
 20
-58.3749899935
 10
-0.6549598093
 20
-58.4506585845
 10
-0.6800742434
 20
-58.5009455637
 10
-0.7117715589
 20
-58.5246281128
  0
LWPOLYLINE
  5
45C
100
AcDbEntity
  8
0
100
AcDbPolyline
 62
250
  6
CONTINUOUS
 90
10
 70
0
 10
2.9882651159
 20
-4.120023847
 10
3.0555919242
 20
-3.8948344821
 10
3.1481629478
 20
-3.6593470625
 10
3.265595936
 20
-3.4177534784
 10
3.40879763
 20
-3.1718501682
 10
3.5745605526
 20
-2.9300905548
 10
3.7533249081
 20
-2.7061328602
 10
3.938161465
 20
-2.5061347755
 10
4.1270734345
 20
-2.3301112006
 10
4.3161778564
 20
-2.1801087432
  0
LWPOLYLINE
  5
45D
100
AcDbEntity
  8
0
100
AcDbPolyline
 62
250
  6
CONTINUOUS
 90
10
 70
0
 10
-8.5375547274
 20
-46.5811855241
 10
-8.8634871416
 20
-47.6380088033
 10
-9.1685191238
 20
-48.6879971532
 10
-9.4524594332
 20
-49.7304880406
 10
-9.7151306246
 20
-50.7648256903
 10
-9.9563676507
 20
-51.7903556308
 10
-10.1760183698
 20
-52.8064252772
 10
-10.3739454654
 20
-53.8123921066
 10
-10.5500261245
 20
-54.8076238887
 10
-10.704150889
 20
-55.791493336
  0
LWPOLYLINE
  5
45E
100
AcDbEntity
  8
RACCORDO
100
AcDbPolyline
 62
250
  6
CONTINUOUS
 90
6
 70
0
 10
21.8155249405
 20
36.4685005572
 10
21.9868513841
 20
36.8413495828
 10
22.1327993702
 20
37.2204482607
 10
22.2527606287
 20
37.6045271062
 10
22.3462577727
 20
37.9920578527
 10
22.4130855205
 20
38.3817048317
  0
LWPOLYLINE
  5
45F
100
AcDbEntity
  8
0
100
AcDbPolyline
 62
7
  6
CONTINUOUS
 90
10
 70
0
 10
21.7742770832
 20
36.0919331579
 10
21.9253176021
 20
36.406549308
 10
22.057939379
 20
36.725335449
 10
22.1722315096
 20
37.0482714097
 10
22.2676393473
 20
37.3737900179
 10
22.3440711
 20
37.7019038274
 10
22.4016185598
 20
38.0326002846
 10
22.4400024551
 20
38.3642745566
 10
22.4591296367
 20
38.6969313964
 10
22.4607093475
 20
38.7635975499
  0
LWPOLYLINE
  5
460
100
AcDbEntity
  8
RACCORDO
100
AcDbPolyline
 62
250
  6
CONTINUOUS
 90
7
 70
0
 10
23.4924479047
 20
33.6487387262
 10
23.7257851517
 20
34.0602668269
 10
23.9321173049
 20
34.4793588601
 10
24.111127808
 20
34.9056255592
 10
24.2621392026
 20
35.3377470592
 10
24.3845986528
 20
35.7741488047
 10
24.4782364507
 20
36.2134704059
  0
LINE
  5
461
100
AcDbEntity
  8
0
100
AcDbLine
 62
7
  6
CONTINUOUS
 10
39.6325986921
 20
25.0487351025
 11
43.3277158403
 21
27.6615774953
  0
LWPOLYLINE
  5
462
100
AcDbEntity
  8
0
100
AcDbPolyline
 62
7
  6
CONTINUOUS
 90
21
 70
0
 10
43.7827215104
 20
22.1962493819
 10
43.7794487234
 20
22.1940350125
 10
43.7681191585
 20
22.1872189273
 10
43.7516311994
 20
22.1788074446
 10
43.7305383071
 20
22.1697860294
 10
43.7051767437
 20
22.1608420736
 10
43.6758091889
 20
22.1525344801
 10
43.6430180344
 20
22.1454184891
 10
43.6072927866
 20
22.1399186359
 10
43.5694109872
 20
22.1364074449
 10
43.5305100764
 20
22.1351358049
 10
43.4915089003
 20
22.1361735137
 10
43.4530940349
 20
22.1394779631
 10
43.4160947603
 20
22.1448979406
 10
43.3812139288
 20
22.1521869725
 10
43.349202215
 20
22.1609748789
 10
43.320902872
 20
22.1707132364
 10
43.2966474574
 20
22.180879691
 10
43.276999498
 20
22.190737162
 10
43.2627765625
 20
22.1991724118
 10
43.2569841848
 20
22.2030794228
  0
LINE
  5
463
100
AcDbEntity
  8
0
100
AcDbLine
 62
7
  6
CONTINUOUS
 10
47.4289351712
 20
24.7615774953
 11
47.4259052229
 21
24.7595564755
  0
LWPOLYLINE
  5
464
100
AcDbEntity
  8
0
100
AcDbPolyline
 62
250
  6
CONTINUOUS
 90
22
 70
0
 10
44.2523803349
 20
22.1141608131
 10
44.1978734383
 20
22.0785489706
 10
44.139858625
 20
22.0460560194
 10
44.0783358948
 20
22.0166819594
 10
44.0129001815
 20
21.9902120933
 10
43.9439565514
 20
21.9668611185
 10
43.8727202035
 20
21.9472731267
 10
43.7990939964
 20
21.931549992
 10
43.7231750716
 20
21.9195898403
 10
43.6464700524
 20
21.9117311419
 10
43.5689737421
 20
21.9080897518
 10
43.4906913374
 20
21.908549815
 10
43.4131450516
 20
21.9131022357
 10
43.33633786
 20
21.9218631984
 10
43.2602667872
 20
21.9347165186
 10
43.1864451208
 20
21.9513045482
 10
43.1149706421
 20
21.9717275636
 10
43.0457455699
 20
21.9958852883
 10
42.979989847
 20
22.0231192446
 10
42.9181101212
 20
22.05320994
 10
42.8596997448
 20
22.0863768669
 10
42.8047587178
 20
22.1226200254
  0
LWPOLYLINE
  5
465
100
AcDbEntity
  8
0
100
AcDbPolyline
 62
250
  6
CONTINUOUS
 90
9
 70
0
 10
42.8047587178
 20
22.1226200254
 10
42.8752212266
 20
22.1667973047
 10
42.9444292892
 20
22.2013438064
 10
43.0113022094
 20
22.2257200806
 10
43.0747957549
 20
22.2395454874
 10
43.1339184626
 20
22.2426041409
 10
43.1877471206
 20
22.2348482798
 10
43.2354411848
 20
22.2163990133
 10
43.2567663613
 20
22.2032370592
  0
LWPOLYLINE
  5
466
100
AcDbEntity
  8
0
100
AcDbPolyline
 62
250
  6
CONTINUOUS
 90
7
 70
0
 10
-48.7756256674
 20
17.5883468466
 10
-48.6539980683
 20
17.5563496218
 10
-48.5254688243
 20
17.5355233468
 10
-48.3920898545
 20
17.5267975402
 10
-48.2547934833
 20
17.5310270962
 10
-48.1175867538
 20
17.548894723
 10
-47.9871629555
 20
17.5795295484
  0
LINE
  5
467
100
AcDbEntity
  8
DRAFT
100
AcDbLine
 62
250
  6
CONTINUOUS
 10
-51.0164779272
 20
27.2070049142
 11
-51.0833615003
 21
27.2362153287
  0
LINE
  5
468
100
AcDbEntity
  8
0
100
AcDbLine
 62
7
  6
CONTINUOUS
 10
-44.1241995442
 20
37.7080452844
 11
12.0907895602
 21
-2.0419547156
  0
LINE
  5
469
100
AcDbEntity
  8
0
100
AcDbLine
 62
7
  6
CONTINUOUS
 10
-43.5938694583
 20
38.168611453
 11
12.8511970507
 21
-1.74407784
  0
LINE
  5
46A
100
AcDbEntity
  8
0
100
AcDbLine
 62
7
  6
CONTINUOUS
 10
-43.5938694583
 20
38.3453881483
 11
12.9746730366
 21
-1.6546118517
  0
LWPOLYLINE
  5
46B
100
AcDbEntity
  8
RACCORDO
100
AcDbPolyline
 62
250
  6
CONTINUOUS
 90
7
 70
0
 10
-3.3877523862
 20
37.1143629132
 10
-3.3365779388
 20
36.6696397272
 10
-3.2565963394
 20
36.2273755487
 10
-3.1479961788
 20
35.788123612
 10
-3.0108844305
 20
35.3523002679
 10
-2.84537963
 20
34.9205237893
 10
-2.6518656605
 20
34.4939961253
  0
LWPOLYLINE
  5
46C
100
AcDbEntity
  8
0
100
AcDbPolyline
 62
250
  6
CONTINUOUS
 90
23
 70
0
 10
15.9342031991
 20
-64.5087426968
 10
15.9430685216
 20
-64.6167469983
 10
15.9459085708
 20
-64.7240738896
 10
15.9427270606
 20
-64.830623589
 10
15.932651087
 20
-64.9368972343
 10
15.9165704053
 20
-65.0422004501
 10
15.8971366723
 20
-65.1446472365
 10
15.8752446418
 20
-65.2435529207
 10
15.8500325591
 20
-65.339432028
 10
15.8215207277
 20
-65.4322043277
 10
15.7897261557
 20
-65.5218074837
 10
15.7546802375
 20
-65.6081467457
 10
15.7164343073
 20
-65.6911026763
 10
15.6750412183
 20
-65.770581426
 10
15.6305271329
 20
-65.8465519408
 10
15.5829075986
 20
-65.9189934679
 10
15.532214102
 20
-65.9878548569
 10
15.4784962552
 20
-66.0530656602
 10
15.4217950102
 20
-66.1145742658
 10
15.36215608
 20
-66.1723283851
 10
15.2996298482
 20
-66.2262766592
 10
15.2342673191
 20
-66.2763726895
 10
15.1762293674
 20
-66.3135046347
  0
LINE
  5
46D
100
AcDbEntity
  8
RACCORDO
100
AcDbLine
 62
250
  6
CONTINUOUS
 10
6.583903061
 20
43.146115022
 11
6.5896180237
 21
42.9565944982
  0
LINE
  5
46E
100
AcDbEntity
  8
0
100
AcDbLine
 62
7
  6
CONTINUOUS
 10
12.0907895602
 20
-2.0419547156
 11
12.0907895602
 21
-2.2950400952
  0
LWPOLYLINE
  5
46F
100
AcDbEntity
  8
0
100
AcDbPolyline
 62
250
  6
CONTINUOUS
 90
69
 70
0
 10
5.1611374189
 20
-51.2117915619
 10
5.1566264137
 20
-51.3009292308
 10
5.150869404
 20
-51.3882815861
 10
5.1439236998
 20
-51.4738978022
 10
5.1359398803
 20
-51.5579550915
 10
5.1268700367
 20
-51.6403785352
 10
5.1164813109
 20
-51.7208294342
 10
5.1050368061
 20
-51.7996024971
 10
5.0923829992
 20
-51.8764918729
 10
5.0777085869
 20
-51.9503646001
 10
5.0607170401
 20
-52.0205340828
 10
5.0419053933
 20
-52.0877131516
 10
5.0216461891
 20
-52.1528285171
 10
5.000087056
 20
-52.2160944179
 10
4.9771697559
 20
-52.2773231634
 10
4.952895621
 20
-52.3368136811
 10
4.9273237443
 20
-52.3945943318
 10
4.9004508478
 20
-52.4506397092
 10
4.8721480734
 20
-52.5051326976
 10
4.8424714137
 20
-52.5579954042
 10
4.811390841
 20
-52.6092739282
 10
4.7785982754
 20
-52.6592755214
 10
4.744106513
 20
-52.707911634
 10
4.7078648118
 20
-52.7551552465
 10
4.6693954354
 20
-52.8013074987
 10
4.6286279182
 20
-52.8462696017
 10
4.5855130458
 20
-52.8898983422
 10
4.5395267881
 20
-52.9323126373
 10
4.490370654
 20
-52.9734601232
 10
4.4381459729
 20
-53.0129988237
 10
4.3829122197
 20
-53.0505725704
 10
4.3244032614
 20
-53.0860260321
 10
4.2627460066
 20
-53.1191404637
 10
4.1986671274
 20
-53.1495762337
 10
4.1321550023
 20
-53.1772168798
 10
4.0632189596
 20
-53.2019999612
 10
3.9927215348
 20
-53.2238571862
 10
3.9208038206
 20
-53.2428407966
 10
3.8474245359
 20
-53.2589225796
 10
3.7732556812
 20
-53.2720821685
 10
3.6984326435
 20
-53.2824336695
 10
3.6229849648
 20
-53.290032401
 10
3.5474900852
 20
-53.2948985802
 10
3.472175753
 20
-53.2971926731
 10
3.3970223707
 20
-53.2970404208
 10
3.3222746476
 20
-53.2944846374
 10
3.2482779968
 20
-53.2897570548
 10
3.1748931637
 20
-53.2829452483
 10
3.1016388919
 20
-53.2738514377
 10
3.0286522752
 20
-53.2625874914
 10
2.9559626186
 20
-53.2492600479
 10
2.8829081936
 20
-53.2335711403
 10
2.8095089554
 20
-53.2155167513
 10
2.7358793929
 20
-53.1952151081
 10
2.6614784782
 20
-53.1724592225
 10
2.5862678163
 20
-53.1471207886
 10
2.5103982709
 20
-53.1193665487
 10
2.4335810116
 20
-53.0893554277
 10
2.3558131564
 20
-53.0570207113
 10
2.277169738
 20
-53.0224069625
 10
2.1974338326
 20
-52.9857706063
 10
2.1166124023
 20
-52.9470566881
 10
2.0347284389
 20
-52.9062356449
 10
1.9515394721
 20
-52.8635309952
 10
1.8670247273
 20
-52.8188262161
 10
1.7811914917
 20
-52.7720812433
 10
1.6937807601
 20
-52.7235559648
 10
1.6047354105
 20
-52.6730678771
 10
1.514036976
 20
-52.6205550178
  0
LINE
  5
470
100
AcDbEntity
  8
RACCORDO
100
AcDbLine
 62
250
  6
CONTINUOUS
 10
14.7729890236
 20
42.8395233537
 11
14.7826844223
 21
43.0047495774
  0
LWPOLYLINE
  5
471
100
AcDbEntity
  8
COPY_PABLISH
100
AcDbPolyline
 62
7
  6
CONTINUOUS
 90
28
 70
0
 10
6.0948960866
 20
-11.8036172692
 10
6.0842735038
 20
-11.9140449558
 10
6.079817934
 20
-12.0286847591
 10
6.0816563165
 20
-12.1472950794
 10
6.089876343
 20
-12.2699173642
 10
6.1046119136
 20
-12.3959514593
 10
6.1259121201
 20
-12.5240979395
 10
6.1537157531
 20
-12.6538724452
 10
6.1879135378
 20
-12.7849527639
 10
6.2282510579
 20
-12.9161922597
 10
6.2745293805
 20
-13.047107954
 10
6.3265049547
 20
-13.1773166557
 10
6.3836854763
 20
-13.3058075871
 10
6.4455610456
 20
-13.4317686023
 10
6.5119872199
 20
-13.5552288012
 10
6.5830096611
 20
-13.6764511424
 10
6.6583331806
 20
-13.7950504825
 10
6.7377158582
 20
-13.9106885949
 10
6.8213899802
 20
-14.0236592908
 10
6.9089166766
 20
-14.1333792187
 10
7.0002376434
 20
-14.2396813825
 10
7.0962792269
 20
-14.3433301495
 10
7.1968597636
 20
-14.4438826572
 10
7.3017127234
 20
-14.5407268077
 10
7.4117239944
 20
-14.6340878246
 10
7.5270016961
 20
-14.7234748426
 10
7.6468176563
 20
-14.8078370093
 10
7.7707655804
 20
-14.8863655386
  0
LWPOLYLINE
  5
472
100
AcDbEntity
  8
0
100
AcDbPolyline
 62
250
  6
CONTINUOUS
 90
3
 70
0
 10
2.6135237322
 20
-49.926817284
 10
2.6088153741
 20
-49.9692694235
 10
2.6151398898
 20
-50.0097403609
  0
LWPOLYLINE
  5
473
100
AcDbEntity
  8
0
100
AcDbPolyline
 62
250
  6
CONTINUOUS
 90
6
 70
0
 10
-0.317506499
 20
-58.1941524249
 10
-0.3319377956
 20
-58.3065207165
 10
-0.3525145712
 20
-58.3937087769
 10
-0.3789679415
 20
-58.4544857909
 10
-0.4112040137
 20
-58.4877665381
 10
-0.435380058
 20
-58.4937911256
  0
LINE
  5
474
100
AcDbEntity
  8
RACCORDO
100
AcDbLine
 62
250
  6
CONTINUOUS
 10
14.7474249427
 20
42.6632614979
 11
14.7729890236
 21
42.8395233537
  0
LINE
  5
475
100
AcDbEntity
  8
ASSI
100
AcDbLine
 62
7
  6
CONTINUOUS
 10
5.9153386118
 20
-11.6805835772
 11
5.9718376127
 21
-11.290722333
  0
LINE
  5
476
100
AcDbEntity
  8
ASSI
100
AcDbLine
 62
7
  6
CONTINUOUS
 10
5.9718376127
 20
-11.290722333
 11
6.0325052235
 21
-10.8878567678
  0
LINE
  5
477
100
AcDbEntity
  8
ASSI
100
AcDbLine
 62
7
  6
CONTINUOUS
 10
6.0325052235
 20
-10.8878567678
 11
6.0749003038
 21
-10.6145600401
  0
LWPOLYLINE
  5
478
100
AcDbEntity
  8
0
100
AcDbPolyline
 62
7
  6
CONTINUOUS
 90
3
 70
0
 10
2.6081171369
 20
-50.0275793417
 10
2.6010957784
 20
-50.0724276125
 10
2.5951613419
 20
-50.0973321789
  0
LINE
  5
479
100
AcDbEntity
  8
ASSI
100
AcDbLine
 62
7
  6
CONTINUOUS
 10
6.0749003038
 20
-10.6145600401
 11
6.1187366512
 21
-10.3422543575
  0
LINE
  5
47A
100
AcDbEntity
  8
ASSI
100
AcDbLine
 62
7
  6
CONTINUOUS
 10
6.1187366512
 20
-10.3422543575
 11
6.164036582
 21
-10.0720685166
  0
LINE
  5
47B
100
AcDbEntity
  8
ASSI
100
AcDbLine
 62
7
  6
CONTINUOUS
 10
6.164036582
 20
-10.0720685166
 11
6.2111738563
 21
-9.8029060549
  0
LINE
  5
47C
100
AcDbEntity
  8
ASSI
100
AcDbLine
 62
7
  6
CONTINUOUS
 10
6.2111738563
 20
-9.8029060549
 11
6.2834687486
 21
-9.404084898
  0
LINE
  5
47D
100
AcDbEntity
  8
ASSI
100
AcDbLine
 62
7
  6
CONTINUOUS
 10
6.2834687486
 20
-9.404084898
 11
6.3549502223
 21
-9.0194492945
  0
LINE
  5
47E
100
AcDbEntity
  8
ASSI
100
AcDbLine
 62
7
  6
CONTINUOUS
 10
6.3549502223
 20
-9.0194492945
 11
6.4017372955
 21
-8.774383146
  0
LINE
  5
47F
100
AcDbEntity
  8
ASSI
100
AcDbLine
 62
7
  6
CONTINUOUS
 10
6.4017372955
 20
-8.774383146
 11
6.4481315382
 21
-8.5381937555
  0
LINE
  5
480
100
AcDbEntity
  8
ASSI
100
AcDbLine
 62
7
  6
CONTINUOUS
 10
6.4481315382
 20
-8.5381937555
 11
6.4946940977
 21
-8.308113157
  0
LINE
  5
481
100
AcDbEntity
  8
ASSI
100
AcDbLine
 62
7
  6
CONTINUOUS
 10
6.4946940977
 20
-8.308113157
 11
6.5419252485
 21
-8.0812990225
  0
LWPOLYLINE
  5
482
100
AcDbEntity
  8
DRAFT
100
AcDbPolyline
 62
7
  6
CONTINUOUS
 90
9
 70
0
 10
7.3752882256
 20
-11.2035860508
 10
7.4257168852
 20
-10.9648934615
 10
7.4963091443
 20
-10.7408683347
 10
7.5868158883
 20
-10.5330155929
 10
7.6980262527
 20
-10.3413301716
 10
7.8284162281
 20
-10.1686455103
 10
7.9731435659
 20
-10.0194698679
 10
8.130461339
 20
-9.8936803238
 10
8.1508278565
 20
-9.8796533811
  0
LINE
  5
483
100
AcDbEntity
  8
ASSI
100
AcDbLine
 62
7
  6
CONTINUOUS
 10
6.5419252485
 20
-8.0812990225
 11
6.5900938782
 21
-7.8564092592
  0
LINE
  5
484
100
AcDbEntity
  8
ASSI
100
AcDbLine
 62
7
  6
CONTINUOUS
 10
6.5900938782
 20
-7.8564092592
 11
6.6395105823
 21
-7.632089884
  0
LINE
  5
485
100
AcDbEntity
  8
ASSI
100
AcDbLine
 62
7
  6
CONTINUOUS
 10
6.6395105823
 20
-7.632089884
 11
6.6904271942
 21
-7.4076583107
  0
LINE
  5
486
100
AcDbEntity
  8
ASSI
100
AcDbLine
 62
7
  6
CONTINUOUS
 10
6.6904271942
 20
-7.4076583107
 11
6.7430645423
 21
-7.1824230683
  0
LWPOLYLINE
  5
487
100
AcDbEntity
  8
COPY_PABLISH
100
AcDbPolyline
 62
7
  6
CONTINUOUS
 90
16
 70
0
 10
7.0012444216
 20
-6.9684687833
 10
6.9193380577
 20
-7.3063598175
 10
6.8402177289
 20
-7.6439010395
 10
6.7638834349
 20
-7.9810924494
 10
6.690185725
 20
-8.3187612097
 10
6.6192740501
 20
-8.6560801579
 10
6.5515967631
 20
-8.9905678068
 10
6.4872251891
 20
-9.3220431913
 10
6.426088003
 20
-9.6506872765
 10
6.3684195827
 20
-9.9745614695
 10
6.3143286399
 20
-10.2933952928
 10
6.2637064629
 20
-10.607459224
 10
6.2164612948
 20
-10.9156261033
 10
6.1725625499
 20
-11.2175202106
 10
6.1320408138
 20
-11.5135172659
 10
6.0948960866
 20
-11.8036172692
  0
LWPOLYLINE
  5
488
100
AcDbEntity
  8
ASSI
100
AcDbPolyline
 62
7
  6
CONTINUOUS
 90
3
 70
0
 10
6.7430645423
 20
-7.1824230683
 10
6.7979095426
 20
-6.9548373327
 10
6.8261275744
 20
-6.8402655673
  0
LWPOLYLINE
  5
489
100
AcDbEntity
  8
COPY_PABLISH
100
AcDbPolyline
 62
7
  6
CONTINUOUS
 90
16
 70
0
 10
7.0012444216
 20
-6.9684687833
 10
7.0398995296
 20
-6.8288790245
 10
7.087417587
 20
-6.6876066776
 10
7.1437985937
 20
-6.5446517426
 10
7.2097472965
 20
-6.398570646
 10
7.2845589487
 20
-6.2508069613
 10
7.3661193102
 20
-6.1056914088
 10
7.4541227581
 20
-5.964047572
 10
7.5488749153
 20
-5.8250518674
 10
7.6491784109
 20
-5.6905642649
 10
7.7558796952
 20
-5.5598413737
 10
7.8681323179
 20
-5.4336265846
 10
7.9821995577
 20
-5.3160100399
 10
8.0968358408
 20
-5.2083551203
 10
8.2132867411
 20
-5.1092984452
 10
8.3315522585
 20
-5.0188400144
  0
LINE
  5
48A
100
AcDbEntity
  8
ASSI
100
AcDbLine
 62
7
  6
CONTINUOUS
 10
6.8261275744
 20
-6.8402655673
 11
6.8547042743
 21
-6.7386021451
  0
LWPOLYLINE
  5
48B
100
AcDbEntity
  8
ASSI
100
AcDbPolyline
 62
7
  6
CONTINUOUS
 90
21
 70
0
 10
6.8547042743
 20
-6.7386021451
 10
6.8880335064
 20
-6.6360167045
 10
6.9261152707
 20
-6.5325092455
 10
6.9692150632
 20
-6.4276246865
 10
7.0170673879
 20
-6.3218181091
 10
7.0688757571
 20
-6.2164547582
 10
7.1246144357
 20
-6.111676955
 10
7.1843091587
 20
-6.0073423785
 10
7.2472406435
 20
-5.9043893097
 10
7.3133958676
 20
-5.8028173074
 10
7.3827878535
 20
-5.7026268129
 10
7.4547363854
 20
-5.6047574319
 10
7.5292382426
 20
-5.5091886956
 10
7.6062966458
 20
-5.4159410728
 10
7.6852410414
 20
-5.3260155759
 10
7.7660943534
 20
-5.2393861142
 10
7.8488336578
 20
-5.1560787784
 10
7.9327196292
 20
-5.0771728526
 10
8.0175058256
 20
-5.0030280982
 10
8.1034386889
 20
-4.9332847537
 10
8.1905182192
 20
-4.8679428192
  0
LWPOLYLINE
  5
48C
100
AcDbEntity
  8
0
100
AcDbPolyline
 62
250
  6
CONTINUOUS
 90
10
 70
0
 10
0.7062545568
 20
-14.508533917
 10
0.7930230883
 20
-14.3224840278
 10
0.8706109685
 20
-14.1370689706
 10
0.9386295588
 20
-13.9532381958
 10
0.9967499496
 20
-13.7718960961
 10
1.0446701322
 20
-13.5940049116
 10
1.0821365405
 20
-13.4205724737
 10
1.108982338
 20
-13.2525044163
 10
1.1251077207
 20
-13.0906074394
 10
1.1304597984
 20
-12.9356876193
  0
LINE
  5
48D
100
AcDbEntity
  8
0
100
AcDbLine
 62
7
  6
CONTINUOUS
 10
12.0907895602
 20
-2.0419547156
 11
8.1906489378
 21
-4.8678481054
  0
LINE
  5
48E
100
AcDbEntity
  8
0
100
AcDbLine
 62
7
  6
CONTINUOUS
 10
8.3311068619
 20
-5.0191627318
 11
12.9746730366
 21
-1.6546118517
  0
LINE
  5
48F
100
AcDbEntity
  8
0
100
AcDbLine
 62
7
  6
CONTINUOUS
 10
47.4256214887
 20
24.7597319068
 11
45.9009879188
 21
23.6849361045
  0
LINE
  5
490
100
AcDbEntity
  8
0
100
AcDbLine
 62
250
  6
CONTINUOUS
 10
47.3370926012
 20
24.2838035341
 11
45.9754156256
 21
23.3246905936
  0
LINE
  5
491
100
AcDbEntity
  8
0
100
AcDbLine
 62
7
  6
CONTINUOUS
 10
45.9009879188
 20
23.6849361045
 11
44.5591456051
 21
22.7413273766
  0
LWPOLYLINE
  5
492
100
AcDbEntity
  8
0
100
AcDbPolyline
 62
250
  6
CONTINUOUS
 90
3
 70
0
 10
45.9754156256
 20
23.3246905936
 10
44.5988355301
 20
22.3573001625
 10
44.2523803349
 20
22.1141608131
  0
LINE
  5
493
100
AcDbEntity
  8
0
100
AcDbLine
 62
7
  6
CONTINUOUS
 10
44.5591456051
 20
22.7413273766
 11
43.7830299073
 21
22.1964699594
  0
LWPOLYLINE
  5
494
100
AcDbEntity
  8
RACCORDO
100
AcDbPolyline
 62
250
  6
CONTINUOUS
 90
13
 70
0
 10
6.5896180237
 20
42.9565944982
 10
6.6111687527
 20
42.7799595475
 10
6.648261126
 20
42.6045951133
 10
6.7007989822
 20
42.4309300957
 10
6.7686783393
 20
42.2594731341
 10
6.851622813
 20
42.0910502935
 10
6.9491891399
 20
41.9265470427
 10
7.0616395104
 20
41.7656901955
 10
7.1879910157
 20
41.6100331774
 10
7.3250348703
 20
41.4628622731
 10
7.4705447072
 20
41.3252506311
 10
7.6241235321
 20
41.1963908413
 10
7.7845974915
 20
41.0763414558
  0
LWPOLYLINE
  5
495
100
AcDbEntity
  8
COPY_PABLISH
100
AcDbPolyline
 62
250
  6
CONTINUOUS
 90
25
 70
0
 10
13.6136876149
 20
-14.4583115762
 10
13.610062958
 20
-14.304732782
 10
13.5949539406
 20
-14.1368702004
 10
13.5675501047
 20
-13.9558107513
 10
13.525963043
 20
-13.7634505323
 10
13.469986943
 20
-13.5601438219
 10
13.4010065556
 20
-13.3446936036
 10
13.3154665426
 20
-13.1155708161
 10
13.2131658377
 20
-12.8764229563
 10
13.1008272097
 20
-12.6329182704
 10
12.9773869425
 20
-12.3835358285
 10
12.8403852849
 20
-12.1293151777
 10
12.6964030916
 20
-11.8781330104
 10
12.5473317901
 20
-11.6287528727
 10
12.3902524888
 20
-11.3800773636
 10
12.2271970839
 20
-11.1394537412
 10
12.0603159345
 20
-10.9060080096
 10
11.8890954404
 20
-10.6786485626
 10
11.7138534054
 20
-10.4646580581
 10
11.5370514738
 20
-10.2652923998
 10
11.3600922567
 20
-10.0788430773
 10
11.1829284205
 20
-9.9086664041
 10
11.0069886282
 20
-9.7561323743
 10
10.8348604334
 20
-9.6204947393
 10
10.6683604134
 20
-9.5021747661
  0
LWPOLYLINE
  5
496
100
AcDbEntity
  8
DRAFT
100
AcDbPolyline
 62
250
  6
CONTINUOUS
 90
3
 70
0
 10
13.6110902058
 20
-19.9306093813
 10
13.6187998389
 20
-20.6518396394
 10
13.6214055695
 20
-20.9999211503
  0
LWPOLYLINE
  5
497
100
AcDbEntity
  8
0
100
AcDbPolyline
 62
250
  6
CONTINUOUS
 90
10
 70
0
 10
15.8639362075
 20
-58.6002071773
 10
15.8685648729
 20
-59.2760210268
 10
15.8748505541
 20
-59.9463711053
 10
15.8827932513
 20
-60.6112574128
 10
15.8935427212
 20
-61.2698315534
 10
15.9059492071
 20
-61.922941923
 10
15.9165634382
 20
-62.5731337088
 10
15.9242356576
 20
-63.2212553067
 10
15.9301156223
 20
-63.8664583208
 10
15.9342033322
 20
-64.5087427512
  0
LWPOLYLINE
  5
498
100
AcDbEntity
  8
0
100
AcDbPolyline
 62
250
  6
CONTINUOUS
 90
5
 70
0
 10
13.5939968934
 20
-63.3558285642
 10
13.5960107679
 20
-63.6701787864
 10
13.6017873518
 20
-64.014081938
 10
13.6083675591
 20
-64.3713431866
 10
13.6136961347
 20
-64.736402697
  0
LINE
  5
499
100
AcDbEntity
  8
0
100
AcDbLine
 62
250
  6
CONTINUOUS
 10
13.6342412629
 20
-23.0491068597
 11
13.6214055695
 21
-20.9999211503
  0
LINE
  5
49A
100
AcDbEntity
  8
0
100
AcDbLine
 62
250
  6
CONTINUOUS
 10
13.6534332675
 20
-27.3719585117
 11
13.6342412629
 21
-23.0491068597
  0
LINE
  5
49B
100
AcDbEntity
  8
COPY_PABLISH
100
AcDbLine
 62
250
  6
CONTINUOUS
 10
13.6054013588
 20
-17.5910920801
 11
13.604009977
 21
-17.2282871347
  0
LWPOLYLINE
  5
49C
100
AcDbEntity
  8
DRAFT
100
AcDbPolyline
 62
250
  6
CONTINUOUS
 90
4
 70
0
 10
13.5886561449
 20
-17.7854182546
 10
13.5897195612
 20
-18.1228432039
 10
13.5927303866
 20
-18.4746726985
 10
13.6110902058
 20
-19.9306093813
  0
LINE
  5
49D
100
AcDbEntity
  8
0
100
AcDbLine
 62
250
  6
CONTINUOUS
 10
15.8612359958
 20
-20.7360015334
 11
15.8801582329
 21
-27.1049986265
  0
LINE
  5
49E
100
AcDbEntity
  8
0
100
AcDbLine
 62
250
  6
CONTINUOUS
 10
13.6529969821
 20
-27.3726268056
 11
13.6715995407
 21
-39.7054894533
  0
LINE
  5
49F
100
AcDbEntity
  8
0
100
AcDbLine
 62
7
  6
CONTINUOUS
 10
15.8801582329
 20
-27.1049986265
 11
15.8908758885
 21
-39.4360390924
  0
LINE
  5
4A0
100
AcDbEntity
  8
0
100
AcDbLine
 62
250
  6
CONTINUOUS
 10
15.8908758885
 20
-39.4360390924
 11
15.8896652927
 21
-43.6551786446
  0
LINE
  5
4A1
100
AcDbEntity
  8
0
100
AcDbLine
 62
250
  6
CONTINUOUS
 10
13.6191227649
 20
-58.8630519745
 11
13.6185254176
 21
-60.1379104697
  0
LINE
  5
4A2
100
AcDbEntity
  8
0
100
AcDbLine
 62
250
  6
CONTINUOUS
 10
15.8896652927
 20
-43.6551786446
 11
15.8869274957
 21
-46.4349792482
  0
LINE
  5
4A3
100
AcDbEntity
  8
COPY_PABLISH
100
AcDbLine
 62
250
  6
CONTINUOUS
 10
13.604009977
 20
-17.2282871347
 11
13.6048781362
 21
-15.814680246
  0
LWPOLYLINE
  5
4A4
100
AcDbEntity
  8
0
100
AcDbPolyline
 62
250
  6
CONTINUOUS
 90
3
 70
0
 10
15.8869274957
 20
-46.4349792482
 10
15.8812833375
 20
-50.027449788
 10
15.8772885006
 20
-52.1627119504
  0
LWPOLYLINE
  5
4A5
100
AcDbEntity
  8
0
100
AcDbPolyline
 62
250
  6
CONTINUOUS
 90
4
 70
0
 10
13.6651205788
 20
-46.5324464373
 10
13.6694794249
 20
-44.2108354655
 10
13.6719892717
 20
-41.9086186081
 10
13.6716234089
 20
-39.7054524211
  0
LINE
  5
4A6
100
AcDbEntity
  8
0
100
AcDbLine
 62
250
  6
CONTINUOUS
 10
15.8772885006
 20
-52.1627119504
 11
15.8639362075
 21
-58.6002071773
  0
LWPOLYLINE
  5
4A7
100
AcDbEntity
  8
0
100
AcDbPolyline
 62
250
  6
CONTINUOUS
 90
3
 70
0
 10
13.6185254176
 20
-60.1379104697
 10
13.6172929538
 20
-60.7222463957
 10
13.6153561541
 20
-61.0682666627
  0
LWPOLYLINE
  5
4A8
100
AcDbEntity
  8
COPY_PABLISH
100
AcDbPolyline
 62
250
  6
CONTINUOUS
 90
25
 70
0
 10
15.9419855649
 20
-14.2988493401
 10
15.9425926704
 20
-14.0736625054
 10
15.9291079159
 20
-13.8328296296
 10
15.9001805728
 20
-13.5762263897
 10
15.8541582813
 20
-13.3034948766
 10
15.7899807335
 20
-13.0152586
 10
15.7074900905
 20
-12.7132711877
 10
15.605101233
 20
-12.3970091933
 10
15.4824936015
 20
-12.0687589429
 10
15.342725091
 20
-11.7351240577
 10
15.1868876746
 20
-11.3987509565
 10
15.0147083381
 20
-11.0601237514
 10
14.8285787543
 20
-10.722876788
 10
14.6302563814
 20
-10.3892050297
 10
14.4198920731
 20
-10.0601061128
 10
14.1978683291
 20
-9.7373773505
 10
13.9645539407
 20
-9.4213077677
 10
13.721678191
 20
-9.1147475456
 10
13.4720205484
 20
-8.8229656761
 10
13.2165784729
 20
-8.546747412
 10
12.9571579016
 20
-8.2872524793
 10
12.6982045419
 20
-8.0491888486
 10
12.4421738191
 20
-7.8337603665
 10
12.1892832317
 20
-7.6393495481
 10
11.9406108796
 20
-7.4655668111
  0
LINE
  5
4A9
100
AcDbEntity
  8
COPY_PABLISH
100
AcDbLine
 62
250
  6
CONTINUOUS
 10
13.6048781362
 20
-15.814680246
 11
13.6062626005
 21
-15.4707072519
  0
LWPOLYLINE
  5
4AA
100
AcDbEntity
  8
COPY_PABLISH
100
AcDbPolyline
 62
250
  6
CONTINUOUS
 90
10
 70
0
 10
15.8622268194
 20
-18.0884624295
 10
15.8643287499
 20
-17.6371854214
 10
15.8678859875
 20
-17.1934386584
 10
15.8728985322
 20
-16.7572221404
 10
15.8790534092
 20
-16.3285065652
 10
15.8866635934
 20
-15.9073212351
 10
15.8966680087
 20
-15.4937540568
 10
15.9093796297
 20
-15.0878343327
 10
15.9244854818
 20
-14.6895327605
 10
15.9419855649
 20
-14.2988493401
  0
LWPOLYLINE
  5
4AB
100
AcDbEntity
  8
DRAFT
100
AcDbPolyline
 62
250
  6
CONTINUOUS
 90
3
 70
0
 10
15.8737358932
 20
-18.2791378448
 10
15.8718872464
 20
-18.5499851762
 10
15.8612359958
 20
-20.7360015334
  0
LINE
  5
4AC
100
AcDbEntity
  8
COPY_PABLISH
100
AcDbLine
 62
250
  6
CONTINUOUS
 10
13.6062626005
 20
-15.4707072519
 11
13.6136876149
 21
-14.4583115762
  0
LWPOLYLINE
  5
4AD
100
AcDbEntity
  8
0
100
AcDbPolyline
 62
250
  6
CONTINUOUS
 90
4
 70
0
 10
13.6191227649
 20
-58.8630519745
 10
13.6348305166
 20
-57.080847166
 10
13.6431692549
 20
-55.149296976
 10
13.6651205788
 20
-46.5324464373
  0
LINE
  5
4AE
100
AcDbEntity
  8
0
100
AcDbLine
 62
250
  6
CONTINUOUS
 10
13.6016180909
 20
-62.4488051497
 11
13.5939968934
 21
-63.3558285642
  0
LWPOLYLINE
  5
4AF
100
AcDbEntity
  8
0
100
AcDbPolyline
 62
250
  6
CONTINUOUS
 90
3
 70
0
 10
13.6153561541
 20
-61.0682666627
 10
13.6055200085
 20
-62.1220503313
 10
13.6016180909
 20
-62.4488051497
  0
LINE
  5
4B0
100
AcDbEntity
  8
0
100
AcDbLine
 62
7
  6
CONTINUOUS
 10
14.7826844223
 20
43.0047495774
 11
14.7784989527
 21
42.7620046129
  0
LWPOLYLINE
  5
4B1
100
AcDbEntity
  8
RACCORDO
100
AcDbPolyline
 62
250
  6
CONTINUOUS
 90
3
 70
0
 10
18.9876014546
 20
41.3432243398
 10
19.0094080243
 20
41.6493142768
 10
19.0110854659
 20
41.7154363633
  0
LWPOLYLINE
  5
4B2
100
AcDbEntity
  8
DRAFT
100
AcDbPolyline
 62
7
  6
CONTINUOUS
 90
11
 70
0
 10
12.9124847697
 20
-14.258325582
 10
12.8960330164
 20
-14.4246402915
 10
12.8672617899
 20
-14.5824434199
 10
12.8266024481
 20
-14.7314061063
 10
12.7752239785
 20
-14.8696345288
 10
12.713134379
 20
-14.9988086078
 10
12.6380536465
 20
-15.1230557112
 10
12.5493598716
 20
-15.2414747889
 10
12.4467655519
 20
-15.3525586524
 10
12.3268172143
 20
-15.4575401821
 10
12.2912887085
 20
-15.4845721576
  0
LWPOLYLINE
  5
4B3
100
AcDbEntity
  8
COPY_PABLISH
100
AcDbPolyline
 62
250
  6
CONTINUOUS
 90
13
 70
0
 10
10.6683522709
 20
-9.5021787858
 10
10.7134178299
 20
-9.32276953
 10
10.7728953425
 20
-9.1380571482
 10
10.8461000796
 20
-8.9501681061
 10
10.9321892799
 20
-8.7612654396
 10
11.0301718521
 20
-8.5735238542
 10
11.1389197845
 20
-8.3891046883
 10
11.2571811308
 20
-8.2101310317
 10
11.3835944235
 20
-8.0386632836
 10
11.5167043476
 20
-7.8766754331
 10
11.6549784937
 20
-7.7260323333
 10
11.7968250003
 20
-7.588468233
 10
11.9406108796
 20
-7.4655668111
  0
LWPOLYLINE
  5
4B4
100
AcDbEntity
  8
0
100
AcDbPolyline
 62
7
  6
CONTINUOUS
 90
5
 70
0
 10
2.5951613419
 20
-50.0973321789
 10
2.5937389995
 20
-50.1022350004
 10
2.5874114838
 20
-50.1200700486
 10
2.5850134618
 20
-50.1250721814
 10
2.5852433801
 20
-50.1246905925
  0
LWPOLYLINE
  5
4B5
100
AcDbEntity
  8
0
100
AcDbPolyline
 62
250
  6
CONTINUOUS
 90
5
 70
0
 10
0.6112361904
 20
-50.8105414615
 10
0.6494389383
 20
-50.7000985001
 10
0.6989891901
 20
-50.586077566
 10
0.7595174983
 20
-50.4704230362
 10
0.773460052
 20
-50.4477869188
  0
LWPOLYLINE
  5
4B6
100
AcDbEntity
  8
0
100
AcDbPolyline
 62
7
  6
CONTINUOUS
 90
13
 70
0
 10
47.4259052229
 20
24.7595564755
 10
47.4217007072
 20
24.7554725049
 10
47.4143362617
 20
24.7448418841
 10
47.4070690464
 20
24.7298423485
 10
47.4003472672
 20
24.7105331665
 10
47.3941553658
 20
24.6872118672
 10
47.3879843488
 20
24.6603478897
 10
47.381938927
 20
24.6301178946
 10
47.3762385875
 20
24.5966153016
 10
47.3704920977
 20
24.5600799068
 10
47.3647920499
 20
24.5205785227
 10
47.3593035197
 20
24.4782298436
 10
47.3480011714
 20
24.385854396
  0
LINE
  5
4B7
100
AcDbEntity
  8
COPY_PABLISH
100
AcDbLine
 62
250
  6
CONTINUOUS
 10
11.9406108796
 20
-7.4655668111
 11
25.702595098
 21
2.5058418804
  0
LINE
  5
4B8
100
AcDbEntity
  8
0
100
AcDbLine
 62
250
  6
CONTINUOUS
 10
26.8339659479
 20
3.3058418804
 11
25.702595098
 21
2.5058418804
  0
LINE
  5
4B9
100
AcDbEntity
  8
0
100
AcDbLine
 62
250
  6
CONTINUOUS
 10
6.1300930538
 20
-11.528729255
 11
5.9153386118
 21
-11.6805835772
  0
LINE
  5
4BA
100
AcDbEntity
  8
RACCORDO
100
AcDbLine
 62
250
  6
CONTINUOUS
 10
0.5639560261
 20
-16.0928246328
 11
1.1173676364
 21
-15.7015035304
  0
LINE
  5
4BB
100
AcDbEntity
  8
RACCORDO
100
AcDbLine
 62
250
  6
CONTINUOUS
 10
1.8377412329
 20
-18.2673119972
 11
2.471715545
 21
-17.8190244621
  0
LINE
  5
4BC
100
AcDbEntity
  8
DRAFT
100
AcDbLine
 62
250
  6
CONTINUOUS
 10
7.9730238139
 20
-15.0054794046
 11
7.7907321326
 21
-15.1343790885
  0
LINE
  5
4BD
100
AcDbEntity
  8
RACCORDO
100
AcDbLine
 62
250
  6
CONTINUOUS
 10
52.2326741789
 20
20.8221046027
 11
26.8339659479
 21
3.3058418804
  0
LWPOLYLINE
  5
4BE
100
AcDbEntity
  8
DRAFT
100
AcDbPolyline
 62
7
  6
CONTINUOUS
 90
33
 70
0
 10
8.1508278565
 20
-9.8796533811
 10
8.2988301231
 20
-9.7908189636
 10
8.4719857443
 20
-9.7123349273
 10
8.6453956448
 20
-9.6569800465
 10
8.8190310716
 20
-9.6216435493
 10
8.9931816423
 20
-9.6042727528
 10
9.1656566039
 20
-9.603386599
 10
9.3359155755
 20
-9.6173929126
 10
9.5076324581
 20
-9.6457631297
 10
9.6799509479
 20
-9.6879055582
 10
9.8522591991
 20
-9.7434701853
 10
10.0292836258
 20
-9.8145036565
 10
10.2112201141
 20
-9.901865936
 10
10.396644439
 20
-10.0058574482
 10
10.5879847106
 20
-10.1294697599
 10
10.7861359398
 20
-10.2754430422
 10
10.9878810415
 20
-10.443034312
 10
11.1892468699
 20
-10.6298569178
 10
11.3884881337
 20
-10.8359792477
 10
11.5838846415
 20
-11.0603984898
 10
11.7717169424
 20
-11.2975838545
 10
11.9499238571
 20
-11.5449178531
 10
12.1174378654
 20
-11.8016077334
 10
12.272591106
 20
-12.0639902043
 10
12.4148788956
 20
-12.3303242412
 10
12.5422735597
 20
-12.5982548217
 10
12.6517173907
 20
-12.863026908
 10
12.7431235266
 20
-13.1228779282
 10
12.8160417092
 20
-13.3757470069
 10
12.8685099903
 20
-13.6169206165
 10
12.9009477013
 20
-13.8443480697
 10
12.9152064027
 20
-14.0583144213
 10
12.9124847697
 20
-14.258325582
  0
LINE
  5
4BF
100
AcDbEntity
  8
COPY_PABLISH
100
AcDbLine
 62
7
  6
CONTINUOUS
 10
-37.9370152088
 20
47.5058418804
 11
25.702595098
 21
2.5058418804
  0
LINE
  5
4C0
100
AcDbEntity
  8
0
100
AcDbLine
 62
7
  6
CONTINUOUS
 10
25.702595098
 20
2.5058418804
 11
-37.9370152088
 21
47.5058418804
  0
LINE
  5
4C1
100
AcDbEntity
  8
DRAFT
100
AcDbLine
 62
7
  6
CONTINUOUS
 10
-36.8056443589
 20
48.3058418804
 11
26.8339659479
 21
3.3058418804
  0
LINE
  5
4C2
100
AcDbEntity
  8
ASSI
100
AcDbLine
 62
7
  6
CONTINUOUS
 10
26.8339659479
 20
3.3058418804
 11
-36.8056443589
 21
48.3058418804
  0
LWPOLYLINE
  5
4C3
100
AcDbEntity
  8
COPY_PABLISH
100
AcDbPolyline
 62
7
  6
CONTINUOUS
 90
22
 70
0
 10
25.702595098
 20
2.5058418804
 10
26.0225472131
 20
2.2671898158
 10
26.3372393358
 20
2.0092115953
 10
26.6466714661
 20
1.7319072186
 10
26.9525090156
 20
1.4335163096
 10
27.2530865727
 20
1.1157992446
 10
27.5434079031
 20
0.7840371527
 10
27.8233015767
 20
0.4379952753
 10
28.0929390236
 20
0.0779083711
 10
28.3478382994
 20
-0.2902381543
 10
28.5877530596
 20
-0.6665790154
 10
28.8129296488
 20
-1.0509794977
 10
29.019625156
 20
-1.4370500527
 10
29.207530675
 20
-1.8248185953
 10
29.376955112
 20
-2.2142572105
 10
29.5250822748
 20
-2.5988926054
 10
29.6515561852
 20
-2.9786444954
 10
29.7567328214
 20
-3.3535931652
 10
29.8388639252
 20
-3.7175061751
 10
29.8973667441
 20
-4.0683060454
 10
29.9328240308
 20
-4.408070256
 10
29.9452357851
 20
-4.7367988067
  0
LWPOLYLINE
  5
4C4
100
AcDbEntity
  8
RACCORDO
100
AcDbPolyline
 62
250
  6
CONTINUOUS
 90
11
 70
0
 10
-2.6518656605
 20
34.4939961253
 10
-2.4309163076
 20
34.0739936957
 10
-2.1830617964
 20
33.6614413759
 10
-1.9088178676
 20
33.257123662
 10
-1.6089317945
 20
32.8620526847
 10
-1.2842395015
 20
32.4771892361
 10
-0.9353500171
 20
32.1031257981
 10
-0.5627187169
 20
31.7403014332
 10
-0.16699977
 20
31.3893654719
 10
0.2508870845
 20
31.0511452177
 10
0.6900787805
 20
30.7263372108
  0
LWPOLYLINE
  5
4C5
100
AcDbEntity
  8
0
100
AcDbPolyline
 62
7
  6
CONTINUOUS
 90
9
 70
0
 10
-0.6998438421
 20
36.6052145108
 10
-0.8325354002
 20
36.9263302938
 10
-0.946898182
 20
37.2512740092
 10
-1.042377198
 20
37.5784687414
 10
-1.1188806587
 20
37.9079254322
 10
-1.1765003535
 20
38.2396331398
 10
-1.2149566604
 20
38.5719821241
 10
-1.2341564311
 20
38.9049755022
 10
-1.2357725247
 20
39.1719440034
  0
LINE
  5
4C6
100
AcDbEntity
  8
RACCORDO
100
AcDbLine
 62
250
  6
CONTINUOUS
 10
21.6838567002
 20
-17.3946896082
 11
21.6838567002
 21
-17.4412347119
  0
LINE
  5
4C7
100
AcDbEntity
  8
DRAFT
100
AcDbLine
 62
7
  6
CONTINUOUS
 10
21.8874024109
 20
-60.4436255726
 11
21.8874026217
 21
-17.5851634132
  0
LINE
  5
4C8
100
AcDbEntity
  8
RACCORDO
100
AcDbLine
 62
250
  6
CONTINUOUS
 10
22.384739276
 20
-17.3111643254
 11
22.384739276
 21
-60.1040281235
  0
LWPOLYLINE
  5
4C9
100
AcDbEntity
  8
RACCORDO
100
AcDbPolyline
 62
250
  6
CONTINUOUS
 90
22
 70
0
 10
22.384739276
 20
-60.1040281235
 10
22.3840855038
 20
-60.1768967142
 10
22.3818687135
 20
-60.25563632
 10
22.3776795306
 20
-60.3399151559
 10
22.3710475842
 20
-60.4296653068
 10
22.3615062163
 20
-60.5241458039
 10
22.3486739457
 20
-60.6220037899
 10
22.3320910575
 20
-60.7227770298
 10
22.311275364
 20
-60.8259725551
 10
22.2859356997
 20
-60.9302567974
 10
22.2556446639
 20
-61.0351192236
 10
22.2199658055
 20
-61.1400151424
 10
22.1787549943
 20
-61.2436653256
 10
22.1316587328
 20
-61.3455512988
 10
22.0783309686
 20
-61.4451160604
 10
22.0188308962
 20
-61.5411769247
 10
21.9529200304
 20
-61.6332488793
 10
21.8803751047
 20
-61.7208252828
 10
21.8014924413
 20
-61.802898227
 10
21.7161764748
 20
-61.8790673927
 10
21.6243422522
 20
-61.9489340157
 10
21.605900403
 20
-61.9616327796
  0
LINE
  5
4CA
100
AcDbEntity
  8
0
100
AcDbLine
 62
7
  6
CONTINUOUS
 10
19.0110854659
 20
41.7154363633
 11
19.0056540543
 21
41.4004304178
  0
LINE
  5
4CB
100
AcDbEntity
  8
0
100
AcDbLine
 62
7
  6
CONTINUOUS
 10
20.7389427721
 20
40.4161391904
 11
20.7331806921
 21
40.0819554436
  0
LINE
  5
4CC
100
AcDbEntity
  8
0
100
AcDbLine
 62
7
  6
CONTINUOUS
 10
22.4659734072
 20
39.0688975143
 11
22.4607073299
 21
38.7634804695
  0
LINE
  5
4CD
100
AcDbEntity
  8
0
100
AcDbLine
 62
7
  6
CONTINUOUS
 10
24.5859853735
 20
37.3111454306
 11
24.568429378
 21
36.2929491582
  0
LINE
  5
4CE
100
AcDbEntity
  8
RACCORDO
100
AcDbLine
 62
250
  6
CONTINUOUS
 10
22.4532839434
 20
38.7730255968
 11
22.4659734072
 21
39.0688975143
  0
LINE
  5
4CF
100
AcDbEntity
  8
RACCORDO
100
AcDbLine
 62
250
  6
CONTINUOUS
 10
20.7218300657
 20
40.0821074947
 11
20.7389427721
 21
40.4161391904
  0
LINE
  5
4D0
100
AcDbEntity
  8
RACCORDO
100
AcDbLine
 62
250
  6
CONTINUOUS
 10
22.4130855205
 20
38.3817048317
 11
22.4532839434
 21
38.7730255968
  0
LWPOLYLINE
  5
4D1
100
AcDbEntity
  8
RACCORDO
100
AcDbPolyline
 62
250
  6
CONTINUOUS
 90
4
 70
0
 10
24.4782364507
 20
36.2134704059
 10
24.5430610241
 20
36.6552307549
 10
24.5790348408
 20
37.0991552011
 10
24.5859853735
 20
37.3111454306
  0
LINE
  5
4D2
100
AcDbEntity
  8
RACCORDO
100
AcDbLine
 62
250
  6
CONTINUOUS
 10
56.0319787648
 20
14.3362859804
 11
31.076606635
 21
-3.9367988067
  0
LINE
  5
4D3
100
AcDbEntity
  8
0
100
AcDbLine
 62
250
  6
CONTINUOUS
 10
31.076606635
 20
-3.9367988067
 11
29.9452357851
 21
-4.7367988067
  0
LINE
  5
4D4
100
AcDbEntity
  8
COPY_PABLISH
100
AcDbLine
 62
250
  6
CONTINUOUS
 10
15.9419855649
 20
-14.2988493401
 11
29.9452357851
 21
-4.7367988067
  0
LWPOLYLINE
  5
4D5
100
AcDbEntity
  8
DRAFT
100
AcDbPolyline
 62
7
  6
CONTINUOUS
 90
37
 70
0
 10
12.2912887085
 20
-15.4845721576
 10
12.1869099929
 20
-15.5551539175
 10
12.0275743764
 20
-15.6416453933
 10
11.8497092849
 20
-15.7137329402
 10
11.6513978703
 20
-15.769713995
 10
11.43406637
 20
-15.8065515764
 10
11.2049560224
 20
-15.8208935896
 10
10.9647629199
 20
-15.8122868614
 10
10.7151668369
 20
-15.7804271798
 10
10.4664565336
 20
-15.7259625842
 10
10.2222049597
 20
-15.6510290472
 10
9.9824200222
 20
-15.5576399294
 10
9.7524898674
 20
-15.4489904236
 10
9.5350327667
 20
-15.3279920063
 10
9.3297804852
 20
-15.1968814104
 10
9.1374762741
 20
-15.0584130002
 10
8.9596759588
 20
-14.9153901856
 10
8.795692856
 20
-14.7690989296
 10
8.6427277475
 20
-14.6194576162
 10
8.5010850316
 20
-14.4680370569
 10
8.3706977705
 20
-14.3156517575
 10
8.2484368441
 20
-14.1603126379
 10
8.1344500893
 20
-14.0030090544
 10
8.0288881258
 20
-13.8440941871
 10
7.9291669857
 20
-13.6800973401
 10
7.835513652
 20
-13.511473611
 10
7.7486072395
 20
-13.3386930142
 10
7.6673112028
 20
-13.1580937578
 10
7.5923097705
 20
-12.9700605388
 10
7.5248102928
 20
-12.7754232217
 10
7.4653584855
 20
-12.5713322412
 10
7.4153035606
 20
-12.358189745
 10
7.3765010402
 20
-12.1379227418
 10
7.3510140039
 20
-11.9104261984
 10
7.3409855276
 20
-11.6770653132
 10
7.3483800685
 20
-11.4406063154
 10
7.3752882256
 20
-11.2035860508
  0
LINE
  5
4D6
100
AcDbEntity
  8
ASSI
100
AcDbLine
 62
7
  6
CONTINUOUS
 10
-37.1799844381
 20
48.5533829216
 11
-37.5460098419
 21
48.7640138081
  0
LINE
  5
4D7
100
AcDbEntity
  8
DRAFT
100
AcDbLine
 62
7
  6
CONTINUOUS
 10
-37.4095063252
 20
48.6896425631
 11
-37.209623455
 21
48.5721918571
  0
LWPOLYLINE
  5
4D8
100
AcDbEntity
  8
0
100
AcDbPolyline
 62
7
  6
CONTINUOUS
 90
40
 70
0
 10
52.8458939206
 20
-8.349632579
 10
52.6994605158
 20
-8.2566345618
 10
52.3668860351
 20
-8.08765053
 10
52.0101916462
 20
-7.9608799727
 10
51.6290683773
 20
-7.8768636365
 10
51.2238252001
 20
-7.8350607747
 10
50.7996311326
 20
-7.8360045974
 10
50.3562434173
 20
-7.8802426816
 10
49.8939048116
 20
-7.9672274503
 10
49.4185126056
 20
-8.0958493825
 10
48.9298995851
 20
-8.2666418424
 10
48.4282329642
 20
-8.4790714658
 10
47.9199116756
 20
-8.7304286387
 10
47.4048504743
 20
-9.0212120158
 10
46.8831346051
 20
-9.3509229425
 10
46.361418736
 20
-9.715355841
 10
45.8397028669
 20
-10.1149554932
 10
45.3179869978
 20
-10.5492771172
 10
44.8029257964
 20
-11.0127807894
 10
44.2946045078
 20
-11.5058403262
 10
43.792937887
 20
-12.0280819111
 10
43.3043248664
 20
-12.5728441707
 10
42.8289326604
 20
-13.1404155906
 10
42.3665940548
 20
-13.7305076851
 10
41.9232063395
 20
-14.3355936241
 10
41.4990122719
 20
-14.9558654757
 10
41.0937690947
 20
-15.5911311716
 10
40.7126458259
 20
-16.2332876766
 10
40.3559514369
 20
-16.8824232605
 10
40.0233769563
 20
-17.5384496534
 10
39.7191644874
 20
-18.19299901
 10
39.4436773423
 20
-18.8460524098
 10
39.196552209
 20
-19.4976287733
 10
38.9809412546
 20
-20.1394170169
 10
38.79724817
 20
-20.7712917566
 10
38.6450692643
 20
-21.3933783765
 10
38.5263456325
 20
-21.9977419448
 10
38.4417243063
 20
-22.5817374843
 10
38.3905582541
 20
-23.1480099723
 10
38.3728474757
 20
-23.6965594088
  0
LWPOLYLINE
  5
4D9
100
AcDbEntity
  8
DRAFT
100
AcDbPolyline
 62
7
  6
CONTINUOUS
 90
3
 70
0
 10
-37.209623455
 20
48.5721918571
 10
-37.0083361329
 20
48.4442582963
 10
-36.8056443589
 20
48.3058418804
  0
LINE
  5
4DA
100
AcDbEntity
  8
ASSI
100
AcDbLine
 62
7
  6
CONTINUOUS
 10
-36.8056443589
 20
48.3058418804
 11
-37.1799844381
 21
48.5533829216
  0
LWPOLYLINE
  5
4DB
100
AcDbEntity
  8
0
100
AcDbPolyline
 62
7
  6
CONTINUOUS
 90
13
 70
0
 10
-37.9370152088
 20
47.5058418804
 10
-38.2569673239
 20
47.7196704363
 10
-38.5716594466
 20
47.9067340836
 10
-38.8810915769
 20
48.0670328224
 10
-39.1869291264
 20
48.2011615237
 10
-39.4875066835
 20
48.3085253164
 10
-39.7778280139
 20
48.3873395874
 10
-40.0577216875
 20
48.4371271393
 10
-40.3273591344
 20
48.4583651694
 10
-40.5822584102
 20
48.4507006569
 10
-40.8221731704
 20
48.4136505035
 10
-41.0473497596
 20
48.3476978075
 10
-41.2540452668
 20
48.2539388421
  0
LINE
  5
4DC
100
AcDbEntity
  8
DRAFT
100
AcDbLine
 62
7
  6
CONTINUOUS
 10
26.8339659479
 20
3.3058418804
 11
27.0366577219
 21
3.1576088405
  0
LWPOLYLINE
  5
4DD
100
AcDbEntity
  8
DRAFT
100
AcDbPolyline
 62
7
  6
CONTINUOUS
 90
31
 70
0
 10
27.0366577219
 20
3.1576088405
 10
27.237945044
 20
3.0008791405
 10
27.4378279142
 20
2.8356527805
 10
27.6367146969
 20
2.6615549505
 10
27.8341970276
 20
2.4789604604
 10
28.0290498137
 20
2.2889937399
 10
28.2213476084
 20
2.0915061918
 10
28.4110158583
 20
1.8866464132
 10
28.5966058105
 20
1.6759846255
 10
28.777970909
 20
1.4596242781
 10
28.9552577097
 20
1.2374619216
 10
29.1274571268
 20
1.0107574288
 10
29.2946642364
 20
0.7793020065
 10
29.4567839625
 20
0.5433044478
 10
29.6125219914
 20
0.304651006
 10
29.7617091276
 20
0.063522756
 10
29.9045145665
 20
-0.1802613772
 10
30.0401515809
 20
-0.425358366
 10
30.1686816064
 20
-0.6719808475
 10
30.2900432073
 20
-0.9199161846
 10
30.4032653486
 20
-1.1671834382
 10
30.5082064658
 20
-1.4135874309
 10
30.6050081234
 20
-1.6593233401
 10
30.6931239797
 20
-1.9029957581
 10
30.7725538538
 20
-2.1447511128
 10
30.8432979266
 20
-2.3844429764
 10
30.9048104001
 20
-2.6202366582
 10
30.9569953942
 20
-2.8519898075
 10
30.9999487891
 20
-3.079844775
 10
31.0334124264
 20
-3.3023939225
 10
31.0573002534
 20
-3.5191680373
  0
LWPOLYLINE
  5
4DE
100
AcDbEntity
  8
0
100
AcDbPolyline
 62
7
  6
CONTINUOUS
 90
22
 70
0
 10
29.9452357851
 20
-4.7367988067
 10
29.9328240308
 20
-4.408070256
 10
29.8973667441
 20
-4.0683060454
 10
29.8388639252
 20
-3.7175061751
 10
29.7567328214
 20
-3.3535931652
 10
29.6515561852
 20
-2.9786444954
 10
29.5250822748
 20
-2.5988926054
 10
29.376955112
 20
-2.2142572105
 10
29.207530675
 20
-1.8248185953
 10
29.019625156
 20
-1.4370500527
 10
28.8129296488
 20
-1.0509794977
 10
28.5877530596
 20
-0.6665790154
 10
28.3478382994
 20
-0.2902381543
 10
28.0929390236
 20
0.0779083711
 10
27.8233015767
 20
0.4379952753
 10
27.5434079031
 20
0.7840371527
 10
27.2530865727
 20
1.1157992446
 10
26.9525090156
 20
1.4335163096
 10
26.6466714661
 20
1.7319072186
 10
26.3372393358
 20
2.0092115953
 10
26.0225472131
 20
2.2671898158
 10
25.702595098
 20
2.5058418804
  0
LWPOLYLINE
  5
4DF
100
AcDbEntity
  8
0
100
AcDbPolyline
 62
7
  6
CONTINUOUS
 90
7
 70
0
 10
-46.93309728
 20
18.1195810668
 10
-46.8848083202
 20
18.1312450201
 10
-46.8340599515
 20
18.1387104998
 10
-46.7812667539
 20
18.1419165177
 10
-46.7264119771
 20
18.1408281821
 10
-46.6695123715
 20
18.1354803848
 10
-46.6500837724
 20
18.1323030926
  0
LWPOLYLINE
  5
4E0
100
AcDbEntity
  8
COPY_PABLISH
100
AcDbPolyline
 62
7
  6
CONTINUOUS
 90
6
 70
0
 10
-51.383284966
 20
27.1873033482
 10
-51.2903558489
 20
27.1899385009
 10
-51.200710028
 20
27.2022422604
 10
-51.1142436838
 20
27.2243157188
 10
-51.0312220799
 20
27.256305837
 10
-50.9522546801
 20
27.2982086207
  0
LWPOLYLINE
  5
4E1
100
AcDbEntity
  8
0
100
AcDbPolyline
 62
7
  6
CONTINUOUS
 90
16
 70
0
 10
42.2790088816
 20
27.8604088321
 10
42.3554288896
 20
27.8623889477
 10
42.4315829751
 20
27.8623821099
 10
42.5073550541
 20
27.8602945113
 10
42.5826814837
 20
27.8559455145
 10
42.6573903264
 20
27.8493494693
 10
42.7311954093
 20
27.8406876075
 10
42.8039139096
 20
27.829855136
 10
42.8754715304
 20
27.8167733893
 10
42.9457163634
 20
27.8015894213
 10
43.0145541794
 20
27.784122135
 10
43.0817557868
 20
27.7642841016
 10
43.1469121794
 20
27.7422572792
 10
43.2097330151
 20
27.7179612592
 10
43.2700765294
 20
27.6911201437
 10
43.3277158403
 20
27.6615774953
  0
LWPOLYLINE
  5
4E2
100
AcDbEntity
  8
ASSI
100
AcDbPolyline
 62
7
  6
CONTINUOUS
 90
9
 70
0
 10
-37.5460098419
 20
48.7640138081
 10
-37.9037205703
 20
48.9377345399
 10
-38.2556993045
 20
49.075301567
 10
-38.5993633632
 20
49.1759584393
 10
-38.9269647025
 20
49.2374358075
 10
-39.2381384396
 20
49.2588436652
 10
-39.5332494571
 20
49.2410720187
 10
-39.8056443589
 20
49.1845215368
 10
-40.0548071229
 20
49.0883113152
  0
LWPOLYLINE
  5
4E3
100
AcDbEntity
  8
RACCORDO
100
AcDbPolyline
 62
250
  6
CONTINUOUS
 90
67
 70
0
 10
2.5862022289
 20
30.9385825052
 10
3.0738132131
 20
30.6878657788
 10
3.5769470341
 20
30.4527167351
 10
4.0950104589
 20
30.233442435
 10
4.6272076395
 20
30.0304518612
 10
5.1722449391
 20
29.8443095131
 10
5.7287534141
 20
29.6755231507
 10
6.2956680493
 20
29.5244442525
 10
6.8717473008
 20
29.3914312969
 10
7.4552827318
 20
29.2768750566
 10
8.0446587283
 20
29.1810429055
 10
8.6390294675
 20
29.1040232757
 10
9.2378197095
 20
29.0458935896
 10
9.8402742433
 20
29.0067850677
 10
10.4446699202
 20
28.9868672327
 10
11.0489759237
 20
28.9862045864
 10
11.6513915675
 20
29.00473358
 10
12.2512195705
 20
29.0423671985
 10
12.8480790737
 20
29.0990834749
 10
13.4413131172
 20
29.174892724
 10
14.029078673
 20
29.2696328351
 10
14.6092403592
 20
29.3829579582
 10
15.1800038162
 20
29.5144369794
 10
15.7408335983
 20
29.6638648462
 10
16.2914976004
 20
29.8311809772
 10
16.8314274448
 20
30.0163017007
 10
17.3588418221
 20
30.218707376
 10
17.8717371221
 20
30.4376281656
 10
18.3685156715
 20
30.672283087
 10
18.8487945312
 20
30.9223893304
 10
19.3124291264
 20
31.1878721452
 10
19.7589290513
 20
31.468561772
 10
20.1867569466
 20
31.7636074656
 10
20.5942625583
 20
32.0718711756
 10
20.9802080857
 20
32.3922897826
 10
21.3443446612
 20
32.7245232733
 10
21.6865643184
 20
33.0684726143
 10
22.0064579252
 20
33.4238750442
 10
22.3028859725
 20
33.7896238828
 10
22.5747193663
 20
34.1643276918
 10
22.8211908137
 20
34.5467472942
 10
23.042174844
 20
34.9364884779
 10
23.2375834655
 20
35.3333931509
 10
23.4071168741
 20
35.7370926566
 10
23.5501334833
 20
36.1463370024
 10
23.6661097359
 20
36.5596349885
 10
23.7547902102
 20
36.9756982447
 10
23.8161828809
 20
37.3940711367
 10
23.8502521922
 20
37.8144935567
 10
23.8568640508
 20
38.2364837683
 10
23.8359037625
 20
38.6587810824
 10
23.7874385527
 20
39.0799599581
 10
23.7116912717
 20
39.4988100105
 10
23.6088405362
 20
39.9148072921
 10
23.478987688
 20
40.3275574925
 10
23.3222450396
 20
40.7364750718
 10
23.1389760947
 20
41.1404217217
 10
22.9297241343
 20
41.5381885962
 10
22.694991158
 20
41.9288997637
 10
22.4352657753
 20
42.3118122518
 10
22.1512560452
 20
42.685967552
 10
21.8437539002
 20
43.0504558115
 10
21.5133358079
 20
43.4047159068
 10
21.160432529
 20
43.748331919
 10
20.785663469
 20
44.080688822
 10
20.3898998676
 20
44.4010031225
 10
19.9739591297
 20
44.7086151336
  0
LINE
  5
4E4
100
AcDbEntity
  8
DRAFT
100
AcDbLine
 62
7
  6
CONTINUOUS
 10
-37.6083931079
 20
48.7968131184
 11
-37.4095063252
 21
48.6896425631
  0
LINE
  5
4E5
100
AcDbEntity
  8
RACCORDO
100
AcDbLine
 62
250
  6
CONTINUOUS
 10
2.1149878726
 20
31.2044262073
 11
2.5862022289
 21
30.9385825052
  0
LWPOLYLINE
  5
4E6
100
AcDbEntity
  8
RACCORDO
100
AcDbPolyline
 62
250
  6
CONTINUOUS
 90
44
 70
0
 10
0.6900787805
 20
30.7263372108
 10
1.1496779981
 20
30.4156040316
 10
1.628748712
 20
30.1195794579
 10
2.1263043993
 20
29.8388748922
 10
2.6411729606
 20
29.5741424792
 10
3.1724319473
 20
29.3258477026
 10
3.7194553456
 20
29.094315301
 10
4.2814029531
 20
28.8799774336
 10
4.8569085787
 20
28.6834298861
 10
5.4445265486
 20
28.5052084541
 10
6.0431322614
 20
28.3456840938
 10
6.6514148676
 20
28.2052354783
 10
7.26757048
 20
28.0842753523
 10
7.8898931786
 20
27.9830860916
 10
8.5174898358
 20
27.9017610193
 10
9.1497530467
 20
27.8403818542
 10
9.785885383
 20
27.7990871422
 10
10.4240673727
 20
27.7780558921
 10
11.062154675
 20
27.7773562098
 10
11.6982459449
 20
27.7969209896
 10
12.3316049233
 20
27.8366583566
 10
12.9618294594
 20
27.8965451268
 10
13.5882258659
 20
27.9765921991
 10
14.208848088
 20
28.0766283926
 10
14.8214413771
 20
28.1962885123
 10
15.4241110708
 20
28.3351173376
 10
16.0162917906
 20
28.492898361
 10
16.5977384518
 20
28.6695676241
 10
17.1678509002
 20
28.8650367834
 10
17.7247482515
 20
29.0787571439
 10
18.2663148962
 20
29.3099158263
 10
18.7908638524
 20
29.5576881872
 10
19.2979907728
 20
29.8217756112
 10
19.7875429974
 20
30.1020991732
 10
20.2590027046
 20
30.3984796252
 10
20.7107465965
 20
30.710018663
 10
21.1410321693
 20
31.0355146172
 10
21.5485524276
 20
31.373844939
 10
21.9330445922
 20
31.724650608
 10
22.2943946634
 20
32.0878270532
 10
22.632170641
 20
32.4630968233
 10
22.9451693141
 20
32.8492913754
 10
23.2321984654
 20
33.2449414918
 10
23.4924479047
 20
33.6487387262
  0
LWPOLYLINE
  5
4E7
100
AcDbEntity
  8
RACCORDO
100
AcDbPolyline
 62
250
  6
CONTINUOUS
 90
3
 70
0
 10
1.226013253
 20
31.7790620834
 10
1.6612801045
 20
31.4847790858
 10
2.1149878726
 20
31.2044262073
  0
LWPOLYLINE
  5
4E8
100
AcDbEntity
  8
0
100
AcDbPolyline
 62
7
  6
CONTINUOUS
 90
51
 70
0
 10
2.2345292494
 20
33.1899106549
 10
2.5797194586
 20
32.9554426073
 10
2.9367485957
 20
32.7314250323
 10
3.3056166609
 20
32.5178579299
 10
3.6869596767
 20
32.3144291327
 10
4.0801416206
 20
32.1214508081
 10
4.4832544246
 20
31.9398594583
 10
4.8963463602
 20
31.7697104323
 10
5.319369156
 20
31.6109483811
 10
5.7502699299
 20
31.4643437591
 10
6.1890869748
 20
31.3299556604
 10
6.6357819977
 20
31.2077249908
 10
7.0881872378
 20
31.0982449221
 10
7.5463304512
 20
31.0015774317
 10
8.0101838819
 20
30.9176605421
 10
8.4774965013
 20
30.8469014926
 10
8.9482851235
 20
30.7893642402
 10
9.4225329345
 20
30.7449848279
 10
9.8979384627
 20
30.713978624
 10
10.3745073356
 20
30.6964106323
 10
10.8522339258
 20
30.6922158489
 10
11.3287998797
 20
30.7014146308
 10
11.8041995559
 20
30.7240720807
 10
12.2784385959
 20
30.7601230957
 10
12.7492155709
 20
30.8093927245
 10
13.2165136527
 20
30.8719452193
 10
13.6803496694
 20
30.9477163277
 10
14.138472677
 20
31.0363383412
 10
14.590854906
 20
31.1378737247
 10
15.0375241258
 20
31.2522600132
 10
15.476312701
 20
31.3789421029
 10
15.9071823257
 20
31.5179797606
 10
16.3301713056
 20
31.6693132194
 10
16.7432269229
 20
31.8322080752
 10
17.1463008938
 20
32.0067205249
 10
17.5394415021
 20
32.1927943715
 10
17.9207408804
 20
32.3895266195
 10
18.2901414715
 20
32.5969690768
 10
18.6477008326
 20
32.8150699355
 10
18.9916837685
 20
33.0427707766
 10
19.3220242873
 20
33.2801182633
 10
19.6387883808
 20
33.5270657324
 10
19.9404388283
 20
33.7824147756
 10
20.2269021662
 20
34.0462062309
 10
20.4982518582
 20
34.3183992603
 10
20.7531710747
 20
34.5976729416
 10
20.9915799512
 20
34.884061692
 10
21.2135583522
 20
35.1775310944
 10
21.4180290414
 20
35.4766569745
 10
21.6049069182
 20
35.7814668273
 10
21.7742770832
 20
36.0919331579
  0
LWPOLYLINE
  5
4E9
100
AcDbEntity
  8
0
100
AcDbPolyline
 62
7
  6
CONTINUOUS
 90
64
 70
0
 10
0.672522785
 20
29.7081409384
 10
1.0505375726
 20
29.4506243964
 10
1.4407469826
 20
29.203681114
 10
1.8431510152
 20
28.9673110912
 10
2.2583460229
 20
28.7412135991
 10
2.6857356532
 20
28.5256893665
 10
3.1235308482
 20
28.3216405804
 10
3.5717752267
 20
28.1291153441
 10
4.0304251701
 20
27.9480655542
 10
4.4975607646
 20
27.7792490871
 10
4.9732175808
 20
27.6227172232
 10
5.4573600482
 20
27.4784186822
 10
5.947961541
 20
27.3469574992
 10
6.4450491345
 20
27.2283874867
 10
6.9485957534
 20
27.1226548324
 10
7.456493546
 20
27.0302021341
 10
7.9687607519
 20
26.9510850598
 10
8.4853791315
 20
26.8852479416
 10
9.0041861146
 20
26.8329663745
 10
9.5251908754
 20
26.7942971814
 10
10.0483842398
 20
26.7691835393
 10
10.5715761145
 20
26.7577305743
 10
11.0947664932
 20
26.7599955499
 10
11.6179553823
 20
26.7759212026
 10
12.1389527072
 20
26.8054408674
 10
12.6577492812
 20
26.8486115285
 10
13.1743542911
 20
26.9053762016
 10
13.6866052226
 20
26.9754972693
 10
14.194483824
 20
27.0590307196
 10
14.6980083469
 20
27.1559205645
 10
15.1950710323
 20
27.2657612219
 10
15.6856447929
 20
27.3886069799
 10
16.169756716
 20
27.5244035505
 10
16.6453803035
 20
27.6725824877
 10
17.1124799738
 20
27.8331956967
 10
17.5710913085
 20
28.0061912724
 10
18.0192945558
 20
28.1908450533
 10
18.4570460862
 20
28.387205909
 10
18.8843895291
 20
28.5952249699
 10
19.2995360201
 20
28.814031466
 10
19.7024344312
 20
29.0436706167
 10
20.0931358905
 20
29.2840972026
 10
20.4700049172
 20
29.5343047953
 10
20.8329835278
 20
29.7943343955
 10
21.1821297059
 20
30.0641450025
 10
21.5159819217
 20
30.3426071861
 10
21.8344760651
 20
30.6297572126
 10
22.1376762463
 20
30.9255588158
 10
22.4243132659
 20
31.2287737668
 10
22.6943176934
 20
31.5394331415
 10
22.9477589594
 20
31.857505864
 10
23.1835761559
 20
32.1816604786
 10
23.4016954053
 20
32.5119224795
 10
23.6021905852
 20
32.8482663724
 10
23.7842224206
 20
33.1892842181
 10
23.9477135157
 20
33.534995609
 10
24.0927412663
 20
33.8853809527
 10
24.2186985846
 20
34.2389735322
 10
24.32550553
 20
34.5957867918
 10
24.4132420431
 20
34.9558072872
 10
24.481540858
 20
35.3175279687
 10
24.5303204944
 20
35.6809559631
 10
24.5596624325
 20
36.0460841437
 10
24.5684263767
 20
36.2927752195
  0
LWPOLYLINE
  5
4EA
100
AcDbEntity
  8
RACCORDO
100
AcDbPolyline
 62
250
  6
CONTINUOUS
 90
45
 70
0
 10
2.2397953267
 20
33.4953276997
 10
2.5285327456
 20
33.2978793377
 10
2.8404725801
 20
33.0987047557
 10
3.1765351668
 20
32.8990606791
 10
3.5372481234
 20
32.7004781493
 10
3.9236880223
 20
32.5042283087
 10
4.3375563793
 20
32.3114152066
 10
4.7837462817
 20
32.1220779993
 10
5.2586749389
 20
31.940091434
 10
5.7503216693
 20
31.7714465357
 10
6.2548723596
 20
31.6179301861
 10
6.7745957243
 20
31.4793251635
 10
7.3054341276
 20
31.3571825999
 10
7.8458749727
 20
31.2521177031
 10
8.3952652279
 20
31.1645222189
 10
8.9505386277
 20
31.0950736771
 10
9.5102788652
 20
31.0440298337
 10
10.0734158833
 20
31.0115684608
 10
10.6373005635
 20
30.9978624562
 10
11.1998710105
 20
31.0028742986
 10
11.7606428676
 20
31.0265121439
 10
12.3193195405
 20
31.0687632664
 10
12.8752664415
 20
31.1296604412
 10
13.42657041
 20
31.2090755327
 10
13.9710397466
 20
31.30669287
 10
14.5068509627
 20
31.4221025443
 10
15.0334421717
 20
31.5550994829
 10
15.5505303442
 20
31.7056122771
 10
16.0574945858
 20
31.8735474663
 10
16.5525584245
 20
32.058405883
 10
17.0337523665
 20
32.2594521343
 10
17.4994974535
 20
32.4759324508
 10
17.949340156
 20
32.7075391544
 10
18.3830400369
 20
32.9541485221
 10
18.8000417807
 20
33.215548993
 10
19.1988473503
 20
33.4909102386
 10
19.5778693584
 20
33.7791362719
 10
19.9359017012
 20
34.0791903811
 10
20.2726352032
 20
34.3906873253
 10
20.5878901998
 20
34.7134609728
 10
20.8812211122
 20
35.0471985101
 10
21.151530241
 20
35.3908056391
 10
21.3977416295
 20
35.7429147441
 10
21.6191200173
 20
36.102290367
 10
21.8155249405
 20
36.4685005572
  0
LWPOLYLINE
  5
4EB
100
AcDbEntity
  8
RACCORDO
100
AcDbPolyline
 62
250
  6
CONTINUOUS
 90
69
 70
0
 10
2.4005756685
 20
33.8111451615
 10
2.6838949832
 20
33.6174015206
 10
2.9899814877
 20
33.4219641788
 10
3.3197382346
 20
33.2260662902
 10
3.6736830173
 20
33.031210292
 10
4.0528720841
 20
32.8386433753
 10
4.4589747523
 20
32.6494485237
 10
4.8967921753
 20
32.4636639157
 10
5.3628089879
 20
32.2850917998
 10
5.8452302711
 20
32.1196111092
 10
6.3403135386
 20
31.9689753712
 10
6.850284824
 20
31.8329712832
 10
7.3711625546
 20
31.713120709
 10
7.9014625022
 20
31.6100272352
 10
8.4405439248
 20
31.5240753292
 10
8.9853981097
 20
31.4559298641
 10
9.5346353262
 20
31.4058437797
 10
10.08720559
 20
31.3739914931
 10
10.6405094889
 20
31.360542656
 10
11.1925238158
 20
31.3654604569
 10
11.7427733007
 20
31.3886547692
 10
12.2909669162
 20
31.4301130869
 10
12.8364819869
 20
31.4898675569
 10
13.3774412508
 20
31.5677924617
 10
13.9116941287
 20
31.6635780755
 10
14.4374513412
 20
31.7768221934
 10
14.9541615468
 20
31.9073235776
 10
15.4615470339
 20
32.0550121414
 10
15.9589985651
 20
32.2197961688
 10
16.444772999
 20
32.4011858689
 10
16.91693779
 20
32.59845966
 10
17.3739436023
 20
32.8108779222
 10
17.8153454194
 20
33.0381387441
 10
18.2409073208
 20
33.2801207175
 10
18.6500844137
 20
33.5366162489
 10
19.0414067682
 20
33.8068105928
 10
19.4133167812
 20
34.0896283291
 10
19.7646309807
 20
34.3840521986
 10
20.0950459921
 20
34.6897041894
 10
20.4043855186
 20
35.0064212895
 10
20.6922123378
 20
35.333896557
 10
20.9574493512
 20
35.6710562243
 10
21.1990408006
 20
36.0165583319
 10
21.4162652307
 20
36.3691906009
 10
21.6089848059
 20
36.7285291906
 10
21.7770964662
 20
37.0943820488
 10
21.9203058504
 20
37.4663672983
 10
22.0380161131
 20
37.8432392691
 10
22.1297588454
 20
38.223498364
 10
22.195332631
 20
38.6058339747
 10
22.2347767766
 20
38.989811962
 10
22.2480701133
 20
39.3752311381
 10
22.2350769166
 20
39.7617742455
 10
22.1957202631
 20
40.1480151185
 10
22.1302212411
 20
40.5320978036
 10
22.0388212547
 20
40.9133023283
 10
21.9218761712
 20
41.2906416904
 10
21.7803446338
 20
41.6619285904
 10
21.6148036887
 20
42.026694459
 10
21.4261147847
 20
42.3839257792
 10
21.2164399626
 20
42.7308209598
 10
20.9855464768
 20
43.0689118815
 10
20.7359006261
 20
43.3956133952
 10
20.4757183264
 20
43.7027218659
 10
20.2103886325
 20
43.9877500443
 10
19.9400248063
 20
44.25404448
 10
19.666125716
 20
44.5028193991
 10
19.3904524578
 20
44.7348137034
 10
19.1151707564
 20
44.9503475751
  0
LWPOLYLINE
  5
4EC
100
AcDbEntity
  8
0
100
AcDbPolyline
 62
7
  6
CONTINUOUS
 90
23
 70
0
 10
0.672522785
 20
29.7081409384
 10
0.3085122476
 20
29.9753155355
 10
-0.0402061852
 20
30.2508731416
 10
-0.3736325133
 20
30.5348137567
 10
-0.692189894
 20
30.8275575541
 10
-0.9954551701
 20
31.1286843605
 10
-1.2821588698
 20
31.4369336558
 10
-1.5522315692
 20
31.7523352963
 10
-1.8057426922
 20
32.0748594258
 10
-2.0416310384
 20
32.4031559545
 10
-2.2598227356
 20
32.7372490796
 10
-2.4603916561
 20
33.077114604
 10
-2.642498216
 20
33.4213298468
 10
-2.8060650238
 20
33.7699130416
 10
-2.9511694711
 20
34.1228459548
 10
-3.0772041491
 20
34.4786512054
 10
-3.18408912
 20
34.8373408338
 10
-3.2719043216
 20
35.1989027996
 10
-3.3402821585
 20
35.5618236005
 10
-3.389141152
 20
35.9261089324
 10
-3.4185627807
 20
36.2917530994
 10
-3.4284238855
 20
36.6572255109
 10
-3.4274064155
 20
36.7758343711
  0
LWPOLYLINE
  5
4ED
100
AcDbEntity
  8
0
100
AcDbPolyline
 62
7
  6
CONTINUOUS
 90
13
 70
0
 10
2.2345292494
 20
33.1899106549
 10
1.9031113426
 20
33.4338767943
 10
1.5868052782
 20
33.6859791064
 10
1.2856110564
 20
33.946217591
 10
0.9990896369
 20
34.2150402648
 10
0.72768006
 20
34.4919991113
 10
0.4726994458
 20
34.7757500801
 10
0.2342276514
 20
35.066326186
 10
0.0121848196
 20
35.3636944144
 10
-0.1923515005
 20
35.6664116705
 10
-0.3792962142
 20
35.9745039547
 10
-0.5487344162
 20
36.2879452666
 10
-0.6998438421
 20
36.6052145108
  0
LWPOLYLINE
  5
4EE
100
AcDbEntity
  8
0
100
AcDbPolyline
 62
7
  6
CONTINUOUS
 90
17
 70
0
 10
2.6228913831
 20
36.0327744742
 10
2.3625228105
 20
36.2830854816
 10
2.1173857882
 20
36.5414255852
 10
1.8888757841
 20
36.8063241571
 10
1.6770876292
 20
37.0778186031
 10
1.4819264926
 20
37.3558715176
 10
1.3045033491
 20
37.6389000555
 10
1.144919366
 20
37.9269325949
 10
1.0030733762
 20
38.2199407578
 10
0.8797728524
 20
38.516256565
 10
0.7751235674
 20
38.8158988812
 10
0.6890197485
 20
39.1188488417
 10
0.6219515506
 20
39.4233818724
 10
0.574027542
 20
39.7295070024
 10
0.5451391543
 20
40.0372152026
 10
0.5354508377
 20
40.3447548124
 10
0.5361858229
 20
40.4303778167
  0
LWPOLYLINE
  5
4EF
100
AcDbEntity
  8
DRAFT
100
AcDbPolyline
 62
7
  6
CONTINUOUS
 90
3
 70
0
 10
31.0573002534
 20
-3.5191680373
 10
31.071698323
 20
-3.730636332
 10
31.076606635
 20
-3.9367988067
  0
LWPOLYLINE
  5
4F0
100
AcDbEntity
  8
ASSI
100
AcDbPolyline
 62
7
  6
CONTINUOUS
 90
19
 70
0
 10
31.076606635
 20
-3.9367988067
 10
31.0594492677
 20
-3.5503266367
 10
31.0112611091
 20
-3.1502270592
 10
30.9320421592
 20
-2.7365000742
 10
30.8207226365
 20
-2.3058065506
 10
30.6783723224
 20
-1.8614856195
 10
30.5082005621
 20
-1.4135546745
 10
30.3095753602
 20
-0.9619317102
 10
30.0831287119
 20
-0.5066987321
 10
29.8339659479
 20
-0.0581191503
 10
29.5615710461
 20
0.383655896
 10
29.2664600286
 20
0.8187775459
 10
28.9552862915
 20
1.2374358075
 10
28.6276849522
 20
1.6392566963
 10
28.2840208935
 20
2.0246141968
 10
27.9320421592
 20
2.3848202693
 10
27.5743314309
 20
2.7169789009
 10
27.2083060271
 20
3.0239861046
 10
26.8339659479
 20
3.3058418804
  0
LINE
  5
4F1
100
AcDbEntity
  8
COPY_PABLISH
100
AcDbLine
 62
7
  6
CONTINUOUS
 10
29.9452357851
 20
-4.7367988067
 11
29.9452357851
 21
-54.941380271
  0
LINE
  5
4F2
100
AcDbEntity
  8
0
100
AcDbLine
 62
7
  6
CONTINUOUS
 10
29.9452357851
 20
-54.941380271
 11
29.9452357851
 21
-4.7367988067
  0
LINE
  5
4F3
100
AcDbEntity
  8
DRAFT
100
AcDbLine
 62
7
  6
CONTINUOUS
 10
31.076606635
 20
-3.9367988067
 11
31.076606635
 21
-54.141380271
  0
LINE
  5
4F4
100
AcDbEntity
  8
ASSI
100
AcDbLine
 62
7
  6
CONTINUOUS
 10
31.076606635
 20
-54.141380271
 11
31.076606635
 21
-3.9367988067
  0
LINE
  5
4F5
100
AcDbEntity
  8
DRAFT
100
AcDbLine
 62
7
  6
CONTINUOUS
 10
31.076606635
 20
-54.141380271
 11
31.071698323
 21
-54.3406013442
  0
LWPOLYLINE
  5
4F6
100
AcDbEntity
  8
COPY_PABLISH
100
AcDbPolyline
 62
7
  6
CONTINUOUS
 90
8
 70
0
 10
29.9452357851
 20
-54.941380271
 10
29.9328240308
 20
-55.2525559504
 10
29.8973667441
 20
-55.5421759853
 10
29.8388639252
 20
-55.8102403756
 10
29.7567328214
 20
-56.0580024646
 10
29.6515561852
 20
-56.2842089091
 10
29.5250822748
 20
-56.4850996797
 10
29.376955112
 20
-56.6602516321
  0
LWPOLYLINE
  5
4F7
100
AcDbEntity
  8
DRAFT
100
AcDbPolyline
 62
7
  6
CONTINUOUS
 90
3
 70
0
 10
31.071698323
 20
-54.3406013442
 10
31.0573002534
 20
-54.5317076937
 10
31.0334124264
 20
-54.7146993195
  0
LWPOLYLINE
  5
4F8
100
AcDbEntity
  8
0
100
AcDbPolyline
 62
7
  6
CONTINUOUS
 90
13
 70
0
 10
8.0569952168
 20
30.9105725127
 10
8.3639053596
 20
30.859967843
 10
8.8317557754
 20
30.7970713162
 10
9.3027193413
 20
30.7478811599
 10
9.7759698273
 20
30.7124836706
 10
10.2506769911
 20
30.6909409472
 10
10.7260080352
 20
30.6832907833
 10
11.2011290672
 20
30.6895465996
 10
11.6752065635
 20
30.7096974214
 10
12.1474088311
 20
30.7437078973
 10
12.6169074667
 20
30.7915183614
 10
13.0828788102
 20
30.8530449378
 10
13.1178925141
 20
30.8587437992
  0
LWPOLYLINE
  5
4F9
100
AcDbEntity
  8
0
100
AcDbPolyline
 62
7
  6
CONTINUOUS
 90
53
 70
0
 10
4.7534526221
 20
37.4730626581
 10
5.0293314011
 20
37.2866792795
 10
5.3156511993
 20
37.109820855
 10
5.6124120168
 20
36.9424873845
 10
5.9202713074
 20
36.7843719521
 10
6.2385716173
 20
36.6357814738
 10
6.5653405846
 20
36.497636697
 10
6.9006307944
 20
36.3700024827
 10
7.2443896616
 20
36.2528139699
 10
7.5944870694
 20
36.1467973222
 10
7.9509623761
 20
36.0520219099
 10
8.3137762234
 20
35.9684183628
 10
8.6806804193
 20
35.8965047339
 10
9.0517003625
 20
35.8363536103
 10
9.4268106543
 20
35.7878924048
 10
9.8036869075
 20
35.7514214095
 10
10.1823400876
 20
35.7270150761
 10
10.562759229
 20
35.7145989528
 10
10.9425870479
 20
35.7142499768
 10
11.3218198725
 20
35.7260430773
 10
11.7004613746
 20
35.7499033251
 10
12.0761652856
 20
35.7856828691
 10
12.4489133649
 20
35.8334557206
 10
12.818723853
 20
35.8931478682
 10
13.183305203
 20
35.964389427
 10
13.5426249454
 20
36.0472521115
 10
13.8967155498
 20
36.1416642072
 10
14.2433828783
 20
36.2470406853
 10
14.5825808369
 20
36.3634496278
 10
14.9143555196
 20
36.4908229528
 10
15.2366510699
 20
36.6283713859
 10
15.5494086286
 20
36.7761581081
 10
15.8526870549
 20
36.9341199384
 10
16.144607071
 20
37.1012780594
 10
16.4250981481
 20
37.2776895742
 10
16.6942308149
 20
37.4632973798
 10
16.950337379
 20
37.6569513492
 10
17.1933369565
 20
37.8587014439
 10
17.4233104314
 20
38.0684977025
 10
17.6388327629
 20
38.2850401132
 10
17.8398142185
 20
38.5083705654
 10
18.0263445307
 20
38.7384471697
 10
18.1972678563
 20
38.9738442463
 10
18.3524872857
 20
39.2145948321
 10
18.4920997285
 20
39.4606658902
 10
18.6152400701
 20
39.7105326306
 10
18.721806029
 20
39.9642186221
 10
18.8118998867
 20
40.2217002959
 10
18.8849633727
 20
40.4813821555
 10
18.940890739
 20
40.7432778627
 10
18.9797877335
 20
41.0073737557
 10
19.0014133293
 20
41.2720333528
 10
19.0056579649
 20
41.4006575885
  0
LWPOLYLINE
  5
4FA
100
AcDbEntity
  8
0
100
AcDbPolyline
 62
7
  6
CONTINUOUS
 90
40
 70
0
 10
3.4939909358
 20
35.3314866565
 10
3.8133967502
 20
35.1152756828
 10
4.1444896673
 20
34.9096001082
 10
4.4872696871
 20
34.7144599328
 10
4.8424329207
 20
34.529524226
 10
5.2092832569
 20
34.3551239183
 10
5.5857323623
 20
34.1922518015
 10
5.9718349829
 20
34.0409736259
 10
6.3675363726
 20
33.9012236412
 10
6.7705839605
 20
33.7737973886
 10
7.1810196451
 20
33.6587651557
 10
7.5988015279
 20
33.5560566549
 10
8.0215513424
 20
33.466256565
 10
8.4492974227
 20
33.3894385082
 10
8.8820114347
 20
33.3255288622
 10
9.3172301091
 20
33.2748914395
 10
9.7549677311
 20
33.237601937
 10
10.1952100155
 20
33.2135846577
 10
10.6354508377
 20
33.2029763224
 10
11.0756901894
 20
33.205853408
 10
11.5159280788
 20
33.2221394376
 10
11.9536584062
 20
33.2517417013
 10
12.3888668701
 20
33.2947361473
 10
12.8215677721
 20
33.3510468274
 10
13.2492979176
 20
33.4203531872
 10
13.6720289562
 20
33.5027293466
 10
14.0897892384
 20
33.5981011858
 10
14.5002006205
 20
33.7059257907
 10
14.9032211886
 20
33.8262741846
 10
15.2988928567
 20
33.9590753443
 10
15.6849632229
 20
34.1035732853
 10
16.0613775268
 20
34.2598347194
 10
16.4281905289
 20
34.4277929349
 10
16.7833141082
 20
34.6064918123
 10
17.1266815949
 20
34.7959926101
 10
17.4583596588
 20
34.9962340698
 10
17.7764601883
 20
35.2060762961
 10
18.0809057448
 20
35.4255740464
 10
18.3717737669
 20
35.6546725634
 10
18.6474084583
 20
35.8920676801
  0
LWPOLYLINE
  5
4FB
100
AcDbEntity
  8
RACCORDO
100
AcDbPolyline
 62
250
  6
CONTINUOUS
 90
46
 70
0
 10
4.7588840336
 20
37.7880686036
 10
4.980501276
 20
37.6369635698
 10
5.2205936969
 20
37.4850352491
 10
5.4798964534
 20
37.3333550825
 10
5.7587558526
 20
37.1832490242
 10
6.0580602351
 20
37.0357803457
 10
6.3793213948
 20
36.8918487678
 10
6.726188552
 20
36.7517590308
 10
7.0959281461
 20
36.6185836896
 10
7.4796996166
 20
36.4967221443
 10
7.8747239013
 20
36.3875798155
 10
8.2823650572
 20
36.2912980398
 10
8.6990753475
 20
36.2091982951
 10
9.123578374
 20
36.1418383203
 10
9.5550922017
 20
36.0896465881
 10
9.9905402006
 20
36.0532045796
 10
10.4285372924
 20
36.032716785
 10
10.8680827794
 20
36.0283183809
 10
11.3065974805
 20
36.0400594754
 10
11.7421181128
 20
36.0677947222
 10
12.1742147871
 20
36.1114037378
 10
12.6026043725
 20
36.1708575412
 10
13.0266776047
 20
36.2461567609
 10
13.4446455937
 20
36.337070149
 10
13.8544887747
 20
36.4431584334
 10
14.2545527172
 20
36.5639041138
 10
14.6443380046
 20
36.6990653838
 10
15.023583536
 20
36.8485517877
 10
15.3917110249
 20
37.0122316854
 10
15.7471301967
 20
37.1894975962
 10
16.0881216035
 20
37.3794919407
 10
16.413347347
 20
37.5813616849
 10
16.7224432298
 20
37.7947684153
 10
17.0152036767
 20
38.0195702489
 10
17.2911400227
 20
38.2555168939
 10
17.5490153365
 20
38.5016837585
 10
17.7875816314
 20
38.7568795828
 10
18.0059506241
 20
39.0200004032
 10
18.2039276004
 20
39.2906442768
 10
18.3813805607
 20
39.5686307464
 10
18.5379577284
 20
39.8536145661
 10
18.6728985932
 20
40.1444457252
 10
18.7855505218
 20
40.4397177468
 10
18.8755619059
 20
40.7381833609
 10
18.9429270678
 20
41.0394177541
 10
18.9876014546
 20
41.3432243398
  0
LWPOLYLINE
  5
4FC
100
AcDbEntity
  8
RACCORDO
100
AcDbPolyline
 62
250
  6
CONTINUOUS
 90
63
 70
0
 10
4.9196643754
 20
38.1038860654
 10
5.135379861
 20
37.95680459
 10
5.3690787304
 20
37.8089219143
 10
5.6214765433
 20
37.6612809613
 10
5.8929104777
 20
37.5151725367
 10
6.1842450591
 20
37.3716314709
 10
6.4969514822
 20
37.2315330761
 10
6.8345816502
 20
37.0951736644
 10
7.1944750471
 20
36.9655442356
 10
7.5680267798
 20
36.8469274483
 10
7.952531854
 20
36.7406915186
 10
8.3493178692
 20
36.6469738217
 10
8.7549314787
 20
36.567060444
 10
9.1681302636
 20
36.5014941769
 10
9.5881531527
 20
36.4506921725
 10
10.0120054622
 20
36.4152204978
 10
10.4383389962
 20
36.3952782205
 10
10.8661796993
 20
36.3909968961
 10
11.29301707
 20
36.4024253028
 10
11.7169401014
 20
36.4294219771
 10
12.1375303495
 20
36.4718697289
 10
12.5545122286
 20
36.529740317
 10
12.9672927084
 20
36.6030343322
 10
13.3741305342
 20
36.691526707
 10
13.7730599089
 20
36.7947898996
 10
14.1624704454
 20
36.9123202078
 10
14.5418760312
 20
37.0438822448
 10
14.9110225306
 20
37.1893879396
 10
15.2693470672
 20
37.348709146
 10
15.6153017075
 20
37.5212545735
 10
15.9472127806
 20
37.7061894935
 10
16.2637780082
 20
37.902683593
 10
16.5646428956
 20
38.1104074634
 10
16.8496073459
 20
38.3292229949
 10
17.1181957072
 20
38.5588865602
 10
17.3692039861
 20
38.7984981889
 10
17.6014174333
 20
39.0468983407
 10
17.8139714258
 20
39.3030124463
 10
18.0066764294
 20
39.5664492706
 10
18.1794039445
 20
39.8370331694
 10
18.3318115483
 20
40.114428095
 10
18.4631589944
 20
40.3975146525
 10
18.5728110533
 20
40.6849238079
 10
18.6604254977
 20
40.9754415012
 10
18.7259967846
 20
41.2686542393
 10
18.7694815211
 20
41.5643706784
 10
18.7907073699
 20
41.8623096695
 10
18.7894481048
 20
42.1611286464
 10
18.7657482095
 20
42.4590455594
 10
18.7197904942
 20
42.7553829902
 10
18.651850991
 20
43.0491939982
 10
18.5627257101
 20
43.3383428542
 10
18.4530209115
 20
43.6222887157
 10
18.323511178
 20
43.9001699819
 10
18.1760199602
 20
44.1695506363
 10
18.0107876866
 20
44.4313431947
 10
17.8297449903
 20
44.6836714572
 10
17.638897419
 20
44.9205273686
 10
17.4424987181
 20
45.1400179318
 10
17.2410105964
 20
45.3446278494
 10
17.0356460533
 20
45.5354279684
 10
16.8278670634
 20
45.7130243266
 10
16.6195341363
 20
45.8776174576
  0
LWPOLYLINE
  5
4FD
100
AcDbEntity
  8
RACCORDO
100
AcDbPolyline
 62
250
  6
CONTINUOUS
 90
50
 70
0
 10
3.4997530157
 20
35.6656704033
 10
3.7193252148
 20
35.5149846904
 10
3.9549134685
 20
35.3628999611
 10
4.2071054763
 20
35.2101913209
 10
4.4756103606
 20
35.0581530298
 10
4.7617364114
 20
34.9071731054
 10
5.0686061946
 20
34.7569431946
 10
5.3984084434
 20
34.6079919968
 10
5.7501284542
 20
34.4624083978
 10
6.1220125338
 20
34.322366995
 10
6.514337203
 20
34.1891186013
 10
6.9270109544
 20
34.0640641645
 10
7.3572552074
 20
33.9492796225
 10
7.804641328
 20
33.8459774837
 10
8.2687117414
 20
33.7553698698
 10
8.7462019409
 20
33.6790746219
 10
9.2378976148
 20
33.6179033759
 10
9.7411772709
 20
33.573127345
 10
10.2472548173
 20
33.5459876114
 10
10.7526346084
 20
33.5366109742
 10
11.2582680797
 20
33.5449192583
 10
11.7618985419
 20
33.5708796067
 10
12.2616324041
 20
33.6143126059
 10
12.7568771527
 20
33.6750846039
 10
13.2473274489
 20
33.7531601043
 10
13.7323637529
 20
33.8485285494
 10
14.2101114401
 20
33.9609107267
 10
14.6784201259
 20
34.0897993381
 10
15.1355288249
 20
34.2346121587
 10
15.5809745476
 20
34.3951029442
 10
16.0145785508
 20
34.5712083971
 10
16.4358022507
 20
34.7628185015
 10
16.8429233065
 20
34.9692621548
 10
17.2340503359
 20
35.1895796541
 10
17.6077291885
 20
35.4228287
 10
17.9636560773
 20
35.6686912491
 10
18.3017168048
 20
35.9270885763
 10
18.6214534925
 20
36.1978131264
 10
18.9214995267
 20
36.4798589776
 10
19.200456995
 20
36.7719128283
 10
19.457343977
 20
37.0727758741
 10
19.6920005222
 20
37.3820760703
 10
19.9043386998
 20
37.6996958997
 10
20.0940029199
 20
38.0253207324
 10
20.2601353699
 20
38.3577220323
 10
20.4019811326
 20
38.6953934217
 10
20.5191184729
 20
39.0370198894
 10
20.6115305899
 20
39.3821771814
 10
20.6791670202
 20
39.7306680943
 10
20.7218300657
 20
40.0821074947
  0
LWPOLYLINE
  5
4FE
100
AcDbEntity
  8
RACCORDO
100
AcDbPolyline
 62
250
  6
CONTINUOUS
 90
69
 70
0
 10
3.6605333575
 20
35.981487865
 10
3.8752714802
 20
35.8341194063
 10
4.1056731522
 20
35.6853828127
 10
4.3523131261
 20
35.5360361315
 10
4.6149069721
 20
35.3873451988
 10
4.8947341082
 20
35.2396894341
 10
5.1948481974
 20
35.0927670787
 10
5.5173897201
 20
34.9470950706
 10
5.8613664128
 20
34.8047164133
 10
6.2250632894
 20
34.6677579729
 10
6.6087508113
 20
34.5374430926
 10
7.0123394409
 20
34.4151418169
 10
7.4331117452
 20
34.3028843377
 10
7.8706485265
 20
34.2018564669
 10
8.324502285
 20
34.113243643
 10
8.7914803751
 20
34.0386280504
 10
9.2723511889
 20
33.9788034156
 10
9.7645509658
 20
33.9350130044
 10
10.2594870541
 20
33.9084706568
 10
10.7537407595
 20
33.8993004204
 10
11.2482425612
 20
33.9074258026
 10
11.7407854499
 20
33.9328146324
 10
12.2295175248
 20
33.9752914361
 10
12.7138593162
 20
34.0347255143
 10
13.1935122096
 20
34.1110821449
 10
13.6678703093
 20
34.2043509936
 10
14.1351002605
 20
34.3142590048
 10
14.593099011
 20
34.4403100696
 10
15.0401443351
 20
34.5819347935
 10
15.4757834397
 20
34.7388923392
 10
15.8998415268
 20
34.9111207844
 10
16.3117918778
 20
35.098512526
 10
16.7099500646
 20
35.3004112464
 10
17.0924663355
 20
35.5158783823
 10
17.4579185482
 20
35.7439923832
 10
17.8060096067
 20
35.9844422024
 10
18.1366278306
 20
36.2371508444
 10
18.4493254211
 20
36.5019153235
 10
18.7427658511
 20
36.7777518629
 10
19.0155819882
 20
37.0633760704
 10
19.2668135356
 20
37.3576155303
 10
19.4963040586
 20
37.660106393
 10
19.7039675495
 20
37.9707337354
 10
19.8894562358
 20
38.289189858
 10
20.0519311994
 20
38.6142732646
 10
20.1906541597
 20
38.9445107334
 10
20.3052126745
 20
39.2786162013
 10
20.3955903057
 20
39.6161747582
 10
20.4617376953
 20
39.9569935446
 10
20.5034615085
 20
40.3006959036
 10
20.5204821323
 20
40.6459644027
 10
20.5127310501
 20
40.9911942172
 10
20.4801190185
 20
41.3370469971
 10
20.4227978021
 20
41.6811239005
 10
20.3424491595
 20
42.0173177252
 10
20.2408776645
 20
42.3437653212
 10
20.1192427818
 20
42.6610674129
 10
19.9797529702
 20
42.9670822211
 10
19.8240882429
 20
43.2615194935
 10
19.6539587042
 20
43.5440478053
 10
19.4722398579
 20
43.8127566852
 10
19.2809111387
 20
44.067549904
 10
19.081711637
 20
44.3086309079
 10
18.8775991812
 20
44.5348517887
 10
18.6714500932
 20
44.7455172312
 10
18.464038803
 20
44.9420894479
 10
18.2549604828
 20
45.1267013499
 10
18.0447649809
 20
45.300239358
 10
17.8352521491
 20
45.4624873641
  0
LWPOLYLINE
  5
4FF
100
AcDbEntity
  8
0
100
AcDbPolyline
 62
7
  6
CONTINUOUS
 90
4
 70
0
 10
3.4939909358
 20
35.3314866565
 10
3.1883928678
 20
35.5572201663
 10
2.8980263503
 20
35.7909827722
 10
2.6228913831
 20
36.0327744742
  0
LWPOLYLINE
  5
500
100
AcDbEntity
  8
0
100
AcDbPolyline
 62
7
  6
CONTINUOUS
 90
19
 70
0
 10
4.7534526221
 20
37.4730626581
 10
4.4900203424
 20
37.6680297863
 10
4.240357198
 20
37.8701685351
 10
4.0044631889
 20
38.0794789044
 10
3.7819070625
 20
38.2964238103
 10
3.5731200714
 20
38.5205403369
 10
3.3793959732
 20
38.7504397361
 10
3.2008282992
 20
38.9861579161
 10
3.0373235181
 20
39.2276589688
 10
2.8898947946
 20
39.4734464224
 10
2.7586419508
 20
39.7235468928
 10
2.6434651645
 20
39.977933764
 10
2.5450781338
 20
40.2350307167
 10
2.4635851123
 20
40.4948545789
 10
2.3988818464
 20
40.7573885225
 10
2.3513692727
 20
41.0210057446
 10
2.3211541345
 20
41.2857129717
 10
2.3081296884
 20
41.5515034771
 10
2.3081320054
 20
41.6881060428
  0
LWPOLYLINE
  5
501
100
AcDbEntity
  8
0
100
AcDbPolyline
 62
7
  6
CONTINUOUS
 90
64
 70
0
 10
6.4309434022
 20
39.549325895
 10
6.2239783287
 20
39.7031896493
 10
6.0289939258
 20
39.8631237169
 10
5.8459901935
 20
40.029128098
 10
5.6745723825
 20
40.2016449552
 10
5.5151352422
 20
40.3802321258
 10
5.3688630206
 20
40.5635631214
 10
5.2358537452
 20
40.7516732651
 10
5.1160093885
 20
40.9445272339
 10
5.0102201161
 20
41.1406925701
 10
4.9185905837
 20
41.3401939305
 10
4.8410161355
 20
41.5430066584
 10
4.7780729698
 20
41.7476243257
 10
4.7298700328
 20
41.9540603722
 10
4.6962983781
 20
42.162301358
 10
4.6776073655
 20
42.3708005358
 10
4.6739077977
 20
42.5795598282
 10
4.6850888719
 20
42.7885773124
 10
4.7110675386
 20
42.9963004737
 10
4.7519539824
 20
43.2027196742
 10
4.8076380187
 20
43.4078445518
 10
4.8777060442
 20
43.6101515043
 10
4.962265164
 20
43.8096195492
 10
5.061208273
 20
44.0062696692
 10
5.1738004535
 20
44.1986412099
 10
5.3001433382
 20
44.3867023127
 10
5.4401352944
 20
44.5704848364
 10
5.5927365066
 20
44.748623703
 10
5.758040865
 20
44.9210768895
 10
5.9359544794
 20
45.0878864189
 10
6.1251558644
 20
45.2478132836
 10
6.3257290702
 20
45.4008062344
 10
6.5375900467
 20
45.5469165204
 10
6.7591651582
 20
45.6850588812
 10
6.9905267375
 20
45.8151739867
 10
7.2316024519
 20
45.9373211669
 10
7.4806016681
 20
46.0505931517
 10
7.7375833855
 20
46.1549238554
 10
8.0024886047
 20
46.2503793637
 10
8.2733496945
 20
46.3362506636
 10
8.5502110031
 20
46.41246639
 10
8.8330281823
 20
46.4790979081
 10
9.1197005566
 20
46.5356503001
 10
9.4102568323
 20
46.5820485158
 10
9.704668303
 20
46.6183676056
 10
10.0007481746
 20
46.6443378028
 10
10.2985088703
 20
46.6598820484
 10
10.5979379668
 20
46.6650774014
 10
10.8968114007
 20
46.6598852725
 10
11.1951250344
 20
46.6442283152
 10
11.4928830055
 20
46.6181838759
 10
11.787873663
 20
46.5819454044
 10
12.0800764011
 20
46.5354369947
 10
12.3695118257
 20
46.4787345528
 10
12.654030103
 20
46.4122592463
 10
12.9335946193
 20
46.3359383053
 10
13.2082419883
 20
46.2498444997
 10
13.4759322172
 20
46.1546173067
 10
13.7366135024
 20
46.0501887181
 10
13.9903376474
 20
45.9366267421
 10
14.2352200706
 20
45.8147748808
 10
14.4706325779
 20
45.6849143014
 10
14.6972033634
 20
45.5467638367
 10
14.914932427
 20
45.4003234867
  0
LWPOLYLINE
  5
502
100
AcDbEntity
  8
0
100
AcDbPolyline
 62
7
  6
CONTINUOUS
 90
3
 70
0
 10
52.6630775026
 20
-8.4155239007
 10
52.4159523693
 20
-8.1258526605
 10
52.382605446
 20
-8.0956377015
  0
LWPOLYLINE
  5
503
100
AcDbEntity
  8
0
100
AcDbPolyline
 62
7
  6
CONTINUOUS
 90
11
 70
0
 10
38.3728474757
 20
-23.6965594088
 10
38.3905582541
 20
-24.2191721009
 10
38.4417243063
 20
-24.7105139001
 10
38.5263456325
 20
-25.1705848065
 10
38.6450692643
 20
-25.6010822446
 10
38.79724817
 20
-26.0003087899
 10
38.9809412546
 20
-26.3631721686
 10
39.196552209
 20
-26.6892065753
 10
39.4436773423
 20
-26.9788778155
 10
39.7191644874
 20
-27.2284910315
 10
39.8769435514
 20
-27.3445350703
  0
LWPOLYLINE
  5
504
100
AcDbEntity
  8
DRAFT
100
AcDbPolyline
 62
7
  6
CONTINUOUS
 90
3
 70
0
 10
31.0334124264
 20
-54.7146993195
 10
30.9999487891
 20
-54.8899237372
 10
30.9569953942
 20
-55.0570334312
  0
LWPOLYLINE
  5
505
100
AcDbEntity
  8
RACCORDO
100
AcDbPolyline
 62
250
  6
CONTINUOUS
 90
8
 70
0
 10
1.6039981588
 20
-50.2310074941
 10
1.6669346991
 20
-50.1772468346
 10
1.7182895609
 20
-50.114961504
 10
1.7608522552
 20
-50.0423553475
 10
1.7942979845
 20
-49.9599815422
 10
1.8183716998
 20
-49.868467536
 10
1.8328898573
 20
-49.7685100606
 10
1.8377416177
 20
-49.6608703626
  0
LINE
  5
506
100
AcDbEntity
  8
0
100
AcDbLine
 62
7
  6
CONTINUOUS
 10
42.9297301266
 20
-26.8380886336
 11
43.4313967474
 21
-26.6256590103
  0
LINE
  5
507
100
AcDbEntity
  8
0
100
AcDbLine
 62
7
  6
CONTINUOUS
 10
42.8325330298
 20
-26.6874015781
 11
43.5019352955
 21
-26.4444996226
  0
LWPOLYLINE
  5
508
100
AcDbEntity
  8
0
100
AcDbPolyline
 62
7
  6
CONTINUOUS
 90
19
 70
0
 10
43.5009646806
 20
-26.444851745
 10
43.2572607297
 20
-26.5279253314
 10
42.7884461921
 20
-26.658735482
 10
42.3374259317
 20
-26.745143217
 10
41.9044591802
 20
-26.7865016702
 10
41.4892867058
 20
-26.7834577079
 10
41.0979276223
 20
-26.7360554609
 10
40.7307288496
 20
-26.643648706
 10
40.3873434678
 20
-26.5068836665
 10
40.0727498312
 20
-26.3277431432
 10
39.7873673856
 20
-26.1056097989
 10
39.5307766852
 20
-25.8411009707
 10
39.306697747
 20
-25.5380514716
 10
39.1156042108
 20
-25.1958998308
 10
38.9570224368
 20
-24.815207519
 10
38.8332515218
 20
-24.4014937614
 10
38.7450578314
 20
-23.9565982996
 10
38.691675
 20
-23.4786813919
 10
38.6731030275
 20
-22.9677430384
  0
LWPOLYLINE
  5
509
100
AcDbEntity
  8
0
100
AcDbPolyline
 62
7
  6
CONTINUOUS
 90
11
 70
0
 10
42.8314980138
 20
-26.687777064
 10
42.5716241325
 20
-26.776362642
 10
42.0717034171
 20
-26.9158521391
 10
41.5907576418
 20
-27.0079930887
 10
41.1290632385
 20
-27.0520957047
 10
40.6863437753
 20
-27.0488497733
 10
40.2690177384
 20
-26.9983023535
 10
39.8774550661
 20
-26.8997643448
 10
39.5112858201
 20
-26.7539248477
 10
39.175818672
 20
-26.5628982233
 10
39.046410114
 20
-26.4621703887
  0
LWPOLYLINE
  5
50A
100
AcDbEntity
  8
0
100
AcDbPolyline
 62
7
  6
CONTINUOUS
 90
10
 70
0
 10
9.7772372775
 20
40.0484733125
 10
9.9450590656
 20
40.019254951
 10
10.1517375174
 20
39.9919894812
 10
10.3594742398
 20
39.9731697359
 10
10.5682799512
 20
39.9628812546
 10
10.7781439331
 20
39.9610384978
 10
10.9869478004
 20
39.9676600664
 10
11.194680816
 20
39.9828316884
 10
11.4013537171
 20
40.0064676358
 10
11.4679798982
 20
40.016897833
  0
LWPOLYLINE
  5
50B
100
AcDbEntity
  8
0
100
AcDbPolyline
 62
7
  6
CONTINUOUS
 90
12
 70
0
 10
8.7998618697
 20
35.877182597
 10
8.9827983105
 20
35.8445828547
 10
9.3496477387
 20
35.7919838697
 10
9.7194445245
 20
35.7516052421
 10
10.0913509593
 20
35.7235384427
 10
10.4645245554
 20
35.7078470517
 10
10.8381199545
 20
35.7045666152
 10
11.2112908429
 20
35.7137045644
 10
11.5831918686
 20
35.7352401989
 10
11.952980556
 20
35.7691247337
 10
12.3198192149
 20
35.8152814092
 10
12.3699708828
 20
35.8233381434
  0
LWPOLYLINE
  5
50C
100
AcDbEntity
  8
RACCORDO
100
AcDbPolyline
 62
250
  6
CONTINUOUS
 90
37
 70
0
 10
7.7845974915
 20
41.0763414558
 10
7.9685430716
 20
40.9539493584
 10
8.1627856929
 20
40.8396015587
 10
8.3665889938
 20
40.7337319399
 10
8.5791715317
 20
40.636746014
 10
8.7997354599
 20
40.5490073461
 10
9.0274726506
 20
40.4708399762
 10
9.2615148851
 20
40.4025460788
 10
9.5009831044
 20
40.3443862742
 10
9.7450221082
 20
40.296576404
 10
9.9927308172
 20
40.2593059763
 10
10.2431499258
 20
40.2327320944
 10
10.4953165786
 20
40.2169673252
 10
10.7483060491
 20
40.2120811916
 10
11.0011212204
 20
40.2181046451
 10
11.2526847456
 20
40.2350141422
 10
11.5018416322
 20
40.2627136737
 10
11.7478465347
 20
40.301101847
 10
11.990230459
 20
40.3501325652
 10
12.2284295079
 20
40.4097805086
 10
12.4610985072
 20
40.479799658
 10
12.6866468205
 20
40.5597214157
 10
12.9038495481
 20
40.6490334701
 10
13.1123173709
 20
40.7474948411
 10
13.3117587473
 20
40.854967789
 10
13.5016746867
 20
40.9712676545
 10
13.6809663428
 20
41.0958103937
 10
13.8485092391
 20
41.2278144098
 10
14.0034639708
 20
41.3665169055
 10
14.1455619708
 20
41.5115682973
 10
14.2746004477
 20
41.6627592322
 10
14.3902068051
 20
41.8197769625
 10
14.4916792745
 20
41.9818071401
 10
14.5783998624
 20
42.1478652535
 10
14.6499926935
 20
42.3170575967
 10
14.7063669025
 20
42.4889595759
 10
14.7474249427
 20
42.6632614979
  0
LWPOLYLINE
  5
50D
100
AcDbEntity
  8
RACCORDO
100
AcDbPolyline
 62
250
  6
CONTINUOUS
 90
51
 70
0
 10
7.9453778332
 20
41.3921589176
 10
8.1193464143
 20
41.2764033156
 10
8.3030543051
 20
41.1682562846
 10
8.4958049592
 20
41.0681282557
 10
8.6968594884
 20
40.9764032718
 10
8.9054628008
 20
40.893424808
 10
9.1208497134
 20
40.8194979341
 10
9.3421988833
 20
40.7549075449
 10
9.5686795491
 20
40.6999008772
 10
9.7994833426
 20
40.6546830919
 10
10.0337580917
 20
40.6194339245
 10
10.2705962886
 20
40.5943014937
 10
10.5090872107
 20
40.5793918693
 10
10.7483563059
 20
40.5747706176
 10
10.9874605788
 20
40.5804671943
 10
11.2253811074
 20
40.5964594856
 10
11.4610255086
 20
40.6226567669
 10
11.6936888551
 20
40.6589630654
 10
11.9229276069
 20
40.7053347031
 10
12.1482084757
 20
40.7617476898
 10
12.3682592314
 20
40.8279693974
 10
12.5815754736
 20
40.903556699
 10
12.7869987049
 20
40.9880250953
 10
12.9841607314
 20
41.0811466419
 10
13.172785847
 20
41.1827910336
 10
13.3524021412
 20
41.2927836102
 10
13.5219703483
 20
41.4105720209
 10
13.6804269573
 20
41.5354170738
 10
13.8269780774
 20
41.6665973443
 10
13.9613697118
 20
41.8037822007
 10
14.0834100676
 20
41.9467736412
 10
14.1927467493
 20
42.0952758809
 10
14.2887160516
 20
42.2485187314
 10
14.3707335145
 20
42.4055710651
 10
14.438443669
 20
42.5655876375
 10
14.4917605585
 20
42.7281668923
 10
14.5305918826
 20
42.8930159445
 10
14.5547694458
 20
43.059718654
 10
14.564101624
 20
43.2274332438
 10
14.5585337881
 20
43.3952265454
 10
14.5381519029
 20
43.5622820653
 10
14.5030712984
 20
43.7281359736
 10
14.4533826932
 20
43.8923826523
 10
14.3891841742
 20
44.0545410294
 10
14.3107374211
 20
44.2138297915
 10
14.218462215
 20
44.369411511
 10
14.1121109652
 20
44.5215446597
 10
13.992612801
 20
44.6687600936
 10
13.8630017876
 20
44.8079496501
 10
13.7253833757
 20
44.9380982779
 10
13.5801332943
 20
45.0599696
  0
LWPOLYLINE
  5
50E
100
AcDbEntity
  8
0
100
AcDbPolyline
 62
7
  6
CONTINUOUS
 90
44
 70
0
 10
7.7804120219
 20
40.8335964913
 10
7.9454316134
 20
40.7232129439
 10
8.1176705593
 20
40.619828305
 10
8.2971288594
 20
40.5234425747
 10
8.4843941812
 20
40.43380605
 10
8.6788788572
 20
40.3511684339
 10
8.878819886
 20
40.2762788355
 10
9.0842668791
 20
40.2092077034
 10
9.2951702249
 20
40.1498845891
 10
9.5096180867
 20
40.098847256
 10
9.7276426928
 20
40.0561710423
 10
9.9492118149
 20
40.0217806097
 10
10.172316931
 20
39.9959877073
 10
10.3969720072
 20
39.9788705078
 10
10.6231630775
 20
39.9703508383
 10
10.848839722
 20
39.9705059297
 10
11.0739972634
 20
39.979414657
 10
11.2986403791
 20
39.996998145
 10
11.5207326815
 20
40.0230969998
 10
11.7402509774
 20
40.0577886469
 10
11.9572184599
 20
40.1009956607
 10
12.1696683211
 20
40.1523263701
 10
12.3775594845
 20
40.2118546394
 10
12.5809330266
 20
40.2795066043
 10
12.7779453681
 20
40.3546690003
 10
12.9685386701
 20
40.4374101159
 10
13.1527707716
 20
40.5276616626
 10
13.3289716104
 20
40.6246055111
 10
13.4970681626
 20
40.7283025109
 10
13.657133452
 20
40.8386918124
 10
13.8077164886
 20
40.9547727379
 10
13.9487310551
 20
41.0765970381
 10
14.0802633687
 20
41.2041129622
 10
14.2011210902
 20
41.3361645796
 10
14.3112071613
 20
41.4727931309
 10
14.4106186404
 20
41.6139573755
 10
14.4984543634
 20
41.7583776609
 10
14.5746090781
 20
41.9060835926
 10
14.6391880366
 20
42.0570455651
 10
14.6916058315
 20
42.2098951097
 10
14.7317518876
 20
42.3646493889
 10
14.75973678
 20
42.5212912402
 10
14.7753068259
 20
42.6784007068
 10
14.7785024459
 20
42.7622078074
  0
LWPOLYLINE
  5
50F
100
AcDbEntity
  8
0
100
AcDbPolyline
 62
7
  6
CONTINUOUS
 90
64
 70
0
 10
6.4309434022
 20
39.549325895
 10
6.6486724658
 20
39.402885545
 10
6.8752432513
 20
39.2647350803
 10
7.1106557586
 20
39.1348745009
 10
7.3555381818
 20
39.0130226396
 10
7.6092623268
 20
38.8994606636
 10
7.869943612
 20
38.795032075
 10
8.1376338409
 20
38.699804882
 10
8.4122812099
 20
38.6137110764
 10
8.6918457262
 20
38.5373901354
 10
8.9763640035
 20
38.4709148289
 10
9.2657994281
 20
38.414212387
 10
9.5580021662
 20
38.3677039773
 10
9.8529928237
 20
38.3314655058
 10
10.1507507948
 20
38.3054210665
 10
10.4490644285
 20
38.2897641092
 10
10.7479378624
 20
38.2845719803
 10
11.0473669589
 20
38.2897673333
 10
11.3451276546
 20
38.3053115789
 10
11.6412075262
 20
38.3312817761
 10
11.9356189969
 20
38.3676008658
 10
12.2261752726
 20
38.4139990816
 10
12.5128476469
 20
38.4705514736
 10
12.7956648261
 20
38.5371829916
 10
13.0725261347
 20
38.6133987181
 10
13.3433872245
 20
38.699270018
 10
13.6082924437
 20
38.7947255263
 10
13.8652741611
 20
38.89905623
 10
14.1142733773
 20
39.0123282148
 10
14.3553490917
 20
39.134475395
 10
14.586710671
 20
39.2645905005
 10
14.8082857825
 20
39.4027328613
 10
15.020146759
 20
39.5488431473
 10
15.2207199648
 20
39.7018360981
 10
15.4099213498
 20
39.8617629628
 10
15.5878349642
 20
40.0285724922
 10
15.7531393226
 20
40.2010256786
 10
15.9057405348
 20
40.3791645453
 10
16.045732491
 20
40.562947069
 10
16.1720753757
 20
40.7510081718
 10
16.2846675562
 20
40.9433797125
 10
16.3836106653
 20
41.1400298325
 10
16.468169785
 20
41.3394978774
 10
16.5382378105
 20
41.5418048299
 10
16.5939218468
 20
41.7469297074
 10
16.6348082906
 20
41.953348908
 10
16.6607869573
 20
42.1610720692
 10
16.6719680315
 20
42.3700895535
 10
16.6682684637
 20
42.5788488458
 10
16.6495774511
 20
42.7873480237
 10
16.6160057964
 20
42.9955890095
 10
16.5678028594
 20
43.202025056
 10
16.5048596937
 20
43.4066427233
 10
16.4272852455
 20
43.6094554512
 10
16.3356557131
 20
43.8089568116
 10
16.2298664407
 20
44.0051221478
 10
16.110022084
 20
44.1979761165
 10
15.9770128086
 20
44.3860862603
 10
15.830740587
 20
44.5694172559
 10
15.6713034467
 20
44.7480044265
 10
15.4998856357
 20
44.9205212837
 10
15.3168819035
 20
45.0865256648
 10
15.1218975005
 20
45.2464597324
 10
14.914932427
 20
45.4003234867
  0
LWPOLYLINE
  5
510
100
AcDbEntity
  8
0
100
AcDbPolyline
 62
7
  6
CONTINUOUS
 90
16
 70
0
 10
7.7804120219
 20
40.8335964913
 10
7.6244175049
 20
40.9502041969
 10
7.4785348515
 20
41.0717654981
 10
7.3427640618
 20
41.1982803949
 10
7.2167549332
 20
41.3301623584
 10
7.1008576682
 20
41.4669979175
 10
6.9961228745
 20
41.6075466592
 10
6.9026520463
 20
41.7518423456
 10
6.8203436894
 20
41.8998512147
 10
6.749943928
 20
42.0502315675
 10
6.6915610408
 20
42.2030049666
 10
6.6450867492
 20
42.3581498495
 10
6.6109423423
 20
42.5142598293
 10
6.589239929
 20
42.6713436812
 10
6.5798674004
 20
42.82939263
 10
6.5797140982
 20
42.9031668629
  0
LWPOLYLINE
  5
511
100
AcDbEntity
  8
0
100
AcDbPolyline
 62
7
  6
CONTINUOUS
 90
40
 70
0
 10
9.9893861876
 20
43.3471196066
 10
9.9343015563
 20
43.3894439692
 10
9.8847423494
 20
43.4340526731
 10
9.840708567
 20
43.4809457184
 10
9.8019872259
 20
43.5304554127
 10
9.7687913092
 20
43.5822494483
 10
9.7417597664
 20
43.6353309024
 10
9.7210120143
 20
43.6897247151
 10
9.7064286362
 20
43.7454059462
 10
9.6982903302
 20
43.8013028529
 10
9.6967219512
 20
43.8574196133
 10
9.7015986445
 20
43.9137520492
 10
9.7128265442
 20
43.9692158834
 10
9.7305286868
 20
44.0237942893
 10
9.7545820358
 20
44.0775040936
 10
9.7845236164
 20
44.1293114989
 10
9.8204674963
 20
44.1791796518
 10
9.8622996079
 20
44.2271454058
 10
9.9092147737
 20
44.2722855241
 10
9.9613114632
 20
44.3145452682
 10
10.0184912071
 20
44.3539793767
 10
10.0796534191
 20
44.3898288284
 10
10.1448752481
 20
44.422024181
 10
10.2140795453
 20
44.4506348769
 10
10.2859342781
 20
44.4751102222
 10
10.3604907909
 20
44.4953701065
 10
10.4376977394
 20
44.5114946401
 10
10.516069057
 20
44.5231734609
 10
10.5956273002
 20
44.5303204459
 10
10.6763499126
 20
44.5330217181
 10
10.756683159
 20
44.5312252837
 10
10.8366194965
 20
44.5248440128
 10
10.9161664681
 20
44.5139650353
 10
10.993792967
 20
44.498797748
 10
11.0694617895
 20
44.4792590773
 10
11.1432101394
 20
44.4554320969
 10
11.2136185208
 20
44.4277754243
 10
11.2802137685
 20
44.3964419322
 10
11.3434690477
 20
44.3612787481
 10
11.4033843584
 20
44.3222858719
  0
LWPOLYLINE
  5
512
100
AcDbEntity
  8
0
100
AcDbPolyline
 62
7
  6
CONTINUOUS
 90
5
 70
0
 10
52.6374834638
 20
-8.7944833549
 10
52.3985367287
 20
-8.4713263061
 10
52.1249210529
 20
-8.1892671291
 10
51.8206032792
 20
-7.9523950794
 10
51.7251602589
 20
-7.8980465148
  0
LINE
  5
513
100
AcDbEntity
  8
0
100
AcDbLine
 62
7
  6
CONTINUOUS
 10
52.878688457
 20
-8.7415583074
 11
52.6630775026
 21
-8.4155239007
  0
LWPOLYLINE
  5
514
100
AcDbEntity
  8
0
100
AcDbPolyline
 62
7
  6
CONTINUOUS
 90
3
 70
0
 10
47.3480011714
 20
24.385854396
 10
47.3424230303
 20
24.3359965828
 10
47.3370970713
 20
24.2838003733
  0
LWPOLYLINE
  5
515
100
AcDbEntity
  8
DRAFT
100
AcDbPolyline
 62
7
  6
CONTINUOUS
 90
3
 70
0
 10
30.9569953942
 20
-55.0570334312
 10
30.9048104001
 20
-55.214985854
 10
30.8432979266
 20
-55.3637877616
  0
LINE
  5
516
100
AcDbEntity
  8
RACCORDO
100
AcDbLine
 62
250
  6
CONTINUOUS
 10
1.8377412329
 20
-49.6608700906
 11
2.5443815919
 21
-49.1611999009
  0
LINE
  5
517
100
AcDbEntity
  8
0
100
AcDbLine
 62
7
  6
CONTINUOUS
 10
1.6039981588
 20
-50.2310074941
 11
2.3110758441
 21
-49.731028068
  0
LWPOLYLINE
  5
518
100
AcDbEntity
  8
RACCORDO
100
AcDbPolyline
 62
7
  6
CONTINUOUS
 90
13
 70
0
 10
1.6037229705
 20
-50.2312019273
 10
1.5397069494
 20
-50.2734413166
 10
1.4256253249
 20
-50.3353682064
 10
1.3029713211
 20
-50.3855932352
 10
1.1727754228
 20
-50.4228562433
 10
1.0365951652
 20
-50.445996368
 10
0.8946316583
 20
-50.4541986533
 10
0.7477618876
 20
-50.4464271134
 10
0.5980216431
 20
-50.4219067622
 10
0.4463931183
 20
-50.3800402691
 10
0.2933337221
 20
-50.320076751
 10
0.1397582408
 20
-50.24137745
 10
-0.013391303
 20
-50.1433423932
  0
LINE
  5
519
100
AcDbEntity
  8
0
100
AcDbLine
 62
7
  6
CONTINUOUS
 10
2.507796306
 20
-50.1628627572
 11
2.5875923109
 21
-50.1195039787
  0
LWPOLYLINE
  5
51A
100
AcDbEntity
  8
0
100
AcDbPolyline
 62
7
  6
CONTINUOUS
 90
5
 70
0
 10
43.4313967474
 20
-26.6256590103
 10
43.939718036
 20
-26.3743018373
 10
44.4547792374
 20
-26.0835184602
 10
44.9764951065
 20
-25.7538075335
 10
45.1558094831
 20
-25.6285515046
  0
LWPOLYLINE
  5
51B
100
AcDbEntity
  8
RACCORDO
100
AcDbPolyline
 62
250
  6
CONTINUOUS
 90
45
 70
0
 10
7.4154588431
 20
47.3428169349
 10
7.1529394247
 20
47.2810636335
 10
6.6949406739
 20
47.155012556
 10
6.2478953498
 20
47.0133878311
 10
5.8122562453
 20
46.8564302901
 10
5.3881981583
 20
46.6842018465
 10
4.9762478072
 20
46.4968100985
 10
4.5780896203
 20
46.2949113687
 10
4.1955733493
 20
46.079444226
 10
3.8301211367
 20
45.8513302234
 10
3.4820300782
 20
45.6108804052
 10
3.1514118544
 20
45.358171765
 10
2.838714264
 20
45.0934072888
 10
2.5452738341
 20
44.817570753
 10
2.2724576971
 20
44.5319465478
 10
2.0212261497
 20
44.2377070863
 10
1.7917356267
 20
43.9352162206
 10
1.5840721359
 20
43.6245888795
 10
1.3985834497
 20
43.3061327664
 10
1.2361084865
 20
42.9810493735
 10
1.0973855264
 20
42.6508119158
 10
0.9828270118
 20
42.3167064533
 10
0.8924493806
 20
41.9791478988
 10
0.8263019912
 20
41.6383291144
 10
0.7845781779
 20
41.2946267528
 10
0.7675575541
 20
40.9493582504
 10
0.7753086366
 20
40.6041284469
 10
0.8079206689
 20
40.2582757076
 10
0.8652418864
 20
39.914198859
 10
0.9455905296
 20
39.5780050717
 10
1.0471620247
 20
39.2515574797
 10
1.1687969072
 20
38.9342553747
 10
1.3082867186
 20
38.6282405521
 10
1.4639514456
 20
38.3338032643
 10
1.634080984
 20
38.0512749361
 10
1.8157998303
 20
37.7825660553
 10
2.0071285502
 20
37.5277728775
 10
2.2063280529
 20
37.2866919301
 10
2.4104405088
 20
37.0604710593
 10
2.6165895953
 20
36.8498055299
 10
2.8240008831
 20
36.6532331798
 10
3.0330792018
 20
36.4686211871
 10
3.2432747033
 20
36.2950831607
 10
3.4527875355
 20
36.1328351791
 10
3.6605333575
 20
35.981487865
  0
LWPOLYLINE
  5
51C
100
AcDbEntity
  8
0
100
AcDbPolyline
 62
250
  6
CONTINUOUS
 90
9
 70
0
 10
44.2523804843
 20
22.114169
 10
44.1816145601
 20
22.1589086734
 10
44.1117874325
 20
22.1941326216
 10
44.0439754279
 20
22.2192978993
 10
43.9792238117
 20
22.234016607
 10
43.9185306761
 20
22.2380618703
 10
43.8628315558
 20
22.2313713369
 10
43.8129850073
 20
22.2140481374
 10
43.7830316622
 20
22.1964674093
  0
LWPOLYLINE
  5
51D
100
AcDbEntity
  8
0
100
AcDbPolyline
 62
7
  6
CONTINUOUS
 90
40
 70
0
 10
9.9893861876
 20
43.3471196066
 10
10.0493014983
 20
43.3081267303
 10
10.1125567775
 20
43.2729635462
 10
10.1791520252
 20
43.2416300541
 10
10.2495604066
 20
43.2139733816
 10
10.3233087564
 20
43.1901464011
 10
10.398977579
 20
43.1706077304
 10
10.4766040779
 20
43.1554404431
 10
10.5561510495
 20
43.1445614657
 10
10.636087387
 20
43.1381801947
 10
10.7164206334
 20
43.1363837603
 10
10.7971432458
 20
43.1390850325
 10
10.876701489
 20
43.1462320175
 10
10.9550728066
 20
43.1579108383
 10
11.032279755
 20
43.174035372
 10
11.1068362679
 20
43.1942952562
 10
11.1786910007
 20
43.2187706015
 10
11.2478952979
 20
43.2473812974
 10
11.3131171269
 20
43.27957665
 10
11.3742793389
 20
43.3154261017
 10
11.4314590827
 20
43.3548602102
 10
11.4835557723
 20
43.3971199543
 10
11.5304709381
 20
43.4422600727
 10
11.5723030496
 20
43.4902258266
 10
11.6082469295
 20
43.5400939795
 10
11.6381885102
 20
43.5919013849
 10
11.6622418592
 20
43.6456111891
 10
11.6799440018
 20
43.700189595
 10
11.6911719015
 20
43.7556534293
 10
11.6960485947
 20
43.8119858652
 10
11.6944802158
 20
43.8681026255
 10
11.6863419098
 20
43.9239995322
 10
11.6717585316
 20
43.9796807633
 10
11.6510107796
 20
44.034074576
 10
11.6239792368
 20
44.0871560301
 10
11.5907833201
 20
44.1389500657
 10
11.5520619789
 20
44.18845976
 10
11.5080281965
 20
44.2353528053
 10
11.4584689897
 20
44.2799615093
 10
11.4033843584
 20
44.3222858719
  0
LWPOLYLINE
  5
51E
100
AcDbEntity
  8
RACCORDO
100
AcDbPolyline
 62
250
  6
CONTINUOUS
 90
9
 70
0
 10
52.8541313665
 20
20.9329907191
 10
52.8396532252
 20
20.9425533698
 10
52.7738800231
 20
20.9722733814
 10
52.6988646791
 20
20.9862818257
 10
52.6158214028
 20
20.984369461
 10
52.5261397639
 20
20.9665682257
 10
52.4313203932
 20
20.933175947
 10
52.3329498594
 20
20.8847513259
 10
52.2326741781
 20
20.8221046033
  0
LWPOLYLINE
  5
51F
100
AcDbEntity
  8
RACCORDO
100
AcDbPolyline
 62
250
  6
CONTINUOUS
 90
52
 70
0
 10
13.4283617792
 20
45.1735082062
 10
13.2543931869
 20
45.2892631601
 10
13.0706852908
 20
45.3974098816
 10
12.8779346373
 20
45.4975379396
 10
12.6768801183
 20
45.5892635195
 10
12.468276822
 20
45.672242918
 10
12.2528899196
 20
45.7461703802
 10
12.0315407472
 20
45.8107606236
 10
11.8050600729
 20
45.8657667992
 10
11.5742562732
 20
45.9109842244
 10
11.3399815239
 20
45.9462333819
 10
11.1031433291
 20
45.9713659347
 10
10.8646524083
 20
45.9862756367
 10
10.6253833123
 20
45.9908968404
 10
10.3862790378
 20
45.9852001715
 10
10.148358508
 20
45.9692078109
 10
9.9127141066
 20
45.9430105182
 10
9.6800507603
 20
45.9067042313
 10
9.4508120085
 20
45.8603325916
 10
9.225531139
 20
45.8039195681
 10
9.0054803825
 20
45.7376978101
 10
8.7921641396
 20
45.6621104715
 10
8.5867409081
 20
45.5776420666
 10
8.3895788818
 20
45.4845205248
 10
8.2009537661
 20
45.3828761335
 10
8.0213374717
 20
45.2728835433
 10
7.8517692644
 20
45.1550951145
 10
7.6933126551
 20
45.0302500484
 10
7.5467615349
 20
44.8990697732
 10
7.4123699005
 20
44.761884917
 10
7.2903295448
 20
44.6188934807
 10
7.1809928632
 20
44.4703912516
 10
7.0850235612
 20
44.3171484157
 10
7.0030060985
 20
44.1600960932
 10
6.935295944
 20
44.0000795203
 10
6.8819790545
 20
43.8375002615
 10
6.8431477305
 20
43.6726512189
 10
6.818970168
 20
43.5059485505
 10
6.8096379908
 20
43.3382340153
 10
6.8152058272
 20
43.1704407453
 10
6.8355877119
 20
43.0033851921
 10
6.8706683153
 20
42.8375312272
 10
6.9203569207
 20
42.6732845582
 10
6.9845554429
 20
42.5111263626
 10
7.0630022003
 20
42.3518378481
 10
7.1552774078
 20
42.1962562138
 10
7.2616286532
 20
42.0441228102
 10
7.3811268102
 20
41.8969069591
 10
7.5107378188
 20
41.7577171289
 10
7.6483562303
 20
41.6275684726
 10
7.7936063137
 20
41.5056972655
 10
7.9453778332
 20
41.3921589176
  0
LWPOLYLINE
  5
520
100
AcDbEntity
  8
RACCORDO
100
AcDbPolyline
 62
250
  6
CONTINUOUS
 90
64
 70
0
 10
16.4121405472
 20
46.0296919813
 10
16.1964250591
 20
46.1767733139
 10
15.9627261888
 20
46.3246559429
 10
15.7103283769
 20
46.4722969454
 10
15.4388944463
 20
46.6184055918
 10
15.1475598703
 20
46.7619469755
 10
14.8348534503
 20
46.9020455555
 10
14.4972232807
 20
47.038404877
 10
14.13732988
 20
47.168034083
 10
13.7637781445
 20
47.2866507141
 10
13.3792730704
 20
47.3928866512
 10
12.9824870565
 20
47.4866044221
 10
12.5768734478
 20
47.5665178477
 10
12.1636746625
 20
47.6320840954
 10
11.7436517727
 20
47.6828860544
 10
11.3197994624
 20
47.7183576888
 10
10.893465928
 20
47.7382999405
 10
10.4656252244
 20
47.7425812445
 10
10.0387878535
 20
47.7311528242
 10
9.614864822
 20
47.7041561487
 10
9.194274574
 20
47.6617084025
 10
8.7772926949
 20
47.603837813
 10
8.3645122147
 20
47.5305437796
 10
7.9576743885
 20
47.4420513794
 10
7.5587450135
 20
47.3387881689
 10
7.1693344769
 20
47.2212578589
 10
6.7899288912
 20
47.0896958276
 10
6.4207823918
 20
46.9441901346
 10
6.0624578551
 20
46.7848689201
 10
5.7165032146
 20
46.6123234807
 10
5.3845921414
 20
46.4273885521
 10
5.0680269137
 20
46.2308944505
 10
4.7671620264
 20
46.0231705813
 10
4.4821975761
 20
45.8043550518
 10
4.2136092149
 20
45.5746914889
 10
3.962600936
 20
45.3350798634
 10
3.730387489
 20
45.0866797135
 10
3.5178334964
 20
44.830565606
 10
3.3251284929
 20
44.5671287787
 10
3.1524009778
 20
44.2965448818
 10
2.9999933742
 20
44.0191499685
 10
2.8686459284
 20
43.7360634283
 10
2.7589938698
 20
43.4486542853
 10
2.6713794255
 20
43.1581365929
 10
2.6058081386
 20
42.8649238508
 10
2.5623234022
 20
42.5692074132
 10
2.5410975536
 20
42.2712684328
 10
2.542356819
 20
41.972449472
 10
2.5660567148
 20
41.67453258
 10
2.6120144307
 20
41.378195183
 10
2.6799539346
 20
41.0843842135
 10
2.769079216
 20
40.7952353746
 10
2.8787840139
 20
40.511289474
 10
3.0082937464
 20
40.2334081471
 10
3.1557849641
 20
39.9640274886
 10
3.32101724
 20
39.7022350654
 10
3.5020599396
 20
39.4499069945
 10
3.6929075123
 20
39.2130511619
 10
3.8893062104
 20
38.9935604429
 10
4.0907943274
 20
38.7889502566
 10
4.2961588673
 20
38.598149951
 10
4.5039378564
 20
38.4205535532
 10
4.7122707841
 20
38.2559604646
 10
4.9196643754
 20
38.1038860654
  0
LINE
  5
521
100
AcDbEntity
  8
0
100
AcDbLine
 62
250
  6
CONTINUOUS
 10
42.8047587178
 20
22.1226200254
 11
39.1278034556
 21
24.7226200254
  0
LINE
  5
522
100
AcDbEntity
  8
0
100
AcDbLine
 62
7
  6
CONTINUOUS
 10
43.2567663613
 20
22.2032370592
 11
39.5798110909
 21
24.803237065
  0
LINE
  5
523
100
AcDbEntity
  8
0
100
AcDbLine
 62
250
  6
CONTINUOUS
 10
-11.4069361279
 20
65.8221046027
 11
15.1482565013
 21
47.0447478189
  0
LINE
  5
524
100
AcDbEntity
  8
0
100
AcDbLine
 62
250
  6
CONTINUOUS
 10
23.6902323699
 20
41.0046587575
 11
42.2790133486
 21
27.8604056734
  0
LINE
  5
525
100
AcDbEntity
  8
0
100
AcDbLine
 62
250
  6
CONTINUOUS
 10
47.3370926012
 20
24.2838035341
 11
52.2326741789
 21
20.8221046027
  0
LINE
  5
526
100
AcDbEntity
  8
RACCORDO
100
AcDbLine
 62
250
  6
CONTINUOUS
 10
17.8352521491
 20
45.4624873641
 11
17.6275063282
 21
45.6138347452
  0
LINE
  5
527
100
AcDbEntity
  8
RACCORDO
100
AcDbLine
 62
250
  6
CONTINUOUS
 10
16.6195341363
 20
45.8776174576
 11
16.4121405472
 21
46.0296919813
  0
LWPOLYLINE
  5
528
100
AcDbEntity
  8
0
100
AcDbPolyline
 62
7
  6
CONTINUOUS
 90
4
 70
0
 10
39.5797010334
 20
24.8033113848
 10
39.5757919423
 20
24.806178118
 10
39.5718363779
 20
24.809395048
 10
39.5711607934
 20
24.8100075455
  0
LWPOLYLINE
  5
529
100
AcDbEntity
  8
RACCORDO
100
AcDbPolyline
 62
7
  6
CONTINUOUS
 90
19
 70
0
 10
16.5268741148
 20
46.0293809532
 10
16.7881559806
 20
45.8361994389
 10
17.0369201186
 20
45.6350438123
 10
17.2727021435
 20
45.4263077761
 10
17.4951018018
 20
45.2103556789
 10
17.7036532879
 20
44.9876469346
 10
17.8978533843
 20
44.7587480539
 10
18.0773633662
 20
44.5241050848
 10
18.2418576184
 20
44.2841910673
 10
18.390945841
 20
44.0396536717
 10
18.5243665804
 20
43.7910469113
 10
18.6419509837
 20
43.5388236273
 10
18.7435210582
 20
43.2835116084
 10
18.8289187628
 20
43.0256951707
 10
18.8980601139
 20
42.7658533611
 10
18.950897351
 20
42.5043734675
 10
18.9873679437
 20
42.2417514379
 10
19.0074287253
 20
41.9785884022
 10
19.0110854659
 20
41.7154363633
  0
LWPOLYLINE
  5
52A
100
AcDbEntity
  8
RACCORDO
100
AcDbPolyline
 62
7
  6
CONTINUOUS
 90
19
 70
0
 10
17.7422398959
 20
45.6135237171
 10
18.0571104248
 20
45.3807542285
 10
18.3569329665
 20
45.1384125199
 10
18.6411425414
 20
44.8869727029
 10
18.9092436122
 20
44.6268823967
 10
19.1606800245
 20
44.358687414
 10
19.394863546
 20
44.0830434352
 10
19.6113777032
 20
43.8004862795
 10
19.8098226374
 20
43.5115838605
 10
19.9897381399
 20
43.217084026
 10
20.1508027109
 20
42.9176382466
 10
20.2927935794
 20
42.6137988597
 10
20.4154832273
 20
42.3061997461
 10
20.5186728435
 20
41.9955291753
 10
20.602245346
 20
41.6823683356
 10
20.6661256711
 20
41.3672099524
 10
20.7102307249
 20
41.0506557682
 10
20.7345035287
 20
40.733412712
 10
20.7389427721
 20
40.4161391904
  0
LWPOLYLINE
  5
52B
100
AcDbEntity
  8
RACCORDO
100
AcDbPolyline
 62
7
  6
CONTINUOUS
 90
16
 70
0
 10
13.5430953459
 20
45.1731971787
 10
13.6997650204
 20
45.0562013991
 10
13.8471367359
 20
44.9334028666
 10
13.9848446915
 20
44.8051545812
 10
14.1126124807
 20
44.6717460696
 10
14.2300396841
 20
44.5336228751
 10
14.3366573062
 20
44.3914158358
 10
14.4322168361
 20
44.2455916966
 10
14.5165551603
 20
44.0965450096
 10
14.5894455361
 20
43.9448577205
 10
14.6507357666
 20
43.791119555
 10
14.7004099977
 20
43.6356964829
 10
14.7384711087
 20
43.4788684897
 10
14.7648785977
 20
43.3210644637
 10
14.7796050577
 20
43.162856374
 10
14.7826844223
 20
43.0047495774
  0
LINE
  5
52C
100
AcDbEntity
  8
RACCORDO
100
AcDbLine
 62
250
  6
CONTINUOUS
 10
13.5801332943
 20
45.0599696
 11
13.4283617792
 21
45.1735082062
  0
LWPOLYLINE
  5
52D
100
AcDbEntity
  8
0
100
AcDbPolyline
 62
250
  6
CONTINUOUS
 90
22
 70
0
 10
39.1278034556
 20
24.7226200254
 10
39.0765945727
 20
24.7614361375
 10
39.0298336839
 20
24.8026363974
 10
38.9875207891
 20
24.846220805
 10
38.9493466314
 20
24.892476095
 10
38.9156204678
 20
24.9411155328
 10
38.8872700694
 20
24.9912789145
 10
38.8644403143
 20
25.0430331351
 10
38.8469863246
 20
25.0963112996
 10
38.8354012373
 20
25.1500525201
 10
38.8298513678
 20
25.2042575117
 10
38.8301704008
 20
25.2589255592
 10
38.8363525274
 20
25.3129936284
 10
38.8485636633
 20
25.3664567329
 10
38.8666378928
 20
25.4193198591
 10
38.8900716602
 20
25.4705349322
 10
38.9190095555
 20
25.5200327182
 10
38.9533069887
 20
25.567882451
 10
38.9920266338
 20
25.6132437578
 10
39.0348560488
 20
25.6558365142
 10
39.0821076758
 20
25.6959408447
 10
39.1337815146
 20
25.7335567491
  0
LWPOLYLINE
  5
52E
100
AcDbEntity
  8
0
100
AcDbPolyline
 62
250
  6
CONTINUOUS
 90
10
 70
0
 10
39.1337815227
 20
25.7335567315
 10
39.2032051473
 20
25.679168922
 10
39.2714064632
 20
25.6167934466
 10
39.3373341827
 20
25.5473917908
 10
39.3999720642
 20
25.4720337446
 10
39.4583545775
 20
25.391880913
 10
39.5115817872
 20
25.3081688107
 10
39.5588332237
 20
25.222187816
 10
39.5993805306
 20
25.1352632812
 10
39.6325986921
 20
25.0487351025
  0
LWPOLYLINE
  5
52F
100
AcDbEntity
  8
0
100
AcDbPolyline
 62
7
  6
CONTINUOUS
 90
11
 70
0
 10
39.5780303429
 20
24.8016448397
 10
39.5676234793
 20
24.8174650721
 10
39.5551803832
 20
24.8436280038
 10
39.5474134395
 20
24.8711849662
 10
39.5447336369
 20
24.8987413245
 10
39.5474153078
 20
24.9262967341
 10
39.5551841198
 20
24.9538515396
 10
39.5676280651
 20
24.9800121393
 10
39.5846098075
 20
25.0043139995
 10
39.6062666832
 20
25.0272216539
 10
39.6325986921
 20
25.0487351025
  0
LWPOLYLINE
  5
530
100
AcDbEntity
  8
0
100
AcDbPolyline
 62
250
  6
CONTINUOUS
 90
10
 70
0
 10
52.9713871111
 20
-34.304704257
 10
52.9663627706
 20
-34.2320099115
 10
52.952546295
 20
-34.1543783839
 10
52.9301505472
 20
-34.0730063755
 10
52.8995206167
 20
-33.9891482551
 10
52.8611285009
 20
-33.9040967237
 10
52.8155658308
 20
-33.8191628883
 10
52.7635347518
 20
-33.7356560512
 10
52.7058371026
 20
-33.6548635278
 10
52.6433620567
 20
-33.5780308025
  0
LWPOLYLINE
  5
531
100
AcDbEntity
  8
0
100
AcDbPolyline
 62
7
  6
CONTINUOUS
 90
46
 70
0
 10
53.3282527638
 20
-12.0564493346
 10
53.3118226718
 20
-11.724288613
 10
53.2584398403
 20
-11.2463717053
 10
53.1702461499
 20
-10.8014762435
 10
53.0464752349
 20
-10.3877624859
 10
52.8878934609
 20
-10.0070701741
 10
52.6967999247
 20
-9.6649185333
 10
52.4727209865
 20
-9.3618690342
 10
52.2161302861
 20
-9.097360206
 10
51.9307478406
 20
-8.8752268616
 10
51.616154204
 20
-8.6960863384
 10
51.2727688221
 20
-8.5593212989
 10
50.9055700494
 20
-8.466914544
 10
50.5142109659
 20
-8.419512297
 10
50.0990384915
 20
-8.4164683347
 10
49.66607174
 20
-8.4578267879
 10
49.2150514796
 20
-8.5442345229
 10
48.746236942
 20
-8.6750446735
 10
48.2664249364
 20
-8.8483607719
 10
47.7754552486
 20
-9.0648020562
 10
47.2734880928
 20
-9.3237492885
 10
46.76780092
 20
-9.621448287
 10
46.2583395362
 20
-9.9584635979
 10
45.7451581355
 20
-10.3342306751
 10
45.2356967517
 20
-10.743301699
 10
44.7300095789
 20
-11.1861618502
 10
44.2280424231
 20
-11.662325948
 10
43.7370727353
 20
-12.1648906305
 10
43.2572607297
 20
-12.6942405084
 10
42.7884461921
 20
-13.2499909709
 10
42.3374259317
 20
-13.8240848238
 10
41.9044591802
 20
-14.4167892985
 10
41.4892867058
 20
-15.0278371637
 10
41.0979276223
 20
-15.6483695309
 10
40.7307288496
 20
-16.2785245728
 10
40.3873434678
 20
-16.9181641168
 10
40.0727498312
 20
-17.5580147561
 10
39.7873673856
 20
-18.1980795662
 10
39.5307766852
 20
-18.8383554715
 10
39.306697747
 20
-19.4695598398
 10
39.1156042108
 20
-20.0915605143
 10
38.9570224368
 20
-20.7044896516
 10
38.8332515218
 20
-21.299461089
 10
38.7450578314
 20
-21.8735127721
 10
38.691675
 20
-22.4296067552
 10
38.6731030275
 20
-22.9677430384
  0
LWPOLYLINE
  5
532
100
AcDbEntity
  8
0
100
AcDbPolyline
 62
7
  6
CONTINUOUS
 90
7
 70
0
 10
53.3108336476
 20
-11.3446939251
 10
53.2933134073
 20
-10.9904941034
 10
53.236388587
 20
-10.4808670691
 10
53.1423431826
 20
-10.0064524772
 10
53.0103599793
 20
-9.5652885176
 10
52.8412561919
 20
-9.1593370003
 10
52.6374834638
 20
-8.7944833549
  0
LWPOLYLINE
  5
533
100
AcDbEntity
  8
0
100
AcDbPolyline
 62
7
  6
CONTINUOUS
 90
7
 70
0
 10
53.4867822359
 20
-11.4081710672
 10
53.4690714576
 20
-10.8855583751
 10
53.4179054053
 20
-10.3942165759
 10
53.3332840792
 20
-9.9341456695
 10
53.2145604474
 20
-9.5036482314
 10
53.0623815417
 20
-9.1044216861
 10
52.878688457
 20
-8.7415583074
  0
LINE
  5
534
100
AcDbEntity
  8
0
100
AcDbLine
 62
7
  6
CONTINUOUS
 10
53.3107783299
 20
-11.3424198407
 11
53.3282008881
 21
-12.0543167489
  0
LINE
  5
535
100
AcDbEntity
  8
0
100
AcDbLine
 62
7
  6
CONTINUOUS
 10
53.3303946442
 20
-12.2352269665
 11
53.3282527638
 21
-12.0564493346
  0
LINE
  5
536
100
AcDbEntity
  8
0
100
AcDbLine
 62
250
  6
CONTINUOUS
 10
52.2572652528
 20
-34.106772473
 11
52.2572652528
 21
-30.4298172108
  0
LINE
  5
537
100
AcDbEntity
  8
0
100
AcDbLine
 62
7
  6
CONTINUOUS
 10
52.4817934125
 20
-33.7138143575
 11
52.4817934125
 21
-30.0368539578
  0
LINE
  5
538
100
AcDbEntity
  8
0
100
AcDbLine
 62
7
  6
CONTINUOUS
 10
52.4817927013
 20
-30.0368449111
 11
52.4817857183
 21
-30.0379526327
  0
LWPOLYLINE
  5
539
100
AcDbEntity
  8
DRAFT
100
AcDbPolyline
 62
7
  6
CONTINUOUS
 90
3
 70
0
 10
30.8432979266
 20
-55.3637877616
 10
30.7725538538
 20
-55.5034323979
 10
30.6931239797
 20
-55.6328569475
  0
LWPOLYLINE
  5
53A
100
AcDbEntity
  8
RACCORDO
100
AcDbPolyline
 62
7
  6
CONTINUOUS
 90
13
 70
0
 10
14.018503406
 20
47.2946368318
 10
14.3096375919
 20
47.2399416435
 10
14.9215893662
 20
47.1034821991
 10
15.5247756116
 20
46.9471835356
 10
16.1182400842
 20
46.7712310039
 10
16.7005135048
 20
46.5759882999
 10
17.2698071587
 20
46.3620256153
 10
17.8245974827
 20
46.129940718
 10
18.3642252217
 20
45.8800259454
 10
18.888243358
 20
45.6124237566
 10
19.3957633712
 20
45.3274495695
 10
19.8855018593
 20
45.0256694902
 10
20.3564043551
 20
44.7075783732
  0
LWPOLYLINE
  5
53B
100
AcDbEntity
  8
RACCORDO
100
AcDbPolyline
 62
7
  6
CONTINUOUS
 90
12
 70
0
 10
13.252795728
 20
47.467003758
 10
13.5521202771
 20
47.406453318
 10
14.019400386
 20
47.2944217787
 10
14.4789073207
 20
47.1664686154
 10
14.9294478031
 20
47.0228970257
 10
15.3697333351
 20
46.8641061193
 10
15.7985987117
 20
46.6905257817
 10
16.2152051134
 20
46.5025019753
 10
16.6187959066
 20
46.3003532252
 10
17.0084830458
 20
46.0844749728
 10
17.3832649129
 20
45.8553666952
 10
17.7422398959
 20
45.6135237171
  0
LWPOLYLINE
  5
53C
100
AcDbEntity
  8
RACCORDO
100
AcDbPolyline
 62
7
  6
CONTINUOUS
 90
10
 70
0
 10
14.8220041346
 20
47.0571355878
 10
15.1289557611
 20
46.9715979336
 10
15.6575480343
 20
46.8030564273
 10
16.1740966511
 20
46.6166790475
 10
16.6772548935
 20
46.4129611209
 10
17.166006201
 20
46.1923204484
 10
17.6394214262
 20
45.9551533473
 10
18.0964457538
 20
45.701938759
 10
18.5359169543
 20
45.4332650928
 10
18.9567790057
 20
45.1497219777
  0
LWPOLYLINE
  5
53D
100
AcDbEntity
  8
RACCORDO
100
AcDbPolyline
 62
250
  6
CONTINUOUS
 90
9
 70
0
 10
-10.7854256182
 20
65.9329530242
 10
-10.7999587885
 20
65.9425544214
 10
-10.8657322621
 20
65.9722739954
 10
-10.9407477082
 20
65.9862819844
 10
-11.023790883
 20
65.9843692344
 10
-11.1134722509
 20
65.9665677509
 10
-11.2082912013
 20
65.9331754006
 10
-11.3066611583
 20
65.8847509273
 10
-11.4069361279
 20
65.8221046027
  0
LWPOLYLINE
  5
53E
100
AcDbEntity
  8
RACCORDO
100
AcDbPolyline
 62
7
  6
CONTINUOUS
 90
16
 70
0
 10
-10.7854256182
 20
65.9329530242
 10
-11.0628329135
 20
66.1185319379
 10
-11.3421400879
 20
66.2841232293
 10
-11.6229011729
 20
66.4290434726
 10
-11.9071617806
 20
66.5534744358
 10
-12.1918201256
 20
66.6550330989
 10
-12.4688885395
 20
66.7309360504
 10
-12.7363851318
 20
66.7817480564
 10
-12.9957553039
 20
66.808763702
 10
-13.2442531367
 20
66.8127444547
 10
-13.4798525088
 20
66.7952017088
 10
-13.7036451464
 20
66.7576008597
 10
-13.9169606711
 20
66.7007803917
 10
-14.1194624877
 20
66.6255537038
 10
-14.3096596496
 20
66.5332705035
 10
-14.4867921003
 20
66.4252673797
  0
LWPOLYLINE
  5
53F
100
AcDbEntity
  8
RACCORDO
100
AcDbPolyline
 62
250
  6
CONTINUOUS
 90
9
 70
0
 10
19.9739591297
 20
44.7086151336
 10
19.5386922734
 20
45.0028978505
 10
19.0849845027
 20
45.2832505797
 10
18.6137701462
 20
45.549094264
 10
18.1261591654
 20
45.7998111869
 10
17.62302535
 20
46.0349605586
 10
17.1049619288
 20
46.25423507
 10
16.5727647476
 20
46.4572256019
 10
16.5418496444
 20
46.4677837875
  0
LWPOLYLINE
  5
540
100
AcDbEntity
  8
RACCORDO
100
AcDbPolyline
 62
250
  6
CONTINUOUS
 90
10
 70
0
 10
18.8420454381
 20
45.1500330059
 10
18.5587261213
 20
45.3437765272
 10
18.252639616
 20
45.539213825
 10
17.9228828697
 20
45.7351117449
 10
17.56893809
 20
45.9299679094
 10
17.1897490274
 20
46.1225350679
 10
16.7836463616
 20
46.3117300583
 10
16.3458289374
 20
46.4975145905
 10
15.8798121218
 20
46.6760865275
 10
15.5811953418
 20
46.7785183136
  0
LWPOLYLINE
  5
541
100
AcDbEntity
  8
RACCORDO
100
AcDbPolyline
 62
250
  6
CONTINUOUS
 90
13
 70
0
 10
17.6275063282
 20
45.6138347452
 10
17.4127682041
 20
45.7612031295
 10
17.1823665316
 20
45.9099396966
 10
16.9357265581
 20
46.0592863995
 10
16.6731327138
 20
46.2079774356
 10
16.3933055803
 20
46.3556333518
 10
16.0931914926
 20
46.5025558059
 10
15.7706499696
 20
46.6482278029
 10
15.4266732757
 20
46.7906063964
 10
15.0629763982
 20
46.9275647915
 10
14.6792888763
 20
47.0578796755
 10
14.275700247
 20
47.1801809735
 10
14.0992495023
 20
47.2272561235
  0
LINE
  5
542
100
AcDbEntity
  8
0
100
AcDbLine
 62
7
  6
CONTINUOUS
 10
43.3277158403
 20
27.6615774953
 11
47.4289351712
 21
24.7615774953
  0
LINE
  5
543
100
AcDbEntity
  8
RACCORDO
100
AcDbLine
 62
7
  6
CONTINUOUS
 10
-10.7854256182
 20
65.9329530242
 11
16.4892974866
 21
46.6468113618
  0
LINE
  5
544
100
AcDbEntity
  8
RACCORDO
100
AcDbLine
 62
7
  6
CONTINUOUS
 10
23.1150182012
 20
41.9617193143
 11
43.3789538207
 21
27.6329530242
  0
LINE
  5
545
100
AcDbEntity
  8
RACCORDO
100
AcDbLine
 62
7
  6
CONTINUOUS
 10
47.43118169
 20
24.7675952189
 11
52.8541846879
 21
20.9329530247
  0
LINE
  5
546
100
AcDbEntity
  8
RACCORDO
100
AcDbLine
 62
250
  6
CONTINUOUS
 10
19.1151707564
 20
44.9503475751
 11
18.8420454381
 21
45.1500330059
  0
LWPOLYLINE
  5
547
100
AcDbEntity
  8
RACCORDO
100
AcDbPolyline
 62
250
  6
CONTINUOUS
 90
25
 70
0
 10
52.2326741789
 20
20.8221046027
 10
52.4404456539
 20
20.6695026095
 10
52.656900576
 20
20.4983727235
 10
52.881196034
 20
20.3077717383
 10
53.1133620141
 20
20.0958825026
 10
53.351051558
 20
19.8629587735
 10
53.5897142506
 20
19.6119121726
 10
53.8278667541
 20
19.3430279062
 10
54.0639608906
 20
19.0567143511
 10
54.2936143193
 20
18.757241249
 10
54.5153411866
 20
18.4458388693
 10
54.7277024112
 20
18.12377986
 10
54.9270599897
 20
17.7962007175
 10
55.1124114864
 20
17.4647895022
 10
55.2828157182
 20
17.1312730046
 10
55.4357657991
 20
16.8011341777
 10
55.5710727745
 20
16.4759792202
 10
55.6886308483
 20
16.1573850759
 10
55.7873488573
 20
15.8505351217
 10
55.8679786361
 20
15.5564607084
 10
55.9313586645
 20
15.2760254227
 10
55.977872536
 20
15.0134541121
 10
56.0089729079
 20
14.7700263395
 10
56.0264855297
 20
14.5444027254
 10
56.0319787648
 20
14.3362859804
  0
LWPOLYLINE
  5
548
100
AcDbEntity
  8
RACCORDO
100
AcDbPolyline
 62
7
  6
CONTINUOUS
 90
19
 70
0
 10
18.9567790057
 20
45.1497219777
 10
19.3252396032
 20
44.8773632785
 10
19.6761210078
 20
44.5938345733
 10
20.0087577538
 20
44.2996905142
 10
20.3225590737
 20
43.9954621699
 10
20.6168786719
 20
43.6817818107
 10
20.8910435867
 20
43.3593942764
 10
21.1445593783
 20
43.0289257375
 10
21.3769524141
 20
42.691038732
 10
21.5876935603
 20
42.3465800384
 10
21.776401147
 20
41.9962987021
 10
21.9427983419
 20
41.6408466716
 10
22.0866085274
 20
41.2809625786
 10
22.2075919196
 20
40.9174382423
 10
22.3055978007
 20
40.5509574556
 10
22.3805234845
 20
40.1821182324
 10
22.4322649938
 20
39.8116280137
 10
22.4607512105
 20
39.4402995248
 10
22.4659734072
 20
39.0688975143
  0
LWPOLYLINE
  5
549
100
AcDbEntity
  8
RACCORDO
100
AcDbPolyline
 62
7
  6
CONTINUOUS
 90
19
 70
0
 10
20.3564043551
 20
44.7075783732
 10
20.8037762688
 20
44.3765384661
 10
21.2293905447
 20
44.0315629475
 10
21.6324982176
 20
43.6733336428
 10
22.0125192213
 20
43.302414649
 10
22.3686236905
 20
42.919655887
 10
22.6998191467
 20
42.5262376561
 10
23.0055825901
 20
42.1229585865
 10
23.2854320872
 20
41.7106364111
 10
23.5386564296
 20
41.2905887386
 10
23.7648545977
 20
40.8638928012
 10
23.9638818692
 20
40.4312781897
 10
24.1355488418
 20
39.9936208135
 10
24.2796433974
 20
39.5520314578
 10
24.3961276134
 20
39.1073161236
 10
24.485045491
 20
38.6599314254
 10
24.5463399688
 20
38.2106923311
 10
24.5799653902
 20
37.7607647142
 10
24.5859853735
 20
37.3111454306
  0
LWPOLYLINE
  5
54A
100
AcDbEntity
  8
RACCORDO
100
AcDbPolyline
 62
7
  6
CONTINUOUS
 90
19
 70
0
 10
56.3407049844
 20
14.8766033892
 10
56.3253207292
 20
15.2404565212
 10
56.2805239396
 20
15.6104894034
 10
56.2082582373
 20
15.9846693895
 10
56.1102419778
 20
16.3614727753
 10
55.9880581822
 20
16.7392662082
 10
55.8435433568
 20
17.1155136694
 10
55.6787707012
 20
17.4874284822
 10
55.4950283913
 20
17.854065343
 10
55.2931421855
 20
18.2149021182
 10
55.0745312078
 20
18.5680445744
 10
54.8406126387
 20
18.9116534995
 10
54.5920014097
 20
19.2449651159
 10
54.3300131577
 20
19.5660875764
 10
54.0559976923
 20
19.8731352636
 10
53.7703080254
 20
20.1652375376
 10
53.4737652124
 20
20.4407757359
 10
53.1679413451
 20
20.6973837906
 10
52.8541846879
 20
20.9329530247
  0
LWPOLYLINE
  5
54B
100
AcDbEntity
  8
0
100
AcDbPolyline
 62
7
  6
CONTINUOUS
 90
11
 70
0
 10
54.3499899963
 20
-11.9976082405
 10
54.332279218
 20
-11.4749955484
 10
54.2811131657
 20
-10.9836537491
 10
54.1964918396
 20
-10.5235828427
 10
54.0777682078
 20
-10.0930854046
 10
53.9255893021
 20
-9.6938588593
 10
53.7418962174
 20
-9.3309954807
 10
53.526285263
 20
-9.0049610739
 10
53.2791601297
 20
-8.7152898337
 10
53.0036729847
 20
-8.4656766178
 10
52.8458939206
 20
-8.349632579
  0
LINE
  5
54C
100
AcDbEntity
  8
0
100
AcDbLine
 62
7
  6
CONTINUOUS
 10
56.3384806141
 20
-30.9651865096
 11
56.3407049532
 21
-31.0406437405
  0
LINE
  5
54D
100
AcDbEntity
  8
0
100
AcDbLine
 62
250
  6
CONTINUOUS
 10
56.0319787648
 20
14.3362859804
 11
56.0319787648
 21
-26.9752948253
  0
LINE
  5
54E
100
AcDbEntity
  8
0
100
AcDbLine
 62
250
  6
CONTINUOUS
 10
56.0319787648
 20
-32.0333740779
 11
56.0319787648
 21
-35.8682954839
  0
LINE
  5
54F
100
AcDbEntity
  8
0
100
AcDbLine
 62
7
  6
CONTINUOUS
 10
56.3384806141
 20
-26.8639671787
 11
56.3384806141
 21
-26.887020666
  0
LINE
  5
550
100
AcDbEntity
  8
0
100
AcDbLine
 62
7
  6
CONTINUOUS
 10
56.3384806141
 20
-26.9076275903
 11
56.3384806141
 21
-30.9651865096
  0
LINE
  5
551
100
AcDbEntity
  8
RACCORDO
100
AcDbLine
 62
7
  6
CONTINUOUS
 10
56.3407049844
 20
14.8766033892
 11
56.3407049844
 21
-26.8875413465
  0
LINE
  5
552
100
AcDbEntity
  8
RACCORDO
100
AcDbLine
 62
7
  6
CONTINUOUS
 10
56.3407049844
 20
-31.0404927426
 11
56.3407049844
 21
-35.3279780743
  0
LWPOLYLINE
  5
553
100
AcDbEntity
  8
0
100
AcDbPolyline
 62
7
  6
CONTINUOUS
 90
15
 70
0
 10
56.3407049532
 20
-31.0406437405
 10
56.3388919918
 20
-31.1109853029
 10
56.3332755739
 20
-31.1843860647
 10
56.3241064494
 20
-31.2579839763
 10
56.3116138601
 20
-31.3315916887
 10
56.2959269723
 20
-31.4049060107
 10
56.277227199
 20
-31.477756086
 10
56.2556981632
 20
-31.5501124052
 10
56.2313516304
 20
-31.6218753764
 10
56.2042852899
 20
-31.693005022
 10
56.1746624296
 20
-31.7633614606
 10
56.1425122706
 20
-31.8326782143
 10
56.1079141171
 20
-31.9008072937
 10
56.0710266499
 20
-31.9677316714
 10
56.0319787648
 20
-32.033378548
  0
LWPOLYLINE
  5
554
100
AcDbEntity
  8
RACCORDO
100
AcDbPolyline
 62
250
  6
CONTINUOUS
 90
11
 70
0
 10
56.0319787648
 20
-35.8682954839
 10
56.0262933765
 20
-36.0720467007
 10
56.008220218
 20
-36.2757218782
 10
55.9762200547
 20
-36.4773897022
 10
55.9284969334
 20
-36.6758101969
 10
55.8636450665
 20
-36.8676423932
 10
55.7813584621
 20
-37.0481196011
 10
55.6808734599
 20
-37.2152185599
 10
55.5615036981
 20
-37.366905694
 10
55.4244201175
 20
-37.4996265375
 10
55.3567416403
 20
-37.5529865642
  0
LINE
  5
555
100
AcDbEntity
  8
0
100
AcDbLine
 62
7
  6
CONTINUOUS
 10
53.4690714576
 20
-11.9567205037
 11
53.4867822359
 21
-11.4081710672
  0
LWPOLYLINE
  5
556
100
AcDbEntity
  8
0
100
AcDbPolyline
 62
250
  6
CONTINUOUS
 90
12
 70
0
 10
52.2572652528
 20
-30.4298172108
 10
52.2590990598
 20
-30.3754062503
 10
52.2648199181
 20
-30.3186406816
 10
52.2744278275
 20
-30.2595205045
 10
52.2879703391
 20
-30.1976545042
 10
52.3053999019
 20
-30.1334338956
 10
52.3265738628
 20
-30.0680323234
 10
52.3516102598
 20
-30.0013863112
 10
52.3803910549
 20
-29.9335593355
 10
52.4124194803
 20
-29.86591547
 10
52.4477793286
 20
-29.7984732157
 10
52.4863868071
 20
-29.7312140716
  0
LWPOLYLINE
  5
557
100
AcDbEntity
  8
0
100
AcDbPolyline
 62
7
  6
CONTINUOUS
 90
29
 70
0
 10
53.3303946442
 20
-12.2352269665
 10
53.3118226718
 20
-12.7733632497
 10
53.2584398403
 20
-13.3294572328
 10
53.1702461499
 20
-13.9035089159
 10
53.0464752349
 20
-14.4984803533
 10
52.8878934609
 20
-15.1114094906
 10
52.6967999247
 20
-15.7334101651
 10
52.4727209865
 20
-16.3646145334
 10
52.2161302861
 20
-17.0048904387
 10
51.9307478406
 20
-17.6449552487
 10
51.616154204
 20
-18.2848058881
 10
51.2727688221
 20
-18.9244454321
 10
50.9055700494
 20
-19.554600474
 10
50.5142109659
 20
-20.1751328412
 10
50.0990384915
 20
-20.7861807063
 10
49.66607174
 20
-21.3788851811
 10
49.2150514796
 20
-21.952979034
 10
48.746236942
 20
-22.5087294965
 10
48.2664249364
 20
-23.0380793744
 10
47.7754552486
 20
-23.5406440569
 10
47.2734880928
 20
-24.0168081547
 10
46.76780092
 20
-24.4596683059
 10
46.2583395362
 20
-24.8687393298
 10
45.7451581355
 20
-25.244506407
 10
45.2356967517
 20
-25.5815217179
 10
44.7300095789
 20
-25.8792207164
 10
44.2280424231
 20
-26.1381679486
 10
43.7370727353
 20
-26.354609233
 10
43.5009646806
 20
-26.444851745
  0
LWPOLYLINE
  5
558
100
AcDbEntity
  8
0
100
AcDbPolyline
 62
250
  6
CONTINUOUS
 90
6
 70
0
 10
52.9713787376
 20
-29.1860997195
 10
52.9663588212
 20
-29.2535938984
 10
52.9525456865
 20
-29.3139904462
 10
52.9301522558
 20
-29.3663583817
 10
52.8995237116
 20
-29.4098904804
 10
52.8649247508
 20
-29.4412328545
  0
LWPOLYLINE
  5
559
100
AcDbEntity
  8
RACCORDO
100
AcDbPolyline
 62
250
  6
CONTINUOUS
 90
7
 70
0
 10
56.3407049844
 20
14.8766033892
 10
56.3326995733
 20
14.7829342432
 10
56.3064640406
 20
14.6840447822
 10
56.2623954926
 20
14.5883773446
 10
56.2012313147
 20
14.4975327039
 10
56.123994948
 20
14.4130309352
 10
56.0319787648
 20
14.3362859804
  0
LINE
  5
55A
100
AcDbEntity
  8
0
100
AcDbLine
 62
7
  6
CONTINUOUS
 10
53.4179054053
 20
-12.5229929917
 11
53.4690714576
 21
-11.9567205037
  0
LWPOLYLINE
  5
55B
100
AcDbEntity
  8
0
100
AcDbPolyline
 62
7
  6
CONTINUOUS
 90
19
 70
0
 10
52.4817934125
 20
-30.0378732456
 10
52.4824125422
 20
-30.0314851473
 10
52.484518434
 20
-30.0179096461
 10
52.4888079154
 20
-29.9976890954
 10
52.4959556934
 20
-29.9710400181
 10
52.5064944492
 20
-29.9384822644
 10
52.5209386018
 20
-29.9003766205
 10
52.5395631865
 20
-29.8576086527
 10
52.5622768673
 20
-29.8115358523
 10
52.5891446638
 20
-29.7628993221
 10
52.6198025855
 20
-29.7130536759
 10
52.6529643825
 20
-29.6643433533
 10
52.6878696995
 20
-29.6178482306
 10
52.7237120896
 20
-29.5744669098
 10
52.7587576626
 20
-29.5359009741
 10
52.7919092659
 20
-29.5027448593
 10
52.8224647529
 20
-29.4750112555
 10
52.8493115852
 20
-29.4529695288
 10
52.8633580452
 20
-29.4423733824
  0
LWPOLYLINE
  5
55C
100
AcDbEntity
  8
0
100
AcDbPolyline
 62
7
  6
CONTINUOUS
 90
4
 70
0
 10
53.1747919756
 20
-13.8739201904
 10
53.2145604474
 20
-13.7113520995
 10
53.3332840792
 20
-13.1069885312
 10
53.4179054053
 20
-12.5229929917
  0
LINE
  5
55D
100
AcDbEntity
  8
DRAFT
100
AcDbLine
 62
7
  6
CONTINUOUS
 10
30.6931239797
 20
-55.6328569475
 11
30.6050081234
 21
-55.7519147265
  0
LWPOLYLINE
  5
55E
100
AcDbEntity
  8
ASSI
100
AcDbPolyline
 62
7
  6
CONTINUOUS
 90
7
 70
0
 10
30.5082005621
 20
-55.8607768259
 10
30.6783723224
 20
-55.6535050924
 10
30.8207226365
 20
-55.410497906
 10
30.9320421592
 20
-55.1372339612
 10
31.0112611091
 20
-54.8355394895
 10
31.0594492677
 20
-54.5035882594
 10
31.076606635
 20
-54.141380271
  0
LWPOLYLINE
  5
55F
100
AcDbEntity
  8
0
100
AcDbPolyline
 62
7
  6
CONTINUOUS
 90
8
 70
0
 10
29.376955112
 20
-56.6602516321
 10
29.5250822748
 20
-56.4850996797
 10
29.6515561852
 20
-56.2842089091
 10
29.7567328214
 20
-56.0580024646
 10
29.8388639252
 20
-55.8102403756
 10
29.8973667441
 20
-55.5421759853
 10
29.9328240308
 20
-55.2525559504
 10
29.9452357851
 20
-54.941380271
  0
LWPOLYLINE
  5
560
100
AcDbEntity
  8
0
100
AcDbPolyline
 62
250
  6
CONTINUOUS
 90
3
 70
0
 10
52.8162130479
 20
-29.3158671629
 10
52.8674887181
 20
-29.2689704336
 10
52.9192106196
 20
-29.2257146265
  0
LWPOLYLINE
  5
561
100
AcDbEntity
  8
0
100
AcDbPolyline
 62
250
  6
CONTINUOUS
 90
8
 70
0
 10
52.2572652528
 20
-30.4298172108
 10
52.3220799339
 20
-30.3759977076
 10
52.3768967523
 20
-30.3168829879
 10
52.4208596651
 20
-30.25339606
 10
52.453282108
 20
-30.1865282135
 10
52.4736577004
 20
-30.1173235777
 10
52.4816681777
 20
-30.046862823
 10
52.4817934125
 20
-30.0368539578
  0
LWPOLYLINE
  5
562
100
AcDbEntity
  8
0
100
AcDbPolyline
 62
7
  6
CONTINUOUS
 90
4
 70
0
 10
56.3067535642
 20
-26.9555540175
 10
56.3116447734
 20
-26.951815993
 10
56.3241255774
 20
-26.939251498
 10
56.3332853502
 20
-26.9241232597
  0
LINE
  5
563
100
AcDbEntity
  8
0
100
AcDbLine
 62
250
  6
CONTINUOUS
 10
52.9192106196
 20
-29.2257146265
 11
52.9713787525
 21
-29.1860997418
  0
LINE
  5
564
100
AcDbEntity
  8
0
100
AcDbLine
 62
250
  6
CONTINUOUS
 10
52.9713787525
 20
-29.1860997418
 11
54.679979636
 21
-27.9509294328
  0
LINE
  5
565
100
AcDbEntity
  8
0
100
AcDbLine
 62
7
  6
CONTINUOUS
 10
52.8633580452
 20
-29.4423733824
 11
54.5153926104
 21
-28.2480502808
  0
LINE
  5
566
100
AcDbEntity
  8
0
100
AcDbLine
 62
250
  6
CONTINUOUS
 10
54.679979636
 20
-27.9509294328
 11
56.0319787648
 21
-26.9752948253
  0
LINE
  5
567
100
AcDbEntity
  8
0
100
AcDbLine
 62
7
  6
CONTINUOUS
 10
54.5153926104
 20
-28.2480502808
 11
56.3067429787
 21
-26.9556256669
  0
LINE
  5
568
100
AcDbEntity
  8
0
100
AcDbLine
 62
7
  6
CONTINUOUS
 10
56.3384806141
 20
-30.9651865096
 11
52.6433634657
 21
-33.5780289026
  0
LWPOLYLINE
  5
569
100
AcDbEntity
  8
0
100
AcDbPolyline
 62
250
  6
CONTINUOUS
 90
22
 70
0
 10
52.9713787525
 20
-34.3046985621
 10
52.9192200233
 20
-34.341473634
 10
52.8675116235
 20
-34.3739555837
 10
52.8162535532
 20
-34.402144411
 10
52.7650942328
 20
-34.4262514804
 10
52.7143852418
 20
-34.4460654276
 10
52.6651813185
 20
-34.460952159
 10
52.6175054042
 20
-34.4707746476
 10
52.5713345576
 20
-34.4756699206
 10
52.5276546934
 20
-34.4754149655
 10
52.4865436569
 20
-34.4698669038
 10
52.4479236027
 20
-34.459168614
 10
52.4125469097
 20
-34.44352572
 10
52.3804964292
 20
-34.4227946969
 10
52.3516893099
 20
-34.3971190695
 10
52.3266293765
 20
-34.3671350356
 10
52.3054365364
 20
-34.3327307435
 10
52.2879908823
 20
-34.294018045
 10
52.2744365166
 20
-34.2519686934
 10
52.2648214736
 20
-34.2069066064
 10
52.2590977189
 20
-34.1585078663
 10
52.2572652528
 20
-34.106772473
  0
LWPOLYLINE
  5
56A
100
AcDbEntity
  8
0
100
AcDbPolyline
 62
7
  6
CONTINUOUS
 90
8
 70
0
 10
52.6433634657
 20
-33.5780289026
 10
52.6149781134
 20
-33.5960513791
 10
52.5879471461
 20
-33.6097936786
 10
52.5622705636
 20
-33.6192558008
 10
52.5375522811
 20
-33.6244579777
 10
52.5141883834
 20
-33.6253799774
 10
52.4933671256
 20
-33.6219611047
 10
52.4817934125
 20
-33.6168626499
  0
LWPOLYLINE
  5
56B
100
AcDbEntity
  8
RACCORDO
100
AcDbPolyline
 62
250
  6
CONTINUOUS
 90
7
 70
0
 10
56.3407049844
 20
-35.3279780743
 10
56.3327000236
 20
-35.4216445952
 10
56.3064648464
 20
-35.520534451
 10
56.2623964672
 20
-35.6162023913
 10
56.2012322378
 20
-35.7070475898
 10
56.1239955545
 20
-35.7915499504
 10
56.0319787648
 20
-35.868295483
  0
LWPOLYLINE
  5
56C
100
AcDbEntity
  8
0
100
AcDbPolyline
 62
7
  6
CONTINUOUS
 90
3
 70
0
 10
56.3332853502
 20
-26.9241232597
 10
56.3388953
 20
-26.9063109063
 10
56.3407049533
 20
-26.887020666
  0
LWPOLYLINE
  5
56D
100
AcDbEntity
  8
0
100
AcDbPolyline
 62
250
  6
CONTINUOUS
 90
3
 70
0
 10
52.4863868071
 20
-29.7312140716
 10
52.5274937705
 20
-29.6654466094
 10
52.5711810369
 20
-29.6011965428
  0
LWPOLYLINE
  5
56E
100
AcDbEntity
  8
0
100
AcDbPolyline
 62
250
  6
CONTINUOUS
 90
6
 70
0
 10
52.5711810369
 20
-29.6011965428
 10
52.6173677883
 20
-29.5384381581
 10
52.665063425
 20
-29.4784028847
 10
52.7142919653
 20
-29.4211952624
 10
52.7650293909
 20
-29.3667107515
 10
52.8162130479
 20
-29.3158671629
  0
LINE
  5
56F
100
AcDbEntity
  8
DRAFT
100
AcDbLine
 62
7
  6
CONTINUOUS
 10
30.6050081234
 20
-55.7519147265
 11
30.5083902481
 21
-55.8605457854
  0
LWPOLYLINE
  5
570
100
AcDbEntity
  8
DRAFT
100
AcDbPolyline
 62
7
  6
CONTINUOUS
 90
3
 70
0
 10
30.5082064658
 20
-55.8607524187
 10
30.4032653486
 20
-55.9587472602
 10
30.3224654815
 20
-56.0227380667
  0
LINE
  5
571
100
AcDbEntity
  8
0
100
AcDbLine
 62
7
  6
CONTINUOUS
 10
29.207530675
 20
-56.8100879106
 11
29.376955112
 21
-56.6602516321
  0
LINE
  5
572
100
AcDbEntity
  8
COPY_PABLISH
100
AcDbLine
 62
7
  6
CONTINUOUS
 10
29.376955112
 20
-56.6602516321
 11
29.207530675
 21
-56.8100879106
  0
LINE
  5
573
100
AcDbEntity
  8
ASSI
100
AcDbLine
 62
7
  6
CONTINUOUS
 10
30.2975694331
 20
-56.0407118357
 11
30.5082005621
 21
-55.8607768259
  0
LWPOLYLINE
  5
574
100
AcDbEntity
  8
0
100
AcDbPolyline
 62
7
  6
CONTINUOUS
 90
6
 70
0
 10
21.10846748
 20
-62.2949400301
 10
21.3375250083
 20
-62.1034280916
 10
21.5749722951
 20
-61.7933963446
 10
21.7432592709
 20
-61.4153989464
 10
21.8474026428
 20
-60.9654753558
 10
21.8874024109
 20
-60.4436255726
  0
LWPOLYLINE
  5
575
100
AcDbEntity
  8
0
100
AcDbPolyline
 62
250
  6
CONTINUOUS
 90
8
 70
0
 10
52.2572652528
 20
-34.106772473
 10
52.3220805228
 20
-34.0529547527
 10
52.3768975965
 20
-33.9938412956
 10
52.4208604955
 20
-33.9303551685
 10
52.4532827314
 20
-33.8634877189
 10
52.4736580252
 20
-33.7942830935
 10
52.4816682132
 20
-33.7238219345
 10
52.4817934125
 20
-33.7138143575
  0
LWPOLYLINE
  5
576
100
AcDbEntity
  8
RACCORDO
100
AcDbPolyline
 62
7
  6
CONTINUOUS
 90
10
 70
0
 10
55.3567415564
 20
-37.5529866261
 10
55.5409164453
 20
-37.4007761795
 10
55.7117323523
 20
-37.2244735949
 10
55.866638086
 20
-37.0242300491
 10
56.003022687
 20
-36.8007661163
 10
56.1188746327
 20
-36.5544106666
 10
56.2126582793
 20
-36.2842560363
 10
56.2823943635
 20
-35.9895885553
 10
56.3257776
 20
-35.6708150485
 10
56.3407049844
 20
-35.3279780742
  0
LINE
  5
577
100
AcDbEntity
  8
0
100
AcDbLine
 62
250
  6
CONTINUOUS
 10
56.0319787648
 20
-32.0333740779
 11
54.3399054752
 21
-33.2900584108
  0
LINE
  5
578
100
AcDbEntity
  8
0
100
AcDbLine
 62
7
  6
CONTINUOUS
 10
29.1671254211
 20
-56.8400565016
 11
29.207530675
 21
-56.8100879106
  0
LINE
  5
579
100
AcDbEntity
  8
0
100
AcDbLine
 62
250
  6
CONTINUOUS
 10
54.3399054752
 20
-33.2900584108
 11
52.9713787525
 21
-34.3046985621
  0
LINE
  5
57A
100
AcDbEntity
  8
DRAFT
100
AcDbLine
 62
7
  6
CONTINUOUS
 10
55.3567415567
 20
-37.5529866259
 11
30.3225768414
 21
-56.0226559157
  0
LINE
  5
57B
100
AcDbEntity
  8
RACCORDO
100
AcDbLine
 62
250
  6
CONTINUOUS
 10
56.0319787648
 20
-35.8682954839
 11
31.076606635
 21
-54.141380271
  0
LINE
  5
57C
100
AcDbEntity
  8
COPY_PABLISH
100
AcDbLine
 62
7
  6
CONTINUOUS
 10
29.207530675
 20
-56.8100879106
 11
29.1422868216
 21
-56.8572603234
  0
LINE
  5
57D
100
AcDbEntity
  8
DRAFT
100
AcDbLine
 62
7
  6
CONTINUOUS
 10
30.3224654815
 20
-56.0227380667
 11
30.298946549
 21
-56.0395354124
  0
LINE
  5
57E
100
AcDbEntity
  8
0
100
AcDbLine
 62
250
  6
CONTINUOUS
 10
31.076606635
 20
-54.141380271
 11
29.9452357851
 21
-54.941380271
  0
LINE
  5
57F
100
AcDbEntity
  8
ASSI
100
AcDbLine
 62
7
  6
CONTINUOUS
 10
30.298067563
 20
-56.0403597565
 11
29.1666967131
 21
-56.8403597565
  0
LINE
  5
580
100
AcDbEntity
  8
0
100
AcDbLine
 62
7
  6
CONTINUOUS
 10
15.1762293674
 20
-66.3135046347
 11
15.1676362749
 21
-66.3193862083
  0
LINE
  5
581
100
AcDbEntity
  8
0
100
AcDbLine
 62
250
  6
CONTINUOUS
 10
21.8874024109
 20
-60.4436310975
 11
15.9342033322
 21
-64.5087427512
  0
LINE
  5
582
100
AcDbEntity
  8
RACCORDO
100
AcDbLine
 62
250
  6
CONTINUOUS
 10
22.384739276
 20
-60.1040281235
 11
29.9452357851
 21
-54.941380271
  0
LINE
  5
583
100
AcDbEntity
  8
0
100
AcDbLine
 62
7
  6
CONTINUOUS
 10
21.1101785032
 20
-62.2973806926
 11
15.1999996135
 21
-66.300327956
  0
LINE
  5
584
100
AcDbEntity
  8
COPY_PABLISH
100
AcDbLine
 62
7
  6
CONTINUOUS
 10
29.1418356124
 20
-56.8575660455
 11
21.6059004524
 21
-61.9616327462
  0
LINE
  5
585
100
AcDbEntity
  8
0
100
AcDbLine
 62
7
  6
CONTINUOUS
 10
29.1594902934
 20
-56.8448219214
 11
29.1671254211
 21
-56.8400565016
  0
LWPOLYLINE
  5
586
100
AcDbEntity
  8
RACCORDO
100
AcDbPolyline
 62
250
  6
CONTINUOUS
 90
10
 70
0
 10
22.384739276
 20
-60.1040281235
 10
22.3354057478
 20
-60.1336032464
 10
22.2810859507
 20
-60.1584279556
 10
22.2226888011
 20
-60.1780868671
 10
22.1611914406
 20
-60.1922510345
 10
22.0976228855
 20
-60.2006834532
 10
22.0330468092
 20
-60.2032430263
 10
21.9685437431
 20
-60.1998869256
 10
21.9051929971
 20
-60.1906713078
 10
21.8874024122
 20
-60.1863294846
  0
LWPOLYLINE
  5
587
100
AcDbEntity
  8
RACCORDO
100
AcDbPolyline
 62
7
  6
CONTINUOUS
 90
3
 70
0
 10
21.3217568948
 20
-62.1166116006
 10
21.4357710194
 20
-62.0638914182
 10
21.6059004524
 20
-61.9616327462
  0
ENDSEC
  0
SECTION
  2
OBJECTS
  0
DICTIONARY
  5
C
100
AcDbDictionary
280
0
281
1
  3
ACAD_GROUP
350
D
  3
ACAD_MLINESTYLE
350
17
  3
ACAD_LAYOUT
350
1A
  3
ACAD_PLOTSETTINGS
350
19
  3
ACAD_PLOTSTYLENAME
350
E
  0
DICTIONARY
  5
D
102
{ACAD_REACTORS
330
C
102
}
100
AcDbDictionary
280
0
281
1
  0
ACDBDICTIONARYWDFLT
  5
E
102
{ACAD_REACTORS
330
C
102
}
100
AcDbDictionary
281
1
  3
Normal
350
F
100
AcDbDictionaryWithDefault
340
F
  0
DICTIONARY
  5
17
102
{ACAD_REACTORS
330
C
102
}
100
AcDbDictionary
280
0
281
1
  3
Standard
350
18
  0
DICTIONARY
  5
19
102
{ACAD_REACTORS
330
C
102
}
100
AcDbDictionary
281
1
  0
DICTIONARY
  5
1A
102
{ACAD_REACTORS
330
C
102
}
100
AcDbDictionary
281
1
  3
Model
350
588
  3
Layout1
350
589
  0
ACDBPLACEHOLDER
  5
F
102
{ACAD_REACTORS
330
E
102
}
  0
MLINESTYLE
  5
18
102
{ACAD_REACTORS
330
17
102
}
100
AcDbMlineStyle
  2
STANDARD
 70
0
  3

 62
256
 51
90.0
 52
90.0
 71
2
 49
0.5
 62
256
  6
BYLAYER
 49
-0.5
 62
256
  6
BYLAYER
  0
LAYOUT
  5
588
102
{ACAD_REACTORS
330
1A
102
}
100
AcDbPlotSettings
  1

  2
none_device
  4
ISO_A4_(297.00_x_210.00_MM)
  6

 40
0.0
 41
0.0
 42
0.0
 43
0.0
 44
297.0
 45
210.0
 46
0.0
 47
0.0
 48
0.0
 49
0.0
140
0.0
141
0.0
142
1.0
143
1.0
 70
1024
 72
1
 73
0
 74
0
  7

 75
0
147
1.0
148
0.0
149
0.0
100
AcDbLayout
  1
Model
 70
0
 71
0
 10
0.0
 20
0.0
 11
297.0
 21
210.0
 12
0.0
 22
0.0
 32
0.0
 14
0.0
 24
0.0
 34
0.0
 15
0.0
 25
0.0
 35
0.0
146
0.0
 13
0.0
 23
0.0
 33
0.0
 16
1.0
 26
0.0
 36
0.0
 17
0.0
 27
1.0
 37
0.0
 76
0
330
21A
345
0
346
0
  0
LAYOUT
  5
589
102
{ACAD_REACTORS
330
1A
102
}
100
AcDbPlotSettings
  1

  2
none_device
  4
ISO_A4_(297.00_x_210.00_MM)
  6

 40
0.0
 41
0.0
 42
0.0
 43
0.0
 44
297.0
 45
210.0
 46
0.0
 47
0.0
 48
0.0
 49
0.0
140
0.0
141
0.0
142
1.0
143
1.0
 70
0
 72
1
 73
0
 74
0
  7

 75
0
147
1.0
148
0.0
149
0.0
100
AcDbLayout
  1
Layout1
 70
0
 71
1
 10
0.0
 20
0.0
 11
297.0
 21
210.0
 12
0.0
 22
0.0
 32
0.0
 14
0.0
 24
0.0
 34
0.0
 15
0.0
 25
0.0
 35
0.0
146
0.0
 13
0.0
 23
0.0
 33
0.0
 16
1.0
 26
0.0
 36
0.0
 17
0.0
 27
1.0
 37
0.0
 76
0
330
21B
345
0
346
0
  0
ENDSEC
  0
EOF
