  0
SECTION
  2
HEADER
  9
$ACADVER
  1
AC1024
  9
$DWGCODEPAGE
  3
ANSI_1252
  9
$EXTMAX
 10
297.0
 20
210.0
 30
0.0
  9
$EXTMIN
 10
0.0
 20
0.0
 30
0.0
  9
$LIMMIN
 10
0.0
 20
0.0
  9
$LIMMAX
 10
297.0
 20
210.0
  9
$VIEWCTR
 10
148.5
 20
105.0
  9
$VIEWSIZE
 40
210.0
  9
$CLAYER
  8
0
  9
$LTSCALE
 40
16.335
  9
$CELTYPE
  6
BYLAYER
  9
$DIMSCALE
 40
1.0
  9
$DIMASZ
 40
3.0
  9
$DIMEXO
 40
0.5
  9
$DIMDLI
 40
11.286
  9
$DIMEXE
 40
1.5
  9
$DIMCEN
 40
2.673
  9
$DIMLFAC
 40
1.0
  9
$DIMBLK
  1
_FILLED
  9
$DIMALT
 70
0
  9
$DIMALTF
 40
0.0393700787
  9
$DIMTXT
 40
3.0
  9
$DIMTOL
 70
1
  9
$DIMLIM
 70
0
  9
$DIMTFAC
 40
1.0
  9
$DIMTP
 40
0.01
  9
$DIMTM
 40
0.01
  9
$DIMGAP
 40
0.625
  9
$DIMDSEP
 70
44
  9
$AUNITS
 70
0
  9
$PDMODE
 70
3
  9
$PDSIZE
 40
3.0
  9
$HANDSEED
  5
6AA
  9
$TILEMODE
 70
1
  9
$MEASUREMENT
 70
1
  9
$INSUNITS
 70
4
  0
ENDSEC
  0
SECTION
  2
CLASSES
  0
CLASS
  1
ACDBDICTIONARYWDFLT
  2
AcDbDictionaryWithDefault
  3
AutoCAD 2000
 90
0
 91
1
280
0
281
0
  0
CLASS
  1
ACDBPLACEHOLDER
  2
AcDbPlaceHolder
  3
AutoCAD 2000
 90
0
 91
1
280
0
281
0
  0
CLASS
  1
LAYOUT
  2
AcDbLayout
  3
AutoCAD 2000
 90
0
 91
0
280
0
281
0
  0
ENDSEC
  0
SECTION
  2
TABLES
  0
TABLE
  2
VPORT
  5
8
100
AcDbSymbolTable
 70
2
  0
VPORT
  5
1F4
100
AcDbSymbolTableRecord
100
AcDbViewportTableRecord
  2
*ACTIVE
 70
0
 10
0.0
 20
0.0
 11
1.0
 21
1.0
 12
148.5
 22
105.0
 13
0.0
 23
0.0
 14
1.0
 24
1.0
 15
0.0
 25
0.0
 16
0.0
 26
0.0
 36
1.0
 17
0.0
 27
0.0
 37
0.0
 40
210.0
 41
1.4142857143
 42
50.0
 43
0.0
 44
0.0
 50
0.0
 51
0.0
 71
0
 72
100
 73
1
 74
1
 75
0
 76
0
 77
0
 78
0
  0
ENDTAB
  0
TABLE
  2
LTYPE
  5
5
100
AcDbSymbolTable
 70
6
  0
LTYPE
  5
14
100
AcDbSymbolTableRecord
100
AcDbLinetypeTableRecord
  2
BYBLOCK
 70
0
  3

 72
65
 73
0
 40
0.0
  0
LTYPE
  5
15
100
AcDbSymbolTableRecord
100
AcDbLinetypeTableRecord
  2
BYLAYER
 70
0
  3

 72
65
 73
0
 40
0.0
  0
LTYPE
  5
16
100
AcDbSymbolTableRecord
100
AcDbLinetypeTableRecord
  2
CONTINUOUS
 70
64
  3
Solid line
 72
65
 73
0
 40
0.0
  0
LTYPE
  5
1F5
100
AcDbSymbolTableRecord
100
AcDbLinetypeTableRecord
  2
CENTER
 70
64
  3
____ _ ____ _ ____ _ ____ _ ____ _ ____ _ ____
 72
65
 73
4
 40
0.6
 49
0.375
 74
0
 49
-0.075
 74
0
 49
0.075
 74
0
 49
-0.075
 74
0
  0
LTYPE
  5
1F6
100
AcDbSymbolTableRecord
100
AcDbLinetypeTableRecord
  2
HIDDEN
 70
64
  3
- - - - - - - - - - - - - - - - - - - -
 72
65
 73
2
 40
0.2
 49
0.1
 74
0
 49
-0.1
 74
0
  0
LTYPE
  5
1F7
100
AcDbSymbolTableRecord
100
AcDbLinetypeTableRecord
  2
PHANTOM
 70
64
  3
_____ _ _ _____ _ _ _____ _ _ _____
 72
65
 73
6
 40
0.8
 49
0.45
 74
0
 49
-0.05
 74
0
 49
0.1
 74
0
 49
-0.05
 74
0
 49
0.1
 74
0
 49
-0.05
 74
0
  0
LTYPE
  5
1F8
100
AcDbSymbolTableRecord
100
AcDbLinetypeTableRecord
  2
DOT
 70
64
  3
. . . . . . . . . . . . . . . . . . . .
 72
65
 73
2
 40
0.2
 49
0.1
 74
0
 49
-0.1
 74
0
  0
LTYPE
  5
1F9
100
AcDbSymbolTableRecord
100
AcDbLinetypeTableRecord
  2
DASHED
 70
64
  3
- - - - - - - - - - - - - - - - - - - -
 72
65
 73
2
 40
0.2
 49
0.1
 74
0
 49
-0.1
 74
0
  0
ENDTAB
  0
TABLE
  2
LAYER
  5
2
100
AcDbSymbolTable
 70
36
  0
LAYER
  5
10
100
AcDbSymbolTableRecord
100
AcDbLayerTableRecord
  2
0
 70
0
 62
7
  6
CONTINUOUS
370
-3
390
F
  0
LAYER
  5
1FA
100
AcDbSymbolTableRecord
100
AcDbLayerTableRecord
  2
DEFAULT_1
 70
0
 62
7
  6
CENTER
370
-3
390
F
  0
LAYER
  5
1FB
100
AcDbSymbolTableRecord
100
AcDbLayerTableRecord
  2
DEFAULT_2
 70
0
 62
7
  6
HIDDEN
370
-3
390
F
  0
LAYER
  5
1FC
100
AcDbSymbolTableRecord
100
AcDbLayerTableRecord
  2
DEFAULT_3
 70
0
 62
7
  6
PHANTOM
370
-3
390
F
  0
LAYER
  5
1FD
100
AcDbSymbolTableRecord
100
AcDbLayerTableRecord
  2
1_IMPORT
 70
0
 62
7
  6
CONTINUOUS
370
-3
390
F
  0
LAYER
  5
1FE
100
AcDbSymbolTableRecord
100
AcDbLayerTableRecord
  2
21714904_SKEL
 70
0
 62
7
  6
CONTINUOUS
370
-3
390
F
  0
LAYER
  5
1FF
100
AcDbSymbolTableRecord
100
AcDbLayerTableRecord
  2
ASSI
 70
0
 62
7
  6
CONTINUOUS
370
-3
390
F
  0
LAYER
  5
200
100
AcDbSymbolTableRecord
100
AcDbLayerTableRecord
  2
COLOR5
 70
0
 62
7
  6
CONTINUOUS
370
-3
390
F
  0
LAYER
  5
201
100
AcDbSymbolTableRecord
100
AcDbLayerTableRecord
  2
COORDINATE
 70
0
 62
7
  6
CONTINUOUS
370
-3
390
F
  0
LAYER
  5
202
100
AcDbSymbolTableRecord
100
AcDbLayerTableRecord
  2
COORD_ORIGINE
 70
0
 62
7
  6
CONTINUOUS
370
-3
390
F
  0
LAYER
  5
203
100
AcDbSymbolTableRecord
100
AcDbLayerTableRecord
  2
COPY_GEOM
 70
0
 62
7
  6
CONTINUOUS
370
-3
390
F
  0
LAYER
  5
204
100
AcDbSymbolTableRecord
100
AcDbLayerTableRecord
  2
CURVE
 70
0
 62
7
  6
CONTINUOUS
370
-3
390
F
  0
LAYER
  5
205
100
AcDbSymbolTableRecord
100
AcDbLayerTableRecord
  2
DRAFT
 70
0
 62
7
  6
CONTINUOUS
370
-3
390
F
  0
LAYER
  5
206
100
AcDbSymbolTableRecord
100
AcDbLayerTableRecord
  2
IGES_INCISIONI
 70
0
 62
7
  6
CONTINUOUS
370
-3
390
F
  0
LAYER
  5
207
100
AcDbSymbolTableRecord
100
AcDbLayerTableRecord
  2
IGES_SCRITTE
 70
0
 62
7
  6
CONTINUOUS
370
-3
390
F
  0
LAYER
  5
208
100
AcDbSymbolTableRecord
100
AcDbLayerTableRecord
  2
INTF_1
 70
0
 62
7
  6
CONTINUOUS
370
-3
390
F
  0
LAYER
  5
209
100
AcDbSymbolTableRecord
100
AcDbLayerTableRecord
  2
INTF_7
 70
0
 62
7
  6
CONTINUOUS
370
-3
390
F
  0
LAYER
  5
20A
100
AcDbSymbolTableRecord
100
AcDbLayerTableRecord
  2
LAY0001
 70
0
 62
7
  6
CONTINUOUS
370
-3
390
F
  0
LAYER
  5
20B
100
AcDbSymbolTableRecord
100
AcDbLayerTableRecord
  2
MARCHI
 70
0
 62
7
  6
CONTINUOUS
370
-3
390
F
  0
LAYER
  5
20C
100
AcDbSymbolTableRecord
100
AcDbLayerTableRecord
  2
NOTE
 70
0
 62
7
  6
CONTINUOUS
370
-3
390
F
  0
LAYER
  5
20D
100
AcDbSymbolTableRecord
100
AcDbLayerTableRecord
  2
PIANI
 70
0
 62
7
  6
CONTINUOUS
370
-3
390
F
  0
LAYER
  5
20E
100
AcDbSymbolTableRecord
100
AcDbLayerTableRecord
  2
PIANI_ORIGINE
 70
0
 62
7
  6
CONTINUOUS
370
-3
390
F
  0
LAYER
  5
20F
100
AcDbSymbolTableRecord
100
AcDbLayerTableRecord
  2
PUNTI
 70
0
 62
7
  6
CONTINUOUS
370
-3
390
F
  0
LAYER
  5
210
100
AcDbSymbolTableRecord
100
AcDbLayerTableRecord
  2
RACCORDO
 70
0
 62
7
  6
CONTINUOUS
370
-3
390
F
  0
LAYER
  5
211
100
AcDbSymbolTableRecord
100
AcDbLayerTableRecord
  2
RGB__255__255__255__
 70
0
 62
7
  6
CONTINUOUS
370
-3
390
F
  0
LAYER
  5
212
100
AcDbSymbolTableRecord
100
AcDbLayerTableRecord
  2
RGB____0____0____0__
 70
0
 62
7
  6
CONTINUOUS
370
-3
390
F
  0
LAYER
  5
213
100
AcDbSymbolTableRecord
100
AcDbLayerTableRecord
  2
SCATOLA
 70
0
 62
7
  6
CONTINUOUS
370
-3
390
F
  0
LAYER
  5
214
100
AcDbSymbolTableRecord
100
AcDbLayerTableRecord
  2
SKEL
 70
0
 62
7
  6
CONTINUOUS
370
-3
390
F
  0
LAYER
  5
215
100
AcDbSymbolTableRecord
100
AcDbLayerTableRecord
  2
SMUSSO
 70
0
 62
7
  6
CONTINUOUS
370
-3
390
F
  0
LAYER
  5
216
100
AcDbSymbolTableRecord
100
AcDbLayerTableRecord
  2
SNAPLINE
 70
0
 62
7
  6
CONTINUOUS
370
-3
390
F
  0
LAYER
  5
217
100
AcDbSymbolTableRecord
100
AcDbLayerTableRecord
  2
SOLIDO
 70
0
 62
7
  6
CONTINUOUS
370
-3
390
F
  0
LAYER
  5
218
100
AcDbSymbolTableRecord
100
AcDbLayerTableRecord
  2
SUPERFICI
 70
0
 62
7
  6
CONTINUOUS
370
-3
390
F
  0
LAYER
  5
219
100
AcDbSymbolTableRecord
100
AcDbLayerTableRecord
  2
SUP_APP
 70
0
 62
7
  6
CONTINUOUS
370
-3
390
F
  0
LAYER
  5
21A
100
AcDbSymbolTableRecord
100
AcDbLayerTableRecord
  2
TRASH
 70
0
 62
7
  6
CONTINUOUS
370
-3
390
F
  0
LAYER
  5
21B
100
AcDbSymbolTableRecord
100
AcDbLayerTableRecord
  2
XSEC_DATUMS
 70
0
 62
7
  6
CONTINUOUS
370
-3
390
F
  0
ENDTAB
  0
TABLE
  2
STYLE
  5
3
100
AcDbSymbolTable
 70
1
  0
STYLE
  5
11
100
AcDbSymbolTableRecord
100
AcDbTextStyleTableRecord
  2
STANDARD
 70
0
 40
0.0
 41
0.8
 50
0.0
 71
0
 42
0.2
  3
txt
  4

  0
STYLE
  5
21C
100
AcDbSymbolTableRecord
100
AcDbTextStyleTableRecord
  2
TEXTSTYLE_1
 70
0
 40
0.0
 41
0.8
 50
0.0
 71
0
 42
0.2
  3
gdt
  4

  0
ENDTAB
  0
TABLE
  2
VIEW
  5
6
100
AcDbSymbolTable
 70
0
  0
ENDTAB
  0
TABLE
  2
UCS
  5
7
100
AcDbSymbolTable
 70
0
  0
ENDTAB
  0
TABLE
  2
APPID
  5
9
100
AcDbSymbolTable
 70
1
  0
APPID
  5
21D
100
AcDbSymbolTableRecord
100
AcDbRegAppTableRecord
  2
ACAD
 70
0
  0
ENDTAB
  0
TABLE
  2
BLOCK_RECORD
  5
1
100
AcDbSymbolTable
 70
0
  0
BLOCK_RECORD
  5
21E
100
AcDbSymbolTableRecord
100
AcDbBlockTableRecord
  2
*Model_Space
  0
BLOCK_RECORD
  5
21F
100
AcDbSymbolTableRecord
100
AcDbBlockTableRecord
  2
*Paper_Space
  0
BLOCK_RECORD
  5
220
100
AcDbSymbolTableRecord
100
AcDbBlockTableRecord
  2
_FILLED
  0
ENDTAB
  0
TABLE
  2
DIMSTYLE
  5
A
100
AcDbSymbolTable
 70
1
100
AcDbDimStyleTable
 71
0
  0
DIMSTYLE
105
221
100
AcDbSymbolTableRecord
100
AcDbDimStyleTableRecord
  2
STANDARD
 70
0
  3

  4

 40
1.0
 41
3.0
 42
0.5
 43
0.38
 44
1.5
 45
0.0
 46
0.0
 47
0.01
 48
0.01
140
3.0
141
0.09
142
0.0
143
25.4
144
1.0
145
0.0
146
1.0
147
0.625
 71
1
 72
0
 73
0
 74
0
 75
0
 76
0
 77
1
 78
8
 79
2
170
0
171
1
172
0
173
0
174
0
175
0
176
0
177
0
178
0
270
2
179
2
271
2
272
2
273
2
274
2
275
0
280
0
281
0
282
0
283
1
284
8
285
0
286
0
287
3
288
0
340
11
278
44
341
220
342
220
343
220
344
220
  0
ENDTAB
  0
ENDSEC
  0
SECTION
  2
BLOCKS
  0
BLOCK
  5
20
100
AcDbEntity
  8
0
100
AcDbBlockBegin
  2
*Model_Space
 70
0
 10
0.0
 20
0.0
 30
0.0
  3
*Model_Space
  1

  0
ENDBLK
  5
21
100
AcDbEntity
  8
0
100
AcDbBlockEnd
  0
BLOCK
  5
1C
100
AcDbEntity
  8
0
100
AcDbBlockBegin
  2
*Paper_Space
 70
0
 10
0.0
 20
0.0
 30
0.0
  3
*Paper_Space
  1

  0
ENDBLK
  5
1D
100
AcDbEntity
  8
0
100
AcDbBlockEnd
  0
BLOCK
  5
222
100
AcDbEntity
  8
0
100
AcDbBlockBegin
  2
_FILLED
 70
64
 10
0.0
 20
0.0
  3
_FILLED
  1

  0
SOLID
  5
223
100
AcDbEntity
  8
0
  6
BYBLOCK
 62
0
100
AcDbTrace
 10
0.0
 20
0.0
 11
-1.0
 21
0.3166666667
 12
-1.0
 22
-0.3166666667
 13
-1.0
 23
-0.3166666667
  0
ENDBLK
  5
224
100
AcDbEntity
  8
0
  6
BYBLOCK
 62
0
100
AcDbBlockEnd
  0
ENDSEC
  0
SECTION
  2
ENTITIES
  0
LWPOLYLINE
  5
225
100
AcDbEntity
  8
COPY_GEOM
100
AcDbPolyline
 62
250
  6
CONTINUOUS
 90
13
 70
0
 10
-65.1991375921
 20
43.9848795399
 10
-65.1549219205
 20
44.1650115862
 10
-65.0930357116
 20
44.3506863035
 10
-65.0142520081
 20
44.5395843684
 10
-64.9195549243
 20
44.7293461936
 10
-64.8101273539
 20
44.9176014021
 10
-64.6873361938
 20
45.1019984365
 10
-64.5527152695
 20
45.2802339326
 10
-64.4079461761
 20
45.4500814922
 10
-64.2548372725
 20
45.6094194936
 10
-64.0953010931
 20
45.7562575931
 10
-63.9313304569
 20
45.8887615874
 10
-63.7649735756
 20
46.0052763251
  0
LWPOLYLINE
  5
226
100
AcDbEntity
  8
COPY_GEOM
100
AcDbPolyline
 62
7
  6
CONTINUOUS
 90
12
 70
0
 10
-66.999370689
 20
46.6492261974
 10
-67.1157953573
 20
46.558947811
 10
-67.3230309193
 20
46.3721515809
 10
-67.5156718092
 20
46.1612108771
 10
-67.6908351022
 20
45.9272066267
 10
-67.8456680813
 20
45.6722446547
 10
-67.9787592404
 20
45.3972269031
 10
-68.0888393798
 20
45.1032978537
 10
-68.1748310275
 20
44.7922568853
 10
-68.236469557
 20
44.464244523
 10
-68.2735670525
 20
44.1185844597
 10
-68.2820802007
 20
43.9592232951
  0
LINE
  5
227
100
AcDbEntity
  8
0
100
AcDbLine
 62
7
  6
CONTINUOUS
 10
-53.4407522645
 20
56.6521338438
 11
-53.460755744
 21
56.637297256
  0
LINE
  5
228
100
AcDbEntity
  8
COPY_GEOM
100
AcDbLine
 62
7
  6
CONTINUOUS
 10
-53.4648328349
 20
56.6347332579
 11
-67.0032827584
 21
46.6463555497
  0
LINE
  5
229
100
AcDbEntity
  8
COPY_GEOM
100
AcDbLine
 62
250
  6
CONTINUOUS
 10
-49.9762219414
 20
55.9960983003
 11
-63.7649739027
 21
46.0052947236
  0
LINE
  5
22A
100
AcDbEntity
  8
SCATOLA
100
AcDbLine
 62
7
  6
CONTINUOUS
 10
-52.3081911765
 20
57.4524209631
 11
-52.2845429657
 21
57.4693375635
  0
LINE
  5
22B
100
AcDbEntity
  8
ASSI
100
AcDbLine
 62
7
  6
CONTINUOUS
 10
-52.3089527066
 20
57.4524370987
 11
-53.4403235565
 21
56.6524370987
  0
LINE
  5
22C
100
AcDbEntity
  8
0
100
AcDbLine
 62
250
  6
CONTINUOUS
 10
-48.8448510915
 20
56.7960983003
 11
-49.9762219414
 21
55.9960983003
  0
LINE
  5
22D
100
AcDbEntity
  8
SCATOLA
100
AcDbLine
 62
250
  6
CONTINUOUS
 10
-23.4461428605
 20
74.3123610225
 11
-48.8448510915
 21
56.7960983003
  0
LINE
  5
22E
100
AcDbEntity
  8
SCATOLA
100
AcDbLine
 62
7
  6
CONTINUOUS
 10
-26.5259988327
 20
74.9155237997
 11
-52.2840916059
 21
57.4696433877
  0
LINE
  5
22F
100
AcDbEntity
  8
COPY_GEOM
100
AcDbLine
 62
7
  6
CONTINUOUS
 10
-53.2932519994
 20
56.7441952619
 11
-53.4652127582
 21
56.6344528663
  0
LINE
  5
230
100
AcDbEntity
  8
SCATOLA
100
AcDbLine
 62
7
  6
CONTINUOUS
 10
-52.2845429657
 20
57.4693375635
 11
-52.1632935616
 21
57.5434219087
  0
LINE
  5
231
100
AcDbEntity
  8
ASSI
100
AcDbLine
 62
7
  6
CONTINUOUS
 10
-52.0940138555
 20
57.578567735
 11
-52.3084545767
 21
57.4527891779
  0
LWPOLYLINE
  5
232
100
AcDbEntity
  8
SCATOLA
100
AcDbPolyline
 62
250
  6
CONTINUOUS
 90
17
 70
0
 10
-26.5259987188
 20
74.9155238769
 10
-26.3707921025
 20
75.0062023889
 10
-26.2069126784
 20
75.0753621271
 10
-26.0305456613
 20
75.1253889413
 10
-25.8442684526
 20
75.1556006663
 10
-25.6490071556
 20
75.1662141307
 10
-25.4457875476
 20
75.1575197242
 10
-25.2379948097
 20
75.1303083012
 10
-25.0268632294
 20
75.0856518122
 10
-24.8135368386
 20
75.024657282
 10
-24.6016469465
 20
74.9494480316
 10
-24.392298994
 20
74.861696481
 10
-24.18654441
 20
74.7630617595
 10
-23.9880328676
 20
74.6566921107
 10
-23.7985081415
 20
74.5451456787
 10
-23.6177087917
 20
74.4298007982
 10
-23.4461428605
 20
74.3123610225
  0
LWPOLYLINE
  5
233
100
AcDbEntity
  8
0
100
AcDbPolyline
 62
7
  6
CONTINUOUS
 90
3
 70
0
 10
-53.0865564922
 20
56.8379542274
 10
-53.2932519994
 20
56.7441952619
 10
-53.4407522645
 20
56.6521338438
  0
LINE
  5
234
100
AcDbEntity
  8
COPY_GEOM
100
AcDbLine
 62
7
  6
CONTINUOUS
 10
-53.0865564922
 20
56.8379542274
 11
-53.2932519994
 21
56.7441952619
  0
LINE
  5
235
100
AcDbEntity
  8
SCATOLA
100
AcDbLine
 62
7
  6
CONTINUOUS
 10
-52.1632935616
 20
57.5434219087
 11
-51.955690781
 21
57.6372902459
  0
LWPOLYLINE
  5
236
100
AcDbEntity
  8
SUPERFICI
100
AcDbPolyline
 62
7
  6
CONTINUOUS
 90
9
 70
0
 10
26.3555742186
 20
-75.1892865485
 10
26.3906114687
 20
-75.1795343587
 10
26.5427415389
 20
-75.1319462035
 10
26.6884566381
 20
-75.0779068501
 10
26.8271091673
 20
-75.0181160169
 10
26.9575350704
 20
-74.9536600834
 10
27.0794732659
 20
-74.8853694003
 10
27.1933598336
 20
-74.8136829319
 10
27.2108258655
 20
-74.8019469629
  0
LINE
  5
237
100
AcDbEntity
  8
SUPERFICI
100
AcDbLine
 62
7
  6
CONTINUOUS
 10
26.3433128176
 20
-75.1925769213
 11
26.3555742186
 21
-75.1892865485
  0
LWPOLYLINE
  5
238
100
AcDbEntity
  8
SUPERFICI
100
AcDbPolyline
 62
250
  6
CONTINUOUS
 90
10
 70
0
 10
24.5760498072
 20
-74.5708844841
 10
24.4140506751
 20
-74.6102205338
 10
24.2467603578
 20
-74.6269479979
 10
24.0755422498
 20
-74.6240899492
 10
23.9023835398
 20
-74.6057062409
 10
23.7281228807
 20
-74.5732195137
 10
23.552833085
 20
-74.525948387
 10
23.3786782658
 20
-74.4664688766
 10
23.2072271494
 20
-74.3977807515
 10
23.03794268
 20
-74.319968264
  0
LWPOLYLINE
  5
239
100
AcDbEntity
  8
SUPERFICI
100
AcDbPolyline
 62
250
  6
CONTINUOUS
 90
6
 70
0
 10
-67.9737820602
 20
-6.7863233399
 10
-67.9402361832
 20
-7.2457990127
 10
-67.9256089187
 20
-7.3878274734
 10
-67.9065195751
 20
-7.5300552759
 10
-67.8828934173
 20
-7.6724475793
 10
-67.8547360325
 20
-7.8147239256
  0
LWPOLYLINE
  5
23A
100
AcDbEntity
  8
SUPERFICI
100
AcDbPolyline
 62
7
  6
CONTINUOUS
 90
32
 70
0
 10
-68.2576781852
 20
-6.4597094333
 10
-68.2548474909
 20
-6.5032710494
 10
-68.251666625
 20
-6.5472660546
 10
-68.2481801892
 20
-6.5912107754
 10
-68.2443356817
 20
-6.6357624823
 10
-68.240090064
 20
-6.6812076077
 10
-68.2354465501
 20
-6.7273049955
 10
-68.2303935192
 20
-6.7740117334
 10
-68.2249118065
 20
-6.8213637524
 10
-68.2189867492
 20
-6.8693696091
 10
-68.2126169841
 20
-6.9179442013
 10
-68.2057934353
 20
-6.9670724775
 10
-68.1985032509
 20
-7.016765118
 10
-68.1907416334
 20
-7.066977447
 10
-68.1824968587
 20
-7.1177125202
 10
-68.1737587645
 20
-7.1689615899
 10
-68.1645266811
 20
-7.2206632021
 10
-68.1547973465
 20
-7.2727798305
 10
-68.1445538419
 20
-7.3253545404
 10
-68.1337740858
 20
-7.3784499608
 10
-68.1224548529
 20
-7.4320316689
 10
-68.110574113
 20
-7.4861544869
 10
-68.0980741511
 20
-7.5410193316
 10
-68.0849423628
 20
-7.5966115427
 10
-68.0711524148
 20
-7.6529735491
 10
-68.0566116178
 20
-7.7103878482
 10
-68.0412755184
 20
-7.7688784573
 10
-68.0251100367
 20
-7.8284138435
 10
-68.0080170154
 20
-7.8891825805
 10
-67.9899454047
 20
-7.9511838884
 10
-67.9708449149
 20
-8.0144106092
 10
-67.9494543534
 20
-8.0826423536
  0
LWPOLYLINE
  5
23B
100
AcDbEntity
  8
SUPERFICI
100
AcDbPolyline
 62
7
  6
CONTINUOUS
 90
4
 70
0
 10
-68.2627361619
 20
-6.3594867466
 10
-68.2622271622
 20
-6.3722965354
 10
-68.260139748
 20
-6.4165090086
 10
-68.2576781852
 20
-6.4597094333
  0
LINE
  5
23C
100
AcDbEntity
  8
SUPERFICI
100
AcDbLine
 62
7
  6
CONTINUOUS
 10
-68.2675692091
 20
-6.2271685071
 11
-68.2633167435
 21
-6.3385117162
  0
LINE
  5
23D
100
AcDbEntity
  8
SUPERFICI
100
AcDbLine
 62
7
  6
CONTINUOUS
 10
-68.274921712
 20
-5.9857401558
 11
-68.2675692091
 21
-6.2271685071
  0
LINE
  5
23E
100
AcDbEntity
  8
SUPERFICI
100
AcDbLine
 62
7
  6
CONTINUOUS
 10
-68.2817426844
 20
-5.7163088565
 11
-68.274921712
 21
-5.9857401558
  0
LINE
  5
23F
100
AcDbEntity
  8
SUPERFICI
100
AcDbLine
 62
7
  6
CONTINUOUS
 10
-68.2872960255
 20
-5.4370736491
 11
-68.2817426844
 21
-5.7163088565
  0
LINE
  5
240
100
AcDbEntity
  8
COPY_GEOM
100
AcDbLine
 62
7
  6
CONTINUOUS
 10
-68.3430869275
 20
40.6438614051
 11
-68.3434715577
 21
40.6650981323
  0
LINE
  5
241
100
AcDbEntity
  8
SUPERFICI
100
AcDbLine
 62
7
  6
CONTINUOUS
 10
-68.2934369634
 20
-5.005367831
 11
-68.2872960255
 21
-5.4370736491
  0
LWPOLYLINE
  5
242
100
AcDbEntity
  8
SUPERFICI
100
AcDbPolyline
 62
250
  6
CONTINUOUS
 90
8
 70
0
 10
-68.0369924706
 20
-4.41609834
 10
-68.0343843447
 20
-4.765356374
 10
-68.0305529796
 20
-5.1119430074
 10
-68.0250729814
 20
-5.4566444919
 10
-68.0172794565
 20
-5.7979210911
 10
-68.00652683
 20
-6.1335342224
 10
-67.992229745
 20
-6.4627895438
 10
-67.9737820602
 20
-6.7863233399
  0
LINE
  5
243
100
AcDbEntity
  8
SUPERFICI
100
AcDbLine
 62
7
  6
CONTINUOUS
 10
-68.2983878476
 20
-4.4070619913
 11
-68.2934369634
 21
-5.005367831
  0
LINE
  5
244
100
AcDbEntity
  8
SUPERFICI
100
AcDbLine
 62
250
  6
CONTINUOUS
 10
-68.0394881905
 20
-3.7075302373
 11
-68.0369924706
 21
-4.41609834
  0
LINE
  5
245
100
AcDbEntity
  8
SUPERFICI
100
AcDbLine
 62
7
  6
CONTINUOUS
 10
-68.3021871223
 20
-2.9383438271
 11
-68.2983878476
 21
-4.4070619913
  0
LINE
  5
246
100
AcDbEntity
  8
SUPERFICI
100
AcDbLine
 62
7
  6
CONTINUOUS
 10
-68.3352716514
 20
18.7338170547
 11
-68.303988146
 21
3.4130131635
  0
LWPOLYLINE
  5
247
100
AcDbEntity
  8
SUPERFICI
100
AcDbPolyline
 62
7
  6
CONTINUOUS
 90
7
 70
0
 10
-68.298821845
 20
38.1273446743
 10
-68.2986214907
 20
34.0605615936
 10
-68.3009239487
 20
31.588483235
 10
-68.3070983057
 20
28.660945367
 10
-68.3170841322
 20
25.2947149188
 10
-68.3282091837
 20
21.9813209593
 10
-68.3352741779
 20
18.7341821615
  0
LINE
  5
248
100
AcDbEntity
  8
SUPERFICI
100
AcDbLine
 62
250
  6
CONTINUOUS
 10
-68.0394906412
 20
0.6101035326
 11
-68.0389337577
 21
-0.6642881727
  0
LINE
  5
249
100
AcDbEntity
  8
SUPERFICI
100
AcDbLine
 62
250
  6
CONTINUOUS
 10
-68.0475878042
 20
8.9984936956
 11
-68.0394906412
 21
0.6101035326
  0
LINE
  5
24A
100
AcDbEntity
  8
DRAFT
100
AcDbLine
 62
250
  6
CONTINUOUS
 10
-68.0446796719
 20
17.9771758486
 11
-68.0439399625
 21
19.3507292248
  0
LINE
  5
24B
100
AcDbEntity
  8
SUPERFICI
100
AcDbLine
 62
250
  6
CONTINUOUS
 10
-68.0461130177
 20
12.4258632507
 11
-68.0475878042
 21
8.9984936956
  0
LINE
  5
24C
100
AcDbEntity
  8
SUPERFICI
100
AcDbLine
 62
7
  6
CONTINUOUS
 10
-68.303988146
 20
3.4130131635
 11
-68.3015562022
 21
-0.6587764605
  0
LINE
  5
24D
100
AcDbEntity
  8
SUPERFICI
100
AcDbLine
 62
7
  6
CONTINUOUS
 10
-68.3015562022
 20
-0.6587764605
 11
-68.3021871223
 21
-2.9383438271
  0
LINE
  5
24E
100
AcDbEntity
  8
SUPERFICI
100
AcDbLine
 62
250
  6
CONTINUOUS
 10
-68.0446795648
 20
17.9771758962
 11
-68.0461130177
 21
12.4258632507
  0
LINE
  5
24F
100
AcDbEntity
  8
DRAFT
100
AcDbLine
 62
250
  6
CONTINUOUS
 10
-68.0238884974
 20
31.3115397414
 11
-68.022764444
 21
35.9510186094
  0
LINE
  5
250
100
AcDbEntity
  8
SUPERFICI
100
AcDbLine
 62
7
  6
CONTINUOUS
 10
-68.2968577697
 20
40.441985373
 11
-68.298821845
 21
38.1273446743
  0
LINE
  5
251
100
AcDbEntity
  8
DRAFT
100
AcDbLine
 62
250
  6
CONTINUOUS
 10
-68.022764444
 20
35.9510186094
 11
-68.0216309955
 21
37.0293166907
  0
LINE
  5
252
100
AcDbEntity
  8
SUPERFICI
100
AcDbLine
 62
250
  6
CONTINUOUS
 10
-68.0389337577
 20
-0.6642881727
 11
-68.0394881905
 21
-3.7075302373
  0
LINE
  5
253
100
AcDbEntity
  8
DRAFT
100
AcDbLine
 62
250
  6
CONTINUOUS
 10
-68.0287523084
 20
27.3496101019
 11
-68.0238884974
 21
31.3115397414
  0
LINE
  5
254
100
AcDbEntity
  8
DRAFT
100
AcDbLine
 62
250
  6
CONTINUOUS
 10
-68.0439399625
 20
19.3507292248
 11
-68.0287523084
 21
27.3496101019
  0
LINE
  5
255
100
AcDbEntity
  8
DRAFT
100
AcDbLine
 62
250
  6
CONTINUOUS
 10
-68.0216309955
 20
37.0293166907
 11
-68.0134399805
 21
39.8861890126
  0
LWPOLYLINE
  5
256
100
AcDbEntity
  8
COPY_GEOM
100
AcDbPolyline
 62
7
  6
CONTINUOUS
 90
7
 70
0
 10
-68.2901131399
 20
43.7326586753
 10
-68.3032044495
 20
43.3020962276
 10
-68.314112522
 20
42.8595072395
 10
-68.3231501616
 20
42.4046953211
 10
-68.3305403119
 20
41.9374588516
 10
-68.3364865815
 20
41.4575304016
 10
-68.3435802118
 20
40.6651361111
  0
LINE
  5
257
100
AcDbEntity
  8
COPY_GEOM
100
AcDbLine
 62
7
  6
CONTINUOUS
 10
-68.2901131399
 20
43.7326586753
 11
-68.2820858157
 21
43.9592235049
  0
LWPOLYLINE
  5
258
100
AcDbEntity
  8
COPY_GEOM
100
AcDbPolyline
 62
250
  6
CONTINUOUS
 90
9
 70
0
 10
-67.9483866414
 20
43.1554613937
 10
-67.9640658996
 20
42.8362605049
 10
-67.9769057172
 20
42.5108624966
 10
-67.9875879883
 20
42.1802072197
 10
-67.9971463614
 20
41.8460887291
 10
-68.0057700454
 20
41.5084752663
 10
-68.0127994854
 20
41.1655247418
 10
-68.0183320229
 20
40.8171594696
 10
-68.0278746262
 20
40.1100148663
  0
LWPOLYLINE
  5
259
100
AcDbEntity
  8
DRAFT
100
AcDbPolyline
 62
7
  6
CONTINUOUS
 90
9
 70
0
 10
-67.6205127707
 20
42.7530645145
 10
-67.6049706806
 20
42.9537414175
 10
-67.5740766291
 20
43.1434093773
 10
-67.5270858981
 20
43.3200086858
 10
-67.4634111575
 20
43.4817646336
 10
-67.3824475963
 20
43.6260899948
 10
-67.28418458
 20
43.7502614396
 10
-67.1689858604
 20
43.8528719458
 10
-67.1404763838
 20
43.8730643179
  0
LINE
  5
25A
100
AcDbEntity
  8
DRAFT
100
AcDbLine
 62
7
  6
CONTINUOUS
 10
-68.2967215428
 20
40.4419373439
 11
-68.2936644324
 21
40.4658940694
  0
LWPOLYLINE
  5
25B
100
AcDbEntity
  8
DRAFT
100
AcDbPolyline
 62
7
  6
CONTINUOUS
 90
10
 70
0
 10
-63.2905329843
 20
38.8480950828
 10
-63.3205306365
 20
38.6456468676
 10
-63.361539438
 20
38.4616863577
 10
-63.4122231903
 20
38.2961901154
 10
-63.4707803682
 20
38.1498090268
 10
-63.5361885816
 20
38.0211539096
 10
-63.6088711263
 20
37.907499905
 10
-63.6882175719
 20
37.8087128067
 10
-63.7733427086
 20
37.7248215079
 10
-63.8312212964
 20
37.6783371176
  0
LINE
  5
25C
100
AcDbEntity
  8
ASSI
100
AcDbLine
 62
7
  6
CONTINUOUS
 10
-62.0989808899
 20
38.1125701754
 11
-62.1746629329
 21
37.603655204
  0
LWPOLYLINE
  5
25D
100
AcDbEntity
  8
ASSI
100
AcDbPolyline
 62
7
  6
CONTINUOUS
 90
4
 70
0
 10
-61.9848213907
 20
38.9203792455
 10
-62.0013601891
 20
38.8181818263
 10
-62.0164592154
 20
38.7167726562
 10
-62.044371957
 20
38.5151618628
  0
LINE
  5
25E
100
AcDbEntity
  8
ASSI
100
AcDbLine
 62
7
  6
CONTINUOUS
 10
-61.9495211373
 20
39.1260395502
 11
-61.9848213907
 21
38.9203792455
  0
LINE
  5
25F
100
AcDbEntity
  8
ASSI
100
AcDbLine
 62
7
  6
CONTINUOUS
 10
-61.9137632406
 20
39.3318724603
 11
-61.9495211373
 21
39.1260395502
  0
LWPOLYLINE
  5
260
100
AcDbEntity
  8
ASSI
100
AcDbPolyline
 62
7
  6
CONTINUOUS
 90
5
 70
0
 10
-61.8163044981
 20
39.8606229705
 10
-61.8373550738
 20
39.7517238441
 10
-61.8574209356
 20
39.6448064079
 10
-61.8765873544
 20
39.5398452638
 10
-61.9137632406
 20
39.3318724603
  0
LINE
  5
261
100
AcDbEntity
  8
ASSI
100
AcDbLine
 62
7
  6
CONTINUOUS
 10
-61.7712824176
 20
40.0854433651
 11
-61.8163044981
 21
39.8606229705
  0
LINE
  5
262
100
AcDbEntity
  8
ASSI
100
AcDbLine
 62
7
  6
CONTINUOUS
 10
-61.721801727
 20
40.3226673006
 11
-61.7712824176
 21
40.0854433651
  0
LINE
  5
263
100
AcDbEntity
  8
ASSI
100
AcDbLine
 62
7
  6
CONTINUOUS
 10
-61.667099583
 20
40.5758969331
 11
-61.721801727
 21
40.3226673006
  0
LINE
  5
264
100
AcDbEntity
  8
ASSI
100
AcDbLine
 62
7
  6
CONTINUOUS
 10
-61.6064394529
 20
40.847688158
 11
-61.667099583
 21
40.5758969331
  0
LWPOLYLINE
  5
265
100
AcDbEntity
  8
ASSI
100
AcDbPolyline
 62
7
  6
CONTINUOUS
 90
3
 70
0
 10
-61.5010403515
 20
41.2992164893
 10
-61.5380319609
 20
41.1430415925
 10
-61.6064394529
 20
40.847688158
  0
LINE
  5
266
100
AcDbEntity
  8
COPY_GEOM
100
AcDbLine
 62
7
  6
CONTINUOUS
 10
-61.6348754621
 20
41.5775455032
 11
-61.6718567339
 21
41.434099277
  0
LWPOLYLINE
  5
267
100
AcDbEntity
  8
COPY_GEOM
100
AcDbPolyline
 62
7
  6
CONTINUOUS
 90
4
 70
0
 10
-62.5325489411
 20
36.2714016518
 10
-62.4928135407
 20
36.3766893087
 10
-62.4602630613
 20
36.4925299137
 10
-62.4353875543
 20
36.6182260034
  0
LWPOLYLINE
  5
268
100
AcDbEntity
  8
DRAFT
100
AcDbPolyline
 62
7
  6
CONTINUOUS
 90
7
 70
0
 10
-62.4449095245
 20
36.0028608679
 10
-62.478786424
 20
35.9384007157
 10
-62.5153948532
 20
35.8785869129
 10
-62.554625806
 20
35.8234442849
 10
-62.5963445839
 20
35.7730264498
 10
-62.640553978
 20
35.72722911
 10
-62.6871725538
 20
35.6860834397
  0
LWPOLYLINE
  5
269
100
AcDbEntity
  8
COPY_GEOM
100
AcDbPolyline
 62
7
  6
CONTINUOUS
 90
4
 70
0
 10
-62.6931208798
 20
36.0166921712
 10
-62.6327086258
 20
36.0915056018
 10
-62.5791359417
 20
36.1765461948
 10
-62.5325489411
 20
36.2714016518
  0
LWPOLYLINE
  5
26A
100
AcDbEntity
  8
ASSI
100
AcDbPolyline
 62
7
  6
CONTINUOUS
 90
37
 70
0
 10
-60.1253354964
 20
43.3276388433
 10
-60.1707599698
 20
43.2916314651
 10
-60.2167371147
 20
43.2532813759
 10
-60.2632669309
 20
43.2125885755
 10
-60.3103862116
 20
43.1693055996
 10
-60.3580581636
 20
43.1236799127
 10
-60.4061724081
 20
43.0764539083
 10
-60.4549617945
 20
43.0277533551
 10
-60.5041934734
 20
42.9774524845
 10
-60.5530585173
 20
42.9259163837
 10
-60.6013899586
 20
42.8731916673
 10
-60.649354765
 20
42.8192317209
 10
-60.6966449122
 20
42.7642617878
 10
-60.7432321093
 20
42.7082976738
 10
-60.7891446472
 20
42.6513235732
 10
-60.8341593735
 20
42.593517312
 10
-60.8782781833
 20
42.5348704949
 10
-60.9214991816
 20
42.4753915173
 10
-60.963593531
 20
42.4152833908
 10
-61.0045257831
 20
42.354516198
 10
-61.0443313863
 20
42.2931198564
 10
-61.0828878487
 20
42.2313871305
 10
-61.1201708207
 20
42.1693549446
 10
-61.1562046518
 20
42.1069863745
 10
-61.1909398982
 20
42.044463412
 10
-61.2243830648
 20
41.9817927782
 10
-61.2565276466
 20
41.9189677519
 10
-61.2873046848
 20
41.8561501622
 10
-61.3166432891
 20
41.7933534627
 10
-61.3446143499
 20
41.7305641997
 10
-61.3713615789
 20
41.667903841
 10
-61.3971325678
 20
41.6052526952
 10
-61.421679725
 20
41.5427304537
 10
-61.4444039882
 20
41.4808176582
 10
-61.46510567
 20
41.4196744892
 10
-61.4839844578
 20
41.3591407663
 10
-61.5010403515
 20
41.2992164893
  0
LWPOLYLINE
  5
26B
100
AcDbEntity
  8
COPY_GEOM
100
AcDbPolyline
 62
7
  6
CONTINUOUS
 90
15
 70
0
 10
-60.3300372594
 20
43.4324057853
 10
-60.4521705863
 20
43.3386268748
 10
-60.5718996549
 20
43.236341545
 10
-60.6892244654
 20
43.1255497958
 10
-60.8052276143
 20
43.00503843
 10
-60.9188265049
 20
42.8760206448
 10
-61.0267733476
 20
42.7421360325
 10
-61.1285653959
 20
42.6036880637
 10
-61.2247053962
 20
42.4603732677
 10
-61.3134537976
 20
42.3149208247
 10
-61.3948005569
 20
42.1670802636
 10
-61.4687557173
 20
42.0171020556
 10
-61.5336098573
 20
41.8684667936
 10
-61.5887931699
 20
41.7223346754
 10
-61.6348754621
 20
41.5775455032
  0
LINE
  5
26C
100
AcDbEntity
  8
0
100
AcDbLine
 62
7
  6
CONTINUOUS
 10
-55.6330761909
 20
46.8356445682
 11
-60.3303384177
 21
43.4321875774
  0
LINE
  5
26D
100
AcDbEntity
  8
0
100
AcDbLine
 62
7
  6
CONTINUOUS
 10
-56.1634062768
 20
46.1983017722
 11
-60.125552071
 21
43.3274819219
  0
LINE
  5
26E
100
AcDbEntity
  8
0
100
AcDbLine
 62
7
  6
CONTINUOUS
 10
-54.8465341129
 20
46.1380539749
 11
-55.4623685688
 21
45.702593255
  0
LINE
  5
26F
100
AcDbEntity
  8
0
100
AcDbLine
 62
7
  6
CONTINUOUS
 10
-54.6959472126
 20
45.1606515168
 11
-54.0801127567
 21
45.5961122367
  0
LWPOLYLINE
  5
270
100
AcDbEntity
  8
DRAFT
100
AcDbPolyline
 62
7
  6
CONTINUOUS
 90
35
 70
0
 10
-63.8312212964
 20
37.6783371176
 10
-63.8652865018
 20
37.6544250975
 10
-63.9638590421
 20
37.5977915094
 10
-64.0685262483
 20
37.5553521682
 10
-64.1805695899
 20
37.5270453811
 10
-64.299951332
 20
37.5136223972
 10
-64.4263277346
 20
37.5159083901
 10
-64.5610289466
 20
37.5350307663
 10
-64.7044059454
 20
37.5724122211
 10
-64.8556215039
 20
37.6291667369
 10
-65.0142852036
 20
37.7064763915
 10
-65.1798328357
 20
37.8056152275
 10
-65.3512615053
 20
37.9272588118
 10
-65.5272107401
 20
38.0713275851
 10
-65.7071136102
 20
38.2391827769
 10
-65.8886775483
 20
38.4300250562
 10
-66.0677142231
 20
38.6390053477
 10
-66.2432180814
 20
38.8657983844
 10
-66.4128340646
 20
39.1080266202
 10
-66.5710320896
 20
39.3553080767
 10
-66.7153658735
 20
39.6016253578
 10
-66.8472854905
 20
39.8477468547
 10
-66.9679390764
 20
40.0927037445
 10
-67.0770846955
 20
40.3342711111
 10
-67.1748365241
 20
40.5713422768
 10
-67.2626399241
 20
40.805129224
 10
-67.340138301
 20
41.0336012393
 10
-67.4077190854
 20
41.2565644669
 10
-67.4670240155
 20
41.4781569318
 10
-67.5175090858
 20
41.6978776744
 10
-67.5585516372
 20
41.9140954128
 10
-67.5904216932
 20
42.1289300275
 10
-67.612232428
 20
42.3419869234
 10
-67.6226028548
 20
42.5505936983
 10
-67.6205127707
 20
42.7530645145
  0
LWPOLYLINE
  5
271
100
AcDbEntity
  8
DRAFT
100
AcDbPolyline
 62
7
  6
CONTINUOUS
 90
33
 70
0
 10
-67.1404763838
 20
43.8730643179
 10
-67.0374900408
 20
43.9325863361
 10
-66.8913253248
 20
43.9882162949
 10
-66.7313421781
 20
44.0196581933
 10
-66.5593803238
 20
44.02653846
 10
-66.3795941921
 20
44.0091269972
 10
-66.1934073894
 20
43.968557812
 10
-66.0031068016
 20
43.9061044772
 10
-65.8148960795
 20
43.8246368767
 10
-65.6322373818
 20
43.7275143792
 10
-65.4551988675
 20
43.6168849643
 10
-65.2848773709
 20
43.4948595954
 10
-65.1236485855
 20
43.3646526873
 10
-64.971061635
 20
43.2275509727
 10
-64.8236971479
 20
43.0816560655
 10
-64.6824219789
 20
42.9284713591
 10
-64.547531532
 20
42.7686563334
 10
-64.4149674325
 20
42.5973732882
 10
-64.2850210367
 20
42.4143291544
 10
-64.1590733335
 20
42.2204492923
 10
-64.0353843403
 20
42.0116184694
 10
-63.9148764863
 20
41.7869075636
 10
-63.7996476169
 20
41.5479273513
 10
-63.6904493383
 20
41.294189342
 10
-63.5886640554
 20
41.0238096318
 10
-63.4974905413
 20
40.7409620095
 10
-63.4198496167
 20
40.4547581514
 10
-63.3573488679
 20
40.1675008332
 10
-63.3111476965
 20
39.8809590906
 10
-63.2814729273
 20
39.6034347231
 10
-63.2680326524
 20
39.3387303425
 10
-63.2710945581
 20
39.0864410177
 10
-63.2905329843
 20
38.8480950828
  0
LWPOLYLINE
  5
272
100
AcDbEntity
  8
SCATOLA
100
AcDbPolyline
 62
7
  6
CONTINUOUS
 90
9
 70
0
 10
-51.955690781
 20
57.6372902459
 10
-51.7289878846
 20
57.703689987
 10
-51.4883222134
 20
57.7411164395
 10
-51.234418994
 20
57.7489703636
 10
-50.9665529998
 20
57.7278509992
 10
-50.687685892
 20
57.6780513733
 10
-50.3967505242
 20
57.5989823425
 10
-50.0948140429
 20
57.4912330502
 10
-49.7880395489
 20
57.3568639541
  0
LWPOLYLINE
  5
273
100
AcDbEntity
  8
SUPERFICI
100
AcDbPolyline
 62
7
  6
CONTINUOUS
 90
9
 70
0
 10
-67.9500154861
 20
-8.0808739086
 10
-67.8619976008
 20
-8.340051655
 10
-67.7741230936
 20
-8.5742479614
 10
-67.6791189285
 20
-8.805018295
 10
-67.5771115809
 20
-9.032923722
 10
-67.4677933415
 20
-9.259092683
 10
-67.3507911085
 20
-9.4841012174
 10
-67.2259926511
 20
-9.7080904282
 10
-67.2030290193
 20
-9.7477420663
  0
LWPOLYLINE
  5
274
100
AcDbEntity
  8
SUPERFICI
100
AcDbPolyline
 62
250
  6
CONTINUOUS
 90
5
 70
0
 10
-67.8547360325
 20
-7.8147239256
 10
-67.8221758551
 20
-7.9563306114
 10
-67.7853653512
 20
-8.0969404572
 10
-67.7444319366
 20
-8.2364816849
 10
-67.6995646125
 20
-8.3747545354
  0
LINE
  5
275
100
AcDbEntity
  8
DRAFT
100
AcDbLine
 62
7
  6
CONTINUOUS
 10
-68.2878818884
 20
40.3590618879
 11
-68.2967215428
 21
40.4419373439
  0
LWPOLYLINE
  5
276
100
AcDbEntity
  8
COPY_GEOM
100
AcDbPolyline
 62
7
  6
CONTINUOUS
 90
13
 70
0
 10
-62.4185086231
 20
36.753350799
 10
-62.3855273486
 20
37.1030284974
 10
-62.3472937987
 20
37.461653442
 10
-62.3038079734
 20
37.8292256329
 10
-62.2551796386
 20
38.2066190956
 10
-62.2012990285
 20
38.5929598045
 10
-62.1418368452
 20
38.985625683
 10
-62.0765105589
 20
39.385042931
 10
-62.0056026995
 20
39.7907853487
 10
-61.9296315581
 20
40.1989522597
 10
-61.8487698986
 20
40.6082434387
 10
-61.7628449572
 20
41.0199591112
 10
-61.6718567339
 20
41.434099277
  0
LWPOLYLINE
  5
277
100
AcDbEntity
  8
DRAFT
100
AcDbPolyline
 62
7
  6
CONTINUOUS
 90
8
 70
0
 10
-62.2934230587
 20
36.5917996498
 10
-62.3047671046
 20
36.492681392
 10
-62.3198449644
 20
36.3985017331
 10
-62.3384753945
 20
36.3093261254
 10
-62.3604485069
 20
36.225299129
 10
-62.3855851621
 20
36.1463379456
 10
-62.4137892107
 20
36.0721805009
 10
-62.4449095245
 20
36.0028608679
  0
LINE
  5
278
100
AcDbEntity
  8
COPY_GEOM
100
AcDbLine
 62
7
  6
CONTINUOUS
 10
-62.4353875543
 20
36.6182260034
 11
-62.4185086231
 21
36.753350799
  0
LWPOLYLINE
  5
279
100
AcDbEntity
  8
ASSI
100
AcDbPolyline
 62
7
  6
CONTINUOUS
 90
8
 70
0
 10
-62.2037149345
 20
37.3940876527
 10
-62.2177100179
 20
37.2867861853
 10
-62.2312680421
 20
37.177570504
 10
-62.2444342363
 20
37.0664011101
 10
-62.2572306319
 20
36.9523337528
 10
-62.2696645727
 20
36.8350536819
 10
-62.281728715
 20
36.7148756475
 10
-62.2934230587
 20
36.5917996498
  0
LINE
  5
27A
100
AcDbEntity
  8
ASSI
100
AcDbLine
 62
7
  6
CONTINUOUS
 10
-62.044371957
 20
38.5151618628
 11
-62.0708756761
 21
38.3139833342
  0
LWPOLYLINE
  5
27B
100
AcDbEntity
  8
ASSI
100
AcDbPolyline
 62
7
  6
CONTINUOUS
 90
3
 70
0
 10
-62.0708756761
 20
38.3139833342
 10
-62.0844704945
 20
38.2133342991
 10
-62.0989808899
 20
38.1125701754
  0
LINE
  5
27C
100
AcDbEntity
  8
ASSI
100
AcDbLine
 62
7
  6
CONTINUOUS
 10
-62.1746629329
 20
37.603655204
 11
-62.2037149345
 21
37.3940876527
  0
LWPOLYLINE
  5
27D
100
AcDbEntity
  8
SUPERFICI
100
AcDbPolyline
 62
250
  6
CONTINUOUS
 90
8
 70
0
 10
-57.6730179794
 20
26.5414524157
 10
-57.8134229459
 20
26.3635210033
 10
-57.9294095351
 20
26.1689436742
 10
-58.0230523064
 20
25.9577295125
 10
-58.0944650292
 20
25.7283809189
 10
-58.1436847617
 20
25.4816794356
 10
-58.1715108686
 20
25.2211365994
 10
-58.1786577124
 20
24.9489279717
  0
LWPOLYLINE
  5
27E
100
AcDbEntity
  8
COPY_GEOM
100
AcDbPolyline
 62
7
  6
CONTINUOUS
 90
3
 70
0
 10
-62.8018439925
 20
35.9204295813
 10
-62.7600875375
 20
35.9525795699
 10
-62.6931208798
 20
36.0166921712
  0
LINE
  5
27F
100
AcDbEntity
  8
DRAFT
100
AcDbLine
 62
7
  6
CONTINUOUS
 10
-62.6871725538
 20
35.6860834397
 11
-62.7258932817
 21
35.6567113826
  0
LINE
  5
280
100
AcDbEntity
  8
DRAFT
100
AcDbLine
 62
250
  6
CONTINUOUS
 10
-64.0381574321
 20
36.1781871557
 11
-64.2238109781
 21
36.0469102744
  0
LINE
  5
281
100
AcDbEntity
  8
0
100
AcDbLine
 62
7
  6
CONTINUOUS
 10
-52.0801127567
 20
44.1818986743
 11
-52.6959472126
 21
43.7464379544
  0
LINE
  5
282
100
AcDbEntity
  8
0
100
AcDbLine
 62
250
  6
CONTINUOUS
 10
-62.266965964
 20
36.8605076409
 11
-62.4185086231
 21
36.753350799
  0
LINE
  5
283
100
AcDbEntity
  8
COPY_GEOM
100
AcDbLine
 62
7
  6
CONTINUOUS
 10
-62.8018262642
 20
35.9204421171
 11
-62.3581243973
 21
36.2341867161
  0
LWPOLYLINE
  5
284
100
AcDbEntity
  8
DRAFT
100
AcDbPolyline
 62
7
  6
CONTINUOUS
 90
7
 70
0
 10
-62.7258932817
 20
35.6567113826
 10
-62.7360688163
 20
35.6496474605
 10
-62.7872151427
 20
35.6179104508
 10
-62.8404879321
 20
35.5909545982
 10
-62.8958168721
 20
35.5688038076
 10
-62.9532748353
 20
35.5513885521
 10
-63.0128459096
 20
35.5387120202
  0
LINE
  5
285
100
AcDbEntity
  8
COPY_GEOM
100
AcDbLine
 62
7
  6
CONTINUOUS
 10
-62.8339625735
 20
35.8991504461
 11
-62.8018439925
 21
35.9204295813
  0
LWPOLYLINE
  5
286
100
AcDbEntity
  8
SUPERFICI
100
AcDbPolyline
 62
7
  6
CONTINUOUS
 90
4
 70
0
 10
2.7607801313
 20
-60.9841922038
 10
2.7628874621
 20
-60.9837592204
 10
2.7716441262
 20
-60.9820495073
 10
2.7809539935
 20
-60.9803509935
  0
LWPOLYLINE
  5
287
100
AcDbEntity
  8
SUPERFICI
100
AcDbPolyline
 62
7
  6
CONTINUOUS
 90
13
 70
0
 10
2.7809539935
 20
-60.9803509935
 10
2.8013894695
 20
-60.9768180232
 10
2.8121298649
 20
-60.9750345982
 10
2.8231349724
 20
-60.9733286964
 10
2.834422136
 20
-60.9717702748
 10
2.8457130542
 20
-60.9704144374
 10
2.8568850947
 20
-60.9692516847
 10
2.8680462555
 20
-60.9682475484
 10
2.8792546221
 20
-60.9673783661
 10
2.8906015927
 20
-60.9666217214
 10
2.9019845994
 20
-60.9659689574
 10
2.9131705302
 20
-60.9654139646
 10
2.9241048272
 20
-60.964938515
  0
LINE
  5
288
100
AcDbEntity
  8
SUPERFICI
100
AcDbLine
 62
7
  6
CONTINUOUS
 10
2.9241048272
 20
-60.964938515
 11
2.9452638739
 21
-60.9641615308
  0
LINE
  5
289
100
AcDbEntity
  8
SUPERFICI
100
AcDbLine
 62
7
  6
CONTINUOUS
 10
2.9452638739
 20
-60.9641615308
 11
2.9652797498
 21
-60.9635807983
  0
LWPOLYLINE
  5
28A
100
AcDbEntity
  8
SUPERFICI
100
AcDbPolyline
 62
7
  6
CONTINUOUS
 90
5
 70
0
 10
2.9652797498
 20
-60.9635807983
 10
2.9835453899
 20
-60.9631739743
 10
2.9919459469
 20
-60.963048396
 10
3.000194397
 20
-60.963010931
 10
3.0083063412
 20
-60.963093877
  0
LWPOLYLINE
  5
28B
100
AcDbEntity
  8
SUPERFICI
100
AcDbPolyline
 62
7
  6
CONTINUOUS
 90
13
 70
0
 10
3.0410135712
 20
-60.9637910278
 10
3.1192321505
 20
-60.963988516
 10
3.1601313073
 20
-60.9649185444
 10
3.2004883503
 20
-60.9661926812
 10
3.2406295693
 20
-60.9676435541
 10
3.2806026758
 20
-60.9694432408
 10
3.3209286676
 20
-60.9718159646
 10
3.3617100667
 20
-60.974911019
 10
3.402348992
 20
-60.9786974123
 10
3.443035011
 20
-60.9831744327
 10
3.4836807043
 20
-60.9885368874
 10
3.5233283068
 20
-60.9950891079
 10
3.5423376078
 20
-60.9987907293
  0
LINE
  5
28C
100
AcDbEntity
  8
SUPERFICI
100
AcDbLine
 62
7
  6
CONTINUOUS
 10
3.0289963385
 20
-60.9635941396
 11
3.0410135712
 21
-60.9637910278
  0
LINE
  5
28D
100
AcDbEntity
  8
SUPERFICI
100
AcDbLine
 62
7
  6
CONTINUOUS
 10
3.0083063412
 20
-60.963093877
 11
3.0290399964
 21
-60.9635951282
  0
LWPOLYLINE
  5
28E
100
AcDbEntity
  8
SUPERFICI
100
AcDbPolyline
 62
7
  6
CONTINUOUS
 90
10
 70
0
 10
-67.2031834869
 20
-9.7474752254
 10
-67.0996918637
 20
-9.9198021059
 10
-66.8617431087
 20
-10.2842788658
 10
-66.6045646866
 20
-10.6406883238
 10
-66.3295681345
 20
-10.9874747539
 10
-66.0389560069
 20
-11.3223614033
 10
-65.7352103034
 20
-11.6425354868
 10
-65.4201855427
 20
-11.9455010141
 10
-65.0952233429
 20
-12.2287397335
 10
-64.9152822551
 20
-12.3730282307
  0
LINE
  5
28F
100
AcDbEntity
  8
SUPERFICI
100
AcDbLine
 62
250
  6
CONTINUOUS
 10
-66.9111070082
 20
-10.0313052949
 11
-67.0672838366
 21
-9.769261814
  0
LINE
  5
290
100
AcDbEntity
  8
SUPERFICI
100
AcDbLine
 62
250
  6
CONTINUOUS
 10
-67.0672838366
 20
-9.769261814
 11
-67.1498120139
 21
-9.6242394493
  0
LINE
  5
291
100
AcDbEntity
  8
SUPERFICI
100
AcDbLine
 62
250
  6
CONTINUOUS
 10
-67.1498120139
 20
-9.6242394493
 11
-67.2291635473
 21
-9.4772168107
  0
LWPOLYLINE
  5
292
100
AcDbEntity
  8
SUPERFICI
100
AcDbPolyline
 62
250
  6
CONTINUOUS
 90
8
 70
0
 10
-67.2291635473
 20
-9.4772168107
 10
-67.3053818639
 20
-9.3280199433
 10
-67.378512513
 20
-9.1765375496
 10
-67.4486101534
 20
-9.0225176787
 10
-67.51572216
 20
-8.865560264
 10
-67.5798879637
 20
-8.7053900197
 10
-67.6411555973
 20
-8.5418636768
 10
-67.699577201
 20
-8.3747614744
  0
LWPOLYLINE
  5
293
100
AcDbEntity
  8
SUPERFICI
100
AcDbPolyline
 62
250
  6
CONTINUOUS
 90
6
 70
0
 10
-65.1245510562
 20
-12.0501149891
 10
-65.0981600481
 20
-12.1301455851
 10
-65.0600914287
 20
-12.2074599088
 10
-65.0099877838
 20
-12.2801640975
 10
-64.9468248372
 20
-12.346769055
 10
-64.928297383
 20
-12.3626663617
  0
LINE
  5
294
100
AcDbEntity
  8
COPY_GEOM
100
AcDbLine
 62
7
  6
CONTINUOUS
 10
-68.332231407
 20
40.5708627412
 11
-68.3430869275
 21
40.6438614051
  0
LWPOLYLINE
  5
295
100
AcDbEntity
  8
RACCORDO
100
AcDbPolyline
 62
250
  6
CONTINUOUS
 90
6
 70
0
 10
-55.420943335
 20
-10.7622897715
 10
-55.4148939276
 20
-10.8503081383
 10
-55.3968492364
 20
-10.928265348
 10
-55.3671180111
 20
-10.9948275312
 10
-55.3262089612
 20
-11.0488557908
 10
-55.2911868305
 20
-11.0787862428
  0
LWPOLYLINE
  5
296
100
AcDbEntity
  8
RACCORDO
100
AcDbPolyline
 62
250
  6
CONTINUOUS
 90
19
 70
0
 10
-55.9866296858
 20
-9.7966027714
 10
-55.9843759312
 20
-9.8479772342
 10
-55.9779726444
 20
-9.9012259381
 10
-55.9674198254
 20
-9.9563488832
 10
-55.9525763886
 20
-10.0138052877
 10
-55.9335834196
 20
-10.0731359333
 10
-55.9108641752
 20
-10.1329631648
 10
-55.8843325863
 20
-10.1932890849
 10
-55.8540747221
 20
-10.2541115908
 10
-55.8207720469
 20
-10.3140467192
 10
-55.7843361532
 20
-10.3730896127
 10
-55.7448554486
 20
-10.4312451286
 10
-55.7032766203
 20
-10.4871438758
 10
-55.6595705304
 20
-10.5407040446
 10
-55.6137663168
 20
-10.5920074446
 10
-55.5668980804
 20
-10.6399301136
 10
-55.5193105214
 20
-10.6840973973
 10
-55.4706589396
 20
-10.7248839499
 10
-55.420943335
 20
-10.7622897715
  0
LWPOLYLINE
  5
297
100
AcDbEntity
  8
SUPERFICI
100
AcDbPolyline
 62
250
  6
CONTINUOUS
 90
5
 70
0
 10
-58.1786764159
 20
-6.4467281616
 10
-58.165081088
 20
-6.7860126852
 10
-58.1244599614
 20
-7.1429315005
 10
-58.0569033669
 20
-7.5151927793
 10
-57.9621193718
 20
-7.902454724
  0
LWPOLYLINE
  5
298
100
AcDbEntity
  8
SUPERFICI
100
AcDbPolyline
 62
250
  6
CONTINUOUS
 90
6
 70
0
 10
-54.1481522048
 20
-13.3271054229
 10
-54.1535270241
 20
-13.1799860342
 10
-54.1696572866
 20
-13.0410156432
 10
-54.196508419
 20
-12.9109392797
 10
-54.2340156806
 20
-12.790393904
 10
-54.2820207571
 20
-12.6801206623
  0
LINE
  5
299
100
AcDbEntity
  8
SUPERFICI
100
AcDbLine
 62
250
  6
CONTINUOUS
 10
-58.1786445465
 20
9.251155168
 11
-58.1786537861
 21
-6.4467121262
  0
LINE
  5
29A
100
AcDbEntity
  8
SUPERFICI
100
AcDbLine
 62
7
  6
CONTINUOUS
 10
-57.3301347788
 20
-7.6465982517
 11
-57.3301344729
 21
23.7489526286
  0
LINE
  5
29B
100
AcDbEntity
  8
RACCORDO
100
AcDbLine
 62
7
  6
CONTINUOUS
 10
-56.2795228003
 20
22.0989336299
 11
-56.2795228003
 21
-9.2966028143
  0
LINE
  5
29C
100
AcDbEntity
  8
RACCORDO
100
AcDbLine
 62
250
  6
CONTINUOUS
 10
-55.9866300498
 20
21.5989338475
 11
-55.9866296858
 21
-9.7966027714
  0
LINE
  5
29D
100
AcDbEntity
  8
0
100
AcDbLine
 62
7
  6
CONTINUOUS
 10
-55.6330761909
 20
46.8356445682
 11
-55.6330761909
 21
46.6942232119
  0
LINE
  5
29E
100
AcDbEntity
  8
SUPERFICI
100
AcDbLine
 62
7
  6
CONTINUOUS
 10
-55.6330715163
 20
23.2534798725
 11
-55.6330714878
 21
23.348941173
  0
LINE
  5
29F
100
AcDbEntity
  8
SUPERFICI
100
AcDbLine
 62
7
  6
CONTINUOUS
 10
-58.1781025831
 20
15.4202512347
 11
-58.1786445465
 21
9.251155168
  0
LINE
  5
2A0
100
AcDbEntity
  8
SUPERFICI
100
AcDbLine
 62
7
  6
CONTINUOUS
 10
-58.1792601109
 20
20.1250944355
 11
-58.1781025831
 21
15.4202512347
  0
LINE
  5
2A1
100
AcDbEntity
  8
SUPERFICI
100
AcDbLine
 62
7
  6
CONTINUOUS
 10
-58.1772654516
 20
21.0349172206
 11
-58.1792601109
 21
20.1250944355
  0
LWPOLYLINE
  5
2A2
100
AcDbEntity
  8
SUPERFICI
100
AcDbPolyline
 62
7
  6
CONTINUOUS
 90
9
 70
0
 10
-58.1786478648
 20
24.9489349364
 10
-58.1818328574
 20
24.5171035791
 10
-58.1833121121
 20
24.0896639299
 10
-58.1830820707
 20
23.6666185111
 10
-58.1799795531
 20
23.254843991
 10
-58.1751775884
 20
22.8474567306
 10
-58.1721622837
 20
22.4238291627
 10
-58.1727734092
 20
21.9713203997
 10
-58.1772654516
 20
21.0349172206
  0
LWPOLYLINE
  5
2A3
100
AcDbEntity
  8
SUPERFICI
100
AcDbPolyline
 62
250
  6
CONTINUOUS
 90
17
 70
0
 10
-57.3301420334
 20
23.7489518653
 10
-57.3202766167
 20
23.9748636183
 10
-57.2904071055
 20
24.1871272827
 10
-57.2401968598
 20
24.3837362343
 10
-57.1693358286
 20
24.5630044235
 10
-57.0778813423
 20
24.722678452
 10
-56.9665873784
 20
24.8603128674
 10
-56.8361067227
 20
24.9745224813
 10
-56.6872176903
 20
25.0641382122
 10
-56.5216205693
 20
25.127920438
 10
-56.3406300096
 20
25.1653733801
 10
-56.1456820305
 20
25.1762095549
 10
-55.9392277506
 20
25.1604759231
 10
-55.7229973319
 20
25.118627687
 10
-55.4988353575
 20
25.0513374897
 10
-55.269706072
 20
24.9599791961
 10
-55.0378959666
 20
24.8461334191
  0
LWPOLYLINE
  5
2A4
100
AcDbEntity
  8
SUPERFICI
100
AcDbPolyline
 62
250
  6
CONTINUOUS
 90
16
 70
0
 10
-56.6564173835
 20
23.1781200042
 10
-56.649375668
 20
23.3312644222
 10
-56.6280254117
 20
23.4792803697
 10
-56.5920405048
 20
23.620227364
 10
-56.5407758913
 20
23.7527441687
 10
-56.4741051504
 20
23.8737201656
 10
-56.39324429
 20
23.9790953503
 10
-56.2993832207
 20
24.0666491979
 10
-56.1924357619
 20
24.1356202034
 10
-56.0722481878
 20
24.1846496241
 10
-55.9393334493
 20
24.2123205243
 10
-55.7952760491
 20
24.2191114114
 10
-55.6412069555
 20
24.2059316831
 10
-55.477779737
 20
24.1732278491
 10
-55.3080704416
 20
24.1218364731
 10
-55.1370115747
 20
24.0538870042
  0
LWPOLYLINE
  5
2A5
100
AcDbEntity
  8
RACCORDO
100
AcDbPolyline
 62
7
  6
CONTINUOUS
 90
11
 70
0
 10
-56.279523737
 20
22.0989347492
 10
-56.2726633935
 20
22.2436218203
 10
-56.2524349518
 20
22.38253672
 10
-56.2195155747
 20
22.5146675057
 10
-56.1751010805
 20
22.6383353376
 10
-56.1199729352
 20
22.7537537201
 10
-56.0537881833
 20
22.8623599509
 10
-55.9771086011
 20
22.9631424365
 10
-55.8908524782
 20
23.0549270082
 10
-55.7944588965
 20
23.1380090853
 10
-55.7527924438
 20
23.1688242381
  0
LWPOLYLINE
  5
2A6
100
AcDbEntity
  8
SUPERFICI
100
AcDbPolyline
 62
7
  6
CONTINUOUS
 90
7
 70
0
 10
-55.6330714878
 20
23.348941173
 10
-55.6256742524
 20
23.487113693
 10
-55.6062761827
 20
23.6142087534
 10
-55.5748772784
 20
23.7302263543
 10
-55.5307250081
 20
23.8362710109
 10
-55.4745719033
 20
23.9312382079
 10
-55.4086755592
 20
24.0118143998
  0
LWPOLYLINE
  5
2A7
100
AcDbEntity
  8
RACCORDO
100
AcDbPolyline
 62
250
  6
CONTINUOUS
 90
13
 70
0
 10
-55.4209397396
 20
21.7646201934
 10
-55.4148905592
 20
21.8611916642
 10
-55.3968464963
 20
21.9646660405
 10
-55.3671161368
 20
22.0732729799
 10
-55.326208019
 20
22.1851543016
 10
-55.2748219523
 20
22.2983957331
 10
-55.2138370616
 20
22.411059661
 10
-55.1442967009
 20
22.5212183821
 10
-55.0673906554
 20
22.6269869816
 10
-54.9844348326
 20
22.7265555576
 10
-54.8968486404
 20
22.8182203489
 10
-54.806130681
 20
22.9004128724
 10
-54.7138331888
 20
22.9717266692
  0
LWPOLYLINE
  5
2A8
100
AcDbEntity
  8
SUPERFICI
100
AcDbPolyline
 62
250
  6
CONTINUOUS
 90
6
 70
0
 10
-54.7134840431
 20
24.0549012911
 10
-54.7054197597
 20
24.147115327
 10
-54.6868581797
 20
24.2449154665
 10
-54.6581436878
 20
24.3468102036
 10
-54.619776754
 20
24.4512386451
 10
-54.5723934014
 20
24.5566314524
  0
LWPOLYLINE
  5
2A9
100
AcDbEntity
  8
SUPERFICI
100
AcDbPolyline
 62
250
  6
CONTINUOUS
 90
31
 70
0
 10
-54.5723902307
 20
24.5566482173
 10
-54.5454148895
 20
24.6124717899
 10
-54.5192381562
 20
24.6683046762
 10
-54.493872117
 20
24.7241210797
 10
-54.4693293081
 20
24.7798958134
 10
-54.4456202399
 20
24.8356025079
 10
-54.4227533896
 20
24.8912136226
 10
-54.4007385494
 20
24.9467028951
 10
-54.3795866483
 20
25.0020452614
 10
-54.3593072767
 20
25.057215063
 10
-54.3399098429
 20
25.1121868442
 10
-54.3214032565
 20
25.1669351767
 10
-54.3037957518
 20
25.2214345793
 10
-54.287095565
 20
25.2756599652
 10
-54.2713102985
 20
25.3295861904
 10
-54.2564466062
 20
25.3831878787
 10
-54.2425115543
 20
25.4364405045
 10
-54.2295113682
 20
25.4893192246
 10
-54.2174507832
 20
25.5417984331
 10
-54.2063357213
 20
25.5938585596
 10
-54.196171061
 20
25.6454708196
 10
-54.1869586506
 20
25.6965963965
 10
-54.178706519
 20
25.7472189245
 10
-54.1714134599
 20
25.7973083939
 10
-54.1650648978
 20
25.8468069048
 10
-54.1595992584
 20
25.8957106777
 10
-54.1550819199
 20
25.9439789466
 10
-54.1516751103
 20
25.9915066829
 10
-54.1494195268
 20
26.0382536552
 10
-54.1482473519
 20
26.0842364731
 10
-54.1481457343
 20
26.1294437831
  0
LINE
  5
2AA
100
AcDbEntity
  8
SUPERFICI
100
AcDbLine
 62
7
  6
CONTINUOUS
 10
-55.4086755592
 20
24.0118143998
 11
-55.3601340292
 21
24.0538989468
  0
LWPOLYLINE
  5
2AB
100
AcDbEntity
  8
COPY_GEOM
100
AcDbPolyline
 62
7
  6
CONTINUOUS
 90
3
 70
0
 10
-63.0022650228
 20
35.8267038878
 10
-62.9148023177
 20
35.8569520115
 10
-62.8339625735
 20
35.8991504461
  0
LINE
  5
2AC
100
AcDbEntity
  8
SUPERFICI
100
AcDbLine
 62
250
  6
CONTINUOUS
 10
2.5378780142
 20
-60.6734185865
 11
2.8695200121
 21
-60.5836815267
  0
LWPOLYLINE
  5
2AD
100
AcDbEntity
  8
SUPERFICI
100
AcDbPolyline
 62
250
  6
CONTINUOUS
 90
10
 70
0
 10
2.8699297384
 20
-60.584769614
 10
2.9013259502
 20
-60.5880966986
 10
2.9326486487
 20
-60.5918192024
 10
2.9639786127
 20
-60.5962051171
 10
2.9954055019
 20
-60.601585767
 10
3.0269886067
 20
-60.6081473295
 10
3.0587194235
 20
-60.6158266839
 10
3.0905335803
 20
-60.624472449
 10
3.1223404949
 20
-60.6339265019
 10
3.1677324063
 20
-60.6485741666
  0
LWPOLYLINE
  5
2AE
100
AcDbEntity
  8
SUPERFICI
100
AcDbPolyline
 62
250
  6
CONTINUOUS
 90
10
 70
0
 10
11.4006498816
 20
-56.2466080663
 10
11.2846720273
 20
-56.2298889337
 10
11.1702166899
 20
-56.2030088407
 10
11.0592041189
 20
-56.1658168719
 10
10.9524797927
 20
-56.1177393248
 10
10.8535677572
 20
-56.0594252961
 10
10.7674305137
 20
-55.9937834695
 10
10.6956337068
 20
-55.9231336539
 10
10.6375635328
 20
-55.8481581325
 10
10.5933893533
 20
-55.7702163936
  0
LWPOLYLINE
  5
2AF
100
AcDbEntity
  8
SUPERFICI
100
AcDbPolyline
 62
7
  6
CONTINUOUS
 90
4
 70
0
 10
3.542328656
 20
-60.998788537
 10
3.5452481074
 20
-60.9993965002
 10
3.5579041345
 20
-61.0022090441
 10
3.5703400966
 20
-61.0051551427
  0
LINE
  5
2B0
100
AcDbEntity
  8
SUPERFICI
100
AcDbLine
 62
7
  6
CONTINUOUS
 10
3.5703400966
 20
-61.0051551427
 11
3.6182915262
 21
-61.0168534931
  0
LINE
  5
2B1
100
AcDbEntity
  8
SUPERFICI
100
AcDbLine
 62
7
  6
CONTINUOUS
 10
3.6182915262
 20
-61.0168534931
 11
3.641048014
 21
-61.0225103222
  0
LWPOLYLINE
  5
2B2
100
AcDbEntity
  8
SUPERFICI
100
AcDbPolyline
 62
7
  6
CONTINUOUS
 90
40
 70
0
 10
3.641048014
 20
-61.0225103222
 10
3.6633650405
 20
-61.0282155715
 10
3.6744086972
 20
-61.0311123414
 10
3.6853552705
 20
-61.034035063
 10
3.6962414293
 20
-61.0369953161
 10
3.7070398278
 20
-61.0399879299
 10
3.7176429367
 20
-61.0429845939
 10
3.7280453379
 20
-61.0459844764
 10
3.7382542084
 20
-61.0489904036
 10
3.7481737163
 20
-61.0519740773
 10
3.7577993993
 20
-61.0549330215
 10
3.7671326789
 20
-61.0578664637
 10
3.7760811161
 20
-61.06074332
 10
3.7846390023
 20
-61.0635585363
 10
3.7928070237
 20
-61.0663088632
 10
3.8005003621
 20
-61.0689610696
 10
3.8077050691
 20
-61.0715042448
 10
3.8144345525
 20
-61.0739367407
 10
3.8206469275
 20
-61.0762363812
 10
3.8263299169
 20
-61.0783905553
 10
3.8315025227
 20
-61.0803981253
 10
3.8361740088
 20
-61.0822543351
 10
3.8403047451
 20
-61.0839342197
 10
3.8439497346
 20
-61.0854506742
 10
3.8472599936
 20
-61.086859167
 10
3.8502537592
 20
-61.0881616056
 10
3.8529206794
 20
-61.0893472534
 10
3.855364338
 20
-61.090456883
 10
3.8576104461
 20
-61.0914984483
 10
3.859638023
 20
-61.0924583435
 10
3.8614781783
 20
-61.0933474087
 10
3.8630980901
 20
-61.0941457571
 10
3.8645354958
 20
-61.0948679796
 10
3.8659248615
 20
-61.0955802148
 10
3.8672402403
 20
-61.0962680733
 10
3.8685125095
 20
-61.0969452875
 10
3.8699545477
 20
-61.0977257615
 10
3.8714794992
 20
-61.0985641664
 10
3.873169373
 20
-61.0995062872
 10
3.8754786925
 20
-61.1008111402
  0
LWPOLYLINE
  5
2B3
100
AcDbEntity
  8
SUPERFICI
100
AcDbPolyline
 62
250
  6
CONTINUOUS
 90
4
 70
0
 10
3.1677324063
 20
-60.6485741666
 10
3.1815059078
 20
-60.6533641107
 10
3.1954495149
 20
-60.6585712528
 10
3.2096348891
 20
-60.6643474222
  0
LWPOLYLINE
  5
2B4
100
AcDbEntity
  8
SUPERFICI
100
AcDbPolyline
 62
250
  6
CONTINUOUS
 90
4
 70
0
 10
3.3263610783
 20
-60.711252295
 10
3.3430731228
 20
-60.7172008609
 10
3.3605216915
 20
-60.7235132722
 10
3.3970252475
 20
-60.7371383621
  0
LWPOLYLINE
  5
2B5
100
AcDbEntity
  8
SUPERFICI
100
AcDbPolyline
 62
250
  6
CONTINUOUS
 90
6
 70
0
 10
3.3970252475
 20
-60.7371383621
 10
3.4160136841
 20
-60.7444466364
 10
3.4361179268
 20
-60.7531956317
 10
3.4574933518
 20
-60.7637089682
 10
3.4798930059
 20
-60.775627967
 10
3.5032703312
 20
-60.7889330761
  0
LWPOLYLINE
  5
2B6
100
AcDbEntity
  8
SUPERFICI
100
AcDbPolyline
 62
250
  6
CONTINUOUS
 90
5
 70
0
 10
3.5032703312
 20
-60.7889330761
 10
3.5321003921
 20
-60.8000587083
 10
3.5592220385
 20
-60.8101776745
 10
3.5846467073
 20
-60.8192993843
 10
3.6304166508
 20
-60.8348108281
  0
LWPOLYLINE
  5
2B7
100
AcDbEntity
  8
SUPERFICI
100
AcDbPolyline
 62
250
  6
CONTINUOUS
 90
5
 70
0
 10
3.6304166508
 20
-60.8348108281
 10
3.6516331656
 20
-60.8430661846
 10
3.6722310485
 20
-60.8526725956
 10
3.6921189451
 20
-60.8634388193
 10
3.7113769422
 20
-60.8755112524
  0
LWPOLYLINE
  5
2B8
100
AcDbEntity
  8
SUPERFICI
100
AcDbPolyline
 62
250
  6
CONTINUOUS
 90
16
 70
0
 10
25.4676423733
 20
-73.1607321568
 10
25.5907371018
 20
-73.2125948645
 10
25.7321260129
 20
-73.2604940249
 10
25.890592625
 20
-73.3029223788
 10
26.0666016741
 20
-73.3385366543
 10
26.2562439275
 20
-73.3648418872
 10
26.4503660199
 20
-73.3793992188
 10
26.6421635795
 20
-73.3812969969
 10
26.8323138294
 20
-73.3700569836
 10
27.0223926865
 20
-73.3452667101
 10
27.2128265711
 20
-73.3071407932
 10
27.3972785324
 20
-73.2572476995
 10
27.5677864304
 20
-73.1987773518
 10
27.7207510763
 20
-73.1345024683
 10
27.8559817889
 20
-73.0658103329
 10
27.9718202704
 20
-72.9944562921
  0
LINE
  5
2B9
100
AcDbEntity
  8
SUPERFICI
100
AcDbLine
 62
250
  6
CONTINUOUS
 10
3.2096348891
 20
-60.6643474222
 11
3.2383174816
 21
-60.6767651526
  0
LWPOLYLINE
  5
2BA
100
AcDbEntity
  8
SUPERFICI
100
AcDbPolyline
 62
250
  6
CONTINUOUS
 90
5
 70
0
 10
3.2383174816
 20
-60.6767651526
 10
3.2664549306
 20
-60.6891192792
 10
3.2808435435
 20
-60.695035742
 10
3.2955458984
 20
-60.7004878048
 10
3.3263610783
 20
-60.711252295
  0
LWPOLYLINE
  5
2BB
100
AcDbEntity
  8
SUPERFICI
100
AcDbPolyline
 62
250
  6
CONTINUOUS
 90
4
 70
0
 10
23.03794268
 20
-74.319968264
 10
22.8716999471
 20
-74.2344210034
 10
22.7107848162
 20
-74.1438677084
 10
22.556605755
 20
-74.0500481313
  0
LINE
  5
2BC
100
AcDbEntity
  8
SUPERFICI
100
AcDbLine
 62
7
  6
CONTINUOUS
 10
-43.526335165
 20
-32.8676831274
 11
-43.4712483389
 21
-32.9155882173
  0
LINE
  5
2BD
100
AcDbEntity
  8
SUPERFICI
100
AcDbLine
 62
7
  6
CONTINUOUS
 10
-43.5793170596
 20
-32.8210155524
 11
-43.526335165
 21
-32.8676831274
  0
LINE
  5
2BE
100
AcDbEntity
  8
SUPERFICI
100
AcDbLine
 62
7
  6
CONTINUOUS
 10
-43.6304055079
 20
-32.775441144
 11
-43.5793170596
 21
-32.8210155524
  0
LINE
  5
2BF
100
AcDbEntity
  8
SUPERFICI
100
AcDbLine
 62
7
  6
CONTINUOUS
 10
-43.6797444425
 20
-32.7308694345
 11
-43.6304055079
 21
-32.775441144
  0
LINE
  5
2C0
100
AcDbEntity
  8
SUPERFICI
100
AcDbLine
 62
7
  6
CONTINUOUS
 10
-43.7275284439
 20
-32.6871586212
 11
-43.6797444425
 21
-32.7308694345
  0
LINE
  5
2C1
100
AcDbEntity
  8
SUPERFICI
100
AcDbLine
 62
7
  6
CONTINUOUS
 10
-43.7739511089
 20
-32.6441605686
 11
-43.7275284439
 21
-32.6871586212
  0
LINE
  5
2C2
100
AcDbEntity
  8
SUPERFICI
100
AcDbLine
 62
7
  6
CONTINUOUS
 10
-43.8191476019
 20
-32.6017748301
 11
-43.7739511089
 21
-32.6441605686
  0
LINE
  5
2C3
100
AcDbEntity
  8
SUPERFICI
100
AcDbLine
 62
7
  6
CONTINUOUS
 10
-43.8633032855
 20
-32.5598480455
 11
-43.8191476019
 21
-32.6017748301
  0
LINE
  5
2C4
100
AcDbEntity
  8
SUPERFICI
100
AcDbLine
 62
7
  6
CONTINUOUS
 10
-43.9066060423
 20
-32.5182172631
 11
-43.8633032855
 21
-32.5598480455
  0
LINE
  5
2C5
100
AcDbEntity
  8
SUPERFICI
100
AcDbLine
 62
7
  6
CONTINUOUS
 10
-43.9491527612
 20
-32.4768011887
 11
-43.9066060423
 21
-32.5182172631
  0
LINE
  5
2C6
100
AcDbEntity
  8
SUPERFICI
100
AcDbLine
 62
7
  6
CONTINUOUS
 10
-43.9910549067
 20
-32.4355002719
 11
-43.9491527612
 21
-32.4768011887
  0
LINE
  5
2C7
100
AcDbEntity
  8
SUPERFICI
100
AcDbLine
 62
7
  6
CONTINUOUS
 10
-44.0322781215
 20
-32.3943566874
 11
-43.9910549067
 21
-32.4355002719
  0
LINE
  5
2C8
100
AcDbEntity
  8
SUPERFICI
100
AcDbLine
 62
7
  6
CONTINUOUS
 10
-44.0728175942
 20
-32.3533850346
 11
-44.0322781215
 21
-32.3943566874
  0
LINE
  5
2C9
100
AcDbEntity
  8
SUPERFICI
100
AcDbLine
 62
7
  6
CONTINUOUS
 10
-44.1126548581
 20
-32.3126149987
 11
-44.0728175942
 21
-32.3533850346
  0
LINE
  5
2CA
100
AcDbEntity
  8
SUPERFICI
100
AcDbLine
 62
7
  6
CONTINUOUS
 10
-44.1517769244
 20
-32.272072295
 11
-44.1126548581
 21
-32.3126149987
  0
LINE
  5
2CB
100
AcDbEntity
  8
SUPERFICI
100
AcDbLine
 62
7
  6
CONTINUOUS
 10
-44.1901808962
 20
-32.2317735102
 11
-44.1517769244
 21
-32.272072295
  0
LINE
  5
2CC
100
AcDbEntity
  8
SUPERFICI
100
AcDbLine
 62
7
  6
CONTINUOUS
 10
-44.2278573779
 20
-32.1917432136
 11
-44.1901808962
 21
-32.2317735102
  0
LINE
  5
2CD
100
AcDbEntity
  8
SUPERFICI
100
AcDbLine
 62
7
  6
CONTINUOUS
 10
-44.2647924412
 20
-32.1520121953
 11
-44.2278573779
 21
-32.1917432136
  0
LINE
  5
2CE
100
AcDbEntity
  8
SUPERFICI
100
AcDbLine
 62
7
  6
CONTINUOUS
 10
-44.3009802776
 20
-32.1126042976
 11
-44.2647924412
 21
-32.1520121953
  0
LINE
  5
2CF
100
AcDbEntity
  8
SUPERFICI
100
AcDbLine
 62
7
  6
CONTINUOUS
 10
-44.3364011448
 20
-32.0735604072
 11
-44.3009802776
 21
-32.1126042976
  0
LINE
  5
2D0
100
AcDbEntity
  8
SUPERFICI
100
AcDbLine
 62
7
  6
CONTINUOUS
 10
-44.3710387199
 20
-32.034918951
 11
-44.3364011448
 21
-32.0735604072
  0
LINE
  5
2D1
100
AcDbEntity
  8
SUPERFICI
100
AcDbLine
 62
7
  6
CONTINUOUS
 10
-44.404888635
 20
-31.9967058725
 11
-44.3710387199
 21
-32.034918951
  0
LINE
  5
2D2
100
AcDbEntity
  8
SUPERFICI
100
AcDbLine
 62
7
  6
CONTINUOUS
 10
-44.4379439599
 20
-31.958950511
 11
-44.404888635
 21
-31.9967058725
  0
LINE
  5
2D3
100
AcDbEntity
  8
SUPERFICI
100
AcDbLine
 62
7
  6
CONTINUOUS
 10
-44.4702078023
 20
-31.9216711211
 11
-44.4379439599
 21
-31.958950511
  0
LINE
  5
2D4
100
AcDbEntity
  8
SUPERFICI
100
AcDbLine
 62
7
  6
CONTINUOUS
 10
-44.5016833041
 20
-31.8848859578
 11
-44.4702078023
 21
-31.9216711211
  0
LINE
  5
2D5
100
AcDbEntity
  8
SUPERFICI
100
AcDbLine
 62
7
  6
CONTINUOUS
 10
-44.5323688565
 20
-31.8486189526
 11
-44.5016833041
 21
-31.8848859578
  0
LWPOLYLINE
  5
2D6
100
AcDbEntity
  8
SUPERFICI
100
AcDbPolyline
 62
250
  6
CONTINUOUS
 90
8
 70
0
 10
-67.9505013456
 20
-7.1041228117
 10
-68.0238295108
 20
-7.0170994504
 10
-68.0915530775
 20
-6.9171415796
 10
-68.1515408023
 20
-6.8051077169
 10
-68.2018944327
 20
-6.6806670399
 10
-68.2390862181
 20
-6.5465830945
 10
-68.2596658818
 20
-6.4093295681
 10
-68.2627361619
 20
-6.3594867466
  0
LINE
  5
2D7
100
AcDbEntity
  8
SUPERFICI
100
AcDbLine
 62
7
  6
CONTINUOUS
 10
-44.5622629406
 20
-31.8128941997
 11
-44.5323688565
 21
-31.8486189526
  0
LINE
  5
2D8
100
AcDbEntity
  8
SUPERFICI
100
AcDbLine
 62
7
  6
CONTINUOUS
 10
-44.5913684699
 20
-31.7777306624
 11
-44.5622629406
 21
-31.8128941997
  0
LINE
  5
2D9
100
AcDbEntity
  8
SUPERFICI
100
AcDbLine
 62
7
  6
CONTINUOUS
 10
-44.6196785304
 20
-31.7431593767
 11
-44.5913684699
 21
-31.7777306624
  0
LINE
  5
2DA
100
AcDbEntity
  8
SUPERFICI
100
AcDbLine
 62
7
  6
CONTINUOUS
 10
-44.6472276903
 20
-31.7091604144
 11
-44.6196785304
 21
-31.7431593767
  0
LINE
  5
2DB
100
AcDbEntity
  8
SUPERFICI
100
AcDbLine
 62
7
  6
CONTINUOUS
 10
-44.6740507681
 20
-31.6757117714
 11
-44.6472276903
 21
-31.7091604144
  0
LINE
  5
2DC
100
AcDbEntity
  8
SUPERFICI
100
AcDbLine
 62
7
  6
CONTINUOUS
 10
-44.7002142944
 20
-31.6427494967
 11
-44.6740507681
 21
-31.6757117714
  0
LINE
  5
2DD
100
AcDbEntity
  8
SUPERFICI
100
AcDbLine
 62
7
  6
CONTINUOUS
 10
-44.72578094
 20
-31.6102113167
 11
-44.7002142944
 21
-31.6427494967
  0
LINE
  5
2DE
100
AcDbEntity
  8
SUPERFICI
100
AcDbLine
 62
7
  6
CONTINUOUS
 10
-44.7507935886
 20
-31.5780574782
 11
-44.72578094
 21
-31.6102113167
  0
LINE
  5
2DF
100
AcDbEntity
  8
SUPERFICI
100
AcDbLine
 62
7
  6
CONTINUOUS
 10
-44.7753119321
 20
-31.5462242662
 11
-44.7507935886
 21
-31.5780574782
  0
LINE
  5
2E0
100
AcDbEntity
  8
SUPERFICI
100
AcDbLine
 62
7
  6
CONTINUOUS
 10
-44.7993942759
 20
-31.5146468872
 11
-44.7753119321
 21
-31.5462242662
  0
LINE
  5
2E1
100
AcDbEntity
  8
SUPERFICI
100
AcDbLine
 62
7
  6
CONTINUOUS
 10
-44.8230789828
 20
-31.4832842268
 11
-44.7993942759
 21
-31.5146468872
  0
LINE
  5
2E2
100
AcDbEntity
  8
SUPERFICI
100
AcDbLine
 62
7
  6
CONTINUOUS
 10
-44.8464261105
 20
-31.4520641645
 11
-44.8230789828
 21
-31.4832842268
  0
LINE
  5
2E3
100
AcDbEntity
  8
SUPERFICI
100
AcDbLine
 62
7
  6
CONTINUOUS
 10
-44.8694514554
 20
-31.4209716131
 11
-44.8464261105
 21
-31.4520641645
  0
LINE
  5
2E4
100
AcDbEntity
  8
SUPERFICI
100
AcDbLine
 62
7
  6
CONTINUOUS
 10
-44.8921613296
 20
-31.3900037481
 11
-44.8694514554
 21
-31.4209716131
  0
LINE
  5
2E5
100
AcDbEntity
  8
SUPERFICI
100
AcDbLine
 62
7
  6
CONTINUOUS
 10
-44.9145502432
 20
-31.3591738372
 11
-44.8921613296
 21
-31.3900037481
  0
LINE
  5
2E6
100
AcDbEntity
  8
SUPERFICI
100
AcDbLine
 62
7
  6
CONTINUOUS
 10
-44.9366145832
 20
-31.3284929225
 11
-44.9145502432
 21
-31.3591738372
  0
LINE
  5
2E7
100
AcDbEntity
  8
SUPERFICI
100
AcDbLine
 62
7
  6
CONTINUOUS
 10
-44.958352888
 20
-31.2979693139
 11
-44.9366145832
 21
-31.3284929225
  0
LINE
  5
2E8
100
AcDbEntity
  8
SUPERFICI
100
AcDbLine
 62
7
  6
CONTINUOUS
 10
-44.9797618727
 20
-31.2676141112
 11
-44.958352888
 21
-31.2979693139
  0
LINE
  5
2E9
100
AcDbEntity
  8
SUPERFICI
100
AcDbLine
 62
7
  6
CONTINUOUS
 10
-45.0008383861
 20
-31.2374385197
 11
-44.9797618727
 21
-31.2676141112
  0
LINE
  5
2EA
100
AcDbEntity
  8
SUPERFICI
100
AcDbLine
 62
7
  6
CONTINUOUS
 10
-45.021581075
 20
-31.2074514055
 11
-45.0008383861
 21
-31.2374385197
  0
LINE
  5
2EB
100
AcDbEntity
  8
SUPERFICI
100
AcDbLine
 62
7
  6
CONTINUOUS
 10
-45.0419866136
 20
-31.1776646912
 11
-45.021581075
 21
-31.2074514055
  0
LINE
  5
2EC
100
AcDbEntity
  8
SUPERFICI
100
AcDbLine
 62
7
  6
CONTINUOUS
 10
-45.0620517042
 20
-31.1480905519
 11
-45.0419866136
 21
-31.1776646912
  0
LINE
  5
2ED
100
AcDbEntity
  8
SUPERFICI
100
AcDbLine
 62
7
  6
CONTINUOUS
 10
-45.0817751721
 20
-31.1187382891
 11
-45.0620517042
 21
-31.1480905519
  0
LINE
  5
2EE
100
AcDbEntity
  8
SUPERFICI
100
AcDbLine
 62
7
  6
CONTINUOUS
 10
-45.1011540449
 20
-31.0896201074
 11
-45.0817751721
 21
-31.1187382891
  0
LINE
  5
2EF
100
AcDbEntity
  8
SUPERFICI
100
AcDbLine
 62
7
  6
CONTINUOUS
 10
-45.1201854462
 20
-31.0607483648
 11
-45.1011540449
 21
-31.0896201074
  0
LINE
  5
2F0
100
AcDbEntity
  8
SUPERFICI
100
AcDbLine
 62
7
  6
CONTINUOUS
 10
-45.1388686296
 20
-31.0321324442
 11
-45.1201854462
 21
-31.0607483648
  0
LINE
  5
2F1
100
AcDbEntity
  8
SUPERFICI
100
AcDbLine
 62
7
  6
CONTINUOUS
 10
-45.1662347581
 20
-30.9897156199
 11
-45.1388686296
 21
-31.0321324442
  0
LINE
  5
2F2
100
AcDbEntity
  8
SUPERFICI
100
AcDbLine
 62
7
  6
CONTINUOUS
 10
-45.1928056375
 20
-30.9479412241
 11
-45.1662347581
 21
-30.9897156199
  0
LINE
  5
2F3
100
AcDbEntity
  8
SUPERFICI
100
AcDbLine
 62
7
  6
CONTINUOUS
 10
-45.2185759361
 20
-30.9068483942
 11
-45.1928056375
 21
-30.9479412241
  0
LINE
  5
2F4
100
AcDbEntity
  8
SUPERFICI
100
AcDbLine
 62
7
  6
CONTINUOUS
 10
-45.2435432375
 20
-30.8664728207
 11
-45.2185759361
 21
-30.9068483942
  0
LINE
  5
2F5
100
AcDbEntity
  8
SUPERFICI
100
AcDbLine
 62
7
  6
CONTINUOUS
 10
-45.2677409376
 20
-30.8267921237
 11
-45.2435432375
 21
-30.8664728207
  0
LINE
  5
2F6
100
AcDbEntity
  8
SUPERFICI
100
AcDbLine
 62
7
  6
CONTINUOUS
 10
-45.2912289343
 20
-30.7877373517
 11
-45.2677409376
 21
-30.8267921237
  0
LINE
  5
2F7
100
AcDbEntity
  8
SUPERFICI
100
AcDbLine
 62
7
  6
CONTINUOUS
 10
-45.3140559968
 20
-30.7492537479
 11
-45.2912289343
 21
-30.7877373517
  0
LINE
  5
2F8
100
AcDbEntity
  8
SUPERFICI
100
AcDbLine
 62
7
  6
CONTINUOUS
 10
-45.3362504035
 20
-30.7113181446
 11
-45.3140559968
 21
-30.7492537479
  0
LINE
  5
2F9
100
AcDbEntity
  8
SUPERFICI
100
AcDbLine
 62
7
  6
CONTINUOUS
 10
-45.3578380184
 20
-30.6739098426
 11
-45.3362504035
 21
-30.7113181446
  0
LINE
  5
2FA
100
AcDbEntity
  8
SUPERFICI
100
AcDbLine
 62
7
  6
CONTINUOUS
 10
-45.3788439397
 20
-30.6370077695
 11
-45.3578380184
 21
-30.6739098426
  0
LINE
  5
2FB
100
AcDbEntity
  8
SUPERFICI
100
AcDbLine
 62
7
  6
CONTINUOUS
 10
-45.39929252
 20
-30.6005904553
 11
-45.3788439397
 21
-30.6370077695
  0
LINE
  5
2FC
100
AcDbEntity
  8
SUPERFICI
100
AcDbLine
 62
7
  6
CONTINUOUS
 10
-45.4192079759
 20
-30.5646349872
 11
-45.39929252
 21
-30.6005904553
  0
LINE
  5
2FD
100
AcDbEntity
  8
SUPERFICI
100
AcDbLine
 62
7
  6
CONTINUOUS
 10
-45.4386138384
 20
-30.5291180004
 11
-45.4192079759
 21
-30.5646349872
  0
LINE
  5
2FE
100
AcDbEntity
  8
SUPERFICI
100
AcDbLine
 62
7
  6
CONTINUOUS
 10
-45.4575329586
 20
-30.4940157006
 11
-45.4386138384
 21
-30.5291180004
  0
LINE
  5
2FF
100
AcDbEntity
  8
SUPERFICI
100
AcDbLine
 62
7
  6
CONTINUOUS
 10
-45.4759875186
 20
-30.4593038765
 11
-45.4575329586
 21
-30.4940157006
  0
LINE
  5
300
100
AcDbEntity
  8
SUPERFICI
100
AcDbLine
 62
7
  6
CONTINUOUS
 10
-45.4939990408
 20
-30.4249579107
 11
-45.4759875186
 21
-30.4593038765
  0
LINE
  5
301
100
AcDbEntity
  8
SUPERFICI
100
AcDbLine
 62
7
  6
CONTINUOUS
 10
-45.5115883961
 20
-30.3909527895
 11
-45.4939990408
 21
-30.4249579107
  0
LINE
  5
302
100
AcDbEntity
  8
SUPERFICI
100
AcDbLine
 62
7
  6
CONTINUOUS
 10
-45.5287758117
 20
-30.3572631113
 11
-45.5115883961
 21
-30.3909527895
  0
LINE
  5
303
100
AcDbEntity
  8
SUPERFICI
100
AcDbLine
 62
7
  6
CONTINUOUS
 10
-45.5455808772
 20
-30.3238630939
 11
-45.5287758117
 21
-30.3572631113
  0
LINE
  5
304
100
AcDbEntity
  8
SUPERFICI
100
AcDbLine
 62
7
  6
CONTINUOUS
 10
-45.5620225492
 20
-30.2907265807
 11
-45.5455808772
 21
-30.3238630939
  0
LINE
  5
305
100
AcDbEntity
  8
SUPERFICI
100
AcDbLine
 62
250
  6
CONTINUOUS
 10
-56.196369255
 20
-9.8215883048
 11
-56.2889928632
 21
-9.6333030063
  0
LINE
  5
306
100
AcDbEntity
  8
SUPERFICI
100
AcDbLine
 62
7
  6
CONTINUOUS
 10
-45.5781184921
 20
-30.257828411
 11
-45.5620225492
 21
-30.2907265807
  0
LINE
  5
307
100
AcDbEntity
  8
SUPERFICI
100
AcDbLine
 62
7
  6
CONTINUOUS
 10
-45.5938751607
 20
-30.2251652702
 11
-45.5781184921
 21
-30.257828411
  0
LINE
  5
308
100
AcDbEntity
  8
SUPERFICI
100
AcDbLine
 62
7
  6
CONTINUOUS
 10
-45.6092789829
 20
-30.1927783339
 11
-45.5938751607
 21
-30.2251652702
  0
LINE
  5
309
100
AcDbEntity
  8
SUPERFICI
100
AcDbLine
 62
7
  6
CONTINUOUS
 10
-45.6243285443
 20
-30.1606885716
 11
-45.6092789829
 21
-30.1927783339
  0
LINE
  5
30A
100
AcDbEntity
  8
SUPERFICI
100
AcDbLine
 62
7
  6
CONTINUOUS
 10
-45.6390274162
 20
-30.1289070463
 11
-45.6243285443
 21
-30.1606885716
  0
LINE
  5
30B
100
AcDbEntity
  8
SUPERFICI
100
AcDbLine
 62
7
  6
CONTINUOUS
 10
-45.6533791287
 20
-30.0974449126
 11
-45.6390274162
 21
-30.1289070463
  0
LINE
  5
30C
100
AcDbEntity
  8
SUPERFICI
100
AcDbLine
 62
7
  6
CONTINUOUS
 10
-45.6673871716
 20
-30.0663134094
 11
-45.6533791287
 21
-30.0974449126
  0
LINE
  5
30D
100
AcDbEntity
  8
SUPERFICI
100
AcDbLine
 62
7
  6
CONTINUOUS
 10
-45.6810705592
 20
-30.0354887663
 11
-45.6673871716
 21
-30.0663134094
  0
LWPOLYLINE
  5
30E
100
AcDbEntity
  8
SUPERFICI
100
AcDbPolyline
 62
250
  6
CONTINUOUS
 90
6
 70
0
 10
-57.8521325891
 20
-17.399494897
 10
-57.8200912112
 20
-17.472977797
 10
-57.7774399826
 20
-17.542112738
 10
-57.7240428029
 20
-17.6054073944
 10
-57.6592287528
 20
-17.6616517289
 10
-57.650141663
 20
-17.6682044009
  0
LINE
  5
30F
100
AcDbEntity
  8
SUPERFICI
100
AcDbLine
 62
7
  6
CONTINUOUS
 10
-45.6944601386
 20
-30.0049191441
 11
-45.6810705592
 21
-30.0354887663
  0
LINE
  5
310
100
AcDbEntity
  8
SUPERFICI
100
AcDbLine
 62
250
  6
CONTINUOUS
 10
-56.2889928632
 20
-9.6333030063
 11
-56.3847703039
 21
-9.4115129364
  0
LINE
  5
311
100
AcDbEntity
  8
SUPERFICI
100
AcDbLine
 62
7
  6
CONTINUOUS
 10
-45.788842296
 20
-29.7468337072
 11
-45.777808406
 21
-29.7722665549
  0
LINE
  5
312
100
AcDbEntity
  8
SUPERFICI
100
AcDbLine
 62
7
  6
CONTINUOUS
 10
-45.7075625067
 20
-29.9746062063
 11
-45.6944601386
 21
-30.0049191441
  0
LINE
  5
313
100
AcDbEntity
  8
SUPERFICI
100
AcDbLine
 62
7
  6
CONTINUOUS
 10
-45.8003228042
 20
-29.7200486924
 11
-45.788842296
 21
-29.7468337072
  0
LINE
  5
314
100
AcDbEntity
  8
SUPERFICI
100
AcDbLine
 62
7
  6
CONTINUOUS
 10
-45.7203830892
 20
-29.9445540687
 11
-45.7075625067
 21
-29.9746062063
  0
LINE
  5
315
100
AcDbEntity
  8
SUPERFICI
100
AcDbLine
 62
7
  6
CONTINUOUS
 10
-45.81231625
 20
-29.6916947052
 11
-45.8003228042
 21
-29.7200486924
  0
LINE
  5
316
100
AcDbEntity
  8
SUPERFICI
100
AcDbLine
 62
7
  6
CONTINUOUS
 10
-45.7329281467
 20
-29.9147646879
 11
-45.7203830892
 21
-29.9445540687
  0
LINE
  5
317
100
AcDbEntity
  8
SUPERFICI
100
AcDbLine
 62
7
  6
CONTINUOUS
 10
-45.8241599414
 20
-29.6633036144
 11
-45.81231625
 21
-29.6916947052
  0
LINE
  5
318
100
AcDbEntity
  8
SUPERFICI
100
AcDbLine
 62
7
  6
CONTINUOUS
 10
-45.7452048054
 20
-29.8852376661
 11
-45.7329281467
 21
-29.9147646879
  0
LINE
  5
319
100
AcDbEntity
  8
SUPERFICI
100
AcDbLine
 62
7
  6
CONTINUOUS
 10
-45.7572211196
 20
-29.8559699802
 11
-45.7452048054
 21
-29.8852376661
  0
LINE
  5
31A
100
AcDbEntity
  8
SUPERFICI
100
AcDbLine
 62
7
  6
CONTINUOUS
 10
-45.8361547021
 20
-29.6341370782
 11
-45.8241599414
 21
-29.6633036144
  0
LINE
  5
31B
100
AcDbEntity
  8
SUPERFICI
100
AcDbLine
 62
7
  6
CONTINUOUS
 10
-45.8463675221
 20
-29.6089627149
 11
-45.8361547021
 21
-29.6341370782
  0
LINE
  5
31C
100
AcDbEntity
  8
SUPERFICI
100
AcDbLine
 62
7
  6
CONTINUOUS
 10
-45.7728537882
 20
-29.8173388284
 11
-45.7572211196
 21
-29.8559699802
  0
LINE
  5
31D
100
AcDbEntity
  8
SUPERFICI
100
AcDbLine
 62
7
  6
CONTINUOUS
 10
-45.8568449371
 20
-29.5827981136
 11
-45.8463675221
 21
-29.6089627149
  0
LINE
  5
31E
100
AcDbEntity
  8
SUPERFICI
100
AcDbLine
 62
7
  6
CONTINUOUS
 10
-45.7880645253
 20
-29.7791340017
 11
-45.7728537882
 21
-29.8173388284
  0
LINE
  5
31F
100
AcDbEntity
  8
SUPERFICI
100
AcDbLine
 62
7
  6
CONTINUOUS
 10
-45.8676245027
 20
-29.5555086274
 11
-45.8568449371
 21
-29.5827981136
  0
LINE
  5
320
100
AcDbEntity
  8
SUPERFICI
100
AcDbLine
 62
7
  6
CONTINUOUS
 10
-45.8028833423
 20
-29.741316002
 11
-45.7880645253
 21
-29.7791340017
  0
LINE
  5
321
100
AcDbEntity
  8
SUPERFICI
100
AcDbLine
 62
7
  6
CONTINUOUS
 10
-45.8786784178
 20
-29.5271196684
 11
-45.8676245027
 21
-29.5555086274
  0
LWPOLYLINE
  5
322
100
AcDbEntity
  8
SUPERFICI
100
AcDbPolyline
 62
250
  6
CONTINUOUS
 90
13
 70
0
 10
-45.9440761854
 20
-29.3419924725
 10
-45.8219616186
 20
-29.6582507602
 10
-45.6718313249
 20
-29.9870079239
 10
-45.4913339515
 20
-30.3231498109
 10
-45.2806037013
 20
-30.6633770509
 10
-45.0406866673
 20
-31.0047659103
 10
-44.7731071442
 20
-31.3438887322
 10
-44.4798540672
 20
-31.6768974311
 10
-44.1628615565
 20
-32.0000999327
 10
-43.818588648
 20
-32.3161222954
 10
-43.439488221
 20
-32.6322547033
 10
-43.0171721072
 20
-32.9572732905
 10
-42.5423505554
 20
-33.3012545642
  0
LINE
  5
323
100
AcDbEntity
  8
SUPERFICI
100
AcDbLine
 62
7
  6
CONTINUOUS
 10
-45.8173453598
 20
-29.7038294047
 11
-45.8028833423
 21
-29.741316002
  0
LINE
  5
324
100
AcDbEntity
  8
SUPERFICI
100
AcDbLine
 62
7
  6
CONTINUOUS
 10
-45.8899684723
 20
-29.4976840671
 11
-45.8786784178
 21
-29.5271196684
  0
LINE
  5
325
100
AcDbEntity
  8
SUPERFICI
100
AcDbLine
 62
7
  6
CONTINUOUS
 10
-45.8314938744
 20
-29.6665942216
 11
-45.8173453598
 21
-29.7038294047
  0
LINE
  5
326
100
AcDbEntity
  8
SUPERFICI
100
AcDbLine
 62
7
  6
CONTINUOUS
 10
-45.8384705559
 20
-29.6480276721
 11
-45.8314938744
 21
-29.6665942216
  0
LINE
  5
327
100
AcDbEntity
  8
SUPERFICI
100
AcDbLine
 62
7
  6
CONTINUOUS
 10
-45.9014577527
 20
-29.4672531715
 11
-45.8899684723
 21
-29.4976840671
  0
LWPOLYLINE
  5
328
100
AcDbEntity
  8
SUPERFICI
100
AcDbPolyline
 62
250
  6
CONTINUOUS
 90
7
 70
0
 10
-56.3847703039
 20
-9.4115129364
 10
-56.4676444268
 20
-9.189489298
 10
-56.5362746716
 20
-8.9712555424
 10
-56.5893004747
 20
-8.7627050808
 10
-56.626709907
 20
-8.5669363857
 10
-56.649015364
 20
-8.3846066513
 10
-56.6564060817
 20
-8.2174241769
  0
LWPOLYLINE
  5
329
100
AcDbEntity
  8
SUPERFICI
100
AcDbPolyline
 62
250
  6
CONTINUOUS
 90
14
 70
0
 10
-57.9621193718
 20
-7.902454724
 10
-57.8408621459
 20
-8.3001861509
 10
-57.6963024866
 20
-8.6992399288
 10
-57.5316745869
 20
-9.0938747619
 10
-57.3480562932
 20
-9.4842255082
 10
-57.1463801018
 20
-9.8698507875
 10
-56.9273171946
 20
-10.2502637088
 10
-56.6936087004
 20
-10.6214286158
 10
-56.4494689796
 20
-10.9779942381
 10
-56.1972263315
 20
-11.3182327029
 10
-55.93885843
 20
-11.6410334572
 10
-55.6785993682
 20
-11.9428473618
 10
-55.4204262467
 20
-12.2212110981
 10
-55.1642961735
 20
-12.478206301
  0
LWPOLYLINE
  5
32A
100
AcDbEntity
  8
SUPERFICI
100
AcDbPolyline
 62
250
  6
CONTINUOUS
 90
10
 70
0
 10
-57.3301347788
 20
-7.6465982517
 10
-57.3682061197
 20
-7.4967725797
 10
-57.4212947638
 20
-7.349456115
 10
-57.4890689546
 20
-7.2053948408
 10
-57.5710808326
 20
-7.0653758777
 10
-57.6668847133
 20
-6.9300310272
 10
-57.7761060767
 20
-6.7998567408
 10
-57.8982553972
 20
-6.6754630651
 10
-58.0326649977
 20
-6.5575469007
 10
-58.1786537861
 20
-6.4467121262
  0
LWPOLYLINE
  5
32B
100
AcDbEntity
  8
SUPERFICI
100
AcDbPolyline
 62
7
  6
CONTINUOUS
 90
12
 70
0
 10
-57.236534427
 20
-8.4159646585
 10
-57.2230672269
 20
-8.4741544414
 10
-57.1424692475
 20
-8.7731042735
 10
-57.0425260507
 20
-9.0748756871
 10
-56.9242236964
 20
-9.3774287399
 10
-56.788351119
 20
-9.6791242219
 10
-56.635548512
 20
-9.9783699194
 10
-56.4669571617
 20
-10.272507046
 10
-56.2836601219
 20
-10.5598085412
 10
-56.0871658552
 20
-10.8388770883
 10
-55.8795648871
 20
-11.1075092308
 10
-55.6622864099
 20
-11.3643544664
  0
LINE
  5
32C
100
AcDbEntity
  8
SUPERFICI
100
AcDbLine
 62
7
  6
CONTINUOUS
 10
-57.236534427
 20
-8.4159646585
 11
-57.2375922318
 21
-8.4112532909
  0
LWPOLYLINE
  5
32D
100
AcDbEntity
  8
SUPERFICI
100
AcDbPolyline
 62
250
  6
CONTINUOUS
 90
4
 70
0
 10
-57.2375922318
 20
-8.4112532909
 10
-57.29055895
 20
-8.1400982454
 10
-57.3203217436
 20
-7.8860283694
 10
-57.3301512165
 20
-7.6465999113
  0
LINE
  5
32E
100
AcDbEntity
  8
SUPERFICI
100
AcDbLine
 62
7
  6
CONTINUOUS
 10
-46.2354936159
 20
-28.0532792584
 11
-46.232453714
 21
-28.0816792708
  0
LINE
  5
32F
100
AcDbEntity
  8
SUPERFICI
100
AcDbLine
 62
7
  6
CONTINUOUS
 10
-46.2384254485
 20
-28.0246277895
 11
-46.2354936159
 21
-28.0532792584
  0
LINE
  5
330
100
AcDbEntity
  8
SUPERFICI
100
AcDbLine
 62
7
  6
CONTINUOUS
 10
-46.2412459718
 20
-27.9957228644
 11
-46.2384254485
 21
-28.0246277895
  0
LINE
  5
331
100
AcDbEntity
  8
SUPERFICI
100
AcDbLine
 62
7
  6
CONTINUOUS
 10
-46.2439516986
 20
-27.9665662442
 11
-46.2412459718
 21
-27.9957228644
  0
LINE
  5
332
100
AcDbEntity
  8
SUPERFICI
100
AcDbLine
 62
7
  6
CONTINUOUS
 10
-46.2465392531
 20
-27.9371603829
 11
-46.2439516986
 21
-27.9665662442
  0
LINE
  5
333
100
AcDbEntity
  8
SUPERFICI
100
AcDbLine
 62
7
  6
CONTINUOUS
 10
-46.2490057825
 20
-27.907503627
 11
-46.2465392531
 21
-27.9371603829
  0
LINE
  5
334
100
AcDbEntity
  8
SUPERFICI
100
AcDbLine
 62
7
  6
CONTINUOUS
 10
-46.2513481805
 20
-27.8775991991
 11
-46.2490057825
 21
-27.907503627
  0
LINE
  5
335
100
AcDbEntity
  8
SUPERFICI
100
AcDbLine
 62
7
  6
CONTINUOUS
 10
-46.2535641803
 20
-27.8474415412
 11
-46.2513481805
 21
-27.8775991991
  0
LWPOLYLINE
  5
336
100
AcDbEntity
  8
SUPERFICI
100
AcDbPolyline
 62
250
  6
CONTINUOUS
 90
6
 70
0
 10
-46.2629068998
 20
-27.687968648
 10
-46.2437306246
 20
-27.968218482
 10
-46.2140652701
 20
-28.2306790938
 10
-46.1724413896
 20
-28.4933054237
 10
-46.1159479781
 20
-28.7618631565
 10
-46.0410641444
 20
-29.0427594464
  0
LINE
  5
337
100
AcDbEntity
  8
SUPERFICI
100
AcDbLine
 62
7
  6
CONTINUOUS
 10
-46.2556516175
 20
-27.817024289
 11
-46.2535641803
 21
-27.8474415412
  0
LINE
  5
338
100
AcDbEntity
  8
SUPERFICI
100
AcDbLine
 62
7
  6
CONTINUOUS
 10
-46.2576083379
 20
-27.7863414977
 11
-46.2556516175
 21
-27.817024289
  0
LINE
  5
339
100
AcDbEntity
  8
SUPERFICI
100
AcDbLine
 62
7
  6
CONTINUOUS
 10
-46.2594322
 20
-27.7553878221
 11
-46.2576083379
 21
-27.7863414977
  0
LINE
  5
33A
100
AcDbEntity
  8
SUPERFICI
100
AcDbLine
 62
7
  6
CONTINUOUS
 10
-46.2611211861
 20
-27.724156709
 11
-46.2594322
 21
-27.7553878221
  0
LINE
  5
33B
100
AcDbEntity
  8
SUPERFICI
100
AcDbLine
 62
7
  6
CONTINUOUS
 10
-46.2628794448
 20
-27.6882094825
 11
-46.2611211861
 21
-27.724156709
  0
LWPOLYLINE
  5
33C
100
AcDbEntity
  8
SUPERFICI
100
AcDbPolyline
 62
7
  6
CONTINUOUS
 90
3
 70
0
 10
-46.2703089176
 20
-27.4915624501
 10
-46.266487477
 20
-27.6031520437
 10
-46.2629068998
 20
-27.687968648
  0
LINE
  5
33D
100
AcDbEntity
  8
SUPERFICI
100
AcDbLine
 62
7
  6
CONTINUOUS
 10
-46.3370096741
 20
-25.3035607152
 11
-46.3056172937
 21
-26.248944695
  0
LINE
  5
33E
100
AcDbEntity
  8
SUPERFICI
100
AcDbLine
 62
7
  6
CONTINUOUS
 10
-46.3056172937
 20
-26.248944695
 11
-46.2861087972
 21
-26.9109327143
  0
LINE
  5
33F
100
AcDbEntity
  8
SUPERFICI
100
AcDbLine
 62
7
  6
CONTINUOUS
 10
-46.3417993256
 20
-25.1325176272
 11
-46.3370096741
 21
-25.3035607152
  0
LINE
  5
340
100
AcDbEntity
  8
SUPERFICI
100
AcDbLine
 62
7
  6
CONTINUOUS
 10
-46.2861087972
 20
-26.9109327143
 11
-46.2703089176
 21
-27.4915624501
  0
LINE
  5
341
100
AcDbEntity
  8
DRAFT
100
AcDbLine
 62
7
  6
CONTINUOUS
 10
-51.7439888944
 20
43.0733017722
 11
-51.7439888944
 21
43.9442232119
  0
LWPOLYLINE
  5
342
100
AcDbEntity
  8
SUPERFICI
100
AcDbPolyline
 62
250
  6
CONTINUOUS
 90
10
 70
0
 10
-54.6391898121
 20
-11.6610504168
 10
-54.6720539469
 20
-11.76104229
 10
-54.69601899
 20
-11.8597193343
 10
-54.7101566415
 20
-11.9554088062
 10
-54.7136188069
 20
-12.0474127003
 10
-54.7054690946
 20
-12.1325866503
 10
-54.6861163658
 20
-12.206490536
 10
-54.6568962425
 20
-12.2677829029
 10
-54.6186373047
 20
-12.3170880151
 10
-54.5840803982
 20
-12.3465429085
  0
LINE
  5
343
100
AcDbEntity
  8
0
100
AcDbLine
 62
7
  6
CONTINUOUS
 10
-55.7530677512
 20
23.168629721
 11
-55.0459590786
 21
23.6686310585
  0
LINE
  5
344
100
AcDbEntity
  8
RACCORDO
100
AcDbLine
 62
250
  6
CONTINUOUS
 10
-54.7138331412
 20
22.9717266355
 11
-54.1227532961
 21
23.3896835131
  0
LINE
  5
345
100
AcDbEntity
  8
RACCORDO
100
AcDbLine
 62
250
  6
CONTINUOUS
 10
-55.7527924438
 20
23.1688242381
 11
-55.7530677512
 21
23.168629721
  0
LWPOLYLINE
  5
346
100
AcDbEntity
  8
SUPERFICI
100
AcDbPolyline
 62
7
  6
CONTINUOUS
 90
5
 70
0
 10
-55.0459590785
 20
23.6686310585
 10
-55.0322935411
 20
23.677920576
 10
-55.0111399874
 20
23.6909288767
 10
-54.9892223555
 20
23.702802183
 10
-54.9665423811
 20
23.7135430734
  0
LWPOLYLINE
  5
347
100
AcDbEntity
  8
SUPERFICI
100
AcDbPolyline
 62
250
  6
CONTINUOUS
 90
3
 70
0
 10
-55.633072231
 20
23.3489401778
 10
-55.722277004
 20
23.2929733493
 10
-55.8218445086
 20
23.2442371349
  0
LWPOLYLINE
  5
348
100
AcDbEntity
  8
DRAFT
100
AcDbPolyline
 62
7
  6
CONTINUOUS
 90
7
 70
0
 10
-62.5498939685
 20
35.8300953076
 10
-62.5789812722
 20
35.8208839661
 10
-62.6711190101
 20
35.8035141838
 10
-62.7678757252
 20
35.7964176832
 10
-62.8689958512
 20
35.7995736667
 10
-62.9740881938
 20
35.8130033333
 10
-63.0208709588
 20
35.8231962724
  0
LWPOLYLINE
  5
349
100
AcDbEntity
  8
SUPERFICI
100
AcDbPolyline
 62
250
  6
CONTINUOUS
 90
10
 70
0
 10
1.2230874275
 20
-54.9629545895
 10
1.1838752296
 20
-54.9523978671
 10
1.1418621423
 20
-54.9442607734
 10
1.0972863899
 20
-54.9385464038
 10
1.0503861327
 20
-54.9352578525
 10
1.0013994677
 20
-54.9343982128
 10
0.9505644283
 20
-54.9359705773
 10
0.8981189841
 20
-54.9399780375
 10
0.8443010414
 20
-54.9464236841
 10
0.7893484426
 20
-54.9553106069
  0
LWPOLYLINE
  5
34A
100
AcDbEntity
  8
SUPERFICI
100
AcDbPolyline
 62
7
  6
CONTINUOUS
 90
6
 70
0
 10
9.7683155663
 20
-55.8163707299
 10
9.9029907061
 20
-55.8554468499
 10
10.0301643115
 20
-55.8794752359
 10
10.1486256355
 20
-55.8879636134
 10
10.259585425
 20
-55.8814042568
 10
10.3617653766
 20
-55.860059412
  0
LINE
  5
34B
100
AcDbEntity
  8
SUPERFICI
100
AcDbLine
 62
7
  6
CONTINUOUS
 10
9.6667243941
 20
-55.7772123777
 11
9.7683155663
 21
-55.8163707299
  0
LWPOLYLINE
  5
34C
100
AcDbEntity
  8
SUPERFICI
100
AcDbPolyline
 62
7
  6
CONTINUOUS
 90
3
 70
0
 10
3.8754786925
 20
-61.1008111402
 10
3.8819901083
 20
-61.1045520764
 10
3.886499208
 20
-61.1071640013
  0
LWPOLYLINE
  5
34D
100
AcDbEntity
  8
SUPERFICI
100
AcDbPolyline
 62
7
  6
CONTINUOUS
 90
5
 70
0
 10
3.8869273513
 20
-61.1074149079
 10
3.887054222
 20
-61.1074893697
 10
3.8877302624
 20
-61.1078930852
 10
3.8895733303
 20
-61.1090202034
 10
3.8928012616
 20
-61.1110335512
  0
LWPOLYLINE
  5
34E
100
AcDbEntity
  8
SUPERFICI
100
AcDbPolyline
 62
7
  6
CONTINUOUS
 90
12
 70
0
 10
22.8045862794
 20
-74.4002896035
 10
22.9754552535
 20
-74.5072592311
 10
23.3348143288
 20
-74.7117623184
 10
23.6923822544
 20
-74.8872578679
 10
24.0510948244
 20
-75.0341231461
 10
24.4083324066
 20
-75.1503341451
 10
24.7566171566
 20
-75.2334250882
 10
25.0936162514
 20
-75.2839086647
 10
25.4216353394
 20
-75.3037310103
 10
25.7396728895
 20
-75.2943014591
 10
26.0456848685
 20
-75.2572032576
 10
26.3433128176
 20
-75.1925769214
  0
LINE
  5
34F
100
AcDbEntity
  8
SUPERFICI
100
AcDbLine
 62
7
  6
CONTINUOUS
 10
3.9097389345
 20
-61.1217410301
 11
3.9495160553
 21
-61.1465230006
  0
LINE
  5
350
100
AcDbEntity
  8
SUPERFICI
100
AcDbLine
 62
7
  6
CONTINUOUS
 10
3.8928012616
 20
-61.1110335512
 11
3.9097389345
 21
-61.1217410301
  0
LINE
  5
351
100
AcDbEntity
  8
SUPERFICI
100
AcDbLine
 62
7
  6
CONTINUOUS
 10
3.9495160553
 20
-61.1465230006
 11
3.9709650899
 21
-61.160090087
  0
LWPOLYLINE
  5
352
100
AcDbEntity
  8
SUPERFICI
100
AcDbPolyline
 62
7
  6
CONTINUOUS
 90
84
 70
0
 10
-6.5980257484
 20
-59.0496854355
 10
-6.5338830336
 20
-59.0906331176
 10
-6.4680652866
 20
-59.1322068842
 10
-6.4004137806
 20
-59.1744723616
 10
-6.3308263748
 20
-59.2174590108
 10
-6.2594271605
 20
-59.2610553283
 10
-6.1864002014
 20
-59.3051150539
 10
-6.111812361
 20
-59.3495607985
 10
-6.0356264886
 20
-59.3943754699
 10
-5.9578707769
 20
-59.4395010279
 10
-5.8786063106
 20
-59.484852669
 10
-5.7976950527
 20
-59.5304511732
 10
-5.7148420142
 20
-59.5763976686
 10
-5.6299621267
 20
-59.6226680237
 10
-5.5429830903
 20
-59.6692272797
 10
-5.4536140523
 20
-59.7161508653
 10
-5.3617091978
 20
-59.7634291115
 10
-5.2671986912
 20
-59.8110112794
 10
-5.1698864861
 20
-59.8589065876
 10
-5.0696156245
 20
-59.9070985749
 10
-4.966260362
 20
-59.9555514728
 10
-4.85965343
 20
-60.0042459102
 10
-4.7497417943
 20
-60.053117299
 10
-4.6364348564
 20
-60.1021250704
 10
-4.5195288548
 20
-60.1512716774
 10
-4.3990150019
 20
-60.2004712516
 10
-4.2748208694
 20
-60.2496621173
 10
-4.1466314042
 20
-60.2988690734
 10
-4.0146865064
 20
-60.3478966901
 10
-3.8786542883
 20
-60.3967624325
 10
-3.7373197233
 20
-60.445767071
 10
-3.5905998469
 20
-60.4947763648
 10
-3.438534706
 20
-60.5436033264
 10
-3.2800555288
 20
-60.5923857789
 10
-3.1141486951
 20
-60.6411740466
 10
-2.9419859367
 20
-60.6893462695
 10
-2.7658380735
 20
-60.7360433359
 10
-2.5851857095
 20
-60.7811974826
 10
-2.4009811188
 20
-60.824354603
 10
-2.2178155473
 20
-60.8644054515
 10
-2.0363186663
 20
-60.9013907869
 10
-1.8565382567
 20
-60.9354781788
 10
-1.6821782074
 20
-60.9661932224
 10
-1.5150461497
 20
-60.9935146617
 10
-1.3536970269
 20
-61.0179484755
 10
-1.1968796856
 20
-61.0398818215
 10
-1.0441647736
 20
-61.0595184971
 10
-0.8956646543
 20
-61.0769487431
 10
-0.7509973879
 20
-61.0923251412
 10
-0.6094976934
 20
-61.1058242269
 10
-0.471063411
 20
-61.1175622445
 10
-0.336214064
 20
-61.1276189548
 10
-0.2049078332
 20
-61.1361351001
 10
-0.0766718466
 20
-61.1432744034
 10
0.0485519286
 20
-61.1491657435
 10
0.1707775976
 20
-61.1538978332
 10
0.2902183531
 20
-61.1575152628
 10
0.4071770021
 20
-61.1600631149
 10
0.5216483798
 20
-61.161582536
 10
0.6336803952
 20
-61.1621222426
 10
0.7436347949
 20
-61.1617341742
 10
0.8514776368
 20
-61.1604738967
 10
0.9571680222
 20
-61.1584011746
 10
1.0610570727
 20
-61.1555654565
 10
1.1630315271
 20
-61.1520235701
 10
1.2630781234
 20
-61.1478307512
 10
1.3617158944
 20
-61.1430124505
 10
1.4587162473
 20
-61.1376019359
 10
1.5538523682
 20
-61.1316220685
 10
1.6476289262
 20
-61.1250476823
 10
1.7398796166
 20
-61.1178943393
 10
1.8304026788
 20
-61.1101933935
 10
1.9197101224
 20
-61.1019151209
 10
2.007741153
 20
-61.0930721403
 10
2.0943007012
 20
-61.0836903854
 10
2.1797209421
 20
-61.07371914
 10
2.2640717703
 20
-61.0631228524
 10
2.3470759154
 20
-61.0519419356
 10
2.428551797
 20
-61.0402345797
 10
2.5083644769
 20
-61.0280434133
 10
2.5864821505
 20
-61.0153797765
 10
2.6628821631
 20
-61.002404281
 10
2.7374835277
 20
-60.9889275438
 10
2.7594019331
 20
-60.9844501891
  0
LINE
  5
353
100
AcDbEntity
  8
SUPERFICI
100
AcDbLine
 62
7
  6
CONTINUOUS
 10
3.9709650899
 20
-61.160090087
 11
4.0029773598
 21
-61.1805915594
  0
LINE
  5
354
100
AcDbEntity
  8
SUPERFICI
100
AcDbLine
 62
7
  6
CONTINUOUS
 10
4.0029773598
 20
-61.1805915594
 11
4.0456204011
 21
-61.2081662665
  0
LINE
  5
355
100
AcDbEntity
  8
SUPERFICI
100
AcDbLine
 62
7
  6
CONTINUOUS
 10
-6.7208817694
 20
-58.9701123247
 11
-6.5980257484
 21
-59.0496854355
  0
LINE
  5
356
100
AcDbEntity
  8
SUPERFICI
100
AcDbLine
 62
7
  6
CONTINUOUS
 10
22.556452593
 20
-74.2381761187
 11
22.8112822468
 21
-74.4045315295
  0
LINE
  5
357
100
AcDbEntity
  8
SUPERFICI
100
AcDbLine
 62
7
  6
CONTINUOUS
 10
4.0456204011
 20
-61.2081662665
 11
4.0886277183
 21
-61.2362581222
  0
LINE
  5
358
100
AcDbEntity
  8
SUPERFICI
100
AcDbLine
 62
7
  6
CONTINUOUS
 10
22.0955646429
 20
-73.9343636281
 11
22.556452593
 21
-74.2381761187
  0
LINE
  5
359
100
AcDbEntity
  8
SUPERFICI
100
AcDbLine
 62
7
  6
CONTINUOUS
 10
4.0886277183
 20
-61.2362581222
 11
4.1326126415
 21
-61.2652884855
  0
LWPOLYLINE
  5
35A
100
AcDbEntity
  8
SUPERFICI
100
AcDbPolyline
 62
250
  6
CONTINUOUS
 90
3
 70
0
 10
3.7177597666
 20
-60.8882713159
 10
3.9471512064
 20
-61.0415032836
 10
4.1862497959
 20
-61.2047603489
  0
LWPOLYLINE
  5
35B
100
AcDbEntity
  8
SUPERFICI
100
AcDbPolyline
 62
7
  6
CONTINUOUS
 90
3
 70
0
 10
-6.8971192601
 20
-58.8534074247
 10
-6.8393251325
 20
-58.8920494998
 10
-6.7208817694
 20
-58.9701123247
  0
LINE
  5
35C
100
AcDbEntity
  8
SUPERFICI
100
AcDbLine
 62
7
  6
CONTINUOUS
 10
21.4603688217
 20
-73.5113374883
 11
22.0955646429
 21
-73.9343636281
  0
LINE
  5
35D
100
AcDbEntity
  8
SUPERFICI
100
AcDbLine
 62
7
  6
CONTINUOUS
 10
4.1326126415
 20
-61.2652884855
 11
4.1778879963
 21
-61.2954849765
  0
LINE
  5
35E
100
AcDbEntity
  8
SUPERFICI
100
AcDbLine
 62
7
  6
CONTINUOUS
 10
20.7989057299
 20
-73.065938343
 11
21.4603688217
 21
-73.5113374883
  0
LINE
  5
35F
100
AcDbEntity
  8
SUPERFICI
100
AcDbLine
 62
7
  6
CONTINUOUS
 10
4.1778879963
 20
-61.2954849765
 11
4.2343242729
 21
-61.3335271632
  0
LINE
  5
360
100
AcDbEntity
  8
SUPERFICI
100
AcDbLine
 62
7
  6
CONTINUOUS
 10
19.9467684105
 20
-72.48572986
 11
20.7989057299
 21
-73.065938343
  0
LINE
  5
361
100
AcDbEntity
  8
SUPERFICI
100
AcDbLine
 62
7
  6
CONTINUOUS
 10
4.2343242729
 20
-61.3335271632
 11
4.2934030123
 21
-61.3737695417
  0
LWPOLYLINE
  5
362
100
AcDbEntity
  8
SUPERFICI
100
AcDbPolyline
 62
250
  6
CONTINUOUS
 90
24
 70
0
 10
-7.1870122708
 20
-58.3012537277
 10
-6.6731144378
 20
-58.6533453526
 10
-6.1795149295
 20
-58.9698985523
 10
-5.7100489263
 20
-59.2495917364
 10
-5.2518721264
 20
-59.4981046435
 10
-4.786720959
 20
-59.7235012872
 10
-4.3082330771
 20
-59.9295011854
 10
-3.8220636386
 20
-60.1154304219
 10
-3.3340476465
 20
-60.2804935625
 10
-2.8501419807
 20
-60.4235435372
 10
-2.3754841598
 20
-60.5436771428
 10
-1.9168365217
 20
-60.641081634
 10
-1.4840179316
 20
-60.7177730913
 10
-1.084785957
 20
-60.7760231545
 10
-0.7173257691
 20
-60.8184251475
 10
-0.3687626051
 20
-60.8479207517
 10
-0.0279254322
 20
-60.8671377645
 10
0.3143582365
 20
-60.8774902302
 10
0.6650357473
 20
-60.8774855639
 10
1.0287202665
 20
-60.8655262569
 10
1.4076816241
 20
-60.8405737939
 10
1.7955413324
 20
-60.8012820049
 10
2.1766128052
 20
-60.7458879708
 10
2.5378780142
 20
-60.6734185865
  0
LWPOLYLINE
  5
363
100
AcDbEntity
  8
SUPERFICI
100
AcDbPolyline
 62
7
  6
CONTINUOUS
 90
3
 70
0
 10
-7.0657885511
 20
-58.7385086198
 10
-7.0124947099
 20
-58.7751409194
 10
-6.8971192601
 20
-58.8534074247
  0
LINE
  5
364
100
AcDbEntity
  8
SUPERFICI
100
AcDbLine
 62
250
  6
CONTINUOUS
 10
-47.8725446666
 20
-24.4054202521
 11
-47.3297302899
 21
-24.7791429668
  0
LINE
  5
365
100
AcDbEntity
  8
SUPERFICI
100
AcDbLine
 62
7
  6
CONTINUOUS
 10
4.2934030123
 20
-61.3737695417
 11
4.3659092904
 21
-61.4236732879
  0
LINE
  5
366
100
AcDbEntity
  8
SUPERFICI
100
AcDbLine
 62
7
  6
CONTINUOUS
 10
18.3476374197
 20
-71.3843038681
 11
19.9467684105
 21
-72.48572986
  0
LWPOLYLINE
  5
367
100
AcDbEntity
  8
SUPERFICI
100
AcDbPolyline
 62
250
  6
CONTINUOUS
 90
4
 70
0
 10
4.1862497959
 20
-61.2047603489
 10
4.4350640433
 20
-61.378066937
 10
4.6940833568
 20
-61.5630832139
 10
5.2399053576
 20
-61.9584858421
  0
LINE
  5
368
100
AcDbEntity
  8
SUPERFICI
100
AcDbLine
 62
7
  6
CONTINUOUS
 10
17.0458302147
 20
-70.4799688555
 11
18.3476374197
 21
-71.3843038681
  0
LINE
  5
369
100
AcDbEntity
  8
SUPERFICI
100
AcDbLine
 62
7
  6
CONTINUOUS
 10
4.3659092904
 20
-61.4236732879
 11
4.4423480273
 21
-61.4768262536
  0
LINE
  5
36A
100
AcDbEntity
  8
SUPERFICI
100
AcDbLine
 62
7
  6
CONTINUOUS
 10
-52.666716203
 20
-21.1525007228
 11
-51.1496697443
 21
-22.2112702832
  0
LWPOLYLINE
  5
36B
100
AcDbEntity
  8
SUPERFICI
100
AcDbPolyline
 62
250
  6
CONTINUOUS
 90
5
 70
0
 10
-47.3297302899
 20
-24.7791429668
 10
-47.0704710202
 20
-24.9603850002
 10
-46.8177524988
 20
-25.1419287602
 10
-46.572320342
 20
-25.321750448
 10
-46.3341495728
 20
-25.4998471727
  0
LINE
  5
36C
100
AcDbEntity
  8
SUPERFICI
100
AcDbLine
 62
7
  6
CONTINUOUS
 10
-48.4273865615
 20
-24.1090267757
 11
-47.0266663611
 21
-25.0879907106
  0
LWPOLYLINE
  5
36D
100
AcDbEntity
  8
SUPERFICI
100
AcDbPolyline
 62
7
  6
CONTINUOUS
 90
4
 70
0
 10
-56.9065845806
 20
-18.1913516504
 10
-56.0067308501
 20
-18.8222546666
 10
-55.1340558763
 20
-19.4322698583
 10
-52.666716203
 20
-21.1525007228
  0
LINE
  5
36E
100
AcDbEntity
  8
SUPERFICI
100
AcDbLine
 62
7
  6
CONTINUOUS
 10
-51.1496697443
 20
-22.2112702832
 11
-48.4273865615
 21
-24.1090267757
  0
LWPOLYLINE
  5
36F
100
AcDbEntity
  8
SUPERFICI
100
AcDbPolyline
 62
250
  6
CONTINUOUS
 90
14
 70
0
 10
16.3474463143
 20
-69.864720189
 10
16.931045652
 20
-70.2748357027
 10
17.4940414755
 20
-70.669069668
 10
18.0373027211
 20
-71.0479296064
 10
18.5612419711
 20
-71.4116480993
 10
19.0663358385
 20
-71.7605196996
 10
19.5538908159
 20
-72.094988556
 10
20.0254590668
 20
-72.41538894
 10
20.4820484732
 20
-72.7218721957
 10
20.9242573028
 20
-73.014501674
 10
21.3526568168
 20
-73.2934882669
 10
21.7675276455
 20
-73.5589939904
 10
22.1688794904
 20
-73.8111317117
 10
22.5566052175
 20
-74.0500486789
  0
LINE
  5
370
100
AcDbEntity
  8
SUPERFICI
100
AcDbLine
 62
7
  6
CONTINUOUS
 10
16.0987331231
 20
-69.8162660289
 11
17.0458302147
 21
-70.4799688555
  0
LINE
  5
371
100
AcDbEntity
  8
SUPERFICI
100
AcDbLine
 62
250
  6
CONTINUOUS
 10
-54.938658823
 20
-19.4515707218
 11
-56.4349986058
 21
-18.4001673549
  0
LWPOLYLINE
  5
372
100
AcDbEntity
  8
SUPERFICI
100
AcDbPolyline
 62
250
  6
CONTINUOUS
 90
3
 70
0
 10
-54.938658823
 20
-19.4515707218
 10
-48.4528844313
 20
-23.9973538151
 10
-47.8725446666
 20
-24.4054202521
  0
LINE
  5
373
100
AcDbEntity
  8
SUPERFICI
100
AcDbLine
 62
7
  6
CONTINUOUS
 10
4.4423480273
 20
-61.4768262536
 11
4.5347301124
 21
-61.5416924759
  0
LINE
  5
374
100
AcDbEntity
  8
SUPERFICI
100
AcDbLine
 62
7
  6
CONTINUOUS
 10
-47.0266663611
 20
-25.0879907106
 11
-46.8692448453
 21
-25.1986885438
  0
LWPOLYLINE
  5
375
100
AcDbEntity
  8
SUPERFICI
100
AcDbPolyline
 62
250
  6
CONTINUOUS
 90
3
 70
0
 10
16.3474463143
 20
-69.864720189
 10
14.4219139104
 20
-68.5051523646
 10
13.7094882691
 20
-67.9998238561
  0
LINE
  5
376
100
AcDbEntity
  8
SUPERFICI
100
AcDbLine
 62
7
  6
CONTINUOUS
 10
-7.1870113017
 20
-58.3012532008
 11
-42.5423498632
 21
-33.3012541878
  0
LINE
  5
377
100
AcDbEntity
  8
SUPERFICI
100
AcDbLine
 62
250
  6
CONTINUOUS
 10
-56.4349986058
 20
-18.4001673549
 11
-57.5908005952
 21
-17.584352487
  0
LINE
  5
378
100
AcDbEntity
  8
SUPERFICI
100
AcDbLine
 62
7
  6
CONTINUOUS
 10
-58.2547751337
 20
-17.2407081108
 11
-56.9065845806
 21
-18.1913516504
  0
LINE
  5
379
100
AcDbEntity
  8
SUPERFICI
100
AcDbLine
 62
7
  6
CONTINUOUS
 10
15.3150442982
 20
-69.262436999
 11
16.0987331231
 21
-69.8162660289
  0
LINE
  5
37A
100
AcDbEntity
  8
SUPERFICI
100
AcDbLine
 62
7
  6
CONTINUOUS
 10
4.5347301124
 20
-61.5416924759
 11
4.6720049559
 21
-61.6390516185
  0
LINE
  5
37B
100
AcDbEntity
  8
SUPERFICI
100
AcDbLine
 62
250
  6
CONTINUOUS
 10
13.7094882691
 20
-67.9998238561
 11
12.2277789795
 21
-66.9454471544
  0
LINE
  5
37C
100
AcDbEntity
  8
SUPERFICI
100
AcDbLine
 62
7
  6
CONTINUOUS
 10
13.9190350604
 20
-68.2685840156
 11
15.3149258297
 21
-69.2623528473
  0
LINE
  5
37D
100
AcDbEntity
  8
SUPERFICI
100
AcDbLine
 62
7
  6
CONTINUOUS
 10
-58.9979470229
 20
-16.7119307484
 11
-58.2547751337
 21
-17.2407081108
  0
LINE
  5
37E
100
AcDbEntity
  8
SUPERFICI
100
AcDbLine
 62
7
  6
CONTINUOUS
 10
-46.8692448453
 20
-25.1986885438
 11
-46.7601046699
 21
-25.2761797908
  0
LINE
  5
37F
100
AcDbEntity
  8
SUPERFICI
100
AcDbLine
 62
250
  6
CONTINUOUS
 10
12.2277789795
 20
-66.9454471544
 11
10.6667947176
 21
-65.8322349538
  0
LINE
  5
380
100
AcDbEntity
  8
SUPERFICI
100
AcDbLine
 62
250
  6
CONTINUOUS
 10
5.2399053576
 20
-61.9584858421
 11
6.1151536108
 21
-62.582474656
  0
LINE
  5
381
100
AcDbEntity
  8
SUPERFICI
100
AcDbLine
 62
7
  6
CONTINUOUS
 10
12.3127608109
 20
-67.1197626119
 11
13.9190350604
 21
-68.2685840156
  0
LWPOLYLINE
  5
382
100
AcDbEntity
  8
SUPERFICI
100
AcDbPolyline
 62
250
  6
CONTINUOUS
 90
3
 70
0
 10
6.1151536108
 20
-62.582474656
 10
6.7420162322
 20
-63.0310740416
 10
10.6667947176
 20
-65.8322349538
  0
LINE
  5
383
100
AcDbEntity
  8
SUPERFICI
100
AcDbLine
 62
7
  6
CONTINUOUS
 10
4.6720049559
 20
-61.6390516185
 11
4.8104281965
 21
-61.7379899485
  0
LINE
  5
384
100
AcDbEntity
  8
SUPERFICI
100
AcDbLine
 62
7
  6
CONTINUOUS
 10
4.9805275986
 20
-61.8599332897
 11
5.8410140306
 21
-62.475634527
  0
LINE
  5
385
100
AcDbEntity
  8
SUPERFICI
100
AcDbLine
 62
7
  6
CONTINUOUS
 10
4.9481858994
 20
-61.8367519225
 11
4.9805275986
 21
-61.8599332897
  0
LINE
  5
386
100
AcDbEntity
  8
SUPERFICI
100
AcDbLine
 62
7
  6
CONTINUOUS
 10
4.8104281965
 20
-61.7379899485
 11
4.8549138002
 21
-61.7698726009
  0
LINE
  5
387
100
AcDbEntity
  8
SUPERFICI
100
AcDbLine
 62
7
  6
CONTINUOUS
 10
4.8549138002
 20
-61.7698726009
 11
4.9481858994
 21
-61.8367519225
  0
LINE
  5
388
100
AcDbEntity
  8
SUPERFICI
100
AcDbLine
 62
7
  6
CONTINUOUS
 10
5.8410140306
 20
-62.475634527
 11
5.9316871642
 21
-62.5406496056
  0
LINE
  5
389
100
AcDbEntity
  8
SUPERFICI
100
AcDbLine
 62
7
  6
CONTINUOUS
 10
-60.1925012982
 20
-15.8548251129
 11
-58.9979470229
 21
-16.7119307484
  0
LINE
  5
38A
100
AcDbEntity
  8
SUPERFICI
100
AcDbLine
 62
7
  6
CONTINUOUS
 10
7.5443910347
 20
-63.7039722232
 11
12.3127608109
 21
-67.1197626119
  0
LINE
  5
38B
100
AcDbEntity
  8
SUPERFICI
100
AcDbLine
 62
7
  6
CONTINUOUS
 10
-46.7601046699
 20
-25.2761797908
 11
-46.6649318438
 21
-25.344404087
  0
LINE
  5
38C
100
AcDbEntity
  8
SUPERFICI
100
AcDbLine
 62
7
  6
CONTINUOUS
 10
-7.0663489368
 20
-58.7381047279
 11
-7.0657885511
 21
-58.7385086198
  0
LINE
  5
38D
100
AcDbEntity
  8
SUPERFICI
100
AcDbLine
 62
7
  6
CONTINUOUS
 10
5.9316871642
 20
-62.5406496056
 11
6.2460276279
 21
-62.7666938245
  0
LINE
  5
38E
100
AcDbEntity
  8
SUPERFICI
100
AcDbLine
 62
7
  6
CONTINUOUS
 10
7.3794077746
 20
-63.585123993
 11
7.5443910347
 21
-63.7039722232
  0
LINE
  5
38F
100
AcDbEntity
  8
SUPERFICI
100
AcDbLine
 62
7
  6
CONTINUOUS
 10
6.2460276279
 20
-62.7666938245
 11
6.3229978833
 21
-62.822183316
  0
LINE
  5
390
100
AcDbEntity
  8
SUPERFICI
100
AcDbLine
 62
7
  6
CONTINUOUS
 10
7.2823888849
 20
-63.515158878
 11
7.3794077746
 21
-63.585123993
  0
LINE
  5
391
100
AcDbEntity
  8
SUPERFICI
100
AcDbLine
 62
7
  6
CONTINUOUS
 10
6.3229978833
 20
-62.822183316
 11
6.4016652857
 21
-62.8789384572
  0
LINE
  5
392
100
AcDbEntity
  8
SUPERFICI
100
AcDbLine
 62
7
  6
CONTINUOUS
 10
7.2185532324
 20
-63.4690966698
 11
7.2823888849
 21
-63.515158878
  0
LINE
  5
393
100
AcDbEntity
  8
SUPERFICI
100
AcDbLine
 62
7
  6
CONTINUOUS
 10
6.4016652857
 20
-62.8789384572
 11
6.4550605841
 21
-62.9174813743
  0
LINE
  5
394
100
AcDbEntity
  8
SUPERFICI
100
AcDbLine
 62
7
  6
CONTINUOUS
 10
6.4550605841
 20
-62.9174813743
 11
6.5092204235
 21
-62.9565903839
  0
LWPOLYLINE
  5
395
100
AcDbEntity
  8
SUPERFICI
100
AcDbPolyline
 62
7
  6
CONTINUOUS
 90
3
 70
0
 10
7.0929613478
 20
-63.3784171029
 10
7.124095084
 20
-63.400902521
 10
7.2185532324
 20
-63.4690966698
  0
LINE
  5
396
100
AcDbEntity
  8
SUPERFICI
100
AcDbLine
 62
7
  6
CONTINUOUS
 10
6.5092204235
 20
-62.9565903839
 11
7.0929613478
 21
-63.3784171029
  0
LWPOLYLINE
  5
397
100
AcDbEntity
  8
SUPERFICI
100
AcDbPolyline
 62
7
  6
CONTINUOUS
 90
3
 70
0
 10
-42.4857796985
 20
-33.6919637004
 10
-42.4433911491
 20
-33.7226573188
 10
-7.066508904
 20
-58.7383107861
  0
LINE
  5
398
100
AcDbEntity
  8
SUPERFICI
100
AcDbLine
 62
7
  6
CONTINUOUS
 10
-61.759264632
 20
-14.7210790599
 11
-60.1925012982
 21
-15.8548251129
  0
LINE
  5
399
100
AcDbEntity
  8
SUPERFICI
100
AcDbLine
 62
7
  6
CONTINUOUS
 10
-46.6649318438
 20
-25.344404087
 11
-46.5824733944
 21
-25.4041027625
  0
LINE
  5
39A
100
AcDbEntity
  8
SUPERFICI
100
AcDbLine
 62
7
  6
CONTINUOUS
 10
-62.5915969968
 20
-14.1135686438
 11
-61.759264632
 21
-14.7210790599
  0
LINE
  5
39B
100
AcDbEntity
  8
SUPERFICI
100
AcDbLine
 62
7
  6
CONTINUOUS
 10
-46.5824733944
 20
-25.4041027625
 11
-46.5117538706
 21
-25.4558101398
  0
LINE
  5
39C
100
AcDbEntity
  8
SUPERFICI
100
AcDbLine
 62
7
  6
CONTINUOUS
 10
-63.1856387476
 20
-13.6758505464
 11
-62.5915969968
 21
-14.1135686438
  0
LINE
  5
39D
100
AcDbEntity
  8
SUPERFICI
100
AcDbLine
 62
7
  6
CONTINUOUS
 10
-42.6467575297
 20
-33.5732219136
 11
-42.4857796985
 21
-33.6919637004
  0
LINE
  5
39E
100
AcDbEntity
  8
SUPERFICI
100
AcDbLine
 62
7
  6
CONTINUOUS
 10
-46.5117538706
 20
-25.4558101398
 11
-46.4519034048
 21
-25.4999897055
  0
LINE
  5
39F
100
AcDbEntity
  8
SUPERFICI
100
AcDbLine
 62
7
  6
CONTINUOUS
 10
-63.7556748873
 20
-13.2515922002
 11
-63.1856387476
 21
-13.6758505464
  0
LINE
  5
3A0
100
AcDbEntity
  8
SUPERFICI
100
AcDbLine
 62
7
  6
CONTINUOUS
 10
-46.4519034048
 20
-25.4999897055
 11
-46.3938298536
 21
-25.5432661753
  0
LINE
  5
3A1
100
AcDbEntity
  8
SUPERFICI
100
AcDbLine
 62
7
  6
CONTINUOUS
 10
-42.7253878667
 20
-33.5145358939
 11
-42.6467575297
 21
-33.5732219136
  0
LINE
  5
3A2
100
AcDbEntity
  8
SUPERFICI
100
AcDbLine
 62
7
  6
CONTINUOUS
 10
-64.2949789091
 20
-12.8458492361
 11
-63.7556748873
 21
-13.2515922002
  0
LWPOLYLINE
  5
3A3
100
AcDbEntity
  8
SUPERFICI
100
AcDbPolyline
 62
7
  6
CONTINUOUS
 90
3
 70
0
 10
-46.3938298536
 20
-25.5432661753
 10
-46.3294596299
 20
-25.5916993284
 10
-46.3274458017
 20
-25.5932226055
  0
LINE
  5
3A4
100
AcDbEntity
  8
SUPERFICI
100
AcDbLine
 62
7
  6
CONTINUOUS
 10
-42.8026378674
 20
-33.4561073728
 11
-42.7253878667
 21
-33.5145358939
  0
LINE
  5
3A5
100
AcDbEntity
  8
SUPERFICI
100
AcDbLine
 62
7
  6
CONTINUOUS
 10
-64.6285347045
 20
-12.5926335962
 11
-64.2949789091
 21
-12.8458492361
  0
LINE
  5
3A6
100
AcDbEntity
  8
SUPERFICI
100
AcDbLine
 62
7
  6
CONTINUOUS
 10
-42.8782193561
 20
-33.3981990537
 11
-42.8026378674
 21
-33.4561073728
  0
LINE
  5
3A7
100
AcDbEntity
  8
SUPERFICI
100
AcDbLine
 62
7
  6
CONTINUOUS
 10
-64.9282974533
 20
-12.362666464
 11
-64.6285347045
 21
-12.5926335962
  0
LINE
  5
3A8
100
AcDbEntity
  8
SUPERFICI
100
AcDbLine
 62
7
  6
CONTINUOUS
 10
-42.9520458715
 20
-33.3409330359
 11
-42.8782193561
 21
-33.3981990537
  0
LINE
  5
3A9
100
AcDbEntity
  8
SUPERFICI
100
AcDbLine
 62
7
  6
CONTINUOUS
 10
-43.0240609338
 20
-33.2843930893
 11
-42.9520458715
 21
-33.3409330359
  0
LWPOLYLINE
  5
3AA
100
AcDbEntity
  8
SUPERFICI
100
AcDbPolyline
 62
250
  6
CONTINUOUS
 90
15
 70
0
 10
-64.7698111516
 20
-12.3361989411
 10
-64.398020885
 20
-12.6307547315
 10
-64.0090569865
 20
-12.9336458289
 10
-63.6027709045
 20
-13.2448714137
 10
-63.178898406
 20
-13.5646533331
 10
-62.7370525927
 20
-13.893456764
 10
-62.2769486075
 20
-14.2318434233
 10
-61.7980357336
 20
-14.5807656829
 10
-61.2994021915
 20
-14.9416323531
 10
-60.7801292176
 20
-15.3155727044
 10
-60.2397192948
 20
-15.7029809168
 10
-59.6777334529
 20
-16.1042265548
 10
-59.0933235093
 20
-16.5200160649
 10
-58.4852140125
 20
-16.9514049904
 10
-57.5908005952
 20
-17.584352487
  0
LWPOLYLINE
  5
3AB
100
AcDbEntity
  8
SUPERFICI
100
AcDbPolyline
 62
250
  6
CONTINUOUS
 90
5
 70
0
 10
-50.5970043229
 20
-22.5978681587
 10
-50.6463337537
 20
-22.5586408409
 10
-50.7012607564
 20
-22.5005854958
 10
-50.7444251434
 20
-22.4369928573
 10
-50.7759795161
 20
-22.3692821621
  0
LINE
  5
3AC
100
AcDbEntity
  8
SUPERFICI
100
AcDbLine
 62
7
  6
CONTINUOUS
 10
-43.0941806535
 20
-33.2286595815
 11
-43.0240609338
 21
-33.2843930893
  0
LINE
  5
3AD
100
AcDbEntity
  8
SUPERFICI
100
AcDbLine
 62
250
  6
CONTINUOUS
 10
-65.1245510562
 20
-12.0501149891
 11
-64.7698111516
 21
-12.3361989411
  0
LINE
  5
3AE
100
AcDbEntity
  8
SUPERFICI
100
AcDbLine
 62
7
  6
CONTINUOUS
 10
-43.1623603491
 20
-33.1737843062
 11
-43.0941806535
 21
-33.2286595815
  0
LWPOLYLINE
  5
3AF
100
AcDbEntity
  8
SUPERFICI
100
AcDbPolyline
 62
250
  6
CONTINUOUS
 90
12
 70
0
 10
-65.1245462561
 20
-12.050110962
 10
-65.2647810149
 20
-11.9356645689
 10
-65.4139207915
 20
-11.8067835445
 10
-65.5705364485
 20
-11.6637163396
 10
-65.7327609087
 20
-11.5065784796
 10
-65.8992234258
 20
-11.3356002805
 10
-66.0691338099
 20
-11.1510796704
 10
-66.2411894006
 20
-10.9520279815
 10
-66.4130396543
 20
-10.7391059633
 10
-66.5828058142
 20
-10.5148073518
 10
-66.7492198371
 20
-10.2794730205
 10
-66.9111070082
 20
-10.0313052949
  0
LINE
  5
3B0
100
AcDbEntity
  8
SUPERFICI
100
AcDbLine
 62
7
  6
CONTINUOUS
 10
-43.2285009862
 20
-33.1198682858
 11
-43.1623603491
 21
-33.1737843062
  0
LINE
  5
3B1
100
AcDbEntity
  8
SUPERFICI
100
AcDbLine
 62
7
  6
CONTINUOUS
 10
-43.2925127107
 20
-33.0670119899
 11
-43.2285009862
 21
-33.1198682858
  0
LINE
  5
3B2
100
AcDbEntity
  8
SUPERFICI
100
AcDbLine
 62
7
  6
CONTINUOUS
 10
-43.3543571998
 20
-33.0152793745
 11
-43.2925127107
 21
-33.0670119899
  0
LINE
  5
3B3
100
AcDbEntity
  8
SUPERFICI
100
AcDbLine
 62
7
  6
CONTINUOUS
 10
-43.4139408438
 20
-32.9647862564
 11
-43.3543571998
 21
-33.0152793745
  0
LINE
  5
3B4
100
AcDbEntity
  8
SUPERFICI
100
AcDbLine
 62
7
  6
CONTINUOUS
 10
-43.4712483389
 20
-32.9155882173
 11
-43.4139408438
 21
-32.9647862564
  0
LINE
  5
3B5
100
AcDbEntity
  8
SUPERFICI
100
AcDbLine
 62
250
  6
CONTINUOUS
 10
-55.1642961735
 20
-12.478206301
 11
-54.9081493533
 21
-12.7172464924
  0
LWPOLYLINE
  5
3B6
100
AcDbEntity
  8
SUPERFICI
100
AcDbPolyline
 62
7
  6
CONTINUOUS
 90
6
 70
0
 10
-55.6622864099
 20
-11.3643544664
 10
-55.4368040749
 20
-11.6078751511
 10
-55.2051628268
 20
-11.8359658017
 10
-54.9686320046
 20
-12.0473250953
 10
-54.7277694854
 20
-12.2410799348
 10
-54.5826525601
 20
-12.347524898
  0
LWPOLYLINE
  5
3B7
100
AcDbEntity
  8
SUPERFICI
100
AcDbPolyline
 62
250
  6
CONTINUOUS
 90
5
 70
0
 10
-54.2820207571
 20
-12.6801206623
 10
-54.3402112522
 20
-12.5808978811
 10
-54.4082369041
 20
-12.4932728546
 10
-54.4857719545
 20
-12.4176225284
 10
-54.5089305129
 20
-12.399681902
  0
LWPOLYLINE
  5
3B8
100
AcDbEntity
  8
DRAFT
100
AcDbPolyline
 62
7
  6
CONTINUOUS
 90
3
 70
0
 10
-68.2303694157
 20
40.1989585945
 10
-68.2639015013
 20
40.2784816979
 10
-68.2878818884
 20
40.3590618879
  0
LINE
  5
3B9
100
AcDbEntity
  8
SUPERFICI
100
AcDbLine
 62
7
  6
CONTINUOUS
 10
-45.910774228
 20
-29.4422103737
 11
-45.9014577527
 21
-29.4672531715
  0
LINE
  5
3BA
100
AcDbEntity
  8
SUPERFICI
100
AcDbLine
 62
7
  6
CONTINUOUS
 10
-45.852244694
 20
-29.6109723136
 11
-45.8384705559
 21
-29.6480276721
  0
LINE
  5
3BB
100
AcDbEntity
  8
SUPERFICI
100
AcDbLine
 62
7
  6
CONTINUOUS
 10
-45.9201888518
 20
-29.4165567595
 11
-45.910774228
 21
-29.4422103737
  0
LINE
  5
3BC
100
AcDbEntity
  8
SUPERFICI
100
AcDbLine
 62
7
  6
CONTINUOUS
 10
-45.8654514854
 20
-29.5749369918
 11
-45.852244694
 21
-29.6109723136
  0
LINE
  5
3BD
100
AcDbEntity
  8
SUPERFICI
100
AcDbLine
 62
7
  6
CONTINUOUS
 10
-45.9296895585
 20
-29.3903014875
 11
-45.9201888518
 21
-29.4165567595
  0
LINE
  5
3BE
100
AcDbEntity
  8
SUPERFICI
100
AcDbLine
 62
7
  6
CONTINUOUS
 10
-45.8778818179
 20
-29.5405363386
 11
-45.8654514854
 21
-29.5749369918
  0
LINE
  5
3BF
100
AcDbEntity
  8
SUPERFICI
100
AcDbLine
 62
7
  6
CONTINUOUS
 10
-45.8895357074
 20
-29.5078295824
 11
-45.8778818179
 21
-29.5405363386
  0
LINE
  5
3C0
100
AcDbEntity
  8
SUPERFICI
100
AcDbLine
 62
7
  6
CONTINUOUS
 10
-45.9440754011
 20
-29.3498113233
 11
-45.9296895585
 21
-29.3903014875
  0
LINE
  5
3C1
100
AcDbEntity
  8
SUPERFICI
100
AcDbLine
 62
7
  6
CONTINUOUS
 10
-45.9031179043
 20
-29.4691198457
 11
-45.8895357074
 21
-29.5078295824
  0
LINE
  5
3C2
100
AcDbEntity
  8
SUPERFICI
100
AcDbLine
 62
7
  6
CONTINUOUS
 10
-45.9537380228
 20
-29.3220939112
 11
-45.9440754011
 21
-29.3498113233
  0
LINE
  5
3C3
100
AcDbEntity
  8
SUPERFICI
100
AcDbLine
 62
7
  6
CONTINUOUS
 10
-45.9157963316
 20
-29.4323756053
 11
-45.9031179043
 21
-29.4691198457
  0
LINE
  5
3C4
100
AcDbEntity
  8
SUPERFICI
100
AcDbLine
 62
7
  6
CONTINUOUS
 10
-45.9634453179
 20
-29.2938051401
 11
-45.9537380228
 21
-29.3220939112
  0
LWPOLYLINE
  5
3C5
100
AcDbEntity
  8
SUPERFICI
100
AcDbPolyline
 62
7
  6
CONTINUOUS
 90
3
 70
0
 10
-45.930070509
 20
-29.3902544202
 10
-45.9277517137
 20
-29.3971532326
 10
-45.9157963316
 20
-29.4323756053
  0
LINE
  5
3C6
100
AcDbEntity
  8
SUPERFICI
100
AcDbLine
 62
7
  6
CONTINUOUS
 10
-45.9731985165
 20
-29.2649147319
 11
-45.9634453179
 21
-29.2938051401
  0
LINE
  5
3C7
100
AcDbEntity
  8
SUPERFICI
100
AcDbLine
 62
7
  6
CONTINUOUS
 10
-45.9830066339
 20
-29.2353660992
 11
-45.9731985165
 21
-29.2649147319
  0
LINE
  5
3C8
100
AcDbEntity
  8
SUPERFICI
100
AcDbLine
 62
250
  6
CONTINUOUS
 10
-46.0410641444
 20
-29.0427594464
 11
-45.9440761854
 21
-29.3419924725
  0
LINE
  5
3C9
100
AcDbEntity
  8
SUPERFICI
100
AcDbLine
 62
7
  6
CONTINUOUS
 10
-45.9928763151
 20
-29.2051052569
 11
-45.9830066339
 21
-29.2353660992
  0
LINE
  5
3CA
100
AcDbEntity
  8
SUPERFICI
100
AcDbLine
 62
7
  6
CONTINUOUS
 10
-46.0028126482
 20
-29.1740782507
 11
-45.9928763151
 21
-29.2051052569
  0
LINE
  5
3CB
100
AcDbEntity
  8
SUPERFICI
100
AcDbLine
 62
7
  6
CONTINUOUS
 10
-46.012820096
 20
-29.1422278845
 11
-46.0028126482
 21
-29.1740782507
  0
LINE
  5
3CC
100
AcDbEntity
  8
SUPERFICI
100
AcDbLine
 62
7
  6
CONTINUOUS
 10
-46.0229003384
 20
-29.1095001431
 11
-46.012820096
 21
-29.1422278845
  0
LINE
  5
3CD
100
AcDbEntity
  8
SUPERFICI
100
AcDbLine
 62
7
  6
CONTINUOUS
 10
-46.0305042235
 20
-29.0843595328
 11
-46.0229003384
 21
-29.1095001431
  0
LINE
  5
3CE
100
AcDbEntity
  8
SUPERFICI
100
AcDbLine
 62
7
  6
CONTINUOUS
 10
-46.0381368194
 20
-29.0587110741
 11
-46.0305042235
 21
-29.0843595328
  0
LINE
  5
3CF
100
AcDbEntity
  8
SUPERFICI
100
AcDbLine
 62
7
  6
CONTINUOUS
 10
-46.0457903397
 20
-29.0325531868
 11
-46.0381368194
 21
-29.0587110741
  0
LINE
  5
3D0
100
AcDbEntity
  8
SUPERFICI
100
AcDbLine
 62
7
  6
CONTINUOUS
 10
-46.0534568827
 20
-29.0058821933
 11
-46.0457903397
 21
-29.0325531868
  0
LINE
  5
3D1
100
AcDbEntity
  8
SUPERFICI
100
AcDbLine
 62
7
  6
CONTINUOUS
 10
-46.0611283097
 20
-28.9786942572
 11
-46.0534568827
 21
-29.0058821933
  0
LINE
  5
3D2
100
AcDbEntity
  8
SUPERFICI
100
AcDbLine
 62
7
  6
CONTINUOUS
 10
-46.068796306
 20
-28.9509852221
 11
-46.0611283097
 21
-28.9786942572
  0
LINE
  5
3D3
100
AcDbEntity
  8
SUPERFICI
100
AcDbLine
 62
7
  6
CONTINUOUS
 10
-46.0764525878
 20
-28.9227498674
 11
-46.068796306
 21
-28.9509852221
  0
LINE
  5
3D4
100
AcDbEntity
  8
SUPERFICI
100
AcDbLine
 62
7
  6
CONTINUOUS
 10
-46.0840898331
 20
-28.8939783167
 11
-46.0764525878
 21
-28.9227498674
  0
LINE
  5
3D5
100
AcDbEntity
  8
SUPERFICI
100
AcDbLine
 62
7
  6
CONTINUOUS
 10
-46.0917016106
 20
-28.8646558599
 11
-46.0840898331
 21
-28.8939783167
  0
LINE
  5
3D6
100
AcDbEntity
  8
SUPERFICI
100
AcDbLine
 62
7
  6
CONTINUOUS
 10
-46.0992810797
 20
-28.8347676271
 11
-46.0917016106
 21
-28.8646558599
  0
LINE
  5
3D7
100
AcDbEntity
  8
SUPERFICI
100
AcDbLine
 62
7
  6
CONTINUOUS
 10
-46.1068210317
 20
-28.8042984692
 11
-46.0992810797
 21
-28.8347676271
  0
LINE
  5
3D8
100
AcDbEntity
  8
SUPERFICI
100
AcDbLine
 62
7
  6
CONTINUOUS
 10
-46.1143139149
 20
-28.7732329009
 11
-46.1068210317
 21
-28.8042984692
  0
LINE
  5
3D9
100
AcDbEntity
  8
SUPERFICI
100
AcDbLine
 62
7
  6
CONTINUOUS
 10
-46.1217518556
 20
-28.741555076
 11
-46.1143139149
 21
-28.7732329009
  0
LINE
  5
3DA
100
AcDbEntity
  8
SUPERFICI
100
AcDbLine
 62
7
  6
CONTINUOUS
 10
-46.1291267373
 20
-28.7092485214
 11
-46.1217518556
 21
-28.741555076
  0
LINE
  5
3DB
100
AcDbEntity
  8
SUPERFICI
100
AcDbLine
 62
7
  6
CONTINUOUS
 10
-46.1364298431
 20
-28.6762978489
 11
-46.1291267373
 21
-28.7092485214
  0
LWPOLYLINE
  5
3DC
100
AcDbEntity
  8
SUPERFICI
100
AcDbPolyline
 62
250
  6
CONTINUOUS
 90
31
 70
0
 10
-57.3301344729
 20
23.7489526286
 10
-57.3399173819
 20
23.7939259629
 10
-57.3510621886
 20
23.8387403348
 10
-57.3635637432
 20
23.8833751272
 10
-57.3774162547
 20
23.9278097542
 10
-57.3926133417
 20
23.9720238268
 10
-57.4091480512
 20
24.0159971601
 10
-57.4270127858
 20
24.0597095653
 10
-57.4461993036
 20
24.1031408893
 10
-57.466698783
 20
24.1462711783
 10
-57.4885017873
 20
24.1890805892
 10
-57.5115982806
 20
24.2315494268
 10
-57.5359776476
 20
24.2736581795
 10
-57.5616286692
 20
24.315387474
 10
-57.5885395415
 20
24.3567181115
 10
-57.6166978992
 20
24.3976311028
 10
-57.6460907871
 20
24.4381076241
 10
-57.6767046821
 20
24.4781290523
 10
-57.7085255199
 20
24.5176769989
 10
-57.7415386625
 20
24.5567332671
 10
-57.7757289233
 20
24.5952798863
 10
-57.8110805968
 20
24.6332991442
 10
-57.8475774226
 20
24.6707735464
 10
-57.8852026132
 20
24.7076858486
 10
-57.9239388864
 20
24.7440190878
 10
-57.9637687309
 20
24.7797568181
 10
-58.0046735389
 20
24.8148823093
 10
-58.0466335612
 20
24.849378623
 10
-58.0896291102
 20
24.8832296731
 10
-58.1336406474
 20
24.9164201873
 10
-58.1786478648
 20
24.9489349364
  0
LINE
  5
3DD
100
AcDbEntity
  8
SUPERFICI
100
AcDbLine
 62
7
  6
CONTINUOUS
 10
-46.1436498861
 20
-28.6426984439
 11
-46.1364298431
 21
-28.6762978489
  0
LINE
  5
3DE
100
AcDbEntity
  8
SUPERFICI
100
AcDbLine
 62
7
  6
CONTINUOUS
 10
-46.1484101121
 20
-28.6199431143
 11
-46.1436498861
 21
-28.6426984439
  0
LINE
  5
3DF
100
AcDbEntity
  8
SUPERFICI
100
AcDbLine
 62
7
  6
CONTINUOUS
 10
-46.153122917
 20
-28.5969072824
 11
-46.1484101121
 21
-28.6199431143
  0
LINE
  5
3E0
100
AcDbEntity
  8
SUPERFICI
100
AcDbLine
 62
7
  6
CONTINUOUS
 10
-46.1577840681
 20
-28.573595258
 11
-46.153122917
 21
-28.5969072824
  0
LWPOLYLINE
  5
3E1
100
AcDbEntity
  8
SUPERFICI
100
AcDbPolyline
 62
250
  6
CONTINUOUS
 90
10
 70
0
 10
-45.8375151378
 20
-21.9851370685
 10
-45.8483310987
 20
-21.929701075
 10
-45.86315563
 20
-21.874689306
 10
-45.8818606184
 20
-21.8203562191
 10
-45.9043181567
 20
-21.766955853
 10
-45.9304005428
 20
-21.7147418298
 10
-45.959980279
 20
-21.6639673555
 10
-45.9929300737
 20
-21.6148852166
 10
-46.0291228414
 20
-21.5677477811
 10
-46.0684317013
 20
-21.5228070007
  0
LINE
  5
3E2
100
AcDbEntity
  8
SUPERFICI
100
AcDbLine
 62
7
  6
CONTINUOUS
 10
-46.1623900594
 20
-28.5500083673
 11
-46.1577840681
 21
-28.573595258
  0
LINE
  5
3E3
100
AcDbEntity
  8
SUPERFICI
100
AcDbLine
 62
7
  6
CONTINUOUS
 10
-46.1669369652
 20
-28.5261507254
 11
-46.1623900594
 21
-28.5500083673
  0
LINE
  5
3E4
100
AcDbEntity
  8
SUPERFICI
100
AcDbLine
 62
7
  6
CONTINUOUS
 10
-46.1714209686
 20
-28.5020267688
 11
-46.1669369652
 21
-28.5261507254
  0
LINE
  5
3E5
100
AcDbEntity
  8
SUPERFICI
100
AcDbLine
 62
7
  6
CONTINUOUS
 10
-46.1758390249
 20
-28.4776376415
 11
-46.1714209686
 21
-28.5020267688
  0
LINE
  5
3E6
100
AcDbEntity
  8
SUPERFICI
100
AcDbLine
 62
7
  6
CONTINUOUS
 10
-46.1801877127
 20
-28.4529873982
 11
-46.1758390249
 21
-28.4776376415
  0
LINE
  5
3E7
100
AcDbEntity
  8
SUPERFICI
100
AcDbLine
 62
7
  6
CONTINUOUS
 10
-46.1844634883
 20
-28.4280819635
 11
-46.1801877127
 21
-28.4529873982
  0
LINE
  5
3E8
100
AcDbEntity
  8
SUPERFICI
100
AcDbLine
 62
7
  6
CONTINUOUS
 10
-46.1886637157
 20
-28.4029231873
 11
-46.1844634883
 21
-28.4280819635
  0
LINE
  5
3E9
100
AcDbEntity
  8
SUPERFICI
100
AcDbLine
 62
7
  6
CONTINUOUS
 10
-46.1927850852
 20
-28.3775181808
 11
-46.1886637157
 21
-28.4029231873
  0
LINE
  5
3EA
100
AcDbEntity
  8
SUPERFICI
100
AcDbLine
 62
7
  6
CONTINUOUS
 10
-46.1968256947
 20
-28.3518667416
 11
-46.1927850852
 21
-28.3775181808
  0
LINE
  5
3EB
100
AcDbEntity
  8
SUPERFICI
100
AcDbLine
 62
7
  6
CONTINUOUS
 10
-46.2007840188
 20
-28.3259671021
 11
-46.1968256947
 21
-28.3518667416
  0
LINE
  5
3EC
100
AcDbEntity
  8
SUPERFICI
100
AcDbLine
 62
7
  6
CONTINUOUS
 10
-46.2046583265
 20
-28.2998197066
 11
-46.2007840188
 21
-28.3259671021
  0
LINE
  5
3ED
100
AcDbEntity
  8
SUPERFICI
100
AcDbLine
 62
7
  6
CONTINUOUS
 10
-46.2084470095
 20
-28.2734252903
 11
-46.2046583265
 21
-28.2998197066
  0
LINE
  5
3EE
100
AcDbEntity
  8
SUPERFICI
100
AcDbLine
 62
7
  6
CONTINUOUS
 10
-46.2121490008
 20
-28.2467818955
 11
-46.2084470095
 21
-28.2734252903
  0
LINE
  5
3EF
100
AcDbEntity
  8
SUPERFICI
100
AcDbLine
 62
7
  6
CONTINUOUS
 10
-46.2157629966
 20
-28.2198903231
 11
-46.2121490008
 21
-28.2467818955
  0
LINE
  5
3F0
100
AcDbEntity
  8
SUPERFICI
100
AcDbLine
 62
7
  6
CONTINUOUS
 10
-46.2192879037
 20
-28.1927511445
 11
-46.2157629966
 21
-28.2198903231
  0
LINE
  5
3F1
100
AcDbEntity
  8
SUPERFICI
100
AcDbLine
 62
7
  6
CONTINUOUS
 10
-46.2227228047
 20
-28.1653615841
 11
-46.2192879037
 21
-28.1927511445
  0
LINE
  5
3F2
100
AcDbEntity
  8
SUPERFICI
100
AcDbLine
 62
7
  6
CONTINUOUS
 10
-46.2260646547
 20
-28.1377196817
 11
-46.2227228047
 21
-28.1653615841
  0
LINE
  5
3F3
100
AcDbEntity
  8
SUPERFICI
100
AcDbLine
 62
7
  6
CONTINUOUS
 10
-46.2293094589
 20
-28.1098264031
 11
-46.2260646547
 21
-28.1377196817
  0
LINE
  5
3F4
100
AcDbEntity
  8
SUPERFICI
100
AcDbLine
 62
7
  6
CONTINUOUS
 10
-46.232453714
 20
-28.0816792708
 11
-46.2293094589
 21
-28.1098264031
  0
LWPOLYLINE
  5
3F5
100
AcDbEntity
  8
SUPERFICI
100
AcDbPolyline
 62
7
  6
CONTINUOUS
 90
8
 70
0
 10
-46.3459222372
 20
-24.5551746172
 10
-46.3466914419
 20
-24.6353753488
 10
-46.3470203604
 20
-24.7051159368
 10
-46.3470164498
 20
-24.7706904402
 10
-46.346686685
 20
-24.8378539163
 10
-46.3460116124
 20
-24.9074922308
 10
-46.3449943402
 20
-24.9786535258
 10
-46.3417993256
 20
-25.1325176272
  0
LWPOLYLINE
  5
3F6
100
AcDbEntity
  8
SUPERFICI
100
AcDbPolyline
 62
7
  6
CONTINUOUS
 90
16
 70
0
 10
-46.3039116663
 20
-23.5904259045
 10
-46.3071354038
 20
-23.6260599674
 10
-46.3111883162
 20
-23.6735048735
 10
-46.3150273811
 20
-23.721651415
 10
-46.3186412393
 20
-23.7704165238
 10
-46.3220258182
 20
-23.8198121383
 10
-46.3251875981
 20
-23.8700468524
 10
-46.3281085972
 20
-23.9209532244
 10
-46.3307878935
 20
-23.9726144578
 10
-46.3332435277
 20
-24.0255569723
 10
-46.3354298812
 20
-24.0788981212
 10
-46.3373771768
 20
-24.1333980612
 10
-46.3391603661
 20
-24.1917109609
 10
-46.340714029
 20
-24.2528229471
 10
-46.3420499629
 20
-24.3167419788
 10
-46.3459222372
 20
-24.5551746172
  0
LWPOLYLINE
  5
3F7
100
AcDbEntity
  8
SUPERFICI
100
AcDbPolyline
 62
250
  6
CONTINUOUS
 90
7
 70
0
 10
-46.3039116663
 20
-23.5904259045
 10
-46.2610885424
 20
-23.2453558121
 10
-46.1908799088
 20
-22.8919471645
 10
-46.1062046462
 20
-22.5878188678
 10
-46.0192207722
 20
-22.3470164589
 10
-45.9379323027
 20
-22.1606382031
 10
-45.8375151405
 20
-21.985137063
  0
LINE
  5
3F8
100
AcDbEntity
  8
SUPERFICI
100
AcDbLine
 62
250
  6
CONTINUOUS
 10
-54.6006899071
 20
-11.5670412997
 11
-54.6391898121
 21
-11.6610504168
  0
LWPOLYLINE
  5
3F9
100
AcDbEntity
  8
SUPERFICI
100
AcDbPolyline
 62
7
  6
CONTINUOUS
 90
14
 70
0
 10
-54.9665423811
 20
23.7135430734
 10
-54.943151667
 20
23.7231271097
 10
-54.9190485946
 20
23.7315516577
 10
-54.8942347825
 20
23.7388193517
 10
-54.8687666881
 20
23.7449136556
 10
-54.8426428218
 20
23.7498318979
 10
-54.8158646732
 20
23.7535767503
 10
-54.7884931694
 20
23.7561396922
 10
-54.7605269593
 20
23.7575180325
 10
-54.7319673939
 20
23.7577144625
 10
-54.7028794535
 20
23.7567285351
 10
-54.6732619348
 20
23.7545575582
 10
-54.6431160411
 20
23.7512042239
 10
-54.6327517943
 20
23.74967085
  0
LWPOLYLINE
  5
3FA
100
AcDbEntity
  8
SUPERFICI
100
AcDbPolyline
 62
250
  6
CONTINUOUS
 90
3
 70
0
 10
-55.8218445086
 20
23.2442371349
 10
-55.930693291
 20
23.2038337317
 10
-56.048664886
 20
23.1725439744
  0
LWPOLYLINE
  5
3FB
100
AcDbEntity
  8
SUPERFICI
100
AcDbPolyline
 62
250
  6
CONTINUOUS
 90
18
 70
0
 10
8.8758136397
 20
-57.2091545551
 10
9.109199982
 20
-57.3443191777
 10
9.3413165514
 20
-57.4582432295
 10
9.5706978916
 20
-57.5495778474
 10
9.7950484533
 20
-57.616757386
 10
10.0113855286
 20
-57.6584315229
 10
10.2178608095
 20
-57.6739490752
 10
10.4127569523
 20
-57.662872509
 10
10.5936336416
 20
-57.6251757294
 10
10.7590654753
 20
-57.5611656234
 10
10.9077497453
 20
-57.4713569752
 10
11.0380013948
 20
-57.3570074431
 10
11.1490532919
 20
-57.2193030141
 10
11.2402713327
 20
-57.0596409588
 10
11.3109302998
 20
-56.8804750795
 10
11.3609943976
 20
-56.6840674733
 10
11.3907860534
 20
-56.4721118709
 10
11.4006575229
 20
-56.2466182898
  0
LWPOLYLINE
  5
3FC
100
AcDbEntity
  8
RACCORDO
100
AcDbPolyline
 62
250
  6
CONTINUOUS
 90
13
 70
0
 10
8.3600876108
 20
-55.2966029055
 10
8.458432966
 20
-55.3575884182
 10
8.5671943941
 20
-55.4089753137
 10
8.6845109575
 20
-55.4498843484
 10
8.8083753376
 20
-55.4796155573
 10
8.9366681808
 20
-55.4976602315
 10
9.0671943614
 20
-55.5037096215
 10
9.1977205408
 20
-55.4976602207
 10
9.3260133803
 20
-55.479615536
 10
9.4498777541
 20
-55.449884317
 10
9.567194309
 20
-55.408975273
 10
9.6759557264
 20
-55.3575883689
 10
9.7743010689
 20
-55.2966028488
  0
LWPOLYLINE
  5
3FD
100
AcDbEntity
  8
SUPERFICI
100
AcDbPolyline
 62
250
  6
CONTINUOUS
 90
6
 70
0
 10
-67.6995646125
 20
-8.3747545354
 10
-67.7678888084
 20
-8.3311526999
 10
-67.8298609162
 20
-8.2774834725
 10
-67.8834843574
 20
-8.2138969615
 10
-67.9269310255
 20
-8.1398200423
 10
-67.9494543528
 20
-8.0826423535
  0
LINE
  5
3FE
100
AcDbEntity
  8
SUPERFICI
100
AcDbLine
 62
250
  6
CONTINUOUS
 10
8.8477378429
 20
-57.1911825859
 11
8.8758136397
 21
-57.2091545551
  0
LWPOLYLINE
  5
3FF
100
AcDbEntity
  8
SUPERFICI
100
AcDbPolyline
 62
250
  6
CONTINUOUS
 90
7
 70
0
 10
-2.7818275805
 20
-50.5980078912
 10
-3.3631663508
 20
-50.2173782253
 10
-3.6964487554
 20
-49.9976570926
 10
-4.0360769672
 20
-49.7712641933
 10
-4.3635764363
 20
-49.5492807382
 10
-4.6853780706
 20
-49.3269649337
 10
-5.0206273501
 20
-49.0914871249
  0
LWPOLYLINE
  5
400
100
AcDbEntity
  8
SUPERFICI
100
AcDbPolyline
 62
250
  6
CONTINUOUS
 90
10
 70
0
 10
13.0976956153
 20
-56.8467021261
 10
12.9414011857
 20
-56.7437432224
 10
12.7748951059
 20
-56.6487845257
 10
12.5989814203
 20
-56.562345688
 10
12.4144076822
 20
-56.484867122
 10
12.2221852171
 20
-56.416836674
 10
12.0236253817
 20
-56.3587297529
 10
11.8198732903
 20
-56.3108574384
 10
11.6118620583
 20
-56.2734222653
 10
11.4006598692
 20
-56.2466066662
  0
LWPOLYLINE
  5
401
100
AcDbEntity
  8
RACCORDO
100
AcDbPolyline
 62
250
  6
CONTINUOUS
 90
19
 70
0
 10
7.79440126
 20
-55.4622886097
 10
7.8441820784
 20
-55.4952352098
 10
7.8929029756
 20
-55.5232828
 10
7.9405639515
 20
-55.5464313804
 10
7.987524462
 20
-55.564794039
 10
8.0334250512
 20
-55.5782576878
 10
8.0771873517
 20
-55.5864830626
 10
8.118752606
 20
-55.5893425465
 10
8.1581795715
 20
-55.5869637565
 10
8.194566153
 20
-55.5793902792
 10
8.2278449793
 20
-55.5664860687
 10
8.2580834216
 20
-55.548387171
 10
8.2845814975
 20
-55.525545311
 10
8.3072367938
 20
-55.4978589339
 10
8.3261517237
 20
-55.4654295947
 10
8.3409335446
 20
-55.4290136832
 10
8.3514513423
 20
-55.3888633295
 10
8.3578360311
 20
-55.3447264036
 10
8.3600876108
 20
-55.2966029055
  0
LWPOLYLINE
  5
402
100
AcDbEntity
  8
SUPERFICI
100
AcDbPolyline
 62
250
  6
CONTINUOUS
 90
18
 70
0
 10
8.5761582967
 20
-56.3610453526
 10
8.7342864993
 20
-56.4658161002
 10
8.8974019179
 20
-56.5598034595
 10
9.0637946999
 20
-56.6414727919
 10
9.2325595767
 20
-56.7095395309
 10
9.4006758541
 20
-56.7617418244
 10
9.56322485
 20
-56.7958178393
 10
9.7171451474
 20
-56.8107929917
 10
9.8617363348
 20
-56.8060862153
 10
9.9957489627
 20
-56.7806603806
 10
10.1174036662
 20
-56.7337704356
 10
10.2260584626
 20
-56.6665467705
 10
10.3218229886
 20
-56.5801973152
 10
10.4046812921
 20
-56.4753641784
 10
10.4732946362
 20
-56.3541762673
 10
10.5263045168
 20
-56.2206043329
 10
10.5637007758
 20
-56.0777312343
 10
10.5859972867
 20
-55.9269398449
  0
LWPOLYLINE
  5
403
100
AcDbEntity
  8
SUPERFICI
100
AcDbPolyline
 62
250
  6
CONTINUOUS
 90
22
 70
0
 10
9.0671713813
 20
-58.0271214376
 10
9.3217528708
 20
-58.1990086869
 10
9.5833243207
 20
-58.3587669007
 10
9.8506244402
 20
-58.5040409269
 10
10.1203397662
 20
-58.6315866638
 10
10.392716147
 20
-58.7400052278
 10
10.6711491819
 20
-58.8281854853
 10
10.9589722713
 20
-58.8930430496
 10
11.2465462857
 20
-58.9279111549
 10
11.5186007911
 20
-58.9290943851
 10
11.7714080439
 20
-58.8972131623
 10
12.0056574428
 20
-58.8328551472
 10
12.21583764
 20
-58.7389107148
 10
12.3996875194
 20
-58.6197744318
 10
12.5602152477
 20
-58.4771283047
 10
12.700272904
 20
-58.3103999524
 10
12.8197026472
 20
-58.1205037157
 10
12.9178906851
 20
-57.9092889065
 10
12.9954678062
 20
-57.6755908473
 10
13.0518663018
 20
-57.4193970866
 10
13.0861092553
 20
-57.1426769554
 10
13.0976729429
 20
-56.8467181314
  0
LINE
  5
404
100
AcDbEntity
  8
SUPERFICI
100
AcDbLine
 62
7
  6
CONTINUOUS
 10
8.6330696245
 20
-57.047799649
 11
8.7697778575
 21
-57.1410260182
  0
LINE
  5
405
100
AcDbEntity
  8
SUPERFICI
100
AcDbLine
 62
7
  6
CONTINUOUS
 10
-5.0206304066
 20
-49.0914880367
 11
-40.3756364222
 21
-24.0906598027
  0
LINE
  5
406
100
AcDbEntity
  8
SUPERFICI
100
AcDbLine
 62
250
  6
CONTINUOUS
 10
-4.8630759445
 20
-48.1774338622
 11
9.0671940333
 21
-58.0271054229
  0
LINE
  5
407
100
AcDbEntity
  8
SUPERFICI
100
AcDbLine
 62
250
  6
CONTINUOUS
 10
-54.1481522048
 20
-13.3271054229
 11
-40.7741930098
 21
-22.7842486229
  0
LINE
  5
408
100
AcDbEntity
  8
SUPERFICI
100
AcDbLine
 62
7
  6
CONTINUOUS
 10
8.6321018192
 20
-57.0471314747
 11
-54.5840803982
 21
-12.3465429085
  0
LINE
  5
409
100
AcDbEntity
  8
RACCORDO
100
AcDbLine
 62
7
  6
CONTINUOUS
 10
-55.2911868305
 20
-11.0787862428
 11
7.9241577343
 21
-55.7787850596
  0
LINE
  5
40A
100
AcDbEntity
  8
RACCORDO
100
AcDbLine
 62
250
  6
CONTINUOUS
 10
-55.420943335
 20
-10.7622897715
 11
7.79440126
 21
-55.4622886097
  0
LINE
  5
40B
100
AcDbEntity
  8
SUPERFICI
100
AcDbLine
 62
250
  6
CONTINUOUS
 10
-40.7741930098
 20
-22.7842486229
 11
-40.2177494846
 21
-23.1779044618
  0
LINE
  5
40C
100
AcDbEntity
  8
SUPERFICI
100
AcDbLine
 62
250
  6
CONTINUOUS
 10
-4.3253951657
 20
-48.5667777421
 11
-4.8748685224
 21
-48.1691995236
  0
LWPOLYLINE
  5
40D
100
AcDbEntity
  8
SUPERFICI
100
AcDbPolyline
 62
250
  6
CONTINUOUS
 90
16
 70
0
 10
25.240239962
 20
-74.0931047518
 10
25.3573440279
 20
-74.1806332815
 10
25.4919952702
 20
-74.266005416
 10
25.6430369538
 20
-74.3471483634
 10
25.8108342856
 20
-74.4224650724
 10
25.9918461459
 20
-74.4882892731
 10
26.1777881713
 20
-74.5401750017
 10
26.3624853005
 20
-74.5758736369
 10
26.5464228374
 20
-74.594853051
 10
26.730794622
 20
-74.596921966
 10
26.9158954737
 20
-74.5824698407
 10
27.0957680757
 20
-74.5523466099
 10
27.2627279921
 20
-74.5090969122
 10
27.4132638612
 20
-74.4554973481
 10
27.5472000296
 20
-74.3931958263
 10
27.6629604112
 20
-74.3240363962
  0
LWPOLYLINE
  5
40E
100
AcDbEntity
  8
SUPERFICI
100
AcDbPolyline
 62
250
  6
CONTINUOUS
 90
3
 70
0
 10
-54.6391879414
 20
-11.6610453526
 10
-54.7973129512
 20
-11.5421913098
 10
-54.9604194053
 20
-11.4055049733
  0
LWPOLYLINE
  5
40F
100
AcDbEntity
  8
RACCORDO
100
AcDbPolyline
 62
7
  6
CONTINUOUS
 90
13
 70
0
 10
-55.2911868413
 20
-11.0787864438
 10
-55.4358397338
 20
-10.9667545407
 10
-55.5689673525
 20
-10.8450656438
 10
-55.6910208314
 20
-10.7154718598
 10
-55.8024079501
 20
-10.5791728469
 10
-55.9036524223
 20
-10.4365367305
 10
-55.9950842915
 20
-10.2872872954
 10
-56.0772076248
 20
-10.1294373421
 10
-56.1478021414
 20
-9.9649936862
 10
-56.2039402626
 20
-9.7992331936
 10
-56.2449526946
 20
-9.6334795401
 10
-56.2706051233
 20
-9.4658490455
 10
-56.2795230089
 20
-9.2966026886
  0
LWPOLYLINE
  5
410
100
AcDbEntity
  8
RACCORDO
100
AcDbPolyline
 62
250
  6
CONTINUOUS
 90
7
 70
0
 10
-55.9866296858
 20
-9.7966027714
 10
-56.0728745344
 20
-9.7270636461
 10
-56.1455457641
 20
-9.6501592
 10
-56.2033998158
 20
-9.567205161
 10
-56.2454466306
 20
-9.4796207799
 10
-56.270966578
 20
-9.3889045866
 10
-56.2795228003
 20
-9.2966087559
  0
LWPOLYLINE
  5
411
100
AcDbEntity
  8
SUPERFICI
100
AcDbPolyline
 62
250
  6
CONTINUOUS
 90
4
 70
0
 10
-54.9081493533
 20
-12.7172464924
 10
-54.6520348938
 20
-12.9390740598
 10
-54.3983462275
 20
-13.1423705377
 10
-54.1481748581
 20
-13.3271214367
  0
LWPOLYLINE
  5
412
100
AcDbEntity
  8
SUPERFICI
100
AcDbPolyline
 62
250
  6
CONTINUOUS
 90
4
 70
0
 10
-54.9604194053
 20
-11.4055049733
 10
-55.1267987984
 20
-11.2518688485
 10
-55.2955472412
 20
-11.0812776369
 10
-55.3133701356
 20
-11.0616057526
  0
LWPOLYLINE
  5
413
100
AcDbEntity
  8
SUPERFICI
100
AcDbPolyline
 62
250
  6
CONTINUOUS
 90
8
 70
0
 10
-68.0446796719
 20
17.9771758486
 10
-68.1152920575
 20
18.0654969266
 10
-68.1797137232
 20
18.1658049218
 10
-68.2359907482
 20
18.2771992943
 10
-68.2823656762
 20
18.3998622422
 10
-68.3157023557
 20
18.5311823367
 10
-68.3330166431
 20
18.6652529609
 10
-68.3352716514
 20
18.7338170547
  0
LINE
  5
414
100
AcDbEntity
  8
DRAFT
100
AcDbLine
 62
7
  6
CONTINUOUS
 10
-68.1891193201
 20
40.1220292037
 11
-68.2303694157
 21
40.1989585945
  0
LWPOLYLINE
  5
415
100
AcDbEntity
  8
SUPERFICI
100
AcDbPolyline
 62
250
  6
CONTINUOUS
 90
4
 70
0
 10
-54.6735040671
 20
23.8255173406
 10
-54.6974905289
 20
23.8927998775
 10
-54.7108565961
 20
23.9696802591
 10
-54.7134840431
 20
24.0549012911
  0
LWPOLYLINE
  5
416
100
AcDbEntity
  8
SUPERFICI
100
AcDbPolyline
 62
250
  6
CONTINUOUS
 90
8
 70
0
 10
-42.5423512476
 20
-33.3012549405
 10
-42.5508010011
 20
-33.3875821957
 10
-42.5500079874
 20
-33.468141419
 10
-42.5398698304
 20
-33.5417914292
 10
-42.520353651
 20
-33.6076014821
 10
-42.4916235273
 20
-33.6644038977
 10
-42.4542460057
 20
-33.7110304985
 10
-42.4216912223
 20
-33.7381049475
  0
LWPOLYLINE
  5
417
100
AcDbEntity
  8
SUPERFICI
100
AcDbPolyline
 62
250
  6
CONTINUOUS
 90
16
 70
0
 10
25.4381431686
 20
-48.1251621064
 10
25.5632583726
 20
-48.1751852039
 10
25.7052540279
 20
-48.2208018285
 10
25.862851091
 20
-48.2606352623
 10
26.0362899083
 20
-48.2934472776
 10
26.2218927163
 20
-48.3170328512
 10
26.4113642325
 20
-48.3292942852
 10
26.5985970037
 20
-48.329454147
 10
26.7840618276
 20
-48.3170524312
 10
26.968953503
 20
-48.2917632229
 10
27.1535990558
 20
-48.2538152715
 10
27.3322893181
 20
-48.204657094
 10
27.4977458386
 20
-48.1472234091
 10
27.6467002931
 20
-48.0840474874
 10
27.7790357179
 20
-48.0163740496
 10
27.8932805112
 20
-47.945796288
  0
LWPOLYLINE
  5
418
100
AcDbEntity
  8
SUPERFICI
100
AcDbPolyline
 62
250
  6
CONTINUOUS
 90
10
 70
0
 10
25.4381431686
 20
-48.1251621064
 10
23.9635788624
 20
-47.4500054524
 10
22.5119184572
 20
-46.7481836867
 10
21.084424992
 20
-46.0204112813
 10
19.682361494
 20
-45.2674024034
 10
18.3069909876
 20
-44.4898710672
 10
16.9595766567
 20
-43.6885314309
 10
15.641381845
 20
-42.8640977974
 10
14.3536698953
 20
-42.0172844718
 10
13.0977041421
 20
-41.1488057545
  0
LWPOLYLINE
  5
419
100
AcDbEntity
  8
SUPERFICI
100
AcDbPolyline
 62
250
  6
CONTINUOUS
 90
4
 70
0
 10
8.6312658403
 20
-57.0465429087
 10
8.5965620435
 20
-57.0169381098
 10
8.5582979434
 20
-56.9675345399
 10
8.529152086
 20
-56.9062757708
  0
LINE
  5
41A
100
AcDbEntity
  8
SUPERFICI
100
AcDbLine
 62
250
  6
CONTINUOUS
 10
-54.6391827955
 20
23.7689468165
 11
-54.6735040671
 21
23.8255173406
  0
LWPOLYLINE
  5
41B
100
AcDbEntity
  8
0
100
AcDbPolyline
 62
7
  6
CONTINUOUS
 90
10
 70
0
 10
-28.4193410673
 20
14.6769041819
 10
-28.3924797309
 20
14.3733082589
 10
-28.3635483432
 20
14.0682208119
 10
-28.3325469043
 20
13.761641841
 10
-28.2994817874
 20
13.4535383406
 10
-28.2643466192
 20
13.1439433162
 10
-28.2271222803
 20
12.8329557844
 10
-28.1878023975
 20
12.5206087509
 10
-28.1463933438
 20
12.2068692101
 10
-28.1028951194
 20
11.8917371619
  0
LWPOLYLINE
  5
41C
100
AcDbEntity
  8
0
100
AcDbPolyline
 62
7
  6
CONTINUOUS
 90
10
 70
0
 10
-26.5562427956
 20
9.6930819482
 10
-26.5185861613
 20
10.0660030205
 10
-26.4774057341
 20
10.4383894781
 10
-26.4327015141
 20
10.8102413213
 10
-26.3844080263
 20
11.1816923066
 10
-26.3325907456
 20
11.5526086773
 10
-26.2774460965
 20
11.9225891632
 10
-26.2190395538
 20
12.2915000076
 10
-26.1573056428
 20
12.6594749671
 10
-26.0922443634
 20
13.0265140417
  0
LWPOLYLINE
  5
41D
100
AcDbEntity
  8
0
100
AcDbPolyline
 62
7
  6
CONTINUOUS
 90
10
 70
0
 10
-25.922382263
 20
9.2912648074
 10
-25.8849960131
 20
9.6611208681
 10
-25.843949853
 20
10.0312879619
 10
-25.7992437826
 20
10.4017660888
 10
-25.7508197679
 20
10.7727252894
 10
-25.698735843
 20
11.1439955231
 10
-25.6431661098
 20
11.5150666681
 10
-25.5841686021
 20
11.8857686839
 10
-25.5216852861
 20
12.256271611
 10
-25.4557161618
 20
12.6265754495
  0
LINE
  5
41E
100
AcDbEntity
  8
SCATOLA
100
AcDbLine
 62
7
  6
CONTINUOUS
 10
-24.917590066
 20
53.7438639433
 11
-24.9732625893
 21
53.3018648974
  0
LWPOLYLINE
  5
41F
100
AcDbEntity
  8
0
100
AcDbPolyline
 62
7
  6
CONTINUOUS
 90
10
 70
0
 10
-25.4918405338
 20
12.6010316611
 10
-25.557716781
 20
12.2308266974
 10
-25.620112831
 20
11.8604242406
 10
-25.6790286837
 20
11.4898242905
 10
-25.7345204733
 20
11.1188766343
 10
-25.7865320658
 20
10.7477314849
 10
-25.8348950582
 20
10.376839481
 10
-25.8795533165
 20
10.0063508354
 10
-25.9205629748
 20
9.6361153353
 10
-25.9579240331
 20
9.2661329806
  0
LWPOLYLINE
  5
420
100
AcDbEntity
  8
SUPERFICI
100
AcDbPolyline
 62
250
  6
CONTINUOUS
 90
10
 70
0
 10
-40.3756364222
 20
-24.0906598027
 10
-40.3433492066
 20
-23.9838395204
 10
-40.314474792
 20
-23.8775882599
 10
-40.2891369578
 20
-23.7721262897
 10
-40.2673794505
 20
-23.6672992164
 10
-40.2494212195
 20
-23.5637313416
 10
-40.2355111284
 20
-23.4627513506
 10
-40.225652124
 20
-23.3648751361
 10
-40.2197463235
 20
-23.269879586
 10
-40.2177494846
 20
-23.1779044618
  0
LWPOLYLINE
  5
421
100
AcDbEntity
  8
SUPERFICI
100
AcDbPolyline
 62
250
  6
CONTINUOUS
 90
10
 70
0
 10
-40.376097128
 20
-24.0921478436
 10
-40.7011061693
 20
-25.1460178253
 10
-41.0057849807
 20
-26.1947045478
 10
-41.2898462812
 20
-27.2375149371
 10
-41.5532997006
 20
-28.2749558638
 10
-41.7955455589
 20
-29.3051094461
 10
-42.0156256353
 20
-30.3237399692
 10
-42.2133180725
 20
-31.3290916886
 10
-42.3888867204
 20
-32.3217826217
 10
-42.5423498632
 20
-33.3012541878
  0
LWPOLYLINE
  5
422
100
AcDbEntity
  8
SUPERFICI
100
AcDbPolyline
 62
250
  6
CONTINUOUS
 90
19
 70
0
 10
-46.0684317013
 20
-21.5228070007
 10
-46.1490599159
 20
-21.6913103644
 10
-46.2226638616
 20
-21.8683404089
 10
-46.2885158097
 20
-22.054023673
 10
-46.3446667329
 20
-22.2494030217
 10
-46.3914709012
 20
-22.4537500397
 10
-46.4317899185
 20
-22.6644411433
 10
-46.4656355591
 20
-22.8821414628
 10
-46.4915814143
 20
-23.1062894125
 10
-46.5109224195
 20
-23.3321861666
 10
-46.5237504651
 20
-23.5555635972
 10
-46.5297014144
 20
-23.7804723672
 10
-46.5288603155
 20
-24.0145812659
 10
-46.5197794584
 20
-24.2649308518
 10
-46.5004375851
 20
-24.5241780411
 10
-46.4710128666
 20
-24.7784449378
 10
-46.4330645481
 20
-25.023326842
 10
-46.3871531009
 20
-25.2637012403
 10
-46.3341495728
 20
-25.4998471727
  0
LWPOLYLINE
  5
423
100
AcDbEntity
  8
0
100
AcDbPolyline
 62
7
  6
CONTINUOUS
 90
10
 70
0
 10
-27.8786003793
 20
10.6893157118
 10
-27.7286324236
 20
10.9868424741
 10
-27.5766292874
 20
11.2834927376
 10
-27.4225909707
 20
11.5792665023
 10
-27.2664911477
 20
11.8741546267
 10
-27.1083561443
 20
12.1681662524
 10
-26.9482649383
 20
12.461328804
 10
-26.7862438557
 20
12.7536514231
 10
-26.6222665706
 20
13.0451249682
 10
-26.4563330829
 20
13.3357494392
  0
LWPOLYLINE
  5
424
100
AcDbEntity
  8
0
100
AcDbPolyline
 62
7
  6
CONTINUOUS
 90
10
 70
0
 10
-28.1028951194
 20
11.8917371619
 10
-27.9944823726
 20
12.0983214885
 10
-27.8850949622
 20
12.3045057457
 10
-27.7747328882
 20
12.5102899336
 10
-27.6633748651
 20
12.7157021391
 10
-27.5510421784
 20
12.9207142751
 10
-27.4377986852
 20
13.1252420807
 10
-27.3236656711
 20
13.3292574687
 10
-27.2086218506
 20
13.5327885263
 10
-27.0926672235
 20
13.7358352533
  0
LWPOLYLINE
  5
425
100
AcDbEntity
  8
0
100
AcDbPolyline
 62
7
  6
CONTINUOUS
 90
10
 70
0
 10
-26.4924453651
 20
13.3102141995
 10
-26.6583156849
 20
13.0196096137
 10
-26.8222287871
 20
12.7281639114
 10
-26.9841846715
 20
12.4358770927
 10
-27.1442083826
 20
12.142760598
 10
-27.302274876
 20
11.8488029869
 10
-27.4583090191
 20
11.5539699376
 10
-27.6122857677
 20
11.2582500097
 10
-27.7642301659
 20
10.9616546437
 10
-27.9141422138
 20
10.6641838396
  0
LWPOLYLINE
  5
426
100
AcDbEntity
  8
SUPERFICI
100
AcDbPolyline
 62
250
  6
CONTINUOUS
 90
34
 70
0
 10
-46.0684317013
 20
-21.5228070007
 10
-45.9821202266
 20
-21.3809396465
 10
-45.8872096284
 20
-21.2527679165
 10
-45.7847375185
 20
-21.138158777
 10
-45.6759920784
 20
-21.0372641816
 10
-45.5616845258
 20
-20.9501003554
 10
-45.4419597358
 20
-20.8764297602
 10
-45.3173838145
 20
-20.8163641768
 10
-45.1891417192
 20
-20.7703344952
 10
-45.0584169098
 20
-20.7384282801
 10
-44.9261037768
 20
-20.7205272044
 10
-44.792038816
 20
-20.7157030022
 10
-44.6561201554
 20
-20.7224179036
 10
-44.5178681944
 20
-20.7398813248
 10
-44.3770187284
 20
-20.766688148
 10
-44.2319905952
 20
-20.8026619688
 10
-44.0811853785
 20
-20.8484729469
 10
-43.9227916043
 20
-20.9051961932
 10
-43.7552843795
 20
-20.9734888623
 10
-43.5781746867
 20
-21.0532875682
 10
-43.3917047261
 20
-21.1442479657
 10
-43.1967321361
 20
-21.2458012476
 10
-42.9934648164
 20
-21.3577825532
 10
-42.7818726
 20
-21.4798159313
 10
-42.562663342
 20
-21.6107884322
 10
-42.3361538132
 20
-21.7501318617
 10
-42.1024013106
 20
-21.8977361311
 10
-41.8610790432
 20
-22.0537030028
 10
-41.6108892023
 20
-22.2187206354
 10
-41.3513266202
 20
-22.3929135005
 10
-41.0829291634
 20
-22.5756582505
 10
-40.8053436264
 20
-22.7669582948
 10
-40.5172976217
 20
-22.967480652
 10
-40.2179731619
 20
-23.1776259846
  0
LINE
  5
427
100
AcDbEntity
  8
0
100
AcDbLine
 62
7
  6
CONTINUOUS
 10
-28.9833698557
 20
15.1281186008
 11
-29.0194411681
 21
15.1026123312
  0
LINE
  5
428
100
AcDbEntity
  8
0
100
AcDbLine
 62
7
  6
CONTINUOUS
 10
-28.3832588695
 20
14.7024181486
 11
-28.4193410673
 21
14.6769041819
  0
LINE
  5
429
100
AcDbEntity
  8
0
100
AcDbLine
 62
7
  6
CONTINUOUS
 10
-27.0565633816
 20
13.7613645247
 11
-27.0926672235
 21
13.7358352533
  0
LINE
  5
42A
100
AcDbEntity
  8
RACCORDO
100
AcDbLine
 62
7
  6
CONTINUOUS
 10
27.8987953045
 20
-26.5781750027
 11
34.3871631038
 21
-25.8218275085
  0
LINE
  5
42B
100
AcDbEntity
  8
DRAFT
100
AcDbLine
 62
7
  6
CONTINUOUS
 10
33.8898264905
 20
-26.0949070224
 11
27.9166615284
 21
-26.7842077083
  0
LWPOLYLINE
  5
42C
100
AcDbEntity
  8
COPY_GEOM
100
AcDbPolyline
 62
7
  6
CONTINUOUS
 90
16
 70
0
 10
27.8987953045
 20
-26.5781750027
 10
27.7622186739
 20
-26.5888742784
 10
27.6188536314
 20
-26.5916790744
 10
27.468700177
 20
-26.586589391
 10
27.3100102096
 20
-26.5732140373
 10
27.1445318301
 20
-26.551944204
 10
26.9775093419
 20
-26.5239534631
 10
26.8096964538
 20
-26.4892168388
 10
26.6403394568
 20
-26.4477593068
 10
26.4724215274
 20
-26.4008293655
 10
26.3056745529
 20
-26.3482441801
 10
26.1403666459
 20
-26.2901865855
 10
25.9802853206
 20
-26.2284535842
 10
25.8266930819
 20
-26.1636441773
 10
25.6783274249
 20
-26.0951593639
 10
25.5351883496
 20
-26.0229991439
  0
LWPOLYLINE
  5
42D
100
AcDbEntity
  8
DRAFT
100
AcDbPolyline
 62
7
  6
CONTINUOUS
 90
16
 70
0
 10
27.9166615284
 20
-26.7842077083
 10
27.789338323
 20
-26.7922491476
 10
27.6520472086
 20
-26.7926289455
 10
27.5047881852
 20
-26.7853471019
 10
27.3456198007
 20
-26.7702463548
 10
27.1764835072
 20
-26.7474839663
 10
27.0032036609
 20
-26.7175317222
 10
26.8251167677
 20
-26.6797556406
 10
26.6428863217
 20
-26.6347897036
 10
26.4643271614
 20
-26.5850076426
 10
26.2899437897
 20
-26.5297808455
 10
26.1192317037
 20
-26.4697379246
 10
25.9584922334
 20
-26.409138448
 10
25.809825822
 20
-26.3494022718
 10
25.6711320264
 20
-26.2891095399
 10
25.5424108464
 20
-26.2282602524
  0
LWPOLYLINE
  5
42E
100
AcDbEntity
  8
SUPERFICI
100
AcDbPolyline
 62
250
  6
CONTINUOUS
 90
10
 70
0
 10
-58.1786083615
 20
9.2511676877
 10
-59.4073763864
 20
10.1396371835
 10
-60.6051404514
 20
11.0502632926
 10
-61.7709874567
 20
11.9822381919
 10
-62.9040043189
 20
12.934754072
 10
-64.0032779702
 20
13.9070031378
 10
-65.067895359
 20
14.8981776083
 10
-66.0969434495
 20
15.9074697165
 10
-67.0895092218
 20
16.9340717095
 10
-68.0446796719
 20
17.9771758486
  0
LWPOLYLINE
  5
42F
100
AcDbEntity
  8
SUPERFICI
100
AcDbPolyline
 62
250
  6
CONTINUOUS
 90
12
 70
0
 10
24.5760601086
 20
-74.5708734907
 10
24.670161052
 20
-74.676759796
 10
24.7807834072
 20
-74.7817760253
 10
24.9071643245
 20
-74.8835015349
 10
25.0498852287
 20
-74.9801688228
 10
25.2061883118
 20
-75.0673570474
 10
25.3690028029
 20
-75.1393846804
 10
25.5328968492
 20
-75.1932246885
 10
25.6984058153
 20
-75.2283206811
 10
25.8666902103
 20
-75.2445514008
 10
26.0379768819
 20
-75.2423801147
 10
26.2066044042
 20
-75.2223166458
  0
LWPOLYLINE
  5
430
100
AcDbEntity
  8
DRAFT
100
AcDbPolyline
 62
7
  6
CONTINUOUS
 90
3
 70
0
 10
-68.077964033
 20
39.971341682
 10
-68.1383175258
 20
40.0461568996
 10
-68.1891193201
 20
40.1220292037
  0
LWPOLYLINE
  5
431
100
AcDbEntity
  8
COPY_GEOM
100
AcDbPolyline
 62
7
  6
CONTINUOUS
 90
5
 70
0
 10
-68.1595485794
 20
40.2582410309
 10
-68.2209853505
 20
40.3381089784
 10
-68.2700575708
 20
40.4166049895
 10
-68.3073267643
 20
40.4944198335
 10
-68.332231407
 20
40.5708627412
  0
LWPOLYLINE
  5
432
100
AcDbEntity
  8
0
100
AcDbPolyline
 62
7
  6
CONTINUOUS
 90
10
 70
0
 10
-28.5112210232
 20
11.0920415864
 10
-28.5849738121
 20
11.5495253557
 10
-28.6543605271
 20
12.0040313531
 10
-28.7193811681
 20
12.4555595787
 10
-28.7799755978
 20
12.9040946026
 10
-28.8362039536
 20
13.3496518547
 10
-28.8882466473
 20
13.7922776246
 10
-28.9361638162
 20
14.2319873423
 10
-28.9798953232
 20
14.6687655779
 10
-29.0194411681
 20
15.1026123312
  0
LWPOLYLINE
  5
433
100
AcDbEntity
  8
0
100
AcDbPolyline
 62
7
  6
CONTINUOUS
 90
9
 70
0
 10
-28.110694968
 20
12.2321338902
 10
-28.1520673734
 20
12.5459165703
 10
-28.1913476632
 20
12.8583039335
 10
-28.2285297673
 20
13.1693296213
 10
-28.2636197559
 20
13.4789599924
 10
-28.2966358394
 20
13.787094123
 10
-28.3275840879
 20
14.093698372
 10
-28.3564584313
 20
14.3988063805
 10
-28.3832588695
 20
14.7024181486
  0
LINE
  5
434
100
AcDbEntity
  8
0
100
AcDbLine
 62
7
  6
CONTINUOUS
 10
-23.7348149135
 20
9.0008338815
 11
-23.7615892532
 21
9.2466687076
  0
LWPOLYLINE
  5
435
100
AcDbEntity
  8
0
100
AcDbPolyline
 62
7
  6
CONTINUOUS
 90
9
 70
0
 10
-23.7615892532
 20
9.2466687076
 10
-23.7909740862
 20
9.5333596341
 10
-23.8185930262
 20
9.8207238546
 10
-23.8444459865
 20
10.1087920269
 10
-23.8685330539
 20
10.3975334932
 10
-23.8908544892
 20
10.6868562803
 10
-23.9114103791
 20
10.9767297306
 10
-23.9302006368
 20
11.2671845018
 10
-23.9472252623
 20
11.5582205939
  0
LWPOLYLINE
  5
436
100
AcDbEntity
  8
0
100
AcDbPolyline
 62
7
  6
CONTINUOUS
 90
10
 70
0
 10
-23.9833626975
 20
11.5326675684
 10
-23.9662848666
 20
11.2417392073
 10
-23.947442898
 20
10.9513742678
 10
-23.9268367917
 20
10.6615727499
 10
-23.9044670669
 20
10.3723046034
 10
-23.8803332043
 20
10.0835998784
 10
-23.8544336463
 20
9.7955487263
 10
-23.8267678736
 20
9.5081811973
 10
-23.7973364054
 20
9.2214672412
 10
-23.7661392418
 20
8.9354068578
  0
LWPOLYLINE
  5
437
100
AcDbEntity
  8
SCATOLA
100
AcDbPolyline
 62
7
  6
CONTINUOUS
 90
14
 70
0
 10
-24.9877940459
 20
53.7233335798
 10
-24.9886362793
 20
53.625531803
 10
-24.9637143294
 20
53.1008425204
 10
-24.8896918356
 20
52.5757220998
 10
-24.7675129804
 20
52.056868635
 10
-24.5965608899
 20
51.5443624047
 10
-24.3774524382
 20
51.0381231302
 10
-24.1129824298
 20
50.5446080699
 10
-23.8025697917
 20
50.0639802187
 10
-23.446795597
 20
49.5960765817
 10
-23.0501978695
 20
49.1468654329
 10
-22.6142892839
 20
48.718336197
 10
-22.1375571655
 20
48.3084994493
 10
-21.6200015142
 20
47.9173551898
  0
LWPOLYLINE
  5
438
100
AcDbEntity
  8
0
100
AcDbPolyline
 62
250
  6
CONTINUOUS
 90
7
 70
0
 10
-22.3903449508
 20
6.7829973844
 10
-22.4362550759
 20
6.2693883584
 10
-22.4738337536
 20
5.7607823323
 10
-22.5030603617
 20
5.2573297961
 10
-22.5239137796
 20
4.759180893
 10
-22.5363718932
 20
4.266485074
 10
-22.5404110988
 20
3.7793907511
  0
LWPOLYLINE
  5
439
100
AcDbEntity
  8
0
100
AcDbPolyline
 62
7
  6
CONTINUOUS
 90
10
 70
0
 10
-23.0256014706
 20
7.1822271493
 10
-23.0020259881
 20
7.4199912521
 10
-22.9767300344
 20
7.6587682116
 10
-22.9497136095
 20
7.8985580277
 10
-22.9209731708
 20
8.1393884455
 10
-22.890512261
 20
8.3812317199
 10
-22.8583415075
 20
8.6240046157
 10
-22.8244644531
 20
8.8676793878
 10
-22.7888775552
 20
9.1122837813
 10
-22.7515808137
 20
9.3578177962
  0
LINE
  5
43A
100
AcDbEntity
  8
0
100
AcDbLine
 62
7
  6
CONTINUOUS
 10
-24.7245225026
 20
8.4382365668
 11
-24.7008272043
 21
8.6769840955
  0
LWPOLYLINE
  5
43B
100
AcDbEntity
  8
0
100
AcDbPolyline
 62
7
  6
CONTINUOUS
 90
10
 70
0
 10
-19.0858092571
 20
4.4054330109
 10
-19.0486530912
 20
4.7749449716
 10
-19.0078009063
 20
5.1447770929
 10
-18.9632527025
 20
5.5149293749
 10
-18.914966697
 20
5.885477591
 10
-18.8629846726
 20
6.2563459679
 10
-18.8074319772
 20
6.6273071853
 10
-18.7483503933
 20
6.9982854698
 10
-18.6856981385
 20
7.369356595
 10
-18.6194752126
 20
7.7405205606
  0
LWPOLYLINE
  5
43C
100
AcDbEntity
  8
0
100
AcDbPolyline
 62
7
  6
CONTINUOUS
 90
10
 70
0
 10
-25.3592098147
 20
8.8394768645
 10
-25.3220977303
 20
9.2070051039
 10
-25.2812335609
 20
9.5754324742
 10
-25.2366173065
 20
9.9447589755
 10
-25.1882035821
 20
10.315131205
 10
-25.1360377727
 20
10.6864025654
 10
-25.0802560327
 20
11.0581332654
 10
-25.0209037468
 20
11.4301767079
 10
-24.9579355303
 20
11.8026794899
 10
-24.8913513831
 20
12.1756416116
  0
LWPOLYLINE
  5
43D
100
AcDbEntity
  8
0
100
AcDbPolyline
 62
7
  6
CONTINUOUS
 90
10
 70
0
 10
-22.3892081002
 20
6.782193217
 10
-22.3526001571
 20
7.1443819429
 10
-22.3120134301
 20
7.5088302767
 10
-22.2674479192
 20
7.8755382186
 10
-22.2188950994
 20
8.2445655267
 10
-22.1663634956
 20
8.6158524429
 10
-22.1098786833
 20
8.9892196918
 10
-22.0494491874
 20
9.3646075151
 10
-21.985066483
 20
9.7420756712
 10
-21.9167305699
 20
10.12162416
  0
LWPOLYLINE
  5
43E
100
AcDbEntity
  8
0
100
AcDbPolyline
 62
7
  6
CONTINUOUS
 90
8
 70
0
 10
-24.7008272043
 20
8.6769840955
 10
-24.6754624354
 20
8.9164831079
 10
-24.6484281959
 20
9.1567336039
 10
-24.6197179443
 20
9.397764974
 10
-24.5893382221
 20
9.6395478278
 10
-24.5573086538
 20
9.8819939942
 10
-24.5236357808
 20
10.1250740829
 10
-24.4883130615
 20
10.3688174843
  0
LWPOLYLINE
  5
43F
100
AcDbEntity
  8
0
100
AcDbPolyline
 62
7
  6
CONTINUOUS
 90
10
 70
0
 10
-24.4872223906
 20
10.5878518674
 10
-24.5241430819
 20
10.34351573
 10
-24.559417541
 20
10.0998323988
 10
-24.5930457678
 20
9.8568018739
 10
-24.6250344318
 20
9.6143953718
 10
-24.6553768635
 20
9.372641676
 10
-24.6840530549
 20
9.1316271366
 10
-24.7110563364
 20
8.891380537
 10
-24.7363933776
 20
8.6518730938
 10
-24.7600641783
 20
8.4131048069
  0
LINE
  5
440
100
AcDbEntity
  8
0
100
AcDbLine
 62
7
  6
CONTINUOUS
 10
-24.4883130615
 20
10.3688174843
 11
-24.4753938645
 21
10.4542196862
  0
LWPOLYLINE
  5
441
100
AcDbEntity
  8
0
100
AcDbPolyline
 62
7
  6
CONTINUOUS
 90
10
 70
0
 10
-21.9528738452
 20
10.096067005
 10
-22.0211185285
 20
9.7165985286
 10
-22.0854161231
 20
9.3392030956
 10
-22.1457666289
 20
8.9638807062
 10
-22.202178616
 20
8.5905727885
 10
-22.2546435143
 20
8.2193379144
 10
-22.3031356137
 20
7.8503517987
 10
-22.347646344
 20
7.4836730131
 10
-22.3881842754
 20
7.119242986
 10
-22.4247494077
 20
6.7570617174
  0
LWPOLYLINE
  5
442
100
AcDbEntity
  8
0
100
AcDbPolyline
 62
250
  6
CONTINUOUS
 90
7
 70
0
 10
-21.2753587338
 20
13.053109154
 10
-21.3982766672
 20
12.5580959677
 10
-21.5148872122
 20
12.0655772349
 10
-21.6251715743
 20
11.5756525054
 10
-21.7291124116
 20
11.0884223271
 10
-21.8266936122
 20
10.6039880925
 10
-21.9179000643
 20
10.1224518814
  0
LWPOLYLINE
  5
443
100
AcDbEntity
  8
SUPERFICI
100
AcDbPolyline
 62
250
  6
CONTINUOUS
 90
16
 70
0
 10
-21.2753587338
 20
13.053109154
 10
-21.2423811096
 20
13.1668818757
 10
-21.1977683398
 20
13.2928911708
 10
-21.1414267344
 20
13.4298831989
 10
-21.0724945939
 20
13.5780730629
 10
-20.9917216343
 20
13.7339072874
 10
-20.902591152
 20
13.8897186213
 10
-20.8081442024
 20
14.0402778619
 10
-20.7079269846
 20
14.1863043834
 10
-20.6011286562
 20
14.3290014708
 10
-20.4872332208
 20
14.4690798368
 10
-20.3700619476
 20
14.6017835631
 10
-20.2556224577
 20
14.7209778873
 10
-20.1470255683
 20
14.8246123769
 10
-20.0443707283
 20
14.9135868745
 10
-19.9488687992
 20
14.9875317957
  0
LINE
  5
444
100
AcDbEntity
  8
0
100
AcDbLine
 62
7
  6
CONTINUOUS
 10
-23.5577171666
 20
7.6096356033
 11
-23.4705507666
 21
7.8030867794
  0
LWPOLYLINE
  5
445
100
AcDbEntity
  8
0
100
AcDbPolyline
 62
7
  6
CONTINUOUS
 90
7
 70
0
 10
-23.4705507666
 20
7.8030867794
 10
-23.3817771038
 20
7.9974577018
 10
-23.2913961784
 20
8.1927483706
 10
-23.1993956093
 20
8.3889814639
 10
-23.1057877774
 20
8.5861343036
 10
-23.0106098253
 20
8.7841388548
 10
-22.913874134
 20
8.9829724394
  0
LWPOLYLINE
  5
446
100
AcDbEntity
  8
0
100
AcDbPolyline
 62
7
  6
CONTINUOUS
 90
10
 70
0
 10
-23.7661392418
 20
8.9354068578
 10
-23.6717842289
 20
9.1324858696
 10
-23.5758779903
 20
9.3304013572
 10
-23.4784205262
 20
9.5291533208
 10
-23.3793991208
 20
9.7287640095
 10
-23.2788264898
 20
9.9292111741
 10
-23.1767407801
 20
10.1304280667
 10
-23.0731547072
 20
10.3323924379
 10
-22.9680555556
 20
10.5351265372
 10
-22.8614433252
 20
10.7386303645
  0
LWPOLYLINE
  5
447
100
AcDbEntity
  8
0
100
AcDbPolyline
 62
7
  6
CONTINUOUS
 90
3
 70
0
 10
-22.913874134
 20
8.9829724394
 10
-22.8155683224
 20
9.1826577356
 10
-22.7617836534
 20
9.2906498855
  0
LWPOLYLINE
  5
448
100
AcDbEntity
  8
0
100
AcDbPolyline
 62
7
  6
CONTINUOUS
 90
10
 70
0
 10
-22.7515808137
 20
9.3578177962
 10
-22.8514186224
 20
9.1572950456
 10
-22.9496859804
 20
8.9576276124
 10
-23.046382888
 20
8.7588154966
 10
-23.1415214245
 20
8.5608364961
 10
-23.2350895104
 20
8.3637128129
 10
-23.3270509069
 20
8.167511054
 10
-23.4173935344
 20
7.9722534215
 10
-23.5061294725
 20
7.7779177132
 10
-23.5932587211
 20
7.5845039291
  0
LWPOLYLINE
  5
449
100
AcDbEntity
  8
0
100
AcDbPolyline
 62
7
  6
CONTINUOUS
 90
10
 70
0
 10
-22.0239724564
 20
6.4737688174
 10
-21.879425259
 20
6.7595331524
 10
-21.7310855042
 20
7.0476869805
 10
-21.5789531921
 20
7.3382303016
 10
-21.4230030142
 20
7.6312068498
 10
-21.2632602789
 20
7.926572891
 10
-21.0998009116
 20
8.2241972236
 10
-20.9326502206
 20
8.5240361136
 10
-20.7617828975
 20
8.8261332951
 10
-20.5871989423
 20
9.1304887679
  0
LINE
  5
44A
100
AcDbEntity
  8
0
100
AcDbLine
 62
7
  6
CONTINUOUS
 10
-21.2955751241
 20
6.3001011617
 11
-21.4224244552
 21
6.0491035594
  0
LINE
  5
44B
100
AcDbEntity
  8
0
100
AcDbLine
 62
7
  6
CONTINUOUS
 10
-21.386882915
 20
6.0742352234
 11
-21.2599940669
 21
6.3252603862
  0
LINE
  5
44C
100
AcDbEntity
  8
0
100
AcDbLine
 62
7
  6
CONTINUOUS
 10
-21.1655673103
 20
6.5533919279
 11
-21.2955751241
 21
6.3001011617
  0
LINE
  5
44D
100
AcDbEntity
  8
0
100
AcDbLine
 62
7
  6
CONTINUOUS
 10
-21.2599940669
 20
6.3252603862
 11
-21.1489770646
 21
6.5416925086
  0
LINE
  5
44E
100
AcDbEntity
  8
0
100
AcDbLine
 62
7
  6
CONTINUOUS
 10
-20.7628788528
 20
7.3152702807
 11
-20.9055604009
 21
7.0489732228
  0
LINE
  5
44F
100
AcDbEntity
  8
0
100
AcDbLine
 62
7
  6
CONTINUOUS
 10
-20.8698395011
 20
7.0742317133
 11
-20.7271110288
 21
7.3405504262
  0
LINE
  5
450
100
AcDbEntity
  8
0
100
AcDbLine
 62
7
  6
CONTINUOUS
 10
-20.6171414003
 20
7.5834527672
 11
-20.7628788528
 21
7.3152702807
  0
LINE
  5
451
100
AcDbEntity
  8
0
100
AcDbLine
 62
7
  6
CONTINUOUS
 10
-20.7271110288
 20
7.3405504262
 11
-20.5813124856
 21
7.608776136
  0
LINE
  5
452
100
AcDbEntity
  8
0
100
AcDbLine
 62
7
  6
CONTINUOUS
 10
-20.4683774491
 20
7.8534676915
 11
-20.6171414003
 21
7.5834527672
  0
LINE
  5
453
100
AcDbEntity
  8
0
100
AcDbLine
 62
7
  6
CONTINUOUS
 10
-20.5813124856
 20
7.608776136
 11
-20.4648006418
 21
7.8204582973
  0
LWPOLYLINE
  5
454
100
AcDbEntity
  8
SUPERFICI
100
AcDbPolyline
 62
250
  6
CONTINUOUS
 90
25
 70
0
 10
-45.8375151378
 20
-21.9851370685
 10
-45.7101193678
 20
-21.8125649383
 10
-45.5537736059
 20
-21.6358794159
 10
-45.4009947533
 20
-21.5031753901
 10
-45.2535904812
 20
-21.4117140942
 10
-45.1085762878
 20
-21.3538397394
 10
-44.9607924486
 20
-21.3221134837
 10
-44.8057619653
 20
-21.309142422
 10
-44.6385395721
 20
-21.3136139846
 10
-44.4530639142
 20
-21.3425385962
 10
-44.2430197524
 20
-21.4051163413
 10
-44.0102207901
 20
-21.5044449158
 10
-43.766836335
 20
-21.6313815853
 10
-43.524316927
 20
-21.775483067
 10
-43.2860107362
 20
-21.9315376128
 10
-43.0475279051
 20
-22.0998209768
 10
-42.8035955922
 20
-22.2811100732
 10
-42.5487473209
 20
-22.4762039234
 10
-42.2773200006
 20
-22.6859239985
 10
-41.984012537
 20
-22.9108098835
 10
-41.6724443197
 20
-23.1464750443
 10
-41.3537814565
 20
-23.3843507837
 10
-41.037726732
 20
-23.6169653022
 10
-40.717128337
 20
-23.8491566207
 10
-40.3760878193
 20
-24.0921450667
  0
LINE
  5
455
100
AcDbEntity
  8
0
100
AcDbLine
 62
7
  6
CONTINUOUS
 10
-26.4563330829
 20
13.3357494392
 11
-26.4924453651
 21
13.3102141995
  0
LINE
  5
456
100
AcDbEntity
  8
0
100
AcDbLine
 62
7
  6
CONTINUOUS
 10
-26.056126946
 20
13.0520529125
 11
-26.0922443634
 21
13.0265140417
  0
LINE
  5
457
100
AcDbEntity
  8
0
100
AcDbLine
 62
7
  6
CONTINUOUS
 10
-25.4557161618
 20
12.6265754495
 11
-25.4918405338
 21
12.6010316611
  0
LINE
  5
458
100
AcDbEntity
  8
0
100
AcDbLine
 62
7
  6
CONTINUOUS
 10
-27.8786003793
 20
10.6893157118
 11
-27.9141422138
 21
10.6641838396
  0
LINE
  5
459
100
AcDbEntity
  8
0
100
AcDbLine
 62
7
  6
CONTINUOUS
 10
-24.8552210193
 20
12.2011896368
 11
-24.8913513831
 21
12.1756416116
  0
LINE
  5
45A
100
AcDbEntity
  8
0
100
AcDbLine
 62
7
  6
CONTINUOUS
 10
-23.9472252623
 20
11.5582205939
 11
-23.9833626975
 21
11.5326675684
  0
LINE
  5
45B
100
AcDbEntity
  8
0
100
AcDbLine
 62
7
  6
CONTINUOUS
 10
-25.922382263
 20
9.2912648074
 11
-25.9579240331
 21
9.2661329806
  0
LINE
  5
45C
100
AcDbEntity
  8
0
100
AcDbLine
 62
7
  6
CONTINUOUS
 10
-22.8253006855
 20
10.7641870701
 11
-22.8614433252
 21
10.7386303645
  0
LINE
  5
45D
100
AcDbEntity
  8
0
100
AcDbLine
 62
7
  6
CONTINUOUS
 10
-24.7245225026
 20
8.4382365668
 11
-24.7600641783
 21
8.4131048069
  0
LINE
  5
45E
100
AcDbEntity
  8
0
100
AcDbLine
 62
7
  6
CONTINUOUS
 10
-21.9167305699
 20
10.12162416
 11
-21.9528738452
 21
10.096067005
  0
LINE
  5
45F
100
AcDbEntity
  8
0
100
AcDbLine
 62
7
  6
CONTINUOUS
 10
-23.5577171666
 20
7.6096356033
 11
-23.5932587211
 21
7.5845039291
  0
LWPOLYLINE
  5
460
100
AcDbEntity
  8
SUPERFICI
100
AcDbPolyline
 62
250
  6
CONTINUOUS
 90
10
 70
0
 10
11.4006382813
 20
-24.8510733423
 10
11.2807184352
 20
-24.8335969875
 10
11.164527681
 20
-24.8058366239
 10
11.0538375042
 20
-24.768159732
 10
10.9502663203
 20
-24.7210441611
 10
10.8555224071
 20
-24.6651871412
 10
10.771295545
 20
-24.6015668765
 10
10.698891746
 20
-24.5312310304
 10
10.6392980869
 20
-24.455211029
 10
10.5933795935
 20
-24.3746693794
  0
LWPOLYLINE
  5
461
100
AcDbEntity
  8
SUPERFICI
100
AcDbPolyline
 62
250
  6
CONTINUOUS
 90
10
 70
0
 10
-56.6564191111
 20
-8.2174207949
 10
-56.7711815322
 20
-8.1846641814
 10
-56.8791169397
 20
-8.1422360252
 10
-56.9786272285
 20
-8.0908444258
 10
-57.0682027432
 20
-8.0313680831
 10
-57.1466280017
 20
-7.964724638
 10
-57.2129206587
 20
-7.8918086638
 10
-57.2661217634
 20
-7.8136650254
 10
-57.3053885065
 20
-7.7315181371
 10
-57.3301371643
 20
-7.6466050273
  0
LWPOLYLINE
  5
462
100
AcDbEntity
  8
COPY_GEOM
100
AcDbPolyline
 62
7
  6
CONTINUOUS
 90
16
 70
0
 10
-68.0284844763
 20
40.1106607688
 10
-67.7903983792
 20
39.8490511014
 10
-67.5477654495
 20
39.5867760752
 10
-67.3005856874
 20
39.3238356903
 10
-67.048229345
 20
39.0596635477
 10
-66.7913261701
 20
38.7948260464
 10
-66.5317654063
 20
38.5310223831
 10
-66.2696307554
 20
38.2682854372
 10
-66.0048385156
 20
38.0065823292
 10
-65.7390268252
 20
37.747513617
 10
-65.4721205946
 20
37.4910682133
 10
-65.2041949133
 20
37.2372572053
 10
-64.9371131878
 20
36.9877144129
 10
-64.6714965536
 20
36.7429844425
 10
-64.4067238751
 20
36.5025226877
 10
-64.1427951525
 20
36.2663291484
  0
LINE
  5
463
100
AcDbEntity
  8
COPY_GEOM
100
AcDbLine
 62
7
  6
CONTINUOUS
 10
-68.0857472575
 20
40.1770011471
 11
-68.1595485794
 21
40.2582410309
  0
LWPOLYLINE
  5
464
100
AcDbEntity
  8
COPY_GEOM
100
AcDbPolyline
 62
7
  6
CONTINUOUS
 90
7
 70
0
 10
-68.0284844763
 20
40.1106607688
 10
-68.0384011335
 20
40.1217727759
 10
-68.0481679676
 20
40.1329458075
 10
-68.0577849786
 20
40.1441798635
 10
-68.0672521666
 20
40.155474944
 10
-68.0765695315
 20
40.166831049
 10
-68.0857370733
 20
40.1782481784
  0
LWPOLYLINE
  5
465
100
AcDbEntity
  8
DRAFT
100
AcDbPolyline
 62
7
  6
CONTINUOUS
 90
10
 70
0
 10
-68.0134399805
 20
39.8861890126
 10
-68.0211859391
 20
39.8951366672
 10
-68.02878406
 20
39.9042164626
 10
-68.036234343
 20
39.9134283987
 10
-68.0435318778
 20
39.9227774123
 10
-68.0506815748
 20
39.9322585666
 10
-68.0576981656
 20
39.9418570518
 10
-68.0645865609
 20
39.9515679311
 10
-68.07134185
 20
39.9613961412
 10
-68.077964033
 20
39.971341682
  0
LWPOLYLINE
  5
466
100
AcDbEntity
  8
COPY_GEOM
100
AcDbPolyline
 62
250
  6
CONTINUOUS
 90
7
 70
0
 10
-67.9483936057
 20
43.1554583486
 10
-68.0624643086
 20
43.2914041832
 10
-68.1538997466
 20
43.4348840117
 10
-68.2215364969
 20
43.5840721926
 10
-68.2645139512
 20
43.737070451
 10
-68.2822852652
 20
43.8919320329
 10
-68.2821347642
 20
43.9579337177
  0
LWPOLYLINE
  5
467
100
AcDbEntity
  8
SUPERFICI
100
AcDbPolyline
 62
250
  6
CONTINUOUS
 90
8
 70
0
 10
3.7177597666
 20
-60.8882713159
 10
3.5464616843
 20
-60.538349319
 10
3.36972014
 20
-60.1679085873
 10
3.1876254518
 20
-59.7750852619
 10
3.0000844353
 20
-59.3577828105
 10
2.8069817393
 20
-58.9147013847
 10
2.6083702137
 20
-58.4450870708
 10
2.4058418205
 20
-57.9492724561
  0
LWPOLYLINE
  5
468
100
AcDbEntity
  8
SUPERFICI
100
AcDbPolyline
 62
250
  6
CONTINUOUS
 90
5
 70
0
 10
8.1070090691
 20
-64.0058972479
 10
8.1397877814
 20
-64.0749714271
 10
8.1845061859
 20
-64.1399666446
 10
8.2412584447
 20
-64.1994610379
 10
8.2883422062
 20
-64.2371325833
  0
LWPOLYLINE
  5
469
100
AcDbEntity
  8
SUPERFICI
100
AcDbPolyline
 62
250
  6
CONTINUOUS
 90
18
 70
0
 10
0.7893484426
 20
-54.9553106069
 10
0.6263562929
 20
-54.5866794172
 10
0.4352473425
 20
-54.1719842572
 10
0.2533241932
 20
-53.8004266305
 10
0.0824873854
 20
-53.4779721318
 10
-0.0817584055
 20
-53.1953792602
 10
-0.2455432003
 20
-52.9384381166
 10
-0.4144587756
 20
-52.6941094086
 10
-0.5940319744
 20
-52.4535653819
 10
-0.7903374598
 20
-52.2137788964
 10
-1.0093938882
 20
-51.9739742034
 10
-1.2497801986
 20
-51.7393482646
 10
-1.5020549085
 20
-51.5168108553
 10
-1.7582324506
 20
-51.3102450599
 10
-2.015099841
 20
-51.1187883095
 10
-2.2709866542
 20
-50.9392790364
 10
-2.5246485974
 20
-50.7680381765
 10
-2.7818275805
 20
-50.5980078912
  0
LWPOLYLINE
  5
46A
100
AcDbEntity
  8
SUPERFICI
100
AcDbPolyline
 62
250
  6
CONTINUOUS
 90
34
 70
0
 10
1.2230874275
 20
-54.9629545895
 10
1.106799609
 20
-54.6936940641
 10
0.9884777536
 20
-54.4298950338
 10
0.868374094
 20
-54.1720957825
 10
0.7468106931
 20
-53.9207862206
 10
0.6238582258
 20
-53.6764166067
 10
0.499347881
 20
-53.4394144821
 10
0.372903093
 20
-53.2097249534
 10
0.2451055168
 20
-52.9881106822
 10
0.1171622689
 20
-52.7761710165
 10
-0.0105464563
 20
-52.5752132927
 10
-0.1384403921
 20
-52.3843713032
 10
-0.2665630439
 20
-52.2018921067
 10
-0.3941631308
 20
-52.0288636184
 10
-0.5221592547
 20
-51.8643593561
 10
-0.6530735121
 20
-51.7035269352
 10
-0.7867187077
 20
-51.5460655368
 10
-0.9234562031
 20
-51.392280626
 10
-1.0665880788
 20
-51.2381943375
 10
-1.2170656666
 20
-51.082723307
 10
-1.374170678
 20
-50.9268536084
 10
-1.5387017152
 20
-50.7696871596
 10
-1.7115027093
 20
-50.610673867
 10
-1.8920710597
 20
-50.4501671867
 10
-2.0791790531
 20
-50.2886200942
 10
-2.2727737081
 20
-50.1261729057
 10
-2.4732750424
 20
-49.9624513216
 10
-2.6801183865
 20
-49.7971624182
 10
-2.8931194138
 20
-49.6304806162
 10
-3.1128120789
 20
-49.4619957523
 10
-3.339657894
 20
-49.2905695247
 10
-3.5733730739
 20
-49.1165996096
 10
-3.8145749129
 20
-48.9394567685
 10
-4.3253951657
 20
-48.5667777421
  0
LWPOLYLINE
  5
46B
100
AcDbEntity
  8
SUPERFICI
100
AcDbPolyline
 62
250
  6
CONTINUOUS
 90
6
 70
0
 10
3.7175661395
 20
-60.8884652452
 10
3.7438070912
 20
-60.9527193252
 10
3.7793866479
 20
-61.0106182688
 10
3.8241691199
 20
-61.0608588136
 10
3.8785811811
 20
-61.1024182302
 10
3.8869273513
 20
-61.1074149079
  0
LWPOLYLINE
  5
46C
100
AcDbEntity
  8
0
100
AcDbPolyline
 62
7
  6
CONTINUOUS
 90
10
 70
0
 10
-24.1932211992
 20
8.0102703213
 10
-24.2327599114
 20
8.2918442035
 10
-24.2705846348
 20
8.5746448718
 10
-24.3066953694
 20
8.8586723263
 10
-24.3410974345
 20
9.1439542594
 10
-24.3737855108
 20
9.4304629786
 10
-24.4047436404
 20
9.7181154067
 10
-24.4339665038
 20
10.0068838514
 10
-24.4614594206
 20
10.2967960049
 10
-24.4872223906
 20
10.5878518674
  0
LINE
  5
46D
100
AcDbEntity
  8
0
100
AcDbLine
 62
7
  6
CONTINUOUS
 10
-28.0718981257
 20
11.9508030306
 11
-28.110694968
 21
12.2321338902
  0
LWPOLYLINE
  5
46E
100
AcDbEntity
  8
0
100
AcDbPolyline
 62
7
  6
CONTINUOUS
 90
3
 70
0
 10
-20.4231582604
 20
7.4473506313
 10
-20.4536990016
 20
7.7180042388
 10
-20.4683774491
 20
7.8534676915
  0
LWPOLYLINE
  5
46F
100
AcDbEntity
  8
0
100
AcDbPolyline
 62
7
  6
CONTINUOUS
 90
10
 70
0
 10
-19.9858997072
 20
8.7055975346
 10
-19.9482020557
 20
8.2584494967
 10
-19.9061154786
 20
7.8114199108
 10
-19.859639976
 20
7.364508777
 10
-19.808797862
 20
6.9176354795
 10
-19.7535668224
 20
6.4708806341
 10
-19.6938799147
 20
6.0244860876
 10
-19.6297148247
 20
5.5785324557
 10
-19.5610938666
 20
5.1329391228
 10
-19.4880170404
 20
4.6877060888
  0
LINE
  5
470
100
AcDbEntity
  8
0
100
AcDbLine
 62
7
  6
CONTINUOUS
 10
-18.4543856682
 20
4.2625293719
 11
-18.4821379736
 21
3.9822500691
  0
LINE
  5
471
100
AcDbEntity
  8
0
100
AcDbLine
 62
7
  6
CONTINUOUS
 10
-18.4465977113
 20
4.0073808296
 11
-18.4188126282
 21
4.2876831667
  0
LINE
  5
472
100
AcDbEntity
  8
0
100
AcDbLine
 62
7
  6
CONTINUOUS
 10
-18.4245011632
 20
4.5429322603
 11
-18.4543856682
 21
4.2625293719
  0
LINE
  5
473
100
AcDbEntity
  8
0
100
AcDbLine
 62
7
  6
CONTINUOUS
 10
-18.4188126282
 20
4.2876831667
 11
-18.3888924742
 21
4.5681117437
  0
LINE
  5
474
100
AcDbEntity
  8
0
100
AcDbLine
 62
7
  6
CONTINUOUS
 10
-18.3924918311
 20
4.823444286
 11
-18.4245011632
 21
4.5429322603
  0
LINE
  5
475
100
AcDbEntity
  8
0
100
AcDbLine
 62
7
  6
CONTINUOUS
 10
-18.3888924742
 20
4.5681117437
 11
-18.3568446506
 21
4.8486517247
  0
LWPOLYLINE
  5
476
100
AcDbEntity
  8
0
100
AcDbPolyline
 62
7
  6
CONTINUOUS
 90
3
 70
0
 10
-18.3568446506
 20
4.8486517247
 10
-18.3226987628
 20
5.1292437649
 10
-18.3107164262
 20
5.2233761765
  0
LWPOLYLINE
  5
477
100
AcDbEntity
  8
0
100
AcDbPolyline
 62
7
  6
CONTINUOUS
 90
3
 70
0
 10
-18.3405472329
 20
5.2443122059
 10
-18.358387162
 20
5.1040076553
 10
-18.3924918311
 20
4.823444286
  0
LINE
  5
478
100
AcDbEntity
  8
0
100
AcDbLine
 62
7
  6
CONTINUOUS
 10
-18.2376327525
 20
6.0488449849
 11
-18.2646062821
 21
5.8658109013
  0
LINE
  5
479
100
AcDbEntity
  8
0
100
AcDbLine
 62
7
  6
CONTINUOUS
 10
-18.2287918992
 20
5.8911354943
 11
-18.1879645401
 21
6.165647368
  0
LINE
  5
47A
100
AcDbEntity
  8
0
100
AcDbLine
 62
7
  6
CONTINUOUS
 10
-18.2098302665
 20
6.2316461922
 11
-18.2376327525
 21
6.0488449849
  0
LINE
  5
47B
100
AcDbEntity
  8
0
100
AcDbLine
 62
7
  6
CONTINUOUS
 10
-18.1879645401
 20
6.165647368
 11
-18.1452852788
 21
6.4396066806
  0
LINE
  5
47C
100
AcDbEntity
  8
0
100
AcDbLine
 62
7
  6
CONTINUOUS
 10
-18.1812017739
 20
6.414209628
 11
-18.2098302665
 21
6.2316461922
  0
LINE
  5
47D
100
AcDbEntity
  8
0
100
AcDbLine
 62
7
  6
CONTINUOUS
 10
-18.1452852788
 20
6.4396066806
 11
-18.1082472393
 21
6.6675044913
  0
LWPOLYLINE
  5
47E
100
AcDbEntity
  8
0
100
AcDbPolyline
 62
7
  6
CONTINUOUS
 90
3
 70
0
 10
-18.1367316579
 20
6.6875734676
 10
-18.1517590735
 20
6.5965157102
 10
-18.1812017739
 20
6.414209628
  0
LWPOLYLINE
  5
47F
100
AcDbEntity
  8
0
100
AcDbPolyline
 62
7
  6
CONTINUOUS
 90
21
 70
0
 10
-16.5847211293
 20
4.692249319
 10
-16.5335460104
 20
4.7636829233
 10
-16.490992011
 20
4.8453567737
 10
-16.4572740292
 20
4.9365652029
 10
-16.4326237205
 20
5.0363639753
 10
-16.4175744676
 20
5.1433331518
 10
-16.4120226707
 20
5.2565062346
 10
-16.4158300616
 20
5.3746994397
 10
-16.4292072569
 20
5.4960194577
 10
-16.4516498437
 20
5.6190194065
 10
-16.4826562314
 20
5.7427639154
 10
-16.5223167132
 20
5.8661060174
 10
-16.5701309938
 20
5.9880485966
 10
-16.6253724525
 20
6.1073234734
 10
-16.6877586205
 20
6.2224224023
 10
-16.7564101792
 20
6.3320607364
 10
-16.8306006198
 20
6.4355186237
 10
-16.9102691051
 20
6.5321365717
 10
-16.9948554437
 20
6.6210289551
 10
-17.0832374673
 20
6.7011905714
 10
-17.1745148188
 20
6.7717767183
  0
LWPOLYLINE
  5
480
100
AcDbEntity
  8
0
100
AcDbPolyline
 62
7
  6
CONTINUOUS
 90
18
 70
0
 10
-17.2062090184
 20
5.3123404768
 10
-17.1817554101
 20
5.3326971007
 10
-17.1534066585
 20
5.3664517327
 10
-17.1304211193
 20
5.4073009249
 10
-17.1132028978
 20
5.4545530261
 10
-17.1023687187
 20
5.5069799969
 10
-17.097899949
 20
5.5637083683
 10
-17.099677897
 20
5.6238271948
 10
-17.1078567503
 20
5.685852908
 10
-17.1219986455
 20
5.748530016
 10
-17.1416427859
 20
5.8111128487
 10
-17.1668395256
 20
5.8728685094
 10
-17.1972460398
 20
5.9330494146
 10
-17.2321495458
 20
5.9904848172
 10
-17.2710125886
 20
6.0438627987
 10
-17.3131384687
 20
6.0922355534
 10
-17.35772746
 20
6.1349965529
 10
-17.4040074267
 20
6.171494326
  0
LINE
  5
481
100
AcDbEntity
  8
0
100
AcDbLine
 62
7
  6
CONTINUOUS
 10
-20.551057403
 20
9.1560446954
 11
-20.5871989423
 21
9.1304887679
  0
LINE
  5
482
100
AcDbEntity
  8
0
100
AcDbLine
 62
7
  6
CONTINUOUS
 10
-19.9497609153
 20
8.7311515194
 11
-19.9858997072
 21
8.7055975346
  0
LINE
  5
483
100
AcDbEntity
  8
0
100
AcDbLine
 62
7
  6
CONTINUOUS
 10
-22.3892078533
 20
6.7821933915
 11
-22.4247494084
 21
6.7570617169
  0
LINE
  5
484
100
AcDbEntity
  8
0
100
AcDbLine
 62
7
  6
CONTINUOUS
 10
-20.8698395011
 20
7.0742317133
 11
-20.9055604009
 21
7.0489732228
  0
LINE
  5
485
100
AcDbEntity
  8
0
100
AcDbLine
 62
7
  6
CONTINUOUS
 10
-21.386882915
 20
6.0742352234
 11
-21.4224244552
 21
6.0491035594
  0
LINE
  5
486
100
AcDbEntity
  8
0
100
AcDbLine
 62
7
  6
CONTINUOUS
 10
-18.5833463207
 20
7.7660675451
 11
-18.6194752126
 21
7.7405205606
  0
LINE
  5
487
100
AcDbEntity
  8
0
100
AcDbLine
 62
7
  6
CONTINUOUS
 10
-17.1745152101
 20
6.7717745769
 11
-17.2106285742
 21
6.7462385723
  0
LINE
  5
488
100
AcDbEntity
  8
0
100
AcDbLine
 62
7
  6
CONTINUOUS
 10
-18.2287918992
 20
5.8911354943
 11
-18.2646062821
 21
5.8658109013
  0
LINE
  5
489
100
AcDbEntity
  8
0
100
AcDbLine
 62
7
  6
CONTINUOUS
 10
-19.4524762471
 20
4.7128372248
 11
-19.4880170404
 21
4.6877060888
  0
LINE
  5
48A
100
AcDbEntity
  8
0
100
AcDbLine
 62
7
  6
CONTINUOUS
 10
-17.4951680945
 20
5.3757038615
 11
-17.5309761159
 21
5.3503837667
  0
LINE
  5
48B
100
AcDbEntity
  8
0
100
AcDbLine
 62
7
  6
CONTINUOUS
 10
-18.4465977113
 20
4.0073808296
 11
-18.4821379736
 21
3.9822500691
  0
LINE
  5
48C
100
AcDbEntity
  8
ASSI
100
AcDbLine
 62
7
  6
CONTINUOUS
 10
-16.7178014076
 20
4.5767142842
 11
-16.6820342381
 21
4.6020054923
  0
LWPOLYLINE
  5
48D
100
AcDbEntity
  8
DRAFT
100
AcDbPolyline
 62
7
  6
CONTINUOUS
 90
10
 70
0
 10
25.5424108464
 20
-26.2282602524
 10
25.5281704878
 20
-26.2235069878
 10
25.5140981475
 20
-26.2186586121
 10
25.5001938256
 20
-26.2137151254
 10
25.4864504611
 20
-26.2086801537
 10
25.4728751149
 20
-26.2035500709
 10
25.4594889701
 20
-26.1983139991
 10
25.4462990877
 20
-26.1929683121
 10
25.4332984066
 20
-26.187516636
 10
25.4204869269
 20
-26.1819589709
  0
LINE
  5
48E
100
AcDbEntity
  8
SCATOLA
100
AcDbLine
 62
7
  6
CONTINUOUS
 10
51.7551704131
 20
-35.6239118682
 11
51.470112861
 21
-35.5103778932
  0
LWPOLYLINE
  5
48F
100
AcDbEntity
  8
COPY_GEOM
100
AcDbPolyline
 62
7
  6
CONTINUOUS
 90
7
 70
0
 10
25.5351985254
 20
-26.0217533988
 10
25.5190522287
 20
-26.0152712339
 10
25.502992376
 20
-26.0086829073
 10
25.4870189673
 20
-26.0019884189
 10
25.4711320027
 20
-25.9951877686
 10
25.4553314822
 20
-25.9882809566
 10
25.4396174057
 20
-25.9812679827
  0
LWPOLYLINE
  5
490
100
AcDbEntity
  8
DRAFT
100
AcDbPolyline
 62
7
  6
CONTINUOUS
 90
10
 70
0
 10
25.4204869269
 20
-26.1819589709
 10
24.7366037022
 20
-25.8753767636
 10
24.0733942378
 20
-25.5708725922
 10
23.4308585336
 20
-25.2684464568
 10
22.8092006179
 20
-24.9681982152
 10
22.2082164624
 20
-24.6700280095
 10
21.6272939827
 20
-24.3736362661
 10
21.0662291506
 20
-24.0789231273
 10
20.5252259944
 20
-23.7859884508
 10
20.0042845139
 20
-23.4948322368
  0
LWPOLYLINE
  5
491
100
AcDbEntity
  8
RACCORDO
100
AcDbPolyline
 62
250
  6
CONTINUOUS
 90
13
 70
0
 10
8.3600879749
 20
-23.9010668043
 10
8.4584312
 20
-23.9620510044
 10
8.5671905504
 20
-24.013437199
 10
8.684505301
 20
-24.0543460633
 10
8.8083683234
 20
-24.0840775233
 10
8.9366603758
 20
-24.1021227301
 10
9.0671863556
 20
-24.1081727875
 10
9.1977129683
 20
-24.1021240436
 10
9.3260068191
 20
-24.0840798595
 10
9.449872586
 20
-24.0543488858
 10
9.5671907731
 20
-24.0134397593
 10
9.6759539666
 20
-23.9620523665
 10
9.7743010689
 20
-23.9010659039
  0
LWPOLYLINE
  5
492
100
AcDbEntity
  8
SUPERFICI
100
AcDbPolyline
 62
250
  6
CONTINUOUS
 90
31
 70
0
 10
13.0976956133
 20
-25.4510506846
 10
13.0526210568
 20
-25.4202144182
 10
13.0064045119
 20
-25.3897849811
 10
12.9590534252
 20
-25.3597860059
 10
12.9105098655
 20
-25.3301510037
 10
12.860847151
 20
-25.3009961181
 10
12.8102817116
 20
-25.2726099587
 10
12.758897259
 20
-25.2450968311
 10
12.7066556696
 20
-25.2183794007
 10
12.6536030828
 20
-25.1924631723
 10
12.5997672916
 20
-25.1673574528
 10
12.5451688738
 20
-25.1430774992
 10
12.4898453201
 20
-25.1196355773
 10
12.4338264035
 20
-25.0970430194
 10
12.3771338725
 20
-25.0753096489
 10
12.3197941832
 20
-25.054444299
 10
12.2618339123
 20
-25.03445641
 10
12.2032797476
 20
-25.0153554076
 10
12.144158753
 20
-24.9971494831
 10
12.0844982533
 20
-24.9798469383
 10
12.0243257962
 20
-24.9634558724
 10
11.9636691532
 20
-24.9479835482
 10
11.9025563415
 20
-24.9334370672
 10
11.8410155961
 20
-24.9198231974
 10
11.7790753301
 20
-24.9071480626
 10
11.7167641184
 20
-24.8954186041
 10
11.6541107851
 20
-24.8846391609
 10
11.5911443753
 20
-24.8748112951
 10
11.5278940126
 20
-24.865938403
 10
11.4643888848
 20
-24.8580257184
 10
11.4006583306
 20
-24.8510768903
  0
LINE
  5
493
100
AcDbEntity
  8
RACCORDO
100
AcDbLine
 62
250
  6
CONTINUOUS
 10
7.7943976598
 20
-22.9353735567
 11
-55.4209397396
 21
21.7646201934
  0
LINE
  5
494
100
AcDbEntity
  8
RACCORDO
100
AcDbLine
 62
250
  6
CONTINUOUS
 10
8.5015046213
 20
-21.7282673714
 11
-54.7138331412
 21
22.9717266355
  0
LWPOLYLINE
  5
495
100
AcDbEntity
  8
RACCORDO
100
AcDbPolyline
 62
250
  6
CONTINUOUS
 90
7
 70
0
 10
-55.9866300498
 20
21.5989338475
 10
-56.0728765102
 20
21.6684745413
 10
-56.1455484801
 20
21.7453805016
 10
-56.2034025229
 20
21.8283358475
 10
-56.2454487409
 20
21.9159211917
 10
-56.2709677121
 20
22.0066379262
 10
-56.2795228003
 20
22.0989338641
  0
LWPOLYLINE
  5
496
100
AcDbEntity
  8
COPY_GEOM
100
AcDbPolyline
 62
7
  6
CONTINUOUS
 90
11
 70
0
 10
-64.1427951525
 20
36.2663291484
 10
-64.0195458674
 20
36.1625096314
 10
-63.8959349248
 20
36.0709587103
 10
-63.7728195795
 20
35.9921998403
 10
-63.6507719243
 20
35.9264551912
 10
-63.5309284281
 20
35.8744043903
 10
-63.4148722604
 20
35.8367986699
 10
-63.303340569
 20
35.8135788145
 10
-63.1968325728
 20
35.8044102012
 10
-63.0962920427
 20
35.8089777906
 10
-63.0022650228
 20
35.8267038878
  0
LINE
  5
497
100
AcDbEntity
  8
DRAFT
100
AcDbLine
 62
7
  6
CONTINUOUS
 10
-62.7935429928
 20
35.8878868329
 11
-62.69204707
 21
35.8019792414
  0
LWPOLYLINE
  5
498
100
AcDbEntity
  8
DRAFT
100
AcDbPolyline
 62
7
  6
CONTINUOUS
 90
10
 70
0
 10
-64.2238109781
 20
36.0469102744
 10
-64.6376416051
 20
36.4160727978
 10
-65.0529121138
 20
36.7999666216
 10
-65.469622504
 20
37.1985917459
 10
-65.8872795306
 20
37.6124485701
 10
-66.3063764388
 20
38.0410366947
 10
-66.7283929643
 20
38.4828549211
 10
-67.1538223524
 20
38.9374028498
 10
-67.5821713578
 20
39.4051808803
 10
-68.0134399805
 20
39.8861890126
  0
LINE
  5
499
100
AcDbEntity
  8
0
100
AcDbLine
 62
7
  6
CONTINUOUS
 10
-62.8177091167
 20
35.9099186524
 11
-62.7935429928
 21
35.8878868329
  0
LWPOLYLINE
  5
49A
100
AcDbEntity
  8
SUPERFICI
100
AcDbPolyline
 62
250
  6
CONTINUOUS
 90
6
 70
0
 10
15.1130421991
 20
-68.9936937095
 10
15.1452882175
 20
-69.0673209291
 10
15.188217674
 20
-69.1366575253
 10
15.2419684754
 20
-69.2002112232
 10
15.3072173672
 20
-69.2567747693
 10
15.3149258258
 20
-69.2623528532
  0
LINE
  5
49B
100
AcDbEntity
  8
SUPERFICI
100
AcDbLine
 62
250
  6
CONTINUOUS
 10
2.4058418205
 20
-57.9492724561
 11
1.7365581866
 21
-56.2680589276
  0
LWPOLYLINE
  5
49C
100
AcDbEntity
  8
SUPERFICI
100
AcDbPolyline
 62
250
  6
CONTINUOUS
 90
3
 70
0
 10
1.7365581866
 20
-56.2680589276
 10
1.4861937783
 20
-55.6345514295
 10
1.2230874275
 20
-54.9629545895
  0
LWPOLYLINE
  5
49D
100
AcDbEntity
  8
SUPERFICI
100
AcDbPolyline
 62
250
  6
CONTINUOUS
 90
10
 70
0
 10
2.8699297384
 20
-60.584769614
 10
2.6285446007
 20
-59.9219028231
 10
2.3991420302
 20
-59.2730588441
 10
2.1827129325
 20
-58.6559072638
 10
1.9686362683
 20
-58.0486370498
 10
1.7430583502
 20
-57.4178630187
 10
1.4948525358
 20
-56.7421559396
 10
1.2448939774
 20
-56.083958802
 10
1.0152977005
 20
-55.5014179919
 10
0.7893484622
 20
-54.9553106034
  0
LINE
  5
49E
100
AcDbEntity
  8
0
100
AcDbLine
 62
7
  6
CONTINUOUS
 10
-16.7838243488
 20
3.1149376615
 11
-16.6679049631
 21
2.7138603117
  0
LINE
  5
49F
100
AcDbEntity
  8
0
100
AcDbLine
 62
7
  6
CONTINUOUS
 10
-16.6323658822
 20
2.7389902368
 11
-16.7482537045
 21
3.1400954408
  0
LINE
  5
4A0
100
AcDbEntity
  8
0
100
AcDbLine
 62
7
  6
CONTINUOUS
 10
-17.3491553116
 20
3.1895657924
 11
-17.4581446745
 21
3.5671750852
  0
LINE
  5
4A1
100
AcDbEntity
  8
0
100
AcDbLine
 62
7
  6
CONTINUOUS
 10
-17.4581446745
 20
3.5671750852
 11
-17.5638628705
 21
3.943030569
  0
LINE
  5
4A2
100
AcDbEntity
  8
0
100
AcDbLine
 62
7
  6
CONTINUOUS
 10
-16.8961551414
 20
3.5141980588
 11
-16.7838243488
 21
3.1149376615
  0
LINE
  5
4A3
100
AcDbEntity
  8
0
100
AcDbLine
 62
7
  6
CONTINUOUS
 10
-16.7482537045
 20
3.1400954408
 11
-16.8605489528
 21
3.5393843289
  0
LINE
  5
4A4
100
AcDbEntity
  8
0
100
AcDbLine
 62
7
  6
CONTINUOUS
 10
-17.5638628705
 20
3.943030569
 11
-17.6663120039
 21
4.3171178842
  0
LINE
  5
4A5
100
AcDbEntity
  8
0
100
AcDbLine
 62
7
  6
CONTINUOUS
 10
-17.0048924986
 20
3.9116202854
 11
-16.8961551414
 21
3.5141980588
  0
LINE
  5
4A6
100
AcDbEntity
  8
0
100
AcDbLine
 62
7
  6
CONTINUOUS
 10
-16.8605489528
 20
3.5393843289
 11
-16.9692466245
 21
3.9368351287
  0
LWPOLYLINE
  5
4A7
100
AcDbEntity
  8
0
100
AcDbPolyline
 62
7
  6
CONTINUOUS
 90
3
 70
0
 10
-17.6663120039
 20
4.3171178842
 10
-17.7655004916
 20
4.689379592
 10
-17.8138714673
 20
4.8748294331
  0
LINE
  5
4A8
100
AcDbEntity
  8
0
100
AcDbLine
 62
7
  6
CONTINUOUS
 10
-16.9692466245
 20
3.9368351287
 11
-17.0743267098
 21
4.3323607518
  0
LWPOLYLINE
  5
4A9
100
AcDbEntity
  8
0
100
AcDbPolyline
 62
7
  6
CONTINUOUS
 90
3
 70
0
 10
-17.1612257375
 20
4.5041532207
 10
-17.1100170519
 20
4.307119467
 10
-17.0048924986
 20
3.9116202854
  0
LINE
  5
4AA
100
AcDbEntity
  8
0
100
AcDbLine
 62
7
  6
CONTINUOUS
 10
-17.0743267098
 20
4.3323607518
 11
-17.1112577269
 21
4.4745345064
  0
LINE
  5
4AB
100
AcDbEntity
  8
0
100
AcDbLine
 62
7
  6
CONTINUOUS
 10
-20.0909859671
 20
5.111392743
 11
-20.1337077555
 21
5.3687134577
  0
LWPOLYLINE
  5
4AC
100
AcDbEntity
  8
0
100
AcDbPolyline
 62
7
  6
CONTINUOUS
 90
10
 70
0
 10
-19.4524762471
 20
4.7128372248
 10
-19.5255396351
 20
5.1583178007
 10
-19.5941328769
 20
5.6041102114
 10
-19.6582559727
 20
6.0502144569
 10
-19.7178852395
 20
6.4967133868
 10
-19.7730443602
 20
6.9435241515
 10
-19.8238043833
 20
7.3903982021
 10
-19.8701889915
 20
7.8372526887
 10
-19.9121745022
 20
8.2841704611
 10
-19.9497609153
 20
8.7311515194
  0
LINE
  5
4AD
100
AcDbEntity
  8
0
100
AcDbLine
 62
7
  6
CONTINUOUS
 10
-20.1337077555
 20
5.3687134577
 11
-20.1748958377
 21
5.6260437321
  0
LINE
  5
4AE
100
AcDbEntity
  8
0
100
AcDbLine
 62
7
  6
CONTINUOUS
 10
-20.1748958377
 20
5.6260437321
 11
-20.2145502136
 21
5.883383566
  0
LINE
  5
4AF
100
AcDbEntity
  8
0
100
AcDbLine
 62
7
  6
CONTINUOUS
 10
-20.3220630098
 20
6.6376631848
 11
-20.3573408917
 21
6.9071559397
  0
LINE
  5
4B0
100
AcDbEntity
  8
0
100
AcDbLine
 62
7
  6
CONTINUOUS
 10
-20.3573408917
 20
6.9071559397
 11
-20.3910392249
 21
7.1770549771
  0
LINE
  5
4B1
100
AcDbEntity
  8
0
100
AcDbLine
 62
7
  6
CONTINUOUS
 10
-20.3910392249
 20
7.1770549771
 11
-20.4231582604
 21
7.4473506313
  0
LINE
  5
4B2
100
AcDbEntity
  8
0
100
AcDbLine
 62
7
  6
CONTINUOUS
 10
-16.6323658822
 20
2.7389902368
 11
-16.6679049631
 21
2.7138603117
  0
LWPOLYLINE
  5
4B3
100
AcDbEntity
  8
0
100
AcDbPolyline
 62
7
  6
CONTINUOUS
 90
6
 70
0
 10
-16.7177470159
 20
4.576752745
 10
-16.7851769857
 20
4.5368786194
 10
-16.870510386
 20
4.5050271516
 10
-16.9623382037
 20
4.4889946311
 10
-17.0596405035
 20
4.4887544428
 10
-17.1612257375
 20
4.5041532207
  0
LWPOLYLINE
  5
4B4
100
AcDbEntity
  8
0
100
AcDbPolyline
 62
7
  6
CONTINUOUS
 90
7
 70
0
 10
-17.1879437496
 20
5.3275455624
 10
-17.2166384132
 20
5.3134966912
 10
-17.258174954
 20
5.3032701372
 10
-17.3028938533
 20
5.3014062075
 10
-17.349774433
 20
5.3079920855
 10
-17.3979332076
 20
5.3228396125
 10
-17.4466711926
 20
5.3455638933
  0
LWPOLYLINE
  5
4B5
100
AcDbEntity
  8
COPY_GEOM
100
AcDbPolyline
 62
250
  6
CONTINUOUS
 90
13
 70
0
 10
25.4696018421
 20
-22.9010318985
 10
25.6642245038
 20
-22.9833651072
 10
25.8704387626
 20
-23.0503554772
 10
26.0856207642
 20
-23.1011506288
 10
26.3070325498
 20
-23.1351042488
 10
26.5318568929
 20
-23.1517843143
 10
26.7572331462
 20
-23.1509785897
 10
26.9802936399
 20
-23.132697327
 10
27.1982001696
 20
-23.0971731359
 10
27.4081801096
 20
-23.0448580233
 10
27.6075616916
 20
-22.9764176428
 10
27.793808
 20
-22.8927228245
 10
27.9645492511
 20
-22.7948384945
  0
LWPOLYLINE
  5
4B6
100
AcDbEntity
  8
COPY_GEOM
100
AcDbPolyline
 62
7
  6
CONTINUOUS
 90
12
 70
0
 10
21.3681826014
 20
-23.9800220633
 10
21.7270316766
 20
-24.1694922107
 10
22.0900012538
 20
-24.3584389612
 10
22.4570733746
 20
-24.5467977374
 10
22.8282659974
 20
-24.7346331167
 10
23.2010038624
 20
-24.9206148896
 10
23.5753586685
 20
-25.1048052602
 10
23.9512587169
 20
-25.2871420244
 10
24.3259136505
 20
-25.4661083609
 10
24.6983933503
 20
-25.6411986625
 10
25.0696279354
 20
-25.8129185365
 10
25.4396174057
 20
-25.9812679827
  0
LINE
  5
4B7
100
AcDbEntity
  8
COPY_GEOM
100
AcDbLine
 62
7
  6
CONTINUOUS
 10
21.0160831635
 20
-23.7915524596
 11
21.3681826014
 21
-23.9800220633
  0
LWPOLYLINE
  5
4B8
100
AcDbEntity
  8
COPY_GEOM
100
AcDbPolyline
 62
7
  6
CONTINUOUS
 90
4
 70
0
 10
20.0029118087
 20
-23.2336708516
 10
20.3338859564
 20
-23.4186308439
 10
20.6716097413
 20
-23.6045913798
 10
21.0160831635
 20
-23.7915524596
  0
LINE
  5
4B9
100
AcDbEntity
  8
SUPERFICI
100
AcDbLine
 62
250
  6
CONTINUOUS
 10
-54.9676937624
 20
23.9715551403
 11
-54.8011364831
 21
23.8760761768
  0
LWPOLYLINE
  5
4BA
100
AcDbEntity
  8
SUPERFICI
100
AcDbPolyline
 62
250
  6
CONTINUOUS
 90
3
 70
0
 10
-55.0378959666
 20
24.8461334191
 10
-54.8048717108
 20
24.7111576089
 10
-54.5723945512
 20
24.5566484029
  0
LINE
  5
4BB
100
AcDbEntity
  8
DRAFT
100
AcDbLine
 62
7
  6
CONTINUOUS
 10
20.0042845139
 20
-23.4948322368
 11
19.9040323312
 21
-23.4362828185
  0
LWPOLYLINE
  5
4BC
100
AcDbEntity
  8
DRAFT
100
AcDbPolyline
 62
7
  6
CONTINUOUS
 90
3
 70
0
 10
19.9040323312
 20
-23.4362828185
 10
19.8050001055
 20
-23.373971223
 10
19.7073644449
 20
-23.3081188663
  0
LINE
  5
4BD
100
AcDbEntity
  8
SUPERFICI
100
AcDbLine
 62
250
  6
CONTINUOUS
 10
-54.8011364831
 20
23.8760761768
 11
-54.6391819982
 21
23.7689439481
  0
LWPOLYLINE
  5
4BE
100
AcDbEntity
  8
RACCORDO
100
AcDbPolyline
 62
250
  6
CONTINUOUS
 90
19
 70
0
 10
-55.4209397396
 20
21.7646201934
 10
-55.4707208997
 20
21.7975671606
 10
-55.5194421321
 20
21.8256150492
 10
-55.5671034366
 20
21.8487638592
 10
-55.6140642708
 20
21.8671266658
 10
-55.6599651771
 20
21.8805903938
 10
-55.7037277832
 20
21.8888158178
 10
-55.7452933316
 20
21.8916753339
 10
-55.7847205796
 20
21.889296546
 10
-55.8211074275
 20
21.8817230405
 10
-55.8543865039
 20
21.8688187707
 10
-55.88462518
 20
21.8507197833
 10
-55.9111234697
 20
21.8278778049
 10
-55.9337789727
 20
21.8001912898
 10
-55.9526940892
 20
21.7677617838
 10
-55.9674760337
 20
21.7313456502
 10
-55.9779938777
 20
21.6911950102
 10
-55.9843785498
 20
21.6470577426
 10
-55.9866300498
 20
21.5989338475
  0
LWPOLYLINE
  5
4BF
100
AcDbEntity
  8
RACCORDO
100
AcDbPolyline
 62
250
  6
CONTINUOUS
 90
12
 70
0
 10
-54.7138331412
 20
22.9717275722
 10
-54.8246773058
 20
23.045270457
 10
-54.934703355
 20
23.1085958777
 10
-55.0430740432
 20
23.1612155057
 10
-55.1489629493
 20
23.2027216373
 10
-55.2515633776
 20
23.2327914782
 10
-55.3500942348
 20
23.2511887981
 10
-55.4438066202
 20
23.257764898
 10
-55.5319773533
 20
23.2524597019
 10
-55.6139195038
 20
23.2353080001
 10
-55.6890301476
 20
23.2064249003
 10
-55.7527924438
 20
23.1688242381
  0
LWPOLYLINE
  5
4C0
100
AcDbEntity
  8
SUPERFICI
100
AcDbPolyline
 62
250
  6
CONTINUOUS
 90
3
 70
0
 10
-54.5867878351
 20
23.718732365
 10
-54.5960480614
 20
23.7249034692
 10
-54.6391827955
 20
23.7689468165
  0
LINE
  5
4C1
100
AcDbEntity
  8
SUPERFICI
100
AcDbLine
 62
7
  6
CONTINUOUS
 10
-54.686680451
 20
23.7859703978
 11
-54.5867878351
 21
23.718732365
  0
LINE
  5
4C2
100
AcDbEntity
  8
SUPERFICI
100
AcDbLine
 62
250
  6
CONTINUOUS
 10
-54.1481555856
 20
26.1294368167
 11
-54.4298189698
 21
26.320762055
  0
LINE
  5
4C3
100
AcDbEntity
  8
SUPERFICI
100
AcDbLine
 62
7
  6
CONTINUOUS
 10
5.2212347181
 20
-15.841527118
 11
4.0513764542
 21
-15.0379186286
  0
LWPOLYLINE
  5
4C4
100
AcDbEntity
  8
SUPERFICI
100
AcDbPolyline
 62
7
  6
CONTINUOUS
 90
4
 70
0
 10
4.0513764542
 20
-15.0379186286
 10
3.7694665202
 20
-14.8436515005
 10
3.489229715
 20
-14.6488353567
 10
3.2126376289
 20
-14.4542219308
  0
LINE
  5
4C5
100
AcDbEntity
  8
SUPERFICI
100
AcDbLine
 62
7
  6
CONTINUOUS
 10
-54.5835817449
 20
23.716514208
 11
-54.5867878351
 21
23.718732365
  0
LINE
  5
4C6
100
AcDbEntity
  8
SUPERFICI
100
AcDbLine
 62
7
  6
CONTINUOUS
 10
5.7632985744
 20
-16.2172023711
 11
5.2212347181
 21
-15.841527118
  0
LINE
  5
4C7
100
AcDbEntity
  8
0
100
AcDbLine
 62
7
  6
CONTINUOUS
 10
-16.6679049631
 20
2.7138603117
 11
-17.3491553116
 21
3.1895657924
  0
LINE
  5
4C8
100
AcDbEntity
  8
SUPERFICI
100
AcDbLine
 62
7
  6
CONTINUOUS
 10
6.2668304412
 20
-16.5690893921
 11
5.7632985744
 21
-16.2172023711
  0
LINE
  5
4C9
100
AcDbEntity
  8
0
100
AcDbLine
 62
7
  6
CONTINUOUS
 10
-18.4821379736
 20
3.9822500691
 11
-19.0858092571
 21
4.4054330109
  0
LINE
  5
4CA
100
AcDbEntity
  8
0
100
AcDbLine
 62
7
  6
CONTINUOUS
 10
-17.8138714673
 20
4.8748294331
 11
-18.3405472329
 21
5.2443122059
  0
LINE
  5
4CB
100
AcDbEntity
  8
0
100
AcDbLine
 62
7
  6
CONTINUOUS
 10
-19.4880170404
 20
4.6877060888
 11
-20.0909859671
 21
5.111392743
  0
LINE
  5
4CC
100
AcDbEntity
  8
SUPERFICI
100
AcDbLine
 62
7
  6
CONTINUOUS
 10
-0.3682341163
 20
-11.8929153382
 11
-1.6064810833
 21
-11.0222450715
  0
LINE
  5
4CD
100
AcDbEntity
  8
0
100
AcDbLine
 62
7
  6
CONTINUOUS
 10
-20.2145502136
 20
5.883383566
 11
-21.1655673103
 21
6.5533919279
  0
LINE
  5
4CE
100
AcDbEntity
  8
0
100
AcDbLine
 62
7
  6
CONTINUOUS
 10
-20.3294272427
 20
6.6932760951
 11
-20.8698395011
 21
7.0742317133
  0
LINE
  5
4CF
100
AcDbEntity
  8
0
100
AcDbLine
 62
7
  6
CONTINUOUS
 10
-20.9055604009
 20
7.0489732228
 11
-20.3220630098
 21
6.6376631848
  0
LINE
  5
4D0
100
AcDbEntity
  8
SUPERFICI
100
AcDbLine
 62
7
  6
CONTINUOUS
 10
-1.6064810833
 20
-11.0222450715
 11
-2.9807602582
 21
-10.0530318162
  0
LINE
  5
4D1
100
AcDbEntity
  8
0
100
AcDbLine
 62
7
  6
CONTINUOUS
 10
-21.4224244552
 20
6.0491035594
 11
-22.0239724564
 21
6.4737688174
  0
LINE
  5
4D2
100
AcDbEntity
  8
SUPERFICI
100
AcDbLine
 62
7
  6
CONTINUOUS
 10
-54.5840738558
 20
23.7158864091
 11
8.6312606623
 21
-20.9841053024
  0
LINE
  5
4D3
100
AcDbEntity
  8
SUPERFICI
100
AcDbLine
 62
7
  6
CONTINUOUS
 10
-54.5723902307
 20
24.5566482173
 11
8.6429146838
 21
-20.1433224943
  0
LINE
  5
4D4
100
AcDbEntity
  8
SUPERFICI
100
AcDbLine
 62
7
  6
CONTINUOUS
 10
-48.0428780725
 20
21.8001888012
 11
-48.4924843652
 21
22.1176988214
  0
LINE
  5
4D5
100
AcDbEntity
  8
DRAFT
100
AcDbLine
 62
7
  6
CONTINUOUS
 10
25.5424108464
 20
-26.2282602524
 11
24.7382592496
 21
-25.6596392052
  0
LINE
  5
4D6
100
AcDbEntity
  8
DRAFT
100
AcDbLine
 62
7
  6
CONTINUOUS
 10
-67.5736011216
 20
39.6147032473
 11
-68.077964033
 21
39.971341682
  0
LINE
  5
4D7
100
AcDbEntity
  8
SUPERFICI
100
AcDbLine
 62
7
  6
CONTINUOUS
 10
-6.0241148752
 20
-7.899442319
 11
-42.1244578586
 21
17.627456043
  0
LINE
  5
4D8
100
AcDbEntity
  8
SUPERFICI
100
AcDbLine
 62
7
  6
CONTINUOUS
 10
-44.2274686641
 20
19.1158664618
 11
-48.0428780725
 21
21.8001888012
  0
LINE
  5
4D9
100
AcDbEntity
  8
SUPERFICI
100
AcDbLine
 62
7
  6
CONTINUOUS
 10
-42.1244578586
 20
17.627456043
 11
-44.2274686641
 21
19.1158664618
  0
LINE
  5
4DA
100
AcDbEntity
  8
SUPERFICI
100
AcDbLine
 62
7
  6
CONTINUOUS
 10
-2.9807602582
 20
-10.0530318162
 11
-6.0241148752
 21
-7.899442319
  0
LINE
  5
4DB
100
AcDbEntity
  8
0
100
AcDbLine
 62
7
  6
CONTINUOUS
 10
-22.4247494084
 20
6.7570617169
 11
-23.0256014706
 21
7.1822271493
  0
LINE
  5
4DC
100
AcDbEntity
  8
SUPERFICI
100
AcDbLine
 62
7
  6
CONTINUOUS
 10
6.9582820288
 20
-17.0576208133
 11
6.2668304412
 21
-16.5690893921
  0
LINE
  5
4DD
100
AcDbEntity
  8
0
100
AcDbLine
 62
7
  6
CONTINUOUS
 10
-23.5932587211
 20
7.5845039291
 11
-24.1932211992
 21
8.0102703213
  0
LINE
  5
4DE
100
AcDbEntity
  8
0
100
AcDbLine
 62
7
  6
CONTINUOUS
 10
-24.7600641783
 20
8.4131048069
 11
-25.3592098147
 21
8.8394768645
  0
LINE
  5
4DF
100
AcDbEntity
  8
SUPERFICI
100
AcDbLine
 62
7
  6
CONTINUOUS
 10
-48.4924843652
 20
22.1176988214
 11
-48.9503516215
 21
22.4433450835
  0
LINE
  5
4E0
100
AcDbEntity
  8
SUPERFICI
100
AcDbLine
 62
7
  6
CONTINUOUS
 10
3.2126376289
 20
-14.4542219308
 11
2.65629457
 21
-14.0581436938
  0
LINE
  5
4E1
100
AcDbEntity
  8
SUPERFICI
100
AcDbLine
 62
7
  6
CONTINUOUS
 10
-50.9145473734
 20
23.8554264826
 11
-51.6945563065
 21
24.4115324847
  0
LINE
  5
4E2
100
AcDbEntity
  8
0
100
AcDbLine
 62
7
  6
CONTINUOUS
 10
-25.9579240331
 20
9.2661329806
 11
-26.5562427956
 21
9.6930819482
  0
LWPOLYLINE
  5
4E3
100
AcDbEntity
  8
SUPERFICI
100
AcDbPolyline
 62
7
  6
CONTINUOUS
 90
4
 70
0
 10
1.1052242668
 20
-12.9405171871
 10
0.7561723382
 20
-12.6902598743
 10
0.394176479
 20
-12.4325122003
 10
-0.3682341163
 20
-11.8929153382
  0
LINE
  5
4E4
100
AcDbEntity
  8
0
100
AcDbLine
 62
7
  6
CONTINUOUS
 10
-27.9141422138
 20
10.6641838396
 11
-28.5112210232
 21
11.0920415864
  0
LINE
  5
4E5
100
AcDbEntity
  8
SUPERFICI
100
AcDbLine
 62
7
  6
CONTINUOUS
 10
-48.9503516215
 20
22.4433450835
 11
-49.4195238534
 21
22.7793419888
  0
LINE
  5
4E6
100
AcDbEntity
  8
SUPERFICI
100
AcDbLine
 62
7
  6
CONTINUOUS
 10
7.9752245342
 20
-17.7840564832
 11
6.9582820288
 21
-17.0576208133
  0
LWPOLYLINE
  5
4E7
100
AcDbEntity
  8
DRAFT
100
AcDbPolyline
 62
7
  6
CONTINUOUS
 90
34
 70
0
 10
19.7073644449
 20
-23.3081188663
 10
19.6113458597
 20
-23.2389990998
 10
19.5170512376
 20
-23.1667879425
 10
19.4244786808
 20
-23.0915427092
 10
19.3337509037
 20
-23.0134582912
 10
19.2450365073
 20
-22.9327482721
 10
19.1584015089
 20
-22.849469276
 10
19.0739822282
 20
-22.7638448247
 10
18.9919035071
 20
-22.6760429386
 10
18.9122197326
 20
-22.5860141551
 10
18.8350929762
 20
-22.4939044219
 10
18.7606095822
 20
-22.3999377682
 10
18.6887231662
 20
-22.304163022
 10
18.6195167425
 20
-22.2067606838
 10
18.5531498145
 20
-22.1079140415
 10
18.4897030077
 20
-22.0076675831
 10
18.4292082126
 20
-21.9061180992
 10
18.371872219
 20
-21.8035385617
 10
18.3180238221
 20
-21.7002405434
 10
18.2678384193
 20
-21.5964780487
 10
18.2213063483
 20
-21.4923787712
 10
18.1784603224
 20
-21.3880664557
 10
18.1394361288
 20
-21.2838245159
 10
18.1042396185
 20
-21.1797433011
 10
18.0727435999
 20
-21.0756631485
 10
18.0450311627
 20
-20.9718715232
 10
18.0212056443
 20
-20.8684717627
 10
18.0012610905
 20
-20.7650606067
 10
17.9853104485
 20
-20.6618652783
 10
17.9735301467
 20
-20.5591244648
 10
17.9661220556
 20
-20.4565141305
 10
17.963306548
 20
-20.3541349648
 10
17.9652577061
 20
-20.2524801871
 10
17.972159438
 20
-20.1518626709
  0
LINE
  5
4E8
100
AcDbEntity
  8
SUPERFICI
100
AcDbLine
 62
7
  6
CONTINUOUS
 10
-49.4195238534
 20
22.7793419888
 11
-50.9145473734
 21
23.8554264826
  0
LINE
  5
4E9
100
AcDbEntity
  8
SUPERFICI
100
AcDbLine
 62
7
  6
CONTINUOUS
 10
2.65629457
 20
-14.0581436938
 11
1.1052242668
 21
-12.9405171871
  0
LWPOLYLINE
  5
4EA
100
AcDbEntity
  8
SUPERFICI
100
AcDbPolyline
 62
7
  6
CONTINUOUS
 90
9
 70
0
 10
-51.6945563065
 20
24.4115324847
 10
-52.2244837296
 20
24.794310929
 10
-52.4926323882
 20
24.9864720869
 10
-52.762987053
 20
25.1775626856
 10
-53.0355126239
 20
25.3683863157
 10
-53.310273336
 20
25.5589897827
 10
-53.5872986016
 20
25.7493829571
 10
-53.8665830364
 20
25.9395387971
 10
-54.1481457343
 20
26.1294437831
  0
LINE
  5
4EB
100
AcDbEntity
  8
SUPERFICI
100
AcDbLine
 62
7
  6
CONTINUOUS
 10
8.7202313046
 20
-18.3226282734
 11
7.9752245342
 21
-17.7840564832
  0
LINE
  5
4EC
100
AcDbEntity
  8
SUPERFICI
100
AcDbLine
 62
7
  6
CONTINUOUS
 10
9.1244565359
 20
-18.6164634123
 11
8.7202313046
 21
-18.3226282734
  0
LWPOLYLINE
  5
4ED
100
AcDbEntity
  8
SUPERFICI
100
AcDbPolyline
 62
7
  6
CONTINUOUS
 90
6
 70
0
 10
8.6283796543
 20
-20.9809279889
 10
8.6999479756
 20
-21.0333303952
 10
8.8295468828
 20
-21.1361690283
 10
8.9652439164
 20
-21.2540807398
 10
9.104787737
 20
-21.3858167452
 10
9.2452977185
 20
-21.5292096376
  0
LINE
  5
4EE
100
AcDbEntity
  8
SUPERFICI
100
AcDbLine
 62
250
  6
CONTINUOUS
 10
8.7381080147
 20
-21.0529545613
 11
8.5761501551
 21
-20.931046173
  0
LINE
  5
4EF
100
AcDbEntity
  8
SUPERFICI
100
AcDbLine
 62
250
  6
CONTINUOUS
 10
8.9046743212
 20
-21.1930295482
 11
8.7381080147
 21
-21.0529545613
  0
LWPOLYLINE
  5
4F0
100
AcDbEntity
  8
SUPERFICI
100
AcDbPolyline
 62
250
  6
CONTINUOUS
 90
3
 70
0
 10
9.2450801723
 20
-21.524134168
 10
9.0740053567
 20
-21.3501585859
 10
8.9046743212
 20
-21.1930295482
  0
LWPOLYLINE
  5
4F1
100
AcDbEntity
  8
SUPERFICI
100
AcDbPolyline
 62
250
  6
CONTINUOUS
 90
3
 70
0
 10
8.5761500897
 20
-20.9310441569
 10
8.6178357721
 20
-20.9739173861
 10
8.6283796543
 20
-20.9809279889
  0
LWPOLYLINE
  5
4F2
100
AcDbEntity
  8
SUPERFICI
100
AcDbPolyline
 62
7
  6
CONTINUOUS
 90
10
 70
0
 10
9.2452977185
 20
-21.5292096376
 10
9.3849810268
 20
-21.6828795363
 10
9.5224651199
 20
-21.8458454429
 10
9.655912557
 20
-22.01654349
 10
9.783918582
 20
-22.193871165
 10
9.9047352523
 20
-22.376198075
 10
10.0162667437
 20
-22.5610935594
 10
10.1174560059
 20
-22.7468845791
 10
10.208086351
 20
-22.9319101769
 10
10.2876970881
 20
-23.1136295741
  0
LWPOLYLINE
  5
4F3
100
AcDbEntity
  8
SUPERFICI
100
AcDbPolyline
 62
250
  6
CONTINUOUS
 90
4
 70
0
 10
10.5933893533
 20
-55.7702163936
 10
10.5626653085
 20
-55.6893715765
 10
10.5454813472
 20
-55.6049498462
 10
10.5448964394
 20
-55.5541814043
  0
LWPOLYLINE
  5
4F4
100
AcDbEntity
  8
SUPERFICI
100
AcDbPolyline
 62
250
  6
CONTINUOUS
 90
7
 70
0
 10
8.529152086
 20
-56.9062757708
 10
8.5099069811
 20
-56.8327576122
 10
8.5017495062
 20
-56.7482663244
 10
8.5050645358
 20
-56.6567290343
 10
8.5190757615
 20
-56.5610002131
 10
8.5430494642
 20
-56.4618897382
 10
8.5761572277
 20
-56.3610482464
  0
LWPOLYLINE
  5
4F5
100
AcDbEntity
  8
SCATOLA
100
AcDbPolyline
 62
7
  6
CONTINUOUS
 90
14
 70
0
 10
-1.9912300184
 20
53.3257888506
 10
-1.990387785
 20
53.4235906274
 10
-2.0153097349
 20
53.9482799099
 10
-2.0893322288
 20
54.4734003305
 10
-2.2115110839
 20
54.9922537953
 10
-2.3824631744
 20
55.5047600257
 10
-2.6015716261
 20
56.0109993002
 10
-2.8660416345
 20
56.5045143605
 10
-3.1764542726
 20
56.9851422117
 10
-3.5322284673
 20
57.4530458487
 10
-3.9288261948
 20
57.9022569974
 10
-4.3647347804
 20
58.3307862333
 10
-4.8414668989
 20
58.740622981
 10
-5.3590225501
 20
59.1317672405
  0
LWPOLYLINE
  5
4F6
100
AcDbEntity
  8
SCATOLA
100
AcDbPolyline
 62
7
  6
CONTINUOUS
 90
14
 70
0
 10
-0.9461634855
 20
36.7233335798
 10
-0.947005719
 20
36.625531803
 10
-0.9220837691
 20
36.1008425204
 10
-0.8480612752
 20
35.5757220998
 10
-0.72588242
 20
35.056868635
 10
-0.5549303296
 20
34.5443624047
 10
-0.3358218778
 20
34.0381231302
 10
-0.0713518695
 20
33.5446080699
 10
0.2390607686
 20
33.0639802187
 10
0.5948349633
 20
32.5960765817
 10
0.9914326908
 20
32.1468654329
 10
1.4273412764
 20
31.718336197
 10
1.9040733949
 20
31.3084994493
 10
2.4216290461
 20
30.9173551898
  0
LWPOLYLINE
  5
4F7
100
AcDbEntity
  8
SUPERFICI
100
AcDbPolyline
 62
250
  6
CONTINUOUS
 90
10
 70
0
 10
-4.8630759445
 20
-48.1774338622
 10
-4.865010885
 20
-48.2702350104
 10
-4.870896457
 20
-48.3656889468
 10
-4.8807280531
 20
-48.4636225269
 10
-4.8945193246
 20
-48.5639597459
 10
-4.9122336731
 20
-48.6664195355
 10
-4.9337427292
 20
-48.7704948963
 10
-4.9589379329
 20
-48.875870248
 10
-4.9877723214
 20
-48.9824430428
 10
-5.0201632032
 20
-49.0900068206
  0
LWPOLYLINE
  5
4F8
100
AcDbEntity
  8
SUPERFICI
100
AcDbPolyline
 62
250
  6
CONTINUOUS
 90
8
 70
0
 10
-7.1870126861
 20
-58.3012539535
 10
-7.1952882395
 20
-58.3839576735
 10
-7.1950566171
 20
-58.4622911065
 10
-7.1859216586
 20
-58.5350052297
 10
-7.1675037746
 20
-58.601096283
 10
-7.1396633185
 20
-58.6589974549
 10
-7.1028778282
 20
-58.7069896318
 10
-7.0663489368
 20
-58.7381047279
  0
LINE
  5
4F9
100
AcDbEntity
  8
SCATOLA
100
AcDbLine
 62
7
  6
CONTINUOUS
 10
-0.8759595057
 20
36.7438639433
 11
-0.9316320289
 21
36.3018648974
  0
LWPOLYLINE
  5
4FA
100
AcDbEntity
  8
SUPERFICI
100
AcDbPolyline
 62
250
  6
CONTINUOUS
 90
5
 70
0
 10
-67.0672770801
 20
-9.7692574528
 10
-67.1144331687
 20
-9.7752566161
 10
-67.1539277716
 20
-9.7741226804
 10
-67.1840983834
 20
-9.7651495871
 10
-67.2030290193
 20
-9.7477420663
  0
LWPOLYLINE
  5
4FB
100
AcDbEntity
  8
SUPERFICI
100
AcDbPolyline
 62
250
  6
CONTINUOUS
 90
5
 70
0
 10
-56.2795228003
 20
-8.2518550242
 10
-56.2937897355
 20
-8.2529462523
 10
-56.4164359516
 20
-8.2516493949
 10
-56.5379213072
 20
-8.239746702
 10
-56.6564191111
 20
-8.2174207949
  0
LINE
  5
4FC
100
AcDbEntity
  8
SUPERFICI
100
AcDbLine
 62
250
  6
CONTINUOUS
 10
-55.1370115747
 20
24.0538870042
 11
-54.9676937624
 21
23.9715551403
  0
LWPOLYLINE
  5
4FD
100
AcDbEntity
  8
SUPERFICI
100
AcDbPolyline
 62
250
  6
CONTINUOUS
 90
14
 70
0
 10
-54.4298189698
 20
26.320762055
 10
-54.7149860282
 20
26.4933711664
 10
-55.0019273024
 20
26.6451887002
 10
-55.2883563206
 20
26.773543799
 10
-55.5726575015
 20
26.8771293366
 10
-55.8541318606
 20
26.9558764632
 10
-56.1333256807
 20
27.0089158689
 10
-56.4053657788
 20
27.0327877347
 10
-56.6621855073
 20
27.0255108798
 10
-56.9000517272
 20
26.9876141897
 10
-57.1202044455
 20
26.9200968974
 10
-57.3227524554
 20
26.8234671501
 10
-57.5081299447
 20
26.6967580326
 10
-57.6730179794
 20
26.5414524157
  0
LINE
  5
4FE
100
AcDbEntity
  8
0
100
AcDbLine
 62
7
  6
CONTINUOUS
 10
-17.4466711926
 20
5.3455638933
 11
-17.4951684352
 21
5.3757014992
  0
LWPOLYLINE
  5
4FF
100
AcDbEntity
  8
0
100
AcDbPolyline
 62
7
  6
CONTINUOUS
 90
9
 70
0
 10
-17.5309757757
 20
5.3503818859
 10
-17.4830828092
 20
5.3205484772
 10
-17.4347265267
 20
5.2978842537
 10
-17.3867222933
 20
5.2829277042
 10
-17.3397062119
 20
5.2761439401
 10
-17.294687011
 20
5.2778505102
 10
-17.2529339647
 20
5.2879940461
 10
-17.2151529042
 20
5.306373962
 10
-17.2062090184
 20
5.3123404768
  0
LWPOLYLINE
  5
500
100
AcDbEntity
  8
SCATOLA
100
AcDbPolyline
 62
7
  6
CONTINUOUS
 90
40
 70
0
 10
51.8793673792
 20
-35.8542786504
 10
52.025800784
 20
-35.9472766676
 10
52.3583752647
 20
-36.1162606994
 10
52.7150696536
 20
-36.2430312567
 10
53.0961929225
 20
-36.3270475929
 10
53.5014360997
 20
-36.3688504547
 10
53.9256301672
 20
-36.367906632
 10
54.3690178825
 20
-36.3236685478
 10
54.8313564882
 20
-36.2366837791
 10
55.3067486942
 20
-36.1080618469
 10
55.7953617147
 20
-35.937269387
 10
56.2970283356
 20
-35.7248397636
 10
56.8053496242
 20
-35.4734825907
 10
57.3204108255
 20
-35.1826992136
 10
57.8421266947
 20
-34.8529882869
 10
58.3638425638
 20
-34.4885553884
 10
58.8855584329
 20
-34.0889557362
 10
59.407274302
 20
-33.6546341122
 10
59.9223355034
 20
-33.19113044
 10
60.430656792
 20
-32.6980709032
 10
60.9323234128
 20
-32.1758293183
 10
61.4209364334
 20
-31.6310670587
 10
61.8963286394
 20
-31.0634956388
 10
62.358667245
 20
-30.4734035443
 10
62.8020549603
 20
-29.8683176053
 10
63.2262490279
 20
-29.2480457537
 10
63.6314922051
 20
-28.6127800578
 10
64.0126154739
 20
-27.9706235528
 10
64.3693098629
 20
-27.3214879689
 10
64.7018843435
 20
-26.665461576
 10
65.0060968124
 20
-26.0109122194
 10
65.2815839575
 20
-25.3578588196
 10
65.5287090908
 20
-24.7062824561
 10
65.7443200452
 20
-24.0644942125
 10
65.9280131298
 20
-23.4326194728
 10
66.0801920355
 20
-22.8105328529
 10
66.1989156673
 20
-22.2061692846
 10
66.2835369935
 20
-21.6221737451
 10
66.3347030457
 20
-21.0559012571
 10
66.3524138241
 20
-20.5073518206
  0
LWPOLYLINE
  5
501
100
AcDbEntity
  8
COPY_GEOM
100
AcDbPolyline
 62
250
  6
CONTINUOUS
 90
10
 70
0
 10
23.9162669644
 20
-15.9947052764
 10
23.541969402
 20
-15.7566322654
 10
23.1602166636
 20
-15.5104823744
 10
22.7710087491
 20
-15.2562556034
 10
22.3743223848
 20
-14.9937099306
 10
21.9701808445
 20
-14.7230873778
 10
21.5586539496
 20
-14.4451140106
 10
21.1397649739
 20
-14.1600318508
 10
20.7134906437
 20
-13.8675988766
 10
20.2798309589
 20
-13.567815088
  0
LWPOLYLINE
  5
502
100
AcDbEntity
  8
COPY_GEOM
100
AcDbPolyline
 62
250
  6
CONTINUOUS
 90
4
 70
0
 10
22.6388288796
 20
-18.1259395263
 10
21.8627129249
 20
-17.6006892211
 10
21.4650178946
 20
-17.3298627698
 10
21.0609273037
 20
-17.0517644739
  0
LWPOLYLINE
  5
503
100
AcDbEntity
  8
ASSI
100
AcDbPolyline
 62
250
  6
CONTINUOUS
 90
4
 70
0
 10
20.1181071197
 20
-13.4319087439
 10
18.5797771485
 20
-12.3613276933
 10
16.9944100143
 20
-11.2508855888
 10
15.3620057173
 20
-10.1005824302
  0
LWPOLYLINE
  5
504
100
AcDbEntity
  8
COPY_GEOM
100
AcDbPolyline
 62
250
  6
CONTINUOUS
 90
5
 70
0
 10
21.0609273037
 20
-17.0517644739
 10
20.231843574
 20
-16.4751911443
 10
19.8067496439
 20
-16.1788253606
 10
19.3753664562
 20
-15.8762464918
 10
18.9381540331
 20
-15.5672490189
  0
LINE
  5
505
100
AcDbEntity
  8
ASSI
100
AcDbLine
 62
250
  6
CONTINUOUS
 10
-47.3665002608
 20
31.3856611661
 11
-44.3040067261
 21
29.2432338001
  0
LINE
  5
506
100
AcDbEntity
  8
ASSI
100
AcDbLine
 62
250
  6
CONTINUOUS
 10
-44.3040067261
 20
29.2432338001
 11
-42.008508873
 21
27.6353292828
  0
LINE
  5
507
100
AcDbEntity
  8
ASSI
100
AcDbLine
 62
250
  6
CONTINUOUS
 10
-42.008508873
 20
27.6353292828
 11
-39.3638530613
 21
25.7806680698
  0
LWPOLYLINE
  5
508
100
AcDbEntity
  8
COPY_GEOM
100
AcDbPolyline
 62
250
  6
CONTINUOUS
 90
34
 70
0
 10
-65.1991352378
 20
43.9848805468
 10
-65.3574867982
 20
44.0959455745
 10
-65.5235683778
 20
44.1996384789
 10
-65.6956543225
 20
44.2937397842
 10
-65.8745119785
 20
44.3751921449
 10
-66.0552163683
 20
44.4414043454
 10
-66.2289569551
 20
44.4925602361
 10
-66.3947580219
 20
44.5278107519
 10
-66.5528801657
 20
44.5462241234
 10
-66.6992214806
 20
44.5516215067
 10
-66.8342804106
 20
44.5462281656
 10
-66.9592802279
 20
44.5294721383
 10
-67.0728423466
 20
44.5034457671
 10
-67.1756313468
 20
44.4705090602
 10
-67.2692014897
 20
44.4312342583
 10
-67.353862815
 20
44.3857344414
 10
-67.4303707614
 20
44.3353632998
 10
-67.4995891494
 20
44.2812221641
 10
-67.5618421025
 20
44.2228987864
 10
-67.6175680697
 20
44.1613474867
 10
-67.6674645169
 20
44.097575675
 10
-67.7120560371
 20
44.0309614995
 10
-67.7516948489
 20
43.9620054063
 10
-67.7867521974
 20
43.8915971112
 10
-67.8176286139
 20
43.8194225816
 10
-67.8445503124
 20
43.7457800937
 10
-67.8677714255
 20
43.6713987203
 10
-67.8876491863
 20
43.5964464807
 10
-67.9043028006
 20
43.5212087632
 10
-67.917947891
 20
43.4461986398
 10
-67.9290352463
 20
43.3718183492
 10
-67.9377860155
 20
43.2983875367
 10
-67.9442045761
 20
43.2261788367
 10
-67.9483866414
 20
43.1554613937
  0
LINE
  5
509
100
AcDbEntity
  8
ASSI
100
AcDbLine
 62
250
  6
CONTINUOUS
 10
-41.1285882157
 20
29.9247216186
 11
-45.5314527885
 21
33.0125895645
  0
LINE
  5
50A
100
AcDbEntity
  8
ASSI
100
AcDbLine
 62
250
  6
CONTINUOUS
 10
-39.2886017771
 20
28.6337112893
 11
-41.1285882157
 21
29.9247216186
  0
LINE
  5
50B
100
AcDbEntity
  8
ASSI
100
AcDbLine
 62
250
  6
CONTINUOUS
 10
-45.5314527885
 20
33.0125895645
 11
-48.4592211991
 21
35.0678371821
  0
LINE
  5
50C
100
AcDbEntity
  8
ASSI
100
AcDbLine
 62
250
  6
CONTINUOUS
 10
-39.3638530613
 20
25.7806680698
 11
-35.1300773491
 21
22.807961473
  0
LINE
  5
50D
100
AcDbEntity
  8
0
100
AcDbLine
 62
7
  6
CONTINUOUS
 10
-18.2646062821
 20
5.8658109013
 11
-17.5309761159
 21
5.3503837667
  0
LINE
  5
50E
100
AcDbEntity
  8
0
100
AcDbLine
 62
7
  6
CONTINUOUS
 10
-17.4951680945
 20
5.3757038615
 11
-18.2287918992
 21
5.8911354943
  0
LINE
  5
50F
100
AcDbEntity
  8
ASSI
100
AcDbLine
 62
250
  6
CONTINUOUS
 10
-35.1300773491
 20
22.807961473
 11
-31.2624684198
 21
20.0900148728
  0
LWPOLYLINE
  5
510
100
AcDbEntity
  8
ASSI
100
AcDbPolyline
 62
250
  6
CONTINUOUS
 90
7
 70
0
 10
-48.4592211991
 20
35.0678371821
 10
-52.0105464849
 20
37.5649283527
 10
-53.7452903837
 20
38.7866018619
 10
-55.4266851468
 20
39.975175087
 10
-57.0463232572
 20
41.1257109827
 10
-58.6126122319
 20
42.2431465943
 10
-60.125552071
 20
43.3274819219
  0
LINE
  5
511
100
AcDbEntity
  8
ASSI
100
AcDbLine
 62
250
  6
CONTINUOUS
 10
-31.2624684198
 20
20.0900148728
 11
-27.7194265763
 21
17.5980822748
  0
LINE
  5
512
100
AcDbEntity
  8
0
100
AcDbLine
 62
7
  6
CONTINUOUS
 10
-17.4040076912
 20
6.1714955532
 11
-18.1367316579
 21
6.6875734676
  0
LINE
  5
513
100
AcDbEntity
  8
ASSI
100
AcDbLine
 62
250
  6
CONTINUOUS
 10
-27.7194265763
 20
17.5980822748
 11
-24.0300008933
 21
14.9986029291
  0
LWPOLYLINE
  5
514
100
AcDbEntity
  8
ASSI
100
AcDbPolyline
 62
250
  6
CONTINUOUS
 90
4
 70
0
 10
-32.0766608429
 20
23.5593899735
 10
-33.840413948
 20
24.8034367237
 10
-35.6337604852
 20
26.0657410519
 10
-39.2886017771
 20
28.6337112893
  0
LINE
  5
515
100
AcDbEntity
  8
0
100
AcDbLine
 62
7
  6
CONTINUOUS
 10
-18.6194752126
 20
7.7405205606
 11
-17.2106285742
 21
6.7462385723
  0
LINE
  5
516
100
AcDbEntity
  8
0
100
AcDbLine
 62
7
  6
CONTINUOUS
 10
-17.1745152101
 20
6.7717745769
 11
-18.5833463207
 21
7.7660675451
  0
LINE
  5
517
100
AcDbEntity
  8
0
100
AcDbLine
 62
7
  6
CONTINUOUS
 10
-20.5871989423
 20
9.1304887679
 11
-19.9858997072
 21
8.7055975346
  0
LINE
  5
518
100
AcDbEntity
  8
0
100
AcDbLine
 62
7
  6
CONTINUOUS
 10
-19.9497609153
 20
8.7311515194
 11
-20.551057403
 21
9.1560446954
  0
LINE
  5
519
100
AcDbEntity
  8
ASSI
100
AcDbLine
 62
250
  6
CONTINUOUS
 10
-24.0300008933
 20
14.9986029291
 11
-21.2753587338
 21
13.053109154
  0
LINE
  5
51A
100
AcDbEntity
  8
DRAFT
100
AcDbLine
 62
7
  6
CONTINUOUS
 10
33.8898264905
 20
-26.0949070224
 11
33.6286740945
 21
-25.9102443923
  0
LINE
  5
51B
100
AcDbEntity
  8
0
100
AcDbLine
 62
7
  6
CONTINUOUS
 10
-22.8614433252
 20
10.7386303645
 11
-21.9528738426
 21
10.0960670068
  0
LINE
  5
51C
100
AcDbEntity
  8
0
100
AcDbLine
 62
7
  6
CONTINUOUS
 10
-21.9167298754
 20
10.1216246511
 11
-22.8253006855
 21
10.7641870701
  0
LWPOLYLINE
  5
51D
100
AcDbEntity
  8
COPY_GEOM
100
AcDbPolyline
 62
250
  6
CONTINUOUS
 90
3
 70
0
 10
-61.6722572177
 20
41.4329267125
 10
-62.1028721183
 20
41.7375843274
 10
-62.524693158
 20
42.0383108089
  0
LINE
  5
51E
100
AcDbEntity
  8
ASSI
100
AcDbLine
 62
250
  6
CONTINUOUS
 10
-19.9488687936
 20
14.9875314765
 11
-32.0766608429
 21
23.5593899735
  0
LINE
  5
51F
100
AcDbEntity
  8
ASSI
100
AcDbLine
 62
250
  6
CONTINUOUS
 10
-7.9064044465
 20
6.4689017976
 11
-19.9488687936
 21
14.9875314765
  0
LINE
  5
520
100
AcDbEntity
  8
0
100
AcDbLine
 62
7
  6
CONTINUOUS
 10
-24.8913513831
 20
12.1756416116
 11
-23.9833626975
 21
11.5326675684
  0
LINE
  5
521
100
AcDbEntity
  8
0
100
AcDbLine
 62
7
  6
CONTINUOUS
 10
-23.9472252623
 20
11.5582205939
 11
-24.8552210193
 21
12.2011896368
  0
LINE
  5
522
100
AcDbEntity
  8
ASSI
100
AcDbLine
 62
250
  6
CONTINUOUS
 10
-21.2753587338
 20
13.053109154
 11
-18.4027845524
 21
11.0194564749
  0
LINE
  5
523
100
AcDbEntity
  8
0
100
AcDbLine
 62
7
  6
CONTINUOUS
 10
-26.0922443634
 20
13.0265140417
 11
-25.4918405338
 21
12.6010316611
  0
LINE
  5
524
100
AcDbEntity
  8
0
100
AcDbLine
 62
7
  6
CONTINUOUS
 10
-25.4557161618
 20
12.6265754495
 11
-26.056126946
 21
13.0520529125
  0
LINE
  5
525
100
AcDbEntity
  8
0
100
AcDbLine
 62
7
  6
CONTINUOUS
 10
-27.0926672235
 20
13.7358352533
 11
-26.4924453651
 21
13.3102141995
  0
LINE
  5
526
100
AcDbEntity
  8
0
100
AcDbLine
 62
7
  6
CONTINUOUS
 10
-26.4563330829
 20
13.3357494392
 11
-27.0565633816
 21
13.7613645247
  0
LINE
  5
527
100
AcDbEntity
  8
0
100
AcDbLine
 62
7
  6
CONTINUOUS
 10
-29.0194411681
 20
15.1026123312
 11
-28.4193410673
 21
14.6769041819
  0
LINE
  5
528
100
AcDbEntity
  8
0
100
AcDbLine
 62
7
  6
CONTINUOUS
 10
-28.3832588695
 20
14.7024181486
 11
-28.9833698557
 21
15.1281186008
  0
LINE
  5
529
100
AcDbEntity
  8
ASSI
100
AcDbLine
 62
250
  6
CONTINUOUS
 10
-18.4027845524
 20
11.0194564749
 11
-15.8377129858
 21
9.1999012075
  0
LWPOLYLINE
  5
52A
100
AcDbEntity
  8
ASSI
100
AcDbPolyline
 62
250
  6
CONTINUOUS
 90
3
 70
0
 10
15.3620057173
 20
-10.1005824302
 10
13.6754485692
 20
-8.903700618
 10
11.9418542582
 20
-7.6669577518
  0
LWPOLYLINE
  5
52B
100
AcDbEntity
  8
ASSI
100
AcDbPolyline
 62
250
  6
CONTINUOUS
 90
6
 70
0
 10
15.4238855103
 20
-13.1027829993
 10
16.1696979019
 20
-13.6328704302
 10
16.8776182081
 20
-14.1336245877
 10
17.5424526791
 20
-14.6011831882
 10
18.1672956259
 20
-15.0380906643
 10
18.7575442452
 20
-15.4489614759
  0
LINE
  5
52C
100
AcDbEntity
  8
ASSI
100
AcDbLine
 62
250
  6
CONTINUOUS
 10
-15.8377129858
 20
9.1999012075
 11
-12.2333417821
 21
6.6392110731
  0
LINE
  5
52D
100
AcDbEntity
  8
ASSI
100
AcDbLine
 62
250
  6
CONTINUOUS
 10
-12.2333417821
 20
6.6392110731
 11
-8.4143138289
 21
3.9234086921
  0
LINE
  5
52E
100
AcDbEntity
  8
ASSI
100
AcDbLine
 62
250
  6
CONTINUOUS
 10
-8.4143138289
 20
3.9234086921
 11
-4.2418528564
 21
0.9537054903
  0
LINE
  5
52F
100
AcDbEntity
  8
ASSI
100
AcDbLine
 62
250
  6
CONTINUOUS
 10
-4.2418528564
 20
0.9537054903
 11
-1.4992315203
 21
-1.0004002952
  0
LINE
  5
530
100
AcDbEntity
  8
ASSI
100
AcDbLine
 62
250
  6
CONTINUOUS
 10
14.6488059073
 20
-12.5497006935
 11
15.4238855103
 21
-13.1027829993
  0
LINE
  5
531
100
AcDbEntity
  8
ASSI
100
AcDbLine
 62
250
  6
CONTINUOUS
 10
-1.4992315203
 20
-1.0004002952
 11
0.8771371325
 21
-2.6956440237
  0
LWPOLYLINE
  5
532
100
AcDbEntity
  8
ASSI
100
AcDbPolyline
 62
250
  6
CONTINUOUS
 90
10
 70
0
 10
11.9418542582
 20
-7.6669577518
 10
8.3992224972
 20
-5.1362766553
 10
6.5901850472
 20
-3.842338425
 10
4.7719230985
 20
-2.5430565334
 10
2.9442818906
 20
-1.2389903648
 10
1.107416184
 20
0.0704194652
 10
-0.7217441416
 20
1.3724865166
 10
-2.5443454266
 20
2.6675154156
 10
-4.3592413306
 20
3.955201536
 10
-7.9064044465
 20
6.4689017976
  0
LINE
  5
533
100
AcDbEntity
  8
ASSI
100
AcDbLine
 62
250
  6
CONTINUOUS
 10
0.8771371325
 20
-2.6956440237
 11
3.8512853097
 21
-4.8203446796
  0
LINE
  5
534
100
AcDbEntity
  8
ASSI
100
AcDbLine
 62
250
  6
CONTINUOUS
 10
3.8512853097
 20
-4.8203446796
 11
9.0088903455
 21
-8.5083877211
  0
LINE
  5
535
100
AcDbEntity
  8
ASSI
100
AcDbLine
 62
250
  6
CONTINUOUS
 10
9.0088903455
 20
-8.5083877211
 11
11.3983960436
 21
-10.2192843484
  0
LINE
  5
536
100
AcDbEntity
  8
ASSI
100
AcDbLine
 62
250
  6
CONTINUOUS
 10
11.3983960436
 20
-10.2192843484
 11
14.6488059073
 21
-12.5497006935
  0
LWPOLYLINE
  5
537
100
AcDbEntity
  8
ASSI
100
AcDbPolyline
 62
250
  6
CONTINUOUS
 90
8
 70
0
 10
-61.5010521086
 20
41.299164416
 10
-60.9306719223
 20
40.889554848
 10
-60.3251213984
 20
40.4570253007
 10
-59.6800699812
 20
39.9991300623
 10
-58.9916907614
 20
39.5131974783
 10
-58.2631415304
 20
39.0010056754
 10
-57.50245168
 20
38.4677757733
 10
-47.3665002608
 20
31.3856611661
  0
LWPOLYLINE
  5
538
100
AcDbEntity
  8
COPY_GEOM
100
AcDbPolyline
 62
250
  6
CONTINUOUS
 90
5
 70
0
 10
-62.524693158
 20
42.0383108089
 10
-63.3402749432
 20
42.6237875097
 10
-63.7330828474
 20
42.9066712245
 10
-64.1152583651
 20
43.1845490915
 10
-64.4868956546
 20
43.4577147388
  0
LWPOLYLINE
  5
539
100
AcDbEntity
  8
COPY_GEOM
100
AcDbPolyline
 62
250
  6
CONTINUOUS
 90
10
 70
0
 10
-60.3303384177
 20
43.4321875774
 10
-60.7549943462
 20
43.7393317045
 10
-61.1691121765
 20
44.0411527569
 10
-61.5726919086
 20
44.3376507346
 10
-61.9660259992
 20
44.6288093158
 10
-62.3488219915
 20
44.9146448223
 10
-62.720202515
 20
45.1952062197
 10
-63.079875113
 20
45.47050983
 10
-63.4281322422
 20
45.7405393313
 10
-63.7649739027
 20
46.0052947236
  0
LWPOLYLINE
  5
53A
100
AcDbEntity
  8
COPY_GEOM
100
AcDbPolyline
 62
250
  6
CONTINUOUS
 90
17
 70
0
 10
-63.7649739027
 20
46.0052947236
 10
-64.0066633074
 20
46.1802349723
 10
-64.2551422629
 20
46.3420027696
 10
-64.5092314084
 20
46.4885739105
 10
-64.7717839668
 20
46.6195384686
 10
-65.0369205072
 20
46.7304257362
 10
-65.2908795296
 20
46.8161206103
 10
-65.5302400193
 20
46.8771010195
 10
-65.7571993144
 20
46.9155349139
 10
-65.9677856955
 20
46.9329320605
 10
-66.1609708794
 20
46.9315739839
 10
-66.3382764134
 20
46.9135918062
 10
-66.5001418691
 20
46.8811027508
 10
-66.6465860257
 20
46.8363125802
 10
-66.7788250834
 20
46.7810098075
 10
-66.8989805503
 20
46.716165301
 10
-66.9993974245
 20
46.6492114046
  0
LINE
  5
53B
100
AcDbEntity
  8
COPY_GEOM
100
AcDbLine
 62
250
  6
CONTINUOUS
 10
-64.4868956546
 20
43.4577147388
 11
-65.1991352378
 21
43.9848805468
  0
LWPOLYLINE
  5
53C
100
AcDbEntity
  8
0
100
AcDbPolyline
 62
7
  6
CONTINUOUS
 90
21
 70
0
 10
-17.2106289623
 20
6.7462401626
 10
-17.1091117963
 20
6.666889342
 10
-17.0112521718
 20
6.5757722373
 10
-16.9182919536
 20
6.4740689706
 10
-16.8318196157
 20
6.363256842
 10
-16.752534031
 20
6.2445259545
 10
-16.6803810115
 20
6.1185935516
 10
-16.6165207627
 20
5.9867756028
 10
-16.5620181721
 20
5.8505911903
 10
-16.5169244246
 20
5.7110191959
 10
-16.4822827634
 20
5.5688906128
 10
-16.459431931
 20
5.4268314456
 10
-16.4486267125
 20
5.2885561257
 10
-16.4503720732
 20
5.1558309024
 10
-16.4650536547
 20
5.0303990061
 10
-16.491797051
 20
4.9155154114
 10
-16.5299338342
 20
4.8129225826
 10
-16.5791132165
 20
4.7229824817
 10
-16.6384835025
 20
4.6465063999
 10
-16.7074405676
 20
4.5842443044
 10
-16.7177470159
 20
4.576752745
  0
LWPOLYLINE
  5
53D
100
AcDbEntity
  8
SUPERFICI
100
AcDbPolyline
 62
250
  6
CONTINUOUS
 90
9
 70
0
 10
10.330281641
 20
-23.2015624399
 10
10.2364349224
 20
-22.9812791402
 10
10.1294976989
 20
-22.7610688161
 10
10.0093146103
 20
-22.5420716604
 10
9.8763973648
 20
-22.3264291542
 10
9.7323314553
 20
-22.1159043144
 10
9.5782494316
 20
-21.9111882931
 10
9.414806382
 20
-21.7127599416
 10
9.2450801723
 20
-21.524134168
  0
LWPOLYLINE
  5
53E
100
AcDbEntity
  8
SUPERFICI
100
AcDbPolyline
 62
250
  6
CONTINUOUS
 90
6
 70
0
 10
22.5566052175
 20
-74.0500486789
 10
22.5829972985
 20
-74.1300797885
 10
22.6210691017
 20
-74.2073961305
 10
22.6711777349
 20
-74.2801036445
 10
22.7343472172
 20
-74.3467130894
 10
22.8045862794
 20
-74.4002896035
  0
LINE
  5
53F
100
AcDbEntity
  8
SCATOLA
100
AcDbLine
 62
7
  6
CONTINUOUS
 10
-2.0495480041
 20
53.266117755
 11
-2.0196377145
 21
52.8678528666
  0
LWPOLYLINE
  5
540
100
AcDbEntity
  8
RACCORDO
100
AcDbPolyline
 62
250
  6
CONTINUOUS
 90
6
 70
0
 10
7.79440126
 20
-55.4622886097
 10
7.8004503985
 20
-55.5503052039
 10
7.8184944207
 20
-55.6282614008
 10
7.848224746
 20
-55.6948232601
 10
7.889132842
 20
-55.7488517771
 10
7.9241577343
 20
-55.7787850596
  0
LWPOLYLINE
  5
541
100
AcDbEntity
  8
RACCORDO
100
AcDbPolyline
 62
250
  6
CONTINUOUS
 90
19
 70
0
 10
8.3600879749
 20
-23.9010668043
 10
8.3578343003
 20
-23.8496920574
 10
8.3514310302
 20
-23.7964430351
 10
8.3408781648
 20
-23.7413197375
 10
8.3260346038
 20
-23.6838629344
 10
8.3070414475
 20
-23.624531856
 10
8.2843219958
 20
-23.5647041927
 10
8.2577901928
 20
-23.5043778513
 10
8.2275320946
 20
-23.4435549251
 10
8.1942291691
 20
-23.3836193838
 10
8.1577930084
 20
-23.3245760848
 10
8.1183120206
 20
-23.2664201708
 10
8.076732898
 20
-23.2105210398
 10
8.0330265031
 20
-23.156960489
 10
7.9872219736
 20
-23.1056567212
 10
7.940353414
 20
-23.0577337434
 10
7.8927655259
 20
-23.0135662245
 10
7.8441136079
 20
-22.9727794956
 10
7.7943976598
 20
-22.9353735567
  0
LWPOLYLINE
  5
542
100
AcDbEntity
  8
SUPERFICI
100
AcDbPolyline
 62
250
  6
CONTINUOUS
 90
9
 70
0
 10
9.0671940333
 20
-58.0271054229
 10
9.0618051979
 20
-57.879799556
 10
9.0456408399
 20
-57.7407145483
 10
9.0187475519
 20
-57.610587818
 10
8.9812042808
 20
-57.4900531369
 10
8.9331799265
 20
-57.3798336508
 10
8.8749882103
 20
-57.2806806949
 10
8.806981521
 20
-57.1931295276
 10
8.7294938835
 20
-57.1175544942
  0
LWPOLYLINE
  5
543
100
AcDbEntity
  8
SUPERFICI
100
AcDbPolyline
 62
250
  6
CONTINUOUS
 90
7
 70
0
 10
3.5048693344
 20
-60.7923578191
 10
3.5051554101
 20
-60.8442802261
 10
3.5096618389
 20
-60.8952130288
 10
3.5157711392
 20
-60.9378204416
 10
3.5236553959
 20
-60.970860193
 10
3.5332826052
 20
-60.991902477
 10
3.542328656
 20
-60.998788537
  0
LWPOLYLINE
  5
544
100
AcDbEntity
  8
SUPERFICI
100
AcDbPolyline
 62
250
  6
CONTINUOUS
 90
10
 70
0
 10
2.8695200121
 20
-60.5836815267
 10
2.8652089233
 20
-60.6530164886
 10
2.8586117233
 20
-60.7201795965
 10
2.8496295364
 20
-60.7837254258
 10
2.8380517444
 20
-60.8425373869
 10
2.8238749525
 20
-60.8940846129
 10
2.8075134175
 20
-60.9352857605
 10
2.789299565
 20
-60.9646009651
 10
2.7691772134
 20
-60.9813276442
 10
2.7607801313
 20
-60.9841922038
  0
LWPOLYLINE
  5
545
100
AcDbEntity
  8
SUPERFICI
100
AcDbPolyline
 62
250
  6
CONTINUOUS
 90
10
 70
0
 10
-7.1870113017
 20
-58.3012532008
 10
-7.0333016195
 20
-57.3207323669
 10
-6.8576129054
 20
-56.3278331731
 10
-6.6599840906
 20
-55.3231434874
 10
-6.4403878694
 20
-54.306911014
 10
-6.1989577701
 20
-53.2800895986
 10
-5.9360623446
 20
-52.2443704136
 10
-5.6519670178
 20
-51.2007673919
 10
-5.3467598658
 20
-50.1495853062
 10
-5.0206304066
 20
-49.0914880367
  0
LWPOLYLINE
  5
546
100
AcDbEntity
  8
SCATOLA
100
AcDbPolyline
 62
250
  6
CONTINUOUS
 90
5
 70
0
 10
55.2469310032
 20
19.0569912328
 10
55.1976798376
 20
19.0383819138
 10
55.1446253793
 20
19.0118686917
 10
55.0878460373
 20
18.9784439033
 10
55.0283385252
 20
18.9384282564
  0
LWPOLYLINE
  5
547
100
AcDbEntity
  8
SCATOLA
100
AcDbPolyline
 62
250
  6
CONTINUOUS
 90
5
 70
0
 10
59.3675679724
 20
16.1458340208
 10
59.3114484482
 20
16.1324755869
 10
59.2524788826
 20
16.1098813579
 10
59.1915839822
 20
16.0784056418
 10
59.1297187544
 20
16.0385420527
  0
LWPOLYLINE
  5
548
100
AcDbEntity
  8
SCATOLA
100
AcDbPolyline
 62
250
  6
CONTINUOUS
 90
4
 70
0
 10
55.2663434705
 20
19.0458338639
 10
55.2102249503
 20
19.032474943
 10
55.1512565406
 20
19.0098805512
 10
55.0903630061
 20
18.978405022
  0
LINE
  5
549
100
AcDbEntity
  8
SCATOLA
100
AcDbLine
 62
250
  6
CONTINUOUS
 10
55.2923920843
 20
19.0666900792
 11
55.2469310032
 21
19.0569912328
  0
LWPOLYLINE
  5
54A
100
AcDbEntity
  8
SCATOLA
100
AcDbPolyline
 62
250
  6
CONTINUOUS
 90
3
 70
0
 10
59.380465061
 20
16.1266942085
 10
59.2950566969
 20
16.1124176777
 10
59.2096139382
 20
16.0819625669
  0
LWPOLYLINE
  5
54B
100
AcDbEntity
  8
SUPERFICI
100
AcDbPolyline
 62
250
  6
CONTINUOUS
 90
10
 70
0
 10
-56.6564207255
 20
23.1781204597
 10
-56.7671095081
 20
23.209511759
 10
-56.873283244
 20
23.2506898715
 10
-56.9730646746
 20
23.3014629988
 10
-57.065394587
 20
23.3620783714
 10
-57.1473002792
 20
23.4314708484
 10
-57.2151320911
 20
23.5065496343
 10
-57.2679375611
 20
23.585056799
 10
-57.3062479358
 20
23.6662999629
 10
-57.3301298607
 20
23.7489387383
  0
LINE
  5
54C
100
AcDbEntity
  8
0
100
AcDbLine
 62
7
  6
CONTINUOUS
 10
-56.1634062768
 20
46.1983017722
 11
24.0932133879
 21
-10.5516982278
  0
LINE
  5
54D
100
AcDbEntity
  8
0
100
AcDbLine
 62
7
  6
CONTINUOUS
 10
-55.6330761909
 20
46.6942232119
 11
24.8783160756
 21
-10.2359282225
  0
LINE
  5
54E
100
AcDbEntity
  8
0
100
AcDbLine
 62
7
  6
CONTINUOUS
 10
-55.6330761909
 20
46.8356445682
 11
24.9770968644
 21
-10.1643554318
  0
LWPOLYLINE
  5
54F
100
AcDbEntity
  8
SUPERFICI
100
AcDbPolyline
 62
7
  6
CONTINUOUS
 90
9
 70
0
 10
10.2876970881
 20
-23.1136295741
 10
10.3564550046
 20
-23.2906955131
 10
10.414286171
 20
-23.4611154646
 10
10.4607613023
 20
-23.6211842612
 10
10.4965746768
 20
-23.770302788
 10
10.5220384266
 20
-23.9062407489
 10
10.5373231248
 20
-24.0228881166
 10
10.544053869
 20
-24.1180220185
 10
10.5448880146
 20
-24.1576316246
  0
LWPOLYLINE
  5
550
100
AcDbEntity
  8
SUPERFICI
100
AcDbPolyline
 62
250
  6
CONTINUOUS
 90
4
 70
0
 10
10.5933795935
 20
-24.3746693794
 10
10.5618444583
 20
-24.2910177163
 10
10.5449865397
 20
-24.2051217457
 10
10.5448880146
 20
-24.1576316246
  0
LWPOLYLINE
  5
551
100
AcDbEntity
  8
SUPERFICI
100
AcDbPolyline
 62
250
  6
CONTINUOUS
 90
4
 70
0
 10
10.5290270362
 20
-23.8415347506
 10
10.4777787041
 20
-23.6365303613
 10
10.4111255881
 20
-23.4212801797
 10
10.330281641
 20
-23.2015624399
  0
LINE
  5
552
100
AcDbEntity
  8
SUPERFICI
100
AcDbLine
 62
250
  6
CONTINUOUS
 10
10.5649987091
 20
-24.0333627254
 11
10.5290270362
 21
-23.8415347506
  0
LINE
  5
553
100
AcDbEntity
  8
SCATOLA
100
AcDbLine
 62
7
  6
CONTINUOUS
 10
-2.1469035589
 20
53.8224468488
 11
-2.0495480041
 21
53.266117755
  0
LWPOLYLINE
  5
554
100
AcDbEntity
  8
SUPERFICI
100
AcDbPolyline
 62
250
  6
CONTINUOUS
 90
3
 70
0
 10
10.5933788223
 20
-24.3746670277
 10
10.5863401534
 20
-24.2115662655
 10
10.5649987091
 20
-24.0333627254
  0
LWPOLYLINE
  5
555
100
AcDbEntity
  8
RACCORDO
100
AcDbPolyline
 62
250
  6
CONTINUOUS
 90
19
 70
0
 10
9.7743020056
 20
-23.9010666755
 10
9.7694661583
 20
-23.7868030286
 10
9.7549913391
 20
-23.6665417276
 10
9.7309812439
 20
-23.5411933424
 10
9.6976125395
 20
-23.4117092178
 10
9.6551328538
 20
-23.2790711465
 10
9.6038582715
 20
-23.1442837211
 10
9.5441696458
 20
-23.0083651442
 10
9.4765182679
 20
-22.8723577088
 10
9.4014246615
 20
-22.7373164108
 10
9.3194302664
 20
-22.6042270293
 10
9.2311828386
 20
-22.4741520649
 10
9.1374644502
 20
-22.3482274157
 10
9.0391047511
 20
-22.2275152827
 10
8.9367738946
 20
-22.1127882047
 10
8.8310630027
 20
-22.0047050016
 10
8.7227006128
 20
-21.9040435867
 10
8.6125691886
 20
-21.8116560051
 10
8.5015046213
 20
-21.7282664347
  0
LWPOLYLINE
  5
556
100
AcDbEntity
  8
SUPERFICI
100
AcDbPolyline
 62
250
  6
CONTINUOUS
 90
19
 70
0
 10
11.4006572507
 20
-24.8510822365
 10
11.3907475667
 20
-24.6111702816
 10
11.3608436274
 20
-24.3566277934
 10
11.3106098463
 20
-24.0889861978
 10
11.2397419246
 20
-23.8094985366
 10
11.1482938205
 20
-23.5204951024
 10
11.0370057375
 20
-23.2254734048
 10
10.9065250755
 20
-22.9267363979
 10
10.7576350573
 20
-22.6265591764
 10
10.5920368093
 20
-22.3285874766
 10
10.411045301
 20
-22.0351764284
 10
10.2160966152
 20
-21.7486440663
 10
10.0096426899
 20
-21.4724105587
 10
9.7934114352
 20
-21.2084662688
 10
9.5692501354
 20
-20.9587475643
 10
9.3401308409
 20
-20.7260764801
 10
9.1083422958
 20
-20.5121080517
 10
8.8753483895
 20
-20.3175583557
 10
8.6429103634
 20
-20.1433223085
  0
LWPOLYLINE
  5
557
100
AcDbEntity
  8
SUPERFICI
100
AcDbPolyline
 62
250
  6
CONTINUOUS
 90
5
 70
0
 10
8.5017481131
 20
-20.649101348
 10
8.5051126853
 20
-20.73636351
 10
8.5191957144
 20
-20.8122729455
 10
8.5431760878
 20
-20.8772985392
 10
8.5761500897
 20
-20.9310441569
  0
LWPOLYLINE
  5
558
100
AcDbEntity
  8
SUPERFICI
100
AcDbPolyline
 62
250
  6
CONTINUOUS
 90
22
 70
0
 10
13.0976857633
 20
-25.451057649
 10
13.0898032251
 20
-25.1800108143
 10
13.0626969198
 20
-24.890489623
 10
13.0152851048
 20
-24.5832732506
 10
12.9461606434
 20
-24.2590246529
 10
12.8549086662
 20
-23.9194401942
 10
12.7421622332
 20
-23.5669594361
 10
12.607110017
 20
-23.2016833511
 10
12.4495107933
 20
-22.8266862915
 10
12.2718846512
 20
-22.4489512916
 10
12.0755351893
 20
-22.0713600276
 10
11.8607664678
 20
-21.695175526
 10
11.6299276245
 20
-21.3250220065
 10
11.3844973306
 20
-20.9634375524
 10
11.1259392014
 20
-20.6120276497
 10
10.8570890009
 20
-20.2736308422
 10
10.5799264961
 20
-19.9494060681
 10
10.2955001189
 20
-19.6410568631
 10
10.0057191489
 20
-19.3520594325
 10
9.7127130844
 20
-19.0845556997
 10
9.4183234593
 20
-18.8390516211
 10
9.1244036568
 20
-18.6165465176
  0
LINE
  5
559
100
AcDbEntity
  8
SUPERFICI
100
AcDbLine
 62
7
  6
CONTINUOUS
 10
13.0983188588
 20
-30.6077311928
 11
13.0947337476
 21
-28.3189794524
  0
LINE
  5
55A
100
AcDbEntity
  8
RACCORDO
100
AcDbLine
 62
250
  6
CONTINUOUS
 10
8.3600876108
 20
-55.2966029055
 11
8.3600879749
 21
-23.9010668043
  0
LINE
  5
55B
100
AcDbEntity
  8
RACCORDO
100
AcDbLine
 62
250
  6
CONTINUOUS
 10
9.7743010689
 20
-55.2966028659
 11
9.7743010689
 21
-23.9010660131
  0
LINE
  5
55C
100
AcDbEntity
  8
SUPERFICI
100
AcDbLine
 62
7
  6
CONTINUOUS
 10
10.4814079218
 20
-54.7966032902
 11
10.4814085186
 21
-23.7071544475
  0
LINE
  5
55D
100
AcDbEntity
  8
SUPERFICI
100
AcDbLine
 62
7
  6
CONTINUOUS
 10
10.5420717322
 20
-55.5466079706
 11
10.5420589735
 21
-24.1510546087
  0
LINE
  5
55E
100
AcDbEntity
  8
SUPERFICI
100
AcDbLine
 62
7
  6
CONTINUOUS
 10
11.4006598692
 20
-56.2466066662
 11
11.4006583306
 21
-24.8510768903
  0
LINE
  5
55F
100
AcDbEntity
  8
SUPERFICI
100
AcDbLine
 62
7
  6
CONTINUOUS
 10
13.0975806365
 20
-37.2150769679
 11
13.0973868937
 21
-35.4314491515
  0
LINE
  5
560
100
AcDbEntity
  8
SUPERFICI
100
AcDbLine
 62
250
  6
CONTINUOUS
 10
13.0976956153
 20
-56.8467021261
 11
13.0976897766
 21
-41.1488241698
  0
LINE
  5
561
100
AcDbEntity
  8
SUPERFICI
100
AcDbLine
 62
7
  6
CONTINUOUS
 10
13.0976897766
 20
-41.1488241698
 11
13.0975806365
 21
-37.2150769679
  0
LINE
  5
562
100
AcDbEntity
  8
SUPERFICI
100
AcDbLine
 62
7
  6
CONTINUOUS
 10
13.0973868937
 20
-35.4314491515
 11
13.0983188588
 21
-30.6077311928
  0
LWPOLYLINE
  5
563
100
AcDbEntity
  8
SUPERFICI
100
AcDbPolyline
 62
7
  6
CONTINUOUS
 90
8
 70
0
 10
13.0947337476
 20
-28.3189794524
 10
13.0950029643
 20
-27.8739237744
 10
13.0979530323
 20
-27.4657513786
 10
13.1021404418
 20
-27.0783264936
 10
13.1045103574
 20
-26.6857376183
 10
13.1040523665
 20
-26.2793420476
 10
13.1017827359
 20
-25.8677783613
 10
13.0976956133
 20
-25.4510506846
  0
LINE
  5
564
100
AcDbEntity
  8
SUPERFICI
100
AcDbLine
 62
7
  6
CONTINUOUS
 10
10.5448964394
 20
-55.5541814043
 11
10.5449576115
 21
-55.5466334629
  0
LWPOLYLINE
  5
565
100
AcDbEntity
  8
SUPERFICI
100
AcDbPolyline
 62
7
  6
CONTINUOUS
 90
24
 70
0
 10
10.4814079218
 20
-54.7966032902
 10
10.4809216392
 20
-54.8313747562
 10
10.4794725902
 20
-54.8653856452
 10
10.4770607747
 20
-54.8986359572
 10
10.4736828957
 20
-54.9311497636
 10
10.4693422503
 20
-54.9629029931
 10
10.4640487298
 20
-54.993823431
 10
10.4578001696
 20
-55.0239091921
 10
10.4505987344
 20
-55.0531621615
 10
10.4424608093
 20
-55.0815157809
 10
10.4333842621
 20
-55.1089680024
 10
10.423371225
 20
-55.1355208738
 10
10.4124444805
 20
-55.16111398
 10
10.400601948
 20
-55.1857451357
 10
10.3878457082
 20
-55.2094165262
 10
10.3742047849
 20
-55.2320742926
 10
10.3596771637
 20
-55.2537161269
 10
10.3442648591
 20
-55.2743443371
 10
10.3280029382
 20
-55.2939119884
 10
10.3108894665
 20
-55.3124166658
 10
10.2929263785
 20
-55.3298607844
 10
10.2741545453
 20
-55.3462046538
 10
10.2545721253
 20
-55.3614457689
 10
10.2478442445
 20
-55.3662985908
  0
LWPOLYLINE
  5
566
100
AcDbEntity
  8
SUPERFICI
100
AcDbPolyline
 62
7
  6
CONTINUOUS
 90
8
 70
0
 10
10.5448964394
 20
-55.5541814043
 10
10.5443586488
 20
-55.5852562248
 10
10.5395450424
 20
-55.6528283311
 10
10.5307941957
 20
-55.7098502881
 10
10.5197583607
 20
-55.7551290934
 10
10.5089683102
 20
-55.7863982666
 10
10.5018228851
 20
-55.8021364801
 10
10.5010603927
 20
-55.8036100138
  0
LINE
  5
567
100
AcDbEntity
  8
SUPERFICI
100
AcDbLine
 62
250
  6
CONTINUOUS
 10
10.5859972867
 20
-55.9269398449
 11
10.5933847492
 21
-55.7702071197
  0
LWPOLYLINE
  5
568
100
AcDbEntity
  8
RACCORDO
100
AcDbPolyline
 62
250
  6
CONTINUOUS
 90
13
 70
0
 10
7.7943976598
 20
-22.9353735567
 10
7.8004471199
 20
-22.8388000402
 10
7.8184918552
 20
-22.7353237985
 10
7.8482231155
 20
-22.6267153376
 10
7.8891321915
 20
-22.5148329768
 10
7.9405191181
 20
-22.4015910528
 10
8.0015046517
 20
-22.2889271649
 10
8.0710453138
 20
-22.1787690217
 10
8.1479512457
 20
-22.0730014582
 10
8.2309065667
 20
-21.9734341853
 10
8.3184918896
 20
-21.8817708253
 10
8.4092086067
 20
-21.7995797625
 10
8.5015045312
 20
-21.7282673076
  0
LWPOLYLINE
  5
569
100
AcDbEntity
  8
SUPERFICI
100
AcDbPolyline
 62
250
  6
CONTINUOUS
 90
9
 70
0
 10
3.1541506686
 20
-60.6442377704
 10
3.1469730007
 20
-60.7099775082
 10
3.136983753
 20
-60.771820935
 10
3.1241011446
 20
-60.8282219313
 10
3.1080786326
 20
-60.8779147746
 10
3.0889908003
 20
-60.9182831363
 10
3.0674985538
 20
-60.946486947
 10
3.0441896323
 20
-60.9612998265
 10
3.0290399964
 20
-60.9635951282
  0
LWPOLYLINE
  5
56A
100
AcDbEntity
  8
SUPERFICI
100
AcDbPolyline
 62
250
  6
CONTINUOUS
 90
55
 70
0
 10
9.1244565359
 20
-18.6164634123
 10
9.121692697
 20
-18.6254139876
 10
9.1174890529
 20
-18.6325378157
 10
9.111857869
 20
-18.6378261242
 10
9.1043209983
 20
-18.6403260004
 10
9.0953817695
 20
-18.6409726919
 10
9.0865056324
 20
-18.6426028449
 10
9.0772322266
 20
-18.6454128457
 10
9.067997493
 20
-18.6492226428
 10
9.0615883069
 20
-18.6563198188
 10
9.0599349697
 20
-18.6684690632
 10
9.0610646382
 20
-18.6839332544
 10
9.0619174696
 20
-18.6997417712
 10
9.0614473654
 20
-18.7148151797
 10
9.0606892955
 20
-18.7302388554
 10
9.0597156804
 20
-18.7462821575
 10
9.0585287042
 20
-18.7630326233
 10
9.0571003684
 20
-18.7804172261
 10
9.0554533217
 20
-18.7984670596
 10
9.053571246
 20
-18.8171788892
 10
9.0514430552
 20
-18.8365701875
 10
9.0490981013
 20
-18.85670345
 10
9.0465443945
 20
-18.8775744034
 10
9.0437431659
 20
-18.8992020138
 10
9.0406498404
 20
-18.9216853428
 10
9.0372414186
 20
-18.9450226052
 10
9.0335016737
 20
-18.9692330034
 10
9.0293893463
 20
-18.9944502106
 10
9.0248799158
 20
-19.0206835762
 10
9.0199477498
 20
-19.0479440703
 10
9.0145415297
 20
-19.0763712481
 10
9.0086315332
 20
-19.105969884
 10
9.0021847005
 20
-19.1367576599
 10
8.9951345683
 20
-19.1688971002
 10
8.9874501578
 20
-19.2023674493
 10
8.9790843174
 20
-19.2372130724
 10
8.9699308053
 20
-19.2736991287
 10
8.9599341612
 20
-19.3118534835
 10
8.9490447343
 20
-19.3516742821
 10
8.9371455338
 20
-19.3933870327
 10
8.9241052841
 20
-19.4372231243
 10
8.9099179019
 20
-19.4829753195
 10
8.8946621201
 20
-19.5302052549
 10
8.8782221744
 20
-19.579104285
 10
8.8606078447
 20
-19.6294791064
 10
8.8421498916
 20
-19.6802939547
 10
8.8229371606
 20
-19.7312877911
 10
8.8028791061
 20
-19.7826850653
 10
8.78209662
 20
-19.8341640266
 10
8.7606462906
 20
-19.8855906311
 10
8.7384941581
 20
-19.9370574629
 10
8.7156373124
 20
-19.9885807049
 10
8.6920801876
 20
-20.0401522638
 10
8.6678361535
 20
-20.0917396372
 10
8.6429146838
 20
-20.1433224943
  0
LINE
  5
56B
100
AcDbEntity
  8
SCATOLA
100
AcDbLine
 62
250
  6
CONTINUOUS
 10
55.0903630061
 20
18.978405022
 11
55.0284993017
 21
18.9385419667
  0
LWPOLYLINE
  5
56C
100
AcDbEntity
  8
SCATOLA
100
AcDbPolyline
 62
250
  6
CONTINUOUS
 90
15
 70
0
 10
54.3221691455
 20
19.3218602417
 10
54.3799405932
 20
19.3588597512
 10
54.4381171926
 20
19.3906836172
 10
54.4963948753
 20
19.417180563
 10
54.5545192234
 20
19.4383030813
 10
54.6121546559
 20
19.453859313
 10
54.6689115543
 20
19.4636021095
 10
54.7247378853
 20
19.4675655129
 10
54.7792215968
 20
19.4657904136
 10
54.8315834163
 20
19.4583802964
 10
54.8818001405
 20
19.4456310969
 10
54.9298121805
 20
19.4279224672
 10
54.9750428373
 20
19.4059078307
 10
55.017551185
 20
19.3801696683
 10
55.0320797068
 20
19.3702003849
  0
LWPOLYLINE
  5
56D
100
AcDbEntity
  8
SCATOLA
100
AcDbPolyline
 62
250
  6
CONTINUOUS
 90
8
 70
0
 10
51.1769570237
 20
16.2451036909
 10
51.2434173119
 20
16.2864433456
 10
51.3085141072
 20
16.3179346223
 10
51.3710652902
 20
16.3390055623
 10
51.4299349633
 20
16.3492734245
 10
51.4840540289
 20
16.3485516294
 10
51.5324396198
 20
16.3368531837
 10
51.5723814676
 20
16.3157017155
  0
LINE
  5
56E
100
AcDbEntity
  8
SCATOLA
100
AcDbLine
 62
250
  6
CONTINUOUS
 10
59.2096139382
 20
16.0819625669
 11
59.126229567
 21
16.0360748248
  0
LWPOLYLINE
  5
56F
100
AcDbEntity
  8
SCATOLA
100
AcDbPolyline
 62
250
  6
CONTINUOUS
 90
3
 70
0
 10
59.5123196001
 20
15.9279707519
 10
59.4613847225
 20
15.9025829344
 10
59.4087076836
 20
15.8731901834
  0
LINE
  5
570
100
AcDbEntity
  8
SCATOLA
100
AcDbLine
 62
250
  6
CONTINUOUS
 10
59.4199572302
 20
16.1497471313
 11
59.3675679724
 21
16.1458340208
  0
LWPOLYLINE
  5
571
100
AcDbEntity
  8
SCATOLA
100
AcDbPolyline
 62
250
  6
CONTINUOUS
 90
4
 70
0
 10
55.6404788787
 20
13.4476999887
 10
55.5680406016
 20
13.4443485989
 10
55.4948762951
 20
13.44482718
 10
55.4224052517
 20
13.4491254287
  0
LINE
  5
572
100
AcDbEntity
  8
DRAFT
100
AcDbLine
 62
250
  6
CONTINUOUS
 10
-62.7935429928
 20
35.8878868329
 11
-62.8118229672
 21
35.8950839458
  0
LWPOLYLINE
  5
573
100
AcDbEntity
  8
COPY_GEOM
100
AcDbPolyline
 62
7
  6
CONTINUOUS
 90
22
 70
0
 10
18.1916644321
 20
-20.246649201
 10
18.1843276651
 20
-20.3893994167
 10
18.1878999509
 20
-20.5362740882
 10
18.2021034046
 20
-20.6864019598
 10
18.226495581
 20
-20.8384877927
 10
18.2607824624
 20
-20.992085504
 10
18.3050782725
 20
-21.1476966935
 10
18.3592106201
 20
-21.3046845585
 10
18.4228927182
 20
-21.4621249685
 10
18.496379224
 20
-21.6201607231
 10
18.5795886356
 20
-21.7781729796
 10
18.6721414567
 20
-21.9350724739
 10
18.7739515371
 20
-22.0902444535
 10
18.8849230779
 20
-22.2429928014
 10
19.0043976393
 20
-22.3920434741
 10
19.1313240594
 20
-22.5359034718
 10
19.2651625434
 20
-22.6735709891
 10
19.4051781878
 20
-22.8040924668
 10
19.5498418882
 20
-22.9261949375
 10
19.6980927024
 20
-23.0389519798
 10
19.8493912938
 20
-23.1416900501
 10
20.0029118087
 20
-23.2336708516
  0
LINE
  5
574
100
AcDbEntity
  8
ASSI
100
AcDbLine
 62
7
  6
CONTINUOUS
 10
17.972159438
 20
-20.1518626709
 11
17.9948745818
 21
-19.9230636221
  0
LWPOLYLINE
  5
575
100
AcDbEntity
  8
ASSI
100
AcDbPolyline
 62
7
  6
CONTINUOUS
 90
5
 70
0
 10
17.9948745818
 20
-19.9230636221
 10
18.0194928178
 20
-19.6942151796
 10
18.0325143495
 20
-19.5797692087
 10
18.0460440463
 20
-19.4653947887
 10
18.0601097272
 20
-19.3510795674
  0
LINE
  5
576
100
AcDbEntity
  8
SCATOLA
100
AcDbLine
 62
7
  6
CONTINUOUS
 10
23.1656710547
 20
19.7438639433
 11
23.1099985314
 21
19.3018648974
  0
LINE
  5
577
100
AcDbEntity
  8
ASSI
100
AcDbLine
 62
7
  6
CONTINUOUS
 10
18.0601097272
 20
-19.3510795674
 11
18.0897120277
 21
-19.1227782796
  0
LINE
  5
578
100
AcDbEntity
  8
ASSI
100
AcDbLine
 62
7
  6
CONTINUOUS
 10
18.0897120277
 20
-19.1227782796
 11
18.1213634445
 21
-18.8952518673
  0
LWPOLYLINE
  5
579
100
AcDbEntity
  8
ASSI
100
AcDbPolyline
 62
7
  6
CONTINUOUS
 90
3
 70
0
 10
18.1213634445
 20
-18.8952518673
 10
18.2340657104
 20
-18.1043719584
 10
18.2516700514
 20
-17.9903887978
  0
LINE
  5
57A
100
AcDbEntity
  8
ASSI
100
AcDbLine
 62
7
  6
CONTINUOUS
 10
18.2516700514
 20
-17.9903887978
 11
18.3072872609
 21
-17.6474315829
  0
LINE
  5
57B
100
AcDbEntity
  8
ASSI
100
AcDbLine
 62
7
  6
CONTINUOUS
 10
18.3072872609
 20
-17.6474315829
 11
18.3458624078
 21
-17.4190643134
  0
LWPOLYLINE
  5
57C
100
AcDbEntity
  8
ASSI
100
AcDbPolyline
 62
7
  6
CONTINUOUS
 90
7
 70
0
 10
18.3458624078
 20
-17.4190643134
 10
18.3863153854
 20
-17.190777649
 10
18.4076022257
 20
-17.075131728
 10
18.4296953919
 20
-16.958089273
 10
18.4526024713
 20
-16.8396235556
 10
18.476667264
 20
-16.7183897799
 10
18.5019065019
 20
-16.594392466
  0
LWPOLYLINE
  5
57D
100
AcDbEntity
  8
SUPERFICI
100
AcDbPolyline
 62
250
  6
CONTINUOUS
 90
6
 70
0
 10
8.6429116124
 20
-20.1433393282
 10
8.5968638369
 20
-20.2455313497
 10
8.5586731269
 20
-20.3486566131
 10
8.5294358459
 20
-20.4511073036
 10
8.5100049367
 20
-20.5523357458
 10
8.5017481131
 20
-20.649101348
  0
LINE
  5
57E
100
AcDbEntity
  8
SCATOLA
100
AcDbLine
 62
7
  6
CONTINUOUS
 10
51.635022521
 20
16.5389915233
 11
55.0284993017
 21
18.9385419667
  0
LINE
  5
57F
100
AcDbEntity
  8
SCATOLA
100
AcDbLine
 62
7
  6
CONTINUOUS
 10
59.1297186326
 20
16.0385419667
 11
59.0146803964
 21
15.9571976498
  0
LINE
  5
580
100
AcDbEntity
  8
SCATOLA
100
AcDbLine
 62
7
  6
CONTINUOUS
 10
58.8919040915
 20
15.8775474811
 11
57.5851389939
 21
14.9604160441
  0
LINE
  5
581
100
AcDbEntity
  8
SCATOLA
100
AcDbLine
 62
250
  6
CONTINUOUS
 10
59.298784463
 20
15.8028618034
 11
57.9333387191
 21
14.8445941882
  0
LWPOLYLINE
  5
582
100
AcDbEntity
  8
SCATOLA
100
AcDbPolyline
 62
7
  6
CONTINUOUS
 90
3
 70
0
 10
57.5851389939
 20
14.9604160441
 10
56.0179043213
 20
13.8631206034
 10
55.7975382001
 20
13.7090510462
  0
LWPOLYLINE
  5
583
100
AcDbEntity
  8
SCATOLA
100
AcDbPolyline
 62
250
  6
CONTINUOUS
 90
3
 70
0
 10
57.9333387191
 20
14.8445941882
 10
56.5541610219
 20
13.8789168035
 10
56.207227299
 20
13.636335456
  0
LWPOLYLINE
  5
584
100
AcDbEntity
  8
SCATOLA
100
AcDbPolyline
 62
7
  6
CONTINUOUS
 90
18
 70
0
 10
55.7973721368
 20
13.7089307168
 10
55.7952059257
 20
13.7074418395
 10
55.7785795929
 20
13.6973430501
 10
55.754235872
 20
13.6853344776
 10
55.7235300375
 20
13.6732687758
 10
55.6874834865
 20
13.6623190987
 10
55.6467002312
 20
13.6532578247
 10
55.6025446142
 20
13.6468244523
 10
55.5562931219
 20
13.6434619629
 10
55.5091038806
 20
13.6433933093
 10
55.4621931051
 20
13.6466615689
 10
55.4167075103
 20
13.6531324839
 10
55.3740140302
 20
13.6624423662
 10
55.3356347401
 20
13.6738984999
 10
55.3022602626
 20
13.6867771575
 10
55.2749695729
 20
13.6999684529
 10
55.2552047548
 20
13.7116931803
 10
55.2495880859
 20
13.7155201563
  0
LINE
  5
585
100
AcDbEntity
  8
SCATOLA
100
AcDbLine
 62
250
  6
CONTINUOUS
 10
51.181314063
 20
17.1901927869
 11
52.5839952481
 21
18.143530225
  0
LWPOLYLINE
  5
586
100
AcDbEntity
  8
SCATOLA
100
AcDbPolyline
 62
250
  6
CONTINUOUS
 90
3
 70
0
 10
52.5839952481
 20
18.143530225
 10
53.975879239
 20
19.0873833497
 10
54.3221691455
 20
19.3218602417
  0
LWPOLYLINE
  5
587
100
AcDbEntity
  8
SCATOLA
100
AcDbPolyline
 62
250
  6
CONTINUOUS
 90
10
 70
0
 10
56.207227299
 20
13.636335456
 10
56.1562093673
 20
13.603121086
 10
56.1019180044
 20
13.5728197193
 10
56.0443532102
 20
13.5454313561
 10
55.983135115
 20
13.5207550429
 10
55.9186435885
 20
13.4989917332
 10
55.8520182406
 20
13.4807442869
 10
55.7831696774
 20
13.4661089549
 10
55.7121872928
 20
13.4549894863
 10
55.6404788787
 20
13.4476999887
  0
LINE
  5
588
100
AcDbEntity
  8
SCATOLA
100
AcDbLine
 62
7
  6
CONTINUOUS
 10
59.0301387673
 20
15.9677017147
 11
59.0309263813
 21
15.9682100049
  0
LWPOLYLINE
  5
589
100
AcDbEntity
  8
SCATOLA
100
AcDbPolyline
 62
7
  6
CONTINUOUS
 90
9
 70
0
 10
58.9922670273
 20
15.9442044349
 10
58.98137479
 20
15.9373117057
 10
58.9698341014
 20
15.9299232213
 10
58.957738574
 20
15.9220802867
 10
58.9451208503
 20
15.9137873392
 10
58.9321629389
 20
15.9051508231
 10
58.9189505985
 20
15.8962194058
 10
58.9055078469
 20
15.8870035211
 10
58.8919040915
 20
15.8775474811
  0
LWPOLYLINE
  5
58A
100
AcDbEntity
  8
SCATOLA
100
AcDbPolyline
 62
250
  6
CONTINUOUS
 90
8
 70
0
 10
54.8539122859
 20
13.6451036909
 10
54.9203734399
 20
13.6864438226
 10
54.9854708259
 20
13.7179352182
 10
55.0480223117
 20
13.7390060117
 10
55.106891997
 20
13.7492735688
 10
55.1610108409
 20
13.7485514367
 10
55.2093960749
 20
13.736852729
 10
55.2494189739
 20
13.7156435956
  0
LINE
  5
58B
100
AcDbEntity
  8
SCATOLA
100
AcDbLine
 62
7
  6
CONTINUOUS
 10
59.011209001
 20
15.956026828
 11
58.9922670273
 21
15.9442044349
  0
LWPOLYLINE
  5
58C
100
AcDbEntity
  8
SCATOLA
100
AcDbPolyline
 62
7
  6
CONTINUOUS
 90
3
 70
0
 10
59.0315390055
 20
15.9686036652
 10
59.0251780177
 20
15.9646573034
 10
59.011209001
 20
15.956026828
  0
LWPOLYLINE
  5
58D
100
AcDbEntity
  8
SCATOLA
100
AcDbPolyline
 62
250
  6
CONTINUOUS
 90
3
 70
0
 10
59.4087076836
 20
15.8731901834
 10
59.354412016
 20
15.8399021024
 10
59.298784463
 20
15.8028618034
  0
LINE
  5
58E
100
AcDbEntity
  8
SCATOLA
100
AcDbLine
 62
250
  6
CONTINUOUS
 10
58.9226231021
 20
15.8939706955
 11
58.8877050925
 21
15.8746029973
  0
LWPOLYLINE
  5
58F
100
AcDbEntity
  8
SCATOLA
100
AcDbPolyline
 62
7
  6
CONTINUOUS
 90
29
 70
0
 10
32.3888321914
 20
26.3918543409
 10
31.8551733837
 20
26.3065914467
 10
31.102645036
 20
26.1514044074
 10
30.3698578198
 20
25.9566521996
 10
29.6564871921
 20
25.722985272
 10
28.9743908808
 20
25.4542876631
 10
28.3240916275
 20
25.1499738445
 10
27.7050666904
 20
24.8106293445
 10
27.1276055727
 20
24.441894786
 10
26.5924030022
 20
24.0432789223
 10
26.0987642509
 20
23.6152730001
 10
25.6548946386
 20
23.1649913825
 10
25.2616260425
 20
22.6920617375
 10
24.9181265853
 20
22.1968563971
 10
24.6301059541
 20
21.687606721
 10
24.3984914621
 20
21.1640779619
 10
24.2223557961
 20
20.626504867
 10
24.1046267031
 20
20.0838230375
 10
24.046280433
 20
19.5359470824
 10
24.0463407359
 20
18.9829623926
 10
24.1048066094
 20
18.4340607428
 10
24.2226542867
 20
17.8893103797
 10
24.3989075347
 20
17.3486430565
 10
24.6306366518
 20
16.821045807
 10
24.9187689019
 20
16.3067370939
 10
25.2623770212
 20
15.8054984544
 10
25.6557495163
 20
15.3256615344
 10
26.0969825561
 20
14.8700035491
 10
26.5879799718
 20
14.4357472832
  0
LWPOLYLINE
  5
590
100
AcDbEntity
  8
SCATOLA
100
AcDbPolyline
 62
7
  6
CONTINUOUS
 90
23
 70
0
 10
32.2365527231
 20
26.3705423379
 10
31.6666235676
 20
26.2799351014
 10
30.9171114958
 20
26.126221059
 10
30.1817419086
 20
25.9355325239
 10
29.4711760936
 20
25.7106340724
 10
28.7857753989
 20
25.4510273253
 10
28.1251784765
 20
25.1572106618
 10
27.4989625701
 20
24.8334437956
 10
26.9076285517
 20
24.4792904043
 10
26.3506755494
 20
24.0951868104
 10
25.8361781917
 20
23.6867016953
 10
25.3647549838
 20
23.2534798624
 10
24.9357874204
 20
22.7958765084
 10
24.5554946147
 20
22.3205259039
 10
24.2245856736
 20
21.8271695024
 10
23.9423514901
 20
21.3160658506
 10
23.7128838568
 20
20.7946248592
 10
23.5369514911
 20
20.2626959312
 10
23.4137856755
 20
19.7204296637
 10
23.3451720515
 20
19.1756877589
 10
23.3319053497
 20
18.628434151
 10
23.3731908393
 20
18.0787049059
 10
23.4446247124
 20
17.670502806
  0
LWPOLYLINE
  5
591
100
AcDbEntity
  8
SCATOLA
100
AcDbPolyline
 62
250
  6
CONTINUOUS
 90
10
 70
0
 10
55.4224052517
 20
13.4491254287
 10
55.3506310135
 20
13.4573512329
 10
55.2795500385
 20
13.4693967046
 10
55.2105709935
 20
13.4849278773
 10
55.1437835196
 20
13.504038725
 10
55.0790979758
 20
13.5266352736
 10
55.0176541062
 20
13.5521016335
 10
54.9598318253
 20
13.580232508
 10
54.9052512185
 20
13.6112331939
 10
54.8539122859
 20
13.6451036909
  0
LWPOLYLINE
  5
592
100
AcDbEntity
  8
SCATOLA
100
AcDbPolyline
 62
7
  6
CONTINUOUS
 90
40
 70
0
 10
64.8483177484
 20
-16.8593761591
 10
64.7018843435
 20
-16.7663781419
 10
64.3693098629
 20
-16.5973941102
 10
64.0126154739
 20
-16.4706235528
 10
63.6314922051
 20
-16.3866072166
 10
63.2262490279
 20
-16.3448043548
 10
62.8020549603
 20
-16.3457481775
 10
62.358667245
 20
-16.3899862618
 10
61.8963286394
 20
-16.4769710305
 10
61.4209364334
 20
-16.6055929626
 10
60.9323234128
 20
-16.7763854226
 10
60.430656792
 20
-16.9888150459
 10
59.9223355034
 20
-17.2401722188
 10
59.407274302
 20
-17.530955596
 10
58.8855584329
 20
-17.8606665226
 10
58.3638425638
 20
-18.2250994211
 10
57.8421266947
 20
-18.6246990734
 10
57.3204108255
 20
-19.0590206974
 10
56.8053496242
 20
-19.5225243695
 10
56.2970283356
 20
-20.0155839063
 10
55.7953617147
 20
-20.5378254912
 10
55.3067486942
 20
-21.0825877508
 10
54.8313564882
 20
-21.6501591707
 10
54.3690178825
 20
-22.2402512653
 10
53.9256301672
 20
-22.8453372042
 10
53.5014360997
 20
-23.4656090558
 10
53.0961929225
 20
-24.1008747518
 10
52.7150696536
 20
-24.7430312567
 10
52.3583752647
 20
-25.3921668406
 10
52.025800784
 20
-26.0481932336
 10
51.7215883151
 20
-26.7027425902
 10
51.4461011701
 20
-27.35579599
 10
51.1989760368
 20
-28.0073723535
 10
50.9833650824
 20
-28.6491605971
 10
50.7996719977
 20
-29.2810353368
 10
50.647493092
 20
-29.9031219566
 10
50.5287694602
 20
-30.5074855249
 10
50.4441481341
 20
-31.0914810645
 10
50.3929820818
 20
-31.6577535525
 10
50.3752713035
 20
-32.2063029889
  0
LINE
  5
593
100
AcDbEntity
  8
ASSI
100
AcDbLine
 62
7
  6
CONTINUOUS
 10
-48.8448510915
 20
56.7960983003
 11
-49.2191911707
 21
57.0436393414
  0
LWPOLYLINE
  5
594
100
AcDbEntity
  8
0
100
AcDbPolyline
 62
7
  6
CONTINUOUS
 90
12
 70
0
 10
-49.9762219414
 20
55.9960983003
 10
-50.2961740565
 20
56.2099268561
 10
-50.6108661792
 20
56.3969905035
 10
-50.9202983095
 20
56.5572892422
 10
-51.226135859
 20
56.6914179435
 10
-51.5267134161
 20
56.7987817363
 10
-51.8170347464
 20
56.8775960073
 10
-52.0969284201
 20
56.9273835591
 10
-52.366565867
 20
56.9486215893
 10
-52.6214651428
 20
56.9409570767
 10
-52.861379903
 20
56.9039069234
 10
-53.0865564922
 20
56.8379542274
  0
LWPOLYLINE
  5
595
100
AcDbEntity
  8
COPY_GEOM
100
AcDbPolyline
 62
7
  6
CONTINUOUS
 90
12
 70
0
 10
-49.9762219414
 20
55.9960983003
 10
-50.2961740565
 20
56.2099268561
 10
-50.6108661792
 20
56.3969905035
 10
-50.9202983095
 20
56.5572892422
 10
-51.226135859
 20
56.6914179435
 10
-51.5267134161
 20
56.7987817363
 10
-51.8170347464
 20
56.8775960073
 10
-52.0969284201
 20
56.9273835591
 10
-52.366565867
 20
56.9486215893
 10
-52.6214651428
 20
56.9409570767
 10
-52.861379903
 20
56.9039069234
 10
-53.0865564922
 20
56.8379542274
  0
LINE
  5
596
100
AcDbEntity
  8
0
100
AcDbLine
 62
7
  6
CONTINUOUS
 10
37.7050189257
 20
-6.0039016997
 11
-49.9762219414
 21
55.9960983003
  0
LINE
  5
597
100
AcDbEntity
  8
COPY_GEOM
100
AcDbLine
 62
7
  6
CONTINUOUS
 10
37.7050189257
 20
-6.0039016997
 11
-49.9762219414
 21
55.9960983003
  0
LINE
  5
598
100
AcDbEntity
  8
SCATOLA
100
AcDbLine
 62
7
  6
CONTINUOUS
 10
-48.8448510915
 20
56.7960983003
 11
38.8363897756
 21
-5.2039016997
  0
LINE
  5
599
100
AcDbEntity
  8
ASSI
100
AcDbLine
 62
7
  6
CONTINUOUS
 10
38.8363897756
 20
-5.2039016997
 11
-48.8448510915
 21
56.7960983003
  0
LINE
  5
59A
100
AcDbEntity
  8
SCATOLA
100
AcDbLine
 62
7
  6
CONTINUOUS
 10
38.8363897756
 20
-5.2039016997
 11
39.1556239408
 21
-5.4418252972
  0
LWPOLYLINE
  5
59B
100
AcDbEntity
  8
SCATOLA
100
AcDbPolyline
 62
7
  6
CONTINUOUS
 90
19
 70
0
 10
39.1556239408
 20
-5.4418252972
 10
39.4700200933
 20
-5.6995267154
 10
39.779578233
 20
-5.9770059542
 10
40.086352727
 20
-6.2764815081
 10
40.3882892084
 20
-6.5957348827
 10
40.6792245762
 20
-6.9281105948
 10
40.9580916839
 20
-7.2726886149
 10
41.2259576782
 20
-7.6303889724
 10
41.4798608976
 20
-7.997316273
 10
41.7205265688
 20
-8.3750953816
 10
41.9472294652
 20
-8.7621014334
 10
42.1548322457
 20
-9.1495644385
 10
42.3422228581
 20
-9.5359728306
 10
42.5105133547
 20
-9.9228381762
 10
42.6579025517
 20
-10.3059251847
 10
42.7845558924
 20
-10.6864179885
 10
42.8903079335
 20
-11.0631324553
 10
42.9728611624
 20
-11.4282808973
 10
43.0314497415
 20
-11.7792674186
  0
LINE
  5
59C
100
AcDbEntity
  8
SCATOLA
100
AcDbLine
 62
7
  6
CONTINUOUS
 10
21.9920825563
 20
36.266117755
 11
22.0219928459
 21
35.8678528666
  0
LWPOLYLINE
  5
59D
100
AcDbEntity
  8
SUPERFICI
100
AcDbPolyline
 62
250
  6
CONTINUOUS
 90
8
 70
0
 10
27.9718198362
 20
-72.9944559742
 10
27.9556932242
 20
-72.0408833183
 10
27.9415328148
 20
-71.0238094753
 10
27.9293386078
 20
-69.9432344452
 10
27.9190406794
 20
-68.7874679972
 10
27.9107089536
 20
-67.5682003622
 10
27.9045532015
 20
-66.3205022318
 10
27.901251118
 20
-65.0487046468
  0
LINE
  5
59E
100
AcDbEntity
  8
SUPERFICI
100
AcDbLine
 62
250
  6
CONTINUOUS
 10
25.451255841
 20
-70.5117755497
 11
25.4421795869
 21
-69.7968094434
  0
LINE
  5
59F
100
AcDbEntity
  8
SUPERFICI
100
AcDbLine
 62
250
  6
CONTINUOUS
 10
25.4421795869
 20
-69.7968094434
 11
25.435707913
 21
-69.0627130796
  0
LINE
  5
5A0
100
AcDbEntity
  8
SUPERFICI
100
AcDbLine
 62
250
  6
CONTINUOUS
 10
25.435707913
 20
-69.0627130796
 11
25.431962967
 21
-68.3018261358
  0
LINE
  5
5A1
100
AcDbEntity
  8
DRAFT
100
AcDbLine
 62
250
  6
CONTINUOUS
 10
25.4196304077
 20
-37.3730682044
 11
25.4360962072
 21
-46.7515655339
  0
LINE
  5
5A2
100
AcDbEntity
  8
DRAFT
100
AcDbLine
 62
250
  6
CONTINUOUS
 10
25.4360962072
 20
-46.7515655339
 11
25.4381431686
 21
-48.1251621064
  0
LINE
  5
5A3
100
AcDbEntity
  8
SUPERFICI
100
AcDbLine
 62
250
  6
CONTINUOUS
 10
25.431962967
 20
-68.3018261358
 11
25.4303902098
 21
-67.5185155971
  0
LINE
  5
5A4
100
AcDbEntity
  8
DRAFT
100
AcDbLine
 62
250
  6
CONTINUOUS
 10
25.4125720517
 20
-32.4258348916
 11
25.4196304077
 21
-37.3730682044
  0
LWPOLYLINE
  5
5A5
100
AcDbEntity
  8
SUPERFICI
100
AcDbPolyline
 62
250
  6
CONTINUOUS
 90
3
 70
0
 10
25.4400983943
 20
-50.6581003746
 10
25.4398089451
 20
-50.1280245819
 10
25.4381432361
 20
-48.1251620307
  0
LINE
  5
5A6
100
AcDbEntity
  8
SUPERFICI
100
AcDbLine
 62
250
  6
CONTINUOUS
 10
25.4428159628
 20
-58.8009799745
 11
25.4418470916
 21
-56.5852690445
  0
LINE
  5
5A7
100
AcDbEntity
  8
SUPERFICI
100
AcDbLine
 62
250
  6
CONTINUOUS
 10
25.440814414
 20
-52.2122092304
 11
25.4400983943
 21
-50.6581003746
  0
LINE
  5
5A8
100
AcDbEntity
  8
SUPERFICI
100
AcDbLine
 62
250
  6
CONTINUOUS
 10
27.901251118
 20
-65.0487046468
 11
27.8954745524
 21
-54.6293515627
  0
LINE
  5
5A9
100
AcDbEntity
  8
SUPERFICI
100
AcDbLine
 62
250
  6
CONTINUOUS
 10
25.4418470916
 20
-56.5852690445
 11
25.440814414
 21
-52.2122092304
  0
LINE
  5
5AA
100
AcDbEntity
  8
SUPERFICI
100
AcDbLine
 62
250
  6
CONTINUOUS
 10
27.8954745524
 20
-54.6293515627
 11
27.8932804715
 21
-47.9457962589
  0
LINE
  5
5AB
100
AcDbEntity
  8
0
100
AcDbLine
 62
7
  6
CONTINUOUS
 10
24.0932133879
 20
-10.5516982278
 11
24.0932133879
 21
-10.8047836753
  0
LINE
  5
5AC
100
AcDbEntity
  8
DRAFT
100
AcDbLine
 62
250
  6
CONTINUOUS
 10
27.8932804715
 20
-47.9457962589
 11
27.8934261789
 21
-45.3529525382
  0
LINE
  5
5AD
100
AcDbEntity
  8
DRAFT
100
AcDbLine
 62
250
  6
CONTINUOUS
 10
27.8934261789
 20
-45.3529525382
 11
27.8991782552
 21
-31.5623841262
  0
LINE
  5
5AE
100
AcDbEntity
  8
SUPERFICI
100
AcDbLine
 62
250
  6
CONTINUOUS
 10
25.4303902098
 20
-67.5185155971
 11
25.4311378925
 21
-66.7093063917
  0
LINE
  5
5AF
100
AcDbEntity
  8
SUPERFICI
100
AcDbLine
 62
250
  6
CONTINUOUS
 10
25.4414275407
 20
-62.5400431501
 11
25.4428159628
 21
-58.8009799745
  0
LWPOLYLINE
  5
5B0
100
AcDbEntity
  8
DRAFT
100
AcDbPolyline
 62
250
  6
CONTINUOUS
 90
4
 70
0
 10
27.8991782552
 20
-31.5623841262
 10
27.9017655086
 20
-29.9214719736
 10
27.904088181
 20
-29.1167177896
 10
27.9074278055
 20
-28.3266415119
  0
LINE
  5
5B1
100
AcDbEntity
  8
COPY_GEOM
100
AcDbLine
 62
250
  6
CONTINUOUS
 10
25.438673351
 20
-25.9808123955
 11
25.439649373
 21
-25.6217698121
  0
LINE
  5
5B2
100
AcDbEntity
  8
SUPERFICI
100
AcDbLine
 62
250
  6
CONTINUOUS
 10
25.4311378925
 20
-66.7093063917
 11
25.4414275407
 21
-62.5400431501
  0
LWPOLYLINE
  5
5B3
100
AcDbEntity
  8
DRAFT
100
AcDbPolyline
 62
250
  6
CONTINUOUS
 90
4
 70
0
 10
25.4204797549
 20
-26.1819670127
 10
25.4139413473
 20
-27.0680627308
 10
25.4116780055
 20
-28.0292071017
 10
25.4125720517
 20
-32.4258348916
  0
LWPOLYLINE
  5
5B4
100
AcDbEntity
  8
COPY_GEOM
100
AcDbPolyline
 62
250
  6
CONTINUOUS
 90
34
 70
0
 10
25.4696019296
 20
-22.9010318096
 10
25.4702031504
 20
-22.8239379314
 10
25.4678169849
 20
-22.7417567813
 10
25.4623372932
 20
-22.6546309729
 10
25.4537862577
 20
-22.562909365
 10
25.4418936135
 20
-22.4665325351
 10
25.4260796869
 20
-22.3650545511
 10
25.4060724435
 20
-22.258668633
 10
25.3817714144
 20
-22.1475306116
 10
25.3527928539
 20
-22.0311814419
 10
25.3187846898
 20
-21.9099085367
 10
25.2795568492
 20
-21.7838027666
 10
25.2348762819
 20
-21.6521532526
 10
25.1842723761
 20
-21.5152708691
 10
25.1274136609
 20
-21.3732230896
 10
25.064125297
 20
-21.224978912
 10
24.9936136048
 20
-21.0704734497
 10
24.9154454119
 20
-20.9101003887
 10
24.8298183636
 20
-20.7435121259
 10
24.7358475953
 20
-20.5704397453
 10
24.6327277532
 20
-20.391237555
 10
24.5207033274
 20
-20.2063916033
 10
24.3981466521
 20
-20.0137773343
 10
24.2644971918
 20
-19.8151907796
 10
24.1223123932
 20
-19.6167600616
 10
23.9714410112
 20
-19.4171115705
 10
23.8111617082
 20
-19.2167773859
 10
23.6451509534
 20
-19.0246529451
 10
23.4743900076
 20
-18.840886033
 10
23.2996217976
 20
-18.6647903905
 10
23.1264008668
 20
-18.5042938764
 10
22.9581716472
 20
-18.3621995136
 10
22.7951366939
 20
-18.23600512
 10
22.6388288796
 20
-18.1259395263
  0
LINE
  5
5B5
100
AcDbEntity
  8
COPY_GEOM
100
AcDbLine
 62
250
  6
CONTINUOUS
 10
25.439649373
 20
-25.6217698121
 11
25.4502410213
 21
-24.2285405491
  0
LWPOLYLINE
  5
5B6
100
AcDbEntity
  8
SCATOLA
100
AcDbPolyline
 62
7
  6
CONTINUOUS
 90
14
 70
0
 10
22.0504005419
 20
36.3257888506
 10
22.0512427753
 20
36.4235906274
 10
22.0263208255
 20
36.9482799099
 10
21.9522983316
 20
37.4734003305
 10
21.8301194764
 20
37.9922537953
 10
21.659167386
 20
38.5047600257
 10
21.4400589342
 20
39.0109993002
 10
21.1755889258
 20
39.5045143605
 10
20.8651762877
 20
39.9851422117
 10
20.509402093
 20
40.4530458487
 10
20.1128043656
 20
40.9022569974
 10
19.6768957799
 20
41.3307862333
 10
19.2001636615
 20
41.740622981
 10
18.6826080103
 20
42.1317672405
  0
LWPOLYLINE
  5
5B7
100
AcDbEntity
  8
SCATOLA
100
AcDbPolyline
 62
7
  6
CONTINUOUS
 90
14
 70
0
 10
23.0954670748
 20
19.7233335798
 10
23.0946248414
 20
19.625531803
 10
23.1195467912
 20
19.1008425204
 10
23.1935692851
 20
18.5757220998
 10
23.3157481403
 20
18.056868635
 10
23.4867002308
 20
17.5443624047
 10
23.7058086825
 20
17.0381231302
 10
23.9702786909
 20
16.5446080699
 10
24.280691329
 20
16.0639802187
 10
24.6364655237
 20
15.5960765817
 10
25.0330632511
 20
15.1468654329
 10
25.4689718368
 20
14.718336197
 10
25.9457039552
 20
14.3084994493
 10
26.4632596064
 20
13.9173551898
  0
LINE
  5
5B8
100
AcDbEntity
  8
COPY_GEOM
100
AcDbLine
 62
250
  6
CONTINUOUS
 10
25.4502410213
 20
-24.2285405491
 11
25.4541657011
 21
-23.8908998522
  0
LINE
  5
5B9
100
AcDbEntity
  8
COPY_GEOM
100
AcDbLine
 62
250
  6
CONTINUOUS
 10
25.4541657011
 20
-23.8908998522
 11
25.4696019296
 21
-22.9010318096
  0
LWPOLYLINE
  5
5BA
100
AcDbEntity
  8
SUPERFICI
100
AcDbPolyline
 62
250
  6
CONTINUOUS
 90
6
 70
0
 10
25.4676323891
 20
-73.1607432743
 10
25.4732904967
 20
-72.8639930199
 10
25.4755176357
 20
-72.5548727352
 10
25.4749178035
 20
-72.2341417419
 10
25.4719517648
 20
-71.9009836649
 10
25.451255841
 20
-70.5117755497
  0
LWPOLYLINE
  5
5BB
100
AcDbEntity
  8
DRAFT
100
AcDbPolyline
 62
7
  6
CONTINUOUS
 90
9
 70
0
 10
24.9765409389
 20
-22.7229400815
 10
24.9607950938
 20
-22.9102100198
 10
24.9289757372
 20
-23.0879659542
 10
24.8812121474
 20
-23.2552513002
 10
24.8178058654
 20
-23.410925326
 10
24.7389965914
 20
-23.5544794156
 10
24.6447113137
 20
-23.6857774307
 10
24.5354568507
 20
-23.8036249021
 10
24.4128233059
 20
-23.906438369
  0
LWPOLYLINE
  5
5BC
100
AcDbEntity
  8
DRAFT
100
AcDbPolyline
 62
7
  6
CONTINUOUS
 90
9
 70
0
 10
19.454080208
 20
-19.6611820121
 10
19.4926267746
 20
-19.4363155534
 10
19.5513576597
 20
-19.22334975
 10
19.6304002222
 20
-19.0239928411
 10
19.730900757
 20
-18.8384768976
 10
19.8517381359
 20
-18.6700045347
 10
19.9884554542
 20
-18.5235267031
 10
20.1398142975
 20
-18.3991126793
 10
20.1716662783
 20
-18.3769248105
  0
LINE
  5
5BD
100
AcDbEntity
  8
ASSI
100
AcDbLine
 62
7
  6
CONTINUOUS
 10
18.5019065019
 20
-16.594392466
 11
18.5561517205
 21
-16.3367353082
  0
LWPOLYLINE
  5
5BE
100
AcDbEntity
  8
COPY_GEOM
100
AcDbPolyline
 62
250
  6
CONTINUOUS
 90
13
 70
0
 10
22.6388249606
 20
-18.1259417377
 10
22.677985792
 20
-17.9422349171
 10
22.7329228318
 20
-17.751645532
 10
22.8029498359
 20
-17.5565543233
 10
22.8871920649
 20
-17.3593982661
 10
22.9845972102
 20
-17.1626401289
 10
23.093948539
 20
-16.9687377092
 10
23.2138800934
 20
-16.7801131327
 10
23.3428937527
 20
-16.5991225968
 10
23.4793779479
 20
-16.4280269389
 10
23.6216277915
 20
-16.2689633946
 10
23.767866375
 20
-16.123918901
 10
23.9162669644
 20
-15.9947052764
  0
LWPOLYLINE
  5
5BF
100
AcDbEntity
  8
COPY_GEOM
100
AcDbPolyline
 62
7
  6
CONTINUOUS
 90
13
 70
0
 10
18.9383163517
 20
-15.5659006276
 10
18.8472658873
 20
-15.9803286591
 10
18.7612849117
 20
-16.3923358823
 10
18.6803734249
 20
-16.8019222971
 10
18.6043548339
 20
-17.2104185532
 10
18.5334057316
 20
-17.616494001
 10
18.4680558968
 20
-18.0161566912
 10
18.4085906864
 20
-18.4089956716
 10
18.3547247434
 20
-18.7954218945
 10
18.3061317757
 20
-19.172676268
 10
18.2627030192
 20
-19.539839095
 10
18.224547238
 20
-19.8978300727
 10
18.1916644321
 20
-20.246649201
  0
LINE
  5
5C0
100
AcDbEntity
  8
ASSI
100
AcDbLine
 62
7
  6
CONTINUOUS
 10
18.5561517205
 20
-16.3367353082
 11
18.6161567458
 21
-16.062639447
  0
LINE
  5
5C1
100
AcDbEntity
  8
ASSI
100
AcDbLine
 62
7
  6
CONTINUOUS
 10
18.6161567458
 20
-16.062639447
 11
18.6831730129
 21
-15.7671753258
  0
LINE
  5
5C2
100
AcDbEntity
  8
ASSI
100
AcDbLine
 62
7
  6
CONTINUOUS
 10
18.6831730129
 20
-15.7671753258
 11
18.7575623145
 21
-15.4488841626
  0
LWPOLYLINE
  5
5C3
100
AcDbEntity
  8
COPY_GEOM
100
AcDbPolyline
 62
7
  6
CONTINUOUS
 90
16
 70
0
 10
18.9383163517
 20
-15.5659006276
 10
18.9752982449
 20
-15.4224545097
 10
19.0213809715
 20
-15.2776654324
 10
19.0765645314
 20
-15.1315333958
 10
19.1414186714
 20
-14.9828981991
 10
19.2153736448
 20
-14.8329200431
 10
19.2967202109
 20
-14.6850795297
 10
19.3854684577
 20
-14.53962715
 10
19.4816082973
 20
-14.3963124129
 10
19.5834002245
 20
-14.2578644465
 10
19.6913470275
 20
-14.1239797336
 10
19.8049459181
 20
-13.9949617916
 10
19.9209490272
 20
-13.8744503006
 10
20.0382737317
 20
-13.7636584875
 10
20.1580026546
 20
-13.6613731256
 10
20.2801357959
 20
-13.5675942147
  0
LWPOLYLINE
  5
5C4
100
AcDbEntity
  8
ASSI
100
AcDbPolyline
 62
7
  6
CONTINUOUS
 90
6
 70
0
 10
18.7575623145
 20
-15.4488841626
 10
18.772624334
 20
-15.3986193917
 10
18.7890483591
 20
-15.3472179171
 10
18.8068343896
 20
-15.2946797387
 10
18.8261122498
 20
-15.2406787132
 10
18.8467521154
 20
-15.185540984
  0
LWPOLYLINE
  5
5C5
100
AcDbEntity
  8
ASSI
100
AcDbPolyline
 62
7
  6
CONTINUOUS
 90
32
 70
0
 10
18.8467521154
 20
-15.185540984
 10
18.8683645144
 20
-15.1302449814
 10
18.8908161428
 20
-15.0750710982
 10
18.9142403047
 20
-15.0197389415
 10
18.9386474399
 20
-14.9643857628
 10
18.9639805777
 20
-14.9091413187
 10
18.9902966888
 20
-14.8538758525
 10
19.0177771252
 20
-14.7983373458
 10
19.0464027355
 20
-14.7425004177
 10
19.0761926712
 20
-14.6863904492
 10
19.1073857386
 20
-14.6298315642
 10
19.1399743346
 20
-14.5727615627
 10
19.1739660623
 20
-14.5152426447
 10
19.2096225379
 20
-14.4572855347
 10
19.2469672284
 20
-14.3988669074
 10
19.2859766668
 20
-14.3400100881
 10
19.3268420679
 20
-14.2807957775
 10
19.3696850662
 20
-14.2211462447
 10
19.4143840272
 20
-14.1611392206
 10
19.4607652625
 20
-14.1010885979
 10
19.5088708371
 20
-14.0409650839
 10
19.5586586859
 20
-13.9807979713
 10
19.609828925
 20
-13.9209890312
 10
19.6623943675
 20
-13.8614361753
 10
19.7163422003
 20
-13.802241492
 10
19.7713341004
 20
-13.744113017
 10
19.8274211184
 20
-13.686814269
 10
19.8845522037
 20
-13.6305817295
 10
19.942235881
 20
-13.5768328787
 10
20.0003083254
 20
-13.5260402101
 10
20.0589333619
 20
-13.4777312303
 10
20.1181109904
 20
-13.4319059393
  0
LINE
  5
5C6
100
AcDbEntity
  8
0
100
AcDbLine
 62
7
  6
CONTINUOUS
 10
24.0932133879
 20
-10.5516982278
 11
20.1181071197
 21
-13.4319087439
  0
LINE
  5
5C7
100
AcDbEntity
  8
0
100
AcDbLine
 62
7
  6
CONTINUOUS
 10
24.9770968644
 20
-10.1643554318
 11
20.2798309589
 21
-13.567815088
  0
LINE
  5
5C8
100
AcDbEntity
  8
COPY_GEOM
100
AcDbLine
 62
250
  6
CONTINUOUS
 10
37.7050189257
 20
-6.0039016997
 11
23.9162669644
 21
-15.9947052764
  0
LINE
  5
5C9
100
AcDbEntity
  8
RACCORDO
100
AcDbLine
 62
250
  6
CONTINUOUS
 10
8.5015046213
 20
-21.7282673714
 11
9.053832677
 21
-21.3377127443
  0
LINE
  5
5CA
100
AcDbEntity
  8
RACCORDO
100
AcDbLine
 62
250
  6
CONTINUOUS
 10
9.7743010689
 20
-23.9010660131
 11
10.4108411817
 21
-23.450963587
  0
LINE
  5
5CB
100
AcDbEntity
  8
0
100
AcDbLine
 62
250
  6
CONTINUOUS
 10
38.8363897756
 20
-5.2039016997
 11
37.7050189257
 21
-6.0039016997
  0
LINE
  5
5CC
100
AcDbEntity
  8
0
100
AcDbLine
 62
250
  6
CONTINUOUS
 10
18.2169148092
 20
-19.9787944881
 11
17.972159438
 21
-20.1518626709
  0
LINE
  5
5CD
100
AcDbEntity
  8
SCATOLA
100
AcDbLine
 62
250
  6
CONTINUOUS
 10
64.2350980067
 20
12.3123610225
 11
38.8363897756
 21
-5.2039016997
  0
LWPOLYLINE
  5
5CE
100
AcDbEntity
  8
DRAFT
100
AcDbPolyline
 62
7
  6
CONTINUOUS
 90
33
 70
0
 10
20.1716662783
 20
-18.3769248105
 10
20.3043040828
 20
-18.296880784
 10
20.4750461164
 20
-18.2190177199
 10
20.6476865139
 20
-18.164326866
 10
20.822010458
 20
-18.1298506338
 10
20.9967726325
 20
-18.1137990299
 10
21.1693501733
 20
-18.1144611046
 10
21.3393172174
 20
-18.1299041508
 10
21.5094369641
 20
-18.1591824861
 10
21.678314658
 20
-18.2012455815
 10
21.8456606665
 20
-18.2553672134
 10
22.0165814903
 20
-18.3231617742
 10
22.1909934714
 20
-18.405007786
 10
22.367818285
 20
-18.5010096227
 10
22.5508921129
 20
-18.6143730892
 10
22.7407081854
 20
-18.7470497475
 10
22.9348585393
 20
-18.8988789165
 10
23.1325513386
 20
-19.0706499396
 10
23.3334993663
 20
-19.2642689028
 10
23.5344644152
 20
-19.4783689085
 10
23.7302055935
 20
-19.7077605804
 10
23.9186211263
 20
-19.9506554313
 10
24.0980802125
 20
-20.2060299978
 10
24.2648065721
 20
-20.468510724
 10
24.4174784837
 20
-20.7354719445
 10
24.5547258202
 20
-21.0052521911
 10
24.673757478
 20
-21.273526548
 10
24.774066877
 20
-21.5381373288
 10
24.8551629419
 20
-21.7970797526
 10
24.9155031425
 20
-22.0465648474
 10
24.9551709575
 20
-22.2844981943
 10
24.9752693419
 20
-22.5102930209
 10
24.9765409389
 20
-22.7229400815
  0
LWPOLYLINE
  5
5CF
100
AcDbEntity
  8
SCATOLA
100
AcDbPolyline
 62
7
  6
CONTINUOUS
 90
19
 70
0
 10
32.3827406118
 20
26.5679193059
 10
31.6019053443
 20
26.4491361684
 10
30.8357374487
 20
26.2920062585
 10
30.0840263151
 20
26.0970802004
 10
29.3576701488
 20
25.8671840055
 10
28.6570383275
 20
25.6018082196
 10
27.9817614734
 20
25.3014622968
 10
27.341629658
 20
24.9705006114
 10
26.7371548837
 20
24.6084771448
 10
26.167825148
 20
24.2158379154
 10
25.6418945157
 20
23.7982753533
 10
25.1599952364
 20
23.3554263686
 10
24.7214950606
 20
22.8876540511
 10
24.3327513036
 20
22.4017400999
 10
23.9944888304
 20
21.8974202228
 10
23.7059827762
 20
21.374958712
 10
23.4714158622
 20
20.8419301431
 10
23.2915738883
 20
20.2981805723
 10
23.1656710547
 20
19.7438639433
  0
LINE
  5
5D0
100
AcDbEntity
  8
ASSI
100
AcDbLine
 62
7
  6
CONTINUOUS
 10
-49.2191911707
 20
57.0436393414
 11
-49.5852165745
 21
57.254270228
  0
LWPOLYLINE
  5
5D1
100
AcDbEntity
  8
SCATOLA
100
AcDbPolyline
 62
7
  6
CONTINUOUS
 90
3
 70
0
 10
-49.4784814091
 20
57.1965618733
 10
-49.1640852566
 20
57.0096399887
 10
-48.8448510915
 20
56.7960983003
  0
LWPOLYLINE
  5
5D2
100
AcDbEntity
  8
SCATOLA
100
AcDbPolyline
 62
7
  6
CONTINUOUS
 90
37
 70
0
 10
26.4632596064
 20
13.9173551898
 10
27.0168660838
 20
13.5510734445
 10
27.5977482526
 20
13.2130639578
 10
28.2059061129
 20
12.9033267297
 10
28.8441693918
 20
12.6207806433
 10
29.5097083622
 20
12.3665068155
 10
30.1940338426
 20
12.1437485977
 10
30.8973864845
 20
11.9529096989
 10
31.6195256364
 20
11.7935864101
 10
32.3512401617
 20
11.6678109553
 10
33.0926527192
 20
11.5760130761
 10
33.84364065
 20
11.5177630309
 10
34.5946248414
 20
11.4938038193
 10
35.3456052455
 20
11.5045747006
 10
36.0965819101
 20
11.5496364156
 10
36.8379758663
 20
11.6284141863
 10
37.5696643613
 20
11.7413399093
 10
38.2917701478
 20
11.887981688
 10
38.9950825147
 20
12.0664690555
 10
39.6793607221
 20
12.2772099478
 10
40.3448455099
 20
12.5197964289
 10
40.9830483879
 20
12.7911342238
 10
41.5936198798
 20
13.0915916312
 10
42.1769094619
 20
13.4208003523
 10
42.7254770722
 20
13.7745612152
 10
43.2388779287
 20
14.1531887281
 10
43.7175568134
 20
14.5563683827
 10
44.1554080103
 20
14.9789574819
 10
44.5519085244
 20
15.4212046573
 10
44.9075813507
 20
15.8828612773
 10
45.2178897584
 20
16.358038751
 10
45.4822526377
 20
16.8469102779
 10
45.7012510983
 20
17.3493026583
 10
45.8720917386
 20
17.8588077025
 10
45.9941576658
 20
18.3755165223
 10
46.0680657728
 20
18.8993380058
 10
46.0920311023
 20
19.3257888506
  0
LWPOLYLINE
  5
5D3
100
AcDbEntity
  8
SCATOLA
100
AcDbPolyline
 62
7
  6
CONTINUOUS
 90
37
 70
0
 10
2.4216290461
 20
30.9173551898
 10
2.9752355234
 20
30.5510734445
 10
3.5561176923
 20
30.2130639578
 10
4.1642755526
 20
29.9033267297
 10
4.8025388315
 20
29.6207806433
 10
5.4680778019
 20
29.3665068155
 10
6.1524032822
 20
29.1437485977
 10
6.8557559242
 20
28.9529096989
 10
7.5778950761
 20
28.7935864101
 10
8.3096096014
 20
28.6678109553
 10
9.0510221588
 20
28.5760130761
 10
9.8020100896
 20
28.5177630309
 10
10.552994281
 20
28.4938038193
 10
11.3039746851
 20
28.5045747006
 10
12.0549513498
 20
28.5496364156
 10
12.796345306
 20
28.6284141863
 10
13.5280338009
 20
28.7413399093
 10
14.2501395874
 20
28.887981688
 10
14.9534519544
 20
29.0664690555
 10
15.6377301617
 20
29.2772099478
 10
16.3032149496
 20
29.5197964289
 10
16.9414178276
 20
29.7911342238
 10
17.5519893195
 20
30.0915916312
 10
18.1352789016
 20
30.4208003523
 10
18.6838465118
 20
30.7745612152
 10
19.1972473683
 20
31.1531887281
 10
19.6759262531
 20
31.5563683827
 10
20.11377745
 20
31.9789574819
 10
20.5102779641
 20
32.4212046573
 10
20.8659507904
 20
32.8828612773
 10
21.176259198
 20
33.358038751
 10
21.4406220773
 20
33.8469102779
 10
21.6596205379
 20
34.3493026583
 10
21.8304611782
 20
34.8588077025
 10
21.9525271055
 20
35.3755165223
 10
22.0264352124
 20
35.8993380058
 10
22.0504005419
 20
36.3257888506
  0
LINE
  5
5D4
100
AcDbEntity
  8
SCATOLA
100
AcDbLine
 62
7
  6
CONTINUOUS
 10
-21.4952811489
 20
48.4357472832
 11
-20.9545193574
 21
48.0228927367
  0
LINE
  5
5D5
100
AcDbEntity
  8
SCATOLA
100
AcDbLine
 62
7
  6
CONTINUOUS
 10
2.5463494114
 20
31.4357472832
 11
3.0871112029
 21
31.0228927367
  0
LINE
  5
5D6
100
AcDbEntity
  8
SCATOLA
100
AcDbLine
 62
7
  6
CONTINUOUS
 10
26.5879799718
 20
14.4357472832
 11
27.1287417633
 21
14.0228927367
  0
LINE
  5
5D7
100
AcDbEntity
  8
SCATOLA
100
AcDbLine
 62
7
  6
CONTINUOUS
 10
21.8947270015
 20
36.8224468488
 11
21.9920825563
 21
36.266117755
  0
LINE
  5
5D8
100
AcDbEntity
  8
RACCORDO
100
AcDbLine
 62
250
  6
CONTINUOUS
 10
33.686280528
 20
-25.903529224
 11
33.686280528
 21
-25.950978292
  0
LINE
  5
5D9
100
AcDbEntity
  8
DRAFT
100
AcDbLine
 62
7
  6
CONTINUOUS
 10
33.8898264905
 20
-26.0949070224
 11
33.8898264905
 21
-68.9533840959
  0
LINE
  5
5DA
100
AcDbEntity
  8
RACCORDO
100
AcDbLine
 62
250
  6
CONTINUOUS
 10
34.3871631038
 20
-25.8218275085
 11
34.3871631038
 21
-68.6137717036
  0
LWPOLYLINE
  5
5DB
100
AcDbEntity
  8
COPY_GEOM
100
AcDbPolyline
 62
250
  6
CONTINUOUS
 90
3
 70
0
 10
27.8985729042
 20
-26.5782009278
 10
27.9012044881
 20
-26.1264118358
 10
27.9048520956
 20
-25.6825409423
  0
LINE
  5
5DC
100
AcDbEntity
  8
DRAFT
100
AcDbLine
 62
250
  6
CONTINUOUS
 10
27.9074278055
 20
-28.3266415119
 11
27.9166615284
 21
-26.7842077083
  0
LWPOLYLINE
  5
5DD
100
AcDbEntity
  8
COPY_GEOM
100
AcDbPolyline
 62
250
  6
CONTINUOUS
 90
34
 70
0
 10
27.9645506803
 20
-22.7948395411
 10
27.9657430841
 20
-22.6802346361
 10
27.9633021511
 20
-22.5589996919
 10
27.9568386791
 20
-22.4309744008
 10
27.9459642658
 20
-22.2959317387
 10
27.930253572
 20
-22.1538291323
 10
27.9092669141
 20
-22.0048238272
 10
27.8825953892
 20
-21.8489194458
 10
27.8498413732
 20
-21.6860158162
 10
27.8106016603
 20
-21.5161714179
 10
27.7645115279
 20
-21.3396296984
 10
27.7111518396
 20
-21.1562620419
 10
27.6500002012
 20
-20.9656126994
 10
27.5807163051
 20
-20.7681320356
 10
27.5028155308
 20
-20.5637279681
 10
27.4153971742
 20
-20.3511694774
 10
27.3179400839
 20
-20.1307796854
 10
27.2099737698
 20
-19.9029476359
 10
27.090446775
 20
-19.6666393495
 10
26.959006518
 20
-19.4227604329
 10
26.8149988058
 20
-19.1717390959
 10
26.6566453173
 20
-18.9120642934
 10
26.4823674881
 20
-18.6431252514
 10
26.2926409901
 20
-18.3680119319
 10
26.0889578112
 20
-18.0909729196
 10
25.8705850639
 20
-17.8123511939
 10
25.6384636253
 20
-17.5351629368
 10
25.3975243963
 20
-17.2671624504
 10
25.1472062864
 20
-17.0082590737
 10
24.8898734071
 20
-16.7612701672
 10
24.6359136489
 20
-16.5362140611
 10
24.3898203363
 20
-16.3354103592
 10
24.1496277096
 20
-16.1551597005
 10
23.9162669644
 20
-15.9947052764
  0
LWPOLYLINE
  5
5DE
100
AcDbEntity
  8
COPY_GEOM
100
AcDbPolyline
 62
250
  6
CONTINUOUS
 90
7
 70
0
 10
27.9048520956
 20
-25.6825409423
 10
27.914983653
 20
-24.81863948
 10
27.9214676029
 20
-24.3986089112
 10
27.929602762
 20
-23.9862393519
 10
27.9396008588
 20
-23.5814450722
 10
27.951250165
 20
-23.184311802
 10
27.9645506803
 20
-22.7948395411
  0
LWPOLYLINE
  5
5DF
100
AcDbEntity
  8
SUPERFICI
100
AcDbPolyline
 62
250
  6
CONTINUOUS
 90
4
 70
0
 10
8.5761572277
 20
-56.3610482464
 10
8.618183106
 20
-56.2584651575
 10
8.6694679556
 20
-56.1537743199
 10
8.7099748805
 20
-56.0829515432
  0
LINE
  5
5E0
100
AcDbEntity
  8
DRAFT
100
AcDbLine
 62
250
  6
CONTINUOUS
 10
20.2099766233
 20
-23.3493859514
 11
20.0042845139
 21
-23.4948322368
  0
LINE
  5
5E1
100
AcDbEntity
  8
COPY_GEOM
100
AcDbLine
 62
250
  6
CONTINUOUS
 10
41.9476596129
 20
-13.2465423869
 11
27.9645506803
 21
-22.7948395411
  0
LWPOLYLINE
  5
5E2
100
AcDbEntity
  8
DRAFT
100
AcDbPolyline
 62
7
  6
CONTINUOUS
 90
35
 70
0
 10
24.4128233059
 20
-23.906438369
 10
24.2709862791
 20
-23.9976668883
 10
24.1137984982
 20
-24.0728548397
 10
23.9405059549
 20
-24.1312941577
 10
23.7515656896
 20
-24.1713449673
 10
23.5470444476
 20
-24.1917613457
 10
23.3279238434
 20
-24.1911559931
 10
23.0963028565
 20
-24.1678360162
 10
22.8507402666
 20
-24.1204540947
 10
22.5949766546
 20
-24.0484894713
 10
22.3397278828
 20
-23.9540809807
 10
22.0888508697
 20
-23.8399130586
 10
21.8422147539
 20
-23.7074976777
 10
21.6048313783
 20
-23.5601028981
 10
21.3786613875
 20
-23.4003827859
 10
21.164201193
 20
-23.2306579775
 10
20.9638160828
 20
-23.0543829589
 10
20.7789746089
 20
-22.8745597406
 10
20.6089903984
 20
-22.6925754095
 10
20.4526768606
 20
-22.5092448919
 10
20.310519096
 20
-22.3266865041
 10
20.1819260988
 20
-22.1455962929
 10
20.0643310394
 20
-21.9640932234
 10
19.9578262179
 20
-21.7834320238
 10
19.8622966844
 20
-21.6040247082
 10
19.7755812534
 20
-21.4223812316
 10
19.6978426945
 20
-21.2390918739
 10
19.629637464
 20
-21.0548965378
 10
19.5703353803
 20
-20.8665626569
 10
19.5206750013
 20
-20.6751555225
 10
19.4815564714
 20
-20.4813756877
 10
19.4537295181
 20
-20.2818970864
 10
19.4387690318
 20
-20.0767844711
 10
19.438353682
 20
-19.8692330905
 10
19.454080208
 20
-19.6611820121
  0
LWPOLYLINE
  5
5E3
100
AcDbEntity
  8
SUPERFICI
100
AcDbPolyline
 62
250
  6
CONTINUOUS
 90
6
 70
0
 10
-56.048664886
 20
23.1725439744
 10
-56.1730808041
 20
23.1517733626
 10
-56.2983925817
 20
23.1424490112
 10
-56.421315512
 20
23.1441625218
 10
-56.5412133878
 20
23.1562671466
 10
-56.6564207255
 20
23.1781204597
  0
LWPOLYLINE
  5
5E4
100
AcDbEntity
  8
SCATOLA
100
AcDbPolyline
 62
7
  6
CONTINUOUS
 90
7
 70
0
 10
37.1634632012
 20
26.4680431561
 10
36.3769379929
 20
26.5819772501
 10
35.5815543657
 20
26.6569100858
 10
34.7774395183
 20
26.6934016852
 10
33.9762513977
 20
26.6909229982
 10
33.1780326413
 20
26.6489062953
 10
32.3827406118
 20
26.5679193059
  0
LWPOLYLINE
  5
5E5
100
AcDbEntity
  8
SCATOLA
100
AcDbPolyline
 62
7
  6
CONTINUOUS
 90
8
 70
0
 10
37.0330697476
 20
26.3119400965
 10
36.5464671369
 20
26.3884490626
 10
35.7679190276
 20
26.4775462389
 10
34.9826846609
 20
26.5252307502
 10
34.1908739586
 20
26.5321834181
 10
33.4056484881
 20
26.4982886746
 10
32.62711832
 20
26.4228637663
 10
32.3888321914
 20
26.3918543409
  0
LINE
  5
5E6
100
AcDbEntity
  8
SCATOLA
100
AcDbLine
 62
7
  6
CONTINUOUS
 10
37.9412571892
 20
26.3156678259
 11
37.1634632012
 21
26.4680431561
  0
LWPOLYLINE
  5
5E7
100
AcDbEntity
  8
ASSI
100
AcDbPolyline
 62
7
  6
CONTINUOUS
 90
9
 70
0
 10
-49.5852165745
 20
57.254270228
 10
-49.9429273028
 20
57.4279909598
 10
-50.2949060371
 20
57.5655579868
 10
-50.6385700958
 20
57.6662148592
 10
-50.9661714351
 20
57.7276922273
 10
-51.2773451722
 20
57.749100085
 10
-51.5724561897
 20
57.7313284385
 10
-51.8448510915
 20
57.6747779567
 10
-52.0940138555
 20
57.578567735
  0
LINE
  5
5E8
100
AcDbEntity
  8
SCATOLA
100
AcDbLine
 62
7
  6
CONTINUOUS
 10
-49.7880395489
 20
57.3568639541
 11
-49.4784814091
 21
57.1965618733
  0
LWPOLYLINE
  5
5E9
100
AcDbEntity
  8
SCATOLA
100
AcDbPolyline
 62
7
  6
CONTINUOUS
 90
37
 70
0
 10
-21.6200015142
 20
47.9173551898
 10
-21.0663950369
 20
47.5510734445
 10
-20.4855128681
 20
47.2130639578
 10
-19.8773550078
 20
46.9033267297
 10
-19.2390917289
 20
46.6207806433
 10
-18.5735527585
 20
46.3665068155
 10
-17.8892272781
 20
46.1437485977
 10
-17.1858746362
 20
45.9529096989
 10
-16.4637354842
 20
45.7935864101
 10
-15.7320209589
 20
45.6678109553
 10
-14.9906084015
 20
45.5760130761
 10
-14.2396204707
 20
45.5177630309
 10
-13.4886362793
 20
45.4938038193
 10
-12.7376558752
 20
45.5045747006
 10
-11.9866792106
 20
45.5496364156
 10
-11.2452852544
 20
45.6284141863
 10
-10.5135967594
 20
45.7413399093
 10
-9.7914909729
 20
45.887981688
 10
-9.0881786059
 20
46.0664690555
 10
-8.4039003986
 20
46.2772099478
 10
-7.7384156107
 20
46.5197964289
 10
-7.1002127328
 20
46.7911342238
 10
-6.4896412408
 20
47.0915916312
 10
-5.9063516588
 20
47.4208003523
 10
-5.3577840485
 20
47.7745612152
 10
-4.844383192
 20
48.1531887281
 10
-4.3657043073
 20
48.5563683827
 10
-3.9278531104
 20
48.9789574819
 10
-3.5313525963
 20
49.4212046573
 10
-3.17567977
 20
49.8828612773
 10
-2.8653713623
 20
50.358038751
 10
-2.601008483
 20
50.8469102779
 10
-2.3820100224
 20
51.3493026583
 10
-2.2111693821
 20
51.8588077025
 10
-2.0891034549
 20
52.3755165223
 10
-2.0151953479
 20
52.8993380058
 10
-1.9912300184
 20
53.3257888506
  0
LINE
  5
5EA
100
AcDbEntity
  8
SCATOLA
100
AcDbLine
 62
7
  6
CONTINUOUS
 10
64.5544983348
 20
-16.7859529842
 11
64.3737944634
 21
-16.5996727753
  0
LWPOLYLINE
  5
5EB
100
AcDbEntity
  8
SCATOLA
100
AcDbPolyline
 62
7
  6
CONTINUOUS
 90
3
 70
0
 10
43.0314497415
 20
-11.7792674186
 10
43.0668395083
 20
-12.1186879151
 10
43.0790304628
 20
-12.4465423869
  0
LWPOLYLINE
  5
5EC
100
AcDbEntity
  8
0
100
AcDbPolyline
 62
7
  6
CONTINUOUS
 90
22
 70
0
 10
41.9476596129
 20
-13.2465423869
 10
41.9352478585
 20
-12.9178138361
 10
41.8997905719
 20
-12.5780496256
 10
41.841287753
 20
-12.2272497553
 10
41.7591566491
 20
-11.8633367453
 10
41.6539800129
 20
-11.4883880756
 10
41.5275061025
 20
-11.1086361855
 10
41.3793789398
 20
-10.7240007906
 10
41.2099545027
 20
-10.3345621754
 10
41.0220489837
 20
-9.9467936329
 10
40.8153534765
 20
-9.5607230779
 10
40.5901768874
 20
-9.1763225955
 10
40.3502621271
 20
-8.7999817344
 10
40.0953628513
 20
-8.431835209
 10
39.8257254044
 20
-8.0717483048
 10
39.5458317308
 20
-7.7257064274
 10
39.2555104004
 20
-7.3939443356
 10
38.9549328433
 20
-7.0762272705
 10
38.6490952939
 20
-6.7778363615
 10
38.3396631635
 20
-6.5005319849
 10
38.0249710408
 20
-6.2425537643
 10
37.7050189257
 20
-6.0039016997
  0
LWPOLYLINE
  5
5ED
100
AcDbEntity
  8
COPY_GEOM
100
AcDbPolyline
 62
7
  6
CONTINUOUS
 90
22
 70
0
 10
41.9476596129
 20
-13.2465423869
 10
41.9352478585
 20
-12.9178138361
 10
41.8997905719
 20
-12.5780496256
 10
41.841287753
 20
-12.2272497553
 10
41.7591566491
 20
-11.8633367453
 10
41.6539800129
 20
-11.4883880756
 10
41.5275061025
 20
-11.1086361855
 10
41.3793789398
 20
-10.7240007906
 10
41.2099545027
 20
-10.3345621754
 10
41.0220489837
 20
-9.9467936329
 10
40.8153534765
 20
-9.5607230779
 10
40.5901768874
 20
-9.1763225955
 10
40.3502621271
 20
-8.7999817344
 10
40.0953628513
 20
-8.431835209
 10
39.8257254044
 20
-8.0717483048
 10
39.5458317308
 20
-7.7257064274
 10
39.2555104004
 20
-7.3939443356
 10
38.9549328433
 20
-7.0762272705
 10
38.6490952939
 20
-6.7778363615
 10
38.3396631635
 20
-6.5005319849
 10
38.0249710408
 20
-6.2425537643
 10
37.7050189257
 20
-6.0039016997
  0
LWPOLYLINE
  5
5EE
100
AcDbEntity
  8
RACCORDO
100
AcDbPolyline
 62
250
  6
CONTINUOUS
 90
23
 70
0
 10
34.3871631038
 20
-68.6137717036
 10
34.3865629275
 20
-68.6836083568
 10
34.3845531809
 20
-68.7584256284
 10
34.3808008642
 20
-68.8379527988
 10
34.3749282102
 20
-68.9221265821
 10
34.3665604119
 20
-69.0103610543
 10
34.355384507
 20
-69.1015917
 10
34.3410290639
 20
-69.1954498674
 10
34.3231056212
 20
-69.2915427704
 10
34.3013636249
 20
-69.3888139242
 10
34.2754507794
 20
-69.4868566459
 10
34.2450080918
 20
-69.5852327621
 10
34.2098891484
 20
-69.6829102124
 10
34.1697920753
 20
-69.7794670059
 10
34.1244186003
 20
-69.8744506256
 10
34.0737655045
 20
-69.9668884114
 10
34.0176099909
 20
-70.0563733408
 10
33.9557399449
 20
-70.1424775635
 10
33.8883237893
 20
-70.2243391636
 10
33.8152401743
 20
-70.3016012203
 10
33.7363783017
 20
-70.3739016722
 10
33.6520857585
 20
-70.4405469694
 10
33.6083242393
 20
-70.471376354
  0
LINE
  5
5EF
100
AcDbEntity
  8
SCATOLA
100
AcDbLine
 62
250
  6
CONTINUOUS
 10
68.0344025925
 20
5.8265424002
 11
43.0790304628
 21
-12.4465423869
  0
LINE
  5
5F0
100
AcDbEntity
  8
0
100
AcDbLine
 62
250
  6
CONTINUOUS
 10
43.0790304628
 20
-12.4465423869
 11
41.9476596129
 21
-13.2465423869
  0
LWPOLYLINE
  5
5F1
100
AcDbEntity
  8
SUPERFICI
100
AcDbPolyline
 62
7
  6
CONTINUOUS
 90
12
 70
0
 10
-55.3820366098
 20
24.0539795945
 10
-55.3847028358
 20
24.0533986213
 10
-55.3723756186
 20
24.0542071133
 10
-55.3461530561
 20
24.0535469935
 10
-55.3055570044
 20
24.0492054494
 10
-55.2507071842
 20
24.0391542692
 10
-55.1833040511
 20
24.0219401589
 10
-55.1046536358
 20
23.9964416336
 10
-55.0166577719
 20
23.9620414829
 10
-54.9191313518
 20
23.9174512725
 10
-54.8092171671
 20
23.8596218454
 10
-54.686680451
 20
23.7859703978
  0
LWPOLYLINE
  5
5F2
100
AcDbEntity
  8
SCATOLA
100
AcDbPolyline
 62
7
  6
CONTINUOUS
 90
29
 70
0
 10
8.347201631
 20
43.3918543409
 10
7.8135428234
 20
43.3065914467
 10
7.0610144757
 20
43.1514044074
 10
6.3282272595
 20
42.9566521996
 10
5.6148566318
 20
42.722985272
 10
4.9327603205
 20
42.4542876631
 10
4.2824610671
 20
42.1499738445
 10
3.6634361301
 20
41.8106293445
 10
3.0859750124
 20
41.441894786
 10
2.5507724418
 20
41.0432789223
 10
2.0571336906
 20
40.6152730001
 10
1.6132640782
 20
40.1649913825
 10
1.2199954822
 20
39.6920617375
 10
0.876496025
 20
39.1968563971
 10
0.5884753938
 20
38.687606721
 10
0.3568609018
 20
38.1640779619
 10
0.1807252358
 20
37.626504867
 10
0.0629961428
 20
37.0838230376
 10
0.0046498726
 20
36.5359470824
 10
0.0047101755
 20
35.9829623926
 10
0.0631760491
 20
35.4340607428
 10
0.1810237264
 20
34.8893103797
 10
0.3572769744
 20
34.3486430565
 10
0.5890060915
 20
33.821045807
 10
0.8771383416
 20
33.3067370939
 10
1.2207464608
 20
32.8054984544
 10
1.6141189559
 20
32.3256615344
 10
2.0553519958
 20
31.8700035491
 10
2.5463494114
 20
31.4357472832
  0
LWPOLYLINE
  5
5F3
100
AcDbEntity
  8
SCATOLA
100
AcDbPolyline
 62
7
  6
CONTINUOUS
 90
23
 70
0
 10
8.1949221627
 20
43.3705423379
 10
7.6249930072
 20
43.2799351014
 10
6.8754809355
 20
43.126221059
 10
6.1401113483
 20
42.9355325239
 10
5.4295455333
 20
42.7106340724
 10
4.7441448386
 20
42.4510273253
 10
4.0835479161
 20
42.1572106618
 10
3.4573320098
 20
41.8334437956
 10
2.8659979914
 20
41.4792904043
 10
2.3090449891
 20
41.0951868104
 10
1.7945476314
 20
40.6867016953
 10
1.3231244234
 20
40.2534798624
 10
0.8941568601
 20
39.7958765084
 10
0.5138640544
 20
39.3205259039
 10
0.1829551132
 20
38.8271695024
 10
-0.0992790703
 20
38.3160658506
 10
-0.3287467035
 20
37.7946248592
 10
-0.5046790693
 20
37.2626959312
 10
-0.6278448848
 20
36.7204296637
 10
-0.6964585089
 20
36.1756877589
 10
-0.7097252107
 20
35.628434151
 10
-0.6684397211
 20
35.0787049059
 10
-0.5970058479
 20
34.670502806
  0
LWPOLYLINE
  5
5F4
100
AcDbEntity
  8
SCATOLA
100
AcDbPolyline
 62
250
  6
CONTINUOUS
 90
4
 70
0
 10
59.5633182803
 20
16.0978614344
 10
59.5428629281
 20
16.1057176411
 10
59.4637470909
 20
16.1244424788
 10
59.380465061
 20
16.1266942085
  0
LWPOLYLINE
  5
5F5
100
AcDbEntity
  8
SCATOLA
100
AcDbPolyline
 62
7
  6
CONTINUOUS
 90
11
 70
0
 10
59.5666140236
 20
16.0964689123
 10
59.5628758515
 20
16.0980784897
 10
59.5602506844
 20
16.0992549184
 10
59.5584762845
 20
16.1000862862
 10
59.5565740367
 20
16.1010194888
 10
59.5544016059
 20
16.1021424991
 10
59.5520411051
 20
16.1034273372
 10
59.548925376
 20
16.1052244207
 10
59.5449755581
 20
16.1076501647
 10
59.5401523082
 20
16.1107943324
 10
59.5340258464
 20
16.1150152481
  0
LWPOLYLINE
  5
5F6
100
AcDbEntity
  8
SCATOLA
100
AcDbPolyline
 62
250
  6
CONTINUOUS
 90
9
 70
0
 10
56.2072274667
 20
13.6363446627
 10
56.1405964699
 20
13.6782980149
 10
56.0750049839
 20
13.7105207148
 10
56.011628463
 20
13.7324353072
 10
55.9516026673
 20
13.7436490661
 10
55.8960033099
 20
13.7439610337
 10
55.8458267786
 20
13.7333656213
 10
55.8019722801
 20
13.712052709
 10
55.7975401004
 20
13.7090482733
  0
LINE
  5
5F7
100
AcDbEntity
  8
SCATOLA
100
AcDbLine
 62
7
  6
CONTINUOUS
 10
46.0337131166
 20
19.266117755
 11
46.0636234062
 21
18.8678528666
  0
LWPOLYLINE
  5
5F8
100
AcDbEntity
  8
ASSI
100
AcDbPolyline
 62
7
  6
CONTINUOUS
 90
19
 70
0
 10
43.0790304628
 20
-12.4465423869
 10
43.0618730954
 20
-12.0600702168
 10
43.0136849369
 20
-11.6599706393
 10
42.934465987
 20
-11.2462436544
 10
42.8231464642
 20
-10.8155501307
 10
42.6807961502
 20
-10.3712291996
 10
42.5106243898
 20
-9.9232982547
 10
42.3119991879
 20
-9.4716752904
 10
42.0855525397
 20
-9.0164423123
 10
41.8363897756
 20
-8.5678627304
 10
41.5639948739
 20
-8.1260876842
 10
41.2688838563
 20
-7.6909660342
 10
40.9577101192
 20
-7.2723077727
 10
40.63010878
 20
-6.8704868838
 10
40.2864447212
 20
-6.4851293834
 10
39.934465987
 20
-6.1249233108
 10
39.5767552587
 20
-5.7927646793
 10
39.2107298549
 20
-5.4857574756
 10
38.8363897756
 20
-5.2039016997
  0
LINE
  5
5F9
100
AcDbEntity
  8
0
100
AcDbLine
 62
7
  6
CONTINUOUS
 10
41.9476596129
 20
-63.4511238511
 11
41.9476596129
 21
-13.2465423869
  0
LINE
  5
5FA
100
AcDbEntity
  8
COPY_GEOM
100
AcDbLine
 62
7
  6
CONTINUOUS
 10
41.9476596129
 20
-63.4511238511
 11
41.9476596129
 21
-13.2465423869
  0
LINE
  5
5FB
100
AcDbEntity
  8
SCATOLA
100
AcDbLine
 62
7
  6
CONTINUOUS
 10
43.0790304628
 20
-12.4465423869
 11
43.0790304628
 21
-62.6511238511
  0
LINE
  5
5FC
100
AcDbEntity
  8
ASSI
100
AcDbLine
 62
7
  6
CONTINUOUS
 10
43.0790304628
 20
-62.6511238511
 11
43.0790304628
 21
-12.4465423869
  0
LWPOLYLINE
  5
5FD
100
AcDbEntity
  8
SCATOLA
100
AcDbPolyline
 62
7
  6
CONTINUOUS
 90
14
 70
0
 10
46.0920311023
 20
19.3257888506
 10
46.0928733357
 20
19.4235906274
 10
46.0679513858
 20
19.9482799099
 10
45.9939288919
 20
20.4734003305
 10
45.8717500367
 20
20.9922537953
 10
45.7007979463
 20
21.5047600257
 10
45.4816894945
 20
22.0109993002
 10
45.2172194862
 20
22.5045143605
 10
44.9068068481
 20
22.9851422117
 10
44.5510326534
 20
23.4530458487
 10
44.1544349259
 20
23.9022569974
 10
43.7185263403
 20
24.3307862333
 10
43.2417942218
 20
24.740622981
 10
42.7242385706
 20
25.1317672405
  0
LINE
  5
5FE
100
AcDbEntity
  8
SCATOLA
100
AcDbLine
 62
7
  6
CONTINUOUS
 10
43.0790304628
 20
-62.6511238511
 11
43.0668395083
 21
-62.9617377097
  0
LWPOLYLINE
  5
5FF
100
AcDbEntity
  8
SCATOLA
100
AcDbPolyline
 62
7
  6
CONTINUOUS
 90
19
 70
0
 10
8.3411100515
 20
43.5679193059
 10
7.560274784
 20
43.4491361684
 10
6.7941068884
 20
43.2920062585
 10
6.0423957548
 20
43.0970802004
 10
5.3160395884
 20
42.8671840055
 10
4.6154077671
 20
42.6018082196
 10
3.9401309131
 20
42.3014622968
 10
3.2999990977
 20
41.9705006114
 10
2.6955243233
 20
41.6084771448
 10
2.1261945877
 20
41.2158379154
 10
1.6002639554
 20
40.7982753533
 10
1.1183646761
 20
40.3554263686
 10
0.6798645002
 20
39.8876540511
 10
0.2911207433
 20
39.4017400999
 10
-0.0471417299
 20
38.8974202228
 10
-0.3356477841
 20
38.374958712
 10
-0.5702146981
 20
37.8419301431
 10
-0.750056672
 20
37.2981805723
 10
-0.8759595057
 20
36.7438639433
  0
LWPOLYLINE
  5
600
100
AcDbEntity
  8
DRAFT
100
AcDbPolyline
 62
7
  6
CONTINUOUS
 90
18
 70
0
 10
-63.0128459096
 20
35.5387120202
 10
-63.0743337712
 20
35.530849994
 10
-63.1375263438
 20
35.5278154304
 10
-63.2022645291
 20
35.529603121
 10
-63.2684401525
 20
35.5361911042
 10
-63.3358957739
 20
35.5475210418
 10
-63.4043178234
 20
35.5635761445
 10
-63.4737269447
 20
35.5842684601
 10
-63.5444762612
 20
35.6094555264
 10
-63.6166239084
 20
35.6389706198
 10
-63.6898414936
 20
35.6729295198
 10
-63.7639263591
 20
35.7116940396
 10
-63.8385378035
 20
35.7553869778
 10
-63.913743511
 20
35.8038780925
 10
-63.9899671403
 20
35.8572399403
 10
-64.0672533741
 20
35.9155363002
 10
-64.1452568771
 20
35.9787589145
 10
-64.2238109781
 20
36.0469102744
  0
LWPOLYLINE
  5
601
100
AcDbEntity
  8
SCATOLA
100
AcDbPolyline
 62
7
  6
CONTINUOUS
 90
7
 70
0
 10
13.1218326408
 20
43.4680431561
 10
12.3353074326
 20
43.5819772501
 10
11.5399238054
 20
43.6569100858
 10
10.7358089579
 20
43.6934016852
 10
9.9346208373
 20
43.6909229982
 10
9.136402081
 20
43.6489062953
 10
8.3411100515
 20
43.5679193059
  0
LWPOLYLINE
  5
602
100
AcDbEntity
  8
SCATOLA
100
AcDbPolyline
 62
7
  6
CONTINUOUS
 90
8
 70
0
 10
12.9914391873
 20
43.3119400965
 10
12.5048365765
 20
43.3884490626
 10
11.7262884672
 20
43.4775462389
 10
10.9410541006
 20
43.5252307502
 10
10.1492433982
 20
43.5321834181
 10
9.3640179278
 20
43.4982886746
 10
8.5854877596
 20
43.4228637663
 10
8.347201631
 20
43.3918543409
  0
LINE
  5
603
100
AcDbEntity
  8
SCATOLA
100
AcDbLine
 62
7
  6
CONTINUOUS
 10
13.8996266289
 20
43.3156678259
 11
13.1218326408
 21
43.4680431561
  0
LWPOLYLINE
  5
604
100
AcDbEntity
  8
SCATOLA
100
AcDbPolyline
 62
250
  6
CONTINUOUS
 90
4
 70
0
 10
55.3962565159
 20
19.0439773033
 10
55.3667480977
 20
19.0608451077
 10
55.332770597
 20
19.0677783982
 10
55.2923920843
 20
19.0666900792
  0
LWPOLYLINE
  5
605
100
AcDbEntity
  8
SCATOLA
100
AcDbPolyline
 62
250
  6
CONTINUOUS
 90
4
 70
0
 10
59.5338646438
 20
16.1151142448
 10
59.5103292226
 20
16.1291414299
 10
59.4677943586
 20
16.1441536314
 10
59.4199572302
 20
16.1497471313
  0
LWPOLYLINE
  5
606
100
AcDbEntity
  8
SCATOLA
100
AcDbPolyline
 62
250
  6
CONTINUOUS
 90
11
 70
0
 10
59.8319747929
 20
15.9761620207
 10
59.8225275846
 20
15.9817937647
 10
59.8048757826
 20
15.9885802209
 10
59.7826378331
 20
15.9931183262
 10
59.7557817163
 20
15.9948724956
 10
59.7246857433
 20
15.9933644269
 10
59.6893155165
 20
15.9883038123
 10
59.6497906509
 20
15.979352207
 10
59.6069449144
 20
15.9663323158
 10
59.5610782719
 20
15.9492325373
 10
59.5123196001
 20
15.9279707519
  0
LWPOLYLINE
  5
607
100
AcDbEntity
  8
SCATOLA
100
AcDbPolyline
 62
250
  6
CONTINUOUS
 90
5
 70
0
 10
55.4326444894
 20
19.0151148271
 10
55.4091043348
 20
19.0291443657
 10
55.3665690504
 20
19.0441554141
 10
55.3187320295
 20
19.0497478143
 10
55.2663434705
 20
19.0458338639
  0
LWPOLYLINE
  5
608
100
AcDbEntity
  8
SCATOLA
100
AcDbPolyline
 62
250
  6
CONTINUOUS
 90
8
 70
0
 10
59.2987844575
 20
15.8028614854
 10
59.2386462106
 20
15.840938642
 10
59.1792555838
 20
15.8711898758
 10
59.1214747549
 20
15.8931760276
 10
59.0661425321
 20
15.9065779229
 10
59.0140621768
 20
15.9112010056
 10
58.9659897432
 20
15.906978162
 10
58.9226231021
 20
15.8939706955
  0
LWPOLYLINE
  5
609
100
AcDbEntity
  8
SCATOLA
100
AcDbPolyline
 62
7
  6
CONTINUOUS
 90
9
 70
0
 10
42.0464224652
 20
24.3108968354
 10
41.4620193187
 20
24.6936540465
 10
40.8463494362
 20
25.0419297317
 10
40.1994128176
 20
25.3557238909
 10
39.5172565971
 20
25.636400619
 10
38.8038336405
 20
25.8825958212
 10
38.0710025455
 20
26.0902172128
 10
37.3184389104
 20
26.258620043
 10
37.0330697476
 20
26.3119400965
  0
LWPOLYLINE
  5
60A
100
AcDbEntity
  8
SCATOLA
100
AcDbPolyline
 62
7
  6
CONTINUOUS
 90
9
 70
0
 10
18.0047919049
 20
41.3108968354
 10
17.4203887584
 20
41.6936540465
 10
16.8047188758
 20
42.0419297317
 10
16.1577822572
 20
42.3557238909
 10
15.4756260367
 20
42.636400619
 10
14.7622030802
 20
42.8825958212
 10
14.0293719852
 20
43.0902172128
 10
13.2768083501
 20
43.258620043
 10
12.9914391873
 20
43.3119400965
  0
LWPOLYLINE
  5
60B
100
AcDbEntity
  8
SCATOLA
100
AcDbPolyline
 62
7
  6
CONTINUOUS
 90
9
 70
0
 10
-6.0368386555
 20
58.3108968354
 10
-6.621241802
 20
58.6936540465
 10
-7.2369116845
 20
59.0419297317
 10
-7.8838483031
 20
59.3557238909
 10
-8.5660045236
 20
59.636400619
 10
-9.2794274802
 20
59.8825958212
 10
-10.0122585751
 20
60.0902172128
 10
-10.7648222103
 20
60.258620043
 10
-11.0501913731
 20
60.3119400965
  0
LWPOLYLINE
  5
60C
100
AcDbEntity
  8
SCATOLA
100
AcDbPolyline
 62
7
  6
CONTINUOUS
 90
9
 70
0
 10
42.5326833245
 20
24.1511973262
 10
41.9531865208
 20
24.5328102957
 10
41.343941298
 20
24.8826889862
 10
40.704947656
 20
25.2008333975
 10
40.032813663
 20
25.4884802583
 10
39.330931251
 20
25.7443928399
 10
38.6094762149
 20
25.9648609568
 10
37.8681634158
 20
26.1493682446
 10
37.1881642894
 20
26.2847529581
  0
LWPOLYLINE
  5
60D
100
AcDbEntity
  8
SCATOLA
100
AcDbPolyline
 62
7
  6
CONTINUOUS
 90
8
 70
0
 10
42.7094330959
 20
24.2730931093
 10
42.1170585854
 20
24.6631863671
 10
41.4942745799
 20
25.0208401396
 10
40.8410810791
 20
25.3460544267
 10
40.1540107753
 20
25.6400934399
 10
39.4365309762
 20
25.9016929678
 10
38.6990436061
 20
26.1270603762
 10
37.9412571892
 20
26.3156678259
  0
LWPOLYLINE
  5
60E
100
AcDbEntity
  8
SCATOLA
100
AcDbPolyline
 62
7
  6
CONTINUOUS
 90
9
 70
0
 10
18.4910527642
 20
41.1511973262
 10
17.9115559605
 20
41.5328102957
 10
17.3023107376
 20
41.8826889862
 10
16.6633170956
 20
42.2008333975
 10
15.9911831027
 20
42.4884802583
 10
15.2893006906
 20
42.7443928399
 10
14.5678456546
 20
42.9648609568
 10
13.8265328555
 20
43.1493682446
 10
13.146533729
 20
43.2847529582
  0
LWPOLYLINE
  5
60F
100
AcDbEntity
  8
SCATOLA
100
AcDbPolyline
 62
7
  6
CONTINUOUS
 90
8
 70
0
 10
18.6678025355
 20
41.2730931093
 10
18.0754280251
 20
41.6631863671
 10
17.4526440195
 20
42.0208401396
 10
16.7994505188
 20
42.3460544267
 10
16.1123802149
 20
42.6400934399
 10
15.3949004159
 20
42.9016929678
 10
14.6574130457
 20
43.1270603762
 10
13.8996266289
 20
43.3156678259
  0
LWPOLYLINE
  5
610
100
AcDbEntity
  8
SCATOLA
100
AcDbPolyline
 62
7
  6
CONTINUOUS
 90
9
 70
0
 10
-5.5505777962
 20
58.1511973262
 10
-6.1300745999
 20
58.5328102957
 10
-6.7393198227
 20
58.8826889862
 10
-7.3783134647
 20
59.2008333975
 10
-8.0504474576
 20
59.4884802583
 10
-8.7523298697
 20
59.7443928399
 10
-9.4737849057
 20
59.9648609568
 10
-10.2150977049
 20
60.1493682446
 10
-10.8950968313
 20
60.2847529581
  0
LWPOLYLINE
  5
611
100
AcDbEntity
  8
SCATOLA
100
AcDbPolyline
 62
7
  6
CONTINUOUS
 90
8
 70
0
 10
-5.3738280248
 20
58.2730931093
 10
-5.9662025352
 20
58.6631863671
 10
-6.5889865408
 20
59.0208401396
 10
-7.2421800416
 20
59.3460544267
 10
-7.9292503454
 20
59.6400934399
 10
-8.6467301445
 20
59.9016929678
 10
-9.3842175146
 20
60.1270603762
 10
-10.1420039315
 20
60.3156678259
  0
LWPOLYLINE
  5
612
100
AcDbEntity
  8
SCATOLA
100
AcDbPolyline
 62
250
  6
CONTINUOUS
 90
9
 70
0
 10
64.8565551921
 20
12.4232471405
 10
64.8420763781
 20
12.4328102056
 10
64.7763030695
 20
12.4625300445
 10
64.701287686
 20
12.4765383093
 10
64.6182444507
 20
12.4746257928
 10
64.5285629193
 20
12.4568244599
 10
64.4337437146
 20
12.4234321528
 10
64.3353734079
 20
12.3750075895
 10
64.2350980066
 20
12.3123610226
  0
LWPOLYLINE
  5
613
100
AcDbEntity
  8
SCATOLA
100
AcDbPolyline
 62
7
  6
CONTINUOUS
 90
37
 70
0
 10
42.7242385706
 20
25.1317672405
 10
42.1706320933
 20
25.4980489859
 10
41.5897499244
 20
25.8360584726
 10
40.9815920641
 20
26.1457957006
 10
40.3433287852
 20
26.4283417871
 10
39.6777898148
 20
26.6826156148
 10
38.9934643345
 20
26.9053738327
 10
38.2901116925
 20
27.0962127314
 10
37.5679725406
 20
27.2555360203
 10
36.8362580153
 20
27.381311475
 10
36.0948454579
 20
27.4731093543
 10
35.3438575271
 20
27.5313593995
 10
34.5928733357
 20
27.555318611
 10
33.8418929316
 20
27.5445477297
 10
33.0909162669
 20
27.4994860148
 10
32.3495223107
 20
27.420708244
 10
31.6178338158
 20
27.3077825211
 10
30.8957280293
 20
27.1611407424
 10
30.1924156623
 20
26.9826533749
 10
29.508137455
 20
26.7719124825
 10
28.8426526671
 20
26.5293260014
 10
28.2044497891
 20
26.2579882066
 10
27.5938782972
 20
25.9575307991
 10
27.0105887151
 20
25.628322078
 10
26.4620211049
 20
25.2745612152
 10
25.9486202484
 20
24.8959337023
 10
25.4699413636
 20
24.4927540477
 10
25.0320901667
 20
24.0701649484
 10
24.6355896526
 20
23.627917773
 10
24.2799168263
 20
23.166261153
 10
23.9696084187
 20
22.6910836794
 10
23.7052455394
 20
22.2022121525
 10
23.4862470788
 20
21.699819772
 10
23.3154064385
 20
21.1903147278
 10
23.1933405112
 20
20.673605908
 10
23.1194324043
 20
20.1497844246
 10
23.0954670748
 20
19.7233335798
  0
LWPOLYLINE
  5
614
100
AcDbEntity
  8
SCATOLA
100
AcDbPolyline
 62
7
  6
CONTINUOUS
 90
37
 70
0
 10
18.6826080103
 20
42.1317672405
 10
18.1290015329
 20
42.4980489859
 10
17.5481193641
 20
42.8360584726
 10
16.9399615038
 20
43.1457957006
 10
16.3016982249
 20
43.4283417871
 10
15.6361592545
 20
43.6826156148
 10
14.9518337741
 20
43.9053738327
 10
14.2484811322
 20
44.0962127314
 10
13.5263419803
 20
44.2555360203
 10
12.794627455
 20
44.381311475
 10
12.0532148975
 20
44.4731093543
 10
11.3022269667
 20
44.5313593995
 10
10.5512427753
 20
44.555318611
 10
9.8002623712
 20
44.5445477297
 10
9.0492857066
 20
44.4994860148
 10
8.3078917504
 20
44.420708244
 10
7.5762032554
 20
44.3077825211
 10
6.854097469
 20
44.1611407424
 10
6.150785102
 20
43.9826533749
 10
5.4665068946
 20
43.7719124825
 10
4.8010221068
 20
43.5293260014
 10
4.1628192288
 20
43.2579882066
 10
3.5522477369
 20
42.9575307991
 10
2.9689581548
 20
42.628322078
 10
2.4203905445
 20
42.2745612152
 10
1.906989688
 20
41.8959337023
 10
1.4283108033
 20
41.4927540477
 10
0.9904596064
 20
41.0701649484
 10
0.5939590923
 20
40.627917773
 10
0.238286266
 20
40.166261153
 10
-0.0720221417
 20
39.6910836794
 10
-0.3363850209
 20
39.2022121525
 10
-0.5553834816
 20
38.699819772
 10
-0.7262241219
 20
38.1903147278
 10
-0.8482900491
 20
37.673605908
 10
-0.922198156
 20
37.1497844246
 10
-0.9461634855
 20
36.7233335798
  0
LWPOLYLINE
  5
615
100
AcDbEntity
  8
SCATOLA
100
AcDbPolyline
 62
7
  6
CONTINUOUS
 90
37
 70
0
 10
-5.3590225501
 20
59.1317672405
 10
-5.9126290274
 20
59.4980489859
 10
-6.4935111962
 20
59.8360584726
 10
-7.1016690565
 20
60.1457957006
 10
-7.7399323355
 20
60.4283417871
 10
-8.4054713059
 20
60.6826156148
 10
-9.0897967862
 20
60.9053738327
 10
-9.7931494282
 20
61.0962127314
 10
-10.5152885801
 20
61.2555360203
 10
-11.2470031054
 20
61.381311475
 10
-11.9884156628
 20
61.4731093543
 10
-12.7394035936
 20
61.5313593995
 10
-13.490387785
 20
61.555318611
 10
-14.2413681891
 20
61.5445477297
 10
-14.9923448538
 20
61.4994860148
 10
-15.7337388099
 20
61.420708244
 10
-16.4654273049
 20
61.3077825211
 10
-17.1875330914
 20
61.1611407424
 10
-17.8908454584
 20
60.9826533749
 10
-18.5751236657
 20
60.7719124825
 10
-19.2406084536
 20
60.5293260014
 10
-19.8788113316
 20
60.2579882066
 10
-20.4893828235
 20
59.9575307991
 10
-21.0726724055
 20
59.628322078
 10
-21.6212400158
 20
59.2745612152
 10
-22.1346408723
 20
58.8959337023
 10
-22.613319757
 20
58.4927540477
 10
-23.051170954
 20
58.0701649484
 10
-23.4476714681
 20
57.627917773
 10
-23.8033442944
 20
57.166261153
 10
-24.113652702
 20
56.6910836794
 10
-24.3780155813
 20
56.2022121525
 10
-24.5970140419
 20
55.699819772
 10
-24.7678546822
 20
55.1903147278
 10
-24.8899206095
 20
54.673605908
 10
-24.9638287164
 20
54.1497844246
 10
-24.9877940459
 20
53.7233335798
  0
LWPOLYLINE
  5
616
100
AcDbEntity
  8
SCATOLA
100
AcDbPolyline
 62
7
  6
CONTINUOUS
 90
16
 70
0
 10
59.8319205512
 20
15.9761977282
 10
59.8078304693
 20
15.9925118418
 10
59.7771782193
 20
16.0113099537
 10
59.7466079647
 20
16.0280652502
 10
59.7171036248
 20
16.0425146528
 10
59.6881100923
 20
16.0552030151
 10
59.6602521692
 20
16.0661054772
 10
59.6361520182
 20
16.0746207728
 10
59.6159832564
 20
16.0811826945
 10
59.5988723806
 20
16.086435528
 10
59.5858155671
 20
16.0903479992
 10
59.5775276998
 20
16.0928785889
 10
59.5724119237
 20
16.0945304028
 10
59.5684337547
 20
16.0959117354
 10
59.5649009135
 20
16.0972322674
 10
59.5633182803
 20
16.0978614344
  0
LINE
  5
617
100
AcDbEntity
  8
SCATOLA
100
AcDbLine
 62
250
  6
CONTINUOUS
 10
54.8539122859
 20
13.6451036909
 11
51.1769570237
 21
16.2451036909
  0
LINE
  5
618
100
AcDbEntity
  8
SCATOLA
100
AcDbLine
 62
7
  6
CONTINUOUS
 10
55.2494189739
 20
13.7156435956
 11
51.5724637063
 21
16.3156435994
  0
LINE
  5
619
100
AcDbEntity
  8
SCATOLA
100
AcDbLine
 62
250
  6
CONTINUOUS
 10
-23.4461428605
 20
74.3123610225
 11
54.3221691455
 21
19.3218602417
  0
LINE
  5
61A
100
AcDbEntity
  8
SCATOLA
100
AcDbLine
 62
250
  6
CONTINUOUS
 10
59.298784463
 20
15.8028618034
 11
64.2350980067
 21
12.3123610225
  0
LINE
  5
61B
100
AcDbEntity
  8
SCATOLA
100
AcDbLine
 62
250
  6
CONTINUOUS
 10
55.0284993017
 20
18.9385419667
 11
59.1297186326
 21
16.0385419667
  0
LINE
  5
61C
100
AcDbEntity
  8
SCATOLA
100
AcDbLine
 62
7
  6
CONTINUOUS
 10
55.4326444894
 20
19.0151148271
 11
59.5338646438
 21
16.1151142448
  0
LINE
  5
61D
100
AcDbEntity
  8
SCATOLA
100
AcDbLine
 62
7
  6
CONTINUOUS
 10
-22.8246323508
 20
74.4232094441
 11
55.0322089252
 21
19.370109016
  0
LINE
  5
61E
100
AcDbEntity
  8
SCATOLA
100
AcDbLine
 62
7
  6
CONTINUOUS
 10
59.8317966766
 20
15.9762879702
 11
64.8566085141
 21
12.4232094456
  0
LWPOLYLINE
  5
61F
100
AcDbEntity
  8
SCATOLA
100
AcDbPolyline
 62
7
  6
CONTINUOUS
 90
5
 70
0
 10
55.4326624233
 20
19.0150981863
 10
55.4263390949
 20
19.0196877532
 10
55.4178140128
 20
19.0261910879
 10
55.4083350806
 20
19.0337887045
 10
55.3969817558
 20
19.0433557282
  0
LWPOLYLINE
  5
620
100
AcDbEntity
  8
SCATOLA
100
AcDbPolyline
 62
250
  6
CONTINUOUS
 90
3
 70
0
 10
64.2350980067
 20
12.3123610225
 10
64.411834597
 20
12.1832764814
 10
64.5973564381
 20
12.038895896
  0
LWPOLYLINE
  5
621
100
AcDbEntity
  8
SCATOLA
100
AcDbPolyline
 62
7
  6
CONTINUOUS
 90
3
 70
0
 10
51.5723797107
 20
16.3156991865
 10
51.5676644009
 20
16.3191480004
 10
51.5636107036
 20
16.3223461872
  0
LWPOLYLINE
  5
622
100
AcDbEntity
  8
SCATOLA
100
AcDbPolyline
 62
250
  6
CONTINUOUS
 90
22
 70
0
 10
51.1769570237
 20
16.2451036909
 10
51.1290960607
 20
16.2813772449
 10
51.0853846536
 20
16.3198811914
 10
51.0458228027
 20
16.3606155304
 10
51.0101202569
 20
16.4038491675
 10
50.9785672672
 20
16.4493131972
 10
50.9520345865
 20
16.4962009029
 10
50.9306593274
 20
16.5445737313
 10
50.9143043774
 20
16.5943702356
 10
50.9034291523
 20
16.6445993597
 10
50.8981889428
 20
16.6952611393
 10
50.8984284583
 20
16.7463555386
 10
50.9041412427
 20
16.7968913942
 10
50.9154813252
 20
16.8468635937
 10
50.9322946766
 20
16.8962772494
 10
50.9541127535
 20
16.9441565351
 10
50.98107083
 20
16.9904378808
 10
51.013033632
 20
17.0351848565
 10
51.0491267929
 20
17.0776123465
 10
51.0890588573
 20
17.1174586456
 10
51.1331212807
 20
17.1549854591
 10
51.181314063
 20
17.1901927869
  0
LWPOLYLINE
  5
623
100
AcDbEntity
  8
SCATOLA
100
AcDbPolyline
 62
7
  6
CONTINUOUS
 90
15
 70
0
 10
-5.5505777962
 20
58.1511973262
 10
-5.0113931152
 20
57.741783032
 10
-4.5180200896
 20
57.3119928819
 10
-4.0704587192
 20
56.8618268758
 10
-3.6669805374
 20
56.3889010739
 10
-3.3093140109
 20
55.895599416
 10
-3.00264454
 20
55.3890737222
 10
-2.7477150636
 20
54.8691313412
 10
-2.5437826428
 20
54.3359649243
 10
-2.3938038621
 20
53.7973042452
 10
-2.2985647324
 20
53.2530692621
 10
-2.2572792428
 20
52.703340017
 10
-2.2705459446
 20
52.1560864091
 10
-2.3391595687
 20
51.6113445043
 10
-2.4168101948
 20
51.2694694879
  0
LWPOLYLINE
  5
624
100
AcDbEntity
  8
SCATOLA
100
AcDbPolyline
 62
7
  6
CONTINUOUS
 90
10
 70
0
 10
-5.3738280248
 20
58.2730931093
 10
-4.8226614621
 20
57.8545807197
 10
-4.3183245914
 20
57.4152396774
 10
-3.8608174129
 20
56.9550699823
 10
-3.4483730492
 20
56.4716347181
 10
-3.0827583776
 20
55.9673708012
 10
-2.7692740297
 20
55.4495889808
 10
-2.5086794537
 20
54.9180923247
 10
-2.3002152014
 20
54.3730777652
 10
-2.1469035589
 20
53.8224468488
  0
LWPOLYLINE
  5
625
100
AcDbEntity
  8
SCATOLA
100
AcDbPolyline
 62
7
  6
CONTINUOUS
 90
15
 70
0
 10
18.4910527642
 20
41.1511973262
 10
19.0302374451
 20
40.741783032
 10
19.5236104708
 20
40.3119928819
 10
19.9711718411
 20
39.8618268758
 10
20.3746500229
 20
39.3889010739
 10
20.7323165495
 20
38.895599416
 10
21.0389860203
 20
38.3890737222
 10
21.2939154968
 20
37.8691313412
 10
21.4978479175
 20
37.3359649243
 10
21.6478266983
 20
36.7973042452
 10
21.7430658279
 20
36.2530692621
 10
21.7843513176
 20
35.703340017
 10
21.7710846158
 20
35.1560864091
 10
21.7024709917
 20
34.6113445043
 10
21.6248203656
 20
34.2694694879
  0
LWPOLYLINE
  5
626
100
AcDbEntity
  8
SCATOLA
100
AcDbPolyline
 62
7
  6
CONTINUOUS
 90
10
 70
0
 10
18.6678025355
 20
41.2730931093
 10
19.2189690983
 20
40.8545807197
 10
19.7233059689
 20
40.4152396774
 10
20.1808131475
 20
39.9550699823
 10
20.5932575111
 20
39.4716347181
 10
20.9588721827
 20
38.9673708012
 10
21.2723565307
 20
38.4495889808
 10
21.5329511066
 20
37.9180923247
 10
21.741415359
 20
37.3730777652
 10
21.8947270015
 20
36.8224468488
  0
LWPOLYLINE
  5
627
100
AcDbEntity
  8
SCATOLA
100
AcDbPolyline
 62
7
  6
CONTINUOUS
 90
15
 70
0
 10
42.5326833245
 20
24.1511973262
 10
43.0718680055
 20
23.741783032
 10
43.5652410311
 20
23.3119928819
 10
44.0128024014
 20
22.8618268758
 10
44.4162805833
 20
22.3889010739
 10
44.7739471098
 20
21.895599416
 10
45.0806165807
 20
21.3890737222
 10
45.3355460571
 20
20.8691313412
 10
45.5394784779
 20
20.3359649243
 10
45.6894572586
 20
19.7973042452
 10
45.7846963883
 20
19.2530692621
 10
45.8259818779
 20
18.703340017
 10
45.8127151761
 20
18.1560864091
 10
45.744101552
 20
17.6113445043
 10
45.6664509259
 20
17.2694694879
  0
LWPOLYLINE
  5
628
100
AcDbEntity
  8
SCATOLA
100
AcDbPolyline
 62
7
  6
CONTINUOUS
 90
10
 70
0
 10
42.7094330959
 20
24.2730931093
 10
43.2605996586
 20
23.8545807197
 10
43.7649365293
 20
23.4152396774
 10
44.2224437078
 20
22.9550699823
 10
44.6348880715
 20
22.4716347181
 10
45.0005027431
 20
21.9673708012
 10
45.313987091
 20
21.4495889808
 10
45.574581667
 20
20.9180923247
 10
45.7830459193
 20
20.3730777652
 10
45.9363575618
 20
19.8224468488
  0
LWPOLYLINE
  5
629
100
AcDbEntity
  8
SCATOLA
100
AcDbPolyline
 62
7
  6
CONTINUOUS
 90
43
 70
0
 10
-6.0368386555
 20
58.3108968354
 10
-5.496076864
 20
57.8980422889
 10
-5.0050794483
 20
57.463786023
 10
-4.5638464085
 20
57.0081280376
 10
-4.1704739134
 20
56.5282911176
 10
-3.8268657941
 20
56.0270524782
 10
-3.538733544
 20
55.5127437651
 10
-3.3070044269
 20
54.9851465156
 10
-3.1307511789
 20
54.4444791924
 10
-3.0129035016
 20
53.8997288293
 10
-2.954437628
 20
53.3508271794
 10
-2.9543773252
 20
52.7978424897
 10
-3.0127235953
 20
52.2499665345
 10
-3.1304526883
 20
51.707284705
 10
-3.3065883543
 20
51.1697116102
 10
-3.5382028463
 20
50.646182851
 10
-3.8262234775
 20
50.1369331749
 10
-4.1697229347
 20
49.6417278346
 10
-4.5629915308
 20
49.1687981896
 10
-5.0068611431
 20
48.718516572
 10
-5.5004998944
 20
48.2905106498
 10
-6.0357024649
 20
47.891894786
 10
-6.6131635826
 20
47.5231602275
 10
-7.2321885197
 20
47.1838157276
 10
-7.882487773
 20
46.879501909
 10
-8.5645840843
 20
46.6108043
 10
-9.277954712
 20
46.3771373725
 10
-10.0107419282
 20
46.1823851647
 10
-10.7632702759
 20
46.0271981253
 10
-11.5352152122
 20
45.9109258057
 10
-12.3137453803
 20
45.8355008975
 10
-13.0989708508
 20
45.801606154
 10
-13.8907815531
 20
45.8085588219
 10
-14.6760159198
 20
45.8562433332
 10
-15.4545640291
 20
45.9453405094
 10
-16.2265358026
 20
46.075169529
 10
-16.9790994377
 20
46.2435723593
 10
-17.7119305327
 20
46.4511937509
 10
-18.4253534893
 20
46.697388953
 10
-19.1075097098
 20
46.9780656812
 10
-19.7544463284
 20
47.2918598404
 10
-20.3701162109
 20
47.6401355256
 10
-20.9545193574
 20
48.0228927367
  0
LWPOLYLINE
  5
62A
100
AcDbEntity
  8
SCATOLA
100
AcDbPolyline
 62
7
  6
CONTINUOUS
 90
43
 70
0
 10
18.0047919049
 20
41.3108968354
 10
18.5455536964
 20
40.8980422889
 10
19.036551112
 20
40.463786023
 10
19.4777841519
 20
40.0081280376
 10
19.871156647
 20
39.5282911176
 10
20.2147647662
 20
39.0270524782
 10
20.5028970163
 20
38.5127437651
 10
20.7346261334
 20
37.9851465156
 10
20.9108793814
 20
37.4444791924
 10
21.0287270587
 20
36.8997288293
 10
21.0871929323
 20
36.3508271794
 10
21.0872532352
 20
35.7978424897
 10
21.028906965
 20
35.2499665345
 10
20.9111778721
 20
34.707284705
 10
20.735042206
 20
34.1697116102
 10
20.503427714
 20
33.646182851
 10
20.2154070828
 20
33.1369331749
 10
19.8719076256
 20
32.6417278346
 10
19.4786390296
 20
32.1687981896
 10
19.0347694172
 20
31.718516572
 10
18.541130666
 20
31.2905106498
 10
18.0059280954
 20
30.891894786
 10
17.4284669777
 20
30.5231602275
 10
16.8094420407
 20
30.1838157276
 10
16.1591427873
 20
29.879501909
 10
15.477046476
 20
29.6108043
 10
14.7636758483
 20
29.3771373725
 10
14.0308886321
 20
29.1823851647
 10
13.2783602844
 20
29.0271981253
 10
12.5064153482
 20
28.9109258057
 10
11.72788518
 20
28.8355008975
 10
10.9426597096
 20
28.801606154
 10
10.1508490072
 20
28.8085588219
 10
9.3656146406
 20
28.8562433332
 10
8.5870665313
 20
28.9453405094
 10
7.8150947577
 20
29.075169529
 10
7.0625311226
 20
29.2435723593
 10
6.3297000276
 20
29.4511937509
 10
5.6162770711
 20
29.697388953
 10
4.9341208506
 20
29.9780656812
 10
4.287184232
 20
30.2918598404
 10
3.6715143494
 20
30.6401355256
 10
3.0871112029
 20
31.0228927367
  0
LWPOLYLINE
  5
62B
100
AcDbEntity
  8
SCATOLA
100
AcDbPolyline
 62
7
  6
CONTINUOUS
 90
43
 70
0
 10
42.0464224652
 20
24.3108968354
 10
42.5871842567
 20
23.8980422889
 10
43.0781816724
 20
23.463786023
 10
43.5194147122
 20
23.0081280376
 10
43.9127872073
 20
22.5282911176
 10
44.2563953265
 20
22.0270524782
 10
44.5445275767
 20
21.5127437651
 10
44.7762566938
 20
20.9851465156
 10
44.9525099418
 20
20.4444791924
 10
45.0703576191
 20
19.8997288293
 10
45.1288234926
 20
19.3508271794
 10
45.1288837955
 20
18.7978424897
 10
45.0705375254
 20
18.2499665345
 10
44.9528084324
 20
17.707284705
 10
44.7766727664
 20
17.1697116102
 10
44.5450582744
 20
16.646182851
 10
44.2570376431
 20
16.1369331749
 10
43.913538186
 20
15.6417278346
 10
43.5202695899
 20
15.1687981896
 10
43.0763999775
 20
14.718516572
 10
42.5827612263
 20
14.2905106498
 10
42.0475586558
 20
13.891894786
 10
41.4700975381
 20
13.5231602275
 10
40.851072601
 20
13.1838157276
 10
40.2007733477
 20
12.879501909
 10
39.5186770363
 20
12.6108043
 10
38.8053064087
 20
12.3771373725
 10
38.0725191925
 20
12.1823851647
 10
37.3199908448
 20
12.0271981253
 10
36.5480459085
 20
11.9109258057
 10
35.7695157404
 20
11.8355008975
 10
34.9842902699
 20
11.801606154
 10
34.1924795676
 20
11.8085588219
 10
33.4072452009
 20
11.8562433332
 10
32.6286970916
 20
11.9453405094
 10
31.8567253181
 20
12.075169529
 10
31.1041616829
 20
12.2435723593
 10
30.371330588
 20
12.4511937509
 10
29.6579076314
 20
12.697388953
 10
28.9757514109
 20
12.9780656812
 10
28.3288147923
 20
13.2918598404
 10
27.7131449098
 20
13.6401355256
 10
27.1287417633
 20
14.0228927367
  0
LWPOLYLINE
  5
62C
100
AcDbEntity
  8
SCATOLA
100
AcDbPolyline
 62
250
  6
CONTINUOUS
 90
10
 70
0
 10
51.1813140629
 20
17.1901927812
 10
51.2469081784
 20
17.138650682
 10
51.3111719452
 20
17.0790535526
 10
51.3729536698
 20
17.0124694539
 10
51.4311461402
 20
16.9400916628
 10
51.4847064689
 20
16.863217287
 10
51.532674783
 20
16.7832240192
 10
51.5741914255
 20
16.7015454469
 10
51.608512362
 20
16.6196453601
 10
51.6350225151
 20
16.5389915191
  0
LWPOLYLINE
  5
62D
100
AcDbEntity
  8
SCATOLA
100
AcDbPolyline
 62
7
  6
CONTINUOUS
 90
5
 70
0
 10
64.6401044976
 20
-17.3043615962
 10
64.4011577625
 20
-16.9812045474
 10
64.1275420868
 20
-16.6991453705
 10
63.823224313
 20
-16.4622733208
 10
63.7275200012
 20
-16.4077759677
  0
LINE
  5
62E
100
AcDbEntity
  8
SCATOLA
100
AcDbLine
 62
7
  6
CONTINUOUS
 10
64.7987549973
 20
-17.1162913008
 11
64.5544983348
 21
-16.7859529842
  0
LWPOLYLINE
  5
62F
100
AcDbEntity
  8
SCATOLA
100
AcDbPolyline
 62
7
  6
CONTINUOUS
 90
11
 70
0
 10
50.3752713035
 20
-32.2063029889
 10
50.3929820818
 20
-32.728915681
 10
50.4441481341
 20
-33.2202574803
 10
50.5287694602
 20
-33.6803283867
 10
50.647493092
 20
-34.1108258248
 10
50.7996719977
 20
-34.5100523701
 10
50.9833650824
 20
-34.8729157487
 10
51.1989760368
 20
-35.1989501555
 10
51.4461011701
 20
-35.4886213957
 10
51.7215883151
 20
-35.7382346116
 10
51.8793673792
 20
-35.8542786504
  0
LINE
  5
630
100
AcDbEntity
  8
SCATOLA
100
AcDbLine
 62
7
  6
CONTINUOUS
 10
43.0668395083
 20
-62.9617377097
 11
43.0314497415
 21
-63.251109518
  0
LWPOLYLINE
  5
631
100
AcDbEntity
  8
RACCORDO
100
AcDbPolyline
 62
250
  6
CONTINUOUS
 90
8
 70
0
 10
9.5407393536
 20
-55.8662972542
 10
9.6040323513
 20
-55.8121627716
 10
9.6551935422
 20
-55.749979767
 10
9.6975616621
 20
-55.6776079707
 10
9.7308958759
 20
-55.595468214
 10
9.754933425
 20
-55.5041032372
 10
9.7694462628
 20
-55.4042342483
 10
9.7743012775
 20
-55.2966030134
  0
LINE
  5
632
100
AcDbEntity
  8
RACCORDO
100
AcDbLine
 62
250
  6
CONTINUOUS
 10
9.7743010689
 20
-55.2966028659
 11
10.4814077211
 21
-54.7966030063
  0
LINE
  5
633
100
AcDbEntity
  8
0
100
AcDbLine
 62
7
  6
CONTINUOUS
 10
9.5407393536
 20
-55.8662972542
 11
10.2478442445
 21
-55.3662985908
  0
LWPOLYLINE
  5
634
100
AcDbEntity
  8
RACCORDO
100
AcDbPolyline
 62
7
  6
CONTINUOUS
 90
13
 70
0
 10
9.5404640457
 20
-55.8664917716
 10
9.4762911679
 20
-55.9088267364
 10
9.3621381354
 20
-55.9707606467
 10
9.2394014145
 20
-56.0209761073
 10
9.1090909374
 20
-56.0582147349
 10
8.972790676
 20
-56.0813023556
 10
8.8307733397
 20
-56.0894210908
 10
8.6839329129
 20
-56.0815568255
 10
8.5342909399
 20
-56.0569571456
 10
8.3828549214
 20
-56.0150537859
 10
8.2300870141
 20
-55.9551287032
 10
8.0768801668
 20
-55.8765662106
 10
7.9241577381
 20
-55.7787852709
  0
LINE
  5
635
100
AcDbEntity
  8
SCATOLA
100
AcDbLine
 62
7
  6
CONTINUOUS
 10
55.5674079576
 20
-35.0729138862
 11
55.0322277293
 21
-35.308845144
  0
LINE
  5
636
100
AcDbEntity
  8
SCATOLA
100
AcDbLine
 62
7
  6
CONTINUOUS
 10
54.8351540636
 20
-35.1972798194
 11
55.5045563294
 21
-34.9543778639
  0
LWPOLYLINE
  5
637
100
AcDbEntity
  8
SCATOLA
100
AcDbPolyline
 62
7
  6
CONTINUOUS
 90
8
 70
0
 10
55.0322277293
 20
-35.308845144
 10
54.5092099032
 20
-35.4977679054
 10
53.9981798385
 20
-35.640357169
 10
53.5065463793
 20
-35.7345456953
 10
53.0345921004
 20
-35.7796283695
 10
52.5820344269
 20
-35.7763103062
 10
52.1554344781
 20
-35.7246396105
 10
51.7551704131
 20
-35.6239118682
  0
LWPOLYLINE
  5
638
100
AcDbEntity
  8
SCATOLA
100
AcDbPolyline
 62
7
  6
CONTINUOUS
 90
18
 70
0
 10
55.5048852009
 20
-34.9542585192
 10
55.3260844138
 20
-35.0160754727
 10
54.8245896237
 20
-35.1609019647
 10
54.3411073424
 20
-35.2544655127
 10
53.8753414455
 20
-35.2976088765
 10
53.4350339468
 20
-35.289614922
 10
53.0206103762
 20
-35.229628903
 10
52.6316452038
 20
-35.1185055658
 10
52.2746038529
 20
-34.9580920151
 10
51.9500199214
 20
-34.7475643785
 10
51.6573598113
 20
-34.4877465285
 10
51.4014881525
 20
-34.1829571868
 10
51.1830198537
 20
-33.8324446675
 10
51.001340006
 20
-33.4369606566
 10
50.8594685126
 20
-33.0030789343
 10
50.7584120079
 20
-32.5329907608
 10
50.6971638575
 20
-32.0245048759
 10
50.6757240613
 20
-31.4776212797
  0
LWPOLYLINE
  5
639
100
AcDbEntity
  8
SCATOLA
100
AcDbPolyline
 62
7
  6
CONTINUOUS
 90
11
 70
0
 10
54.8341190477
 20
-35.1976553054
 10
54.5742451664
 20
-35.2862408834
 10
54.074324451
 20
-35.4257303804
 10
53.5933786756
 20
-35.5178713301
 10
53.1316842723
 20
-35.561973946
 10
52.6889648092
 20
-35.5587280146
 10
52.2716387723
 20
-35.5081805949
 10
51.8800760999
 20
-35.4096425861
 10
51.5139068539
 20
-35.263803089
 10
51.1784397059
 20
-35.0727764647
 10
51.0488082686
 20
-34.9718751474
  0
LWPOLYLINE
  5
63A
100
AcDbEntity
  8
SCATOLA
100
AcDbPolyline
 62
250
  6
CONTINUOUS
 90
9
 70
0
 10
-22.8246323508
 20
74.4232094441
 10
-22.8391655211
 20
74.4328108413
 10
-22.9049389947
 20
74.4625304153
 10
-22.9799544408
 20
74.4765384042
 10
-23.0629976156
 20
74.4746256543
 10
-23.1526789834
 20
74.4568241708
 10
-23.2474979339
 20
74.4234318205
 10
-23.3458678909
 20
74.3750073472
 10
-23.4461428605
 20
74.3123610225
  0
LWPOLYLINE
  5
63B
100
AcDbEntity
  8
SCATOLA
100
AcDbPolyline
 62
7
  6
CONTINUOUS
 90
16
 70
0
 10
-22.8246323508
 20
74.4232094441
 10
-23.1024478977
 20
74.6090459546
 10
-23.3820440901
 20
74.7747663781
 10
-23.6629695581
 20
74.9197111831
 10
-23.9472919766
 20
75.0440979886
 10
-24.2318877955
 20
75.1455609105
 10
-24.5086972241
 20
75.2213320121
 10
-24.7755516356
 20
75.2719985613
 10
-25.0341014919
 20
75.2989682487
 10
-25.2821003107
 20
75.3030402623
 10
-25.5177614952
 20
75.2856148249
 10
-25.7418938892
 20
75.2480645779
 10
-25.9555360863
 20
75.1912375267
 10
-26.1582637114
 20
75.115983361
 10
-26.3486725341
 20
75.0236327726
 10
-26.5259988329
 20
74.9155237997
  0
LWPOLYLINE
  5
63C
100
AcDbEntity
  8
SCATOLA
100
AcDbPolyline
 62
250
  6
CONTINUOUS
 90
10
 70
0
 10
54.3221690968
 20
19.3218573573
 10
54.3810847288
 20
19.2757510102
 10
54.4390197451
 20
19.2230407797
 10
54.4951330897
 20
19.1644918754
 10
54.5486101521
 20
19.1009542679
 10
54.598674593
 20
19.0333503501
 10
54.6445996148
 20
18.9626615464
 10
54.6857185125
 20
18.8899140649
 10
54.7214343525
 20
18.816164
 10
54.7512286383
 20
18.7424820004
  0
LWPOLYLINE
  5
63D
100
AcDbEntity
  8
SCATOLA
100
AcDbPolyline
 62
250
  6
CONTINUOUS
 90
26
 70
0
 10
64.5973564381
 20
12.038895896
 10
64.7911214136
 20
11.8782864115
 10
64.9933537225
 20
11.6997593136
 10
65.2022796152
 20
11.5032921267
 10
65.414232507
 20
11.2909801779
 10
65.6281435568
 20
11.0627299459
 10
65.8428915919
 20
10.8185166122
 10
66.0548504532
 20
10.5614461098
 10
66.2628711107
 20
10.2921240924
 10
66.465755396
 20
10.0112734081
 10
66.6602046136
 20
9.722896548
 10
66.8452446169
 20
9.4281740066
 10
67.0199817573
 20
9.1282491004
 10
67.1819113672
 20
8.8274703228
 10
67.3305954196
 20
8.5270735201
 10
67.4655989717
 20
8.2283920095
 10
67.5853191953
 20
7.9359443334
 10
67.6899552647
 20
7.6508239586
 10
67.7798052551
 20
7.3739641293
 10
67.8544247743
 20
7.1093103278
 10
67.9147045827
 20
6.857338101
 10
67.9615603319
 20
6.6184514459
 10
67.9955595511
 20
6.3958987656
 10
68.0180273474
 20
6.1904868544
 10
68.0305269235
 20
6.0008489095
 10
68.0344025925
 20
5.8265424002
  0
LINE
  5
63E
100
AcDbEntity
  8
SCATOLA
100
AcDbLine
 62
7
  6
CONTINUOUS
 10
55.3969817558
 20
19.0433557282
 11
55.3962565159
 21
19.0439773033
  0
LWPOLYLINE
  5
63F
100
AcDbEntity
  8
SCATOLA
100
AcDbPolyline
 62
7
  6
CONTINUOUS
 90
6
 70
0
 10
55.3962565159
 20
19.0439773033
 10
55.3882183289
 20
19.0510040945
 10
55.3662553208
 20
19.070980844
 10
55.3423939279
 20
19.0935960987
 10
55.3165991982
 20
19.1187203533
 10
55.26122357
 20
19.1732598421
  0
LWPOLYLINE
  5
640
100
AcDbEntity
  8
SCATOLA
100
AcDbPolyline
 62
7
  6
CONTINUOUS
 90
8
 70
0
 10
55.2324636777
 20
19.201176193
 10
55.2030337323
 20
19.2290589191
 10
55.1727133993
 20
19.2568449357
 10
55.1414936699
 20
19.2843085567
 10
55.109463138
 20
19.3111801214
 10
55.0763617535
 20
19.3374756476
 10
55.0421212688
 20
19.3630263831
 10
55.0330321846
 20
19.369520417
  0
LINE
  5
641
100
AcDbEntity
  8
SCATOLA
100
AcDbLine
 62
7
  6
CONTINUOUS
 10
55.26122357
 20
19.1732598421
 11
55.2324636777
 21
19.201176193
  0
LWPOLYLINE
  5
642
100
AcDbEntity
  8
SCATOLA
100
AcDbPolyline
 62
7
  6
CONTINUOUS
 90
10
 70
0
 10
51.5667678438
 20
16.3135892232
 10
51.5576032452
 20
16.3338860224
 10
51.5498370172
 20
16.3614415912
 10
51.5471575089
 20
16.3889966406
 10
51.5498384942
 20
16.4165508576
 10
51.5576061992
 20
16.4441045553
 10
51.5700495607
 20
16.4702647674
 10
51.5870315576
 20
16.4945671717
 10
51.6086892111
 20
16.5174760903
 10
51.635022521
 20
16.5389915233
  0
LINE
  5
643
100
AcDbEntity
  8
SCATOLA
100
AcDbLine
 62
7
  6
CONTINUOUS
 10
45.9363575618
 20
19.8224468488
 11
46.0337131166
 21
19.266117755
  0
LWPOLYLINE
  5
644
100
AcDbEntity
  8
SCATOLA
100
AcDbPolyline
 62
250
  6
CONTINUOUS
 90
10
 70
0
 10
64.9725993052
 20
-42.7689935088
 10
64.9676521511
 20
-42.7001158461
 10
64.9537696724
 20
-42.6263108163
 10
64.9312006559
 20
-42.5489010638
 10
64.9003495586
 20
-42.4692738321
 10
64.8617692595
 20
-42.3888561036
 10
64.8161511512
 20
-42.3090890266
 10
64.7643127495
 20
-42.2314020894
 10
64.7071830431
 20
-42.1571875024
 10
64.6457858454
 20
-42.0877752486
  0
LINE
  5
645
100
AcDbEntity
  8
SCATOLA
100
AcDbLine
 62
7
  6
CONTINUOUS
 10
43.0314497415
 20
-63.251109518
 11
42.9728611624
 21
-63.5192392763
  0
LINE
  5
646
100
AcDbEntity
  8
SCATOLA
100
AcDbLine
 62
7
  6
CONTINUOUS
 10
42.9728611624
 20
-63.5192392763
 11
42.8903079335
 21
-63.7676398223
  0
LWPOLYLINE
  5
647
100
AcDbEntity
  8
SUPERFICI
100
AcDbPolyline
 62
250
  6
CONTINUOUS
 90
10
 70
0
 10
27.6629604268
 20
-74.3240364143
 10
27.7269572524
 20
-74.2072140995
 10
27.7840770392
 20
-74.0817996329
 10
27.8340596955
 20
-73.9478817633
 10
27.876792614
 20
-73.8049548306
 10
27.9118280881
 20
-73.653712294
 10
27.9387305916
 20
-73.4963619019
 10
27.957565517
 20
-73.3340635841
 10
27.9685520619
 20
-73.166613655
 10
27.9718215445
 20
-72.9944572251
  0
LWPOLYLINE
  5
648
100
AcDbEntity
  8
SUPERFICI
100
AcDbPolyline
 62
250
  6
CONTINUOUS
 90
10
 70
0
 10
25.240239962
 20
-74.0931047518
 10
25.2879028099
 20
-74.0203022625
 10
25.330430646
 20
-73.9397922008
 10
25.3675609975
 20
-73.851459614
 10
25.3990956353
 20
-73.7551492063
 10
25.4248145834
 20
-73.6509341595
 10
25.4445391094
 20
-73.5391667352
 10
25.4582242303
 20
-73.4201037136
 10
25.4659031956
 20
-73.2938646198
 10
25.4676423733
 20
-73.1607321568
  0
LWPOLYLINE
  5
649
100
AcDbEntity
  8
SCATOLA
100
AcDbPolyline
 62
7
  6
CONTINUOUS
 90
5
 70
0
 10
57.2403161396
 20
-34.0847361581
 10
57.2211359854
 20
-34.0987804522
 10
56.6657989319
 20
-34.4661431134
 10
56.1145759474
 20
-34.7906491307
 10
55.5674079576
 20
-35.0729138862
  0
LWPOLYLINE
  5
64A
100
AcDbEntity
  8
SUPERFICI
100
AcDbPolyline
 62
7
  6
CONTINUOUS
 90
3
 70
0
 10
10.3617653766
 20
-55.860059412
 10
10.4550890088
 20
-55.8238370135
 10
10.4982775263
 20
-55.7988080602
  0
LWPOLYLINE
  5
64B
100
AcDbEntity
  8
SCATOLA
100
AcDbPolyline
 62
7
  6
CONTINUOUS
 90
7
 70
0
 10
-10.9197979195
 20
60.4680431561
 10
-11.7063231277
 20
60.5819772501
 10
-12.501706755
 20
60.6569100858
 10
-13.3058216024
 20
60.6934016852
 10
-14.107009723
 20
60.6909229982
 10
-14.9052284794
 20
60.6489062953
 10
-15.7005205088
 20
60.5679193059
  0
LWPOLYLINE
  5
64C
100
AcDbEntity
  8
SCATOLA
100
AcDbPolyline
 62
7
  6
CONTINUOUS
 90
8
 70
0
 10
-11.0501913731
 20
60.3119400965
 10
-11.5367939838
 20
60.3884490626
 10
-12.3153420931
 20
60.4775462389
 10
-13.1005764597
 20
60.5252307502
 10
-13.8923871621
 20
60.5321834181
 10
-14.6776126326
 20
60.4982886746
 10
-15.4561428007
 20
60.4228637663
 10
-15.6944289293
 20
60.3918543409
  0
LINE
  5
64D
100
AcDbEntity
  8
SCATOLA
100
AcDbLine
 62
7
  6
CONTINUOUS
 10
-10.1420039315
 20
60.3156678259
 11
-10.9197979195
 21
60.4680431561
  0
LWPOLYLINE
  5
64E
100
AcDbEntity
  8
SCATOLA
100
AcDbPolyline
 62
7
  6
CONTINUOUS
 90
4
 70
0
 10
68.2636131342
 20
-39.4186943658
 10
68.2578203392
 20
-39.3955356498
 10
68.2530280235
 20
-39.375581393
 10
68.2524184518
 20
-39.372953445
  0
LINE
  5
64F
100
AcDbEntity
  8
SCATOLA
100
AcDbLine
 62
7
  6
CONTINUOUS
 10
68.2524184518
 20
-39.372953445
 11
68.2525041269
 21
-39.3733358792
  0
LWPOLYLINE
  5
650
100
AcDbEntity
  8
SCATOLA
100
AcDbPolyline
 62
250
  6
CONTINUOUS
 90
10
 70
0
 10
68.0344022729
 20
-40.5023854738
 10
68.0302084388
 20
-40.4407573293
 10
68.0187655985
 20
-40.3750323184
 10
68.0002398685
 20
-40.3061645754
 10
67.9749001882
 20
-40.235153858
 10
67.9431144153
 20
-40.1630310335
 10
67.9053439861
 20
-40.0908431138
 10
67.8621372164
 20
-40.0196380557
 10
67.8141213419
 20
-39.9504495479
 10
67.7619934121
 20
-39.8842820046
  0
LWPOLYLINE
  5
651
100
AcDbEntity
  8
SCATOLA
100
AcDbPolyline
 62
250
  6
CONTINUOUS
 90
3
 70
0
 10
68.2525041269
 20
-39.3733358792
 10
68.2555952516
 20
-39.4209775568
 10
68.2427734134
 20
-39.4749895185
  0
LWPOLYLINE
  5
652
100
AcDbEntity
  8
SCATOLA
100
AcDbPolyline
 62
7
  6
CONTINUOUS
 90
43
 70
0
 10
65.3308819647
 20
-20.5666657088
 10
65.3115758819
 20
-20.1982216117
 10
65.2503277315
 20
-19.6897357268
 10
65.1492712267
 20
-19.2196475533
 10
65.0073997334
 20
-18.785765831
 10
64.8257198857
 20
-18.3902818201
 10
64.6072515869
 20
-18.0397693007
 10
64.351379928
 20
-17.7349799591
 10
64.058719818
 20
-17.4751621091
 10
63.7341358865
 20
-17.2646344725
 10
63.3770945356
 20
-17.1042209218
 10
62.9881293632
 20
-16.9930975846
 10
62.5737057926
 20
-16.9331115656
 10
62.1333982938
 20
-16.9251176111
 10
61.6676323969
 20
-16.9682609748
 10
61.1841501157
 20
-17.0618245229
 10
60.6826553256
 20
-17.2066510148
 10
60.1634441511
 20
-17.4018976911
 10
59.6351469796
 20
-17.6443191392
 10
59.097611941
 20
-17.9347038726
 10
58.5509909054
 20
-18.2722633778
 10
58.0043698697
 20
-18.6513867023
 10
57.457748834
 20
-19.0727685739
 10
56.9111277984
 20
-19.5357142649
 10
56.3735927598
 20
-20.0325286392
 10
55.8452955882
 20
-20.5637778027
 10
55.3260844138
 20
-21.1288956494
 10
54.8245896237
 20
-21.7184887263
 10
54.3411073424
 20
-22.3329661301
 10
53.8753414455
 20
-22.971918764
 10
53.4350339468
 20
-23.6247258847
 10
53.0206103762
 20
-24.291619066
 10
52.6316452038
 20
-24.9723667341
 10
52.2746038529
 20
-25.6556534236
 10
51.9500199214
 20
-26.3415215736
 10
51.6573598113
 20
-27.0299287451
 10
51.4014881525
 20
-27.7094321557
 10
51.1830198537
 20
-28.3798829815
 10
51.001340006
 20
-29.0414300463
 10
50.8594685126
 20
-29.6830770397
 10
50.7584120079
 20
-30.3011585246
 10
50.6971638575
 20
-30.8993399379
 10
50.6757240613
 20
-31.4776212797
  0
LWPOLYLINE
  5
653
100
AcDbEntity
  8
SCATOLA
100
AcDbPolyline
 62
7
  6
CONTINUOUS
 90
7
 70
0
 10
65.3134546814
 20
-19.8545721664
 10
65.2959344411
 20
-19.5003723447
 10
65.2390096209
 20
-18.9907453105
 10
65.1449642164
 20
-18.5163307185
 10
65.0129810132
 20
-18.0751667589
 10
64.8438772257
 20
-17.6692152417
 10
64.6401044976
 20
-17.3043615962
  0
LWPOLYLINE
  5
654
100
AcDbEntity
  8
SCATOLA
100
AcDbPolyline
 62
7
  6
CONTINUOUS
 90
19
 70
0
 10
68.3431288122
 20
6.366859809
 10
68.3277445569
 20
6.7307129417
 10
68.2829477672
 20
7.1007458239
 10
68.2106820649
 20
7.4749258102
 10
68.1126658053
 20
7.851729196
 10
67.9904820096
 20
8.229522629
 10
67.8459671841
 20
8.6057700902
 10
67.6811945284
 20
8.9776849031
 10
67.4974522185
 20
9.3443217639
 10
67.2955660126
 20
9.7051585391
 10
67.0769550348
 20
10.0583009954
 10
66.8430364656
 20
10.4019099205
 10
66.5944252366
 20
10.7352215369
 10
66.3324369844
 20
11.0563439974
 10
66.058421519
 20
11.3633916846
 10
65.772731852
 20
11.6554939586
 10
65.4761890389
 20
11.9310321569
 10
65.1703651715
 20
12.1876402116
 10
64.8566085141
 20
12.4232094457
  0
LWPOLYLINE
  5
655
100
AcDbEntity
  8
SCATOLA
100
AcDbPolyline
 62
7
  6
CONTINUOUS
 90
7
 70
0
 10
65.4894032697
 20
-19.9180493086
 10
65.4691589396
 20
-19.3611022881
 10
65.4109691233
 20
-18.8401502087
 10
65.314833821
 20
-18.3551930702
 10
65.1799176577
 20
-17.9042254671
 10
65.0070560083
 20
-17.489252805
 10
64.7987549973
 20
-17.1162913008
  0
LWPOLYLINE
  5
656
100
AcDbEntity
  8
SCATOLA
100
AcDbPolyline
 62
7
  6
CONTINUOUS
 90
11
 70
0
 10
66.3524138241
 20
-20.5073518206
 10
66.3347030457
 20
-19.9847391285
 10
66.2835369935
 20
-19.4933973293
 10
66.1989156673
 20
-19.0333264229
 10
66.0801920355
 20
-18.6028289848
 10
65.9280131298
 20
-18.2036024395
 10
65.7443200452
 20
-17.8407390608
 10
65.5287090908
 20
-17.514704654
 10
65.2815839575
 20
-17.2250334139
 10
65.0060968124
 20
-16.9754201979
 10
64.8483177484
 20
-16.8593761591
  0
LINE
  5
657
100
AcDbEntity
  8
SCATOLA
100
AcDbLine
 62
7
  6
CONTINUOUS
 10
65.3133993638
 20
-19.852298082
 11
65.330821922
 21
-20.5641949902
  0
LWPOLYLINE
  5
658
100
AcDbEntity
  8
SCATOLA
100
AcDbPolyline
 62
7
  6
CONTINUOUS
 90
14
 70
0
 10
68.3431070458
 20
-39.9096566684
 10
68.3425229837
 20
-39.8701319143
 10
68.3409075545
 20
-39.8341416598
 10
68.3383332048
 20
-39.7985072219
 10
68.334860708
 20
-39.7632235205
 10
68.3305563676
 20
-39.7284067682
 10
68.3254877791
 20
-39.6941127066
 10
68.3197322242
 20
-39.660249127
 10
68.3133883584
 20
-39.6268512325
 10
68.3065771616
 20
-39.594073672
 10
68.2994211749
 20
-39.5620668293
 10
68.2920486353
 20
-39.5309664456
 10
68.2846074969
 20
-39.5008852438
 10
68.2636131342
 20
-39.4186943658
  0
LINE
  5
659
100
AcDbEntity
  8
SCATOLA
100
AcDbLine
 62
7
  6
CONTINUOUS
 10
65.333015678
 20
-20.7451052079
 11
65.3308819647
 21
-20.5666657088
  0
LINE
  5
65A
100
AcDbEntity
  8
SCATOLA
100
AcDbLine
 62
250
  6
CONTINUOUS
 10
64.3056031503
 20
-42.5828963706
 11
64.3056031503
 21
-38.9059411084
  0
LINE
  5
65B
100
AcDbEntity
  8
SCATOLA
100
AcDbLine
 62
7
  6
CONTINUOUS
 10
64.50206529
 20
-42.2390580193
 11
64.50206529
 21
-38.5621027487
  0
LINE
  5
65C
100
AcDbEntity
  8
SCATOLA
100
AcDbLine
 62
250
  6
CONTINUOUS
 10
68.0344025925
 20
5.8265424002
 11
68.0344025925
 21
-35.5257703746
  0
LINE
  5
65D
100
AcDbEntity
  8
SCATOLA
100
AcDbLine
 62
250
  6
CONTINUOUS
 10
68.0344025925
 20
-40.5023856921
 11
68.0344025925
 21
-44.378039064
  0
LINE
  5
65E
100
AcDbEntity
  8
SCATOLA
100
AcDbLine
 62
250
  6
CONTINUOUS
 10
68.0392640756
 20
-35.6686407304
 11
68.0392640756
 21
-39.6882220382
  0
LINE
  5
65F
100
AcDbEntity
  8
SCATOLA
100
AcDbLine
 62
7
  6
CONTINUOUS
 10
68.2442893287
 20
-35.4147364448
 11
68.2442893287
 21
-39.3382229142
  0
LINE
  5
660
100
AcDbEntity
  8
SCATOLA
100
AcDbLine
 62
7
  6
CONTINUOUS
 10
68.3431288122
 20
-39.9072355138
 11
68.3431288122
 21
-43.8377216529
  0
LINE
  5
661
100
AcDbEntity
  8
SCATOLA
100
AcDbLine
 62
7
  6
CONTINUOUS
 10
68.3431268725
 20
-35.0417504348
 11
68.3431288122
 21
6.366859809
  0
LWPOLYLINE
  5
662
100
AcDbEntity
  8
SCATOLA
100
AcDbPolyline
 62
250
  6
CONTINUOUS
 90
9
 70
0
 10
64.3056031503
 20
-38.9059411084
 10
64.3073130476
 20
-38.8550878324
 10
64.3126559451
 20
-38.8020263779
 10
64.3216318428
 20
-38.746756745
 10
64.334285527
 20
-38.6889103066
 10
64.3505722114
 20
-38.6288556898
 10
64.3703575369
 20
-38.5676987754
 10
64.3937529292
 20
-38.5053816812
 10
64.4206469625
 20
-38.4419622895
  0
LINE
  5
663
100
AcDbEntity
  8
SCATOLA
100
AcDbLine
 62
7
  6
CONTINUOUS
 10
65.4894032697
 20
-19.9180493086
 11
65.4691589396
 21
-20.5046433613
  0
LWPOLYLINE
  5
664
100
AcDbEntity
  8
SCATOLA
100
AcDbPolyline
 62
7
  6
CONTINUOUS
 90
27
 70
0
 10
65.333015678
 20
-20.7451052079
 10
65.3115758819
 20
-21.3233865497
 10
65.2503277315
 20
-21.921567963
 10
65.1492712267
 20
-22.5396494479
 10
65.0073997334
 20
-23.1812964412
 10
64.8257198857
 20
-23.8428435061
 10
64.6072515869
 20
-24.5132943319
 10
64.351379928
 20
-25.1927977425
 10
64.058719818
 20
-25.881204914
 10
63.7341358865
 20
-26.567073064
 10
63.3770945356
 20
-27.2503597535
 10
62.9881293632
 20
-27.9311074216
 10
62.5737057926
 20
-28.5980006029
 10
62.1333982938
 20
-29.2508077236
 10
61.6676323969
 20
-29.8897603575
 10
61.1841501157
 20
-30.5042377613
 10
60.6826553256
 20
-31.0938308382
 10
60.1634441511
 20
-31.6589486849
 10
59.6351469796
 20
-32.1901978483
 10
59.097611941
 20
-32.6870122227
 10
58.5509909054
 20
-33.1499579137
 10
58.0043698697
 20
-33.5713397853
 10
57.457748834
 20
-33.9504631098
 10
56.9111277984
 20
-34.288022615
 10
56.3735927598
 20
-34.5784073483
 10
55.8452955882
 20
-34.8208287965
 10
55.5048852009
 20
-34.9542585192
  0
LWPOLYLINE
  5
665
100
AcDbEntity
  8
SCATOLA
100
AcDbPolyline
 62
7
  6
CONTINUOUS
 90
18
 70
0
 10
64.50206529
 20
-38.5621226658
 10
64.5025259058
 20
-38.5554757063
 10
64.5045326002
 20
-38.5406605874
 10
64.509022851
 20
-38.5181582925
 10
64.5168838783
 20
-38.4881971348
 10
64.5287515502
 20
-38.4516055567
 10
64.5452986385
 20
-38.4087472706
 10
64.566785825
 20
-38.3609078574
 10
64.5926826927
 20
-38.3104399188
 10
64.6226496289
 20
-38.2586754279
 10
64.6562136543
 20
-38.2068554058
 10
64.6919992935
 20
-38.1571905425
 10
64.7290679344
 20
-38.1107883213
 10
64.7664401682
 20
-38.0685408168
 10
64.8023986243
 20
-38.031883071
 10
64.8358439472
 20
-38.0011966309
 10
64.8658294902
 20
-37.9765510825
 10
64.8801821706
 20
-37.965781393
  0
LWPOLYLINE
  5
666
100
AcDbEntity
  8
SCATOLA
100
AcDbPolyline
 62
250
  6
CONTINUOUS
 90
6
 70
0
 10
64.9725900438
 20
-37.7430739621
 10
64.9676447148
 20
-37.8064227185
 10
64.9537639347
 20
-37.8624741327
 10
64.9311964658
 20
-37.9102236877
 10
64.9003467476
 20
-37.9488156472
 10
64.8801813192
 20
-37.96578023
  0
LWPOLYLINE
  5
667
100
AcDbEntity
  8
SCATOLA
100
AcDbPolyline
 62
250
  6
CONTINUOUS
 90
7
 70
0
 10
68.3431288122
 20
6.366859809
 10
68.335123401
 20
6.273190663
 10
68.3088878683
 20
6.1743012021
 10
68.2648193203
 20
6.0786337645
 10
68.2036551424
 20
5.9877891237
 10
68.1264187758
 20
5.903287355
 10
68.0344025925
 20
5.8265424002
  0
LINE
  5
668
100
AcDbEntity
  8
SCATOLA
100
AcDbLine
 62
7
  6
CONTINUOUS
 10
65.4691589396
 20
-20.5046433613
 11
65.4109691233
 21
-21.1108121581
  0
LWPOLYLINE
  5
669
100
AcDbEntity
  8
SCATOLA
100
AcDbPolyline
 62
7
  6
CONTINUOUS
 90
4
 70
0
 10
65.4109691233
 20
-21.1108121581
 10
65.314833821
 20
-21.7365556989
 10
65.1799176577
 20
-22.3851027633
 10
65.1653059208
 20
-22.4415781015
  0
LINE
  5
66A
100
AcDbEntity
  8
SCATOLA
100
AcDbLine
 62
7
  6
CONTINUOUS
 10
42.8903079335
 20
-63.7676398223
 11
42.7845558924
 21
-63.9947983182
  0
LWPOLYLINE
  5
66B
100
AcDbEntity
  8
SUPERFICI
100
AcDbPolyline
 62
250
  6
CONTINUOUS
 90
10
 70
0
 10
25.2402224106
 20
-74.0931240218
 10
25.1781122315
 20
-74.1749960383
 10
25.1131791125
 20
-74.249284042
 10
25.0453710273
 20
-74.3161340982
 10
24.9746222556
 20
-74.3756089914
 10
24.9009112939
 20
-74.4279408988
 10
24.824244129
 20
-74.4735006203
 10
24.7445837713
 20
-74.5124752735
 10
24.6618668286
 20
-74.5448990753
 10
24.5760498072
 20
-74.5708844841
  0
LINE
  5
66C
100
AcDbEntity
  8
SCATOLA
100
AcDbLine
 62
250
  6
CONTINUOUS
 10
64.9725900495
 20
-37.743073966
 11
66.6811236969
 21
-36.5048081056
  0
LINE
  5
66D
100
AcDbEntity
  8
SCATOLA
100
AcDbLine
 62
250
  6
CONTINUOUS
 10
66.6811236969
 20
-36.5048081056
 11
68.0344025925
 21
-35.5257703746
  0
LWPOLYLINE
  5
66E
100
AcDbEntity
  8
SCATOLA
100
AcDbPolyline
 62
7
  6
CONTINUOUS
 90
29
 70
0
 10
-15.6944289293
 20
60.3918543409
 10
-16.228087737
 20
60.3065914467
 10
-16.9806160847
 20
60.1514044074
 10
-17.7134033009
 20
59.9566521996
 10
-18.4267739285
 20
59.722985272
 10
-19.1088702399
 20
59.4542876631
 10
-19.7591694932
 20
59.1499738445
 10
-20.3781944303
 20
58.8106293445
 10
-20.955655548
 20
58.441894786
 10
-21.4908581185
 20
58.0432789223
 10
-21.9844968697
 20
57.6152730001
 10
-22.4283664821
 20
57.1649913825
 10
-22.8216350782
 20
56.6920617375
 10
-23.1651345353
 20
56.1968563971
 10
-23.4531551666
 20
55.687606721
 10
-23.6847696586
 20
55.1640779619
 10
-23.8609053246
 20
54.626504867
 10
-23.9786344176
 20
54.0838230375
 10
-24.0369806877
 20
53.5359470824
 10
-24.0369203848
 20
52.9829623926
 10
-23.9784545113
 20
52.4340607428
 10
-23.860606834
 20
51.8893103797
 10
-23.684353586
 20
51.3486430565
 10
-23.4526244689
 20
50.821045807
 10
-23.1644922187
 20
50.3067370939
 10
-22.8208840995
 20
49.8054984544
 10
-22.4275116044
 20
49.3256615344
 10
-21.9862785646
 20
48.8700035491
 10
-21.4952811489
 20
48.4357472832
  0
LWPOLYLINE
  5
66F
100
AcDbEntity
  8
SCATOLA
100
AcDbPolyline
 62
7
  6
CONTINUOUS
 90
23
 70
0
 10
-15.8467083976
 20
60.3705423379
 10
-16.4166375531
 20
60.2799351014
 10
-17.1661496249
 20
60.126221059
 10
-17.9015192121
 20
59.9355325239
 10
-18.612085027
 20
59.7106340724
 10
-19.2974857218
 20
59.4510273253
 10
-19.9580826442
 20
59.1572106618
 10
-20.5842985506
 20
58.8334437956
 10
-21.175632569
 20
58.4792904043
 10
-21.7325855713
 20
58.0951868104
 10
-22.2470829289
 20
57.6867016953
 10
-22.7185061369
 20
57.2534798624
 10
-23.1474737003
 20
56.7958765084
 10
-23.5277665059
 20
56.3205259039
 10
-23.8586754471
 20
55.8271695024
 10
-24.1409096306
 20
55.3160658506
 10
-24.3703772638
 20
54.7946248592
 10
-24.5463096296
 20
54.2626959312
 10
-24.6694754451
 20
53.7204296637
 10
-24.7380890692
 20
53.1756877589
 10
-24.751355771
 20
52.628434151
 10
-24.7100702814
 20
52.0787049059
 10
-24.6386364083
 20
51.670502806
  0
LWPOLYLINE
  5
670
100
AcDbEntity
  8
SCATOLA
100
AcDbPolyline
 62
7
  6
CONTINUOUS
 90
19
 70
0
 10
-15.7005205088
 20
60.5679193059
 10
-16.4813557764
 20
60.4491361684
 10
-17.2475236719
 20
60.2920062585
 10
-17.9992348055
 20
60.0970802004
 10
-18.7255909719
 20
59.8671840055
 10
-19.4262227932
 20
59.6018082196
 10
-20.1014996473
 20
59.3014622968
 10
-20.7416314626
 20
58.9705006114
 10
-21.346106237
 20
58.6084771448
 10
-21.9154359727
 20
58.2158379154
 10
-22.441366605
 20
57.7982753533
 10
-22.9232658842
 20
57.3554263686
 10
-23.3617660601
 20
56.8876540511
 10
-23.750509817
 20
56.4017400999
 10
-24.0887722902
 20
55.8974202228
 10
-24.3772783445
 20
55.374958712
 10
-24.6118452584
 20
54.8419301431
 10
-24.7916872324
 20
54.2981805723
 10
-24.917590066
 20
53.7438639433
  0
LWPOLYLINE
  5
671
100
AcDbEntity
  8
SCATOLA
100
AcDbPolyline
 62
250
  6
CONTINUOUS
 90
12
 70
0
 10
68.0344025925
 20
-44.378039064
 10
68.0302896769
 20
-44.551867291
 10
68.0170928263
 20
-44.7280574497
 10
67.9934958517
 20
-44.9051367375
 10
67.9579685669
 20
-45.0822473238
 10
67.9092342706
 20
-45.2567127193
 10
67.8467956353
 20
-45.4245147498
 10
67.7698033632
 20
-45.5839840775
 10
67.677439839
 20
-45.7334213407
 10
67.5702469022
 20
-45.8695834508
 10
67.4480177156
 20
-45.9911750996
 10
67.3591655046
 20
-46.0627301173
  0
LWPOLYLINE
  5
672
100
AcDbEntity
  8
SCATOLA
100
AcDbPolyline
 62
250
  6
CONTINUOUS
 90
5
 70
0
 10
68.2442893049
 20
-39.3383520483
 10
68.2438961909
 20
-39.3548096334
 10
68.235478508
 20
-39.4165092773
 10
68.216220907
 20
-39.4769815082
 10
68.1864253937
 20
-39.5352775922
  0
LWPOLYLINE
  5
673
100
AcDbEntity
  8
SCATOLA
100
AcDbPolyline
 62
250
  6
CONTINUOUS
 90
12
 70
0
 10
68.3431262967
 20
-39.908980905
 10
68.341210479
 20
-39.9619838862
 10
68.3343715463
 20
-40.023137971
 10
68.3222710436
 20
-40.0839519574
 10
68.3046222884
 20
-40.1441514657
 10
68.2815161155
 20
-40.2027610456
 10
68.2530169239
 20
-40.2593329091
 10
68.2190921984
 20
-40.3137309159
 10
68.180047071
 20
-40.365505276
 10
68.1361496016
 20
-40.4143472968
 10
68.0875257431
 20
-40.460055747
 10
68.0344025925
 20
-40.5023856921
  0
LWPOLYLINE
  5
674
100
AcDbEntity
  8
SCATOLA
100
AcDbPolyline
 62
250
  6
CONTINUOUS
 90
6
 70
0
 10
68.0343996938
 20
-35.5257683938
 10
68.0302062057
 20
-35.5831946331
 10
68.018763694
 20
-35.6347957016
 10
68.0002382744
 20
-35.679822492
 10
67.9748988868
 20
-35.7176213376
 10
67.9409401972
 20
-35.7492385414
  0
LWPOLYLINE
  5
675
100
AcDbEntity
  8
SCATOLA
100
AcDbPolyline
 62
250
  6
CONTINUOUS
 90
7
 70
0
 10
68.3431288122
 20
-43.8377216525
 10
68.3351236741
 20
-43.9313892074
 10
68.3088883572
 20
-44.0302789071
 10
68.264819912
 20
-44.1259466494
 10
68.2036557031
 20
-44.2167916289
 10
68.1264191442
 20
-44.3012937574
 10
68.0344025925
 20
-44.3780390639
  0
LWPOLYLINE
  5
676
100
AcDbEntity
  8
SCATOLA
100
AcDbPolyline
 62
250
  6
CONTINUOUS
 90
4
 70
0
 10
64.4206469625
 20
-38.4419622895
 10
64.4505710007
 20
-38.3787201274
 10
64.4836023122
 20
-38.3156752659
 10
64.5196636285
 20
-38.2528076341
  0
LWPOLYLINE
  5
677
100
AcDbEntity
  8
ASSI
100
AcDbPolyline
 62
7
  6
CONTINUOUS
 90
6
 70
0
 10
42.6807961502
 20
-64.1632486725
 10
42.8231464642
 20
-63.9202414861
 10
42.934465987
 20
-63.6469775413
 10
43.0136849369
 20
-63.3452830696
 10
43.0618730954
 20
-63.0133318396
 10
43.0790304628
 20
-62.6511238511
  0
LINE
  5
678
100
AcDbEntity
  8
SCATOLA
100
AcDbLine
 62
250
  6
CONTINUOUS
 10
64.5196636285
 20
-38.2528076341
 11
64.5580545079
 21
-38.1913365461
  0
LINE
  5
679
100
AcDbEntity
  8
SCATOLA
100
AcDbLine
 62
7
  6
CONTINUOUS
 10
42.7845558924
 20
-63.9947983182
 11
42.6579025517
 21
-64.19617625
  0
LWPOLYLINE
  5
67A
100
AcDbEntity
  8
0
100
AcDbPolyline
 62
7
  6
CONTINUOUS
 90
7
 70
0
 10
41.5275061025
 20
-64.9948432599
 10
41.6539800129
 20
-64.7939524892
 10
41.7591566491
 20
-64.5677460448
 10
41.841287753
 20
-64.3199839558
 10
41.8997905719
 20
-64.0519195654
 10
41.9352478585
 20
-63.7622995305
 10
41.9476596129
 20
-63.4511238511
  0
LWPOLYLINE
  5
67B
100
AcDbEntity
  8
COPY_GEOM
100
AcDbPolyline
 62
7
  6
CONTINUOUS
 90
7
 70
0
 10
41.5275061025
 20
-64.9948432599
 10
41.6539800129
 20
-64.7939524892
 10
41.7591566491
 20
-64.5677460448
 10
41.841287753
 20
-64.3199839558
 10
41.8997905719
 20
-64.0519195654
 10
41.9352478585
 20
-63.7622995305
 10
41.9476596129
 20
-63.4511238511
  0
LWPOLYLINE
  5
67C
100
AcDbEntity
  8
SCATOLA
100
AcDbPolyline
 62
250
  6
CONTINUOUS
 90
8
 70
0
 10
64.5580545079
 20
-38.1913365461
 10
64.5988479699
 20
-38.1312882471
 10
64.6419709948
 20
-38.0726364918
 10
64.6865040821
 20
-38.016521859
 10
64.7324698006
 20
-37.9630401275
 10
64.7798455814
 20
-37.9120955184
 10
64.8276442174
 20
-37.8645412736
 10
64.8755366396
 20
-37.8206618069
  0
LWPOLYLINE
  5
67D
100
AcDbEntity
  8
SCATOLA
100
AcDbPolyline
 62
7
  6
CONTINUOUS
 90
3
 70
0
 10
42.6579025517
 20
-64.19617625
 10
42.5105133547
 20
-64.370823457
 10
42.3253830098
 20
-64.5321173197
  0
LWPOLYLINE
  5
67E
100
AcDbEntity
  8
SCATOLA
100
AcDbPolyline
 62
250
  6
CONTINUOUS
 90
10
 70
0
 10
68.1379913755
 20
-35.4397353513
 10
68.1825186776
 20
-35.3944062096
 10
68.2219761481
 20
-35.3477460768
 10
68.256096607
 20
-35.3001744828
 10
68.2845876956
 20
-35.2524373169
 10
68.3074818256
 20
-35.2047104089
 10
68.3246855901
 20
-35.1574311151
 10
68.3361023063
 20
-35.111796767
 10
68.3420429131
 20
-35.0681871007
 10
68.3431268725
 20
-35.0417504348
  0
LWPOLYLINE
  5
67F
100
AcDbEntity
  8
SCATOLA
100
AcDbPolyline
 62
250
  6
CONTINUOUS
 90
7
 70
0
 10
64.3056031503
 20
-38.9059411084
 10
64.3664085716
 20
-38.8549479875
 10
64.4169662575
 20
-38.7986368945
 10
64.4563580141
 20
-38.7380303376
 10
64.4838684037
 20
-38.6742288266
 10
64.4989977154
 20
-38.608390946
 10
64.5020651861
 20
-38.5623724856
  0
LWPOLYLINE
  5
680
100
AcDbEntity
  8
SCATOLA
100
AcDbPolyline
 62
250
  6
CONTINUOUS
 90
7
 70
0
 10
64.3056031503
 20
-42.5828963706
 10
64.366409303
 20
-42.5319025468
 10
64.4169672814
 20
-42.4755908292
 10
64.4563589808
 20
-42.4149838071
 10
64.4838690697
 20
-42.3511820706
 10
64.4989979801
 20
-42.2853442237
 10
64.50206529
 20
-42.2390580193
  0
LINE
  5
681
100
AcDbEntity
  8
SCATOLA
100
AcDbLine
 62
250
  6
CONTINUOUS
 10
64.8755366396
 20
-37.8206618069
 11
64.923851917
 21
-37.7801727043
  0
LINE
  5
682
100
AcDbEntity
  8
SCATOLA
100
AcDbLine
 62
250
  6
CONTINUOUS
 10
68.096087791
 20
-35.5405703235
 11
68.0391032816
 21
-35.5871164199
  0
LINE
  5
683
100
AcDbEntity
  8
SCATOLA
100
AcDbLine
 62
250
  6
CONTINUOUS
 10
68.0972478002
 20
-39.6417325372
 11
68.0392641973
 21
-39.6882219523
  0
LWPOLYLINE
  5
684
100
AcDbEntity
  8
SCATOLA
100
AcDbPolyline
 62
250
  6
CONTINUOUS
 90
3
 70
0
 10
68.0344025925
 20
-35.5257703746
 10
68.088539235
 20
-35.4836100977
 10
68.1379913755
 20
-35.4397353513
  0
LWPOLYLINE
  5
685
100
AcDbEntity
  8
SCATOLA
100
AcDbPolyline
 62
7
  6
CONTINUOUS
 90
5
 70
0
 10
67.9404730582
 20
-35.7495751146
 10
68.0012140602
 20
-35.7027927474
 10
68.0746604171
 20
-35.6368705341
 10
68.137536787
 20
-35.5694885312
 10
68.1926782083
 20
-35.4983586415
  0
LINE
  5
686
100
AcDbEntity
  8
SCATOLA
100
AcDbLine
 62
250
  6
CONTINUOUS
 10
64.923851917
 20
-37.7801727043
 11
64.9725900495
 21
-37.743073966
  0
LINE
  5
687
100
AcDbEntity
  8
SCATOLA
100
AcDbLine
 62
250
  6
CONTINUOUS
 10
68.0344025925
 20
-40.5023856921
 11
66.3409221777
 21
-41.7570122493
  0
LINE
  5
688
100
AcDbEntity
  8
SCATOLA
100
AcDbLine
 62
250
  6
CONTINUOUS
 10
66.3409221777
 20
-41.7570122493
 11
64.9725900495
 21
-42.7689872021
  0
LINE
  5
689
100
AcDbEntity
  8
SCATOLA
100
AcDbLine
 62
7
  6
CONTINUOUS
 10
64.8800933996
 20
-37.9658440505
 11
66.6755031568
 21
-36.6646801152
  0
LINE
  5
68A
100
AcDbEntity
  8
SCATOLA
100
AcDbLine
 62
7
  6
CONTINUOUS
 10
66.6755031568
 20
-36.6646801152
 11
67.9409407057
 21
-35.7492392393
  0
LINE
  5
68B
100
AcDbEntity
  8
SCATOLA
100
AcDbLine
 62
7
  6
CONTINUOUS
 10
68.0392640756
 20
-39.6882220382
 11
64.645787295
 21
-42.0877724816
  0
LWPOLYLINE
  5
68C
100
AcDbEntity
  8
SCATOLA
100
AcDbPolyline
 62
250
  6
CONTINUOUS
 90
22
 70
0
 10
64.9725900495
 20
-42.7689872021
 10
64.9238485935
 20
-42.8032666071
 10
64.8755280362
 20
-42.8335360098
 10
64.8276283778
 20
-42.8597954102
 10
64.7798193065
 20
-42.8822429825
 10
64.7324311339
 20
-42.9006805525
 10
64.6864547954
 20
-42.9145135977
 10
64.6419135325
 20
-42.9236120513
 10
64.5987841037
 20
-42.9281059801
 10
64.5579877191
 20
-42.9277910623
 10
64.5195985402
 20
-42.9225336817
 10
64.4835424056
 20
-42.9124674545
 10
64.4505180402
 20
-42.8977889073
 10
64.4206030992
 20
-42.8783656861
 10
64.3937199275
 20
-42.854330145
 10
64.3703342849
 20
-42.8262758732
 10
64.3505568657
 20
-42.7940987971
 10
64.3342769756
 20
-42.7579029904
 10
64.3216282914
 20
-42.7185942634
 10
64.3126553718
 20
-42.6764745527
 10
64.3073136581
 20
-42.6312419218
 10
64.3056031503
 20
-42.5828963706
  0
LWPOLYLINE
  5
68D
100
AcDbEntity
  8
SCATOLA
100
AcDbPolyline
 62
7
  6
CONTINUOUS
 90
7
 70
0
 10
64.645787295
 20
-42.0877724816
 10
64.6174062548
 20
-42.1057937336
 10
64.5903778136
 20
-42.1195352737
 10
64.5647019715
 20
-42.1289971019
 10
64.5399818444
 20
-42.1341999205
 10
64.5166143163
 20
-42.1351230271
 10
64.50206529
 20
-42.1327345199
  0
LWPOLYLINE
  5
68E
100
AcDbEntity
  8
SCATOLA
100
AcDbPolyline
 62
250
  6
CONTINUOUS
 90
4
 70
0
 10
68.2155224447
 20
-35.3667770261
 10
68.1849835027
 20
-35.4293804596
 10
68.1449360709
 20
-35.4877794547
 10
68.096087791
 20
-35.5405703235
  0
LWPOLYLINE
  5
68F
100
AcDbEntity
  8
SCATOLA
100
AcDbPolyline
 62
250
  6
CONTINUOUS
 90
5
 70
0
 10
68.2427734134
 20
-39.4749895185
 10
68.213472469
 20
-39.5303180547
 10
68.1684100976
 20
-39.5856079827
 10
68.1086900292
 20
-39.6395050651
 10
68.0392640756
 20
-39.6882220382
  0
LWPOLYLINE
  5
690
100
AcDbEntity
  8
SCATOLA
100
AcDbPolyline
 62
7
  6
CONTINUOUS
 90
7
 70
0
 10
68.1926782083
 20
-35.4983586415
 10
68.240321885
 20
-35.4227465598
 10
68.2791944659
 20
-35.3442643263
 10
68.3093053283
 20
-35.2626879045
 10
68.330196825
 20
-35.1783708954
 10
68.3413301436
 20
-35.0919005546
 10
68.3431118892
 20
-35.0418534107
  0
LWPOLYLINE
  5
691
100
AcDbEntity
  8
SCATOLA
100
AcDbPolyline
 62
250
  6
CONTINUOUS
 90
3
 70
0
 10
68.1864253937
 20
-39.5352775922
 10
68.1465593088
 20
-39.5904831646
 10
68.0972478002
 20
-39.6417325372
  0
LWPOLYLINE
  5
692
100
AcDbEntity
  8
0
100
AcDbPolyline
 62
7
  6
CONTINUOUS
 90
3
 70
0
 10
41.2099545027
 20
-65.3198314908
 10
41.3793789398
 20
-65.1699952122
 10
41.5275061025
 20
-64.9948432599
  0
LWPOLYLINE
  5
693
100
AcDbEntity
  8
COPY_GEOM
100
AcDbPolyline
 62
7
  6
CONTINUOUS
 90
3
 70
0
 10
41.2099545027
 20
-65.3198314908
 10
41.3793789398
 20
-65.1699952122
 10
41.5275061025
 20
-64.9948432599
  0
LWPOLYLINE
  5
694
100
AcDbEntity
  8
ASSI
100
AcDbPolyline
 62
7
  6
CONTINUOUS
 90
3
 70
0
 10
42.2999932608
 20
-64.5504554158
 10
42.5106243898
 20
-64.370520406
 10
42.6807961502
 20
-64.1632486725
  0
LWPOLYLINE
  5
695
100
AcDbEntity
  8
SCATOLA
100
AcDbPolyline
 62
7
  6
CONTINUOUS
 90
10
 70
0
 10
67.3591653842
 20
-46.0627302061
 10
67.5436973956
 20
-45.9101899796
 10
67.714749997
 20
-45.7335319804
 10
67.869780055
 20
-45.5329306263
 10
68.0062228231
 20
-45.3090659363
 10
68.1220372916
 20
-45.0623381256
 10
68.2156424947
 20
-44.7920705456
 10
68.2851249287
 20
-44.4976770129
 10
68.3282924411
 20
-44.1795375848
 10
68.3431288122
 20
-43.8377216525
  0
LINE
  5
696
100
AcDbEntity
  8
0
100
AcDbLine
 62
7
  6
CONTINUOUS
 10
41.1695492489
 20
-65.3498000818
 11
41.2099545027
 21
-65.3198314908
  0
LINE
  5
697
100
AcDbEntity
  8
SCATOLA
100
AcDbLine
 62
7
  6
CONTINUOUS
 10
67.3591653844
 20
-46.062730206
 11
42.3250006692
 21
-64.5323994958
  0
LINE
  5
698
100
AcDbEntity
  8
SCATOLA
100
AcDbLine
 62
250
  6
CONTINUOUS
 10
68.0344025925
 20
-44.378039064
 11
43.0790304628
 21
-62.6511238511
  0
LWPOLYLINE
  5
699
100
AcDbEntity
  8
SUPERFICI
100
AcDbPolyline
 62
250
  6
CONTINUOUS
 90
6
 70
0
 10
27.2125826224
 20
-74.8007538998
 10
27.3262729664
 20
-74.7179667763
 10
27.4220219249
 20
-74.631234904
 10
27.50987616
 20
-74.536605525
 10
27.5901973868
 20
-74.4340880756
 10
27.6629604268
 20
-74.3240364143
  0
LINE
  5
69A
100
AcDbEntity
  8
COPY_GEOM
100
AcDbLine
 62
7
  6
CONTINUOUS
 10
41.1447106493
 20
-65.3670039035
 11
41.2099545027
 21
-65.3198314908
  0
LWPOLYLINE
  5
69B
100
AcDbEntity
  8
SUPERFICI
100
AcDbPolyline
 62
7
  6
CONTINUOUS
 90
10
 70
0
 10
33.1125157194
 20
-70.8070006298
 10
33.176158749
 20
-70.7611959181
 10
33.3400629027
 20
-70.6162416906
 10
33.4833637021
 20
-70.4467966391
 10
33.6057168063
 20
-70.2524510905
 10
33.7074665561
 20
-70.0336147179
 10
33.7869215406
 20
-69.7939259857
 10
33.843517956
 20
-69.5345977154
 10
33.8778196059
 20
-69.2544170854
 10
33.8898264905
 20
-68.9533840959
  0
LINE
  5
69C
100
AcDbEntity
  8
0
100
AcDbLine
 62
250
  6
CONTINUOUS
 10
43.0790304628
 20
-62.6511238511
 11
41.9476596129
 21
-63.4511238511
  0
LINE
  5
69D
100
AcDbEntity
  8
ASSI
100
AcDbLine
 62
7
  6
CONTINUOUS
 10
42.3004913908
 20
-64.5501033367
 11
41.1691205409
 21
-65.3501033367
  0
LINE
  5
69E
100
AcDbEntity
  8
RACCORDO
100
AcDbLine
 62
250
  6
CONTINUOUS
 10
41.9476596129
 20
-63.4511238511
 11
34.3871631038
 21
-68.6137717036
  0
LINE
  5
69F
100
AcDbEntity
  8
SUPERFICI
100
AcDbLine
 62
250
  6
CONTINUOUS
 10
33.8898264905
 20
-68.9533748428
 11
27.9718198362
 21
-72.9944559742
  0
LINE
  5
6A0
100
AcDbEntity
  8
SUPERFICI
100
AcDbLine
 62
7
  6
CONTINUOUS
 10
27.2108258655
 20
-74.8019469629
 11
27.2125826224
 21
-74.8007538998
  0
LINE
  5
6A1
100
AcDbEntity
  8
COPY_GEOM
100
AcDbLine
 62
7
  6
CONTINUOUS
 10
41.1442594402
 20
-65.3673096257
 11
33.6083242801
 21
-70.4713763263
  0
LINE
  5
6A2
100
AcDbEntity
  8
SUPERFICI
100
AcDbLine
 62
7
  6
CONTINUOUS
 10
33.1126042453
 20
-70.8071270629
 11
27.2136475644
 21
-74.8024733742
  0
LINE
  5
6A3
100
AcDbEntity
  8
SCATOLA
100
AcDbLine
 62
7
  6
CONTINUOUS
 10
42.3253830098
 20
-64.5321173197
 11
42.3098185965
 21
-64.5420619658
  0
LINE
  5
6A4
100
AcDbEntity
  8
0
100
AcDbLine
 62
7
  6
CONTINUOUS
 10
41.1439466339
 20
-65.3657798025
 11
41.1695492489
 21
-65.3498000818
  0
LINE
  5
6A5
100
AcDbEntity
  8
RACCORDO
100
AcDbLine
 62
7
  6
CONTINUOUS
 10
33.3937547667
 20
-70.5964228852
 11
33.6083242802
 21
-70.4713763263
  0
LWPOLYLINE
  5
6A6
100
AcDbEntity
  8
RACCORDO
100
AcDbPolyline
 62
250
  6
CONTINUOUS
 90
8
 70
0
 10
34.3871631038
 20
-68.6137717036
 10
34.3202337014
 20
-68.6521717726
 10
34.2449723031
 20
-68.6818736026
 10
34.1636152788
 20
-68.7019946127
 10
34.0785801284
 20
-68.711936913
 10
33.9923936459
 20
-68.711405071
 10
33.907616837
 20
-68.7004148903
 10
33.8898264905
 20
-68.6957670732
  0
LINE
  5
6A7
100
AcDbEntity
  8
RACCORDO
100
AcDbLine
 62
7
  6
CONTINUOUS
 10
33.3348891777
 20
-70.6208172508
 11
33.3937547667
 21
-70.5964228852
  0
ENDSEC
  0
SECTION
  2
OBJECTS
  0
DICTIONARY
  5
C
100
AcDbDictionary
280
0
281
1
  3
ACAD_GROUP
350
D
  3
ACAD_MLINESTYLE
350
17
  3
ACAD_LAYOUT
350
1A
  3
ACAD_PLOTSETTINGS
350
19
  3
ACAD_PLOTSTYLENAME
350
E
  0
DICTIONARY
  5
D
102
{ACAD_REACTORS
330
C
102
}
100
AcDbDictionary
280
0
281
1
  0
ACDBDICTIONARYWDFLT
  5
E
102
{ACAD_REACTORS
330
C
102
}
100
AcDbDictionary
281
1
  3
Normal
350
F
100
AcDbDictionaryWithDefault
340
F
  0
DICTIONARY
  5
17
102
{ACAD_REACTORS
330
C
102
}
100
AcDbDictionary
280
0
281
1
  3
Standard
350
18
  0
DICTIONARY
  5
19
102
{ACAD_REACTORS
330
C
102
}
100
AcDbDictionary
281
1
  0
DICTIONARY
  5
1A
102
{ACAD_REACTORS
330
C
102
}
100
AcDbDictionary
281
1
  3
Model
350
6A8
  3
Layout1
350
6A9
  0
ACDBPLACEHOLDER
  5
F
102
{ACAD_REACTORS
330
E
102
}
  0
MLINESTYLE
  5
18
102
{ACAD_REACTORS
330
17
102
}
100
AcDbMlineStyle
  2
STANDARD
 70
0
  3

 62
256
 51
90.0
 52
90.0
 71
2
 49
0.5
 62
256
  6
BYLAYER
 49
-0.5
 62
256
  6
BYLAYER
  0
LAYOUT
  5
6A8
102
{ACAD_REACTORS
330
1A
102
}
100
AcDbPlotSettings
  1

  2
none_device
  4
ISO_A4_(297.00_x_210.00_MM)
  6

 40
0.0
 41
0.0
 42
0.0
 43
0.0
 44
297.0
 45
210.0
 46
0.0
 47
0.0
 48
0.0
 49
0.0
140
0.0
141
0.0
142
1.0
143
1.0
 70
1024
 72
1
 73
0
 74
0
  7

 75
0
147
1.0
148
0.0
149
0.0
100
AcDbLayout
  1
Model
 70
0
 71
0
 10
0.0
 20
0.0
 11
297.0
 21
210.0
 12
0.0
 22
0.0
 32
0.0
 14
0.0
 24
0.0
 34
0.0
 15
0.0
 25
0.0
 35
0.0
146
0.0
 13
0.0
 23
0.0
 33
0.0
 16
1.0
 26
0.0
 36
0.0
 17
0.0
 27
1.0
 37
0.0
 76
0
330
21E
345
0
346
0
  0
LAYOUT
  5
6A9
102
{ACAD_REACTORS
330
1A
102
}
100
AcDbPlotSettings
  1

  2
none_device
  4
ISO_A4_(297.00_x_210.00_MM)
  6

 40
0.0
 41
0.0
 42
0.0
 43
0.0
 44
297.0
 45
210.0
 46
0.0
 47
0.0
 48
0.0
 49
0.0
140
0.0
141
0.0
142
1.0
143
1.0
 70
0
 72
1
 73
0
 74
0
  7

 75
0
147
1.0
148
0.0
149
0.0
100
AcDbLayout
  1
Layout1
 70
0
 71
1
 10
0.0
 20
0.0
 11
297.0
 21
210.0
 12
0.0
 22
0.0
 32
0.0
 14
0.0
 24
0.0
 34
0.0
 15
0.0
 25
0.0
 35
0.0
146
0.0
 13
0.0
 23
0.0
 33
0.0
 16
1.0
 26
0.0
 36
0.0
 17
0.0
 27
1.0
 37
0.0
 76
0
330
21F
345
0
346
0
  0
ENDSEC
  0
EOF
